  0
SECTION
  2
HEADER
  9
$ACADVER
  1
AC1009
  9
$LIMMIN
 10
-1.829788
 20
-5.174717
  9
$LIMMAX
 10
505.6322
 20
375.4218
  0
ENDSEC
  0
SECTION
  2
TABLES
  0
TABLE
  2
LTYPE
 70
     4
  0
LTYPE
  2
CONTINUOUS
 70
     0
  3
Solid line
 72
    65
 73
     0
 40
0.000000
  0
LTYPE
  2
HIDDEN
 70
     0
  3
 _ _ _ _ _ _ _ _ _ _ _
 72
    65
 73
     2
 40
0.375000
 49
0.250000
 49
-0.125000
  0
LTYPE
  2
DASHED
 70
     0
  3
 ___ ___ ___ ___ ___ ___ ___ 
 72
    65
 73
     2
 40
0.750000
 49
0.500000
 49
-0.250000
  0
LTYPE
  2
CENTER
 70
     0
  3
___ _ ___ _ ___ _ ___
 72
    65
 73
     4
 40
2.000000
 49
1.250000
 49
-0.250000
 49
0.250000
 49
-0.250000
  0
LTYPE
  2
BORDER
 70
     0
  3
___ ___ . ___ ___ . ___ ___
 72
    65
 73
     6
 40
1.750000
 49
0.500000
 49
-0.250000
 49
0.500000
 49
-0.250000
 49
0.000000
 49
-0.250000
  0
LTYPE
  2
DOT
 70
     0
  3
.................
 72
    65
 73
     2
 40
0.250000
 49
0.000000
 49
-0.250000
  0
LTYPE
  2
DASHDOT
 70
     0
  3
__ . __ . __ . __
 72
    65
 73
     4
 40
1.000000
 49
0.500000
 49
-0.250000
 49
0.000000
 49
-0.250000
  0
LTYPE
  2
DIVIDE
 70
     0
  3
___ .. ___ .. ___ .. ___
 72
    65
 73
     6
 40
1.250000
 49
0.500000
 49
-0.250000
 49
0.000000
 49
-0.250000
 49
0.000000
 49
-0.250000
  0
ENDTAB
  0
TABLE
  2
LAYER
 70
     8
  0
LAYER
  2
BLACK
 70
     0
 62
     0
  6
CONTINUOUS
  0
LAYER
  2
WHITE
 70
     0
 62
     7
  6
CONTINUOUS
  0
LAYER
  2
RED
 70
     0
 62
     1
  6
CONTINUOUS
  0
LAYER
  2
YELLOW
 70
     0
 62
     2
  6
CONTINUOUS
  0
LAYER
  2
GREEN
 70
     0
 62
     3
  6
CONTINUOUS
  0
LAYER
  2
CYAN
 70
     0
 62
     4
  6
CONTINUOUS
  0
LAYER
  2
BLUE
 70
     0
 62
     5
  6
CONTINUOUS
  0
LAYER
  2
MAGENTA
 70
     0
 62
     6
  6
CONTINUOUS
  0
ENDTAB
  0
ENDSEC
  0
SECTION
  2
BLOCKS
  0
ENDSEC
  0
SECTION
  2
ENTITIES
 0
LINE
 8
WHITE
 10
121
 20
135
 30
0.0000
 11
121
 21
139
 31
0.0000
 6
CONTINUOUS
 0
ARC
 8
WHITE
 10
120
 20
139
 30
 0
 40
1
 50
0
 51
90
 6
CONTINUOUS
 0
CIRCLE
 8
WHITE
 10
120
 20
120
 30
 0
 40
20
 6
CONTINUOUS
 0
ARC
 8
WHITE
 10
120
 20
139
 30
 0
 40
1
 50
90
 51
180
 6
CONTINUOUS
 0
LINE
 8
WHITE
 10
421.63
 20
71.48
 30
0.0000
 11
413.1
 21
89.25
 31
0.0000
 6
CONTINUOUS
 0
ARC
 8
WHITE
 10
283.82
 20
149.91
 30
 0
 40
142.8039
 50
289.5046
 51
334.8634
 6
CONTINUOUS
 0
ARC
 8
WHITE
 10
150.943
 20
1066.062
 30
 0
 40
1066.162
 50
265.4432
 51
279.7502
 6
CONTINUOUS
 0
ARC
 8
WHITE
 10
68.743
 20
120.54
 30
 0
 40
117.2967
 50
240.1157
 51
268.7773
 6
CONTINUOUS
 0
ARC
 8
WHITE
 10
12.837
 20
23.262
 30
 0
 40
5.098083
 50
104.3906
 51
240.1561
 6
CONTINUOUS
 0
ARC
 8
WHITE
 10
-58.016
 20
299.928
 30
 0
 40
280.4966
 50
284.364
 51
301.6695
 6
CONTINUOUS
 0
ARC
 8
WHITE
 10
19.573
 20
285.211
 30
 0
 40
234.5971
 50
266.7126
 51
287.2779
 6
CONTINUOUS
 0
ARC
 8
WHITE
 10
33.094
 20
65.441
 30
 0
 40
30.59639
 50
198.7423
 51
208.1631
 6
CONTINUOUS
 0
ARC
 8
WHITE
 10
143.481
 20
86.754
 30
 0
 40
142.7986
 50
128.2475
 51
192.5973
 6
CONTINUOUS
 0
ARC
 8
WHITE
 10
163.691
 20
27.70099
 30
 0
 40
202.7448
 50
20.80991
 51
122.3916
 6
CONTINUOUS
 0
ARC
 8
WHITE
 10
363.711
 20
103.69
 30
 0
 40
11.22286
 50
200.6618
 51
38.7826
 6
CONTINUOUS
 0
LINE
 8
WHITE
 10
372.46
 20
110.72
 30
0.0000
 11
363.26
 21
122.22
 31
0.0000
 6
CONTINUOUS
 0
ARC
 8
WHITE
 10
395.124
 20
147.704
 30
 0
 40
40.80133
 50
125.9847
 51
218.6519
 6
CONTINUOUS
 0
LINE
 8
WHITE
 10
371.15
 20
180.72
 30
0.0000
 11
420.75
 21
216.75
 31
0.0000
 6
CONTINUOUS
 0
ARC
 8
WHITE
 10
306.69
 20
340.5
 30
 0
 40
168.2966
 50
312.6667
 51
317.3333
 6
CONTINUOUS
 0
ARC
 8
WHITE
 10
380.12
 20
193.44
 30
 0
 40
60.17559
 50
320.9759
 51
33.25698
 6
CONTINUOUS
 0
LINE
 8
WHITE
 10
426.87
 20
155.55
 30
0.0000
 11
430.09
 21
155.4
 31
0.0000
 6
CONTINUOUS
 0
ARC
 8
WHITE
 10
425.945
 20
66.24999
 30
 0
 40
89.24631
 50
50.04318
 51
87.33797
 6
CONTINUOUS
 0
LINE
 8
WHITE
 10
483.26
 20
134.66
 30
0.0000
 11
503.12
 21
118.02
 31
0.0000
 6
CONTINUOUS
 0
ARC
 8
WHITE
 10
434.149
 20
178.609
 30
 0
 40
91.80428
 50
256.7453
 51
318.7016
 6
CONTINUOUS
 0
ENDSEC
 0
EOF
