  0
SECTION
  2
HEADER
  9
$ACADVER
  1
AC1009
  9
$LIMMIN
 10
-1.623344
 20
-.074902
  9
$LIMMAX
 10
5.716944
 20
5.430313
  0
ENDSEC
  0
SECTION
  2
TABLES
  0
TABLE
  2
LTYPE
 70
     4
  0
LTYPE
  2
CONTINUOUS
 70
     0
  3
Solid line
 72
    65
 73
     0
 40
0.000000
  0
LTYPE
  2
HIDDEN
 70
     0
  3
 _ _ _ _ _ _ _ _ _ _ _
 72
    65
 73
     2
 40
0.375000
 49
0.250000
 49
-0.125000
  0
LTYPE
  2
DASHED
 70
     0
  3
 ___ ___ ___ ___ ___ ___ ___ 
 72
    65
 73
     2
 40
0.750000
 49
0.500000
 49
-0.250000
  0
LTYPE
  2
CENTER
 70
     0
  3
___ _ ___ _ ___ _ ___
 72
    65
 73
     4
 40
2.000000
 49
1.250000
 49
-0.250000
 49
0.250000
 49
-0.250000
  0
LTYPE
  2
BORDER
 70
     0
  3
___ ___ . ___ ___ . ___ ___
 72
    65
 73
     6
 40
1.750000
 49
0.500000
 49
-0.250000
 49
0.500000
 49
-0.250000
 49
0.000000
 49
-0.250000
  0
LTYPE
  2
DOT
 70
     0
  3
.................
 72
    65
 73
     2
 40
0.250000
 49
0.000000
 49
-0.250000
  0
LTYPE
  2
DASHDOT
 70
     0
  3
__ . __ . __ . __
 72
    65
 73
     4
 40
1.000000
 49
0.500000
 49
-0.250000
 49
0.000000
 49
-0.250000
  0
LTYPE
  2
DIVIDE
 70
     0
  3
___ .. ___ .. ___ .. ___
 72
    65
 73
     6
 40
1.250000
 49
0.500000
 49
-0.250000
 49
0.000000
 49
-0.250000
 49
0.000000
 49
-0.250000
  0
ENDTAB
  0
TABLE
  2
LAYER
 70
     8
  0
LAYER
  2
BLACK
 70
     0
 62
     0
  6
CONTINUOUS
  0
LAYER
  2
WHITE
 70
     0
 62
     7
  6
CONTINUOUS
  0
LAYER
  2
RED
 70
     0
 62
     1
  6
CONTINUOUS
  0
LAYER
  2
YELLOW
 70
     0
 62
     2
  6
CONTINUOUS
  0
LAYER
  2
GREEN
 70
     0
 62
     3
  6
CONTINUOUS
  0
LAYER
  2
CYAN
 70
     0
 62
     4
  6
CONTINUOUS
  0
LAYER
  2
BLUE
 70
     0
 62
     5
  6
CONTINUOUS
  0
LAYER
  2
MAGENTA
 70
     0
 62
     6
  6
CONTINUOUS
  0
ENDTAB
  0
ENDSEC
  0
SECTION
  2
BLOCKS
  0
ENDSEC
  0
SECTION
  2
ENTITIES
 0
LINE
 8
WHITE
 10
2.808
 20
3.2506
 30
0.0000
 11
2.8852
 21
3.2246
 31
0.0000
 6
CONTINUOUS
 0
LINE
 8
WHITE
 10
2.8852
 20
3.2246
 30
0.0000
 11
2.9525
 21
3.191099
 31
0.0000
 6
CONTINUOUS
 0
LINE
 8
WHITE
 10
2.9525
 20
3.191099
 30
0.0000
 11
3.0104
 21
3.1507
 31
0.0000
 6
CONTINUOUS
 0
LINE
 8
WHITE
 10
3.0104
 20
3.1507
 30
0.0000
 11
3.0594
 21
3.103699
 31
0.0000
 6
CONTINUOUS
 0
LINE
 8
WHITE
 10
3.0594
 20
3.103699
 30
0.0000
 11
3.099999
 21
3.0504
 31
0.0000
 6
CONTINUOUS
 0
LINE
 8
WHITE
 10
3.099999
 20
3.0504
 30
0.0000
 11
3.1328
 21
2.991199
 31
0.0000
 6
CONTINUOUS
 0
LINE
 8
WHITE
 10
3.1328
 20
2.991199
 30
0.0000
 11
3.158299
 21
2.9265
 31
0.0000
 6
CONTINUOUS
 0
LINE
 8
WHITE
 10
3.158299
 20
2.9265
 30
0.0000
 11
3.181699
 21
2.832299
 31
0.0000
 6
CONTINUOUS
 0
LINE
 8
WHITE
 10
3.181699
 20
2.832299
 30
0.0000
 11
3.194299
 21
2.7297
 31
0.0000
 6
CONTINUOUS
 0
LINE
 8
WHITE
 10
3.194299
 20
2.7297
 30
0.0000
 11
3.1974
 21
2.6196
 31
0.0000
 6
CONTINUOUS
 0
LINE
 8
WHITE
 10
3.1974
 20
2.6196
 30
0.0000
 11
3.191999
 21
2.502899
 31
0.0000
 6
CONTINUOUS
 0
LINE
 8
WHITE
 10
3.191999
 20
2.502899
 30
0.0000
 11
3.175499
 21
2.348999
 31
0.0000
 6
CONTINUOUS
 0
LINE
 8
WHITE
 10
3.175499
 20
2.348999
 30
0.0000
 11
3.144299
 21
2.154799
 31
0.0000
 6
CONTINUOUS
 0
LINE
 8
WHITE
 10
3.144299
 20
2.154799
 30
0.0000
 11
3.0833
 21
1.8499
 31
0.0000
 6
CONTINUOUS
 0
LINE
 8
WHITE
 10
3.0833
 20
1.8499
 30
0.0000
 11
3.053999
 21
1.7113
 31
0.0000
 6
CONTINUOUS
 0
LINE
 8
WHITE
 10
3.053999
 20
1.7113
 30
0.0000
 11
3.4911
 21
1.9141
 31
0.0000
 6
CONTINUOUS
 0
LINE
 8
WHITE
 10
3.4911
 20
1.9141
 30
0.0000
 11
3.521899
 21
2.0234
 31
0.0000
 6
CONTINUOUS
 0
LINE
 8
WHITE
 10
3.521899
 20
2.0234
 30
0.0000
 11
3.543699
 21
2.130399
 31
0.0000
 6
CONTINUOUS
 0
LINE
 8
WHITE
 10
3.543699
 20
2.130399
 30
0.0000
 11
3.556999
 21
2.2348
 31
0.0000
 6
CONTINUOUS
 0
LINE
 8
WHITE
 10
3.556999
 20
2.2348
 30
0.0000
 11
3.562299
 21
2.336299
 31
0.0000
 6
CONTINUOUS
 0
LINE
 8
WHITE
 10
3.562299
 20
2.336299
 30
0.0000
 11
3.5601
 21
2.434499
 31
0.0000
 6
CONTINUOUS
 0
LINE
 8
WHITE
 10
3.5601
 20
2.434499
 30
0.0000
 11
3.5506
 21
2.529099
 31
0.0000
 6
CONTINUOUS
 0
LINE
 8
WHITE
 10
3.5506
 20
2.529099
 30
0.0000
 11
3.534699
 21
2.6196
 31
0.0000
 6
CONTINUOUS
 0
LINE
 8
WHITE
 10
3.534699
 20
2.6196
 30
0.0000
 11
3.512399
 21
2.7058
 31
0.0000
 6
CONTINUOUS
 0
LINE
 8
WHITE
 10
3.512399
 20
2.7058
 30
0.0000
 11
3.484499
 21
2.7873
 31
0.0000
 6
CONTINUOUS
 0
LINE
 8
WHITE
 10
3.484499
 20
2.7873
 30
0.0000
 11
3.4391
 21
2.8879
 31
0.0000
 6
CONTINUOUS
 0
LINE
 8
WHITE
 10
3.4391
 20
2.8879
 30
0.0000
 11
3.3854
 21
2.978699
 31
0.0000
 6
CONTINUOUS
 0
LINE
 8
WHITE
 10
3.3854
 20
2.978699
 30
0.0000
 11
3.3245
 21
3.058599
 31
0.0000
 6
CONTINUOUS
 0
LINE
 8
WHITE
 10
3.3245
 20
3.058599
 30
0.0000
 11
3.2576
 21
3.126899
 31
0.0000
 6
CONTINUOUS
 0
LINE
 8
WHITE
 10
3.2576
 20
3.126899
 30
0.0000
 11
3.185499
 21
3.182699
 31
0.0000
 6
CONTINUOUS
 0
LINE
 8
WHITE
 10
3.185499
 20
3.182699
 30
0.0000
 11
3.109499
 21
3.225199
 31
0.0000
 6
CONTINUOUS
 0
LINE
 8
WHITE
 10
3.109499
 20
3.225199
 30
0.0000
 11
3.0306
 21
3.2534
 31
0.0000
 6
CONTINUOUS
 0
LINE
 8
WHITE
 10
3.0306
 20
3.2534
 30
0.0000
 11
2.950099
 21
3.266499
 31
0.0000
 6
CONTINUOUS
 0
LINE
 8
WHITE
 10
2.950099
 20
3.266499
 30
0.0000
 11
2.8891
 21
3.265899
 31
0.0000
 6
CONTINUOUS
 0
LINE
 8
WHITE
 10
2.8891
 20
3.265899
 30
0.0000
 11
2.8282
 21
3.256099
 31
0.0000
 6
CONTINUOUS
 0
LINE
 8
WHITE
 10
2.8282
 20
3.256099
 30
0.0000
 11
2.808
 21
3.2506
 31
0.0000
 6
CONTINUOUS
 0
LINE
 8
WHITE
 10
2.969199
 20
4.078499
 30
0.0000
 11
2.929899
 21
4.0563
 31
0.0000
 6
CONTINUOUS
 0
LINE
 8
WHITE
 10
2.929899
 20
4.0563
 30
0.0000
 11
2.8168
 21
3.9983
 31
0.0000
 6
CONTINUOUS
 0
LINE
 8
WHITE
 10
2.8168
 20
3.9983
 30
0.0000
 11
2.710599
 21
3.9518
 31
0.0000
 6
CONTINUOUS
 0
LINE
 8
WHITE
 10
2.710599
 20
3.9518
 30
0.0000
 11
2.580399
 21
3.903199
 31
0.0000
 6
CONTINUOUS
 0
LINE
 8
WHITE
 10
2.580399
 20
3.903199
 30
0.0000
 11
2.385099
 21
3.8401
 31
0.0000
 6
CONTINUOUS
 0
LINE
 8
WHITE
 10
2.385099
 20
3.8401
 30
0.0000
 11
2.272
 21
3.798099
 31
0.0000
 6
CONTINUOUS
 0
LINE
 8
WHITE
 10
2.272
 20
3.798099
 30
0.0000
 11
2.1981
 21
3.757999
 31
0.0000
 6
CONTINUOUS
 0
LINE
 8
WHITE
 10
2.1981
 20
3.757999
 30
0.0000
 11
2.152699
 21
3.720499
 31
0.0000
 6
CONTINUOUS
 0
LINE
 8
WHITE
 10
2.152699
 20
3.720499
 30
0.0000
 11
2.115999
 21
3.674099
 31
0.0000
 6
CONTINUOUS
 0
LINE
 8
WHITE
 10
2.115999
 20
3.674099
 30
0.0000
 11
2.088399
 21
3.6163
 31
0.0000
 6
CONTINUOUS
 0
LINE
 8
WHITE
 10
2.088399
 20
3.6163
 30
0.0000
 11
2.0699
 21
3.544899
 31
0.0000
 6
CONTINUOUS
 0
LINE
 8
WHITE
 10
1.9829
 20
3.872499
 30
0.0000
 11
1.9786
 21
3.842
 31
0.0000
 6
CONTINUOUS
 0
LINE
 8
WHITE
 10
1.9786
 20
3.842
 30
0.0000
 11
1.969599
 21
3.713599
 31
0.0000
 6
CONTINUOUS
 0
LINE
 8
WHITE
 10
1.969599
 20
3.713599
 30
0.0000
 11
1.972
 21
3.5603
 31
0.0000
 6
CONTINUOUS
 0
LINE
 8
WHITE
 10
1.972
 20
3.5603
 30
0.0000
 11
1.9835
 21
3.4119
 31
0.0000
 6
CONTINUOUS
 0
LINE
 8
WHITE
 10
1.9835
 20
3.4119
 30
0.0000
 11
2.135799
 21
3.417599
 31
0.0000
 6
CONTINUOUS
 0
LINE
 8
WHITE
 10
2.135799
 20
3.417599
 30
0.0000
 11
2.263099
 21
3.4316
 31
0.0000
 6
CONTINUOUS
 0
LINE
 8
WHITE
 10
2.263099
 20
3.4316
 30
0.0000
 11
2.3898
 21
3.4546
 31
0.0000
 6
CONTINUOUS
 0
LINE
 8
WHITE
 10
2.3898
 20
3.4546
 30
0.0000
 11
2.515
 21
3.487299
 31
0.0000
 6
CONTINUOUS
 0
LINE
 8
WHITE
 10
2.515
 20
3.487299
 30
0.0000
 11
2.637399
 21
3.5302
 31
0.0000
 6
CONTINUOUS
 0
LINE
 8
WHITE
 10
2.637399
 20
3.5302
 30
0.0000
 11
2.7562
 21
3.584
 31
0.0000
 6
CONTINUOUS
 0
LINE
 8
WHITE
 10
2.7562
 20
3.584
 30
0.0000
 11
2.847899
 21
3.6354
 31
0.0000
 6
CONTINUOUS
 0
LINE
 8
WHITE
 10
2.847899
 20
3.6354
 30
0.0000
 11
2.936199
 21
3.6944
 31
0.0000
 6
CONTINUOUS
 0
LINE
 8
WHITE
 10
2.936199
 20
3.6944
 30
0.0000
 11
3.0206
 21
3.761499
 31
0.0000
 6
CONTINUOUS
 0
LINE
 8
WHITE
 10
3.0206
 20
3.761499
 30
0.0000
 11
3.1003
 21
3.8368
 31
0.0000
 6
CONTINUOUS
 0
LINE
 8
WHITE
 10
3.1003
 20
3.8368
 30
0.0000
 11
3.1751
 21
3.920799
 31
0.0000
 6
CONTINUOUS
 0
LINE
 8
WHITE
 10
3.1751
 20
3.920799
 30
0.0000
 11
3.239599
 21
4.0068
 31
0.0000
 6
CONTINUOUS
 0
LINE
 8
WHITE
 10
1.5161
 20
3.7588
 30
0.0000
 11
1.560899
 21
3.6839
 31
0.0000
 6
CONTINUOUS
 0
LINE
 8
WHITE
 10
1.560899
 20
3.6839
 30
0.0000
 11
1.615
 21
3.581
 31
0.0000
 6
CONTINUOUS
 0
LINE
 8
WHITE
 10
1.615
 20
3.581
 30
0.0000
 11
1.662299
 21
3.473599
 31
0.0000
 6
CONTINUOUS
 0
LINE
 8
WHITE
 10
1.662299
 20
3.473599
 30
0.0000
 11
1.688899
 21
3.400199
 31
0.0000
 6
CONTINUOUS
 0
LINE
 8
WHITE
 10
1.688899
 20
3.400199
 30
0.0000
 11
1.710899
 21
3.325599
 31
0.0000
 6
CONTINUOUS
 0
LINE
 8
WHITE
 10
1.710899
 20
3.325599
 30
0.0000
 11
1.727499
 21
3.2504
 31
0.0000
 6
CONTINUOUS
 0
LINE
 8
WHITE
 10
1.727499
 20
3.2504
 30
0.0000
 11
1.738199
 21
3.1749
 31
0.0000
 6
CONTINUOUS
 0
LINE
 8
WHITE
 10
1.738199
 20
3.1749
 30
0.0000
 11
1.7424
 21
3.0994
 31
0.0000
 6
CONTINUOUS
 0
LINE
 8
WHITE
 10
1.7424
 20
3.0994
 30
0.0000
 11
1.7529
 21
3.1284
 31
0.0000
 6
CONTINUOUS
 0
LINE
 8
WHITE
 10
1.7529
 20
3.1284
 30
0.0000
 11
1.7682
 21
3.1874
 31
0.0000
 6
CONTINUOUS
 0
LINE
 8
WHITE
 10
1.7682
 20
3.1874
 30
0.0000
 11
1.7962
 21
3.339799
 31
0.0000
 6
CONTINUOUS
 0
LINE
 8
WHITE
 10
1.7962
 20
3.339799
 30
0.0000
 11
1.810299
 21
3.3712
 31
0.0000
 6
CONTINUOUS
 0
LINE
 8
WHITE
 10
1.810299
 20
3.3712
 30
0.0000
 11
1.8321
 21
3.387
 31
0.0000
 6
CONTINUOUS
 0
LINE
 8
WHITE
 10
1.8321
 20
3.387
 30
0.0000
 11
1.864899
 21
3.384
 31
0.0000
 6
CONTINUOUS
 0
LINE
 8
WHITE
 10
1.864899
 20
3.384
 30
0.0000
 11
1.9119
 21
3.3587
 31
0.0000
 6
CONTINUOUS
 0
LINE
 8
WHITE
 10
1.9119
 20
3.3587
 30
0.0000
 11
1.906299
 21
3.385799
 31
0.0000
 6
CONTINUOUS
 0
LINE
 8
WHITE
 10
1.906299
 20
3.385799
 30
0.0000
 11
1.8822
 21
3.470599
 31
0.0000
 6
CONTINUOUS
 0
LINE
 8
WHITE
 10
1.8822
 20
3.470599
 30
0.0000
 11
1.8492
 21
3.559799
 31
0.0000
 6
CONTINUOUS
 0
LINE
 8
WHITE
 10
1.8492
 20
3.559799
 30
0.0000
 11
1.7896
 21
3.6972
 31
0.0000
 6
CONTINUOUS
 0
LINE
 8
WHITE
 10
1.192199
 20
4.228099
 30
0.0000
 11
1.2481
 21
4.247799
 31
0.0000
 6
CONTINUOUS
 0
LINE
 8
WHITE
 10
1.2481
 20
4.247799
 30
0.0000
 11
1.295099
 21
4.261
 31
0.0000
 6
CONTINUOUS
 0
LINE
 8
WHITE
 10
1.295099
 20
4.261
 30
0.0000
 11
1.3673
 21
4.2733
 31
0.0000
 6
CONTINUOUS
 0
LINE
 8
WHITE
 10
1.3673
 20
4.2733
 30
0.0000
 11
1.461699
 21
4.2792
 31
0.0000
 6
CONTINUOUS
 0
LINE
 8
WHITE
 10
1.461699
 20
4.2792
 30
0.0000
 11
1.504699
 21
4.2946
 31
0.0000
 6
CONTINUOUS
 0
LINE
 8
WHITE
 10
1.548599
 20
4.480199
 30
0.0000
 11
1.559299
 21
4.3557
 31
0.0000
 6
CONTINUOUS
 0
LINE
 8
WHITE
 10
1.559299
 20
4.3557
 30
0.0000
 11
1.5664
 21
4.2733
 31
0.0000
 6
CONTINUOUS
 0
LINE
 8
WHITE
 10
1.5664
 20
4.2733
 30
0.0000
 11
1.5857
 21
4.1869
 31
0.0000
 6
CONTINUOUS
 0
LINE
 8
WHITE
 10
1.5857
 20
4.1869
 30
0.0000
 11
1.615
 21
4.096399
 31
0.0000
 6
CONTINUOUS
 0
LINE
 8
WHITE
 10
1.615
 20
4.096399
 30
0.0000
 11
1.6653
 21
3.9714
 31
0.0000
 6
CONTINUOUS
 0
LINE
 8
WHITE
 10
1.6653
 20
3.9714
 30
0.0000
 11
1.790699
 21
3.698499
 31
0.0000
 6
CONTINUOUS
 0
LINE
 8
WHITE
 10
1.790699
 20
3.698499
 30
0.0000
 11
1.7984
 21
3.696199
 31
0.0000
 6
CONTINUOUS
 0
LINE
 8
WHITE
 10
1.7984
 20
3.696199
 30
0.0000
 11
1.8176
 21
3.7174
 31
0.0000
 6
CONTINUOUS
 0
LINE
 8
WHITE
 10
1.8176
 20
3.7174
 30
0.0000
 11
1.897899
 21
3.799099
 31
0.0000
 6
CONTINUOUS
 0
LINE
 8
WHITE
 10
1.897899
 20
3.799099
 30
0.0000
 11
1.9815
 21
3.8733
 31
0.0000
 6
CONTINUOUS
 0
LINE
 8
WHITE
 10
1.9815
 20
3.8733
 30
0.0000
 11
2.0058
 21
3.978899
 31
0.0000
 6
CONTINUOUS
 0
LINE
 8
WHITE
 10
2.0058
 20
3.978899
 30
0.0000
 11
2.038899
 21
4.058199
 31
0.0000
 6
CONTINUOUS
 0
LINE
 8
WHITE
 10
2.038899
 20
4.058199
 30
0.0000
 11
2.088799
 21
4.129
 31
0.0000
 6
CONTINUOUS
 0
LINE
 8
WHITE
 10
2.088799
 20
4.129
 30
0.0000
 11
2.149699
 21
4.179299
 31
0.0000
 6
CONTINUOUS
 0
LINE
 8
WHITE
 10
2.149699
 20
4.179299
 30
0.0000
 11
2.2313
 21
4.2167
 31
0.0000
 6
CONTINUOUS
 0
LINE
 8
WHITE
 10
2.2313
 20
4.2167
 30
0.0000
 11
2.3482
 21
4.2406
 31
0.0000
 6
CONTINUOUS
 0
LINE
 8
WHITE
 10
2.3482
 20
4.2406
 30
0.0000
 11
2.7204
 21
4.256899
 31
0.0000
 6
CONTINUOUS
 0
LINE
 8
WHITE
 10
2.7204
 20
4.256899
 30
0.0000
 11
2.854
 21
4.272299
 31
0.0000
 6
CONTINUOUS
 0
LINE
 8
WHITE
 10
2.854
 20
4.272299
 30
0.0000
 11
2.973299
 21
4.300499
 31
0.0000
 6
CONTINUOUS
 0
LINE
 8
WHITE
 10
2.973299
 20
4.300499
 30
0.0000
 11
3.076499
 21
4.3407
 31
0.0000
 6
CONTINUOUS
 0
LINE
 8
WHITE
 10
3.076499
 20
4.3407
 30
0.0000
 11
3.163199
 21
4.3894
 31
0.0000
 6
CONTINUOUS
 0
LINE
 8
WHITE
 10
3.163199
 20
4.3894
 30
0.0000
 11
3.2474
 21
4.4537
 31
0.0000
 6
CONTINUOUS
 0
LINE
 8
WHITE
 10
3.2474
 20
4.4537
 30
0.0000
 11
3.3152
 21
4.5208
 31
0.0000
 6
CONTINUOUS
 0
LINE
 8
WHITE
 10
3.3152
 20
4.5208
 30
0.0000
 11
3.3803
 21
4.6015
 31
0.0000
 6
CONTINUOUS
 0
LINE
 8
WHITE
 10
3.3803
 20
4.6015
 30
0.0000
 11
3.4423
 21
4.697199
 31
0.0000
 6
CONTINUOUS
 0
LINE
 8
WHITE
 10
3.4423
 20
4.697199
 30
0.0000
 11
3.500799
 21
4.8091
 31
0.0000
 6
CONTINUOUS
 0
LINE
 8
WHITE
 10
3.500799
 20
4.8091
 30
0.0000
 11
3.5271
 21
4.8678
 31
0.0000
 6
CONTINUOUS
 0
LINE
 8
WHITE
 10
3.5271
 20
4.8678
 30
0.0000
 11
3.5111
 21
4.737599
 31
0.0000
 6
CONTINUOUS
 0
LINE
 8
WHITE
 10
3.5111
 20
4.737599
 30
0.0000
 11
3.4913
 21
4.6236
 31
0.0000
 6
CONTINUOUS
 0
LINE
 8
WHITE
 10
3.4913
 20
4.6236
 30
0.0000
 11
3.466599
 21
4.515699
 31
0.0000
 6
CONTINUOUS
 0
LINE
 8
WHITE
 10
3.466599
 20
4.515699
 30
0.0000
 11
3.4372
 21
4.4137
 31
0.0000
 6
CONTINUOUS
 0
LINE
 8
WHITE
 10
3.4372
 20
4.4137
 30
0.0000
 11
3.4035
 21
4.317599
 31
0.0000
 6
CONTINUOUS
 0
LINE
 8
WHITE
 10
3.4035
 20
4.317599
 30
0.0000
 11
3.3656
 21
4.227099
 31
0.0000
 6
CONTINUOUS
 0
LINE
 8
WHITE
 10
3.3656
 20
4.227099
 30
0.0000
 11
3.3089
 21
4.1152
 31
0.0000
 6
CONTINUOUS
 0
LINE
 8
WHITE
 10
3.3089
 20
4.1152
 30
0.0000
 11
3.241699
 21
4.0074
 31
0.0000
 6
CONTINUOUS
 0
LINE
 8
WHITE
 10
3.241699
 20
4.0074
 30
0.0000
 11
3.2788
 21
3.986399
 31
0.0000
 6
CONTINUOUS
 0
LINE
 8
WHITE
 10
3.2788
 20
3.986399
 30
0.0000
 11
3.388099
 21
3.9151
 31
0.0000
 6
CONTINUOUS
 0
LINE
 8
WHITE
 10
3.388099
 20
3.9151
 30
0.0000
 11
3.492199
 21
3.8326
 31
0.0000
 6
CONTINUOUS
 0
LINE
 8
WHITE
 10
3.492199
 20
3.8326
 30
0.0000
 11
3.5903
 21
3.7399
 31
0.0000
 6
CONTINUOUS
 0
LINE
 8
WHITE
 10
3.5903
 20
3.7399
 30
0.0000
 11
3.681799
 21
3.6379
 31
0.0000
 6
CONTINUOUS
 0
LINE
 8
WHITE
 10
3.681799
 20
3.6379
 30
0.0000
 11
3.765899
 21
3.5271
 31
0.0000
 6
CONTINUOUS
 0
LINE
 8
WHITE
 10
3.765899
 20
3.5271
 30
0.0000
 11
3.842099
 21
3.4086
 31
0.0000
 6
CONTINUOUS
 0
LINE
 8
WHITE
 10
3.842099
 20
3.4086
 30
0.0000
 11
3.909499
 21
3.2829
 31
0.0000
 6
CONTINUOUS
 0
LINE
 8
WHITE
 10
3.909499
 20
3.2829
 30
0.0000
 11
3.9676
 21
3.150899
 31
0.0000
 6
CONTINUOUS
 0
LINE
 8
WHITE
 10
3.9676
 20
3.150899
 30
0.0000
 11
4.0156
 21
3.013499
 31
0.0000
 6
CONTINUOUS
 0
LINE
 8
WHITE
 10
4.0156
 20
3.013499
 30
0.0000
 11
4.052899
 21
2.8714
 31
0.0000
 6
CONTINUOUS
 0
LINE
 8
WHITE
 10
4.052899
 20
2.8714
 30
0.0000
 11
4.078899
 21
2.7253
 31
0.0000
 6
CONTINUOUS
 0
LINE
 8
WHITE
 10
4.078899
 20
2.7253
 30
0.0000
 11
4.0914
 21
2.6012
 31
0.0000
 6
CONTINUOUS
 0
LINE
 8
WHITE
 10
4.0914
 20
2.6012
 30
0.0000
 11
4.095099
 21
2.475399
 31
0.0000
 6
CONTINUOUS
 0
LINE
 8
WHITE
 10
4.095099
 20
2.475399
 30
0.0000
 11
4.0897
 21
2.348299
 31
0.0000
 6
CONTINUOUS
 0
LINE
 8
WHITE
 10
4.0897
 20
2.348299
 30
0.0000
 11
4.074699
 21
2.2204
 31
0.0000
 6
CONTINUOUS
 0
LINE
 8
WHITE
 10
4.074699
 20
2.2204
 30
0.0000
 11
4.049799
 21
2.092299
 31
0.0000
 6
CONTINUOUS
 0
LINE
 8
WHITE
 10
4.049799
 20
2.092299
 30
0.0000
 11
4.014599
 21
1.9642
 31
0.0000
 6
CONTINUOUS
 0
LINE
 8
WHITE
 10
4.014599
 20
1.9642
 30
0.0000
 11
3.9307
 21
1.713
 31
0.0000
 6
CONTINUOUS
 0
LINE
 8
WHITE
 10
3.9307
 20
1.713
 30
0.0000
 11
3.841
 21
1.455899
 31
0.0000
 6
CONTINUOUS
 0
LINE
 8
WHITE
 10
3.841
 20
1.455899
 30
0.0000
 11
3.755599
 21
1.2252
 31
0.0000
 6
CONTINUOUS
 0
LINE
 8
WHITE
 10
3.755599
 20
1.2252
 30
0.0000
 11
3.673799
 21
1.0195
 31
0.0000
 6
CONTINUOUS
 0
LINE
 8
WHITE
 10
3.673799
 20
1.0195
 30
0.0000
 11
3.5947
 21
.837499
 31
0.0000
 6
CONTINUOUS
 0
LINE
 8
WHITE
 10
3.5947
 20
.837499
 30
0.0000
 11
3.517699
 21
.677799
 31
0.0000
 6
CONTINUOUS
 0
LINE
 8
WHITE
 10
3.517699
 20
.677799
 30
0.0000
 11
3.4418
 21
.538999
 31
0.0000
 6
CONTINUOUS
 0
LINE
 8
WHITE
 10
3.4418
 20
.538999
 30
0.0000
 11
3.366499
 21
.4196
 31
0.0000
 6
CONTINUOUS
 0
LINE
 8
WHITE
 10
3.366499
 20
.4196
 30
0.0000
 11
3.2908
 21
.3185
 31
0.0000
 6
CONTINUOUS
 0
LINE
 8
WHITE
 10
3.2908
 20
.3185
 30
0.0000
 11
3.2139
 21
.234099
 31
0.0000
 6
CONTINUOUS
 0
LINE
 8
WHITE
 10
3.2139
 20
.234099
 30
0.0000
 11
3.134999
 21
.165199
 31
0.0000
 6
CONTINUOUS
 0
LINE
 8
WHITE
 10
3.134999
 20
.165199
 30
0.0000
 11
3.053499
 21
.1102
 31
0.0000
 6
CONTINUOUS
 0
LINE
 8
WHITE
 10
3.053499
 20
.1102
 30
0.0000
 11
2.968499
 21
.0679
 31
0.0000
 6
CONTINUOUS
 0
LINE
 8
WHITE
 10
2.968499
 20
.0679
 30
0.0000
 11
2.879199
 21
.036899
 31
0.0000
 6
CONTINUOUS
 0
LINE
 8
WHITE
 10
2.879199
 20
.036899
 30
0.0000
 11
2.7655
 21
.012799
 31
0.0000
 6
CONTINUOUS
 0
LINE
 8
WHITE
 10
2.7655
 20
.012799
 30
0.0000
 11
2.6431
 21
.0005
 31
0.0000
 6
CONTINUOUS
 0
LINE
 8
WHITE
 10
2.6431
 20
.0005
 30
0.0000
 11
2.500499
 21
-.0015
 31
0.0000
 6
CONTINUOUS
 0
LINE
 8
WHITE
 10
2.500499
 20
-.0015
 30
0.0000
 11
2.4367
 21
.005499
 31
0.0000
 6
CONTINUOUS
 0
LINE
 8
WHITE
 10
2.4367
 20
.005499
 30
0.0000
 11
2.376499
 21
.0206
 31
0.0000
 6
CONTINUOUS
 0
LINE
 8
WHITE
 10
2.376499
 20
.0206
 30
0.0000
 11
2.3197
 21
.0449
 31
0.0000
 6
CONTINUOUS
 0
LINE
 8
WHITE
 10
2.3197
 20
.0449
 30
0.0000
 11
2.266099
 21
.079499
 31
0.0000
 6
CONTINUOUS
 0
LINE
 8
WHITE
 10
2.266099
 20
.079499
 30
0.0000
 11
2.2156
 21
.125499
 31
0.0000
 6
CONTINUOUS
 0
LINE
 8
WHITE
 10
2.2156
 20
.125499
 30
0.0000
 11
2.1681
 21
.184
 31
0.0000
 6
CONTINUOUS
 0
LINE
 8
WHITE
 10
2.1681
 20
.184
 30
0.0000
 11
2.124599
 21
.2542
 31
0.0000
 6
CONTINUOUS
 0
LINE
 8
WHITE
 10
2.124599
 20
.2542
 30
0.0000
 11
2.0699
 21
.192399
 31
0.0000
 6
CONTINUOUS
 0
LINE
 8
WHITE
 10
2.0699
 20
.192399
 30
0.0000
 11
2.009599
 21
.1409
 31
0.0000
 6
CONTINUOUS
 0
LINE
 8
WHITE
 10
2.009599
 20
.1409
 30
0.0000
 11
1.9464
 21
.1004
 31
0.0000
 6
CONTINUOUS
 0
LINE
 8
WHITE
 10
1.9464
 20
.1004
 30
0.0000
 11
1.8822
 21
.069399
 31
0.0000
 6
CONTINUOUS
 0
LINE
 8
WHITE
 10
1.8822
 20
.069399
 30
0.0000
 11
1.8184
 21
.0469
 31
0.0000
 6
CONTINUOUS
 0
LINE
 8
WHITE
 10
1.8184
 20
.0469
 30
0.0000
 11
1.7566
 21
.0315
 31
0.0000
 6
CONTINUOUS
 0
LINE
 8
WHITE
 10
1.7566
 20
.0315
 30
0.0000
 11
1.6712
 21
.0192
 31
0.0000
 6
CONTINUOUS
 0
LINE
 8
WHITE
 10
1.6712
 20
.0192
 30
0.0000
 11
1.5685
 21
.0162
 31
0.0000
 6
CONTINUOUS
 0
LINE
 8
WHITE
 10
1.5685
 20
.0162
 30
0.0000
 11
1.476899
 21
.0247
 31
0.0000
 6
CONTINUOUS
 0
LINE
 8
WHITE
 10
1.476899
 20
.0247
 30
0.0000
 11
1.3873
 21
.0441
 31
0.0000
 6
CONTINUOUS
 0
LINE
 8
WHITE
 10
1.3873
 20
.0441
 30
0.0000
 11
1.299999
 21
.0737
 31
0.0000
 6
CONTINUOUS
 0
LINE
 8
WHITE
 10
1.299999
 20
.0737
 30
0.0000
 11
1.2148
 21
.112599
 31
0.0000
 6
CONTINUOUS
 0
LINE
 8
WHITE
 10
1.2148
 20
.112599
 30
0.0000
 11
1.131999
 21
.160099
 31
0.0000
 6
CONTINUOUS
 0
LINE
 8
WHITE
 10
1.131999
 20
.160099
 30
0.0000
 11
1.051699
 21
.215299
 31
0.0000
 6
CONTINUOUS
 0
LINE
 8
WHITE
 10
1.051699
 20
.215299
 30
0.0000
 11
.9739
 21
.2773
 31
0.0000
 6
CONTINUOUS
 0
LINE
 8
WHITE
 10
.9739
 20
.2773
 30
0.0000
 11
.898899
 21
.3454
 31
0.0000
 6
CONTINUOUS
 0
LINE
 8
WHITE
 10
.898899
 20
.3454
 30
0.0000
 11
.8266
 21
.4187
 31
0.0000
 6
CONTINUOUS
 0
LINE
 8
WHITE
 10
.8266
 20
.4187
 30
0.0000
 11
.7347
 21
.523199
 31
0.0000
 6
CONTINUOUS
 0
LINE
 8
WHITE
 10
.7347
 20
.523199
 30
0.0000
 11
.648199
 21
.6338
 31
0.0000
 6
CONTINUOUS
 0
LINE
 8
WHITE
 10
.648199
 20
.6338
 30
0.0000
 11
.5673
 21
.7483
 31
0.0000
 6
CONTINUOUS
 0
LINE
 8
WHITE
 10
.5673
 20
.7483
 30
0.0000
 11
.4923
 21
.865
 31
0.0000
 6
CONTINUOUS
 0
LINE
 8
WHITE
 10
.4923
 20
.865
 30
0.0000
 11
.4072
 21
1.0108
 31
0.0000
 6
CONTINUOUS
 0
LINE
 8
WHITE
 10
.4072
 20
1.0108
 30
0.0000
 11
.3323
 21
1.152999
 31
0.0000
 6
CONTINUOUS
 0
LINE
 8
WHITE
 10
.3323
 20
1.152999
 30
0.0000
 11
.256399
 21
1.313899
 31
0.0000
 6
CONTINUOUS
 0
LINE
 8
WHITE
 10
.256399
 20
1.313899
 30
0.0000
 11
.188199
 21
1.479599
 31
0.0000
 6
CONTINUOUS
 0
LINE
 8
WHITE
 10
.188199
 20
1.479599
 30
0.0000
 11
.138799
 21
1.6274
 31
0.0000
 6
CONTINUOUS
 0
LINE
 8
WHITE
 10
.138799
 20
1.6274
 30
0.0000
 11
.121799
 21
1.716099
 31
0.0000
 6
CONTINUOUS
 0
LINE
 8
WHITE
 10
.121799
 20
1.716099
 30
0.0000
 11
.088399
 21
1.8593
 31
0.0000
 6
CONTINUOUS
 0
LINE
 8
WHITE
 10
.088399
 20
1.8593
 30
0.0000
 11
.060499
 21
1.996199
 31
0.0000
 6
CONTINUOUS
 0
LINE
 8
WHITE
 10
.060499
 20
1.996199
 30
0.0000
 11
.0317
 21
2.168699
 31
0.0000
 6
CONTINUOUS
 0
LINE
 8
WHITE
 10
.0317
 20
2.168699
 30
0.0000
 11
.012099
 21
2.3303
 31
0.0000
 6
CONTINUOUS
 0
LINE
 8
WHITE
 10
.012099
 20
2.3303
 30
0.0000
 11
.001099
 21
2.481199
 31
0.0000
 6
CONTINUOUS
 0
LINE
 8
WHITE
 10
.001099
 20
2.481199
 30
0.0000
 11
-.0015
 21
2.6219
 31
0.0000
 6
CONTINUOUS
 0
LINE
 8
WHITE
 10
-.0015
 20
2.6219
 30
0.0000
 11
.0038
 21
2.7525
 31
0.0000
 6
CONTINUOUS
 0
LINE
 8
WHITE
 10
.0038
 20
2.7525
 30
0.0000
 11
.016499
 21
2.8735
 31
0.0000
 6
CONTINUOUS
 0
LINE
 8
WHITE
 10
.016499
 20
2.8735
 30
0.0000
 11
.036299
 21
2.985199
 31
0.0000
 6
CONTINUOUS
 0
LINE
 8
WHITE
 10
.036299
 20
2.985199
 30
0.0000
 11
.0627
 21
3.088
 31
0.0000
 6
CONTINUOUS
 0
LINE
 8
WHITE
 10
.0627
 20
3.088
 30
0.0000
 11
.095299
 21
3.182199
 31
0.0000
 6
CONTINUOUS
 0
LINE
 8
WHITE
 10
.095299
 20
3.182199
 30
0.0000
 11
.144099
 21
3.288399
 31
0.0000
 6
CONTINUOUS
 0
LINE
 8
WHITE
 10
.144099
 20
3.288399
 30
0.0000
 11
.2011
 21
3.3822
 31
0.0000
 6
CONTINUOUS
 0
LINE
 8
WHITE
 10
.2011
 20
3.3822
 30
0.0000
 11
.2655
 21
3.4644
 31
0.0000
 6
CONTINUOUS
 0
LINE
 8
WHITE
 10
.2655
 20
3.4644
 30
0.0000
 11
.336299
 21
3.5357
 31
0.0000
 6
CONTINUOUS
 0
LINE
 8
WHITE
 10
.336299
 20
3.5357
 30
0.0000
 11
.4128
 21
3.596699
 31
0.0000
 6
CONTINUOUS
 0
LINE
 8
WHITE
 10
.4128
 20
3.596699
 30
0.0000
 11
.510999
 21
3.6572
 31
0.0000
 6
CONTINUOUS
 0
LINE
 8
WHITE
 10
.510999
 20
3.6572
 30
0.0000
 11
.614799
 21
3.704999
 31
0.0000
 6
CONTINUOUS
 0
LINE
 8
WHITE
 10
.614799
 20
3.704999
 30
0.0000
 11
.7225
 21
3.7413
 31
0.0000
 6
CONTINUOUS
 0
LINE
 8
WHITE
 10
.7225
 20
3.7413
 30
0.0000
 11
.851499
 21
3.770499
 31
0.0000
 6
CONTINUOUS
 0
LINE
 8
WHITE
 10
.851499
 20
3.770499
 30
0.0000
 11
1.000499
 21
3.7887
 31
0.0000
 6
CONTINUOUS
 0
LINE
 8
WHITE
 10
1.000499
 20
3.7887
 30
0.0000
 11
1.147799
 21
3.7936
 31
0.0000
 6
CONTINUOUS
 0
LINE
 8
WHITE
 10
1.147799
 20
3.7936
 30
0.0000
 11
1.324399
 21
3.785099
 31
0.0000
 6
CONTINUOUS
 0
LINE
 8
WHITE
 10
1.324399
 20
3.785099
 30
0.0000
 11
1.513
 21
3.760699
 31
0.0000
 6
CONTINUOUS
 0
LINE
 8
WHITE
 10
1.513
 20
3.760699
 30
0.0000
 11
1.4391
 21
3.870899
 31
0.0000
 6
CONTINUOUS
 0
LINE
 8
WHITE
 10
1.4391
 20
3.870899
 30
0.0000
 11
1.3565
 21
3.9786
 31
0.0000
 6
CONTINUOUS
 0
LINE
 8
WHITE
 10
1.3565
 20
3.9786
 30
0.0000
 11
1.2782
 21
4.068999
 31
0.0000
 6
CONTINUOUS
 0
LINE
 8
WHITE
 10
1.2782
 20
4.068999
 30
0.0000
 11
1.193799
 21
4.153299
 31
0.0000
 6
CONTINUOUS
 0
LINE
 8
WHITE
 10
1.193799
 20
4.153299
 30
0.0000
 11
1.125499
 21
4.2048
 31
0.0000
 6
CONTINUOUS
 0
LINE
 8
WHITE
 10
1.125499
 20
4.2048
 30
0.0000
 11
1.113
 21
4.208499
 31
0.0000
 6
CONTINUOUS
 0
LINE
 8
WHITE
 10
1.113
 20
4.208499
 30
0.0000
 11
1.0884
 21
4.2497
 31
0.0000
 6
CONTINUOUS
 0
LINE
 8
WHITE
 10
1.0884
 20
4.2497
 30
0.0000
 11
1.0829
 21
4.284599
 31
0.0000
 6
CONTINUOUS
 0
LINE
 8
WHITE
 10
1.0829
 20
4.284599
 30
0.0000
 11
1.094499
 21
4.3137
 31
0.0000
 6
CONTINUOUS
 0
LINE
 8
WHITE
 10
1.094499
 20
4.3137
 30
0.0000
 11
1.120399
 21
4.3369
 31
0.0000
 6
CONTINUOUS
 0
LINE
 8
WHITE
 10
1.120399
 20
4.3369
 30
0.0000
 11
1.1582
 21
4.354499
 31
0.0000
 6
CONTINUOUS
 0
LINE
 8
WHITE
 10
1.1582
 20
4.354499
 30
0.0000
 11
1.231799
 21
4.371699
 31
0.0000
 6
CONTINUOUS
 0
LINE
 8
WHITE
 10
1.231799
 20
4.371699
 30
0.0000
 11
1.319
 21
4.378699
 31
0.0000
 6
CONTINUOUS
 0
LINE
 8
WHITE
 10
1.319
 20
4.378699
 30
0.0000
 11
1.4119
 21
4.376599
 31
0.0000
 6
CONTINUOUS
 0
LINE
 8
WHITE
 10
1.4119
 20
4.376599
 30
0.0000
 11
1.502799
 21
4.366499
 31
0.0000
 6
CONTINUOUS
 0
LINE
 8
WHITE
 10
1.502799
 20
4.366499
 30
0.0000
 11
1.559299
 21
4.3557
 31
0.0000
 6
CONTINUOUS
 0
LINE
 8
WHITE
 10
1.559299
 20
4.3557
 30
0.0000
 11
1.562199
 21
4.3516
 31
0.0000
 6
CONTINUOUS
 0
ENDSEC
 0
EOF
