  0
SECTION
  2
HEADER
  9
$ACADVER
  1
AC1009
  9
$EXTMAX
 10
166.150009155273
 20
279.920715332031
 30
0.0
  9
$EXTMIN
 10
-166.150009155273
 20
-281.079284667969
 30
0.0
  9
$INSUNITS
 70
     4
  9
$LUNITS
 70
     2
  9
$LUPREC
 70
     4
  9
$MEASUREMENT
 70
     1
  0
ENDSEC
  0
SECTION
  2
TABLES
  0
TABLE
  2
LAYER
 70
     1
  0
LAYER
  2
0
 70
     0
 62
     3
  6
Continuous
  0
LAYER
  2
ASHADE
 70
     0
 62
     7
  6
Continuous
  0
ENDTAB
  0
TABLE
  2
APPID
 70
     1
  0
APPID
  2
ACAD
 70
     0
  0
ENDTAB
  0
ENDSEC
  0
SECTION
  2
ENTITIES
  0
POLYLINE
  8
0
 66
     1
 10
0.0
 20
0.0
 30
0.0
 70
     1
  0
VERTEX
  8
0
 10
-113.350006103516
 20
-281.079284667969
 42
0.0
  0
VERTEX
  8
0
 10
-163.550003051758
 20
-281.079284667969
 42
0.0
  0
VERTEX
  8
0
 10
-163.550003051758
 20
-269.879272460938
 42
0.0
  0
VERTEX
  8
0
 10
-133.6796875
 20
-232.879272460938
 42
0.0
  0
VERTEX
  8
0
 10
-162.150009155273
 20
-232.879272460938
 42
0.0
  0
VERTEX
  8
0
 10
-162.150009155273
 20
-221.279296875
 42
0.0
  0
VERTEX
  8
0
 10
-114.950012207031
 20
-221.279296875
 42
0.0
  0
VERTEX
  8
0
 10
-114.950012207031
 20
-232.679290771484
 42
0.0
  0
VERTEX
  8
0
 10
-144.659378051758
 20
-269.479278564453
 42
0.0
  0
VERTEX
  8
0
 10
-113.350006103516
 20
-269.479278564453
 42
0.0
  0
SEQEND
  0
POLYLINE
  8
0
 66
     1
 10
0.0
 20
0.0
 30
0.0
 70
     1
  0
VERTEX
  8
0
 10
166.150009155273
 20
-121.279296875
 42
0.0
  0
VERTEX
  8
0
 10
144.050003051758
 20
-157.946472167969
 42
0.0
  0
VERTEX
  8
0
 10
144.050003051758
 20
-181.079284667969
 42
0.0
  0
VERTEX
  8
0
 10
128.650009155273
 20
-181.079284667969
 42
0.0
  0
VERTEX
  8
0
 10
128.650009155273
 20
-158.669921875
 42
0.0
  0
VERTEX
  8
0
 10
106.250015258789
 20
-121.279296875
 42
0.0
  0
VERTEX
  8
0
 10
123.851577758789
 20
-121.279296875
 42
0.0
  0
VERTEX
  8
0
 10
136.729690551758
 20
-144.335540771484
 42
0.0
  0
VERTEX
  8
0
 10
149.220321655273
 20
-121.279296875
 42
0.0
  0
SEQEND
  0
POLYLINE
  8
0
 66
     1
 10
0.0
 20
0.0
 30
0.0
 70
     1
  0
VERTEX
  8
0
 10
86.3500061035156
 20
-121.279296875
 42
0.0
  0
VERTEX
  8
0
 10
70.2468872070313
 20
-181.079284667969
 42
0.0
  0
VERTEX
  8
0
 10
53.2343902587891
 20
-181.079284667969
 42
0.0
  0
VERTEX
  8
0
 10
42.4593811035156
 20
-142.123046875
 42
0.0
  0
VERTEX
  8
0
 10
32.0671997070313
 20
-181.079284667969
 42
0.0
  0
VERTEX
  8
0
 10
14.9531402587891
 20
-181.079284667969
 42
0.0
  0
VERTEX
  8
0
 10
-1.1499938964844
 20
-121.279296875
 42
0.0
  0
VERTEX
  8
0
 10
15.0062561035156
 20
-121.279296875
 42
0.0
  0
VERTEX
  8
0
 10
24.1765747070313
 20
-162.444915771484
 42
0.0
  0
VERTEX
  8
0
 10
35.1515655517578
 20
-121.279296875
 42
0.0
  0
VERTEX
  8
0
 10
50.5312652587891
 20
-121.279296875
 42
0.0
  0
VERTEX
  8
0
 10
61.0828247070313
 20
-162.444915771484
 42
0.0
  0
VERTEX
  8
0
 10
70.7109527587891
 20
-121.279296875
 42
0.0
  0
SEQEND
  0
POLYLINE
  8
0
 66
     1
 10
0.0
 20
0.0
 30
0.0
 70
     1
  0
VERTEX
  8
0
 10
-21.6500091552734
 20
-121.279296875
 42
0.0
  0
VERTEX
  8
0
 10
-43.4624938964844
 20
-181.079284667969
 42
0.0
  0
VERTEX
  8
0
 10
-60.7374954223633
 20
-181.079284667969
 42
0.0
  0
VERTEX
  8
0
 10
-82.5499954223633
 20
-121.279296875
 42
0.0
  0
VERTEX
  8
0
 10
-66.3703079223633
 20
-121.279296875
 42
0.0
  0
VERTEX
  8
0
 10
-51.8874969482422
 20
-163.329284667969
 42
0.0
  0
VERTEX
  8
0
 10
-37.4046936035156
 20
-121.279296875
 42
0.0
  0
SEQEND
  0
POLYLINE
  8
0
 66
     1
 10
0.0
 20
0.0
 30
0.0
 70
     1
  0
VERTEX
  8
0
 10
-107.150009155273
 20
-159.404296875
 42
0.0
  0
VERTEX
  8
0
 10
-107.176368713379
 20
-160.768615722656
 42
0.0
  0
VERTEX
  8
0
 10
-107.255393981934
 20
-162.092559814453
 42
0.0
  0
VERTEX
  8
0
 10
-107.387161254883
 20
-163.3759765625
 42
0.0
  0
VERTEX
  8
0
 10
-107.571594238281
 20
-164.618988037109
 42
0.0
  0
VERTEX
  8
0
 10
-107.808738708496
 20
-165.821533203125
 42
0.0
  0
VERTEX
  8
0
 10
-108.098571777344
 20
-166.983673095703
 42
0.0
  0
VERTEX
  8
0
 10
-108.441101074219
 20
-168.105316162109
 42
0.0
  0
VERTEX
  8
0
 10
-108.83634185791
 20
-169.1865234375
 42
0.0
  0
VERTEX
  8
0
 10
-109.28426361084
 20
-170.227294921875
 42
0.0
  0
VERTEX
  8
0
 10
-109.784896850586
 20
-171.227600097656
 42
0.0
  0
VERTEX
  8
0
 10
-110.338226318359
 20
-172.187438964844
 42
0.0
  0
VERTEX
  8
0
 10
-110.94425201416
 20
-173.106872558594
 42
0.0
  0
VERTEX
  8
0
 10
-111.602973937988
 20
-173.98583984375
 42
0.0
  0
VERTEX
  8
0
 10
-112.314392089844
 20
-174.824371337891
 42
0.0
  0
VERTEX
  8
0
 10
-113.078506469727
 20
-175.622436523438
 42
0.0
  0
VERTEX
  8
0
 10
-113.895324707031
 20
-176.380065917969
 42
0.0
  0
VERTEX
  8
0
 10
-114.763427734375
 20
-177.094451904297
 42
0.0
  0
VERTEX
  8
0
 10
-115.68140411377
 20
-177.762664794922
 42
0.0
  0
VERTEX
  8
0
 10
-116.649269104004
 20
-178.384857177734
 42
0.0
  0
VERTEX
  8
0
 10
-117.666999816895
 20
-178.9609375
 42
0.0
  0
VERTEX
  8
0
 10
-118.73461151123
 20
-179.490966796875
 42
0.0
  0
VERTEX
  8
0
 10
-119.852111816406
 20
-179.974914550781
 42
0.0
  0
VERTEX
  8
0
 10
-121.019477844238
 20
-180.412719726563
 42
0.0
  0
VERTEX
  8
0
 10
-122.236724853516
 20
-180.804473876953
 42
0.0
  0
VERTEX
  8
0
 10
-123.503852844238
 20
-181.150146484375
 42
0.0
  0
VERTEX
  8
0
 10
-124.820861816406
 20
-181.44970703125
 42
0.0
  0
VERTEX
  8
0
 10
-126.187744140625
 20
-181.703186035156
 42
0.0
  0
VERTEX
  8
0
 10
-127.604507446289
 20
-181.910583496094
 42
0.0
  0
VERTEX
  8
0
 10
-130.587661743164
 20
-182.187133789063
 42
0.0
  0
VERTEX
  8
0
 10
-133.770324707031
 20
-182.279296875
 42
0.0
  0
VERTEX
  8
0
 10
-136.952667236328
 20
-182.187133789063
 42
0.0
  0
VERTEX
  8
0
 10
-139.934875488281
 20
-181.910583496094
 42
0.0
  0
VERTEX
  8
0
 10
-141.350921630859
 20
-181.703186035156
 42
0.0
  0
VERTEX
  8
0
 10
-142.716934204102
 20
-181.44970703125
 42
0.0
  0
VERTEX
  8
0
 10
-144.032897949219
 20
-181.150146484375
 42
0.0
  0
VERTEX
  8
0
 10
-145.298843383789
 20
-180.804473876953
 42
0.0
  0
VERTEX
  8
0
 10
-146.514739990234
 20
-180.412750244141
 42
0.0
  0
VERTEX
  8
0
 10
-147.680603027344
 20
-179.974914550781
 42
0.0
  0
VERTEX
  8
0
 10
-148.796432495117
 20
-179.490966796875
 42
0.0
  0
VERTEX
  8
0
 10
-149.862213134766
 20
-178.960968017578
 42
0.0
  0
VERTEX
  8
0
 10
-150.877960205078
 20
-178.384887695313
 42
0.0
  0
VERTEX
  8
0
 10
-151.843688964844
 20
-177.7626953125
 42
0.0
  0
VERTEX
  8
0
 10
-152.759368896484
 20
-177.094421386719
 42
0.0
  0
VERTEX
  8
0
 10
-153.625015258789
 20
-176.380065917969
 42
0.0
  0
VERTEX
  8
0
 10
-154.439376831055
 20
-175.622619628906
 42
0.0
  0
VERTEX
  8
0
 10
-155.201187133789
 20
-174.824981689453
 42
0.0
  0
VERTEX
  8
0
 10
-155.910461425781
 20
-173.987243652344
 42
0.0
  0
VERTEX
  8
0
 10
-156.567184448242
 20
-173.109405517578
 42
0.0
  0
VERTEX
  8
0
 10
-157.17138671875
 20
-172.191436767578
 42
0.0
  0
VERTEX
  8
0
 10
-157.723052978516
 20
-171.233306884766
 42
0.0
  0
VERTEX
  8
0
 10
-158.222183227539
 20
-170.235076904297
 42
0.0
  0
VERTEX
  8
0
 10
-158.668746948242
 20
-169.196685791016
 42
0.0
  0
VERTEX
  8
0
 10
-159.062805175781
 20
-168.118133544922
 42
0.0
  0
VERTEX
  8
0
 10
-159.404296875
 20
-166.99951171875
 42
0.0
  0
VERTEX
  8
0
 10
-159.693267822266
 20
-165.840728759766
 42
0.0
  0
VERTEX
  8
0
 10
-159.9296875
 20
-164.641845703125
 42
0.0
  0
VERTEX
  8
0
 10
-160.113586425781
 20
-163.40283203125
 42
0.0
  0
VERTEX
  8
0
 10
-160.244934082031
 20
-162.123626708984
 42
0.0
  0
VERTEX
  8
0
 10
-160.32373046875
 20
-160.804321289063
 42
0.0
  0
VERTEX
  8
0
 10
-160.350006103516
 20
-159.444915771484
 42
0.0
  0
VERTEX
  8
0
 10
-160.350006103516
 20
-121.279296875
 42
0.0
  0
VERTEX
  8
0
 10
-144.950012207031
 20
-121.279296875
 42
0.0
  0
VERTEX
  8
0
 10
-144.950012207031
 20
-158.633972167969
 42
0.0
  0
VERTEX
  8
0
 10
-144.908874511719
 20
-160.142547607422
 42
0.0
  0
VERTEX
  8
0
 10
-144.785461425781
 20
-161.551818847656
 42
0.0
  0
VERTEX
  8
0
 10
-144.692886352539
 20
-162.219268798828
 42
0.0
  0
VERTEX
  8
0
 10
-144.57975769043
 20
-162.861877441406
 42
0.0
  0
VERTEX
  8
0
 10
-144.446060180664
 20
-163.479675292969
 42
0.0
  0
VERTEX
  8
0
 10
-144.291809082031
 20
-164.072631835938
 42
0.0
  0
VERTEX
  8
0
 10
-144.116973876953
 20
-164.640808105469
 42
0.0
  0
VERTEX
  8
0
 10
-143.921569824219
 20
-165.184143066406
 42
0.0
  0
VERTEX
  8
0
 10
-143.705596923828
 20
-165.702667236328
 42
0.0
  0
VERTEX
  8
0
 10
-143.469055175781
 20
-166.196380615234
 42
0.0
  0
VERTEX
  8
0
 10
-143.211944580078
 20
-166.665283203125
 42
0.0
  0
VERTEX
  8
0
 10
-142.934265136719
 20
-167.109344482422
 42
0.0
  0
VERTEX
  8
0
 10
-142.636016845703
 20
-167.528594970703
 42
0.0
  0
VERTEX
  8
0
 10
-142.317199707031
 20
-167.923034667969
 42
0.0
  0
VERTEX
  8
0
 10
-142.149459838867
 20
-168.111053466797
 42
0.0
  0
VERTEX
  8
0
 10
-141.975280761719
 20
-168.293121337891
 42
0.0
  0
VERTEX
  8
0
 10
-141.607727050781
 20
-168.639343261719
 42
0.0
  0
VERTEX
  8
0
 10
-141.214538574219
 20
-168.961669921875
 42
0.0
  0
VERTEX
  8
0
 10
-140.795715332031
 20
-169.260162353516
 42
0.0
  0
VERTEX
  8
0
 10
-140.351257324219
 20
-169.534729003906
 42
0.0
  0
VERTEX
  8
0
 10
-139.881149291992
 20
-169.785430908203
 42
0.0
  0
VERTEX
  8
0
 10
-139.385437011719
 20
-170.012298583984
 42
0.0
  0
VERTEX
  8
0
 10
-138.864074707031
 20
-170.215209960938
 42
0.0
  0
VERTEX
  8
0
 10
-138.317077636719
 20
-170.394287109375
 42
0.0
  0
VERTEX
  8
0
 10
-137.744445800781
 20
-170.549499511719
 42
0.0
  0
VERTEX
  8
0
 10
-137.146179199219
 20
-170.680816650391
 42
0.0
  0
VERTEX
  8
0
 10
-136.522277832031
 20
-170.788269042969
 42
0.0
  0
VERTEX
  8
0
 10
-135.872741699219
 20
-170.871826171875
 42
0.0
  0
VERTEX
  8
0
 10
-135.197570800781
 20
-170.931518554688
 42
0.0
  0
VERTEX
  8
0
 10
-134.496765136719
 20
-170.967346191406
 42
0.0
  0
VERTEX
  8
0
 10
-133.770324707031
 20
-170.979278564453
 42
0.0
  0
VERTEX
  8
0
 10
-132.361175537109
 20
-170.933441162109
 42
0.0
  0
VERTEX
  8
0
 10
-131.693374633789
 20
-170.876068115234
 42
0.0
  0
VERTEX
  8
0
 10
-131.050109863281
 20
-170.795806884766
 42
0.0
  0
VERTEX
  8
0
 10
-130.431365966797
 20
-170.692687988281
 42
0.0
  0
VERTEX
  8
0
 10
-129.837127685547
 20
-170.566497802734
 42
0.0
  0
VERTEX
  8
0
 10
-129.267440795898
 20
-170.41748046875
 42
0.0
  0
VERTEX
  8
0
 10
-128.722274780273
 20
-170.245483398438
 42
0.0
  0
VERTEX
  8
0
 10
-128.201629638672
 20
-170.050567626953
 42
0.0
  0
VERTEX
  8
0
 10
-127.705497741699
 20
-169.832733154297
 42
0.0
  0
VERTEX
  8
0
 10
-127.233901977539
 20
-169.591979980469
 42
0.0
  0
VERTEX
  8
0
 10
-126.786827087402
 20
-169.328247070313
 42
0.0
  0
VERTEX
  8
0
 10
-126.364273071289
 20
-169.041625976563
 42
0.0
  0
VERTEX
  8
0
 10
-125.966247558594
 20
-168.732055664063
 42
0.0
  0
VERTEX
  8
0
 10
-125.592742919922
 20
-168.399566650391
 42
0.0
  0
VERTEX
  8
0
 10
-125.243759155273
 20
-168.044128417969
 42
0.0
  0
VERTEX
  8
0
 10
-124.917549133301
 20
-167.663391113281
 42
0.0
  0
VERTEX
  8
0
 10
-124.612419128418
 20
-167.255004882813
 42
0.0
  0
VERTEX
  8
0
 10
-124.328300476074
 20
-166.818969726563
 42
0.0
  0
VERTEX
  8
0
 10
-124.065231323242
 20
-166.355285644531
 42
0.0
  0
VERTEX
  8
0
 10
-123.823234558105
 20
-165.863952636719
 42
0.0
  0
VERTEX
  8
0
 10
-123.602249145508
 20
-165.344909667969
 42
0.0
  0
VERTEX
  8
0
 10
-123.402320861816
 20
-164.798278808594
 42
0.0
  0
VERTEX
  8
0
 10
-123.223442077637
 20
-164.223999023438
 42
0.0
  0
VERTEX
  8
0
 10
-123.06559753418
 20
-163.622039794922
 42
0.0
  0
VERTEX
  8
0
 10
-122.928810119629
 20
-162.992431640625
 42
0.0
  0
VERTEX
  8
0
 10
-122.813064575195
 20
-162.335144042969
 42
0.0
  0
VERTEX
  8
0
 10
-122.718360900879
 20
-161.650207519531
 42
0.0
  0
VERTEX
  8
0
 10
-122.592094421387
 20
-160.197387695313
 42
0.0
  0
VERTEX
  8
0
 10
-122.550003051758
 20
-158.633972167969
 42
0.0
  0
VERTEX
  8
0
 10
-122.550003051758
 20
-121.279296875
 42
0.0
  0
VERTEX
  8
0
 10
-107.150009155273
 20
-121.279296875
 42
0.0
  0
SEQEND
  0
POLYLINE
  8
0
 66
     1
 10
0.0
 20
0.0
 30
0.0
 70
     1
  0
VERTEX
  8
0
 10
164.750015258789
 20
-32.8792877197266
 42
0.0
  0
VERTEX
  8
0
 10
146.050003051758
 20
-32.8792877197266
 42
0.0
  0
VERTEX
  8
0
 10
146.050003051758
 20
-81.0792846679688
 42
0.0
  0
VERTEX
  8
0
 10
130.650009155273
 20
-81.0792846679688
 42
0.0
  0
VERTEX
  8
0
 10
130.650009155273
 20
-32.8792877197266
 42
0.0
  0
VERTEX
  8
0
 10
111.95002746582
 20
-32.8792877197266
 42
0.0
  0
VERTEX
  8
0
 10
111.95002746582
 20
-21.2792816162109
 42
0.0
  0
VERTEX
  8
0
 10
164.750015258789
 20
-21.2792816162109
 42
0.0
  0
SEQEND
  0
POLYLINE
  8
0
 66
     1
 10
0.0
 20
0.0
 30
0.0
 70
     1
  0
VERTEX
  8
0
 10
101.375015258789
 20
-62.3245849609375
 42
0.0
  0
VERTEX
  8
0
 10
101.345718383789
 20
-63.4201965332031
 42
0.0
  0
VERTEX
  8
0
 10
101.257820129395
 20
-64.4897766113281
 42
0.0
  0
VERTEX
  8
0
 10
101.111312866211
 20
-65.5334777832031
 42
0.0
  0
VERTEX
  8
0
 10
100.906211853027
 20
-66.5510864257813
 42
0.0
  0
VERTEX
  8
0
 10
100.642509460449
 20
-67.5427551269531
 42
0.0
  0
VERTEX
  8
0
 10
100.320213317871
 20
-68.5084533691406
 42
0.0
  0
VERTEX
  8
0
 10
99.9393081665039
 20
-69.4481811523438
 42
0.0
  0
VERTEX
  8
0
 10
99.4998092651367
 20
-70.3619079589844
 42
0.0
  0
VERTEX
  8
0
 10
99.0017166137695
 20
-71.2496337890625
 42
0.0
  0
VERTEX
  8
0
 10
98.4450149536133
 20
-72.1113891601563
 42
0.0
  0
VERTEX
  8
0
 10
97.8297119140625
 20
-72.9471740722656
 42
0.0
  0
VERTEX
  8
0
 10
97.1558151245117
 20
-73.7569885253906
 42
0.0
  0
VERTEX
  8
0
 10
96.4233093261719
 20
-74.540771484375
 42
0.0
  0
VERTEX
  8
0
 10
95.6322174072266
 20
-75.2986145019531
 42
0.0
  0
VERTEX
  8
0
 10
94.7825164794922
 20
-76.0304565429688
 42
0.0
  0
VERTEX
  8
0
 10
93.8742218017578
 20
-76.736328125
 42
0.0
  0
VERTEX
  8
0
 10
92.9156494140625
 20
-77.4075622558594
 42
0.0
  0
VERTEX
  8
0
 10
91.9151306152344
 20
-78.0354919433594
 42
0.0
  0
VERTEX
  8
0
 10
90.8726577758789
 20
-78.6200561523438
 42
0.0
  0
VERTEX
  8
0
 10
89.7882308959961
 20
-79.161376953125
 42
0.0
  0
VERTEX
  8
0
 10
88.661865234375
 20
-79.6593627929688
 42
0.0
  0
VERTEX
  8
0
 10
87.4935455322266
 20
-80.1140747070312
 42
0.0
  0
VERTEX
  8
0
 10
86.2832717895508
 20
-80.5254821777344
 42
0.0
  0
VERTEX
  8
0
 10
85.0310516357422
 20
-80.8935546875
 42
0.0
  0
VERTEX
  8
0
 10
83.7368927001953
 20
-81.2183837890625
 42
0.0
  0
VERTEX
  8
0
 10
82.400764465332
 20
-81.4998168945313
 42
0.0
  0
VERTEX
  8
0
 10
81.022705078125
 20
-81.7380065917969
 42
0.0
  0
VERTEX
  8
0
 10
79.6026840209961
 20
-81.932861328125
 42
0.0
  0
VERTEX
  8
0
 10
76.6368026733398
 20
-82.1926879882813
 42
0.0
  0
VERTEX
  8
0
 10
73.5031280517578
 20
-82.279296875
 42
0.0
  0
VERTEX
  8
0
 10
69.9022064208984
 20
-82.197509765625
 42
0.0
  0
VERTEX
  8
0
 10
66.5400390625
 20
-81.9521179199219
 42
0.0
  0
VERTEX
  8
0
 10
63.4166488647461
 20
-81.543212890625
 42
0.0
  0
VERTEX
  8
0
 10
61.9444961547851
 20
-81.2774047851562
 42
0.0
  0
VERTEX
  8
0
 10
60.5320281982422
 20
-80.970703125
 42
0.0
  0
VERTEX
  8
0
 10
57.8107872009277
 20
-80.2723693847656
 42
0.0
  0
VERTEX
  8
0
 10
55.1775360107422
 20
-79.4861450195313
 42
0.0
  0
VERTEX
  8
0
 10
52.6322784423828
 20
-78.6118469238281
 42
0.0
  0
VERTEX
  8
0
 10
50.1750030517578
 20
-77.6495971679688
 42
0.0
  0
VERTEX
  8
0
 10
50.1750030517578
 20
-63.279296875
 42
0.0
  0
VERTEX
  8
0
 10
51.8640594482422
 20
-63.279296875
 42
0.0
  0
VERTEX
  8
0
 10
53.0780448913574
 20
-64.2041015625
 42
0.0
  0
VERTEX
  8
0
 10
54.3278274536133
 20
-65.07373046875
 42
0.0
  0
VERTEX
  8
0
 10
55.6134033203125
 20
-65.8882446289063
 42
0.0
  0
VERTEX
  8
0
 10
56.9347686767578
 20
-66.6476440429688
 42
0.0
  0
VERTEX
  8
0
 10
58.2919235229492
 20
-67.3518981933594
 42
0.0
  0
VERTEX
  8
0
 10
59.6848754882813
 20
-68.0010375976563
 42
0.0
  0
VERTEX
  8
0
 10
61.1136131286621
 20
-68.5950927734375
 42
0.0
  0
VERTEX
  8
0
 10
62.5781402587891
 20
-69.1339721679688
 42
0.0
  0
VERTEX
  8
0
 10
64.0533676147461
 20
-69.6133728027344
 42
0.0
  0
VERTEX
  8
0
 10
65.5141754150391
 20
-70.02880859375
 42
0.0
  0
VERTEX
  8
0
 10
66.960578918457
 20
-70.3803405761719
 42
0.0
  0
VERTEX
  8
0
 10
68.3925857543945
 20
-70.66796875
 42
0.0
  0
VERTEX
  8
0
 10
69.8101959228516
 20
-70.8916625976563
 42
0.0
  0
VERTEX
  8
0
 10
71.2133865356445
 20
-71.0514526367188
 42
0.0
  0
VERTEX
  8
0
 10
72.6021881103516
 20
-71.1473388671875
 42
0.0
  0
VERTEX
  8
0
 10
73.9765777587891
 20
-71.1792907714844
 42
0.0
  0
VERTEX
  8
0
 10
75.6043014526367
 20
-71.1189270019531
 42
0.0
  0
VERTEX
  8
0
 10
77.6750030517578
 20
-70.9378662109375
 42
0.0
  0
VERTEX
  8
0
 10
78.7682647705078
 20
-70.7970886230469
 42
0.0
  0
VERTEX
  8
0
 10
79.7558670043945
 20
-70.6162109375
 42
0.0
  0
VERTEX
  8
0
 10
80.2100448608398
 20
-70.5106811523438
 42
0.0
  0
VERTEX
  8
0
 10
80.6378021240234
 20
-70.3951416015625
 42
0.0
  0
VERTEX
  8
0
 10
81.0391464233398
 20
-70.2695922851563
 42
0.0
  0
VERTEX
  8
0
 10
81.4140777587891
 20
-70.1339721679688
 42
0.0
  0
VERTEX
  8
0
 10
81.8465347290039
 20
-69.9474792480469
 42
0.0
  0
VERTEX
  8
0
 10
82.259536743164
 20
-69.7496032714844
 42
0.0
  0
VERTEX
  8
0
 10
82.6530685424805
 20
-69.5404052734375
 42
0.0
  0
VERTEX
  8
0
 10
83.0271530151367
 20
-69.3199157714844
 42
0.0
  0
VERTEX
  8
0
 10
83.3817749023438
 20
-69.0880737304688
 42
0.0
  0
VERTEX
  8
0
 10
83.7169418334961
 20
-68.8449096679688
 42
0.0
  0
VERTEX
  8
0
 10
84.0326538085938
 20
-68.5904235839844
 42
0.0
  0
VERTEX
  8
0
 10
84.3289031982422
 20
-68.3245849609375
 42
0.0
  0
VERTEX
  8
0
 10
84.4676895141602
 20
-68.1847534179688
 42
0.0
  0
VERTEX
  8
0
 10
84.597526550293
 20
-68.0368041992188
 42
0.0
  0
VERTEX
  8
0
 10
84.718391418457
 20
-67.8806457519531
 42
0.0
  0
VERTEX
  8
0
 10
84.8303298950195
 20
-67.71630859375
 42
0.0
  0
VERTEX
  8
0
 10
84.9332885742188
 20
-67.5437927246094
 42
0.0
  0
VERTEX
  8
0
 10
85.0272979736328
 20
-67.3631591796875
 42
0.0
  0
VERTEX
  8
0
 10
85.1123657226563
 20
-67.17431640625
 42
0.0
  0
VERTEX
  8
0
 10
85.1884765625
 20
-66.9773254394531
 42
0.0
  0
VERTEX
  8
0
 10
85.2556228637695
 20
-66.7721862792969
 42
0.0
  0
VERTEX
  8
0
 10
85.3138275146484
 20
-66.558837890625
 42
0.0
  0
VERTEX
  8
0
 10
85.3630676269531
 20
-66.3373413085938
 42
0.0
  0
VERTEX
  8
0
 10
85.4033584594727
 20
-66.1077270507813
 42
0.0
  0
VERTEX
  8
0
 10
85.434700012207
 20
-65.869873046875
 42
0.0
  0
VERTEX
  8
0
 10
85.4570846557617
 20
-65.6239013671875
 42
0.0
  0
VERTEX
  8
0
 10
85.4705123901367
 20
-65.3697204589844
 42
0.0
  0
VERTEX
  8
0
 10
85.4749908447266
 20
-65.107421875
 42
0.0
  0
VERTEX
  8
0
 10
85.4684753417969
 20
-64.8626403808594
 42
0.0
  0
VERTEX
  8
0
 10
85.4489593505859
 20
-64.6221923828125
 42
0.0
  0
VERTEX
  8
0
 10
85.4164123535156
 20
-64.3858947753906
 42
0.0
  0
VERTEX
  8
0
 10
85.370849609375
 20
-64.1538696289063
 42
0.0
  0
VERTEX
  8
0
 10
85.312255859375
 20
-63.9261474609375
 42
0.0
  0
VERTEX
  8
0
 10
85.2406616210938
 20
-63.70263671875
 42
0.0
  0
VERTEX
  8
0
 10
85.1560440063477
 20
-63.4833374023438
 42
0.0
  0
VERTEX
  8
0
 10
85.0583953857422
 20
-63.2683715820313
 42
0.0
  0
VERTEX
  8
0
 10
84.9477386474609
 20
-63.0575561523438
 42
0.0
  0
VERTEX
  8
0
 10
84.8240661621094
 20
-62.85107421875
 42
0.0
  0
VERTEX
  8
0
 10
84.687370300293
 20
-62.6488037109375
 42
0.0
  0
VERTEX
  8
0
 10
84.5376586914063
 20
-62.4507751464844
 42
0.0
  0
VERTEX
  8
0
 10
84.3749237060547
 20
-62.2570190429688
 42
0.0
  0
VERTEX
  8
0
 10
84.1991729736328
 20
-62.0674743652344
 42
0.0
  0
VERTEX
  8
0
 10
84.0103988647461
 20
-61.8822021484375
 42
0.0
  0
VERTEX
  8
0
 10
83.808609008789
 20
-61.701171875
 42
0.0
  0
VERTEX
  8
0
 10
83.5942611694336
 20
-61.5248413085938
 42
0.0
  0
VERTEX
  8
0
 10
83.3678207397461
 20
-61.3537902832031
 42
0.0
  0
VERTEX
  8
0
 10
83.1292877197265
 20
-61.1878662109375
 42
0.0
  0
VERTEX
  8
0
 10
82.8786697387695
 20
-61.0271301269531
 42
0.0
  0
VERTEX
  8
0
 10
82.3411483764648
 20
-60.7213134765625
 42
0.0
  0
VERTEX
  8
0
 10
81.7552719116211
 20
-60.4363098144531
 42
0.0
  0
VERTEX
  8
0
 10
81.1210327148438
 20
-60.172119140625
 42
0.0
  0
VERTEX
  8
0
 10
80.4384307861328
 20
-59.9287109375
 42
0.0
  0
VERTEX
  8
0
 10
79.7074584960938
 20
-59.7060852050781
 42
0.0
  0
VERTEX
  8
0
 10
78.9281158447266
 20
-59.5042724609375
 42
0.0
  0
VERTEX
  8
0
 10
71.8000030517578
 20
-57.9925537109375
 42
0.0
  0
VERTEX
  8
0
 10
68.1605606079102
 20
-57.1911926269531
 42
0.0
  0
VERTEX
  8
0
 10
66.4272537231445
 20
-56.7185668945313
 42
0.0
  0
VERTEX
  8
0
 10
64.7515716552734
 20
-56.1980285644531
 42
0.0
  0
VERTEX
  8
0
 10
62.9302749633789
 20
-55.5557861328125
 42
0.0
  0
VERTEX
  8
0
 10
61.2413711547851
 20
-54.8587646484375
 42
0.0
  0
VERTEX
  8
0
 10
59.6848678588867
 20
-54.1069641113281
 42
0.0
  0
VERTEX
  8
0
 10
58.2607574462891
 20
-53.3003845214844
 42
0.0
  0
VERTEX
  8
0
 10
57.5983505249024
 20
-52.8765258789063
 42
0.0
  0
VERTEX
  8
0
 10
56.9690475463867
 20
-52.4390258789063
 42
0.0
  0
VERTEX
  8
0
 10
56.3728370666504
 20
-51.9877624511719
 42
0.0
  0
VERTEX
  8
0
 10
55.8097305297851
 20
-51.5228271484375
 42
0.0
  0
VERTEX
  8
0
 10
55.2797203063965
 20
-51.0442199707031
 42
0.0
  0
VERTEX
  8
0
 10
54.7828140258789
 20
-50.5518798828125
 42
0.0
  0
VERTEX
  8
0
 10
54.3190040588379
 20
-50.0458679199219
 42
0.0
  0
VERTEX
  8
0
 10
53.8882904052734
 20
-49.5261535644531
 42
0.0
  0
VERTEX
  8
0
 10
53.4870719909668
 20
-48.9916381835938
 42
0.0
  0
VERTEX
  8
0
 10
53.1117324829102
 20
-48.4412231445313
 42
0.0
  0
VERTEX
  8
0
 10
52.7622871398926
 20
-47.8749084472656
 42
0.0
  0
VERTEX
  8
0
 10
52.4387245178223
 20
-47.2926635742188
 42
0.0
  0
VERTEX
  8
0
 10
52.1410446166992
 20
-46.6945190429688
 42
0.0
  0
VERTEX
  8
0
 10
51.869255065918
 20
-46.0804748535156
 42
0.0
  0
VERTEX
  8
0
 10
51.6233406066895
 20
-45.4505004882813
 42
0.0
  0
VERTEX
  8
0
 10
51.4033203125
 20
-44.8046569824219
 42
0.0
  0
VERTEX
  8
0
 10
51.2091865539551
 20
-44.1429138183594
 42
0.0
  0
VERTEX
  8
0
 10
51.0409278869629
 20
-43.4652709960938
 42
0.0
  0
VERTEX
  8
0
 10
50.8985595703125
 20
-42.7716674804688
 42
0.0
  0
VERTEX
  8
0
 10
50.7820777893066
 20
-42.0621948242187
 42
0.0
  0
VERTEX
  8
0
 10
50.691478729248
 20
-41.3367919921875
 42
0.0
  0
VERTEX
  8
0
 10
50.6267700195313
 20
-40.5955200195312
 42
0.0
  0
VERTEX
  8
0
 10
50.5749969482422
 20
-39.0652160644531
 42
0.0
  0
VERTEX
  8
0
 10
50.6042556762695
 20
-38.0292053222656
 42
0.0
  0
VERTEX
  8
0
 10
50.6920356750488
 20
-37.0173034667969
 42
0.0
  0
VERTEX
  8
0
 10
50.8383407592773
 20
-36.0294647216797
 42
0.0
  0
VERTEX
  8
0
 10
51.0431671142578
 20
-35.0657501220703
 42
0.0
  0
VERTEX
  8
0
 10
51.3065032958984
 20
-34.1261291503906
 42
0.0
  0
VERTEX
  8
0
 10
51.6283721923828
 20
-33.2105712890625
 42
0.0
  0
VERTEX
  8
0
 10
52.0087547302246
 20
-32.319091796875
 42
0.0
  0
VERTEX
  8
0
 10
52.4476547241211
 20
-31.4517364501953
 42
0.0
  0
VERTEX
  8
0
 10
52.9450836181641
 20
-30.6084594726563
 42
0.0
  0
VERTEX
  8
0
 10
53.5010299682617
 20
-29.7892761230469
 42
0.0
  0
VERTEX
  8
0
 10
54.1154937744141
 20
-28.9941711425781
 42
0.0
  0
VERTEX
  8
0
 10
54.7884826660156
 20
-28.2231750488281
 42
0.0
  0
VERTEX
  8
0
 10
55.5199890136719
 20
-27.4762573242188
 42
0.0
  0
VERTEX
  8
0
 10
56.3100128173828
 20
-26.7534484863281
 42
0.0
  0
VERTEX
  8
0
 10
57.158561706543
 20
-26.0547027587891
 42
0.0
  0
VERTEX
  8
0
 10
58.0656280517578
 20
-25.3800659179688
 42
0.0
  0
VERTEX
  8
0
 10
59.0186729431152
 20
-24.7381744384766
 42
0.0
  0
VERTEX
  8
0
 10
60.0051231384277
 20
-24.1376953125
 42
0.0
  0
VERTEX
  8
0
 10
61.0250129699707
 20
-23.5786285400391
 42
0.0
  0
VERTEX
  8
0
 10
62.0783195495605
 20
-23.0609741210938
 42
0.0
  0
VERTEX
  8
0
 10
63.1650543212891
 20
-22.5847320556641
 42
0.0
  0
VERTEX
  8
0
 10
64.2852020263672
 20
-22.14990234375
 42
0.0
  0
VERTEX
  8
0
 10
65.4387817382813
 20
-21.7564849853516
 42
0.0
  0
VERTEX
  8
0
 10
66.6257858276367
 20
-21.4044799804688
 42
0.0
  0
VERTEX
  8
0
 10
67.8462066650391
 20
-21.0938873291016
 42
0.0
  0
VERTEX
  8
0
 10
69.1000518798828
 20
-20.82470703125
 42
0.0
  0
VERTEX
  8
0
 10
70.3873138427734
 20
-20.5969390869141
 42
0.0
  0
VERTEX
  8
0
 10
71.7080078125
 20
-20.4105834960938
 42
0.0
  0
VERTEX
  8
0
 10
74.4496612548828
 20
-20.162109375
 42
0.0
  0
VERTEX
  8
0
 10
77.3249969482422
 20
-20.0792846679688
 42
0.0
  0
VERTEX
  8
0
 10
80.2685470581055
 20
-20.15087890625
 42
0.0
  0
VERTEX
  8
0
 10
83.1945343017578
 20
-20.3656005859375
 42
0.0
  0
VERTEX
  8
0
 10
86.1029357910156
 20
-20.7235412597656
 42
0.0
  0
VERTEX
  8
0
 10
88.9937591552734
 20
-21.2245941162109
 42
0.0
  0
VERTEX
  8
0
 10
91.7791061401367
 20
-21.8336639404297
 42
0.0
  0
VERTEX
  8
0
 10
94.3711013793945
 20
-22.515625
 42
0.0
  0
VERTEX
  8
0
 10
96.7697296142578
 20
-23.2703857421875
 42
0.0
  0
VERTEX
  8
0
 10
98.9749908447266
 20
-24.0980377197266
 42
0.0
  0
VERTEX
  8
0
 10
98.9749908447266
 20
-37.8792724609375
 42
0.0
  0
VERTEX
  8
0
 10
97.3296966552734
 20
-37.8792724609375
 42
0.0
  0
VERTEX
  8
0
 10
96.4015731811523
 20
-37.1697998046875
 42
0.0
  0
VERTEX
  8
0
 10
95.4226608276367
 20
-36.4899139404297
 42
0.0
  0
VERTEX
  8
0
 10
94.3929672241211
 20
-35.8395690917969
 42
0.0
  0
VERTEX
  8
0
 10
93.3125
 20
-35.2187347412109
 42
0.0
  0
VERTEX
  8
0
 10
92.1812515258789
 20
-34.6274566650391
 42
0.0
  0
VERTEX
  8
0
 10
90.9992141723633
 20
-34.0657196044922
 42
0.0
  0
VERTEX
  8
0
 10
88.4828033447266
 20
-33.0308532714844
 42
0.0
  0
VERTEX
  8
0
 10
87.1703567504883
 20
-32.5734405517578
 42
0.0
  0
VERTEX
  8
0
 10
85.8509826660156
 20
-32.1770477294922
 42
0.0
  0
VERTEX
  8
0
 10
84.524658203125
 20
-31.8416137695313
 42
0.0
  0
VERTEX
  8
0
 10
83.19140625
 20
-31.5671691894531
 42
0.0
  0
VERTEX
  8
0
 10
81.8512268066406
 20
-31.3537139892578
 42
0.0
  0
VERTEX
  8
0
 10
80.5041046142578
 20
-31.2012634277344
 42
0.0
  0
VERTEX
  8
0
 10
79.1500549316406
 20
-31.1097717285156
 42
0.0
  0
VERTEX
  8
0
 10
77.7890777587891
 20
-31.0792846679688
 42
0.0
  0
VERTEX
  8
0
 10
75.8687515258789
 20
-31.1452941894531
 42
0.0
  0
VERTEX
  8
0
 10
73.9578094482422
 20
-31.3433532714844
 42
0.0
  0
VERTEX
  8
0
 10
73.0135803222656
 20
-31.5045928955078
 42
0.0
  0
VERTEX
  8
0
 10
72.0871124267578
 20
-31.7242126464844
 42
0.0
  0
VERTEX
  8
0
 10
71.1784210205078
 20
-32.0022430419922
 42
0.0
  0
VERTEX
  8
0
 10
70.2874908447266
 20
-32.3386535644531
 42
0.0
  0
VERTEX
  8
0
 10
69.9029922485352
 20
-32.5008544921875
 42
0.0
  0
VERTEX
  8
0
 10
69.5323333740234
 20
-32.6826782226563
 42
0.0
  0
VERTEX
  8
0
 10
69.1754608154297
 20
-32.8842468261719
 42
0.0
  0
VERTEX
  8
0
 10
68.8324279785156
 20
-33.1054534912109
 42
0.0
  0
VERTEX
  8
0
 10
68.5032043457031
 20
-33.3463592529297
 42
0.0
  0
VERTEX
  8
0
 10
68.1877899169922
 20
-33.6069183349609
 42
0.0
  0
VERTEX
  8
0
 10
67.8862075805664
 20
-33.8871765136719
 42
0.0
  0
VERTEX
  8
0
 10
67.5984344482422
 20
-34.1871032714844
 42
0.0
  0
VERTEX
  8
0
 10
67.4623870849609
 20
-34.3433380126953
 42
0.0
  0
VERTEX
  8
0
 10
67.3351287841797
 20
-34.5022735595703
 42
0.0
  0
VERTEX
  8
0
 10
67.2166366577148
 20
-34.6638946533203
 42
0.0
  0
VERTEX
  8
0
 10
67.1069259643555
 20
-34.8282165527344
 42
0.0
  0
VERTEX
  8
0
 10
67.005989074707
 20
-34.9952392578125
 42
0.0
  0
VERTEX
  8
0
 10
66.9138412475586
 20
-35.1649475097656
 42
0.0
  0
VERTEX
  8
0
 10
66.8304595947266
 20
-35.3373718261719
 42
0.0
  0
VERTEX
  8
0
 10
66.7558517456055
 20
-35.5124969482422
 42
0.0
  0
VERTEX
  8
0
 10
66.6900253295898
 20
-35.6903076171875
 42
0.0
  0
VERTEX
  8
0
 10
66.6329727172852
 20
-35.8708038330078
 42
0.0
  0
VERTEX
  8
0
 10
66.5847015380859
 20
-36.0540161132813
 42
0.0
  0
VERTEX
  8
0
 10
66.5452041625977
 20
-36.2399291992188
 42
0.0
  0
VERTEX
  8
0
 10
66.5144882202148
 20
-36.4285278320313
 42
0.0
  0
VERTEX
  8
0
 10
66.492546081543
 20
-36.6198272705078
 42
0.0
  0
VERTEX
  8
0
 10
66.479377746582
 20
-36.8138275146484
 42
0.0
  0
VERTEX
  8
0
 10
66.4749908447266
 20
-37.0105285644531
 42
0.0
  0
VERTEX
  8
0
 10
66.482048034668
 20
-37.303466796875
 42
0.0
  0
VERTEX
  8
0
 10
66.5032272338867
 20
-37.5877380371094
 42
0.0
  0
VERTEX
  8
0
 10
66.5385131835938
 20
-37.8633728027344
 42
0.0
  0
VERTEX
  8
0
 10
66.5879364013672
 20
-38.1303100585938
 42
0.0
  0
VERTEX
  8
0
 10
66.6514587402344
 20
-38.3886108398438
 42
0.0
  0
VERTEX
  8
0
 10
66.7291030883789
 20
-38.6382446289063
 42
0.0
  0
VERTEX
  8
0
 10
66.8208770751953
 20
-38.8792114257813
 42
0.0
  0
VERTEX
  8
0
 10
66.9267578125
 20
-39.1115112304688
 42
0.0
  0
VERTEX
  8
0
 10
67.0467529296875
 20
-39.3351440429688
 42
0.0
  0
VERTEX
  8
0
 10
67.1808700561523
 20
-39.5501403808594
 42
0.0
  0
VERTEX
  8
0
 10
67.3291015625
 20
-39.7564697265625
 42
0.0
  0
VERTEX
  8
0
 10
67.491455078125
 20
-39.9541320800781
 42
0.0
  0
VERTEX
  8
0
 10
67.6679229736328
 20
-40.1431274414063
 42
0.0
  0
VERTEX
  8
0
 10
67.8585052490234
 20
-40.323486328125
 42
0.0
  0
VERTEX
  8
0
 10
68.0632095336914
 20
-40.4951782226563
 42
0.0
  0
VERTEX
  8
0
 10
68.2820281982422
 20
-40.658203125
 42
0.0
  0
VERTEX
  8
0
 10
68.5204544067383
 20
-40.8160095214844
 42
0.0
  0
VERTEX
  8
0
 10
68.7839889526367
 20
-40.9721069335937
 42
0.0
  0
VERTEX
  8
0
 10
69.0726318359375
 20
-41.1265258789062
 42
0.0
  0
VERTEX
  8
0
 10
69.3863754272461
 20
-41.2791137695312
 42
0.0
  0
VERTEX
  8
0
 10
70.0891647338867
 20
-41.5792541503906
 42
0.0
  0
VERTEX
  8
0
 10
70.8923797607422
 20
-41.8724670410156
 42
0.0
  0
VERTEX
  8
0
 10
71.7960052490234
 20
-42.1587524414063
 42
0.0
  0
VERTEX
  8
0
 10
72.800048828125
 20
-42.4381103515625
 42
0.0
  0
VERTEX
  8
0
 10
75.1093902587891
 20
-42.9761657714844
 42
0.0
  0
VERTEX
  8
0
 10
81.4351654052734
 20
-44.306640625
 42
0.0
  0
VERTEX
  8
0
 10
84.5826187133789
 20
-45.0720825195313
 42
0.0
  0
VERTEX
  8
0
 10
87.9609527587891
 20
-46.0792846679688
 42
0.0
  0
VERTEX
  8
0
 10
89.6216049194336
 20
-46.6692199707031
 42
0.0
  0
VERTEX
  8
0
 10
91.1699371337891
 20
-47.3101806640625
 42
0.0
  0
VERTEX
  8
0
 10
92.6059646606445
 20
-48.0021362304688
 42
0.0
  0
VERTEX
  8
0
 10
93.9296951293945
 20
-48.7450866699219
 42
0.0
  0
VERTEX
  8
0
 10
94.5494384765625
 20
-49.1356811523438
 42
0.0
  0
VERTEX
  8
0
 10
95.14111328125
 20
-49.5390319824219
 42
0.0
  0
VERTEX
  8
0
 10
95.7047119140625
 20
-49.9551391601563
 42
0.0
  0
VERTEX
  8
0
 10
96.2402420043945
 20
-50.3840026855469
 42
0.0
  0
VERTEX
  8
0
 10
96.7476959228516
 20
-50.8256225585938
 42
0.0
  0
VERTEX
  8
0
 10
97.2270584106445
 20
-51.2799682617188
 42
0.0
  0
VERTEX
  8
0
 10
97.678352355957
 20
-51.7470703125
 42
0.0
  0
VERTEX
  8
0
 10
98.1015777587891
 20
-52.2269287109375
 42
0.0
  0
VERTEX
  8
0
 10
98.4979705810547
 20
-52.7222290039063
 42
0.0
  0
VERTEX
  8
0
 10
98.8687896728516
 20
-53.2356262207031
 42
0.0
  0
VERTEX
  8
0
 10
99.2140350341797
 20
-53.7671203613281
 42
0.0
  0
VERTEX
  8
0
 10
99.5337066650391
 20
-54.3167419433594
 42
0.0
  0
VERTEX
  8
0
 10
99.8277969360352
 20
-54.8844299316406
 42
0.0
  0
VERTEX
  8
0
 10
100.096321105957
 20
-55.4702758789063
 42
0.0
  0
VERTEX
  8
0
 10
100.339263916016
 20
-56.0742492675781
 42
0.0
  0
VERTEX
  8
0
 10
100.556648254395
 20
-56.6962890625
 42
0.0
  0
VERTEX
  8
0
 10
100.748458862305
 20
-57.33642578125
 42
0.0
  0
VERTEX
  8
0
 10
100.914688110352
 20
-57.9946899414063
 42
0.0
  0
VERTEX
  8
0
 10
101.05534362793
 20
-58.6710815429688
 42
0.0
  0
VERTEX
  8
0
 10
101.170425415039
 20
-59.3655700683594
 42
0.0
  0
VERTEX
  8
0
 10
101.25993347168
 20
-60.0781860351563
 42
0.0
  0
VERTEX
  8
0
 10
101.323867797852
 20
-60.8088684082031
 42
0.0
  0
SEQEND
  0
POLYLINE
  8
0
 66
     1
 10
0.0
 20
0.0
 30
0.0
 70
     1
  0
VERTEX
  8
0
 10
40.6000061035156
 20
-81.0792846679688
 42
0.0
  0
VERTEX
  8
0
 10
21.6921844482422
 20
-81.0792846679688
 42
0.0
  0
VERTEX
  8
0
 10
5.3968811035156
 20
-59.1792907714844
 42
0.0
  0
VERTEX
  8
0
 10
-1.6999969482422
 20
-59.1792907714844
 42
0.0
  0
VERTEX
  8
0
 10
-1.6999969482422
 20
-81.0792846679688
 42
0.0
  0
VERTEX
  8
0
 10
-17.0999908447266
 20
-81.0792846679688
 42
0.0
  0
VERTEX
  8
0
 10
-17.0999908447266
 20
-21.2792816162109
 42
0.0
  0
VERTEX
  8
0
 10
8.8265686035156
 20
-21.2792816162109
 42
0.0
  0
VERTEX
  8
0
 10
13.7693405151367
 20
-21.4300689697266
 42
0.0
  0
VERTEX
  8
0
 10
15.9610900878906
 20
-21.6185455322266
 42
0.0
  0
VERTEX
  8
0
 10
17.9664154052734
 20
-21.8824157714844
 42
0.0
  0
VERTEX
  8
0
 10
18.9149360656738
 20
-22.0551605224609
 42
0.0
  0
VERTEX
  8
0
 10
19.8483924865723
 20
-22.2718811035156
 42
0.0
  0
VERTEX
  8
0
 10
20.766788482666
 20
-22.5325012207031
 42
0.0
  0
VERTEX
  8
0
 10
21.6701202392578
 20
-22.8370819091797
 42
0.0
  0
VERTEX
  8
0
 10
22.5583896636963
 20
-23.1856231689453
 42
0.0
  0
VERTEX
  8
0
 10
23.4315948486328
 20
-23.5781097412109
 42
0.0
  0
VERTEX
  8
0
 10
24.2897357940674
 20
-24.0145263671875
 42
0.0
  0
VERTEX
  8
0
 10
25.1328125
 20
-24.4949035644531
 42
0.0
  0
VERTEX
  8
0
 10
25.9564342498779
 20
-25.0157470703125
 42
0.0
  0
VERTEX
  8
0
 10
26.7366695404053
 20
-25.5736846923828
 42
0.0
  0
VERTEX
  8
0
 10
27.4735221862793
 20
-26.1687164306641
 42
0.0
  0
VERTEX
  8
0
 10
28.1669940948486
 20
-26.80078125
 42
0.0
  0
VERTEX
  8
0
 10
28.817081451416
 20
-27.4698944091797
 42
0.0
  0
VERTEX
  8
0
 10
29.4237823486328
 20
-28.1760559082031
 42
0.0
  0
VERTEX
  8
0
 10
29.9871025085449
 20
-28.9192810058594
 42
0.0
  0
VERTEX
  8
0
 10
30.5070343017578
 20
-29.6996002197266
 42
0.0
  0
VERTEX
  8
0
 10
30.7483711242676
 20
-30.1053771972656
 42
0.0
  0
VERTEX
  8
0
 10
30.9741363525391
 20
-30.5238647460938
 42
0.0
  0
VERTEX
  8
0
 10
31.1843299865723
 20
-30.955078125
 42
0.0
  0
VERTEX
  8
0
 10
31.3789558410645
 20
-31.3990325927734
 42
0.0
  0
VERTEX
  8
0
 10
31.5580139160156
 20
-31.8556518554688
 42
0.0
  0
VERTEX
  8
0
 10
31.7214965820313
 20
-32.3250579833984
 42
0.0
  0
VERTEX
  8
0
 10
31.8694133758545
 20
-32.8071441650391
 42
0.0
  0
VERTEX
  8
0
 10
32.0017585754395
 20
-33.3019256591797
 42
0.0
  0
VERTEX
  8
0
 10
32.2197418212891
 20
-34.3297271728516
 42
0.0
  0
VERTEX
  8
0
 10
32.3754386901855
 20
-35.4083862304688
 42
0.0
  0
VERTEX
  8
0
 10
32.4688606262207
 20
-36.5379333496094
 42
0.0
  0
VERTEX
  8
0
 10
32.5
 20
-37.7183532714844
 42
0.0
  0
VERTEX
  8
0
 10
32.4517936706543
 20
-39.337890625
 42
0.0
  0
VERTEX
  8
0
 10
32.3071784973145
 20
-40.8807678222656
 42
0.0
  0
VERTEX
  8
0
 10
32.1987152099609
 20
-41.6234741210938
 42
0.0
  0
VERTEX
  8
0
 10
32.0661506652832
 20
-42.3470458984375
 42
0.0
  0
VERTEX
  8
0
 10
31.9094829559326
 20
-43.0514526367188
 42
0.0
  0
VERTEX
  8
0
 10
31.7287120819092
 20
-43.7366943359375
 42
0.0
  0
VERTEX
  8
0
 10
31.5238380432129
 20
-44.40283203125
 42
0.0
  0
VERTEX
  8
0
 10
31.2948608398438
 20
-45.0497436523438
 42
0.0
  0
VERTEX
  8
0
 10
31.0417823791504
 20
-45.6775817871094
 42
0.0
  0
VERTEX
  8
0
 10
30.7645988464356
 20
-46.2862243652344
 42
0.0
  0
VERTEX
  8
0
 10
30.4633140563965
 20
-46.875732421875
 42
0.0
  0
VERTEX
  8
0
 10
30.1379261016846
 20
-47.446044921875
 42
0.0
  0
VERTEX
  8
0
 10
29.7884349822998
 20
-47.9972534179687
 42
0.0
  0
VERTEX
  8
0
 10
29.4148406982422
 20
-48.529296875
 42
0.0
  0
VERTEX
  8
0
 10
29.0188713073731
 20
-49.0462646484375
 42
0.0
  0
VERTEX
  8
0
 10
28.6022567749023
 20
-49.55224609375
 42
0.0
  0
VERTEX
  8
0
 10
27.7070808410645
 20
-50.5312194824219
 42
0.0
  0
VERTEX
  8
0
 10
26.7293109893799
 20
-51.46630859375
 42
0.0
  0
VERTEX
  8
0
 10
25.6689491271973
 20
-52.357421875
 42
0.0
  0
VERTEX
  8
0
 10
24.5259914398193
 20
-53.20458984375
 42
0.0
  0
VERTEX
  8
0
 10
23.300443649292
 20
-54.0078125
 42
0.0
  0
VERTEX
  8
0
 10
21.9922981262207
 20
-54.76708984375
 42
0.0
  0
VERTEX
  8
0
 10
20.6015625
 20
-55.482421875
 42
0.0
  0
SEQEND
  0
POLYLINE
  8
0
 66
     1
 10
0.0
 20
0.0
 30
0.0
 70
     1
  0
VERTEX
  8
0
 10
16.5
 20
-39.5417785644531
 42
0.0
  0
VERTEX
  8
0
 10
16.485559463501
 20
-38.9931335449219
 42
0.0
  0
VERTEX
  8
0
 10
16.4422359466553
 20
-38.4644775390625
 42
0.0
  0
VERTEX
  8
0
 10
16.3700313568115
 20
-37.9557800292969
 42
0.0
  0
VERTEX
  8
0
 10
16.2689456939697
 20
-37.4669799804688
 42
0.0
  0
VERTEX
  8
0
 10
16.1389789581299
 20
-36.9981384277344
 42
0.0
  0
VERTEX
  8
0
 10
16.0631637573242
 20
-36.7711944580078
 42
0.0
  0
VERTEX
  8
0
 10
15.9801301956177
 20
-36.5492553710938
 42
0.0
  0
VERTEX
  8
0
 10
15.8898754119873
 20
-36.332275390625
 42
0.0
  0
VERTEX
  8
0
 10
15.7924003601074
 20
-36.1203155517578
 42
0.0
  0
VERTEX
  8
0
 10
15.6877059936523
 20
-35.913330078125
 42
0.0
  0
VERTEX
  8
0
 10
15.5757904052734
 20
-35.7113189697266
 42
0.0
  0
VERTEX
  8
0
 10
15.4550838470459
 20
-35.5144500732422
 42
0.0
  0
VERTEX
  8
0
 10
15.3240194320679
 20
-35.3228454589844
 42
0.0
  0
VERTEX
  8
0
 10
15.1825971603394
 20
-35.1366119384766
 42
0.0
  0
VERTEX
  8
0
 10
15.030816078186
 20
-34.9555969238281
 42
0.0
  0
VERTEX
  8
0
 10
14.8686800003052
 20
-34.7798919677734
 42
0.0
  0
VERTEX
  8
0
 10
14.6961851119995
 20
-34.6094970703125
 42
0.0
  0
VERTEX
  8
0
 10
14.5133333206177
 20
-34.4443817138672
 42
0.0
  0
VERTEX
  8
0
 10
14.3201217651367
 20
-34.2845458984375
 42
0.0
  0
VERTEX
  8
0
 10
14.1165542602539
 20
-34.1300201416016
 42
0.0
  0
VERTEX
  8
0
 10
13.9026288986206
 20
-33.9807891845703
 42
0.0
  0
VERTEX
  8
0
 10
13.6783456802368
 20
-33.8368225097656
 42
0.0
  0
VERTEX
  8
0
 10
13.4437046051025
 20
-33.6981811523438
 42
0.0
  0
VERTEX
  8
0
 10
12.9433498382568
 20
-33.4367370605469
 42
0.0
  0
VERTEX
  8
0
 10
12.4015655517578
 20
-33.1964721679688
 42
0.0
  0
VERTEX
  8
0
 10
12.0016174316406
 20
-33.0448913574219
 42
0.0
  0
VERTEX
  8
0
 10
11.5853586196899
 20
-32.9088134765625
 42
0.0
  0
VERTEX
  8
0
 10
11.1527919769287
 20
-32.788330078125
 42
0.0
  0
VERTEX
  8
0
 10
10.703914642334
 20
-32.6833801269531
 42
0.0
  0
VERTEX
  8
0
 10
10.2387285232544
 20
-32.593994140625
 42
0.0
  0
VERTEX
  8
0
 10
9.7572336196899
 20
-32.5201568603516
 42
0.0
  0
VERTEX
  8
0
 10
8.7453155517578
 20
-32.4191284179688
 42
0.0
  0
VERTEX
  8
0
 10
3.8843841552734
 20
-32.2792816162109
 42
0.0
  0
VERTEX
  8
0
 10
-1.6999969482422
 20
-32.2792816162109
 42
0.0
  0
VERTEX
  8
0
 10
-1.6999969482422
 20
-48.279296875
 42
0.0
  0
VERTEX
  8
0
 10
3.0406341552734
 20
-48.279296875
 42
0.0
  0
VERTEX
  8
0
 10
6.4359474182129
 20
-48.189453125
 42
0.0
  0
VERTEX
  8
0
 10
7.907431602478
 20
-48.0771484375
 42
0.0
  0
VERTEX
  8
0
 10
9.2281341552734
 20
-47.919921875
 42
0.0
  0
VERTEX
  8
0
 10
9.8382415771484
 20
-47.8157348632813
 42
0.0
  0
VERTEX
  8
0
 10
10.4232492446899
 20
-47.6828918457031
 42
0.0
  0
VERTEX
  8
0
 10
10.9831600189209
 20
-47.5213928222656
 42
0.0
  0
VERTEX
  8
0
 10
11.517972946167
 20
-47.3312377929688
 42
0.0
  0
VERTEX
  8
0
 10
12.0276880264282
 20
-47.1124267578125
 42
0.0
  0
VERTEX
  8
0
 10
12.5123062133789
 20
-46.8649291992188
 42
0.0
  0
VERTEX
  8
0
 10
12.7452030181885
 20
-46.7304382324219
 42
0.0
  0
VERTEX
  8
0
 10
12.9718265533447
 20
-46.5887756347656
 42
0.0
  0
VERTEX
  8
0
 10
13.192174911499
 20
-46.43994140625
 42
0.0
  0
VERTEX
  8
0
 10
13.40625
 20
-46.2839660644531
 42
0.0
  0
VERTEX
  8
0
 10
13.7946920394897
 20
-45.9709167480469
 42
0.0
  0
VERTEX
  8
0
 10
14.1561079025269
 20
-45.6496887207031
 42
0.0
  0
VERTEX
  8
0
 10
14.4904956817627
 20
-45.3203125
 42
0.0
  0
VERTEX
  8
0
 10
14.7978553771973
 20
-44.9828186035156
 42
0.0
  0
VERTEX
  8
0
 10
15.0781888961792
 20
-44.6371459960938
 42
0.0
  0
VERTEX
  8
0
 10
15.3314971923828
 20
-44.2832641601562
 42
0.0
  0
VERTEX
  8
0
 10
15.5577774047851
 20
-43.9212951660156
 42
0.0
  0
VERTEX
  8
0
 10
15.7570343017578
 20
-43.5511474609375
 42
0.0
  0
VERTEX
  8
0
 10
15.8470039367676
 20
-43.360107421875
 42
0.0
  0
VERTEX
  8
0
 10
15.9311685562134
 20
-43.1610717773438
 42
0.0
  0
VERTEX
  8
0
 10
16.0095291137695
 20
-42.9541015625
 42
0.0
  0
VERTEX
  8
0
 10
16.0820846557617
 20
-42.7392272949219
 42
0.0
  0
VERTEX
  8
0
 10
16.2097816467285
 20
-42.2856750488281
 42
0.0
  0
VERTEX
  8
0
 10
16.3142604827881
 20
-41.8003845214844
 42
0.0
  0
VERTEX
  8
0
 10
16.3955211639404
 20
-41.2833557128906
 42
0.0
  0
VERTEX
  8
0
 10
16.4535655975342
 20
-40.7345581054688
 42
0.0
  0
VERTEX
  8
0
 10
16.4883918762207
 20
-40.154052734375
 42
0.0
  0
SEQEND
  0
POLYLINE
  8
0
 66
     1
 10
0.0
 20
0.0
 30
0.0
 70
     1
  0
VERTEX
  8
0
 10
-53.6750030517578
 20
-80.4699096679687
 42
0.0
  0
VERTEX
  8
0
 10
-53.605884552002
 20
-81.4130554199219
 42
0.0
  0
VERTEX
  8
0
 10
-53.5496673583984
 20
-81.8587646484375
 42
0.0
  0
VERTEX
  8
0
 10
-53.4790077209473
 20
-82.2871398925781
 42
0.0
  0
VERTEX
  8
0
 10
-53.3939056396484
 20
-82.6982421875
 42
0.0
  0
VERTEX
  8
0
 10
-53.294361114502
 20
-83.0920715332031
 42
0.0
  0
VERTEX
  8
0
 10
-53.1803779602051
 20
-83.4686584472656
 42
0.0
  0
VERTEX
  8
0
 10
-53.0519561767578
 20
-83.8279113769531
 42
0.0
  0
VERTEX
  8
0
 10
-52.9090919494629
 20
-84.169921875
 42
0.0
  0
VERTEX
  8
0
 10
-52.7517852783203
 20
-84.49462890625
 42
0.0
  0
VERTEX
  8
0
 10
-52.5800399780274
 20
-84.8020629882813
 42
0.0
  0
VERTEX
  8
0
 10
-52.3938522338867
 20
-85.0922241210938
 42
0.0
  0
VERTEX
  8
0
 10
-52.1932220458984
 20
-85.3651123046875
 42
0.0
  0
VERTEX
  8
0
 10
-51.9781532287598
 20
-85.6207275390625
 42
0.0
  0
VERTEX
  8
0
 10
-51.7486419677734
 20
-85.8590393066406
 42
0.0
  0
VERTEX
  8
0
 10
-51.5046920776367
 20
-86.080078125
 42
0.0
  0
VERTEX
  8
0
 10
-51.3763236999512
 20
-86.1846008300781
 42
0.0
  0
VERTEX
  8
0
 10
-51.2423820495605
 20
-86.2858581542969
 42
0.0
  0
VERTEX
  8
0
 10
-50.9577941894531
 20
-86.4783630371094
 42
0.0
  0
VERTEX
  8
0
 10
-50.6509208679199
 20
-86.6575317382813
 42
0.0
  0
VERTEX
  8
0
 10
-50.32177734375
 20
-86.823486328125
 42
0.0
  0
VERTEX
  8
0
 10
-49.9703636169434
 20
-86.9761352539063
 42
0.0
  0
VERTEX
  8
0
 10
-49.5966567993164
 20
-87.1155395507813
 42
0.0
  0
VERTEX
  8
0
 10
-49.20068359375
 20
-87.2416687011719
 42
0.0
  0
VERTEX
  8
0
 10
-48.7824287414551
 20
-87.3544921875
 42
0.0
  0
VERTEX
  8
0
 10
-48.3418960571289
 20
-87.4541015625
 42
0.0
  0
VERTEX
  8
0
 10
-47.8790817260742
 20
-87.5403442382813
 42
0.0
  0
VERTEX
  8
0
 10
-46.8866271972656
 20
-87.673095703125
 42
0.0
  0
VERTEX
  8
0
 10
-45.8050537109375
 20
-87.7527465820313
 42
0.0
  0
VERTEX
  8
0
 10
-44.6343765258789
 20
-87.779296875
 42
0.0
  0
VERTEX
  8
0
 10
-44.2128677368164
 20
-87.7703247070312
 42
0.0
  0
VERTEX
  8
0
 10
-43.7725601196289
 20
-87.743408203125
 42
0.0
  0
VERTEX
  8
0
 10
-42.8355484008789
 20
-87.6357421875
 42
0.0
  0
VERTEX
  8
0
 10
-41.8233413696289
 20
-87.456298828125
 42
0.0
  0
VERTEX
  8
0
 10
-40.7359390258789
 20
-87.205078125
 42
0.0
  0
VERTEX
  8
0
 10
-38.8273468017578
 20
-86.6615295410156
 42
0.0
  0
VERTEX
  8
0
 10
-38.1291084289551
 20
-86.4127197265625
 42
0.0
  0
VERTEX
  8
0
 10
-37.8440017700195
 20
-86.2940979003906
 42
0.0
  0
VERTEX
  8
0
 10
-37.6015777587891
 20
-86.1792907714844
 42
0.0
  0
VERTEX
  8
0
 10
-36.0749969482422
 20
-86.1792907714844
 42
0.0
  0
VERTEX
  8
0
 10
-36.0749969482422
 20
-96.7574157714844
 42
0.0
  0
VERTEX
  8
0
 10
-38.4234390258789
 20
-97.247802734375
 42
0.0
  0
VERTEX
  8
0
 10
-40.9625015258789
 20
-97.6784973144531
 42
0.0
  0
VERTEX
  8
0
 10
-42.4544982910156
 20
-97.8538208007813
 42
0.0
  0
VERTEX
  8
0
 10
-44.2961006164551
 20
-97.9790649414063
 42
0.0
  0
VERTEX
  8
0
 10
-49.0281295776367
 20
-98.0792846679688
 42
0.0
  0
VERTEX
  8
0
 10
-51.3444900512695
 20
-98.006103515625
 42
0.0
  0
VERTEX
  8
0
 10
-52.4452056884766
 20
-97.9146118164063
 42
0.0
  0
VERTEX
  8
0
 10
-53.5076217651367
 20
-97.7865295410156
 42
0.0
  0
VERTEX
  8
0
 10
-54.5317306518555
 20
-97.6218566894531
 42
0.0
  0
VERTEX
  8
0
 10
-55.5175323486328
 20
-97.4205627441406
 42
0.0
  0
VERTEX
  8
0
 10
-56.4650268554688
 20
-97.1826782226563
 42
0.0
  0
VERTEX
  8
0
 10
-57.3742218017578
 20
-96.908203125
 42
0.0
  0
VERTEX
  8
0
 10
-58.245719909668
 20
-96.6002502441406
 42
0.0
  0
VERTEX
  8
0
 10
-59.0801277160645
 20
-96.2618713378906
 42
0.0
  0
VERTEX
  8
0
 10
-59.8774528503418
 20
-95.8930969238281
 42
0.0
  0
VERTEX
  8
0
 10
-60.6376953125
 20
-95.4939575195313
 42
0.0
  0
VERTEX
  8
0
 10
-61.3608551025391
 20
-95.0643920898438
 42
0.0
  0
VERTEX
  8
0
 10
-62.0469284057617
 20
-94.6044311523437
 42
0.0
  0
VERTEX
  8
0
 10
-62.695915222168
 20
-94.1141052246094
 42
0.0
  0
VERTEX
  8
0
 10
-63.3078155517578
 20
-93.5933532714844
 42
0.0
  0
VERTEX
  8
0
 10
-63.8727951049805
 20
-93.0553894042969
 42
0.0
  0
VERTEX
  8
0
 10
-64.4013214111328
 20
-92.493896484375
 42
0.0
  0
VERTEX
  8
0
 10
-64.8933944702148
 20
-91.9089050292969
 42
0.0
  0
VERTEX
  8
0
 10
-65.3490295410156
 20
-91.3003540039063
 42
0.0
  0
VERTEX
  8
0
 10
-65.7682037353516
 20
-90.6682739257812
 42
0.0
  0
VERTEX
  8
0
 10
-66.1509323120117
 20
-90.0126953125
 42
0.0
  0
VERTEX
  8
0
 10
-66.4972076416016
 20
-89.3335266113281
 42
0.0
  0
VERTEX
  8
0
 10
-66.8070373535156
 20
-88.630859375
 42
0.0
  0
VERTEX
  8
0
 10
-67.0835647583008
 20
-87.906494140625
 42
0.0
  0
VERTEX
  8
0
 10
-67.3299331665039
 20
-87.1621704101563
 42
0.0
  0
VERTEX
  8
0
 10
-67.5461654663086
 20
-86.3980712890625
 42
0.0
  0
VERTEX
  8
0
 10
-67.7322311401367
 20
-85.6140441894531
 42
0.0
  0
VERTEX
  8
0
 10
-67.8881530761719
 20
-84.8101806640625
 42
0.0
  0
VERTEX
  8
0
 10
-68.013916015625
 20
-83.9864501953125
 42
0.0
  0
VERTEX
  8
0
 10
-68.1095352172852
 20
-83.1427917480469
 42
0.0
  0
VERTEX
  8
0
 10
-68.1750030517578
 20
-82.279296875
 42
0.0
  0
VERTEX
  8
0
 10
-69.8370208740234
 20
-82.1546630859375
 42
0.0
  0
VERTEX
  8
0
 10
-71.4523620605469
 20
-81.9717407226563
 42
0.0
  0
VERTEX
  8
0
 10
-73.0210266113281
 20
-81.7305603027344
 42
0.0
  0
VERTEX
  8
0
 10
-74.5430221557617
 20
-81.43115234375
 42
0.0
  0
VERTEX
  8
0
 10
-76.0183410644531
 20
-81.0734558105469
 42
0.0
  0
VERTEX
  8
0
 10
-77.4469833374023
 20
-80.657470703125
 42
0.0
  0
VERTEX
  8
0
 10
-78.828971862793
 20
-80.1832580566406
 42
0.0
  0
VERTEX
  8
0
 10
-80.1642608642578
 20
-79.6507873535156
 42
0.0
  0
VERTEX
  8
0
 10
-81.4528884887695
 20
-79.0599975585938
 42
0.0
  0
VERTEX
  8
0
 10
-82.6948471069336
 20
-78.4110107421875
 42
0.0
  0
VERTEX
  8
0
 10
-83.8901214599609
 20
-77.7037048339844
 42
0.0
  0
VERTEX
  8
0
 10
-85.0387268066406
 20
-76.9381713867188
 42
0.0
  0
VERTEX
  8
0
 10
-86.1406555175781
 20
-76.1143493652344
 42
0.0
  0
VERTEX
  8
0
 10
-87.195915222168
 20
-75.2322998046875
 42
0.0
  0
VERTEX
  8
0
 10
-88.2045059204102
 20
-74.2919311523438
 42
0.0
  0
VERTEX
  8
0
 10
-89.1664123535156
 20
-73.2933349609375
 42
0.0
  0
VERTEX
  8
0
 10
-90.0756683349609
 20
-72.2438659667969
 42
0.0
  0
VERTEX
  8
0
 10
-90.9262466430664
 20
-71.1508178710938
 42
0.0
  0
VERTEX
  8
0
 10
-91.7181549072265
 20
-70.0142822265625
 42
0.0
  0
VERTEX
  8
0
 10
-92.451416015625
 20
-68.834228515625
 42
0.0
  0
VERTEX
  8
0
 10
-93.1260223388672
 20
-67.6106872558594
 42
0.0
  0
VERTEX
  8
0
 10
-93.7419662475586
 20
-66.3436279296875
 42
0.0
  0
VERTEX
  8
0
 10
-94.2992477416992
 20
-65.0329895019531
 42
0.0
  0
VERTEX
  8
0
 10
-94.7978591918945
 20
-63.6788940429688
 42
0.0
  0
VERTEX
  8
0
 10
-95.2378234863281
 20
-62.28125
 42
0.0
  0
VERTEX
  8
0
 10
-95.6191101074219
 20
-60.840087890625
 42
0.0
  0
VERTEX
  8
0
 10
-95.9417419433594
 20
-59.3554077148438
 42
0.0
  0
VERTEX
  8
0
 10
-96.2057189941406
 20
-57.8272399902344
 42
0.0
  0
VERTEX
  8
0
 10
-96.4110260009766
 20
-56.2555541992188
 42
0.0
  0
VERTEX
  8
0
 10
-96.5576858520508
 20
-54.6402893066406
 42
0.0
  0
VERTEX
  8
0
 10
-96.6456680297852
 20
-52.9815673828125
 42
0.0
  0
VERTEX
  8
0
 10
-96.6750030517578
 20
-51.279296875
 42
0.0
  0
VERTEX
  8
0
 10
-96.6429214477539
 20
-49.4986267089844
 42
0.0
  0
VERTEX
  8
0
 10
-96.5466690063477
 20
-47.7652587890625
 42
0.0
  0
VERTEX
  8
0
 10
-96.3862533569336
 20
-46.0791625976563
 42
0.0
  0
VERTEX
  8
0
 10
-96.1616821289063
 20
-44.4403381347656
 42
0.0
  0
VERTEX
  8
0
 10
-95.8729248046875
 20
-42.8487854003906
 42
0.0
  0
VERTEX
  8
0
 10
-95.5200042724609
 20
-41.3045043945313
 42
0.0
  0
VERTEX
  8
0
 10
-95.1029281616211
 20
-39.8075256347656
 42
0.0
  0
VERTEX
  8
0
 10
-94.6216812133789
 20
-38.3577880859375
 42
0.0
  0
VERTEX
  8
0
 10
-94.0762710571289
 20
-36.9553680419922
 42
0.0
  0
VERTEX
  8
0
 10
-93.4666900634766
 20
-35.6002044677734
 42
0.0
  0
VERTEX
  8
0
 10
-92.7929458618164
 20
-34.2923278808594
 42
0.0
  0
VERTEX
  8
0
 10
-92.0550308227539
 20
-33.0317230224609
 42
0.0
  0
VERTEX
  8
0
 10
-91.2529525756836
 20
-31.8184051513672
 42
0.0
  0
VERTEX
  8
0
 10
-90.3867111206055
 20
-30.6523590087891
 42
0.0
  0
VERTEX
  8
0
 10
-89.456298828125
 20
-29.5335998535156
 42
0.0
  0
VERTEX
  8
0
 10
-88.4617233276367
 20
-28.4620971679688
 42
0.0
  0
VERTEX
  8
0
 10
-87.4106903076172
 20
-27.4469909667969
 42
0.0
  0
VERTEX
  8
0
 10
-86.3109130859375
 20
-26.4973754882813
 42
0.0
  0
VERTEX
  8
0
 10
-85.162368774414
 20
-25.6132507324219
 42
0.0
  0
VERTEX
  8
0
 10
-83.9650955200195
 20
-24.7946166992188
 42
0.0
  0
VERTEX
  8
0
 10
-82.7190628051758
 20
-24.0414733886719
 42
0.0
  0
VERTEX
  8
0
 10
-81.4242858886719
 20
-23.3538208007813
 42
0.0
  0
VERTEX
  8
0
 10
-80.0807571411133
 20
-22.7316589355469
 42
0.0
  0
VERTEX
  8
0
 10
-78.6884765625
 20
-22.1749877929688
 42
0.0
  0
VERTEX
  8
0
 10
-77.2474517822266
 20
-21.6838073730469
 42
0.0
  0
VERTEX
  8
0
 10
-75.757682800293
 20
-21.2581176757813
 42
0.0
  0
VERTEX
  8
0
 10
-74.2191619873047
 20
-20.8979187011719
 42
0.0
  0
VERTEX
  8
0
 10
-72.6318893432617
 20
-20.6032104492188
 42
0.0
  0
VERTEX
  8
0
 10
-70.9958648681641
 20
-20.3739929199219
 42
0.0
  0
VERTEX
  8
0
 10
-69.3111038208008
 20
-20.2102661132813
 42
0.0
  0
VERTEX
  8
0
 10
-67.5775833129883
 20
-20.1120300292969
 42
0.0
  0
VERTEX
  8
0
 10
-65.7953186035156
 20
-20.0792846679688
 42
0.0
  0
VERTEX
  8
0
 10
-64.0176239013672
 20
-20.1120300292969
 42
0.0
  0
VERTEX
  8
0
 10
-62.2880706787109
 20
-20.2102661132813
 42
0.0
  0
VERTEX
  8
0
 10
-60.6066398620605
 20
-20.3739929199219
 42
0.0
  0
VERTEX
  8
0
 10
-58.9733428955078
 20
-20.6032104492188
 42
0.0
  0
VERTEX
  8
0
 10
-57.3881797790527
 20
-20.8979187011719
 42
0.0
  0
VERTEX
  8
0
 10
-55.8511505126953
 20
-21.2581176757813
 42
0.0
  0
VERTEX
  8
0
 10
-54.3622550964355
 20
-21.6838073730469
 42
0.0
  0
VERTEX
  8
0
 10
-52.9214859008789
 20
-22.1749877929688
 42
0.0
  0
VERTEX
  8
0
 10
-51.5288581848145
 20
-22.7316589355469
 42
0.0
  0
VERTEX
  8
0
 10
-50.1843528747559
 20
-23.3538208007813
 42
0.0
  0
VERTEX
  8
0
 10
-48.8879852294922
 20
-24.0414733886719
 42
0.0
  0
VERTEX
  8
0
 10
-47.6397514343262
 20
-24.7946166992188
 42
0.0
  0
VERTEX
  8
0
 10
-46.4396438598633
 20
-25.6132507324219
 42
0.0
  0
VERTEX
  8
0
 10
-45.2876739501953
 20
-26.4973754882813
 42
0.0
  0
VERTEX
  8
0
 10
-44.183837890625
 20
-27.4469909667969
 42
0.0
  0
VERTEX
  8
0
 10
-43.1281280517578
 20
-28.4620971679688
 42
0.0
  0
VERTEX
  8
0
 10
-42.1287307739258
 20
-29.5335998535156
 42
0.0
  0
VERTEX
  8
0
 10
-41.1938056945801
 20
-30.65234375
 42
0.0
  0
VERTEX
  8
0
 10
-40.323356628418
 20
-31.8183898925781
 42
0.0
  0
VERTEX
  8
0
 10
-39.517391204834
 20
-33.03173828125
 42
0.0
  0
VERTEX
  8
0
 10
-38.7759017944336
 20
-34.2923278808594
 42
0.0
  0
VERTEX
  8
0
 10
-38.0988845825195
 20
-35.6002044677734
 42
0.0
  0
VERTEX
  8
0
 10
-37.4863510131836
 20
-36.9553680419922
 42
0.0
  0
VERTEX
  8
0
 10
-36.9382934570313
 20
-38.3577880859375
 42
0.0
  0
VERTEX
  8
0
 10
-36.4547119140625
 20
-39.8075256347656
 42
0.0
  0
VERTEX
  8
0
 10
-36.0356140136719
 20
-41.3045043945313
 42
0.0
  0
VERTEX
  8
0
 10
-35.6809844970703
 20
-42.8487854003906
 42
0.0
  0
VERTEX
  8
0
 10
-35.3908348083496
 20
-44.4403381347656
 42
0.0
  0
VERTEX
  8
0
 10
-35.1651649475098
 20
-46.0791625976563
 42
0.0
  0
VERTEX
  8
0
 10
-35.0039710998535
 20
-47.7652587890625
 42
0.0
  0
VERTEX
  8
0
 10
-34.9072532653809
 20
-49.4986572265625
 42
0.0
  0
VERTEX
  8
0
 10
-34.8750152587891
 20
-51.279296875
 42
0.0
  0
VERTEX
  8
0
 10
-34.9505043029785
 20
-53.8974609375
 42
0.0
  0
VERTEX
  8
0
 10
-35.1769676208496
 20
-56.4244384765625
 42
0.0
  0
VERTEX
  8
0
 10
-35.5544052124023
 20
-58.8603820800781
 42
0.0
  0
VERTEX
  8
0
 10
-36.0828247070313
 20
-61.2052612304688
 42
0.0
  0
VERTEX
  8
0
 10
-36.4036483764648
 20
-62.3435363769531
 42
0.0
  0
VERTEX
  8
0
 10
-36.7622184753418
 20
-63.4590454101563
 42
0.0
  0
VERTEX
  8
0
 10
-37.1585311889649
 20
-64.5517578125
 42
0.0
  0
VERTEX
  8
0
 10
-37.592586517334
 20
-65.6217041015625
 42
0.0
  0
VERTEX
  8
0
 10
-38.0643882751465
 20
-66.6688842773438
 42
0.0
  0
VERTEX
  8
0
 10
-38.5739326477051
 20
-67.6933288574219
 42
0.0
  0
VERTEX
  8
0
 10
-39.121223449707
 20
-68.6949462890625
 42
0.0
  0
VERTEX
  8
0
 10
-39.7062530517578
 20
-69.673828125
 42
0.0
  0
VERTEX
  8
0
 10
-40.3269805908203
 20
-70.6230163574219
 42
0.0
  0
VERTEX
  8
0
 10
-40.9813537597656
 20
-71.5356140136719
 42
0.0
  0
VERTEX
  8
0
 10
-41.669361114502
 20
-72.4115600585938
 42
0.0
  0
VERTEX
  8
0
 10
-42.3910179138184
 20
-73.2510375976563
 42
0.0
  0
VERTEX
  8
0
 10
-43.1463165283203
 20
-74.0538635253906
 42
0.0
  0
VERTEX
  8
0
 10
-43.9352569580078
 20
-74.820068359375
 42
0.0
  0
VERTEX
  8
0
 10
-44.7578392028809
 20
-75.5497131347656
 42
0.0
  0
VERTEX
  8
0
 10
-45.6140594482422
 20
-76.2427673339844
 42
0.0
  0
VERTEX
  8
0
 10
-46.5039367675781
 20
-76.8992309570313
 42
0.0
  0
VERTEX
  8
0
 10
-47.4274444580078
 20
-77.5191040039063
 42
0.0
  0
VERTEX
  8
0
 10
-48.3845977783203
 20
-78.1023559570313
 42
0.0
  0
VERTEX
  8
0
 10
-49.3753967285156
 20
-78.6490478515625
 42
0.0
  0
VERTEX
  8
0
 10
-50.3998336791992
 20
-79.1591796875
 42
0.0
  0
VERTEX
  8
0
 10
-51.4579124450684
 20
-79.6326599121094
 42
0.0
  0
VERTEX
  8
0
 10
-52.5496368408203
 20
-80.069580078125
 42
0.0
  0
SEQEND
  0
POLYLINE
  8
0
 66
     1
 10
0.0
 20
0.0
 30
0.0
 70
     1
  0
VERTEX
  8
0
 10
-55.3234405517578
 20
-66.4714660644531
 42
0.0
  0
VERTEX
  8
0
 10
-54.7753868103027
 20
-65.7716979980469
 42
0.0
  0
VERTEX
  8
0
 10
-54.2640190124512
 20
-65.0412292480469
 42
0.0
  0
VERTEX
  8
0
 10
-53.7893486022949
 20
-64.2799072265625
 42
0.0
  0
VERTEX
  8
0
 10
-53.3513717651367
 20
-63.4878845214844
 42
0.0
  0
VERTEX
  8
0
 10
-52.9500885009766
 20
-62.6651000976563
 42
0.0
  0
VERTEX
  8
0
 10
-52.5855026245117
 20
-61.8115234375
 42
0.0
  0
VERTEX
  8
0
 10
-52.2576103210449
 20
-60.9271850585938
 42
0.0
  0
VERTEX
  8
0
 10
-51.9664077758789
 20
-60.0120849609375
 42
0.0
  0
VERTEX
  8
0
 10
-51.7106132507324
 20
-59.0611572265625
 42
0.0
  0
VERTEX
  8
0
 10
-51.4889221191406
 20
-58.0693054199219
 42
0.0
  0
VERTEX
  8
0
 10
-51.3013381958008
 20
-57.0365600585938
 42
0.0
  0
VERTEX
  8
0
 10
-51.1478576660156
 20
-55.962890625
 42
0.0
  0
VERTEX
  8
0
 10
-50.9432220458984
 20
-53.6927490234375
 42
0.0
  0
VERTEX
  8
0
 10
-50.8750076293945
 20
-51.2589721679688
 42
0.0
  0
VERTEX
  8
0
 10
-50.9533271789551
 20
-48.6634216308594
 42
0.0
  0
VERTEX
  8
0
 10
-51.0512275695801
 20
-47.441162109375
 42
0.0
  0
VERTEX
  8
0
 10
-51.1882858276367
 20
-46.2691040039063
 42
0.0
  0
VERTEX
  8
0
 10
-51.3645057678223
 20
-45.1473999023438
 42
0.0
  0
VERTEX
  8
0
 10
-51.5798873901367
 20
-44.0759582519531
 42
0.0
  0
VERTEX
  8
0
 10
-51.8344268798828
 20
-43.0548095703125
 42
0.0
  0
VERTEX
  8
0
 10
-52.1281280517578
 20
-42.083984375
 42
0.0
  0
VERTEX
  8
0
 10
-52.4534187316895
 20
-41.1609497070313
 42
0.0
  0
VERTEX
  8
0
 10
-52.8027381896973
 20
-40.2830810546875
 42
0.0
  0
VERTEX
  8
0
 10
-53.176082611084
 20
-39.4505615234375
 42
0.0
  0
VERTEX
  8
0
 10
-53.5734443664551
 20
-38.6632690429688
 42
0.0
  0
VERTEX
  8
0
 10
-53.9948272705078
 20
-37.9212646484375
 42
0.0
  0
VERTEX
  8
0
 10
-54.4402389526367
 20
-37.2245178222656
 42
0.0
  0
VERTEX
  8
0
 10
-54.9096717834473
 20
-36.5730133056641
 42
0.0
  0
VERTEX
  8
0
 10
-55.4031295776367
 20
-35.9667816162109
 42
0.0
  0
VERTEX
  8
0
 10
-55.928539276123
 20
-35.3840026855469
 42
0.0
  0
VERTEX
  8
0
 10
-56.4735412597656
 20
-34.8426818847656
 42
0.0
  0
VERTEX
  8
0
 10
-57.0381164550781
 20
-34.3428955078125
 42
0.0
  0
VERTEX
  8
0
 10
-57.6222724914551
 20
-33.8845520019531
 42
0.0
  0
VERTEX
  8
0
 10
-58.2260055541992
 20
-33.4677124023438
 42
0.0
  0
VERTEX
  8
0
 10
-58.8493232727051
 20
-33.0923156738281
 42
0.0
  0
VERTEX
  8
0
 10
-59.4922180175781
 20
-32.7584075927734
 42
0.0
  0
VERTEX
  8
0
 10
-60.1546936035156
 20
-32.4660034179688
 42
0.0
  0
VERTEX
  8
0
 10
-60.8304290771484
 20
-32.2113189697266
 42
0.0
  0
VERTEX
  8
0
 10
-61.5130920410156
 20
-31.9905548095703
 42
0.0
  0
VERTEX
  8
0
 10
-62.2026863098145
 20
-31.8037872314453
 42
0.0
  0
VERTEX
  8
0
 10
-62.8992233276367
 20
-31.6509704589844
 42
0.0
  0
VERTEX
  8
0
 10
-63.6026916503906
 20
-31.5321044921875
 42
0.0
  0
VERTEX
  8
0
 10
-64.3130950927734
 20
-31.4472045898438
 42
0.0
  0
VERTEX
  8
0
 10
-65.0304260253906
 20
-31.3962707519531
 42
0.0
  0
VERTEX
  8
0
 10
-65.7546920776367
 20
-31.3792877197266
 42
0.0
  0
VERTEX
  8
0
 10
-66.4872055053711
 20
-31.3956146240234
 42
0.0
  0
VERTEX
  8
0
 10
-67.208984375
 20
-31.4446868896484
 42
0.0
  0
VERTEX
  8
0
 10
-67.9200210571289
 20
-31.5263977050781
 42
0.0
  0
VERTEX
  8
0
 10
-68.6203155517578
 20
-31.6408081054688
 42
0.0
  0
VERTEX
  8
0
 10
-69.3098602294922
 20
-31.7879028320313
 42
0.0
  0
VERTEX
  8
0
 10
-69.9886779785156
 20
-31.9677124023438
 42
0.0
  0
VERTEX
  8
0
 10
-70.65673828125
 20
-32.1802062988281
 42
0.0
  0
VERTEX
  8
0
 10
-71.3140640258789
 20
-32.4253845214844
 42
0.0
  0
VERTEX
  8
0
 10
-71.9593963623047
 20
-32.7082977294922
 42
0.0
  0
VERTEX
  8
0
 10
-72.5915069580078
 20
-33.0340270996094
 42
0.0
  0
VERTEX
  8
0
 10
-73.2103729248047
 20
-33.4025421142578
 42
0.0
  0
VERTEX
  8
0
 10
-73.8160171508789
 20
-33.8138580322266
 42
0.0
  0
VERTEX
  8
0
 10
-74.4084243774414
 20
-34.2679595947266
 42
0.0
  0
VERTEX
  8
0
 10
-74.9876022338867
 20
-34.764892578125
 42
0.0
  0
VERTEX
  8
0
 10
-75.5535430908203
 20
-35.3045806884766
 42
0.0
  0
VERTEX
  8
0
 10
-76.1062545776367
 20
-35.8871002197266
 42
0.0
  0
VERTEX
  8
0
 10
-76.6000289916992
 20
-36.4771270751953
 42
0.0
  0
VERTEX
  8
0
 10
-77.0704116821289
 20
-37.12060546875
 42
0.0
  0
VERTEX
  8
0
 10
-77.5174102783203
 20
-37.8175354003906
 42
0.0
  0
VERTEX
  8
0
 10
-77.9410171508789
 20
-38.5679321289063
 42
0.0
  0
VERTEX
  8
0
 10
-78.3412322998047
 20
-39.3718566894531
 42
0.0
  0
VERTEX
  8
0
 10
-78.7180709838867
 20
-40.2291870117188
 42
0.0
  0
VERTEX
  8
0
 10
-79.0715103149414
 20
-41.1399841308594
 42
0.0
  0
VERTEX
  8
0
 10
-79.4015655517578
 20
-42.1042785644531
 42
0.0
  0
VERTEX
  8
0
 10
-79.7000350952148
 20
-43.1151123046875
 42
0.0
  0
VERTEX
  8
0
 10
-79.9586944580078
 20
-44.1654968261719
 42
0.0
  0
VERTEX
  8
0
 10
-80.1775741577148
 20
-45.2555236816406
 42
0.0
  0
VERTEX
  8
0
 10
-80.3566436767578
 20
-46.3851318359375
 42
0.0
  0
VERTEX
  8
0
 10
-80.4959259033203
 20
-47.5543823242188
 42
0.0
  0
VERTEX
  8
0
 10
-80.5954132080078
 20
-48.76318359375
 42
0.0
  0
VERTEX
  8
0
 10
-80.6750030517578
 20
-51.2995910644531
 42
0.0
  0
VERTEX
  8
0
 10
-80.597900390625
 20
-53.8760986328125
 42
0.0
  0
VERTEX
  8
0
 10
-80.5015335083008
 20
-55.0899047851563
 42
0.0
  0
VERTEX
  8
0
 10
-80.3666076660156
 20
-56.2540893554688
 42
0.0
  0
VERTEX
  8
0
 10
-80.1931381225586
 20
-57.3686218261719
 42
0.0
  0
VERTEX
  8
0
 10
-79.9811096191406
 20
-58.4335327148438
 42
0.0
  0
VERTEX
  8
0
 10
-79.7305374145508
 20
-59.4487915039063
 42
0.0
  0
VERTEX
  8
0
 10
-79.4414138793945
 20
-60.4144287109375
 42
0.0
  0
VERTEX
  8
0
 10
-79.120719909668
 20
-61.33349609375
 42
0.0
  0
VERTEX
  8
0
 10
-78.7754440307617
 20
-62.209228515625
 42
0.0
  0
VERTEX
  8
0
 10
-78.4055862426758
 20
-63.0414428710938
 42
0.0
  0
VERTEX
  8
0
 10
-78.0111312866211
 20
-63.8302612304688
 42
0.0
  0
VERTEX
  8
0
 10
-77.5921020507813
 20
-64.5756225585938
 42
0.0
  0
VERTEX
  8
0
 10
-77.1484909057617
 20
-65.277587890625
 42
0.0
  0
VERTEX
  8
0
 10
-76.680290222168
 20
-65.9360961914063
 42
0.0
  0
VERTEX
  8
0
 10
-76.1875076293945
 20
-66.5511474609375
 42
0.0
  0
VERTEX
  8
0
 10
-75.6713027954102
 20
-67.1253967285156
 42
0.0
  0
VERTEX
  8
0
 10
-75.1335983276367
 20
-67.66064453125
 42
0.0
  0
VERTEX
  8
0
 10
-74.5744171142578
 20
-68.1568298339844
 42
0.0
  0
VERTEX
  8
0
 10
-73.9937515258789
 20
-68.6140441894531
 42
0.0
  0
VERTEX
  8
0
 10
-73.3916015625
 20
-69.0322265625
 42
0.0
  0
VERTEX
  8
0
 10
-72.7679748535156
 20
-69.4114074707031
 42
0.0
  0
VERTEX
  8
0
 10
-72.1228485107422
 20
-69.7515869140625
 42
0.0
  0
VERTEX
  8
0
 10
-71.4562530517578
 20
-70.052734375
 42
0.0
  0
VERTEX
  8
0
 10
-70.7744979858398
 20
-70.3167724609375
 42
0.0
  0
VERTEX
  8
0
 10
-70.0838928222656
 20
-70.5455627441406
 42
0.0
  0
VERTEX
  8
0
 10
-69.3844451904297
 20
-70.7392272949219
 42
0.0
  0
VERTEX
  8
0
 10
-68.6761703491211
 20
-70.8976745605469
 42
0.0
  0
VERTEX
  8
0
 10
-67.9590606689453
 20
-71.0208740234375
 42
0.0
  0
VERTEX
  8
0
 10
-67.2331085205078
 20
-71.10888671875
 42
0.0
  0
VERTEX
  8
0
 10
-66.4983215332031
 20
-71.1616821289063
 42
0.0
  0
VERTEX
  8
0
 10
-65.7546920776367
 20
-71.1792907714844
 42
0.0
  0
VERTEX
  8
0
 10
-65.0110626220703
 20
-71.1613464355469
 42
0.0
  0
VERTEX
  8
0
 10
-64.2762756347656
 20
-71.1076354980469
 42
0.0
  0
VERTEX
  8
0
 10
-63.5503158569336
 20
-71.0180053710938
 42
0.0
  0
VERTEX
  8
0
 10
-62.8332099914551
 20
-70.892578125
 42
0.0
  0
VERTEX
  8
0
 10
-62.1249313354492
 20
-70.7312622070313
 42
0.0
  0
VERTEX
  8
0
 10
-61.4254951477051
 20
-70.5341796875
 42
0.0
  0
VERTEX
  8
0
 10
-60.7348937988281
 20
-70.3012084960938
 42
0.0
  0
VERTEX
  8
0
 10
-60.0531311035156
 20
-70.0324096679688
 42
0.0
  0
VERTEX
  8
0
 10
-59.3865547180176
 20
-69.7258605957031
 42
0.0
  0
VERTEX
  8
0
 10
-58.741512298584
 20
-69.3797912597656
 42
0.0
  0
VERTEX
  8
0
 10
-58.117992401123
 20
-68.9940795898438
 42
0.0
  0
VERTEX
  8
0
 10
-57.5160217285156
 20
-68.5687255859375
 42
0.0
  0
VERTEX
  8
0
 10
-56.9355735778809
 20
-68.1038208007813
 42
0.0
  0
VERTEX
  8
0
 10
-56.3766632080078
 20
-67.5993041992188
 42
0.0
  0
VERTEX
  8
0
 10
-55.8392868041992
 20
-67.05517578125
 42
0.0
  0
SEQEND
  0
POLYLINE
  8
0
 66
     1
 10
0.0
 20
0.0
 30
0.0
 70
     1
  0
VERTEX
  8
0
 10
-126.150009155273
 20
-40.5558471679687
 42
0.0
  0
VERTEX
  8
0
 10
-126.15535736084
 20
-40.2460632324219
 42
0.0
  0
VERTEX
  8
0
 10
-126.171348571777
 20
-39.9417114257813
 42
0.0
  0
VERTEX
  8
0
 10
-126.198043823242
 20
-39.6427612304688
 42
0.0
  0
VERTEX
  8
0
 10
-126.235412597656
 20
-39.3492431640625
 42
0.0
  0
VERTEX
  8
0
 10
-126.28345489502
 20
-39.0611572265625
 42
0.0
  0
VERTEX
  8
0
 10
-126.342147827148
 20
-38.7785034179688
 42
0.0
  0
VERTEX
  8
0
 10
-126.411544799805
 20
-38.5012817382813
 42
0.0
  0
VERTEX
  8
0
 10
-126.49161529541
 20
-38.2294616699219
 42
0.0
  0
VERTEX
  8
0
 10
-126.58235168457
 20
-37.9631042480469
 42
0.0
  0
VERTEX
  8
0
 10
-126.68376159668
 20
-37.7021179199219
 42
0.0
  0
VERTEX
  8
0
 10
-126.795852661133
 20
-37.4465942382813
 42
0.0
  0
VERTEX
  8
0
 10
-126.918617248535
 20
-37.1965026855469
 42
0.0
  0
VERTEX
  8
0
 10
-127.052047729492
 20
-36.9518432617188
 42
0.0
  0
VERTEX
  8
0
 10
-127.196166992188
 20
-36.7126007080078
 42
0.0
  0
VERTEX
  8
0
 10
-127.350952148438
 20
-36.4787750244141
 42
0.0
  0
VERTEX
  8
0
 10
-127.516418457031
 20
-36.2503814697266
 42
0.0
  0
VERTEX
  8
0
 10
-127.864921569824
 20
-35.8160705566406
 42
0.0
  0
VERTEX
  8
0
 10
-128.227203369141
 20
-35.4158630371094
 42
0.0
  0
VERTEX
  8
0
 10
-128.603286743164
 20
-35.0497589111328
 42
0.0
  0
VERTEX
  8
0
 10
-128.993179321289
 20
-34.7177734375
 42
0.0
  0
VERTEX
  8
0
 10
-129.193283081055
 20
-34.5645446777344
 42
0.0
  0
VERTEX
  8
0
 10
-129.396850585938
 20
-34.4198760986328
 42
0.0
  0
VERTEX
  8
0
 10
-129.603851318359
 20
-34.2837219238281
 42
0.0
  0
VERTEX
  8
0
 10
-129.814300537109
 20
-34.1560974121094
 42
0.0
  0
VERTEX
  8
0
 10
-130.028228759766
 20
-34.0369873046875
 42
0.0
  0
VERTEX
  8
0
 10
-130.245574951172
 20
-33.9264221191406
 42
0.0
  0
VERTEX
  8
0
 10
-130.466384887695
 20
-33.8243713378906
 42
0.0
  0
VERTEX
  8
0
 10
-130.690628051758
 20
-33.7308502197266
 42
0.0
  0
VERTEX
  8
0
 10
-131.291473388672
 20
-33.5059051513672
 42
0.0
  0
VERTEX
  8
0
 10
-131.888534545898
 20
-33.3076782226563
 42
0.0
  0
VERTEX
  8
0
 10
-132.481811523438
 20
-33.1360931396484
 42
0.0
  0
VERTEX
  8
0
 10
-133.0712890625
 20
-32.9911956787109
 42
0.0
  0
VERTEX
  8
0
 10
-133.657012939453
 20
-32.8729858398438
 42
0.0
  0
VERTEX
  8
0
 10
-134.238922119141
 20
-32.7814788818359
 42
0.0
  0
VERTEX
  8
0
 10
-134.81706237793
 20
-32.7166442871094
 42
0.0
  0
VERTEX
  8
0
 10
-135.391418457031
 20
-32.6784973144531
 42
0.0
  0
VERTEX
  8
0
 10
-141.498443603516
 20
-32.5792846679688
 42
0.0
  0
VERTEX
  8
0
 10
-144.150009155273
 20
-32.5792846679688
 42
0.0
  0
VERTEX
  8
0
 10
-144.150009155273
 20
-50.279296875
 42
0.0
  0
VERTEX
  8
0
 10
-139.729690551758
 20
-50.279296875
 42
0.0
  0
VERTEX
  8
0
 10
-137.847610473633
 20
-50.24951171875
 42
0.0
  0
VERTEX
  8
0
 10
-136.138870239258
 20
-50.16015625
 42
0.0
  0
VERTEX
  8
0
 10
-134.603469848633
 20
-50.01123046875
 42
0.0
  0
VERTEX
  8
0
 10
-133.241409301758
 20
-49.802734375
 42
0.0
  0
VERTEX
  8
0
 10
-132.616561889648
 20
-49.668701171875
 42
0.0
  0
VERTEX
  8
0
 10
-132.017440795898
 20
-49.5049438476563
 42
0.0
  0
VERTEX
  8
0
 10
-131.444000244141
 20
-49.3114929199219
 42
0.0
  0
VERTEX
  8
0
 10
-130.896301269531
 20
-49.0882873535156
 42
0.0
  0
VERTEX
  8
0
 10
-130.374282836914
 20
-48.8353271484375
 42
0.0
  0
VERTEX
  8
0
 10
-129.877990722656
 20
-48.5526123046875
 42
0.0
  0
VERTEX
  8
0
 10
-129.40739440918
 20
-48.2402038574219
 42
0.0
  0
VERTEX
  8
0
 10
-129.181732177734
 20
-48.0728454589844
 42
0.0
  0
VERTEX
  8
0
 10
-128.962509155273
 20
-47.8980407714844
 42
0.0
  0
VERTEX
  8
0
 10
-128.603881835938
 20
-47.5727233886719
 42
0.0
  0
VERTEX
  8
0
 10
-128.270950317383
 20
-47.2319030761719
 42
0.0
  0
VERTEX
  8
0
 10
-127.963745117188
 20
-46.8756713867188
 42
0.0
  0
VERTEX
  8
0
 10
-127.682235717773
 20
-46.5038757324219
 42
0.0
  0
VERTEX
  8
0
 10
-127.42643737793
 20
-46.1166381835938
 42
0.0
  0
VERTEX
  8
0
 10
-127.196350097656
 20
-45.7139587402344
 42
0.0
  0
VERTEX
  8
0
 10
-126.991966247559
 20
-45.2957458496094
 42
0.0
  0
VERTEX
  8
0
 10
-126.813293457031
 20
-44.8620910644531
 42
0.0
  0
VERTEX
  8
0
 10
-126.657836914063
 20
-44.4085693359375
 42
0.0
  0
VERTEX
  8
0
 10
-126.523109436035
 20
-43.9308471679688
 42
0.0
  0
VERTEX
  8
0
 10
-126.409103393555
 20
-43.4288940429688
 42
0.0
  0
VERTEX
  8
0
 10
-126.315826416016
 20
-42.9027099609375
 42
0.0
  0
VERTEX
  8
0
 10
-126.243278503418
 20
-42.3523559570313
 42
0.0
  0
VERTEX
  8
0
 10
-126.191467285156
 20
-41.7777099609375
 42
0.0
  0
VERTEX
  8
0
 10
-126.160369873047
 20
-41.1788940429688
 42
0.0
  0
SEQEND
  0
POLYLINE
  8
0
 66
     1
 10
0.0
 20
0.0
 30
0.0
 70
     1
  0
VERTEX
  8
0
 10
-110.150009155273
 20
-40.1448974609375
 42
0.0
  0
VERTEX
  8
0
 10
-110.172004699707
 20
-41.1455688476563
 42
0.0
  0
VERTEX
  8
0
 10
-110.238037109375
 20
-42.1406860351563
 42
0.0
  0
VERTEX
  8
0
 10
-110.348091125488
 20
-43.1300964355469
 42
0.0
  0
VERTEX
  8
0
 10
-110.502151489258
 20
-44.1138305664063
 42
0.0
  0
VERTEX
  8
0
 10
-110.700233459473
 20
-45.0919799804687
 42
0.0
  0
VERTEX
  8
0
 10
-110.942337036133
 20
-46.0644836425781
 42
0.0
  0
VERTEX
  8
0
 10
-111.228469848633
 20
-47.0313415527344
 42
0.0
  0
VERTEX
  8
0
 10
-111.558601379395
 20
-47.9925537109375
 42
0.0
  0
VERTEX
  8
0
 10
-111.929588317871
 20
-48.9317932128906
 42
0.0
  0
VERTEX
  8
0
 10
-112.338233947754
 20
-49.832763671875
 42
0.0
  0
VERTEX
  8
0
 10
-112.784568786621
 20
-50.6954040527344
 42
0.0
  0
VERTEX
  8
0
 10
-113.2685546875
 20
-51.5197143554688
 42
0.0
  0
VERTEX
  8
0
 10
-113.790222167969
 20
-52.3057250976563
 42
0.0
  0
VERTEX
  8
0
 10
-114.349571228027
 20
-53.053466796875
 42
0.0
  0
VERTEX
  8
0
 10
-114.946578979492
 20
-53.7628784179688
 42
0.0
  0
VERTEX
  8
0
 10
-115.581253051758
 20
-54.4339599609375
 42
0.0
  0
VERTEX
  8
0
 10
-116.489471435547
 20
-55.2901611328125
 42
0.0
  0
VERTEX
  8
0
 10
-117.423454284668
 20
-56.0924377441406
 42
0.0
  0
VERTEX
  8
0
 10
-118.38321685791
 20
-56.8407897949219
 42
0.0
  0
VERTEX
  8
0
 10
-119.368759155273
 20
-57.53515625
 42
0.0
  0
VERTEX
  8
0
 10
-120.380081176758
 20
-58.175537109375
 42
0.0
  0
VERTEX
  8
0
 10
-121.417198181152
 20
-58.7620239257813
 42
0.0
  0
VERTEX
  8
0
 10
-122.480087280273
 20
-59.2944946289063
 42
0.0
  0
VERTEX
  8
0
 10
-123.568756103516
 20
-59.7730407714844
 42
0.0
  0
VERTEX
  8
0
 10
-124.70393371582
 20
-60.1963806152344
 42
0.0
  0
VERTEX
  8
0
 10
-125.906349182129
 20
-60.5632934570313
 42
0.0
  0
VERTEX
  8
0
 10
-127.176002502441
 20
-60.8737182617188
 42
0.0
  0
VERTEX
  8
0
 10
-128.512893676758
 20
-61.1277160644531
 42
0.0
  0
VERTEX
  8
0
 10
-129.917037963867
 20
-61.3252563476563
 42
0.0
  0
VERTEX
  8
0
 10
-131.388397216797
 20
-61.4664001464844
 42
0.0
  0
VERTEX
  8
0
 10
-132.926986694336
 20
-61.5510559082031
 42
0.0
  0
VERTEX
  8
0
 10
-134.532821655273
 20
-61.5792846679688
 42
0.0
  0
VERTEX
  8
0
 10
-144.150009155273
 20
-61.5792846679688
 42
0.0
  0
VERTEX
  8
0
 10
-144.150009155273
 20
-81.0792846679688
 42
0.0
  0
VERTEX
  8
0
 10
-159.550003051758
 20
-81.0792846679688
 42
0.0
  0
VERTEX
  8
0
 10
-159.550003051758
 20
-21.2792816162109
 42
0.0
  0
VERTEX
  8
0
 10
-134.146881103516
 20
-21.2792816162109
 42
0.0
  0
VERTEX
  8
0
 10
-131.404739379883
 20
-21.3407287597656
 42
0.0
  0
VERTEX
  8
0
 10
-128.886138916016
 20
-21.5251770019531
 42
0.0
  0
VERTEX
  8
0
 10
-126.591064453125
 20
-21.8325500488281
 42
0.0
  0
VERTEX
  8
0
 10
-125.527359008789
 20
-22.0323486328125
 42
0.0
  0
VERTEX
  8
0
 10
-124.519538879395
 20
-22.2628784179688
 42
0.0
  0
VERTEX
  8
0
 10
-123.553802490234
 20
-22.5241546630859
 42
0.0
  0
VERTEX
  8
0
 10
-122.616363525391
 20
-22.8161468505859
 42
0.0
  0
VERTEX
  8
0
 10
-121.707221984863
 20
-23.1388854980469
 42
0.0
  0
VERTEX
  8
0
 10
-120.826370239258
 20
-23.4923706054688
 42
0.0
  0
VERTEX
  8
0
 10
-119.973831176758
 20
-23.8765869140625
 42
0.0
  0
VERTEX
  8
0
 10
-119.149566650391
 20
-24.2915344238281
 42
0.0
  0
VERTEX
  8
0
 10
-118.353607177734
 20
-24.7372131347656
 42
0.0
  0
VERTEX
  8
0
 10
-117.585945129395
 20
-25.2136535644531
 42
0.0
  0
VERTEX
  8
0
 10
-116.70832824707
 20
-25.826171875
 42
0.0
  0
VERTEX
  8
0
 10
-115.884078979492
 20
-26.4801025390625
 42
0.0
  0
VERTEX
  8
0
 10
-115.113204956055
 20
-27.1754913330078
 42
0.0
  0
VERTEX
  8
0
 10
-114.395706176758
 20
-27.9122924804688
 42
0.0
  0
VERTEX
  8
0
 10
-113.731582641602
 20
-28.6905212402344
 42
0.0
  0
VERTEX
  8
0
 10
-113.120803833008
 20
-29.5101928710938
 42
0.0
  0
VERTEX
  8
0
 10
-112.563415527344
 20
-30.3712921142578
 42
0.0
  0
VERTEX
  8
0
 10
-112.059387207031
 20
-31.2738189697266
 42
0.0
  0
VERTEX
  8
0
 10
-111.828178405762
 20
-31.7412567138672
 42
0.0
  0
VERTEX
  8
0
 10
-111.611877441406
 20
-32.2202453613281
 42
0.0
  0
VERTEX
  8
0
 10
-111.22403717041
 20
-33.2131500244141
 42
0.0
  0
VERTEX
  8
0
 10
-110.895858764648
 20
-34.2523956298828
 42
0.0
  0
VERTEX
  8
0
 10
-110.627349853516
 20
-35.3380737304688
 42
0.0
  0
VERTEX
  8
0
 10
-110.418510437012
 20
-36.4701538085938
 42
0.0
  0
VERTEX
  8
0
 10
-110.269348144531
 20
-37.648681640625
 42
0.0
  0
VERTEX
  8
0
 10
-110.179840087891
 20
-38.8735961914063
 42
0.0
  0
SEQEND
  0
POLYLINE
  8
0
 66
     1
 10
0.0
 20
0.0
 30
0.0
 70
     1
  0
VERTEX
  8
0
 10
141.901565551758
 20
33.7050933837891
 42
0.0
  0
VERTEX
  8
0
 10
142.449615478516
 20
34.4012603759766
 42
0.0
  0
VERTEX
  8
0
 10
142.960983276367
 20
35.1280975341797
 42
0.0
  0
VERTEX
  8
0
 10
143.435668945313
 20
35.8855590820313
 42
0.0
  0
VERTEX
  8
0
 10
143.873626708984
 20
36.6736450195313
 42
0.0
  0
VERTEX
  8
0
 10
144.27490234375
 20
37.4923706054688
 42
0.0
  0
VERTEX
  8
0
 10
144.639495849609
 20
38.3417663574219
 42
0.0
  0
VERTEX
  8
0
 10
144.967391967773
 20
39.2217712402344
 42
0.0
  0
VERTEX
  8
0
 10
145.258590698242
 20
40.1324310302734
 42
0.0
  0
VERTEX
  8
0
 10
145.514389038086
 20
41.0787353515625
 42
0.0
  0
VERTEX
  8
0
 10
145.736068725586
 20
42.065673828125
 42
0.0
  0
VERTEX
  8
0
 10
145.923675537109
 20
43.0932922363281
 42
0.0
  0
VERTEX
  8
0
 10
146.0771484375
 20
44.1615447998047
 42
0.0
  0
VERTEX
  8
0
 10
146.281768798828
 20
46.4199829101563
 42
0.0
  0
VERTEX
  8
0
 10
146.349990844727
 20
48.8410339355469
 42
0.0
  0
VERTEX
  8
0
 10
146.271667480469
 20
51.4236907958984
 42
0.0
  0
VERTEX
  8
0
 10
146.173782348633
 20
52.6399230957031
 42
0.0
  0
VERTEX
  8
0
 10
146.036712646484
 20
53.8060607910156
 42
0.0
  0
VERTEX
  8
0
 10
145.860488891602
 20
54.9221496582031
 42
0.0
  0
VERTEX
  8
0
 10
145.645111083984
 20
55.9881591796875
 42
0.0
  0
VERTEX
  8
0
 10
145.390579223633
 20
57.0040740966797
 42
0.0
  0
VERTEX
  8
0
 10
145.096878051758
 20
57.9699401855469
 42
0.0
  0
VERTEX
  8
0
 10
144.771575927734
 20
58.8882598876953
 42
0.0
  0
VERTEX
  8
0
 10
144.422271728516
 20
59.7615966796875
 42
0.0
  0
VERTEX
  8
0
 10
144.048919677734
 20
60.5899047851563
 42
0.0
  0
VERTEX
  8
0
 10
143.651550292969
 20
61.3732604980469
 42
0.0
  0
VERTEX
  8
0
 10
143.230178833008
 20
62.1116027832031
 42
0.0
  0
VERTEX
  8
0
 10
142.784759521484
 20
62.804931640625
 42
0.0
  0
VERTEX
  8
0
 10
142.315338134766
 20
63.4533081054688
 42
0.0
  0
VERTEX
  8
0
 10
141.821884155273
 20
64.0566558837891
 42
0.0
  0
VERTEX
  8
0
 10
141.296463012695
 20
64.6364135742188
 42
0.0
  0
VERTEX
  8
0
 10
140.751480102539
 20
65.1749267578125
 42
0.0
  0
VERTEX
  8
0
 10
140.186889648438
 20
65.6721496582031
 42
0.0
  0
VERTEX
  8
0
 10
139.602737426758
 20
66.1281433105469
 42
0.0
  0
VERTEX
  8
0
 10
138.999008178711
 20
66.5428466796875
 42
0.0
  0
VERTEX
  8
0
 10
138.375671386719
 20
66.9163208007813
 42
0.0
  0
VERTEX
  8
0
 10
137.732788085938
 20
67.2485198974609
 42
0.0
  0
VERTEX
  8
0
 10
137.070297241211
 20
67.5394592285156
 42
0.0
  0
VERTEX
  8
0
 10
136.394561767578
 20
67.7928771972656
 42
0.0
  0
VERTEX
  8
0
 10
135.7119140625
 20
68.0125274658203
 42
0.0
  0
VERTEX
  8
0
 10
135.02229309082
 20
68.1983489990234
 42
0.0
  0
VERTEX
  8
0
 10
134.325775146484
 20
68.3503875732422
 42
0.0
  0
VERTEX
  8
0
 10
133.622314453125
 20
68.4686584472656
 42
0.0
  0
VERTEX
  8
0
 10
132.911926269531
 20
68.5531311035156
 42
0.0
  0
VERTEX
  8
0
 10
132.194580078125
 20
68.6038208007813
 42
0.0
  0
VERTEX
  8
0
 10
131.470321655273
 20
68.6207122802734
 42
0.0
  0
VERTEX
  8
0
 10
130.737808227539
 20
68.6044311523438
 42
0.0
  0
VERTEX
  8
0
 10
130.016021728516
 20
68.5556182861328
 42
0.0
  0
VERTEX
  8
0
 10
129.304977416992
 20
68.4742584228516
 42
0.0
  0
VERTEX
  8
0
 10
128.604690551758
 20
68.3603668212891
 42
0.0
  0
VERTEX
  8
0
 10
127.915145874023
 20
68.2139282226563
 42
0.0
  0
VERTEX
  8
0
 10
127.236328125
 20
68.034912109375
 42
0.0
  0
VERTEX
  8
0
 10
126.568260192871
 20
67.8233947753906
 42
0.0
  0
VERTEX
  8
0
 10
125.910934448242
 20
67.5793151855469
 42
0.0
  0
VERTEX
  8
0
 10
125.265602111816
 20
67.2977294921875
 42
0.0
  0
VERTEX
  8
0
 10
124.633499145508
 20
66.9736022949219
 42
0.0
  0
VERTEX
  8
0
 10
124.014625549316
 20
66.6069793701172
 42
0.0
  0
VERTEX
  8
0
 10
123.408988952637
 20
66.1978607177734
 42
0.0
  0
VERTEX
  8
0
 10
122.816581726074
 20
65.7462463378906
 42
0.0
  0
VERTEX
  8
0
 10
122.237403869629
 20
65.2521057128906
 42
0.0
  0
VERTEX
  8
0
 10
121.671463012695
 20
64.7154846191406
 42
0.0
  0
VERTEX
  8
0
 10
121.118759155273
 20
64.1363372802734
 42
0.0
  0
VERTEX
  8
0
 10
120.624992370605
 20
63.5492095947266
 42
0.0
  0
VERTEX
  8
0
 10
120.154586791992
 20
62.9089050292969
 42
0.0
  0
VERTEX
  8
0
 10
119.70760345459
 20
62.2154235839844
 42
0.0
  0
VERTEX
  8
0
 10
119.283988952637
 20
61.4687652587891
 42
0.0
  0
VERTEX
  8
0
 10
118.883766174316
 20
60.6689453125
 42
0.0
  0
VERTEX
  8
0
 10
118.506942749023
 20
59.8159332275391
 42
0.0
  0
VERTEX
  8
0
 10
118.153503417969
 20
58.9097595214844
 42
0.0
  0
VERTEX
  8
0
 10
117.823440551758
 20
57.9504089355469
 42
0.0
  0
VERTEX
  8
0
 10
117.52498626709
 20
56.9447479248047
 42
0.0
  0
VERTEX
  8
0
 10
117.266296386719
 20
55.8996276855469
 42
0.0
  0
VERTEX
  8
0
 10
117.047439575195
 20
54.8150634765625
 42
0.0
  0
VERTEX
  8
0
 10
116.868354797363
 20
53.6910400390625
 42
0.0
  0
VERTEX
  8
0
 10
116.729072570801
 20
52.5275573730469
 42
0.0
  0
VERTEX
  8
0
 10
116.629592895508
 20
51.3246154785156
 42
0.0
  0
VERTEX
  8
0
 10
116.550003051758
 20
48.8003997802734
 42
0.0
  0
VERTEX
  8
0
 10
116.627105712891
 20
46.2367248535156
 42
0.0
  0
VERTEX
  8
0
 10
116.723480224609
 20
45.0290222167969
 42
0.0
  0
VERTEX
  8
0
 10
116.8583984375
 20
43.8707122802734
 42
0.0
  0
VERTEX
  8
0
 10
117.031867980957
 20
42.7618255615234
 42
0.0
  0
VERTEX
  8
0
 10
117.243896484375
 20
41.7023620605469
 42
0.0
  0
VERTEX
  8
0
 10
117.49446105957
 20
40.6922912597656
 42
0.0
  0
VERTEX
  8
0
 10
117.783584594727
 20
39.7316589355469
 42
0.0
  0
VERTEX
  8
0
 10
118.104293823242
 20
38.8172912597656
 42
0.0
  0
VERTEX
  8
0
 10
118.449562072754
 20
37.9461212158203
 42
0.0
  0
VERTEX
  8
0
 10
118.81941986084
 20
37.1180572509766
 42
0.0
  0
VERTEX
  8
0
 10
119.2138671875
 20
36.3332214355469
 42
0.0
  0
VERTEX
  8
0
 10
119.632904052734
 20
35.5915222167969
 42
0.0
  0
VERTEX
  8
0
 10
120.076515197754
 20
34.8929748535156
 42
0.0
  0
VERTEX
  8
0
 10
120.544708251953
 20
34.2376098632813
 42
0.0
  0
VERTEX
  8
0
 10
121.037490844727
 20
33.6253967285156
 42
0.0
  0
VERTEX
  8
0
 10
121.553703308105
 20
33.0541534423828
 42
0.0
  0
VERTEX
  8
0
 10
122.091400146484
 20
32.521728515625
 42
0.0
  0
VERTEX
  8
0
 10
122.650596618652
 20
32.0280914306641
 42
0.0
  0
VERTEX
  8
0
 10
123.231246948242
 20
31.5732574462891
 42
0.0
  0
VERTEX
  8
0
 10
123.833404541016
 20
31.1571960449219
 42
0.0
  0
VERTEX
  8
0
 10
124.457038879395
 20
30.7799530029297
 42
0.0
  0
VERTEX
  8
0
 10
125.102157592773
 20
30.4414825439453
 42
0.0
  0
VERTEX
  8
0
 10
125.768753051758
 20
30.1418151855469
 42
0.0
  0
VERTEX
  8
0
 10
126.450500488281
 20
29.8790588378906
 42
0.0
  0
VERTEX
  8
0
 10
127.141105651855
 20
29.6513366699219
 42
0.0
  0
VERTEX
  8
0
 10
127.840553283691
 20
29.4586486816406
 42
0.0
  0
VERTEX
  8
0
 10
128.548812866211
 20
29.3009948730469
 42
0.0
  0
VERTEX
  8
0
 10
129.26594543457
 20
29.1783752441406
 42
0.0
  0
VERTEX
  8
0
 10
129.991897583008
 20
29.0907897949219
 42
0.0
  0
VERTEX
  8
0
 10
130.726684570313
 20
29.0382385253906
 42
0.0
  0
VERTEX
  8
0
 10
131.470321655273
 20
29.0207214355469
 42
0.0
  0
VERTEX
  8
0
 10
132.213943481445
 20
29.0385589599609
 42
0.0
  0
VERTEX
  8
0
 10
132.948745727539
 20
29.0920562744141
 42
0.0
  0
VERTEX
  8
0
 10
133.674667358398
 20
29.1812133789063
 42
0.0
  0
VERTEX
  8
0
 10
134.391799926758
 20
29.3060760498047
 42
0.0
  0
VERTEX
  8
0
 10
135.100051879883
 20
29.4665832519531
 42
0.0
  0
VERTEX
  8
0
 10
135.799499511719
 20
29.6627502441406
 42
0.0
  0
VERTEX
  8
0
 10
136.490112304688
 20
29.8946075439453
 42
0.0
  0
VERTEX
  8
0
 10
137.171859741211
 20
30.1621246337891
 42
0.0
  0
VERTEX
  8
0
 10
137.838439941406
 20
30.4671478271484
 42
0.0
  0
VERTEX
  8
0
 10
138.483489990234
 20
30.8115844726563
 42
0.0
  0
VERTEX
  8
0
 10
139.107009887695
 20
31.1953887939453
 42
0.0
  0
VERTEX
  8
0
 10
139.708984375
 20
31.6185760498047
 42
0.0
  0
VERTEX
  8
0
 10
140.289428710938
 20
32.0811157226563
 42
0.0
  0
VERTEX
  8
0
 10
140.848327636719
 20
32.5830688476563
 42
0.0
  0
VERTEX
  8
0
 10
141.385711669922
 20
33.1243896484375
 42
0.0
  0
SEQEND
  0
POLYLINE
  8
0
 66
     1
 10
0.0
 20
0.0
 30
0.0
 70
     1
  0
VERTEX
  8
0
 10
162.349990844727
 20
48.8003997802734
 42
0.0
  0
VERTEX
  8
0
 10
162.317901611328
 20
47.0387725830078
 42
0.0
  0
VERTEX
  8
0
 10
162.221664428711
 20
45.3230590820313
 42
0.0
  0
VERTEX
  8
0
 10
162.061248779297
 20
43.6532287597656
 42
0.0
  0
VERTEX
  8
0
 10
161.836654663086
 20
42.029296875
 42
0.0
  0
VERTEX
  8
0
 10
161.547897338867
 20
40.4512939453125
 42
0.0
  0
VERTEX
  8
0
 10
161.19499206543
 20
38.9191589355469
 42
0.0
  0
VERTEX
  8
0
 10
160.777923583984
 20
37.4329223632813
 42
0.0
  0
VERTEX
  8
0
 10
160.296661376953
 20
35.9925994873047
 42
0.0
  0
VERTEX
  8
0
 10
159.751251220703
 20
34.5981597900391
 42
0.0
  0
VERTEX
  8
0
 10
159.141677856445
 20
33.2496185302734
 42
0.0
  0
VERTEX
  8
0
 10
158.467926025391
 20
31.9469909667969
 42
0.0
  0
VERTEX
  8
0
 10
157.730010986328
 20
30.6902465820313
 42
0.0
  0
VERTEX
  8
0
 10
156.927947998047
 20
29.4794006347656
 42
0.0
  0
VERTEX
  8
0
 10
156.06169128418
 20
28.3144836425781
 42
0.0
  0
VERTEX
  8
0
 10
155.131286621094
 20
27.1954345703125
 42
0.0
  0
VERTEX
  8
0
 10
154.136703491211
 20
26.1222839355469
 42
0.0
  0
VERTEX
  8
0
 10
153.085510253906
 20
25.1049041748047
 42
0.0
  0
VERTEX
  8
0
 10
151.985260009766
 20
24.1531677246094
 42
0.0
  0
VERTEX
  8
0
 10
150.8359375
 20
23.2670745849609
 42
0.0
  0
VERTEX
  8
0
 10
149.637542724609
 20
22.4465789794922
 42
0.0
  0
VERTEX
  8
0
 10
148.390090942383
 20
21.6917724609375
 42
0.0
  0
VERTEX
  8
0
 10
147.09358215332
 20
21.0025787353516
 42
0.0
  0
VERTEX
  8
0
 10
145.747985839844
 20
20.3790130615234
 42
0.0
  0
VERTEX
  8
0
 10
144.353317260742
 20
19.8211212158203
 42
0.0
  0
VERTEX
  8
0
 10
142.909591674805
 20
19.3288421630859
 42
0.0
  0
VERTEX
  8
0
 10
141.416809082031
 20
18.9021911621094
 42
0.0
  0
VERTEX
  8
0
 10
139.874938964844
 20
18.5411834716797
 42
0.0
  0
VERTEX
  8
0
 10
138.284027099609
 20
18.2458190917969
 42
0.0
  0
VERTEX
  8
0
 10
136.64404296875
 20
18.0160827636719
 42
0.0
  0
VERTEX
  8
0
 10
134.954986572266
 20
17.8519897460938
 42
0.0
  0
VERTEX
  8
0
 10
133.216857910156
 20
17.7535400390625
 42
0.0
  0
VERTEX
  8
0
 10
131.429672241211
 20
17.7207183837891
 42
0.0
  0
VERTEX
  8
0
 10
129.647399902344
 20
17.7535247802734
 42
0.0
  0
VERTEX
  8
0
 10
127.91389465332
 20
17.8519897460938
 42
0.0
  0
VERTEX
  8
0
 10
126.229125976563
 20
18.0160827636719
 42
0.0
  0
VERTEX
  8
0
 10
124.593109130859
 20
18.2458190917969
 42
0.0
  0
VERTEX
  8
0
 10
123.005836486816
 20
18.5411682128906
 42
0.0
  0
VERTEX
  8
0
 10
121.467330932617
 20
18.9022064208984
 42
0.0
  0
VERTEX
  8
0
 10
119.977554321289
 20
19.3288269042969
 42
0.0
  0
VERTEX
  8
0
 10
118.536529541016
 20
19.8211059570313
 42
0.0
  0
VERTEX
  8
0
 10
117.144248962402
 20
20.3790283203125
 42
0.0
  0
VERTEX
  8
0
 10
115.800720214844
 20
21.0025787353516
 42
0.0
  0
VERTEX
  8
0
 10
114.505950927734
 20
21.6917724609375
 42
0.0
  0
VERTEX
  8
0
 10
113.259925842285
 20
22.4465942382813
 42
0.0
  0
VERTEX
  8
0
 10
112.062637329102
 20
23.2670593261719
 42
0.0
  0
VERTEX
  8
0
 10
110.914108276367
 20
24.1531677246094
 42
0.0
  0
VERTEX
  8
0
 10
109.814323425293
 20
25.1049194335938
 42
0.0
  0
VERTEX
  8
0
 10
108.763290405273
 20
26.1222839355469
 42
0.0
  0
VERTEX
  8
0
 10
107.768714904785
 20
27.1954193115234
 42
0.0
  0
VERTEX
  8
0
 10
106.838302612305
 20
28.3144836425781
 42
0.0
  0
VERTEX
  8
0
 10
105.972053527832
 20
29.4794006347656
 42
0.0
  0
VERTEX
  8
0
 10
105.169967651367
 20
30.6902618408203
 42
0.0
  0
VERTEX
  8
0
 10
104.432075500488
 20
31.9469757080078
 42
0.0
  0
VERTEX
  8
0
 10
103.758323669434
 20
33.2496185302734
 42
0.0
  0
VERTEX
  8
0
 10
103.148735046387
 20
34.5981750488281
 42
0.0
  0
VERTEX
  8
0
 10
102.603324890137
 20
35.9925842285156
 42
0.0
  0
VERTEX
  8
0
 10
102.1220703125
 20
37.4329376220703
 42
0.0
  0
VERTEX
  8
0
 10
101.70499420166
 20
38.9191589355469
 42
0.0
  0
VERTEX
  8
0
 10
101.352081298828
 20
40.4512786865234
 42
0.0
  0
VERTEX
  8
0
 10
101.063331604004
 20
42.029296875
 42
0.0
  0
VERTEX
  8
0
 10
100.838752746582
 20
43.6532287597656
 42
0.0
  0
VERTEX
  8
0
 10
100.678337097168
 20
45.3230590820313
 42
0.0
  0
VERTEX
  8
0
 10
100.582084655762
 20
47.0387878417969
 42
0.0
  0
VERTEX
  8
0
 10
100.550003051758
 20
48.8003997802734
 42
0.0
  0
VERTEX
  8
0
 10
100.582077026367
 20
50.5764312744141
 42
0.0
  0
VERTEX
  8
0
 10
100.678337097168
 20
52.3053131103516
 42
0.0
  0
VERTEX
  8
0
 10
100.838745117188
 20
53.9870452880859
 42
0.0
  0
VERTEX
  8
0
 10
101.063331604004
 20
55.6216430664063
 42
0.0
  0
VERTEX
  8
0
 10
101.352081298828
 20
57.2090911865234
 42
0.0
  0
VERTEX
  8
0
 10
101.70499420166
 20
58.7493591308594
 42
0.0
  0
VERTEX
  8
0
 10
102.122077941895
 20
60.2424926757813
 42
0.0
  0
VERTEX
  8
0
 10
102.603324890137
 20
61.6884918212891
 42
0.0
  0
VERTEX
  8
0
 10
103.148742675781
 20
63.0873260498047
 42
0.0
  0
VERTEX
  8
0
 10
103.758323669434
 20
64.4390258789063
 42
0.0
  0
VERTEX
  8
0
 10
104.432060241699
 20
65.7435455322266
 42
0.0
  0
VERTEX
  8
0
 10
105.169982910156
 20
67.0009307861328
 42
0.0
  0
VERTEX
  8
0
 10
105.972061157227
 20
68.211181640625
 42
0.0
  0
VERTEX
  8
0
 10
106.838302612305
 20
69.374267578125
 42
0.0
  0
VERTEX
  8
0
 10
107.768707275391
 20
70.4902038574219
 42
0.0
  0
VERTEX
  8
0
 10
108.763290405273
 20
71.5589904785156
 42
0.0
  0
VERTEX
  8
0
 10
109.814323425293
 20
72.5715484619141
 42
0.0
  0
VERTEX
  8
0
 10
110.914108276367
 20
73.5187683105469
 42
0.0
  0
VERTEX
  8
0
 10
112.062629699707
 20
74.4006652832031
 42
0.0
  0
VERTEX
  8
0
 10
113.259918212891
 20
75.2172393798828
 42
0.0
  0
VERTEX
  8
0
 10
114.505958557129
 20
75.9684906005859
 42
0.0
  0
VERTEX
  8
0
 10
115.800727844238
 20
76.6544189453125
 42
0.0
  0
VERTEX
  8
0
 10
117.144248962402
 20
77.2750244140625
 42
0.0
  0
VERTEX
  8
0
 10
118.536529541016
 20
77.8302917480469
 42
0.0
  0
VERTEX
  8
0
 10
119.977554321289
 20
78.3202209472656
 42
0.0
  0
VERTEX
  8
0
 10
121.467315673828
 20
78.7448425292969
 42
0.0
  0
VERTEX
  8
0
 10
123.005844116211
 20
79.1041412353516
 42
0.0
  0
VERTEX
  8
0
 10
124.593101501465
 20
79.3981018066406
 42
0.0
  0
VERTEX
  8
0
 10
126.229125976563
 20
79.6267547607422
 42
0.0
  0
VERTEX
  8
0
 10
127.91389465332
 20
79.7900695800781
 42
0.0
  0
VERTEX
  8
0
 10
129.647415161133
 20
79.8880462646484
 42
0.0
  0
VERTEX
  8
0
 10
131.429672241211
 20
79.9207153320313
 42
0.0
  0
VERTEX
  8
0
 10
133.207366943359
 20
79.8880462646484
 42
0.0
  0
VERTEX
  8
0
 10
134.936904907227
 20
79.7900695800781
 42
0.0
  0
VERTEX
  8
0
 10
136.618347167969
 20
79.6267547607422
 42
0.0
  0
VERTEX
  8
0
 10
138.25163269043
 20
79.3981018066406
 42
0.0
  0
VERTEX
  8
0
 10
139.836822509766
 20
79.1041412353516
 42
0.0
  0
VERTEX
  8
0
 10
141.37385559082
 20
78.7448425292969
 42
0.0
  0
VERTEX
  8
0
 10
142.862747192383
 20
78.3202362060547
 42
0.0
  0
VERTEX
  8
0
 10
144.303512573242
 20
77.8302917480469
 42
0.0
  0
VERTEX
  8
0
 10
145.696136474609
 20
77.2750244140625
 42
0.0
  0
VERTEX
  8
0
 10
147.040649414063
 20
76.6544189453125
 42
0.0
  0
VERTEX
  8
0
 10
148.337020874023
 20
75.968505859375
 42
0.0
  0
VERTEX
  8
0
 10
149.585266113281
 20
75.2172546386719
 42
0.0
  0
VERTEX
  8
0
 10
150.785369873047
 20
74.4006652832031
 42
0.0
  0
VERTEX
  8
0
 10
151.93733215332
 20
73.5187683105469
 42
0.0
  0
VERTEX
  8
0
 10
153.041168212891
 20
72.5715484619141
 42
0.0
  0
VERTEX
  8
0
 10
154.096878051758
 20
71.5589904785156
 42
0.0
  0
VERTEX
  8
0
 10
155.096282958984
 20
70.4902038574219
 42
0.0
  0
VERTEX
  8
0
 10
156.031204223633
 20
69.374267578125
 42
0.0
  0
VERTEX
  8
0
 10
156.901641845703
 20
68.2111663818359
 42
0.0
  0
VERTEX
  8
0
 10
157.707626342773
 20
67.0009307861328
 42
0.0
  0
VERTEX
  8
0
 10
158.449111938477
 20
65.7435455322266
 42
0.0
  0
VERTEX
  8
0
 10
159.126129150391
 20
64.4389953613281
 42
0.0
  0
VERTEX
  8
0
 10
159.738662719727
 20
63.0873413085938
 42
0.0
  0
VERTEX
  8
0
 10
160.286712646484
 20
61.6884765625
 42
0.0
  0
VERTEX
  8
0
 10
160.770294189453
 20
60.2425079345703
 42
0.0
  0
VERTEX
  8
0
 10
161.189392089844
 20
58.7493591308594
 42
0.0
  0
VERTEX
  8
0
 10
161.544036865234
 20
57.2090759277344
 42
0.0
  0
VERTEX
  8
0
 10
161.834167480469
 20
55.6216430664063
 42
0.0
  0
VERTEX
  8
0
 10
162.059844970703
 20
53.987060546875
 42
0.0
  0
VERTEX
  8
0
 10
162.221038818359
 20
52.3053131103516
 42
0.0
  0
VERTEX
  8
0
 10
162.317764282227
 20
50.5764312744141
 42
0.0
  0
SEQEND
  0
POLYLINE
  8
0
 66
     1
 10
0.0
 20
0.0
 30
0.0
 70
     1
  0
VERTEX
  8
0
 10
88.8499908447266
 20
18.9207153320313
 42
0.0
  0
VERTEX
  8
0
 10
74.0218811035156
 20
18.9207153320313
 42
0.0
  0
VERTEX
  8
0
 10
48.4499969482422
 20
59.9660339355469
 42
0.0
  0
VERTEX
  8
0
 10
48.4499969482422
 20
18.9207153320313
 42
0.0
  0
VERTEX
  8
0
 10
34.3500061035156
 20
18.9207153320313
 42
0.0
  0
VERTEX
  8
0
 10
34.3500061035156
 20
78.7207183837891
 42
0.0
  0
VERTEX
  8
0
 10
52.7796936035156
 20
78.7207183837891
 42
0.0
  0
VERTEX
  8
0
 10
74.75
 20
44.4629058837891
 42
0.0
  0
VERTEX
  8
0
 10
74.75
 20
78.7207183837891
 42
0.0
  0
VERTEX
  8
0
 10
88.8499908447266
 20
78.7207183837891
 42
0.0
  0
SEQEND
  0
POLYLINE
  8
0
 66
     1
 10
0.0
 20
0.0
 30
0.0
 70
     1
  0
VERTEX
  8
0
 10
19.1499938964844
 20
18.9207153320313
 42
0.0
  0
VERTEX
  8
0
 10
3.75
 20
18.9207153320313
 42
0.0
  0
VERTEX
  8
0
 10
3.75
 20
58.9800872802734
 42
0.0
  0
VERTEX
  8
0
 10
-7.296875
 20
33.0207214355469
 42
0.0
  0
VERTEX
  8
0
 10
-17.9031372070313
 20
33.0207214355469
 42
0.0
  0
VERTEX
  8
0
 10
-28.9500122070313
 20
58.9800872802734
 42
0.0
  0
VERTEX
  8
0
 10
-28.9500122070313
 20
18.9207153320313
 42
0.0
  0
VERTEX
  8
0
 10
-43.6500091552734
 20
18.9207153320313
 42
0.0
  0
VERTEX
  8
0
 10
-43.6500091552734
 20
78.7207183837891
 42
0.0
  0
VERTEX
  8
0
 10
-25.5875091552734
 20
78.7207183837891
 42
0.0
  0
VERTEX
  8
0
 10
-12.1796875
 20
48.7488403320313
 42
0.0
  0
VERTEX
  8
0
 10
1.1890563964844
 20
78.7207183837891
 42
0.0
  0
VERTEX
  8
0
 10
19.1499938964844
 20
78.7207183837891
 42
0.0
  0
SEQEND
  0
POLYLINE
  8
0
 66
     1
 10
0.0
 20
0.0
 30
0.0
 70
     1
  0
VERTEX
  8
0
 10
-52.8500061035156
 20
18.9207153320313
 42
0.0
  0
VERTEX
  8
0
 10
-96.0500106811523
 20
18.9207153320313
 42
0.0
  0
VERTEX
  8
0
 10
-96.0500106811523
 20
78.7207183837891
 42
0.0
  0
VERTEX
  8
0
 10
-80.6500091552734
 20
78.7207183837891
 42
0.0
  0
VERTEX
  8
0
 10
-80.6500091552734
 20
30.5207214355469
 42
0.0
  0
VERTEX
  8
0
 10
-52.8500061035156
 20
30.5207214355469
 42
0.0
  0
SEQEND
  0
POLYLINE
  8
0
 66
     1
 10
0.0
 20
0.0
 30
0.0
 70
     1
  0
VERTEX
  8
0
 10
-103.650009155273
 20
18.9207153320313
 42
0.0
  0
VERTEX
  8
0
 10
-122.668762207031
 20
18.9207153320313
 42
0.0
  0
VERTEX
  8
0
 10
-140.567199707031
 20
42.8269653320312
 42
0.0
  0
VERTEX
  8
0
 10
-144.150009155273
 20
38.4066467285156
 42
0.0
  0
VERTEX
  8
0
 10
-144.150009155273
 20
18.9207153320313
 42
0.0
  0
VERTEX
  8
0
 10
-159.550003051758
 20
18.9207153320313
 42
0.0
  0
VERTEX
  8
0
 10
-159.550003051758
 20
78.7207183837891
 42
0.0
  0
VERTEX
  8
0
 10
-144.150009155273
 20
78.7207183837891
 42
0.0
  0
VERTEX
  8
0
 10
-144.150009155273
 20
51.6550903320313
 42
0.0
  0
VERTEX
  8
0
 10
-122.790634155273
 20
78.7207183837891
 42
0.0
  0
VERTEX
  8
0
 10
-104.850006103516
 20
78.7207183837891
 42
0.0
  0
VERTEX
  8
0
 10
-128.248443603516
 20
51.0503997802734
 42
0.0
  0
SEQEND
  0
POLYLINE
  8
0
 66
     1
 10
0.0
 20
0.0
 30
0.0
 70
     1
  0
VERTEX
  8
0
 10
159.54997253418
 20
136.487899780273
 42
0.0
  0
VERTEX
  8
0
 10
159.52799987793
 20
135.512145996094
 42
0.0
  0
VERTEX
  8
0
 10
159.462127685547
 20
134.552062988281
 42
0.0
  0
VERTEX
  8
0
 10
159.352325439453
 20
133.607666015625
 42
0.0
  0
VERTEX
  8
0
 10
159.198608398438
 20
132.678924560547
 42
0.0
  0
VERTEX
  8
0
 10
159.000961303711
 20
131.765853881836
 42
0.0
  0
VERTEX
  8
0
 10
158.759399414063
 20
130.868469238281
 42
0.0
  0
VERTEX
  8
0
 10
158.473922729492
 20
129.986755371094
 42
0.0
  0
VERTEX
  8
0
 10
158.144515991211
 20
129.120712280273
 42
0.0
  0
VERTEX
  8
0
 10
157.771820068359
 20
128.27912902832
 42
0.0
  0
VERTEX
  8
0
 10
157.356475830078
 20
127.470809936523
 42
0.0
  0
VERTEX
  8
0
 10
156.898468017578
 20
126.695739746094
 42
0.0
  0
VERTEX
  8
0
 10
156.397827148438
 20
125.953918457031
 42
0.0
  0
VERTEX
  8
0
 10
155.854522705078
 20
125.24535369873
 42
0.0
  0
VERTEX
  8
0
 10
155.268585205078
 20
124.570037841797
 42
0.0
  0
VERTEX
  8
0
 10
154.639984130859
 20
123.927963256836
 42
0.0
  0
VERTEX
  8
0
 10
153.968734741211
 20
123.319152832031
 42
0.0
  0
VERTEX
  8
0
 10
153.217102050781
 20
122.704971313477
 42
0.0
  0
VERTEX
  8
0
 10
152.427856445313
 20
122.126525878906
 42
0.0
  0
VERTEX
  8
0
 10
151.600997924805
 20
121.583786010742
 42
0.0
  0
VERTEX
  8
0
 10
150.736511230469
 20
121.076774597168
 42
0.0
  0
VERTEX
  8
0
 10
149.834396362305
 20
120.60546875
 42
0.0
  0
VERTEX
  8
0
 10
148.894653320313
 20
120.169883728027
 42
0.0
  0
VERTEX
  8
0
 10
147.91731262207
 20
119.77001953125
 42
0.0
  0
VERTEX
  8
0
 10
146.902328491211
 20
119.405868530273
 42
0.0
  0
VERTEX
  8
0
 10
145.837783813477
 20
119.081230163574
 42
0.0
  0
VERTEX
  8
0
 10
144.711761474609
 20
118.799873352051
 42
0.0
  0
VERTEX
  8
0
 10
143.524200439453
 20
118.561790466309
 42
0.0
  0
VERTEX
  8
0
 10
142.275177001953
 20
118.367004394531
 42
0.0
  0
VERTEX
  8
0
 10
140.964645385742
 20
118.21549987793
 42
0.0
  0
VERTEX
  8
0
 10
139.592620849609
 20
118.107284545898
 42
0.0
  0
VERTEX
  8
0
 10
136.664047241211
 20
118.020713806152
 42
0.0
  0
VERTEX
  8
0
 10
132.648620605469
 20
118.09610748291
 42
0.0
  0
VERTEX
  8
0
 10
128.874221801758
 20
118.322280883789
 42
0.0
  0
VERTEX
  8
0
 10
125.441184997559
 20
118.689079284668
 42
0.0
  0
VERTEX
  8
0
 10
122.449966430664
 20
119.186340332031
 42
0.0
  0
VERTEX
  8
0
 10
122.449966430664
 20
131.320709228516
 42
0.0
  0
VERTEX
  8
0
 10
123.896865844727
 20
131.320709228516
 42
0.0
  0
VERTEX
  8
0
 10
125.865417480469
 20
130.611740112305
 42
0.0
  0
VERTEX
  8
0
 10
127.914810180664
 20
129.953521728516
 42
0.0
  0
VERTEX
  8
0
 10
128.455474853516
 20
129.805206298828
 42
0.0
  0
VERTEX
  8
0
 10
129.03254699707
 20
129.676666259766
 42
0.0
  0
VERTEX
  8
0
 10
129.646011352539
 20
129.567916870117
 42
0.0
  0
VERTEX
  8
0
 10
130.295883178711
 20
129.478927612305
 42
0.0
  0
VERTEX
  8
0
 10
131.704803466797
 20
129.360260009766
 42
0.0
  0
VERTEX
  8
0
 10
133.259353637695
 20
129.320709228516
 42
0.0
  0
VERTEX
  8
0
 10
134.283966064453
 20
129.338287353516
 42
0.0
  0
VERTEX
  8
0
 10
135.247650146484
 20
129.391021728516
 42
0.0
  0
VERTEX
  8
0
 10
136.150375366211
 20
129.478927612305
 42
0.0
  0
VERTEX
  8
0
 10
136.992172241211
 20
129.601974487305
 42
0.0
  0
VERTEX
  8
0
 10
137.773040771484
 20
129.760162353516
 42
0.0
  0
VERTEX
  8
0
 10
138.492950439453
 20
129.953521728516
 42
0.0
  0
VERTEX
  8
0
 10
138.830078125
 20
130.063385009766
 42
0.0
  0
VERTEX
  8
0
 10
139.151947021484
 20
130.182037353516
 42
0.0
  0
VERTEX
  8
0
 10
139.458587646484
 20
130.309478759766
 42
0.0
  0
VERTEX
  8
0
 10
139.749984741211
 20
130.445709228516
 42
0.0
  0
VERTEX
  8
0
 10
140.028671264648
 20
130.589782714844
 42
0.0
  0
VERTEX
  8
0
 10
140.297149658203
 20
130.740753173828
 42
0.0
  0
VERTEX
  8
0
 10
140.555435180664
 20
130.898620605469
 42
0.0
  0
VERTEX
  8
0
 10
140.803497314453
 20
131.063385009766
 42
0.0
  0
VERTEX
  8
0
 10
141.041381835938
 20
131.235046386719
 42
0.0
  0
VERTEX
  8
0
 10
141.26904296875
 20
131.413619995117
 42
0.0
  0
VERTEX
  8
0
 10
141.486480712891
 20
131.599060058594
 42
0.0
  0
VERTEX
  8
0
 10
141.693740844727
 20
131.791427612305
 42
0.0
  0
VERTEX
  8
0
 10
141.89079284668
 20
131.990676879883
 42
0.0
  0
VERTEX
  8
0
 10
142.07763671875
 20
132.196807861328
 42
0.0
  0
VERTEX
  8
0
 10
142.254272460938
 20
132.409866333008
 42
0.0
  0
VERTEX
  8
0
 10
142.420684814453
 20
132.629791259766
 42
0.0
  0
VERTEX
  8
0
 10
142.576904296875
 20
132.856628417969
 42
0.0
  0
VERTEX
  8
0
 10
142.722930908203
 20
133.090362548828
 42
0.0
  0
VERTEX
  8
0
 10
142.858749389648
 20
133.330993652344
 42
0.0
  0
VERTEX
  8
0
 10
142.984359741211
 20
133.578521728516
 42
0.0
  0
VERTEX
  8
0
 10
143.203048706055
 20
134.07666015625
 42
0.0
  0
VERTEX
  8
0
 10
143.396560668945
 20
134.586685180664
 42
0.0
  0
VERTEX
  8
0
 10
143.564956665039
 20
135.108612060547
 42
0.0
  0
VERTEX
  8
0
 10
143.708206176758
 20
135.642395019531
 42
0.0
  0
VERTEX
  8
0
 10
143.826293945313
 20
136.188079833984
 42
0.0
  0
VERTEX
  8
0
 10
143.919235229492
 20
136.745666503906
 42
0.0
  0
VERTEX
  8
0
 10
143.987030029297
 20
137.315139770508
 42
0.0
  0
VERTEX
  8
0
 10
144.029678344727
 20
137.896499633789
 42
0.0
  0
VERTEX
  8
0
 10
144.149978637695
 20
143.901962280273
 42
0.0
  0
VERTEX
  8
0
 10
144.149978637695
 20
167.720718383789
 42
0.0
  0
VERTEX
  8
0
 10
130.449966430664
 20
167.720718383789
 42
0.0
  0
VERTEX
  8
0
 10
130.449966430664
 20
178.720718383789
 42
0.0
  0
VERTEX
  8
0
 10
159.54997253418
 20
178.720718383789
 42
0.0
  0
SEQEND
  0
POLYLINE
  8
0
 66
     1
 10
0.0
 20
0.0
 30
0.0
 70
     1
  0
VERTEX
  8
0
 10
102.274978637695
 20
118.920715332031
 42
0.0
  0
VERTEX
  8
0
 10
67.2749786376953
 20
118.920715332031
 42
0.0
  0
VERTEX
  8
0
 10
67.2749786376953
 20
129.520721435547
 42
0.0
  0
VERTEX
  8
0
 10
77.0749969482422
 20
129.520721435547
 42
0.0
  0
VERTEX
  8
0
 10
77.0749969482422
 20
168.120712280273
 42
0.0
  0
VERTEX
  8
0
 10
67.2749786376953
 20
168.120712280273
 42
0.0
  0
VERTEX
  8
0
 10
67.2749786376953
 20
178.720718383789
 42
0.0
  0
VERTEX
  8
0
 10
102.274978637695
 20
178.720718383789
 42
0.0
  0
VERTEX
  8
0
 10
102.274978637695
 20
168.120712280273
 42
0.0
  0
VERTEX
  8
0
 10
92.4749908447265
 20
168.120712280273
 42
0.0
  0
VERTEX
  8
0
 10
92.4749908447265
 20
129.520721435547
 42
0.0
  0
VERTEX
  8
0
 10
102.274978637695
 20
129.520721435547
 42
0.0
  0
SEQEND
  0
POLYLINE
  8
0
 66
     1
 10
0.0
 20
0.0
 30
0.0
 70
     1
  0
VERTEX
  8
0
 10
41.2999877929688
 20
118.920715332031
 42
0.0
  0
VERTEX
  8
0
 10
25.8999938964844
 20
118.920715332031
 42
0.0
  0
VERTEX
  8
0
 10
25.8999938964844
 20
145.220718383789
 42
0.0
  0
VERTEX
  8
0
 10
3.0
 20
145.220718383789
 42
0.0
  0
VERTEX
  8
0
 10
3.0
 20
118.920715332031
 42
0.0
  0
VERTEX
  8
0
 10
-12.4000091552734
 20
118.920715332031
 42
0.0
  0
VERTEX
  8
0
 10
-12.4000091552734
 20
178.720718383789
 42
0.0
  0
VERTEX
  8
0
 10
3.0
 20
178.720718383789
 42
0.0
  0
VERTEX
  8
0
 10
3.0
 20
156.820709228516
 42
0.0
  0
VERTEX
  8
0
 10
25.8999938964844
 20
156.820709228516
 42
0.0
  0
VERTEX
  8
0
 10
25.8999938964844
 20
178.720718383789
 42
0.0
  0
VERTEX
  8
0
 10
41.2999877929688
 20
178.720718383789
 42
0.0
  0
SEQEND
  0
POLYLINE
  8
0
 66
     1
 10
0.0
 20
0.0
 30
0.0
 70
     1
  0
VERTEX
  8
0
 10
-39.6750106811524
 20
122.38321685791
 42
0.0
  0
VERTEX
  8
0
 10
-41.8467864990234
 20
121.600212097168
 42
0.0
  0
VERTEX
  8
0
 10
-44.3449287414551
 20
120.819938659668
 42
0.0
  0
VERTEX
  8
0
 10
-50.3203201293945
 20
119.267593383789
 42
0.0
  0
VERTEX
  8
0
 10
-53.6318473815918
 20
118.590843200684
 42
0.0
  0
VERTEX
  8
0
 10
-56.938289642334
 20
118.107437133789
 42
0.0
  0
VERTEX
  8
0
 10
-60.2396583557129
 20
117.817398071289
 42
0.0
  0
VERTEX
  8
0
 10
-63.5359497070313
 20
117.720718383789
 42
0.0
  0
VERTEX
  8
0
 10
-65.4182586669922
 20
117.753105163574
 42
0.0
  0
VERTEX
  8
0
 10
-67.248779296875
 20
117.850296020508
 42
0.0
  0
VERTEX
  8
0
 10
-69.0275039672852
 20
118.012245178223
 42
0.0
  0
VERTEX
  8
0
 10
-70.7544555664063
 20
118.238983154297
 42
0.0
  0
VERTEX
  8
0
 10
-72.4296035766602
 20
118.530502319336
 42
0.0
  0
VERTEX
  8
0
 10
-74.052978515625
 20
118.88680267334
 42
0.0
  0
VERTEX
  8
0
 10
-75.6245498657227
 20
119.307891845703
 42
0.0
  0
VERTEX
  8
0
 10
-77.1443481445313
 20
119.793762207031
 42
0.0
  0
VERTEX
  8
0
 10
-78.6123504638672
 20
120.344421386719
 42
0.0
  0
VERTEX
  8
0
 10
-80.028564453125
 20
120.959854125977
 42
0.0
  0
VERTEX
  8
0
 10
-81.3929901123047
 20
121.640075683594
 42
0.0
  0
VERTEX
  8
0
 10
-82.7056274414062
 20
122.385070800781
 42
0.0
  0
VERTEX
  8
0
 10
-83.9664764404297
 20
123.194854736328
 42
0.0
  0
VERTEX
  8
0
 10
-85.175537109375
 20
124.06941986084
 42
0.0
  0
VERTEX
  8
0
 10
-86.3328094482422
 20
125.008766174316
 42
0.0
  0
VERTEX
  8
0
 10
-87.4382934570312
 20
126.012901306152
 42
0.0
  0
VERTEX
  8
0
 10
-88.4841537475586
 20
127.074127197266
 42
0.0
  0
VERTEX
  8
0
 10
-89.4625244140625
 20
128.184753417969
 42
0.0
  0
VERTEX
  8
0
 10
-90.373420715332
 20
129.344787597656
 42
0.0
  0
VERTEX
  8
0
 10
-91.2168579101563
 20
130.554214477539
 42
0.0
  0
VERTEX
  8
0
 10
-91.9928207397461
 20
131.813049316406
 42
0.0
  0
VERTEX
  8
0
 10
-92.7012939453125
 20
133.121276855469
 42
0.0
  0
VERTEX
  8
0
 10
-93.3422927856445
 20
134.478912353516
 42
0.0
  0
VERTEX
  8
0
 10
-93.9158325195313
 20
135.885955810547
 42
0.0
  0
VERTEX
  8
0
 10
-94.4218902587891
 20
137.342376708984
 42
0.0
  0
VERTEX
  8
0
 10
-94.8604736328125
 20
138.848236083984
 42
0.0
  0
VERTEX
  8
0
 10
-95.2315902709961
 20
140.403472900391
 42
0.0
  0
VERTEX
  8
0
 10
-95.5352172851562
 20
142.008117675781
 42
0.0
  0
VERTEX
  8
0
 10
-95.7713775634766
 20
143.662170410156
 42
0.0
  0
VERTEX
  8
0
 10
-95.9400634765625
 20
145.365615844727
 42
0.0
  0
VERTEX
  8
0
 10
-96.0412750244141
 20
147.118469238281
 42
0.0
  0
VERTEX
  8
0
 10
-96.0750122070313
 20
148.920715332031
 42
0.0
  0
VERTEX
  8
0
 10
-96.0409469604492
 20
150.641418457031
 42
0.0
  0
VERTEX
  8
0
 10
-95.9387054443359
 20
152.319915771484
 42
0.0
  0
VERTEX
  8
0
 10
-95.7683181762695
 20
153.956207275391
 42
0.0
  0
VERTEX
  8
0
 10
-95.529800415039
 20
155.550308227539
 42
0.0
  0
VERTEX
  8
0
 10
-95.2231216430664
 20
157.102203369141
 42
0.0
  0
VERTEX
  8
0
 10
-94.8482818603516
 20
158.611907958984
 42
0.0
  0
VERTEX
  8
0
 10
-94.4052810668945
 20
160.079406738281
 42
0.0
  0
VERTEX
  8
0
 10
-93.8941497802734
 20
161.504699707031
 42
0.0
  0
VERTEX
  8
0
 10
-93.3148574829102
 20
162.887802124023
 42
0.0
  0
VERTEX
  8
0
 10
-92.6674194335938
 20
164.228698730469
 42
0.0
  0
VERTEX
  8
0
 10
-91.9518203735352
 20
165.527404785156
 42
0.0
  0
VERTEX
  8
0
 10
-91.1680755615234
 20
166.783905029297
 42
0.0
  0
VERTEX
  8
0
 10
-90.316177368164
 20
167.998199462891
 42
0.0
  0
VERTEX
  8
0
 10
-89.396125793457
 20
169.170303344727
 42
0.0
  0
VERTEX
  8
0
 10
-88.4079284667969
 20
170.300201416016
 42
0.0
  0
VERTEX
  8
0
 10
-87.3515701293945
 20
171.387908935547
 42
0.0
  0
VERTEX
  8
0
 10
-86.2342834472656
 20
172.421173095703
 42
0.0
  0
VERTEX
  8
0
 10
-85.0632934570313
 20
173.387786865234
 42
0.0
  0
VERTEX
  8
0
 10
-83.8385925292969
 20
174.287719726563
 42
0.0
  0
VERTEX
  8
0
 10
-82.560173034668
 20
175.121002197266
 42
0.0
  0
VERTEX
  8
0
 10
-81.228042602539
 20
175.887634277344
 42
0.0
  0
VERTEX
  8
0
 10
-79.8422012329102
 20
176.587585449219
 42
0.0
  0
VERTEX
  8
0
 10
-78.4026412963867
 20
177.220886230469
 42
0.0
  0
VERTEX
  8
0
 10
-76.9093856811523
 20
177.787506103516
 42
0.0
  0
VERTEX
  8
0
 10
-75.362419128418
 20
178.287475585938
 42
0.0
  0
VERTEX
  8
0
 10
-73.7617340087891
 20
178.720794677734
 42
0.0
  0
VERTEX
  8
0
 10
-72.1073379516602
 20
179.087432861328
 42
0.0
  0
VERTEX
  8
0
 10
-70.3992309570313
 20
179.387420654297
 42
0.0
  0
VERTEX
  8
0
 10
-68.6374130249023
 20
179.620727539063
 42
0.0
  0
VERTEX
  8
0
 10
-66.8218841552734
 20
179.787384033203
 42
0.0
  0
VERTEX
  8
0
 10
-64.9526519775391
 20
179.887390136719
 42
0.0
  0
VERTEX
  8
0
 10
-63.0297012329101
 20
179.920715332031
 42
0.0
  0
VERTEX
  8
0
 10
-60.1102180480957
 20
179.854263305664
 42
0.0
  0
VERTEX
  8
0
 10
-57.2611427307129
 20
179.654891967773
 42
0.0
  0
VERTEX
  8
0
 10
-54.4824829101563
 20
179.322616577148
 42
0.0
  0
VERTEX
  8
0
 10
-51.7742309570313
 20
178.857437133789
 42
0.0
  0
VERTEX
  8
0
 10
-50.4188461303711
 20
178.558685302734
 42
0.0
  0
VERTEX
  8
0
 10
-49.0257415771484
 20
178.194107055664
 42
0.0
  0
VERTEX
  8
0
 10
-46.1263732910156
 20
177.267395019531
 42
0.0
  0
VERTEX
  8
0
 10
-43.0761337280273
 20
176.077301025391
 42
0.0
  0
VERTEX
  8
0
 10
-39.8750076293945
 20
174.623840332031
 42
0.0
  0
VERTEX
  8
0
 10
-39.8750076293945
 20
160.620712280273
 42
0.0
  0
VERTEX
  8
0
 10
-41.6046981811523
 20
160.620712280273
 42
0.0
  0
VERTEX
  8
0
 10
-44.9054794311523
 20
162.966033935547
 42
0.0
  0
VERTEX
  8
0
 10
-47.0380935668945
 20
164.369934082031
 42
0.0
  0
VERTEX
  8
0
 10
-49.0906372070313
 20
165.547271728516
 42
0.0
  0
VERTEX
  8
0
 10
-50.3061599731445
 20
166.155578613281
 42
0.0
  0
VERTEX
  8
0
 10
-51.619930267334
 20
166.719543457031
 42
0.0
  0
VERTEX
  8
0
 10
-53.0319442749023
 20
167.239166259766
 42
0.0
  0
VERTEX
  8
0
 10
-54.5421981811523
 20
167.714462280273
 42
0.0
  0
VERTEX
  8
0
 10
-55.3278617858887
 20
167.926864624023
 42
0.0
  0
VERTEX
  8
0
 10
-56.1254959106445
 20
168.110946655273
 42
0.0
  0
VERTEX
  8
0
 10
-56.9350929260254
 20
168.266723632813
 42
0.0
  0
VERTEX
  8
0
 10
-57.756649017334
 20
168.394165039063
 42
0.0
  0
VERTEX
  8
0
 10
-59.4356536865234
 20
168.564071655273
 42
0.0
  0
VERTEX
  8
0
 10
-61.1625137329101
 20
168.620712280273
 42
0.0
  0
VERTEX
  8
0
 10
-62.1767349243164
 20
168.601959228516
 42
0.0
  0
VERTEX
  8
0
 10
-63.1670532226563
 20
168.545669555664
 42
0.0
  0
VERTEX
  8
0
 10
-64.1334686279297
 20
168.451858520508
 42
0.0
  0
VERTEX
  8
0
 10
-65.0759887695313
 20
168.320526123047
 42
0.0
  0
VERTEX
  8
0
 10
-65.9945983886719
 20
168.151657104492
 42
0.0
  0
VERTEX
  8
0
 10
-66.8893127441406
 20
167.945281982422
 42
0.0
  0
VERTEX
  8
0
 10
-67.7601318359375
 20
167.701370239258
 42
0.0
  0
VERTEX
  8
0
 10
-68.6070404052734
 20
167.419937133789
 42
0.0
  0
VERTEX
  8
0
 10
-69.4312896728516
 20
167.099731445313
 42
0.0
  0
VERTEX
  8
0
 10
-70.2341461181641
 20
166.739517211914
 42
0.0
  0
VERTEX
  8
0
 10
-71.0155792236328
 20
166.339279174805
 42
0.0
  0
VERTEX
  8
0
 10
-71.7755966186523
 20
165.899047851563
 42
0.0
  0
VERTEX
  8
0
 10
-72.5142059326172
 20
165.41877746582
 42
0.0
  0
VERTEX
  8
0
 10
-73.2313995361328
 20
164.898498535156
 42
0.0
  0
VERTEX
  8
0
 10
-73.9271926879883
 20
164.33821105957
 42
0.0
  0
VERTEX
  8
0
 10
-74.6015701293945
 20
163.737899780273
 42
0.0
  0
VERTEX
  8
0
 10
-75.218879699707
 20
163.117202758789
 42
0.0
  0
VERTEX
  8
0
 10
-75.8028411865234
 20
162.455871582031
 42
0.0
  0
VERTEX
  8
0
 10
-76.3534393310547
 20
161.753921508789
 42
0.0
  0
VERTEX
  8
0
 10
-76.8707122802734
 20
161.011337280273
 42
0.0
  0
VERTEX
  8
0
 10
-77.3546295166016
 20
160.228149414063
 42
0.0
  0
VERTEX
  8
0
 10
-77.8051834106445
 20
159.404312133789
 42
0.0
  0
VERTEX
  8
0
 10
-78.2223968505859
 20
158.539855957031
 42
0.0
  0
VERTEX
  8
0
 10
-78.6062622070313
 20
157.634780883789
 42
0.0
  0
VERTEX
  8
0
 10
-78.9505004882813
 20
156.69157409668
 42
0.0
  0
VERTEX
  8
0
 10
-79.2488403320313
 20
155.712707519531
 42
0.0
  0
VERTEX
  8
0
 10
-79.5012817382813
 20
154.698211669922
 42
0.0
  0
VERTEX
  8
0
 10
-79.7078247070313
 20
153.648056030273
 42
0.0
  0
VERTEX
  8
0
 10
-79.8684692382813
 20
152.562271118164
 42
0.0
  0
VERTEX
  8
0
 10
-79.9832153320313
 20
151.440826416016
 42
0.0
  0
VERTEX
  8
0
 10
-80.0520629882813
 20
150.283752441406
 42
0.0
  0
VERTEX
  8
0
 10
-80.0750122070312
 20
149.091033935547
 42
0.0
  0
VERTEX
  8
0
 10
-80.0544738769531
 20
147.873611450195
 42
0.0
  0
VERTEX
  8
0
 10
-79.992805480957
 20
146.692443847656
 42
0.0
  0
VERTEX
  8
0
 10
-79.8900527954102
 20
145.547561645508
 42
0.0
  0
VERTEX
  8
0
 10
-79.7462005615234
 20
144.438934326172
 42
0.0
  0
VERTEX
  8
0
 10
-79.5612564086914
 20
143.366546630859
 42
0.0
  0
VERTEX
  8
0
 10
-79.3351974487305
 20
142.330444335938
 42
0.0
  0
VERTEX
  8
0
 10
-79.0680313110352
 20
141.330596923828
 42
0.0
  0
VERTEX
  8
0
 10
-78.7597808837891
 20
140.367004394531
 42
0.0
  0
VERTEX
  8
0
 10
-78.4104232788086
 20
139.439666748047
 42
0.0
  0
VERTEX
  8
0
 10
-78.0199584960938
 20
138.548614501953
 42
0.0
  0
VERTEX
  8
0
 10
-77.5883941650391
 20
137.693801879883
 42
0.0
  0
VERTEX
  8
0
 10
-77.1157302856445
 20
136.875259399414
 42
0.0
  0
VERTEX
  8
0
 10
-76.6019744873047
 20
136.092971801758
 42
0.0
  0
VERTEX
  8
0
 10
-76.0471038818359
 20
135.346954345703
 42
0.0
  0
VERTEX
  8
0
 10
-75.4511337280273
 20
134.637191772461
 42
0.0
  0
VERTEX
  8
0
 10
-74.8140716552734
 20
133.963684082031
 42
0.0
  0
VERTEX
  8
0
 10
-74.1368408203125
 20
133.328796386719
 42
0.0
  0
VERTEX
  8
0
 10
-73.4203720092773
 20
132.73486328125
 42
0.0
  0
VERTEX
  8
0
 10
-72.6646728515625
 20
132.181884765625
 42
0.0
  0
VERTEX
  8
0
 10
-71.8697357177734
 20
131.669876098633
 42
0.0
  0
VERTEX
  8
0
 10
-71.0355606079102
 20
131.198837280273
 42
0.0
  0
VERTEX
  8
0
 10
-70.1621704101563
 20
130.768753051758
 42
0.0
  0
VERTEX
  8
0
 10
-69.2495346069336
 20
130.379623413086
 42
0.0
  0
VERTEX
  8
0
 10
-68.2976684570313
 20
130.031463623047
 42
0.0
  0
VERTEX
  8
0
 10
-67.3065643310547
 20
129.724258422852
 42
0.0
  0
VERTEX
  8
0
 10
-66.2762298583984
 20
129.4580078125
 42
0.0
  0
VERTEX
  8
0
 10
-65.2066650390625
 20
129.232727050781
 42
0.0
  0
VERTEX
  8
0
 10
-64.0978622436523
 20
129.048400878906
 42
0.0
  0
VERTEX
  8
0
 10
-62.9498252868652
 20
128.905044555664
 42
0.0
  0
VERTEX
  8
0
 10
-61.7625579833984
 20
128.802642822266
 42
0.0
  0
VERTEX
  8
0
 10
-59.2703247070313
 20
128.720718383789
 42
0.0
  0
VERTEX
  8
0
 10
-57.3226699829102
 20
128.760559082031
 42
0.0
  0
VERTEX
  8
0
 10
-55.3750076293945
 20
128.881652832031
 42
0.0
  0
VERTEX
  8
0
 10
-55.3750076293945
 20
140.620712280273
 42
0.0
  0
VERTEX
  8
0
 10
-67.2750091552734
 20
140.620712280273
 42
0.0
  0
VERTEX
  8
0
 10
-67.2750091552734
 20
151.920715332031
 42
0.0
  0
VERTEX
  8
0
 10
-39.6750106811524
 20
151.920715332031
 42
0.0
  0
SEQEND
  0
POLYLINE
  8
0
 66
     1
 10
0.0
 20
0.0
 30
0.0
 70
     1
  0
VERTEX
  8
0
 10
-116.650009155273
 20
167.120712280273
 42
0.0
  0
VERTEX
  8
0
 10
-144.150009155273
 20
167.120712280273
 42
0.0
  0
VERTEX
  8
0
 10
-144.150009155273
 20
156.020721435547
 42
0.0
  0
VERTEX
  8
0
 10
-118.650009155273
 20
156.020721435547
 42
0.0
  0
VERTEX
  8
0
 10
-118.650009155273
 20
144.420715332031
 42
0.0
  0
VERTEX
  8
0
 10
-144.150009155273
 20
144.420715332031
 42
0.0
  0
VERTEX
  8
0
 10
-144.150009155273
 20
118.920715332031
 42
0.0
  0
VERTEX
  8
0
 10
-159.550003051758
 20
118.920715332031
 42
0.0
  0
VERTEX
  8
0
 10
-159.550003051758
 20
178.720718383789
 42
0.0
  0
VERTEX
  8
0
 10
-116.650009155273
 20
178.720718383789
 42
0.0
  0
SEQEND
  0
POLYLINE
  8
0
 66
     1
 10
0.0
 20
0.0
 30
0.0
 70
     1
  0
VERTEX
  8
0
 10
161.150009155273
 20
218.920715332031
 42
0.0
  0
VERTEX
  8
0
 10
117.849990844727
 20
218.920715332031
 42
0.0
  0
VERTEX
  8
0
 10
117.849990844727
 20
278.720703125
 42
0.0
  0
VERTEX
  8
0
 10
161.150009155273
 20
278.720703125
 42
0.0
  0
VERTEX
  8
0
 10
161.150009155273
 20
267.120727539063
 42
0.0
  0
VERTEX
  8
0
 10
133.250015258789
 20
267.120727539063
 42
0.0
  0
VERTEX
  8
0
 10
133.250015258789
 20
256.820709228516
 42
0.0
  0
VERTEX
  8
0
 10
159.150009155273
 20
256.820709228516
 42
0.0
  0
VERTEX
  8
0
 10
159.150009155273
 20
245.220718383789
 42
0.0
  0
VERTEX
  8
0
 10
133.250015258789
 20
245.220718383789
 42
0.0
  0
VERTEX
  8
0
 10
133.250015258789
 20
230.520721435547
 42
0.0
  0
VERTEX
  8
0
 10
161.150009155273
 20
230.520721435547
 42
0.0
  0
SEQEND
  0
POLYLINE
  8
0
 66
     1
 10
0.0
 20
0.0
 30
0.0
 70
     1
  0
VERTEX
  8
0
 10
84.4250030517578
 20
248.861343383789
 42
0.0
  0
VERTEX
  8
0
 10
84.3913497924805
 20
250.301635742188
 42
0.0
  0
VERTEX
  8
0
 10
84.2903823852539
 20
251.688934326172
 42
0.0
  0
VERTEX
  8
0
 10
84.1221008300781
 20
253.023223876953
 42
0.0
  0
VERTEX
  8
0
 10
83.8865203857422
 20
254.304504394531
 42
0.0
  0
VERTEX
  8
0
 10
83.583625793457
 20
255.532791137695
 42
0.0
  0
VERTEX
  8
0
 10
83.2134246826172
 20
256.708068847656
 42
0.0
  0
VERTEX
  8
0
 10
82.7759170532227
 20
257.830352783203
 42
0.0
  0
VERTEX
  8
0
 10
82.5319213867188
 20
258.371612548828
 42
0.0
  0
VERTEX
  8
0
 10
82.2711029052734
 20
258.899627685547
 42
0.0
  0
VERTEX
  8
0
 10
81.9920425415039
 20
259.413909912109
 42
0.0
  0
VERTEX
  8
0
 10
81.6933288574219
 20
259.914001464844
 42
0.0
  0
VERTEX
  8
0
 10
81.3749618530273
 20
260.399932861328
 42
0.0
  0
VERTEX
  8
0
 10
81.0369567871094
 20
260.871643066406
 42
0.0
  0
VERTEX
  8
0
 10
80.6793212890625
 20
261.329162597656
 42
0.0
  0
VERTEX
  8
0
 10
80.3020172119141
 20
261.772521972656
 42
0.0
  0
VERTEX
  8
0
 10
79.9050674438477
 20
262.20166015625
 42
0.0
  0
VERTEX
  8
0
 10
79.4884719848633
 20
262.616607666016
 42
0.0
  0
VERTEX
  8
0
 10
79.0522308349609
 20
263.017395019531
 42
0.0
  0
VERTEX
  8
0
 10
78.5963439941406
 20
263.403961181641
 42
0.0
  0
VERTEX
  8
0
 10
78.1208114624023
 20
263.776336669922
 42
0.0
  0
VERTEX
  8
0
 10
77.6256332397461
 20
264.134521484375
 42
0.0
  0
VERTEX
  8
0
 10
77.1108016967773
 20
264.478546142578
 42
0.0
  0
VERTEX
  8
0
 10
76.5763244628906
 20
264.808349609375
 42
0.0
  0
VERTEX
  8
0
 10
75.4484405517578
 20
265.425415039063
 42
0.0
  0
VERTEX
  8
0
 10
74.2546310424805
 20
265.958129882813
 42
0.0
  0
VERTEX
  8
0
 10
73.6530227661133
 20
266.189819335938
 42
0.0
  0
VERTEX
  8
0
 10
73.0482406616211
 20
266.3984375
 42
0.0
  0
VERTEX
  8
0
 10
72.4403228759766
 20
266.583984375
 42
0.0
  0
VERTEX
  8
0
 10
71.8292465209961
 20
266.746398925781
 42
0.0
  0
VERTEX
  8
0
 10
71.2150192260742
 20
266.8857421875
 42
0.0
  0
VERTEX
  8
0
 10
70.5976409912109
 20
267.001953125
 42
0.0
  0
VERTEX
  8
0
 10
69.2024841308594
 20
267.185180664063
 42
0.0
  0
VERTEX
  8
0
 10
67.4927673339844
 20
267.316040039063
 42
0.0
  0
VERTEX
  8
0
 10
63.1296844482422
 20
267.420715332031
 42
0.0
  0
VERTEX
  8
0
 10
59.2249908447266
 20
267.420715332031
 42
0.0
  0
VERTEX
  8
0
 10
59.2249908447266
 20
230.220718383789
 42
0.0
  0
VERTEX
  8
0
 10
63.1296844482422
 20
230.220718383789
 42
0.0
  0
VERTEX
  8
0
 10
67.9103469848633
 20
230.345520019531
 42
0.0
  0
VERTEX
  8
0
 10
69.7494506835938
 20
230.501525878906
 42
0.0
  0
VERTEX
  8
0
 10
70.5312042236328
 20
230.602935791016
 42
0.0
  0
VERTEX
  8
0
 10
71.2210845947266
 20
230.719940185547
 42
0.0
  0
VERTEX
  8
0
 10
71.863166809082
 20
230.857513427734
 42
0.0
  0
VERTEX
  8
0
 10
72.5015029907227
 20
231.020660400391
 42
0.0
  0
VERTEX
  8
0
 10
73.136116027832
 20
231.209381103516
 42
0.0
  0
VERTEX
  8
0
 10
73.7669830322266
 20
231.423645019531
 42
0.0
  0
VERTEX
  8
0
 10
74.3941268920898
 20
231.663482666016
 42
0.0
  0
VERTEX
  8
0
 10
75.0175247192383
 20
231.928863525391
 42
0.0
  0
VERTEX
  8
0
 10
75.6371917724609
 20
232.219818115234
 42
0.0
  0
VERTEX
  8
0
 10
76.2531280517578
 20
232.536346435547
 42
0.0
  0
VERTEX
  8
0
 10
77.2745513916016
 20
233.160064697266
 42
0.0
  0
VERTEX
  8
0
 10
77.7588500976563
 20
233.490875244141
 42
0.0
  0
VERTEX
  8
0
 10
78.2255401611328
 20
233.834335327148
 42
0.0
  0
VERTEX
  8
0
 10
78.6746292114258
 20
234.190444946289
 42
0.0
  0
VERTEX
  8
0
 10
79.1061096191406
 20
234.559173583984
 42
0.0
  0
VERTEX
  8
0
 10
79.5199661254883
 20
234.940567016602
 42
0.0
  0
VERTEX
  8
0
 10
79.9162216186523
 20
235.334579467773
 42
0.0
  0
VERTEX
  8
0
 10
80.2948608398438
 20
235.741241455078
 42
0.0
  0
VERTEX
  8
0
 10
80.6558990478516
 20
236.160552978516
 42
0.0
  0
VERTEX
  8
0
 10
80.9993362426758
 20
236.592498779297
 42
0.0
  0
VERTEX
  8
0
 10
81.3251571655273
 20
237.037078857422
 42
0.0
  0
VERTEX
  8
0
 10
81.6333618164063
 20
237.494293212891
 42
0.0
  0
VERTEX
  8
0
 10
81.9239654541016
 20
237.964157104492
 42
0.0
  0
VERTEX
  8
0
 10
82.1969604492188
 20
238.446655273438
 42
0.0
  0
VERTEX
  8
0
 10
82.4523468017578
 20
238.941802978516
 42
0.0
  0
VERTEX
  8
0
 10
82.6912231445313
 20
239.45068359375
 42
0.0
  0
VERTEX
  8
0
 10
82.9146881103516
 20
239.974365234375
 42
0.0
  0
VERTEX
  8
0
 10
83.3153762817383
 20
241.066177368164
 42
0.0
  0
VERTEX
  8
0
 10
83.6544342041016
 20
242.217239379883
 42
0.0
  0
VERTEX
  8
0
 10
83.9318313598633
 20
243.427551269531
 42
0.0
  0
VERTEX
  8
0
 10
84.147590637207
 20
244.697113037109
 42
0.0
  0
VERTEX
  8
0
 10
84.3017120361328
 20
246.025939941406
 42
0.0
  0
VERTEX
  8
0
 10
84.3941802978516
 20
247.414016723633
 42
0.0
  0
SEQEND
  0
POLYLINE
  8
0
 66
     1
 10
0.0
 20
0.0
 30
0.0
 70
     1
  0
VERTEX
  8
0
 10
100.425003051758
 20
248.759780883789
 42
0.0
  0
VERTEX
  8
0
 10
100.365287780762
 20
246.698791503906
 42
0.0
  0
VERTEX
  8
0
 10
100.186134338379
 20
244.692398071289
 42
0.0
  0
VERTEX
  8
0
 10
99.8875503540039
 20
242.740585327148
 42
0.0
  0
VERTEX
  8
0
 10
99.4695358276367
 20
240.843368530273
 42
0.0
  0
VERTEX
  8
0
 10
98.9320831298828
 20
239.000747680664
 42
0.0
  0
VERTEX
  8
0
 10
98.2752075195313
 20
237.212707519531
 42
0.0
  0
VERTEX
  8
0
 10
97.4988861083984
 20
235.479263305664
 42
0.0
  0
VERTEX
  8
0
 10
96.6031341552734
 20
233.800399780273
 42
0.0
  0
VERTEX
  8
0
 10
95.6162414550781
 20
232.196838378906
 42
0.0
  0
VERTEX
  8
0
 10
94.5665054321289
 20
230.689270019531
 42
0.0
  0
VERTEX
  8
0
 10
93.4539489746094
 20
229.277694702148
 42
0.0
  0
VERTEX
  8
0
 10
92.2785263061523
 20
227.962127685547
 42
0.0
  0
VERTEX
  8
0
 10
91.0402679443359
 20
226.742538452148
 42
0.0
  0
VERTEX
  8
0
 10
89.7391662597656
 20
225.618957519531
 42
0.0
  0
VERTEX
  8
0
 10
88.3752212524414
 20
224.591369628906
 42
0.0
  0
VERTEX
  8
0
 10
86.9484405517578
 20
223.659774780273
 42
0.0
  0
VERTEX
  8
0
 10
85.8391418457031
 20
223.022369384766
 42
0.0
  0
VERTEX
  8
0
 10
84.7034301757813
 20
222.435119628906
 42
0.0
  0
VERTEX
  8
0
 10
83.5412902832031
 20
221.898040771484
 42
0.0
  0
VERTEX
  8
0
 10
82.3527374267578
 20
221.411148071289
 42
0.0
  0
VERTEX
  8
0
 10
81.1377716064453
 20
220.974411010742
 42
0.0
  0
VERTEX
  8
0
 10
79.8963928222656
 20
220.587860107422
 42
0.0
  0
VERTEX
  8
0
 10
78.6285858154297
 20
220.25146484375
 42
0.0
  0
VERTEX
  8
0
 10
77.3343658447266
 20
219.965240478516
 42
0.0
  0
VERTEX
  8
0
 10
74.5988235473633
 20
219.508270263672
 42
0.0
  0
VERTEX
  8
0
 10
71.6218643188477
 20
219.181854248047
 42
0.0
  0
VERTEX
  8
0
 10
68.4035034179688
 20
218.985992431641
 42
0.0
  0
VERTEX
  8
0
 10
64.9437408447266
 20
218.920715332031
 42
0.0
  0
VERTEX
  8
0
 10
43.8249969482422
 20
218.920715332031
 42
0.0
  0
VERTEX
  8
0
 10
43.8249969482422
 20
278.720703125
 42
0.0
  0
VERTEX
  8
0
 10
65.5484466552734
 20
278.720703125
 42
0.0
  0
VERTEX
  8
0
 10
69.0829544067383
 20
278.644165039063
 42
0.0
  0
VERTEX
  8
0
 10
72.3662109375
 20
278.414459228516
 42
0.0
  0
VERTEX
  8
0
 10
75.398193359375
 20
278.031646728516
 42
0.0
  0
VERTEX
  8
0
 10
76.8199615478516
 20
277.782836914063
 42
0.0
  0
VERTEX
  8
0
 10
78.1789093017578
 20
277.495727539063
 42
0.0
  0
VERTEX
  8
0
 10
80.7283706665039
 20
276.819274902344
 42
0.0
  0
VERTEX
  8
0
 10
81.9238967895508
 20
276.433044433594
 42
0.0
  0
VERTEX
  8
0
 10
83.0666046142578
 20
276.014862060547
 42
0.0
  0
VERTEX
  8
0
 10
84.156509399414
 20
275.564697265625
 42
0.0
  0
VERTEX
  8
0
 10
85.193603515625
 20
275.08251953125
 42
0.0
  0
VERTEX
  8
0
 10
86.1778869628906
 20
274.568389892578
 42
0.0
  0
VERTEX
  8
0
 10
87.1093597412109
 20
274.022277832031
 42
0.0
  0
VERTEX
  8
0
 10
88.6170120239258
 20
273.037414550781
 42
0.0
  0
VERTEX
  8
0
 10
90.0423202514648
 20
271.970336914063
 42
0.0
  0
VERTEX
  8
0
 10
91.3852844238281
 20
270.821014404297
 42
0.0
  0
VERTEX
  8
0
 10
92.6459045410156
 20
269.589477539063
 42
0.0
  0
VERTEX
  8
0
 10
93.8241500854492
 20
268.275695800781
 42
0.0
  0
VERTEX
  8
0
 10
94.9200744628906
 20
266.879699707031
 42
0.0
  0
VERTEX
  8
0
 10
95.9336395263672
 20
265.401489257813
 42
0.0
  0
VERTEX
  8
0
 10
96.8648529052734
 20
263.841033935547
 42
0.0
  0
VERTEX
  8
0
 10
97.2959594726563
 20
263.031372070313
 42
0.0
  0
VERTEX
  8
0
 10
97.6992568969727
 20
262.204010009766
 42
0.0
  0
VERTEX
  8
0
 10
98.0747375488281
 20
261.358917236328
 42
0.0
  0
VERTEX
  8
0
 10
98.4224090576172
 20
260.49609375
 42
0.0
  0
VERTEX
  8
0
 10
99.0343170166016
 20
258.71728515625
 42
0.0
  0
VERTEX
  8
0
 10
99.5349578857422
 20
256.867584228516
 42
0.0
  0
VERTEX
  8
0
 10
99.9243469238281
 20
254.946990966797
 42
0.0
  0
VERTEX
  8
0
 10
100.202491760254
 20
252.955474853516
 42
0.0
  0
VERTEX
  8
0
 10
100.36937713623
 20
250.893081665039
 42
0.0
  0
SEQEND
  0
POLYLINE
  8
0
 66
     1
 10
0.0
 20
0.0
 30
0.0
 70
     1
  0
VERTEX
  8
0
 10
5.5890502929688
 20
217.720718383789
 42
0.0
  0
VERTEX
  8
0
 10
3.9347796440125
 20
217.751495361328
 42
0.0
  0
VERTEX
  8
0
 10
2.3125891685486
 20
217.843856811523
 42
0.0
  0
VERTEX
  8
0
 10
0.7224787473679
 20
217.997787475586
 42
0.0
  0
VERTEX
  8
0
 10
-0.8355522155762
 20
218.213287353516
 42
0.0
  0
VERTEX
  8
0
 10
-2.3615038394928
 20
218.490371704102
 42
0.0
  0
VERTEX
  8
0
 10
-3.8553767204285
 20
218.829010009766
 42
0.0
  0
VERTEX
  8
0
 10
-5.3171710968018
 20
219.229232788086
 42
0.0
  0
VERTEX
  8
0
 10
-6.7468872070313
 20
219.691024780273
 42
0.0
  0
VERTEX
  8
0
 10
-8.1357297897339
 20
220.213760375977
 42
0.0
  0
VERTEX
  8
0
 10
-9.4749126434326
 20
220.796783447266
 42
0.0
  0
VERTEX
  8
0
 10
-10.7644376754761
 20
221.440124511719
 42
0.0
  0
VERTEX
  8
0
 10
-12.0043048858643
 20
222.143768310547
 42
0.0
  0
VERTEX
  8
0
 10
-13.1945133209228
 20
222.907699584961
 42
0.0
  0
VERTEX
  8
0
 10
-14.3350639343262
 20
223.731948852539
 42
0.0
  0
VERTEX
  8
0
 10
-15.4259586334228
 20
224.616485595703
 42
0.0
  0
VERTEX
  8
0
 10
-16.4671936035156
 20
225.561340332031
 42
0.0
  0
VERTEX
  8
0
 10
-17.4549751281738
 20
226.566497802734
 42
0.0
  0
VERTEX
  8
0
 10
-18.3855056762695
 20
227.631942749023
 42
0.0
  0
VERTEX
  8
0
 10
-19.2587814331055
 20
228.757705688477
 42
0.0
  0
VERTEX
  8
0
 10
-20.0748100280762
 20
229.943756103516
 42
0.0
  0
VERTEX
  8
0
 10
-20.8335876464844
 20
231.190124511719
 42
0.0
  0
VERTEX
  8
0
 10
-21.5351142883301
 20
232.496795654297
 42
0.0
  0
VERTEX
  8
0
 10
-22.1793899536133
 20
233.863754272461
 42
0.0
  0
VERTEX
  8
0
 10
-22.7664184570313
 20
235.291030883789
 42
0.0
  0
VERTEX
  8
0
 10
-23.2899150848389
 20
236.776718139648
 42
0.0
  0
VERTEX
  8
0
 10
-23.7436141967773
 20
238.318954467773
 42
0.0
  0
VERTEX
  8
0
 10
-24.1275100708008
 20
239.917739868164
 42
0.0
  0
VERTEX
  8
0
 10
-24.4416065216064
 20
241.573059082031
 42
0.0
  0
VERTEX
  8
0
 10
-24.6859035491943
 20
243.284927368164
 42
0.0
  0
VERTEX
  8
0
 10
-24.8604011535645
 20
245.053329467773
 42
0.0
  0
VERTEX
  8
0
 10
-24.9650993347168
 20
246.878280639648
 42
0.0
  0
VERTEX
  8
0
 10
-25.0
 20
248.759780883789
 42
0.0
  0
VERTEX
  8
0
 10
-24.9666748046875
 20
250.518341064453
 42
0.0
  0
VERTEX
  8
0
 10
-24.86669921875
 20
252.235412597656
 42
0.0
  0
VERTEX
  8
0
 10
-24.7000732421875
 20
253.911010742188
 42
0.0
  0
VERTEX
  8
0
 10
-24.466796875
 20
255.545135498047
 42
0.0
  0
VERTEX
  8
0
 10
-24.1668701171875
 20
257.137756347656
 42
0.0
  0
VERTEX
  8
0
 10
-23.80029296875
 20
258.688934326172
 42
0.0
  0
VERTEX
  8
0
 10
-23.3670654296875
 20
260.198608398438
 42
0.0
  0
VERTEX
  8
0
 10
-22.8671875
 20
261.666809082031
 42
0.0
  0
VERTEX
  8
0
 10
-22.3037834167481
 20
263.088500976563
 42
0.0
  0
VERTEX
  8
0
 10
-21.6799812316895
 20
264.458648681641
 42
0.0
  0
VERTEX
  8
0
 10
-20.995777130127
 20
265.777282714844
 42
0.0
  0
VERTEX
  8
0
 10
-20.2511730194092
 20
267.044342041016
 42
0.0
  0
VERTEX
  8
0
 10
-19.4461708068848
 20
268.259887695313
 42
0.0
  0
VERTEX
  8
0
 10
-18.5807666778564
 20
269.423889160156
 42
0.0
  0
VERTEX
  8
0
 10
-17.6549644470215
 20
270.536346435547
 42
0.0
  0
VERTEX
  8
0
 10
-16.6687622070313
 20
271.597290039063
 42
0.0
  0
VERTEX
  8
0
 10
-15.6633529663086
 20
272.564300537109
 42
0.0
  0
VERTEX
  8
0
 10
-14.5994691848755
 20
273.474761962891
 42
0.0
  0
VERTEX
  8
0
 10
-13.4771175384522
 20
274.328674316406
 42
0.0
  0
VERTEX
  8
0
 10
-12.296293258667
 20
275.1259765625
 42
0.0
  0
VERTEX
  8
0
 10
-11.0569972991943
 20
275.866760253906
 42
0.0
  0
VERTEX
  8
0
 10
-9.7592306137085
 20
276.550933837891
 42
0.0
  0
VERTEX
  8
0
 10
-8.4029922485352
 20
277.178558349609
 42
0.0
  0
VERTEX
  8
0
 10
-6.98828125
 20
277.749633789063
 42
0.0
  0
VERTEX
  8
0
 10
-5.5276770591736
 20
278.258483886719
 42
0.0
  0
VERTEX
  8
0
 10
-4.033745765686
 20
278.699462890625
 42
0.0
  0
VERTEX
  8
0
 10
-2.5064888000488
 20
279.072631835938
 42
0.0
  0
VERTEX
  8
0
 10
-0.9459056854248
 20
279.3779296875
 42
0.0
  0
VERTEX
  8
0
 10
0.6480034589767
 20
279.615417480469
 42
0.0
  0
VERTEX
  8
0
 10
2.275238275528
 20
279.785034179688
 42
0.0
  0
VERTEX
  8
0
 10
3.9357986450195
 20
279.886779785156
 42
0.0
  0
VERTEX
  8
0
 10
5.6296844482422
 20
279.920715332031
 42
0.0
  0
VERTEX
  8
0
 10
9.2265567779541
 20
279.815246582031
 42
0.0
  0
VERTEX
  8
0
 10
10.8855419158935
 20
279.683410644531
 42
0.0
  0
VERTEX
  8
0
 10
12.4515533447266
 20
279.498840332031
 42
0.0
  0
VERTEX
  8
0
 10
15.3746032714844
 20
279.011352539063
 42
0.0
  0
VERTEX
  8
0
 10
18.0656127929688
 20
278.392578125
 42
0.0
  0
VERTEX
  8
0
 10
20.6367130279541
 20
277.583404541016
 42
0.0
  0
VERTEX
  8
0
 10
21.8279209136963
 20
277.144989013672
 42
0.0
  0
VERTEX
  8
0
 10
22.9562377929688
 20
276.683990478516
 42
0.0
  0
VERTEX
  8
0
 10
26.7999877929688
 20
274.934783935547
 42
0.0
  0
VERTEX
  8
0
 10
26.7999877929688
 20
260.420715332031
 42
0.0
  0
VERTEX
  8
0
 10
25.0265502929688
 20
260.420715332031
 42
0.0
  0
VERTEX
  8
0
 10
22.18359375
 20
262.694946289063
 42
0.0
  0
VERTEX
  8
0
 10
20.3544845581055
 20
264.001373291016
 42
0.0
  0
VERTEX
  8
0
 10
18.2937469482422
 20
265.287902832031
 42
0.0
  0
VERTEX
  8
0
 10
17.1624450683594
 20
265.901275634766
 42
0.0
  0
VERTEX
  8
0
 10
15.9857349395752
 20
266.46484375
 42
0.0
  0
VERTEX
  8
0
 10
14.7636184692383
 20
266.978637695313
 42
0.0
  0
VERTEX
  8
0
 10
13.49609375
 20
267.442596435547
 42
0.0
  0
VERTEX
  8
0
 10
12.8453226089478
 20
267.648406982422
 42
0.0
  0
VERTEX
  8
0
 10
12.1832475662231
 20
267.826782226563
 42
0.0
  0
VERTEX
  8
0
 10
11.5098705291748
 20
267.977722167969
 42
0.0
  0
VERTEX
  8
0
 10
10.8251895904541
 20
268.101196289063
 42
0.0
  0
VERTEX
  8
0
 10
10.1292066574097
 20
268.197235107422
 42
0.0
  0
VERTEX
  8
0
 10
9.4219188690186
 20
268.265838623047
 42
0.0
  0
VERTEX
  8
0
 10
8.7033290863037
 20
268.307006835938
 42
0.0
  0
VERTEX
  8
0
 10
7.9734344482422
 20
268.320709228516
 42
0.0
  0
VERTEX
  8
0
 10
7.1620712280273
 20
268.304748535156
 42
0.0
  0
VERTEX
  8
0
 10
6.3607902526856
 20
268.2568359375
 42
0.0
  0
VERTEX
  8
0
 10
5.5695915222168
 20
268.177001953125
 42
0.0
  0
VERTEX
  8
0
 10
4.7884750366211
 20
268.065246582031
 42
0.0
  0
VERTEX
  8
0
 10
4.0174407958984
 20
267.921539306641
 42
0.0
  0
VERTEX
  8
0
 10
3.2564888000488
 20
267.745910644531
 42
0.0
  0
VERTEX
  8
0
 10
2.5056190490723
 20
267.538330078125
 42
0.0
  0
VERTEX
  8
0
 10
1.7648315429688
 20
267.298828125
 42
0.0
  0
VERTEX
  8
0
 10
1.0360124111176
 20
267.022369384766
 42
0.0
  0
VERTEX
  8
0
 10
0.3210361003876
 20
266.703918457031
 42
0.0
  0
VERTEX
  8
0
 10
-0.3800974786282
 20
266.343475341797
 42
0.0
  0
VERTEX
  8
0
 10
-1.0673885345459
 20
265.941040039063
 42
0.0
  0
VERTEX
  8
0
 10
-1.7408373355866
 20
265.49658203125
 42
0.0
  0
VERTEX
  8
0
 10
-2.4004437923431
 20
265.010162353516
 42
0.0
  0
VERTEX
  8
0
 10
-3.0462083816528
 20
264.481750488281
 42
0.0
  0
VERTEX
  8
0
 10
-3.6781311035156
 20
263.911346435547
 42
0.0
  0
VERTEX
  8
0
 10
-4.2585024833679
 20
263.317077636719
 42
0.0
  0
VERTEX
  8
0
 10
-4.8105530738831
 20
262.676422119141
 42
0.0
  0
VERTEX
  8
0
 10
-5.3342833518982
 20
261.989440917969
 42
0.0
  0
VERTEX
  8
0
 10
-5.8296928405762
 20
261.256072998047
 42
0.0
  0
VERTEX
  8
0
 10
-6.2967824935913
 20
260.476348876953
 42
0.0
  0
VERTEX
  8
0
 10
-6.7355532646179
 20
259.650268554688
 42
0.0
  0
VERTEX
  8
0
 10
-7.1460046768189
 20
258.777801513672
 42
0.0
  0
VERTEX
  8
0
 10
-7.5281372070313
 20
257.859008789063
 42
0.0
  0
VERTEX
  8
0
 10
-7.8731069564819
 20
256.891967773438
 42
0.0
  0
VERTEX
  8
0
 10
-8.1720790863037
 20
255.874877929688
 42
0.0
  0
VERTEX
  8
0
 10
-8.4250564575195
 20
254.807693481445
 42
0.0
  0
VERTEX
  8
0
 10
-8.6320362091065
 20
253.690444946289
 42
0.0
  0
VERTEX
  8
0
 10
-8.7930202484131
 20
252.52311706543
 42
0.0
  0
VERTEX
  8
0
 10
-8.9080095291138
 20
251.305725097656
 42
0.0
  0
VERTEX
  8
0
 10
-8.9770021438599
 20
250.03825378418
 42
0.0
  0
VERTEX
  8
0
 10
-9.0
 20
248.720718383789
 42
0.0
  0
VERTEX
  8
0
 10
-8.9751224517822
 20
247.346786499023
 42
0.0
  0
VERTEX
  8
0
 10
-8.9004878997803
 20
246.030426025391
 42
0.0
  0
VERTEX
  8
0
 10
-8.7760992050171
 20
244.771682739258
 42
0.0
  0
VERTEX
  8
0
 10
-8.6019535064697
 20
243.570526123047
 42
0.0
  0
VERTEX
  8
0
 10
-8.3780527114868
 20
242.426956176758
 42
0.0
  0
VERTEX
  8
0
 10
-8.1043977737427
 20
241.340972900391
 42
0.0
  0
VERTEX
  8
0
 10
-7.7809867858887
 20
240.312591552734
 42
0.0
  0
VERTEX
  8
0
 10
-7.4078216552734
 20
239.341812133789
 42
0.0
  0
VERTEX
  8
0
 10
-6.9968590736389
 20
238.424880981445
 42
0.0
  0
VERTEX
  8
0
 10
-6.5600657463074
 20
237.558074951172
 42
0.0
  0
VERTEX
  8
0
 10
-6.0974440574646
 20
236.74137878418
 42
0.0
  0
VERTEX
  8
0
 10
-5.6089916229248
 20
235.974822998047
 42
0.0
  0
VERTEX
  8
0
 10
-5.0947089195252
 20
235.258377075195
 42
0.0
  0
VERTEX
  8
0
 10
-4.5545969009399
 20
234.592056274414
 42
0.0
  0
VERTEX
  8
0
 10
-3.9886543750763
 20
233.975860595703
 42
0.0
  0
VERTEX
  8
0
 10
-3.3968811035156
 20
233.409774780273
 42
0.0
  0
VERTEX
  8
0
 10
-2.7732102870941
 20
232.878326416016
 42
0.0
  0
VERTEX
  8
0
 10
-2.1318883895874
 20
232.386337280273
 42
0.0
  0
VERTEX
  8
0
 10
-1.4729154109955
 20
231.933807373047
 42
0.0
  0
VERTEX
  8
0
 10
-0.7962913513184
 20
231.520721435547
 42
0.0
  0
VERTEX
  8
0
 10
-0.102016210556
 20
231.147079467773
 42
0.0
  0
VERTEX
  8
0
 10
0.6099100112915
 20
230.812896728516
 42
0.0
  0
VERTEX
  8
0
 10
1.3394873142242
 20
230.518173217773
 42
0.0
  0
VERTEX
  8
0
 10
2.0867156982422
 20
230.262908935547
 42
0.0
  0
VERTEX
  8
0
 10
2.8414878845215
 20
230.042083740234
 42
0.0
  0
VERTEX
  8
0
 10
3.5936965942383
 20
229.850692749023
 42
0.0
  0
VERTEX
  8
0
 10
4.3433418273926
 20
229.688751220703
 42
0.0
  0
VERTEX
  8
0
 10
5.0904235839844
 20
229.556259155273
 42
0.0
  0
VERTEX
  8
0
 10
5.8349418640137
 20
229.453216552734
 42
0.0
  0
VERTEX
  8
0
 10
6.5768966674805
 20
229.379608154297
 42
0.0
  0
VERTEX
  8
0
 10
7.3162879943848
 20
229.335433959961
 42
0.0
  0
VERTEX
  8
0
 10
8.0531158447266
 20
229.320709228516
 42
0.0
  0
VERTEX
  8
0
 10
8.757646560669
 20
229.333877563477
 42
0.0
  0
VERTEX
  8
0
 10
9.4602966308594
 20
229.373352050781
 42
0.0
  0
VERTEX
  8
0
 10
10.1610660552978
 20
229.439147949219
 42
0.0
  0
VERTEX
  8
0
 10
10.8599548339844
 20
229.531265258789
 42
0.0
  0
VERTEX
  8
0
 10
11.5569648742676
 20
229.649688720703
 42
0.0
  0
VERTEX
  8
0
 10
12.2520942687988
 20
229.794448852539
 42
0.0
  0
VERTEX
  8
0
 10
12.9453458786011
 20
229.965515136719
 42
0.0
  0
VERTEX
  8
0
 10
13.63671875
 20
230.162902832031
 42
0.0
  0
VERTEX
  8
0
 10
14.9911584854126
 20
230.621597290039
 42
0.0
  0
VERTEX
  8
0
 10
16.2927665710449
 20
231.155487060547
 42
0.0
  0
VERTEX
  8
0
 10
17.5415420532226
 20
231.764556884766
 42
0.0
  0
VERTEX
  8
0
 10
18.7374877929688
 20
232.448837280273
 42
0.0
  0
VERTEX
  8
0
 10
20.6419906616211
 20
233.651580810547
 42
0.0
  0
VERTEX
  8
0
 10
22.4054565429688
 20
234.934783935547
 42
0.0
  0
VERTEX
  8
0
 10
25.1875
 20
237.220718383789
 42
0.0
  0
VERTEX
  8
0
 10
26.7999877929688
 20
237.220718383789
 42
0.0
  0
VERTEX
  8
0
 10
26.7999877929688
 20
222.876968383789
 42
0.0
  0
VERTEX
  8
0
 10
22.4929656982422
 20
220.983993530273
 42
0.0
  0
VERTEX
  8
0
 10
20.3904266357422
 20
220.158020019531
 42
0.0
  0
VERTEX
  8
0
 10
18.1875
 20
219.453521728516
 42
0.0
  0
VERTEX
  8
0
 10
15.3392505645752
 20
218.707626342773
 42
0.0
  0
VERTEX
  8
0
 10
12.6726531982422
 20
218.163681030273
 42
0.0
  0
VERTEX
  8
0
 10
11.2640085220337
 20
217.969879150391
 42
0.0
  0
VERTEX
  8
0
 10
9.6138610839844
 20
217.831451416016
 42
0.0
  0
SEQEND
  0
POLYLINE
  8
0
 66
     1
 10
0.0
 20
0.0
 30
0.0
 70
     1
  0
VERTEX
  8
0
 10
-54.7250061035156
 20
237.462905883789
 42
0.0
  0
VERTEX
  8
0
 10
-54.7422332763672
 20
238.159942626953
 42
0.0
  0
VERTEX
  8
0
 10
-54.7939033508301
 20
238.815933227539
 42
0.0
  0
VERTEX
  8
0
 10
-54.8800201416016
 20
239.430847167969
 42
0.0
  0
VERTEX
  8
0
 10
-54.9360008239746
 20
239.722900390625
 42
0.0
  0
VERTEX
  8
0
 10
-55.0005912780762
 20
240.004699707031
 42
0.0
  0
VERTEX
  8
0
 10
-55.0737953186035
 20
240.276229858398
 42
0.0
  0
VERTEX
  8
0
 10
-55.1556129455566
 20
240.537490844727
 42
0.0
  0
VERTEX
  8
0
 10
-55.2460403442383
 20
240.788482666016
 42
0.0
  0
VERTEX
  8
0
 10
-55.3450775146484
 20
241.029205322266
 42
0.0
  0
VERTEX
  8
0
 10
-55.4527282714844
 20
241.259674072266
 42
0.0
  0
VERTEX
  8
0
 10
-55.5689926147461
 20
241.479873657227
 42
0.0
  0
VERTEX
  8
0
 10
-55.6938705444336
 20
241.689804077148
 42
0.0
  0
VERTEX
  8
0
 10
-55.8273544311523
 20
241.889465332031
 42
0.0
  0
VERTEX
  8
0
 10
-55.9711761474609
 20
242.080917358398
 42
0.0
  0
VERTEX
  8
0
 10
-56.1270446777344
 20
242.266220092773
 42
0.0
  0
VERTEX
  8
0
 10
-56.2949867248535
 20
242.445373535156
 42
0.0
  0
VERTEX
  8
0
 10
-56.4749526977539
 20
242.618377685547
 42
0.0
  0
VERTEX
  8
0
 10
-56.6669960021973
 20
242.785217285156
 42
0.0
  0
VERTEX
  8
0
 10
-56.8710899353027
 20
242.945907592773
 42
0.0
  0
VERTEX
  8
0
 10
-57.0872383117676
 20
243.100448608398
 42
0.0
  0
VERTEX
  8
0
 10
-57.3154373168945
 20
243.248840332031
 42
0.0
  0
VERTEX
  8
0
 10
-57.5556945800781
 20
243.391082763672
 42
0.0
  0
VERTEX
  8
0
 10
-57.8080062866211
 20
243.527160644531
 42
0.0
  0
VERTEX
  8
0
 10
-58.0723686218262
 20
243.657089233398
 42
0.0
  0
VERTEX
  8
0
 10
-58.3487854003906
 20
243.780868530273
 42
0.0
  0
VERTEX
  8
0
 10
-58.9377899169922
 20
244.009979248047
 42
0.0
  0
VERTEX
  8
0
 10
-59.5750122070313
 20
244.214462280273
 42
0.0
  0
VERTEX
  8
0
 10
-60.0470886230469
 20
244.338150024414
 42
0.0
  0
VERTEX
  8
0
 10
-60.5617752075195
 20
244.446685791016
 42
0.0
  0
VERTEX
  8
0
 10
-61.1190643310547
 20
244.540100097656
 42
0.0
  0
VERTEX
  8
0
 10
-61.7189559936523
 20
244.618377685547
 42
0.0
  0
VERTEX
  8
0
 10
-63.0465431213379
 20
244.729507446289
 42
0.0
  0
VERTEX
  8
0
 10
-64.5445404052734
 20
244.780090332031
 42
0.0
  0
VERTEX
  8
0
 10
-71.1578216552734
 20
244.820709228516
 42
0.0
  0
VERTEX
  8
0
 10
-74.5250091552734
 20
244.820709228516
 42
0.0
  0
VERTEX
  8
0
 10
-74.5250091552734
 20
229.820709228516
 42
0.0
  0
VERTEX
  8
0
 10
-73.4031372070313
 20
229.820709228516
 42
0.0
  0
VERTEX
  8
0
 10
-64.1039123535156
 20
229.861343383789
 42
0.0
  0
VERTEX
  8
0
 10
-63.409423828125
 20
229.886657714844
 42
0.0
  0
VERTEX
  8
0
 10
-62.7286643981934
 20
229.942291259766
 42
0.0
  0
VERTEX
  8
0
 10
-62.0616607666016
 20
230.028259277344
 42
0.0
  0
VERTEX
  8
0
 10
-61.4084053039551
 20
230.144546508789
 42
0.0
  0
VERTEX
  8
0
 10
-60.7688941955566
 20
230.291152954102
 42
0.0
  0
VERTEX
  8
0
 10
-60.143123626709
 20
230.468078613281
 42
0.0
  0
VERTEX
  8
0
 10
-59.5311050415039
 20
230.675323486328
 42
0.0
  0
VERTEX
  8
0
 10
-58.9328231811523
 20
230.912902832031
 42
0.0
  0
VERTEX
  8
0
 10
-58.3551406860351
 20
231.176055908203
 42
0.0
  0
VERTEX
  8
0
 10
-57.8244171142578
 20
231.460021972656
 42
0.0
  0
VERTEX
  8
0
 10
-57.5766868591309
 20
231.609817504883
 42
0.0
  0
VERTEX
  8
0
 10
-57.3406867980957
 20
231.76481628418
 42
0.0
  0
VERTEX
  8
0
 10
-57.1164245605469
 20
231.925033569336
 42
0.0
  0
VERTEX
  8
0
 10
-56.9039154052734
 20
232.090438842773
 42
0.0
  0
VERTEX
  8
0
 10
-56.7031478881836
 20
232.26106262207
 42
0.0
  0
VERTEX
  8
0
 10
-56.5141220092773
 20
232.436889648438
 42
0.0
  0
VERTEX
  8
0
 10
-56.336841583252
 20
232.617919921875
 42
0.0
  0
VERTEX
  8
0
 10
-56.1712989807129
 20
232.804168701172
 42
0.0
  0
VERTEX
  8
0
 10
-56.0175018310547
 20
232.99560546875
 42
0.0
  0
VERTEX
  8
0
 10
-55.8754501342773
 20
233.192260742188
 42
0.0
  0
VERTEX
  8
0
 10
-55.7451362609863
 20
233.394119262695
 42
0.0
  0
VERTEX
  8
0
 10
-55.6265716552734
 20
233.601181030273
 42
0.0
  0
VERTEX
  8
0
 10
-55.4152641296387
 20
234.028442382813
 42
0.0
  0
VERTEX
  8
0
 10
-55.2321395874023
 20
234.471542358398
 42
0.0
  0
VERTEX
  8
0
 10
-55.0771789550781
 20
234.93049621582
 42
0.0
  0
VERTEX
  8
0
 10
-54.9503974914551
 20
235.405288696289
 42
0.0
  0
VERTEX
  8
0
 10
-54.8517837524414
 20
235.895919799805
 42
0.0
  0
VERTEX
  8
0
 10
-54.7813568115234
 20
236.402404785156
 42
0.0
  0
VERTEX
  8
0
 10
-54.7390937805176
 20
236.924728393555
 42
0.0
  0
SEQEND
  0
POLYLINE
  8
0
 66
     1
 10
0.0
 20
0.0
 30
0.0
 70
     1
  0
VERTEX
  8
0
 10
-58.4250106811523
 20
261.853515625
 42
0.0
  0
VERTEX
  8
0
 10
-58.4366493225098
 20
262.2265625
 42
0.0
  0
VERTEX
  8
0
 10
-58.4715385437012
 20
262.599578857422
 42
0.0
  0
VERTEX
  8
0
 10
-58.5297088623047
 20
262.972564697266
 42
0.0
  0
VERTEX
  8
0
 10
-58.6111450195313
 20
263.345520019531
 42
0.0
  0
VERTEX
  8
0
 10
-58.7158432006836
 20
263.718444824219
 42
0.0
  0
VERTEX
  8
0
 10
-58.843807220459
 20
264.091369628906
 42
0.0
  0
VERTEX
  8
0
 10
-58.9950408935547
 20
264.464263916016
 42
0.0
  0
VERTEX
  8
0
 10
-59.1695404052734
 20
264.837127685547
 42
0.0
  0
VERTEX
  8
0
 10
-59.26708984375
 20
265.020568847656
 42
0.0
  0
VERTEX
  8
0
 10
-59.3736000061035
 20
265.198028564453
 42
0.0
  0
VERTEX
  8
0
 10
-59.4890785217285
 20
265.369506835938
 42
0.0
  0
VERTEX
  8
0
 10
-59.613525390625
 20
265.535034179688
 42
0.0
  0
VERTEX
  8
0
 10
-59.7469444274902
 20
265.694549560547
 42
0.0
  0
VERTEX
  8
0
 10
-59.8893280029297
 20
265.848114013672
 42
0.0
  0
VERTEX
  8
0
 10
-60.0406723022461
 20
265.995727539063
 42
0.0
  0
VERTEX
  8
0
 10
-60.2009887695313
 20
266.137329101563
 42
0.0
  0
VERTEX
  8
0
 10
-60.3702621459961
 20
266.27294921875
 42
0.0
  0
VERTEX
  8
0
 10
-60.5485076904297
 20
266.402618408203
 42
0.0
  0
VERTEX
  8
0
 10
-60.7357177734375
 20
266.526306152344
 42
0.0
  0
VERTEX
  8
0
 10
-60.9318923950195
 20
266.644012451172
 42
0.0
  0
VERTEX
  8
0
 10
-61.1370315551758
 20
266.755737304688
 42
0.0
  0
VERTEX
  8
0
 10
-61.3511428833008
 20
266.861511230469
 42
0.0
  0
VERTEX
  8
0
 10
-61.57421875
 20
266.961273193359
 42
0.0
  0
VERTEX
  8
0
 10
-61.8062591552734
 20
267.055084228516
 42
0.0
  0
VERTEX
  8
0
 10
-62.2418060302734
 20
267.207275390625
 42
0.0
  0
VERTEX
  8
0
 10
-62.7031402587891
 20
267.341186523438
 42
0.0
  0
VERTEX
  8
0
 10
-63.1902503967285
 20
267.456787109375
 42
0.0
  0
VERTEX
  8
0
 10
-63.7031326293945
 20
267.554107666016
 42
0.0
  0
VERTEX
  8
0
 10
-64.2418060302734
 20
267.633148193359
 42
0.0
  0
VERTEX
  8
0
 10
-64.8062591552734
 20
267.693908691406
 42
0.0
  0
VERTEX
  8
0
 10
-66.0125122070313
 20
267.760559082031
 42
0.0
  0
VERTEX
  8
0
 10
-73.0765686035156
 20
267.820709228516
 42
0.0
  0
VERTEX
  8
0
 10
-74.5250091552734
 20
267.820709228516
 42
0.0
  0
VERTEX
  8
0
 10
-74.5250091552734
 20
255.120712280273
 42
0.0
  0
VERTEX
  8
0
 10
-72.1093826293945
 20
255.120712280273
 42
0.0
  0
VERTEX
  8
0
 10
-65.8711013793945
 20
255.241806030273
 42
0.0
  0
VERTEX
  8
0
 10
-64.6511306762695
 20
255.337554931641
 42
0.0
  0
VERTEX
  8
0
 10
-64.0920791625977
 20
255.411834716797
 42
0.0
  0
VERTEX
  8
0
 10
-63.5670013427734
 20
255.503723144531
 42
0.0
  0
VERTEX
  8
0
 10
-63.0758743286133
 20
255.613204956055
 42
0.0
  0
VERTEX
  8
0
 10
-62.618709564209
 20
255.740295410156
 42
0.0
  0
VERTEX
  8
0
 10
-62.1955032348633
 20
255.884979248047
 42
0.0
  0
VERTEX
  8
0
 10
-61.9966354370117
 20
255.963928222656
 42
0.0
  0
VERTEX
  8
0
 10
-61.8062591552734
 20
256.047271728516
 42
0.0
  0
VERTEX
  8
0
 10
-61.3054733276367
 20
256.287811279297
 42
0.0
  0
VERTEX
  8
0
 10
-61.072078704834
 20
256.414428710938
 42
0.0
  0
VERTEX
  8
0
 10
-60.8500061035156
 20
256.545318603516
 42
0.0
  0
VERTEX
  8
0
 10
-60.6392631530762
 20
256.680450439453
 42
0.0
  0
VERTEX
  8
0
 10
-60.4398498535156
 20
256.81982421875
 42
0.0
  0
VERTEX
  8
0
 10
-60.251766204834
 20
256.963470458984
 42
0.0
  0
VERTEX
  8
0
 10
-60.075008392334
 20
257.111328125
 42
0.0
  0
VERTEX
  8
0
 10
-59.9095764160156
 20
257.263458251953
 42
0.0
  0
VERTEX
  8
0
 10
-59.7554779052734
 20
257.419830322266
 42
0.0
  0
VERTEX
  8
0
 10
-59.6127014160156
 20
257.580444335938
 42
0.0
  0
VERTEX
  8
0
 10
-59.481258392334
 20
257.745330810547
 42
0.0
  0
VERTEX
  8
0
 10
-59.3611373901367
 20
257.914428710938
 42
0.0
  0
VERTEX
  8
0
 10
-59.2523498535156
 20
258.087799072266
 42
0.0
  0
VERTEX
  8
0
 10
-59.1548881530762
 20
258.265411376953
 42
0.0
  0
VERTEX
  8
0
 10
-59.0687561035156
 20
258.447265625
 42
0.0
  0
VERTEX
  8
0
 10
-58.9178771972656
 20
258.822479248047
 42
0.0
  0
VERTEX
  8
0
 10
-58.7871170043945
 20
259.212127685547
 42
0.0
  0
VERTEX
  8
0
 10
-58.6764717102051
 20
259.6162109375
 42
0.0
  0
VERTEX
  8
0
 10
-58.5859451293945
 20
260.034790039063
 42
0.0
  0
VERTEX
  8
0
 10
-58.5155372619629
 20
260.4677734375
 42
0.0
  0
VERTEX
  8
0
 10
-58.4652442932129
 20
260.915252685547
 42
0.0
  0
VERTEX
  8
0
 10
-58.4350700378418
 20
261.377166748047
 42
0.0
  0
SEQEND
  0
POLYLINE
  8
0
 66
     1
 10
0.0
 20
0.0
 30
0.0
 70
     1
  0
VERTEX
  8
0
 10
-38.7250061035156
 20
237.247283935547
 42
0.0
  0
VERTEX
  8
0
 10
-38.752326965332
 20
236.176559448242
 42
0.0
  0
VERTEX
  8
0
 10
-38.8342819213867
 20
235.134735107422
 42
0.0
  0
VERTEX
  8
0
 10
-38.9708824157715
 20
234.121780395508
 42
0.0
  0
VERTEX
  8
0
 10
-39.1621170043945
 20
233.137710571289
 42
0.0
  0
VERTEX
  8
0
 10
-39.4079933166504
 20
232.182525634766
 42
0.0
  0
VERTEX
  8
0
 10
-39.7085037231445
 20
231.256210327148
 42
0.0
  0
VERTEX
  8
0
 10
-40.0636520385742
 20
230.358795166016
 42
0.0
  0
VERTEX
  8
0
 10
-40.4734420776367
 20
229.490249633789
 42
0.0
  0
VERTEX
  8
0
 10
-40.9309387207031
 20
228.654373168945
 42
0.0
  0
VERTEX
  8
0
 10
-41.42919921875
 20
227.854949951172
 42
0.0
  0
VERTEX
  8
0
 10
-41.9682426452637
 20
227.09196472168
 42
0.0
  0
VERTEX
  8
0
 10
-42.5480499267578
 20
226.365447998047
 42
0.0
  0
VERTEX
  8
0
 10
-43.1686325073242
 20
225.675369262695
 42
0.0
  0
VERTEX
  8
0
 10
-43.8299865722656
 20
225.021743774414
 42
0.0
  0
VERTEX
  8
0
 10
-44.532112121582
 20
224.404571533203
 42
0.0
  0
VERTEX
  8
0
 10
-45.2750091552734
 20
223.823837280273
 42
0.0
  0
VERTEX
  8
0
 10
-46.170352935791
 20
223.184432983398
 42
0.0
  0
VERTEX
  8
0
 10
-47.0876502990723
 20
222.592788696289
 42
0.0
  0
VERTEX
  8
0
 10
-48.0269012451172
 20
222.048889160156
 42
0.0
  0
VERTEX
  8
0
 10
-48.9880981445313
 20
221.552749633789
 42
0.0
  0
VERTEX
  8
0
 10
-49.9712295532226
 20
221.104354858398
 42
0.0
  0
VERTEX
  8
0
 10
-50.9763298034668
 20
220.703720092773
 42
0.0
  0
VERTEX
  8
0
 10
-52.0033645629883
 20
220.350845336914
 42
0.0
  0
VERTEX
  8
0
 10
-53.0523529052734
 20
220.045715332031
 42
0.0
  0
VERTEX
  8
0
 10
-54.1477928161621
 20
219.782043457031
 42
0.0
  0
VERTEX
  8
0
 10
-55.3142242431641
 20
219.553527832031
 42
0.0
  0
VERTEX
  8
0
 10
-56.5516052246094
 20
219.360168457031
 42
0.0
  0
VERTEX
  8
0
 10
-57.8599700927734
 20
219.201965332031
 42
0.0
  0
VERTEX
  8
0
 10
-60.6896095275879
 20
218.991027832031
 42
0.0
  0
VERTEX
  8
0
 10
-63.8031311035156
 20
218.920715332031
 42
0.0
  0
VERTEX
  8
0
 10
-89.9250106811523
 20
218.920715332031
 42
0.0
  0
VERTEX
  8
0
 10
-89.9250106811523
 20
278.720703125
 42
0.0
  0
VERTEX
  8
0
 10
-66.7062606811523
 20
278.720703125
 42
0.0
  0
VERTEX
  8
0
 10
-60.4453201293945
 20
278.600402832031
 42
0.0
  0
VERTEX
  8
0
 10
-58.0414123535156
 20
278.450012207031
 42
0.0
  0
VERTEX
  8
0
 10
-56.1218872070313
 20
278.239471435547
 42
0.0
  0
VERTEX
  8
0
 10
-55.2841606140137
 20
278.100952148438
 42
0.0
  0
VERTEX
  8
0
 10
-54.4483451843262
 20
277.926086425781
 42
0.0
  0
VERTEX
  8
0
 10
-53.6144371032715
 20
277.71484375
 42
0.0
  0
VERTEX
  8
0
 10
-52.7824325561523
 20
277.467193603516
 42
0.0
  0
VERTEX
  8
0
 10
-51.9523277282715
 20
277.183197021484
 42
0.0
  0
VERTEX
  8
0
 10
-51.1241302490234
 20
276.86279296875
 42
0.0
  0
VERTEX
  8
0
 10
-50.2978363037109
 20
276.506042480469
 42
0.0
  0
VERTEX
  8
0
 10
-49.4734497070313
 20
276.112915039063
 42
0.0
  0
VERTEX
  8
0
 10
-48.6472320556641
 20
275.662780761719
 42
0.0
  0
VERTEX
  8
0
 10
-47.8755950927734
 20
275.175689697266
 42
0.0
  0
VERTEX
  8
0
 10
-47.51025390625
 20
274.918304443359
 42
0.0
  0
VERTEX
  8
0
 10
-47.1585540771484
 20
274.651641845703
 42
0.0
  0
VERTEX
  8
0
 10
-46.8205032348633
 20
274.375762939453
 42
0.0
  0
VERTEX
  8
0
 10
-46.4961013793945
 20
274.090637207031
 42
0.0
  0
VERTEX
  8
0
 10
-46.1853446960449
 20
273.796264648438
 42
0.0
  0
VERTEX
  8
0
 10
-45.8882446289063
 20
273.49267578125
 42
0.0
  0
VERTEX
  8
0
 10
-45.6047821044922
 20
273.179809570313
 42
0.0
  0
VERTEX
  8
0
 10
-45.3349685668945
 20
272.857727050781
 42
0.0
  0
VERTEX
  8
0
 10
-45.0788040161133
 20
272.526397705078
 42
0.0
  0
VERTEX
  8
0
 10
-44.8362884521484
 20
272.185821533203
 42
0.0
  0
VERTEX
  8
0
 10
-44.6074180603027
 20
271.836029052734
 42
0.0
  0
VERTEX
  8
0
 10
-44.3921966552734
 20
271.476959228516
 42
0.0
  0
VERTEX
  8
0
 10
-44.0014457702637
 20
270.736785888672
 42
0.0
  0
VERTEX
  8
0
 10
-43.6628036499023
 20
269.970916748047
 42
0.0
  0
VERTEX
  8
0
 10
-43.3762435913086
 20
269.179351806641
 42
0.0
  0
VERTEX
  8
0
 10
-43.1418037414551
 20
268.362121582031
 42
0.0
  0
VERTEX
  8
0
 10
-42.9594497680664
 20
267.519195556641
 42
0.0
  0
VERTEX
  8
0
 10
-42.8292045593262
 20
266.650604248047
 42
0.0
  0
VERTEX
  8
0
 10
-42.7510528564453
 20
265.756317138672
 42
0.0
  0
VERTEX
  8
0
 10
-42.7250061035156
 20
264.836334228516
 42
0.0
  0
VERTEX
  8
0
 10
-42.7607269287109
 20
263.768737792969
 42
0.0
  0
VERTEX
  8
0
 10
-42.8053665161133
 20
263.246948242188
 42
0.0
  0
VERTEX
  8
0
 10
-42.8678779602051
 20
262.733123779297
 42
0.0
  0
VERTEX
  8
0
 10
-42.9482460021973
 20
262.227294921875
 42
0.0
  0
VERTEX
  8
0
 10
-43.0464630126953
 20
261.7294921875
 42
0.0
  0
VERTEX
  8
0
 10
-43.1625480651855
 20
261.239654541016
 42
0.0
  0
VERTEX
  8
0
 10
-43.2964897155762
 20
260.7578125
 42
0.0
  0
VERTEX
  8
0
 10
-43.4482917785645
 20
260.283996582031
 42
0.0
  0
VERTEX
  8
0
 10
-43.6179542541504
 20
259.818145751953
 42
0.0
  0
VERTEX
  8
0
 10
-43.8054733276367
 20
259.360321044922
 42
0.0
  0
VERTEX
  8
0
 10
-44.0108489990234
 20
258.910461425781
 42
0.0
  0
VERTEX
  8
0
 10
-44.2340850830078
 20
258.468597412109
 42
0.0
  0
VERTEX
  8
0
 10
-44.4751815795898
 20
258.034759521484
 42
0.0
  0
VERTEX
  8
0
 10
-44.7341346740723
 20
257.60888671875
 42
0.0
  0
VERTEX
  8
0
 10
-45.0109481811523
 20
257.191040039063
 42
0.0
  0
VERTEX
  8
0
 10
-45.3040504455566
 20
256.782897949219
 42
0.0
  0
VERTEX
  8
0
 10
-45.611873626709
 20
256.386199951172
 42
0.0
  0
VERTEX
  8
0
 10
-45.9344215393066
 20
256.000946044922
 42
0.0
  0
VERTEX
  8
0
 10
-46.2716865539551
 20
255.627166748047
 42
0.0
  0
VERTEX
  8
0
 10
-46.6236801147461
 20
255.26481628418
 42
0.0
  0
VERTEX
  8
0
 10
-46.9903869628906
 20
254.913925170898
 42
0.0
  0
VERTEX
  8
0
 10
-47.371826171875
 20
254.574493408203
 42
0.0
  0
VERTEX
  8
0
 10
-47.7679786682129
 20
254.246490478516
 42
0.0
  0
VERTEX
  8
0
 10
-48.6044540405273
 20
253.624862670898
 42
0.0
  0
VERTEX
  8
0
 10
-49.499813079834
 20
253.049041748047
 42
0.0
  0
VERTEX
  8
0
 10
-50.4540634155273
 20
252.519012451172
 42
0.0
  0
VERTEX
  8
0
 10
-51.4671936035156
 20
252.034774780273
 42
0.0
  0
VERTEX
  8
0
 10
-51.4671936035156
 20
251.714462280273
 42
0.0
  0
VERTEX
  8
0
 10
-50.0380058288574
 20
251.384124755859
 42
0.0
  0
VERTEX
  8
0
 10
-48.6848220825195
 20
250.975952148438
 42
0.0
  0
VERTEX
  8
0
 10
-48.0367317199707
 20
250.742645263672
 42
0.0
  0
VERTEX
  8
0
 10
-47.4076385498047
 20
250.489898681641
 42
0.0
  0
VERTEX
  8
0
 10
-46.7975463867188
 20
250.217681884766
 42
0.0
  0
VERTEX
  8
0
 10
-46.2064514160156
 20
249.925994873047
 42
0.0
  0
VERTEX
  8
0
 10
-45.6343612670898
 20
249.614837646484
 42
0.0
  0
VERTEX
  8
0
 10
-45.0812683105469
 20
249.284225463867
 42
0.0
  0
VERTEX
  8
0
 10
-44.5471801757813
 20
248.934158325195
 42
0.0
  0
VERTEX
  8
0
 10
-44.0320892333984
 20
248.564605712891
 42
0.0
  0
VERTEX
  8
0
 10
-43.5359954833984
 20
248.17561340332
 42
0.0
  0
VERTEX
  8
0
 10
-43.0589065551758
 20
247.767135620117
 42
0.0
  0
VERTEX
  8
0
 10
-42.6008148193359
 20
247.339202880859
 42
0.0
  0
VERTEX
  8
0
 10
-42.1617279052734
 20
246.891815185547
 42
0.0
  0
VERTEX
  8
0
 10
-41.7455596923828
 20
246.425582885742
 42
0.0
  0
VERTEX
  8
0
 10
-41.3562431335449
 20
245.941131591797
 42
0.0
  0
VERTEX
  8
0
 10
-40.9937782287598
 20
245.438491821289
 42
0.0
  0
VERTEX
  8
0
 10
-40.6581573486328
 20
244.91764831543
 42
0.0
  0
VERTEX
  8
0
 10
-40.3493919372559
 20
244.378570556641
 42
0.0
  0
VERTEX
  8
0
 10
-40.0674743652344
 20
243.821319580078
 42
0.0
  0
VERTEX
  8
0
 10
-39.8124046325684
 20
243.245834350586
 42
0.0
  0
VERTEX
  8
0
 10
-39.5841865539551
 20
242.652160644531
 42
0.0
  0
VERTEX
  8
0
 10
-39.3828163146973
 20
242.040267944336
 42
0.0
  0
VERTEX
  8
0
 10
-39.2082939147949
 20
241.410186767578
 42
0.0
  0
VERTEX
  8
0
 10
-39.0606231689453
 20
240.76188659668
 42
0.0
  0
VERTEX
  8
0
 10
-38.9398002624512
 20
240.095367431641
 42
0.0
  0
VERTEX
  8
0
 10
-38.8458251953125
 20
239.410659790039
 42
0.0
  0
VERTEX
  8
0
 10
-38.7787017822266
 20
238.707733154297
 42
0.0
  0
VERTEX
  8
0
 10
-38.7384300231934
 20
237.986618041992
 42
0.0
  0
SEQEND
  0
POLYLINE
  8
0
 66
     1
 10
0.0
 20
0.0
 30
0.0
 70
     1
  0
VERTEX
  8
0
 10
-128.231262207031
 20
242.020721435547
 42
0.0
  0
VERTEX
  8
0
 10
-135.407821655273
 20
262.966033935547
 42
0.0
  0
VERTEX
  8
0
 10
-142.595321655273
 20
242.020721435547
 42
0.0
  0
SEQEND
  0
POLYLINE
  8
0
 66
     1
 10
0.0
 20
0.0
 30
0.0
 70
     1
  0
VERTEX
  8
0
 10
-104.250007629395
 20
218.920715332031
 42
0.0
  0
VERTEX
  8
0
 10
-120.345321655273
 20
218.920715332031
 42
0.0
  0
VERTEX
  8
0
 10
-124.550003051758
 20
231.120712280273
 42
0.0
  0
VERTEX
  8
0
 10
-146.278137207031
 20
231.120712280273
 42
0.0
  0
VERTEX
  8
0
 10
-150.481262207031
 20
218.920715332031
 42
0.0
  0
VERTEX
  8
0
 10
-166.150009155273
 20
218.920715332031
 42
0.0
  0
VERTEX
  8
0
 10
-144.071884155273
 20
278.720703125
 42
0.0
  0
VERTEX
  8
0
 10
-126.328132629395
 20
278.720703125
 42
0.0
  0
SEQEND
  0
ENDSEC
  0
EOF
