  0
SECTION
  2
HEADER
  9
$ACADVER
  1
AC1021
  9
$ACADMAINTVER
 70
    25
  9
$DWGCODEPAGE
  3
ANSI_1251
  9
$INSBASE
 10
0.0
 20
0.0
 30
0.0
  9
$EXTMIN
 10
-192.6394
 20
-148.3693
 30
0.0
  9
$EXTMAX
 10
194.5354
 20
155.8347
 30
0.0
  9
$LIMMIN
 10
0.0
 20
0.0
  9
$LIMMAX
 10
12.0
 20
9.0
  9
$ORTHOMODE
 70
     0
  9
$REGENMODE
 70
     1
  9
$FILLMODE
 70
     1
  9
$QTEXTMODE
 70
     0
  9
$MIRRTEXT
 70
     1
  9
$LTSCALE
 40
1.0
  9
$ATTMODE
 70
     1
  9
$TEXTSIZE
 40
0.2
  9
$TRACEWID
 40
0.05
  9
$TEXTSTYLE
  7
Standard
  9
$CLAYER
  8
0
  9
$CELTYPE
  6
ByLayer
  9
$CECOLOR
 62
   256
  9
$CELTSCALE
 40
1.0
  9
$DISPSILH
 70
     0
  9
$DIMSCALE
 40
1.0
  9
$DIMASZ
 40
0.18
  9
$DIMEXO
 40
0.0625
  9
$DIMDLI
 40
0.38
  9
$DIMRND
 40
0.0
  9
$DIMDLE
 40
0.0
  9
$DIMEXE
 40
0.18
  9
$DIMTP
 40
0.0
  9
$DIMTM
 40
0.0
  9
$DIMTXT
 40
0.18
  9
$DIMCEN
 40
0.09
  9
$DIMTSZ
 40
0.0
  9
$DIMTOL
 70
     0
  9
$DIMLIM
 70
     0
  9
$DIMTIH
 70
     1
  9
$DIMTOH
 70
     1
  9
$DIMSE1
 70
     0
  9
$DIMSE2
 70
     0
  9
$DIMTAD
 70
     0
  9
$DIMZIN
 70
     0
  9
$DIMBLK
  1

  9
$DIMASO
 70
     1
  9
$DIMSHO
 70
     1
  9
$DIMPOST
  1

  9
$DIMAPOST
  1

  9
$DIMALT
 70
     0
  9
$DIMALTD
 70
     2
  9
$DIMALTF
 40
25.4
  9
$DIMLFAC
 40
1.0
  9
$DIMTOFL
 70
     0
  9
$DIMTVP
 40
0.0
  9
$DIMTIX
 70
     0
  9
$DIMSOXD
 70
     0
  9
$DIMSAH
 70
     0
  9
$DIMBLK1
  1

  9
$DIMBLK2
  1

  9
$DIMSTYLE
  2
Standard
  9
$DIMCLRD
 70
     0
  9
$DIMCLRE
 70
     0
  9
$DIMCLRT
 70
     0
  9
$DIMTFAC
 40
1.0
  9
$DIMGAP
 40
0.09
  9
$DIMJUST
 70
     0
  9
$DIMSD1
 70
     0
  9
$DIMSD2
 70
     0
  9
$DIMTOLJ
 70
     1
  9
$DIMTZIN
 70
     0
  9
$DIMALTZ
 70
     0
  9
$DIMALTTZ
 70
     0
  9
$DIMUPT
 70
     0
  9
$DIMDEC
 70
     4
  9
$DIMTDEC
 70
     4
  9
$DIMALTU
 70
     2
  9
$DIMALTTD
 70
     2
  9
$DIMTXSTY
  7
Standard
  9
$DIMAUNIT
 70
     0
  9
$DIMADEC
 70
     0
  9
$DIMALTRND
 40
0.0
  9
$DIMAZIN
 70
     0
  9
$DIMDSEP
 70
    46
  9
$DIMATFIT
 70
     3
  9
$DIMFRAC
 70
     0
  9
$DIMLDRBLK
  1

  9
$DIMLUNIT
 70
     2
  9
$DIMLWD
 70
    -2
  9
$DIMLWE
 70
    -2
  9
$DIMTMOVE
 70
     0
  9
$DIMFXL
 40
1.0
  9
$DIMFXLON
 70
     0
  9
$DIMJOGANG
 40
0.7853981633974483
  9
$DIMTFILL
 70
     0
  9
$DIMTFILLCLR
 70
     0
  9
$DIMARCSYM
 70
     0
  9
$DIMLTYPE
  6

  9
$DIMLTEX1
  6

  9
$DIMLTEX2
  6

  9
$LUNITS
 70
     2
  9
$LUPREC
 70
     4
  9
$SKETCHINC
 40
0.1
  9
$FILLETRAD
 40
0.5
  9
$AUNITS
 70
     0
  9
$AUPREC
 70
     0
  9
$MENU
  1
.
  9
$ELEVATION
 40
0.0
  9
$PELEVATION
 40
0.0
  9
$THICKNESS
 40
0.0
  9
$LIMCHECK
 70
     0
  9
$CHAMFERA
 40
0.0
  9
$CHAMFERB
 40
0.0
  9
$CHAMFERC
 40
0.0
  9
$CHAMFERD
 40
0.0
  9
$SKPOLY
 70
     0
  9
$TDCREATE
 40
2458147.942138785
  9
$TDUCREATE
 40
2458147.692138785
  9
$TDUPDATE
 40
2458147.942139514
  9
$TDUUPDATE
 40
2458147.692139514
  9
$TDINDWG
 40
0.0000000116
  9
$TDUSRTIMER
 40
0.0000000116
  9
$USRTIMER
 70
     1
  9
$ANGBASE
 50
0.0
  9
$ANGDIR
 70
     0
  9
$PDMODE
 70
     0
  9
$PDSIZE
 40
0.0
  9
$PLINEWID
 40
0.0
  9
$SPLFRAME
 70
     0
  9
$SPLINETYPE
 70
     6
  9
$SPLINESEGS
 70
     8
  9
$HANDSEED
  5
110
  9
$SURFTAB1
 70
     6
  9
$SURFTAB2
 70
     6
  9
$SURFTYPE
 70
     6
  9
$SURFU
 70
     6
  9
$SURFV
 70
     6
  9
$UCSBASE
  2

  9
$UCSNAME
  2

  9
$UCSORG
 10
0.0
 20
0.0
 30
0.0
  9
$UCSXDIR
 10
1.0
 20
0.0
 30
0.0
  9
$UCSYDIR
 10
0.0
 20
1.0
 30
0.0
  9
$UCSORTHOREF
  2

  9
$UCSORTHOVIEW
 70
     0
  9
$UCSORGTOP
 10
0.0
 20
0.0
 30
0.0
  9
$UCSORGBOTTOM
 10
0.0
 20
0.0
 30
0.0
  9
$UCSORGLEFT
 10
0.0
 20
0.0
 30
0.0
  9
$UCSORGRIGHT
 10
0.0
 20
0.0
 30
0.0
  9
$UCSORGFRONT
 10
0.0
 20
0.0
 30
0.0
  9
$UCSORGBACK
 10
0.0
 20
0.0
 30
0.0
  9
$PUCSBASE
  2

  9
$PUCSNAME
  2

  9
$PUCSORG
 10
0.0
 20
0.0
 30
0.0
  9
$PUCSXDIR
 10
1.0
 20
0.0
 30
0.0
  9
$PUCSYDIR
 10
0.0
 20
1.0
 30
0.0
  9
$PUCSORTHOREF
  2

  9
$PUCSORTHOVIEW
 70
     0
  9
$PUCSORGTOP
 10
0.0
 20
0.0
 30
0.0
  9
$PUCSORGBOTTOM
 10
0.0
 20
0.0
 30
0.0
  9
$PUCSORGLEFT
 10
0.0
 20
0.0
 30
0.0
  9
$PUCSORGRIGHT
 10
0.0
 20
0.0
 30
0.0
  9
$PUCSORGFRONT
 10
0.0
 20
0.0
 30
0.0
  9
$PUCSORGBACK
 10
0.0
 20
0.0
 30
0.0
  9
$USERI1
 70
     0
  9
$USERI2
 70
     0
  9
$USERI3
 70
     0
  9
$USERI4
 70
     0
  9
$USERI5
 70
     0
  9
$USERR1
 40
0.0
  9
$USERR2
 40
0.0
  9
$USERR3
 40
0.0
  9
$USERR4
 40
0.0
  9
$USERR5
 40
0.0
  9
$WORLDVIEW
 70
     1
  9
$SHADEDGE
 70
     3
  9
$SHADEDIF
 70
    70
  9
$TILEMODE
 70
     1
  9
$MAXACTVP
 70
    64
  9
$PINSBASE
 10
0.0
 20
0.0
 30
0.0
  9
$PLIMCHECK
 70
     0
  9
$PEXTMIN
 10
1.000000000000000E+20
 20
1.000000000000000E+20
 30
1.000000000000000E+20
  9
$PEXTMAX
 10
-1.000000000000000E+20
 20
-1.000000000000000E+20
 30
-1.000000000000000E+20
  9
$PLIMMIN
 10
0.0
 20
0.0
  9
$PLIMMAX
 10
12.0
 20
9.0
  9
$UNITMODE
 70
     0
  9
$VISRETAIN
 70
     1
  9
$PLINEGEN
 70
     0
  9
$PSLTSCALE
 70
     1
  9
$TREEDEPTH
 70
  3020
  9
$CMLSTYLE
  2
Standard
  9
$CMLJUST
 70
     0
  9
$CMLSCALE
 40
1.0
  9
$PROXYGRAPHICS
 70
     1
  9
$MEASUREMENT
 70
     0
  9
$CELWEIGHT
370
    -1
  9
$ENDCAPS
280
     0
  9
$JOINSTYLE
280
     0
  9
$LWDISPLAY
290
     0
  9
$INSUNITS
 70
     4
  9
$HYPERLINKBASE
  1

  9
$STYLESHEET
  1

  9
$XEDIT
290
     1
  9
$CEPSNTYPE
380
     0
  9
$PSTYLEMODE
290
     1
  9
$FINGERPRINTGUID
  2
{B9E0AAE6-A8F5-4B83-94E1-052A745C5A4A}
  9
$VERSIONGUID
  2
{FAEB1C32-E019-11D5-929B-00C0DF256EC4}
  9
$EXTNAMES
290
     1
  9
$PSVPSCALE
 40
0.0
  9
$OLESTARTUP
290
     0
  9
$SORTENTS
280
   127
  9
$INDEXCTL
280
     0
  9
$HIDETEXT
280
     1
  9
$XCLIPFRAME
290
     0
  9
$HALOGAP
280
     0
  9
$OBSCOLOR
 70
   257
  9
$OBSLTYPE
280
     0
  9
$INTERSECTIONDISPLAY
280
     0
  9
$INTERSECTIONCOLOR
 70
   257
  9
$DIMASSOC
280
     2
  9
$PROJECTNAME
  1

  9
$CAMERADISPLAY
290
     0
  9
$LENSLENGTH
 40
50.0
  9
$CAMERAHEIGHT
 40
0.0
  9
$STEPSPERSEC
 40
2.0
  9
$STEPSIZE
 40
6.0
  9
$3DDWFPREC
 40
2.0
  9
$PSOLWIDTH
 40
0.25
  9
$PSOLHEIGHT
 40
4.0
  9
$LOFTANG1
 40
1.570796326794897
  9
$LOFTANG2
 40
1.570796326794897
  9
$LOFTMAG1
 40
0.0
  9
$LOFTMAG2
 40
0.0
  9
$LOFTPARAM
 70
     7
  9
$LOFTNORMALS
280
     1
  9
$LATITUDE
 40
37.795
  9
$LONGITUDE
 40
-122.394
  9
$NORTHDIRECTION
 40
0.0
  9
$TIMEZONE
 70
 -8000
  9
$LIGHTGLYPHDISPLAY
280
     1
  9
$TILEMODELIGHTSYNCH
280
     1
  9
$CMATERIAL
347
44
  9
$SOLIDHIST
280
     0
  9
$SHOWHIST
280
     1
  9
$DWFFRAME
280
     2
  9
$DGNFRAME
280
     2
  9
$REALWORLDSCALE
290
     1
  9
$INTERFERECOLOR
 62
   256
  9
$CSHADOW
280
     0
  9
$SHADOWPLANELOCATION
 40
0.0
  0
ENDSEC
  0
SECTION
  2
CLASSES
  0
CLASS
  1
ACDBDICTIONARYWDFLT
  2
AcDbDictionaryWithDefault
  3
ObjectDBX Classes
 90
        0
 91
        4
280
     0
281
     0
  0
CLASS
  1
VISUALSTYLE
  2
AcDbVisualStyle
  3
ObjectDBX Classes
 90
     4095
 91
        4
280
     0
281
     0
  0
CLASS
  1
MATERIAL
  2
AcDbMaterial
  3
ObjectDBX Classes
 90
     1153
 91
        4
280
     0
281
     0
  0
CLASS
  1
SCALE
  2
AcDbScale
  3
ObjectDBX Classes
 90
     1153
 91
        4
280
     0
281
     0
  0
CLASS
  1
TABLESTYLE
  2
AcDbTableStyle
  3
ObjectDBX Classes
 90
     4095
 91
        4
280
     0
281
     0
  0
CLASS
  1
MLEADERSTYLE
  2
AcDbMLeaderStyle
  3
ACDB_MLEADERSTYLE_CLASS
 90
     4095
 91
        4
280
     0
281
     0
  0
CLASS
  1
SUN
  2
AcDbSun
  3
SCENEOE
 90
     1153
 91
        4
280
     0
281
     0
  0
CLASS
  1
DICTIONARYVAR
  2
AcDbDictionaryVar
  3
ObjectDBX Classes
 90
        0
 91
        4
280
     0
281
     0
  0
CLASS
  1
CELLSTYLEMAP
  2
AcDbCellStyleMap
  3
ObjectDBX Classes
 90
     1152
 91
        4
280
     0
281
     0
  0
ENDSEC
  0
SECTION
  2
TABLES
  0
TABLE
  2
VPORT
  5
8
330
0
100
AcDbSymbolTable
 70
     1
  0
VPORT
  5
29
330
8
100
AcDbSymbolTableRecord
100
AcDbViewportTableRecord
  2
*Active
 70
     0
 10
0.0
 20
0.0
 11
1.0
 21
1.0
 12
10.42990654205607
 22
4.5
 13
0.0
 23
0.0
 14
0.5
 24
0.5
 15
0.5
 25
0.5
 16
0.0
 26
0.0
 36
1.0
 17
0.0
 27
0.0
 37
0.0
 40
9.0
 41
1.972972972850329
 42
50.0
 43
0.0
 44
0.0
 50
0.0
 51
0.0
 71
     0
 72
   100
 73
     1
 74
     3
 75
     0
 76
     0
 77
     0
 78
     0
281
     0
 65
     1
110
0.0
120
0.0
130
0.0
111
1.0
121
0.0
131
0.0
112
0.0
122
1.0
132
0.0
 79
     0
146
0.0
 60
     3
 61
     5
292
     1
282
     1
141
0.0
142
0.0
 63
   250
361
6D
  0
ENDTAB
  0
TABLE
  2
LTYPE
  5
5
330
0
100
AcDbSymbolTable
 70
     1
  0
LTYPE
  5
14
330
5
100
AcDbSymbolTableRecord
100
AcDbLinetypeTableRecord
  2
ByBlock
 70
     0
  3

 72
    65
 73
     0
 40
0.0
  0
LTYPE
  5
15
330
5
100
AcDbSymbolTableRecord
100
AcDbLinetypeTableRecord
  2
ByLayer
 70
     0
  3

 72
    65
 73
     0
 40
0.0
  0
LTYPE
  5
16
330
5
100
AcDbSymbolTableRecord
100
AcDbLinetypeTableRecord
  2
Continuous
 70
     0
  3
Solid line
 72
    65
 73
     0
 40
0.0
  0
ENDTAB
  0
TABLE
  2
LAYER
  5
2
330
0
100
AcDbSymbolTable
 70
     2
  0
LAYER
  5
10
330
2
100
AcDbSymbolTableRecord
100
AcDbLayerTableRecord
  2
0
 70
     0
 62
     7
  6
Continuous
370
    -3
390
F
347
46
  0
LAYER
  5
6F
330
2
100
AcDbSymbolTableRecord
100
AcDbLayerTableRecord
  2
Camada 1
 70
     0
 62
     7
  6
Continuous
370
    -3
390
F
347
46
  0
ENDTAB
  0
TABLE
  2
STYLE
  5
3
330
0
100
AcDbSymbolTable
 70
     1
  0
STYLE
  5
11
330
3
100
AcDbSymbolTableRecord
100
AcDbTextStyleTableRecord
  2
Standard
 70
     0
 40
0.0
 41
1.0
 50
0.0
 71
     0
 42
0.2
  3
txt
  4

  0
ENDTAB
  0
TABLE
  2
VIEW
  5
6
330
0
100
AcDbSymbolTable
 70
     0
  0
ENDTAB
  0
TABLE
  2
UCS
  5
7
330
0
100
AcDbSymbolTable
 70
     0
  0
ENDTAB
  0
TABLE
  2
APPID
  5
9
330
0
100
AcDbSymbolTable
 70
     3
  0
APPID
  5
12
330
9
100
AcDbSymbolTableRecord
100
AcDbRegAppTableRecord
  2
ACAD
 70
     0
  0
APPID
  5
6E
330
9
100
AcDbSymbolTableRecord
100
AcDbRegAppTableRecord
  2
ODA
 70
     0
  0
APPID
  5
108
330
9
100
AcDbSymbolTableRecord
100
AcDbRegAppTableRecord
  2
ACAD_MLEADERVER
 70
     0
  0
ENDTAB
  0
TABLE
  2
DIMSTYLE
  5
A
330
0
100
AcDbSymbolTable
 70
     1
100
AcDbDimStyleTable
  0
DIMSTYLE
105
27
330
A
100
AcDbSymbolTableRecord
100
AcDbDimStyleTableRecord
  2
Standard
 70
     0
178
     0
340
11
  0
ENDTAB
  0
TABLE
  2
BLOCK_RECORD
  5
1
330
0
100
AcDbSymbolTable
 70
     1
  0
BLOCK_RECORD
  5
1F
330
1
100
AcDbSymbolTableRecord
100
AcDbBlockTableRecord
  2
*Model_Space
340
22
 70
     0
280
     1
281
     0
  0
BLOCK_RECORD
  5
1B
330
1
100
AcDbSymbolTableRecord
100
AcDbBlockTableRecord
  2
*Paper_Space
340
1E
 70
     0
280
     1
281
     0
  0
BLOCK_RECORD
  5
23
330
1
100
AcDbSymbolTableRecord
100
AcDbBlockTableRecord
  2
*Paper_Space0
340
26
 70
     0
280
     1
281
     0
  0
ENDTAB
  0
ENDSEC
  0
SECTION
  2
BLOCKS
  0
BLOCK
  5
20
330
1F
100
AcDbEntity
  8
0
100
AcDbBlockBegin
  2
*Model_Space
 70
     0
 10
0.0
 20
0.0
 30
0.0
  3
*Model_Space
  1

  0
ENDBLK
  5
21
330
1F
100
AcDbEntity
  8
0
100
AcDbBlockEnd
  0
BLOCK
  5
1C
330
1B
100
AcDbEntity
 67
     1
  8
0
100
AcDbBlockBegin
  2
*Paper_Space
 70
     0
 10
0.0
 20
0.0
 30
0.0
  3
*Paper_Space
  1

  0
ENDBLK
  5
1D
330
1B
100
AcDbEntity
 67
     1
  8
0
100
AcDbBlockEnd
  0
BLOCK
  5
24
330
23
100
AcDbEntity
  8
0
100
AcDbBlockBegin
  2
*Paper_Space0
 70
     0
 10
0.0
 20
0.0
 30
0.0
  3
*Paper_Space0
  1

  0
ENDBLK
  5
25
330
23
100
AcDbEntity
  8
0
100
AcDbBlockEnd
  0
ENDSEC
  0
SECTION
  2
ENTITIES
  0
LWPOLYLINE
  5
70
330
1F
100
AcDbEntity
  8
Camada 1
 62
   250
370
    20
100
AcDbPolyline
 90
        5
 70
     1
 43
0.0
 10
119.5627
 20
66.5627
 10
125.5341
 20
66.5627
 10
125.5341
 20
92.4919
 10
119.5627
 20
92.4919
 10
119.5627
 20
66.5627
  0
LWPOLYLINE
  5
71
330
1F
100
AcDbEntity
  8
Camada 1
 62
   250
370
    20
100
AcDbPolyline
 90
        5
 70
     1
 43
0.0
 10
-128.4942
 20
66.4627
 10
-122.5228
 20
66.4627
 10
-122.5228
 20
92.3919
 10
-128.4942
 20
92.3919
 10
-128.4942
 20
66.4627
  0
SPLINE
  5
72
330
1F
100
AcDbEntity
  8
Camada 1
 62
   250
370
    20
100
AcDbSpline
210
0.0
220
0.0
230
1.0
 70
    11
 71
     3
 72
    36
 73
    32
 74
     0
 42
0.000000001
 43
0.0000000001
 40
0.0
 40
0.0
 40
0.0
 40
0.0
 40
0.1111111111111111
 40
0.1111111111111111
 40
0.1111111111111111
 40
0.1111111111111111
 40
0.2222222222222222
 40
0.2222222222222222
 40
0.2222222222222222
 40
0.2222222222222222
 40
0.3333333333333333
 40
0.3333333333333333
 40
0.3333333333333333
 40
0.3333333333333333
 40
0.4444444444444444
 40
0.4444444444444444
 40
0.4444444444444444
 40
0.4444444444444444
 40
0.5555555555555556
 40
0.5555555555555556
 40
0.5555555555555556
 40
0.5555555555555556
 40
0.6666666666666666
 40
0.6666666666666666
 40
0.6666666666666666
 40
0.6666666666666666
 40
0.7777777777777778
 40
0.7777777777777778
 40
0.7777777777777778
 40
0.7777777777777778
 40
1.0
 40
1.0
 40
1.0
 40
1.0
 10
-134.8222
 20
152.0221
 30
0.0
 10
-134.8222
 20
154.0814
 30
0.0
 10
-133.1522
 20
155.7347
 30
0.0
 10
-131.0929
 20
155.7347
 30
0.0
 10
-131.0929
 20
155.7347
 30
0.0
 10
-131.0929
 20
155.7347
 30
0.0
 10
128.1323
 20
155.7347
 30
0.0
 10
128.1323
 20
155.7347
 30
0.0
 10
128.1323
 20
155.7347
 30
0.0
 10
130.1916
 20
155.7347
 30
0.0
 10
131.8778
 20
154.0814
 30
0.0
 10
131.8778
 20
152.0221
 30
0.0
 10
131.8778
 20
152.0221
 30
0.0
 10
131.8778
 20
152.0221
 30
0.0
 10
131.8778
 20
7.0555
 30
0.0
 10
131.8778
 20
7.0555
 30
0.0
 10
131.8778
 20
7.0555
 30
0.0
 10
131.8778
 20
4.9962
 30
0.0
 10
130.1916
 20
3.3347
 30
0.0
 10
128.1323
 20
3.3347
 30
0.0
 10
128.1323
 20
3.3347
 30
0.0
 10
128.1323
 20
3.3347
 30
0.0
 10
-131.0929
 20
3.3347
 30
0.0
 10
-131.0929
 20
3.3347
 30
0.0
 10
-131.0929
 20
3.3347
 30
0.0
 10
-133.1522
 20
3.3347
 30
0.0
 10
-134.8222
 20
4.9962
 30
0.0
 10
-134.8222
 20
7.0555
 30
0.0
 10
-134.8222
 20
7.0555
 30
0.0
 10
-134.8222
 20
7.0555
 30
0.0
 10
-134.8222
 20
152.0221
 30
0.0
 10
-134.8222
 20
152.0221
 30
0.0
  0
SPLINE
  5
73
330
1F
100
AcDbEntity
  8
Camada 1
 62
   250
370
     9
100
AcDbSpline
210
0.0
220
0.0
230
1.0
 70
     8
 71
     3
 72
    12
 73
     8
 74
     0
 42
0.000000001
 43
0.0000000001
 40
0.0
 40
0.0
 40
0.0
 40
0.0
 40
0.3333333333333333
 40
0.3333333333333333
 40
0.3333333333333333
 40
0.3333333333333333
 40
1.0
 40
1.0
 40
1.0
 40
1.0
 10
61.4638
 20
-142.2931
 30
0.0
 10
61.4638
 20
-142.2931
 30
0.0
 10
-192.5361
 20
-142.2931
 30
0.0
 10
-192.5361
 20
-142.2931
 30
0.0
 10
-192.5361
 20
-142.2931
 30
0.0
 10
-192.5361
 20
-142.2931
 30
0.0
 10
-192.5361
 20
-123.5561
 30
0.0
 10
-192.5361
 20
-123.5561
 30
0.0
  0
SPLINE
  5
74
330
1F
100
AcDbEntity
  8
Camada 1
 62
   250
370
     9
100
AcDbSpline
210
0.0
220
0.0
230
1.0
 70
     8
 71
     3
 72
    16
 73
    12
 74
     0
 42
0.000000001
 43
0.0000000001
 40
0.0
 40
0.0
 40
0.0
 40
0.0
 40
0.25
 40
0.25
 40
0.25
 40
0.25
 40
0.5
 40
0.5
 40
0.5
 40
0.5
 40
1.0
 40
1.0
 40
1.0
 40
1.0
 10
-192.5363
 20
-123.5561
 30
0.0
 10
-192.5363
 20
-123.5561
 30
0.0
 10
-186.5506
 20
-123.5561
 30
0.0
 10
-186.5506
 20
-123.5561
 30
0.0
 10
-186.5506
 20
-123.5561
 30
0.0
 10
-186.5506
 20
-123.5561
 30
0.0
 10
-186.5506
 20
-97.6269
 30
0.0
 10
-186.5506
 20
-97.6269
 30
0.0
 10
-186.5506
 20
-97.6269
 30
0.0
 10
-186.5506
 20
-97.6269
 30
0.0
 10
-192.5363
 20
-97.6269
 30
0.0
 10
-192.5363
 20
-97.6269
 30
0.0
  0
SPLINE
  5
75
330
1F
100
AcDbEntity
  8
Camada 1
 62
   250
370
     9
100
AcDbSpline
210
0.0
220
0.0
230
1.0
 70
     8
 71
     3
 72
   116
 73
   112
 74
     0
 42
0.000000001
 43
0.0000000001
 40
0.0
 40
0.0
 40
0.0
 40
0.0
 40
0.0344827586206897
 40
0.0344827586206897
 40
0.0344827586206897
 40
0.0344827586206897
 40
0.0689655172413793
 40
0.0689655172413793
 40
0.0689655172413793
 40
0.0689655172413793
 40
0.103448275862069
 40
0.103448275862069
 40
0.103448275862069
 40
0.103448275862069
 40
0.1379310344827586
 40
0.1379310344827586
 40
0.1379310344827586
 40
0.1379310344827586
 40
0.1724137931034483
 40
0.1724137931034483
 40
0.1724137931034483
 40
0.1724137931034483
 40
0.2068965517241379
 40
0.2068965517241379
 40
0.2068965517241379
 40
0.2068965517241379
 40
0.2413793103448276
 40
0.2413793103448276
 40
0.2413793103448276
 40
0.2413793103448276
 40
0.2758620689655172
 40
0.2758620689655172
 40
0.2758620689655172
 40
0.2758620689655172
 40
0.3103448275862069
 40
0.3103448275862069
 40
0.3103448275862069
 40
0.3103448275862069
 40
0.3448275862068966
 40
0.3448275862068966
 40
0.3448275862068966
 40
0.3448275862068966
 40
0.3793103448275862
 40
0.3793103448275862
 40
0.3793103448275862
 40
0.3793103448275862
 40
0.4137931034482759
 40
0.4137931034482759
 40
0.4137931034482759
 40
0.4137931034482759
 40
0.4482758620689655
 40
0.4482758620689655
 40
0.4482758620689655
 40
0.4482758620689655
 40
0.4827586206896552
 40
0.4827586206896552
 40
0.4827586206896552
 40
0.4827586206896552
 40
0.5172413793103449
 40
0.5172413793103449
 40
0.5172413793103449
 40
0.5172413793103449
 40
0.5517241379310345
 40
0.5517241379310345
 40
0.5517241379310345
 40
0.5517241379310345
 40
0.5862068965517241
 40
0.5862068965517241
 40
0.5862068965517241
 40
0.5862068965517241
 40
0.6206896551724138
 40
0.6206896551724138
 40
0.6206896551724138
 40
0.6206896551724138
 40
0.6551724137931034
 40
0.6551724137931034
 40
0.6551724137931034
 40
0.6551724137931034
 40
0.6896551724137931
 40
0.6896551724137931
 40
0.6896551724137931
 40
0.6896551724137931
 40
0.7241379310344828
 40
0.7241379310344828
 40
0.7241379310344828
 40
0.7241379310344828
 40
0.7586206896551724
 40
0.7586206896551724
 40
0.7586206896551724
 40
0.7586206896551724
 40
0.7931034482758621
 40
0.7931034482758621
 40
0.7931034482758621
 40
0.7931034482758621
 40
0.8275862068965517
 40
0.8275862068965517
 40
0.8275862068965517
 40
0.8275862068965517
 40
0.8620689655172413
 40
0.8620689655172413
 40
0.8620689655172413
 40
0.8620689655172413
 40
0.896551724137931
 40
0.896551724137931
 40
0.896551724137931
 40
0.896551724137931
 40
0.9310344827586207
 40
0.9310344827586207
 40
0.9310344827586207
 40
0.9310344827586207
 40
1.0
 40
1.0
 40
1.0
 40
1.0
 10
-90.3172
 20
-85.134
 30
0.0
 10
-90.6139
 20
-85.2046
 30
0.0
 10
-90.9113
 20
-85.2829
 30
0.0
 10
-91.2093
 20
-85.3688
 30
0.0
 10
-91.2093
 20
-85.3688
 30
0.0
 10
-96.7538
 20
-86.9668
 30
0.0
 10
-100.1773
 20
-91.4687
 30
0.0
 10
-103.4281
 20
-96.4312
 30
0.0
 10
-103.4281
 20
-96.4312
 30
0.0
 10
-104.4348
 20
-94.3076
 30
0.0
 10
-106.7968
 20
-93.0588
 30
0.0
 10
-109.2367
 20
-93.5479
 30
0.0
 10
-109.2367
 20
-93.5479
 30
0.0
 10
-112.1236
 20
-94.1264
 30
0.0
 10
-114.0172
 20
-96.9142
 30
0.0
 10
-113.4679
 20
-99.7738
 30
0.0
 10
-113.4679
 20
-99.7738
 30
0.0
 10
-113.3377
 20
-100.4533
 30
0.0
 10
-113.0774
 20
-101.0725
 30
0.0
 10
-112.7234
 20
-101.6188
 30
0.0
 10
-112.7234
 20
-101.6188
 30
0.0
 10
-113.2921
 20
-101.3164
 30
0.0
 10
-113.9247
 20
-101.109
 30
0.0
 10
-114.6067
 20
-101.0311
 30
0.0
 10
-114.6067
 20
-101.0311
 30
0.0
 10
-117.521
 20
-100.6978
 30
0.0
 10
-120.1847
 20
-102.7769
 30
0.0
 10
-120.5539
 20
-105.676
 30
0.0
 10
-120.5539
 20
-105.676
 30
0.0
 10
-120.9231
 20
-108.5745
 30
0.0
 10
-118.8592
 20
-111.195
 30
0.0
 10
-115.9443
 20
-111.5278
 30
0.0
 10
-115.9443
 20
-111.5278
 30
0.0
 10
-115.2514
 20
-111.6075
 30
0.0
 10
-114.575
 20
-111.5466
 30
0.0
 10
-113.9381
 20
-111.3751
 30
0.0
 10
-113.9381
 20
-111.3751
 30
0.0
 10
-114.4102
 20
-111.8216
 30
0.0
 10
-114.8111
 20
-112.3575
 30
0.0
 10
-115.1043
 20
-112.978
 30
0.0
 10
-115.1043
 20
-112.978
 30
0.0
 10
-115.8877
 20
-114.6392
 30
0.0
 10
-115.7338
 20
-116.4896
 30
0.0
 10
-114.8567
 20
-117.9385
 30
0.0
 10
-114.8567
 20
-117.9385
 30
0.0
 10
-116.277
 20
-116.3801
 30
0.0
 10
-117.4699
 20
-114.9257
 30
0.0
 10
-118.3824
 20
-113.7523
 30
0.0
 10
-118.3824
 20
-113.7523
 30
0.0
 10
-118.8258
 20
-113.2535
 30
0.0
 10
-119.7425
 20
-112.8849
 30
0.0
 10
-120.6117
 20
-112.8654
 30
0.0
 10
-120.6117
 20
-112.8654
 30
0.0
 10
-120.641
 20
-112.8642
 30
0.0
 10
-120.6701
 20
-112.8642
 30
0.0
 10
-120.6993
 20
-112.8642
 30
0.0
 10
-120.6993
 20
-112.8642
 30
0.0
 10
-120.7285
 20
-112.8642
 30
0.0
 10
-120.7577
 20
-112.8642
 30
0.0
 10
-120.7868
 20
-112.8654
 30
0.0
 10
-120.7868
 20
-112.8654
 30
0.0
 10
-121.6558
 20
-112.8849
 30
0.0
 10
-122.5731
 20
-113.2535
 30
0.0
 10
-123.0159
 20
-113.7523
 30
0.0
 10
-123.0159
 20
-113.7523
 30
0.0
 10
-123.9284
 20
-114.9257
 30
0.0
 10
-125.1219
 20
-116.3801
 30
0.0
 10
-126.5422
 20
-117.9385
 30
0.0
 10
-126.5422
 20
-117.9385
 30
0.0
 10
-125.6651
 20
-116.4896
 30
0.0
 10
-125.5112
 20
-114.6392
 30
0.0
 10
-126.2946
 20
-112.978
 30
0.0
 10
-126.2946
 20
-112.978
 30
0.0
 10
-126.5878
 20
-112.3575
 30
0.0
 10
-126.9881
 20
-111.8216
 30
0.0
 10
-127.4601
 20
-111.3751
 30
0.0
 10
-127.4601
 20
-111.3751
 30
0.0
 10
-126.8239
 20
-111.5466
 30
0.0
 10
-126.1475
 20
-111.6075
 30
0.0
 10
-125.4546
 20
-111.5278
 30
0.0
 10
-125.4546
 20
-111.5278
 30
0.0
 10
-122.5397
 20
-111.195
 30
0.0
 10
-120.4755
 20
-108.5745
 30
0.0
 10
-120.8446
 20
-105.676
 30
0.0
 10
-120.8446
 20
-105.676
 30
0.0
 10
-121.2142
 20
-102.7769
 30
0.0
 10
-123.8773
 20
-100.6978
 30
0.0
 10
-126.7922
 20
-101.0311
 30
0.0
 10
-126.7922
 20
-101.0311
 30
0.0
 10
-127.4742
 20
-101.109
 30
0.0
 10
-128.1068
 20
-101.3164
 30
0.0
 10
-128.6755
 20
-101.6188
 30
0.0
 10
-128.6755
 20
-101.6188
 30
0.0
 10
-128.3215
 20
-101.0725
 30
0.0
 10
-128.0612
 20
-100.4533
 30
0.0
 10
-127.931
 20
-99.7738
 30
0.0
 10
-127.931
 20
-99.7738
 30
0.0
 10
-127.3811
 20
-96.9142
 30
0.0
 10
-129.2753
 20
-94.1264
 30
0.0
 10
-132.1622
 20
-93.5479
 30
0.0
 10
-132.1622
 20
-93.5479
 30
0.0
 10
-134.6021
 20
-93.0588
 30
0.0
 10
-136.9641
 20
-94.3076
 30
0.0
 10
-137.9703
 20
-96.4312
 30
0.0
 10
-137.9703
 20
-96.4312
 30
0.0
 10
-141.221
 20
-91.4687
 30
0.0
 10
-144.6444
 20
-86.9668
 30
0.0
 10
-150.1896
 20
-85.3688
 30
0.0
 10
-150.1896
 20
-85.3688
 30
0.0
 10
-150.4876
 20
-85.2829
 30
0.0
 10
-150.785
 20
-85.2046
 30
0.0
 10
-151.0818
 20
-85.134
 30
0.0
  0
SPLINE
  5
76
330
1F
100
AcDbEntity
  8
Camada 1
 62
   250
370
     9
100
AcDbSpline
210
0.0
220
0.0
230
1.0
 70
    24
 71
     3
 72
     8
 73
     4
 74
     0
 42
0.000000001
 43
0.0000000001
 40
0.0
 40
0.0
 40
0.0
 40
0.0
 40
1.0
 40
1.0
 40
1.0
 40
1.0
 10
-81.767
 20
-85.134
 30
0.0
 10
-81.767
 20
-85.134
 30
0.0
 10
-50.1695
 20
-85.134
 30
0.0
 10
-50.1695
 20
-85.134
 30
0.0
  0
SPLINE
  5
77
330
1F
100
AcDbEntity
  8
Camada 1
 62
   250
370
     9
100
AcDbSpline
210
0.0
220
0.0
230
1.0
 70
    24
 71
     3
 72
     8
 73
     4
 74
     0
 42
0.000000001
 43
0.0000000001
 40
0.0
 40
0.0
 40
0.0
 40
0.0
 40
1.0
 40
1.0
 40
1.0
 40
1.0
 10
-41.6186
 20
-85.134
 30
0.0
 10
-41.6186
 20
-85.134
 30
0.0
 10
19.1458
 20
-85.134
 30
0.0
 10
19.1458
 20
-85.134
 30
0.0
  0
SPLINE
  5
78
330
1F
100
AcDbEntity
  8
Camada 1
 62
   250
370
     9
100
AcDbSpline
210
0.0
220
0.0
230
1.0
 70
     8
 71
     3
 72
    12
 73
     8
 74
     0
 42
0.000000001
 43
0.0000000001
 40
0.0
 40
0.0
 40
0.0
 40
0.0
 40
0.3333333333333333
 40
0.3333333333333333
 40
0.3333333333333333
 40
0.3333333333333333
 40
1.0
 40
1.0
 40
1.0
 40
1.0
 10
27.6955
 20
-85.134
 30
0.0
 10
27.6955
 20
-85.134
 30
0.0
 10
43.3234
 20
-85.134
 30
0.0
 10
43.3234
 20
-85.134
 30
0.0
 10
43.3234
 20
-85.134
 30
0.0
 10
43.3234
 20
-85.134
 30
0.0
 10
43.3234
 20
-102.6007
 30
0.0
 10
43.3234
 20
-102.6007
 30
0.0
  0
SPLINE
  5
79
330
1F
100
AcDbEntity
  8
Camada 1
 62
   250
370
     9
100
AcDbSpline
210
0.0
220
0.0
230
1.0
 70
     8
 71
     3
 72
    12
 73
     8
 74
     0
 42
0.000000001
 43
0.0000000001
 40
0.0
 40
0.0
 40
0.0
 40
0.0
 40
0.3333333333333333
 40
0.3333333333333333
 40
0.3333333333333333
 40
0.3333333333333333
 40
1.0
 40
1.0
 40
1.0
 40
1.0
 10
43.3234
 20
-113.3624
 30
0.0
 10
43.3234
 20
-113.3624
 30
0.0
 10
43.3234
 20
-135.9804
 30
0.0
 10
43.3234
 20
-135.9804
 30
0.0
 10
43.3234
 20
-135.9804
 30
0.0
 10
43.3234
 20
-135.9804
 30
0.0
 10
24.5483
 20
-135.9804
 30
0.0
 10
24.5483
 20
-135.9804
 30
0.0
  0
SPLINE
  5
7A
330
1F
100
AcDbEntity
  8
Camada 1
 62
   250
370
     9
100
AcDbSpline
210
0.0
220
0.0
230
1.0
 70
    24
 71
     3
 72
     8
 73
     4
 74
     0
 42
0.000000001
 43
0.0000000001
 40
0.0
 40
0.0
 40
0.0
 40
0.0
 40
1.0
 40
1.0
 40
1.0
 40
1.0
 10
13.0992
 20
-135.9804
 30
0.0
 10
13.0992
 20
-135.9804
 30
0.0
 10
-35.5768
 20
-135.9804
 30
0.0
 10
-35.5768
 20
-135.9804
 30
0.0
  0
SPLINE
  5
7B
330
1F
100
AcDbEntity
  8
Camada 1
 62
   250
370
     9
100
AcDbSpline
210
0.0
220
0.0
230
1.0
 70
    24
 71
     3
 72
     8
 73
     4
 74
     0
 42
0.000000001
 43
0.0000000001
 40
0.0
 40
0.0
 40
0.0
 40
0.0
 40
1.0
 40
1.0
 40
1.0
 40
1.0
 10
-47.0245
 20
-135.9804
 30
0.0
 10
-47.0245
 20
-135.9804
 30
0.0
 10
-84.9141
 20
-135.9804
 30
0.0
 10
-84.9141
 20
-135.9804
 30
0.0
  0
SPLINE
  5
7C
330
1F
100
AcDbEntity
  8
Camada 1
 62
   250
370
     9
100
AcDbSpline
210
0.0
220
0.0
230
1.0
 70
    24
 71
     3
 72
     8
 73
     4
 74
     0
 42
0.000000001
 43
0.0000000001
 40
0.0
 40
0.0
 40
0.0
 40
0.0
 40
1.0
 40
1.0
 40
1.0
 40
1.0
 10
-96.3611
 20
-135.9804
 30
0.0
 10
-96.3611
 20
-135.9804
 30
0.0
 10
-145.0386
 20
-135.9804
 30
0.0
 10
-145.0386
 20
-135.9804
 30
0.0
  0
SPLINE
  5
7D
330
1F
100
AcDbEntity
  8
Camada 1
 62
   250
370
     9
100
AcDbSpline
210
0.0
220
0.0
230
1.0
 70
     8
 71
     3
 72
    12
 73
     8
 74
     0
 42
0.000000001
 43
0.0000000001
 40
0.0
 40
0.0
 40
0.0
 40
0.0
 40
0.3333333333333333
 40
0.3333333333333333
 40
0.3333333333333333
 40
0.3333333333333333
 40
1.0
 40
1.0
 40
1.0
 40
1.0
 10
-156.4844
 20
-135.9804
 30
0.0
 10
-156.4844
 20
-135.9804
 30
0.0
 10
-174.8252
 20
-135.9804
 30
0.0
 10
-174.8252
 20
-135.9804
 30
0.0
 10
-174.8252
 20
-135.9804
 30
0.0
 10
-174.8252
 20
-135.9804
 30
0.0
 10
-174.8252
 20
-115.6073
 30
0.0
 10
-174.8252
 20
-115.6073
 30
0.0
  0
SPLINE
  5
7E
330
1F
100
AcDbEntity
  8
Camada 1
 62
   250
370
     9
100
AcDbSpline
210
0.0
220
0.0
230
1.0
 70
     8
 71
     3
 72
    12
 73
     8
 74
     0
 42
0.000000001
 43
0.0000000001
 40
0.0
 40
0.0
 40
0.0
 40
0.0
 40
0.3333333333333333
 40
0.3333333333333333
 40
0.3333333333333333
 40
0.3333333333333333
 40
1.0
 40
1.0
 40
1.0
 40
1.0
 10
-174.8252
 20
-100.7947
 30
0.0
 10
-174.8252
 20
-100.7947
 30
0.0
 10
-174.8252
 20
-85.134
 30
0.0
 10
-174.8252
 20
-85.134
 30
0.0
 10
-174.8252
 20
-85.134
 30
0.0
 10
-174.8252
 20
-85.134
 30
0.0
 10
-159.6324
 20
-85.134
 30
0.0
 10
-159.6324
 20
-85.134
 30
0.0
  0
SPLINE
  5
7F
330
1F
100
AcDbEntity
  8
Camada 1
 62
   250
370
     9
100
AcDbSpline
210
0.0
220
0.0
230
1.0
 70
    24
 71
     3
 72
     8
 73
     4
 74
     0
 42
0.000000001
 43
0.0000000001
 40
0.0
 40
0.0
 40
0.0
 40
0.0
 40
1.0
 40
1.0
 40
1.0
 40
1.0
 10
-151.0819
 20
-85.134
 30
0.0
 10
-151.0819
 20
-85.134
 30
0.0
 10
-90.3174
 20
-85.134
 30
0.0
 10
-90.3174
 20
-85.134
 30
0.0
  0
SPLINE
  5
80
330
1F
100
AcDbEntity
  8
Camada 1
 62
   250
370
     9
100
AcDbSpline
210
0.0
220
0.0
230
1.0
 70
     8
 71
     3
 72
     8
 73
     4
 74
     0
 42
0.000000001
 43
0.0000000001
 40
0.0
 40
0.0
 40
0.0
 40
0.0
 40
1.0
 40
1.0
 40
1.0
 40
1.0
 10
-50.1691
 20
-85.1339
 30
0.0
 10
-58.1566
 20
-87.0828
 30
0.0
 10
-64.4799
 20
-94.3984
 30
0.0
 10
-65.9681
 20
-103.5399
 30
0.0
  0
SPLINE
  5
81
330
1F
100
AcDbEntity
  8
Camada 1
 62
   250
370
     9
100
AcDbSpline
210
0.0
220
0.0
230
1.0
 70
     8
 71
     3
 72
     8
 73
     4
 74
     0
 42
0.000000001
 43
0.0000000001
 40
0.0
 40
0.0
 40
0.0
 40
0.0
 40
1.0
 40
1.0
 40
1.0
 40
1.0
 10
-65.968
 20
-112.2097
 30
0.0
 10
-64.5859
 20
-122.5473
 30
0.0
 10
-59.0418
 20
-133.4407
 30
0.0
 10
-47.0223
 20
-135.9805
 30
0.0
  0
SPLINE
  5
82
330
1F
100
AcDbEntity
  8
Camada 1
 62
   250
370
     9
100
AcDbSpline
210
0.0
220
0.0
230
1.0
 70
     8
 71
     3
 72
    12
 73
     8
 74
     0
 42
0.000000001
 43
0.0000000001
 40
0.0
 40
0.0
 40
0.0
 40
0.0
 40
0.3333333333333333
 40
0.3333333333333333
 40
0.3333333333333333
 40
0.3333333333333333
 40
1.0
 40
1.0
 40
1.0
 40
1.0
 10
-35.5773
 20
-135.9805
 30
0.0
 10
-23.918
 20
-133.7747
 30
0.0
 10
-17.6258
 20
-125.4073
 30
0.0
 10
-11.2368
 20
-118.6393
 30
0.0
 10
-11.2368
 20
-118.6393
 30
0.0
 10
-4.8481
 20
-125.4073
 30
0.0
 10
1.4439
 20
-133.7747
 30
0.0
 10
13.1031
 20
-135.9804
 30
0.0
  0
SPLINE
  5
83
330
1F
100
AcDbEntity
  8
Camada 1
 62
   250
370
     9
100
AcDbSpline
210
0.0
220
0.0
230
1.0
 70
     8
 71
     3
 72
     8
 73
     4
 74
     0
 42
0.000000001
 43
0.0000000001
 40
0.0
 40
0.0
 40
0.0
 40
0.0
 40
1.0
 40
1.0
 40
1.0
 40
1.0
 10
24.5482
 20
-135.9805
 30
0.0
 10
36.122
 20
-133.5348
 30
0.0
 10
41.6918
 20
-123.3438
 30
0.0
 10
43.3235
 20
-113.3618
 30
0.0
  0
SPLINE
  5
84
330
1F
100
AcDbEntity
  8
Camada 1
 62
   250
370
     9
100
AcDbSpline
210
0.0
220
0.0
230
1.0
 70
     8
 71
     3
 72
     8
 73
     4
 74
     0
 42
0.000000001
 43
0.0000000001
 40
0.0
 40
0.0
 40
0.0
 40
0.0
 40
1.0
 40
1.0
 40
1.0
 40
1.0
 10
43.3234
 20
-102.6011
 30
0.0
 10
41.568
 20
-93.9004
 30
0.0
 10
35.4076
 20
-87.0158
 30
0.0
 10
27.6955
 20
-85.1339
 30
0.0
  0
SPLINE
  5
85
330
1F
100
AcDbEntity
  8
Camada 1
 62
   250
370
     9
100
AcDbSpline
210
0.0
220
0.0
230
1.0
 70
     8
 71
     3
 72
   116
 73
   112
 74
     0
 42
0.000000001
 43
0.0000000001
 40
0.0
 40
0.0
 40
0.0
 40
0.0
 40
0.0344827586206897
 40
0.0344827586206897
 40
0.0344827586206897
 40
0.0344827586206897
 40
0.0689655172413793
 40
0.0689655172413793
 40
0.0689655172413793
 40
0.0689655172413793
 40
0.103448275862069
 40
0.103448275862069
 40
0.103448275862069
 40
0.103448275862069
 40
0.1379310344827586
 40
0.1379310344827586
 40
0.1379310344827586
 40
0.1379310344827586
 40
0.1724137931034483
 40
0.1724137931034483
 40
0.1724137931034483
 40
0.1724137931034483
 40
0.2068965517241379
 40
0.2068965517241379
 40
0.2068965517241379
 40
0.2068965517241379
 40
0.2413793103448276
 40
0.2413793103448276
 40
0.2413793103448276
 40
0.2413793103448276
 40
0.2758620689655172
 40
0.2758620689655172
 40
0.2758620689655172
 40
0.2758620689655172
 40
0.3103448275862069
 40
0.3103448275862069
 40
0.3103448275862069
 40
0.3103448275862069
 40
0.3448275862068966
 40
0.3448275862068966
 40
0.3448275862068966
 40
0.3448275862068966
 40
0.3793103448275862
 40
0.3793103448275862
 40
0.3793103448275862
 40
0.3793103448275862
 40
0.4137931034482759
 40
0.4137931034482759
 40
0.4137931034482759
 40
0.4137931034482759
 40
0.4482758620689655
 40
0.4482758620689655
 40
0.4482758620689655
 40
0.4482758620689655
 40
0.4827586206896552
 40
0.4827586206896552
 40
0.4827586206896552
 40
0.4827586206896552
 40
0.5172413793103449
 40
0.5172413793103449
 40
0.5172413793103449
 40
0.5172413793103449
 40
0.5517241379310345
 40
0.5517241379310345
 40
0.5517241379310345
 40
0.5517241379310345
 40
0.5862068965517241
 40
0.5862068965517241
 40
0.5862068965517241
 40
0.5862068965517241
 40
0.6206896551724138
 40
0.6206896551724138
 40
0.6206896551724138
 40
0.6206896551724138
 40
0.6551724137931034
 40
0.6551724137931034
 40
0.6551724137931034
 40
0.6551724137931034
 40
0.6896551724137931
 40
0.6896551724137931
 40
0.6896551724137931
 40
0.6896551724137931
 40
0.7241379310344828
 40
0.7241379310344828
 40
0.7241379310344828
 40
0.7241379310344828
 40
0.7586206896551724
 40
0.7586206896551724
 40
0.7586206896551724
 40
0.7586206896551724
 40
0.7931034482758621
 40
0.7931034482758621
 40
0.7931034482758621
 40
0.7931034482758621
 40
0.8275862068965517
 40
0.8275862068965517
 40
0.8275862068965517
 40
0.8275862068965517
 40
0.8620689655172413
 40
0.8620689655172413
 40
0.8620689655172413
 40
0.8620689655172413
 40
0.896551724137931
 40
0.896551724137931
 40
0.896551724137931
 40
0.896551724137931
 40
0.9310344827586207
 40
0.9310344827586207
 40
0.9310344827586207
 40
0.9310344827586207
 40
1.0
 40
1.0
 40
1.0
 40
1.0
 10
19.1454
 20
-85.134
 30
0.0
 10
18.8487
 20
-85.2047
 30
0.0
 10
18.5512
 20
-85.2829
 30
0.0
 10
18.2532
 20
-85.3688
 30
0.0
 10
18.2532
 20
-85.3688
 30
0.0
 10
12.7087
 20
-86.9668
 30
0.0
 10
9.2852
 20
-91.4687
 30
0.0
 10
6.0344
 20
-96.4312
 30
0.0
 10
6.0344
 20
-96.4312
 30
0.0
 10
5.0277
 20
-94.3076
 30
0.0
 10
2.6657
 20
-93.0588
 30
0.0
 10
0.2258
 20
-93.5479
 30
0.0
 10
0.2258
 20
-93.5479
 30
0.0
 10
-2.6611
 20
-94.1264
 30
0.0
 10
-4.5547
 20
-96.9142
 30
0.0
 10
-4.0054
 20
-99.7738
 30
0.0
 10
-4.0054
 20
-99.7738
 30
0.0
 10
-3.8752
 20
-100.4533
 30
0.0
 10
-3.6149
 20
-101.0725
 30
0.0
 10
-3.2609
 20
-101.6188
 30
0.0
 10
-3.2609
 20
-101.6188
 30
0.0
 10
-3.8296
 20
-101.3164
 30
0.0
 10
-4.4622
 20
-101.109
 30
0.0
 10
-5.1442
 20
-101.0311
 30
0.0
 10
-5.1442
 20
-101.0311
 30
0.0
 10
-8.0585
 20
-100.6978
 30
0.0
 10
-10.7222
 20
-102.7769
 30
0.0
 10
-11.0914
 20
-105.676
 30
0.0
 10
-11.0914
 20
-105.676
 30
0.0
 10
-11.4606
 20
-108.5745
 30
0.0
 10
-9.3967
 20
-111.195
 30
0.0
 10
-6.4818
 20
-111.5278
 30
0.0
 10
-6.4818
 20
-111.5278
 30
0.0
 10
-5.7889
 20
-111.6075
 30
0.0
 10
-5.1125
 20
-111.5466
 30
0.0
 10
-4.4756
 20
-111.3751
 30
0.0
 10
-4.4756
 20
-111.3751
 30
0.0
 10
-4.9477
 20
-111.8216
 30
0.0
 10
-5.3486
 20
-112.3575
 30
0.0
 10
-5.6418
 20
-112.978
 30
0.0
 10
-5.6418
 20
-112.978
 30
0.0
 10
-6.4252
 20
-114.6392
 30
0.0
 10
-6.2713
 20
-116.4896
 30
0.0
 10
-5.3942
 20
-117.9385
 30
0.0
 10
-5.3942
 20
-117.9385
 30
0.0
 10
-6.8145
 20
-116.3801
 30
0.0
 10
-8.0074
 20
-114.9257
 30
0.0
 10
-8.9199
 20
-113.7523
 30
0.0
 10
-8.9199
 20
-113.7523
 30
0.0
 10
-9.3633
 20
-113.2535
 30
0.0
 10
-10.28
 20
-112.8849
 30
0.0
 10
-11.1492
 20
-112.8654
 30
0.0
 10
-11.1492
 20
-112.8654
 30
0.0
 10
-11.1785
 20
-112.8642
 30
0.0
 10
-11.2076
 20
-112.8642
 30
0.0
 10
-11.2368
 20
-112.8642
 30
0.0
 10
-11.2368
 20
-112.8642
 30
0.0
 10
-11.266
 20
-112.8642
 30
0.0
 10
-11.2952
 20
-112.8642
 30
0.0
 10
-11.3243
 20
-112.8654
 30
0.0
 10
-11.3243
 20
-112.8654
 30
0.0
 10
-12.1933
 20
-112.8849
 30
0.0
 10
-13.1106
 20
-113.2535
 30
0.0
 10
-13.5534
 20
-113.7523
 30
0.0
 10
-13.5534
 20
-113.7523
 30
0.0
 10
-14.4659
 20
-114.9257
 30
0.0
 10
-15.6594
 20
-116.3801
 30
0.0
 10
-17.0797
 20
-117.9385
 30
0.0
 10
-17.0797
 20
-117.9385
 30
0.0
 10
-16.2026
 20
-116.4896
 30
0.0
 10
-16.0487
 20
-114.6392
 30
0.0
 10
-16.8321
 20
-112.978
 30
0.0
 10
-16.8321
 20
-112.978
 30
0.0
 10
-17.1253
 20
-112.3575
 30
0.0
 10
-17.5256
 20
-111.8216
 30
0.0
 10
-17.9976
 20
-111.3751
 30
0.0
 10
-17.9976
 20
-111.3751
 30
0.0
 10
-17.3614
 20
-111.5466
 30
0.0
 10
-16.685
 20
-111.6075
 30
0.0
 10
-15.9921
 20
-111.5278
 30
0.0
 10
-15.9921
 20
-111.5278
 30
0.0
 10
-13.0772
 20
-111.195
 30
0.0
 10
-11.013
 20
-108.5745
 30
0.0
 10
-11.3821
 20
-105.676
 30
0.0
 10
-11.3821
 20
-105.676
 30
0.0
 10
-11.7517
 20
-102.7769
 30
0.0
 10
-14.4148
 20
-100.6978
 30
0.0
 10
-17.3297
 20
-101.0311
 30
0.0
 10
-17.3297
 20
-101.0311
 30
0.0
 10
-18.0117
 20
-101.109
 30
0.0
 10
-18.6443
 20
-101.3164
 30
0.0
 10
-19.213
 20
-101.6188
 30
0.0
 10
-19.213
 20
-101.6188
 30
0.0
 10
-18.859
 20
-101.0725
 30
0.0
 10
-18.5987
 20
-100.4533
 30
0.0
 10
-18.4685
 20
-99.7738
 30
0.0
 10
-18.4685
 20
-99.7738
 30
0.0
 10
-17.9186
 20
-96.9142
 30
0.0
 10
-19.8128
 20
-94.1264
 30
0.0
 10
-22.6997
 20
-93.5479
 30
0.0
 10
-22.6997
 20
-93.5479
 30
0.0
 10
-25.1396
 20
-93.0588
 30
0.0
 10
-27.5016
 20
-94.3076
 30
0.0
 10
-28.5078
 20
-96.4312
 30
0.0
 10
-28.5078
 20
-96.4312
 30
0.0
 10
-31.7585
 20
-91.4687
 30
0.0
 10
-35.1819
 20
-86.9668
 30
0.0
 10
-40.7271
 20
-85.3688
 30
0.0
 10
-40.7271
 20
-85.3688
 30
0.0
 10
-41.0251
 20
-85.2829
 30
0.0
 10
-41.3227
 20
-85.2047
 30
0.0
 10
-41.6194
 20
-85.134
 30
0.0
  0
SPLINE
  5
86
330
1F
100
AcDbEntity
  8
Camada 1
 62
   250
370
     9
100
AcDbSpline
210
0.0
220
0.0
230
1.0
 70
     8
 71
     3
 72
     8
 73
     4
 74
     0
 42
0.000000001
 43
0.0000000001
 40
0.0
 40
0.0
 40
0.0
 40
0.0
 40
1.0
 40
1.0
 40
1.0
 40
1.0
 10
-159.6318
 20
-85.134
 30
0.0
 10
-166.802
 20
-86.8836
 30
0.0
 10
-172.6311
 20
-92.9577
 30
0.0
 10
-174.8253
 20
-100.7952
 30
0.0
  0
SPLINE
  5
87
330
1F
100
AcDbEntity
  8
Camada 1
 62
   250
370
     9
100
AcDbSpline
210
0.0
220
0.0
230
1.0
 70
     8
 71
     3
 72
     8
 73
     4
 74
     0
 42
0.000000001
 43
0.0000000001
 40
0.0
 40
0.0
 40
0.0
 40
0.0
 40
1.0
 40
1.0
 40
1.0
 40
1.0
 10
-174.8253
 20
-115.6072
 30
0.0
 10
-172.7593
 20
-124.8285
 30
0.0
 10
-167.1907
 20
-133.7181
 30
0.0
 10
-156.4849
 20
-135.9805
 30
0.0
  0
SPLINE
  5
88
330
1F
100
AcDbEntity
  8
Camada 1
 62
   250
370
     9
100
AcDbSpline
210
0.0
220
0.0
230
1.0
 70
     8
 71
     3
 72
    12
 73
     8
 74
     0
 42
0.000000001
 43
0.0000000001
 40
0.0
 40
0.0
 40
0.0
 40
0.0
 40
0.3333333333333333
 40
0.3333333333333333
 40
0.3333333333333333
 40
0.3333333333333333
 40
1.0
 40
1.0
 40
1.0
 40
1.0
 10
-145.04
 20
-135.9805
 30
0.0
 10
-133.3805
 20
-133.775
 30
0.0
 10
-127.0883
 20
-125.4073
 30
0.0
 10
-120.6993
 20
-118.6393
 30
0.0
 10
-120.6993
 20
-118.6393
 30
0.0
 10
-114.3105
 20
-125.4073
 30
0.0
 10
-108.0185
 20
-133.7749
 30
0.0
 10
-96.359
 20
-135.9805
 30
0.0
  0
SPLINE
  5
89
330
1F
100
AcDbEntity
  8
Camada 1
 62
   250
370
     9
100
AcDbSpline
210
0.0
220
0.0
230
1.0
 70
     8
 71
     3
 72
     8
 73
     4
 74
     0
 42
0.000000001
 43
0.0000000001
 40
0.0
 40
0.0
 40
0.0
 40
0.0
 40
1.0
 40
1.0
 40
1.0
 40
1.0
 10
-84.9145
 20
-135.9805
 30
0.0
 10
-72.8946
 20
-133.4407
 30
0.0
 10
-67.3506
 20
-122.5476
 30
0.0
 10
-65.9679
 20
-112.21
 30
0.0
  0
SPLINE
  5
8A
330
1F
100
AcDbEntity
  8
Camada 1
 62
   250
370
     9
100
AcDbSpline
210
0.0
220
0.0
230
1.0
 70
     8
 71
     3
 72
     8
 73
     4
 74
     0
 42
0.000000001
 43
0.0000000001
 40
0.0
 40
0.0
 40
0.0
 40
0.0
 40
1.0
 40
1.0
 40
1.0
 40
1.0
 10
-65.968
 20
-103.5401
 30
0.0
 10
-67.4564
 20
-94.3985
 30
0.0
 10
-73.7795
 20
-87.0829
 30
0.0
 10
-81.767
 20
-85.1339
 30
0.0
  0
SPLINE
  5
8B
330
1F
100
AcDbEntity
  8
Camada 1
 62
   250
370
     9
100
AcDbSpline
210
0.0
220
0.0
230
1.0
 70
    11
 71
     3
 72
    20
 73
    16
 74
     0
 42
0.000000001
 43
0.0000000001
 40
0.0
 40
0.0
 40
0.0
 40
0.0
 40
0.2
 40
0.2
 40
0.2
 40
0.2
 40
0.4
 40
0.4
 40
0.4
 40
0.4
 40
0.6
 40
0.6
 40
0.6
 40
0.6
 40
1.0
 40
1.0
 40
1.0
 40
1.0
 10
-104.5217
 20
-110.6098
 30
0.0
 10
-102.4639
 20
-109.4645
 30
0.0
 10
-101.7127
 20
-106.8902
 30
0.0
 10
-102.8429
 20
-104.8604
 30
0.0
 10
-102.8429
 20
-104.8604
 30
0.0
 10
-103.9731
 20
-102.8305
 30
0.0
 10
-106.5571
 20
-102.1139
 30
0.0
 10
-108.6143
 20
-103.2593
 30
0.0
 10
-108.6143
 20
-103.2593
 30
0.0
 10
-110.6722
 20
-104.4053
 30
0.0
 10
-111.4241
 20
-106.9796
 30
0.0
 10
-110.2933
 20
-109.0095
 30
0.0
 10
-110.2933
 20
-109.0095
 30
0.0
 10
-109.1637
 20
-111.0393
 30
0.0
 10
-106.579
 20
-111.7559
 30
0.0
 10
-104.5217
 20
-110.6098
 30
0.0
  0
SPLINE
  5
8C
330
1F
100
AcDbEntity
  8
Camada 1
 62
   250
370
     9
100
AcDbSpline
210
0.0
220
0.0
230
1.0
 70
    11
 71
     3
 72
    80
 73
    76
 74
     0
 42
0.000000001
 43
0.0000000001
 40
0.0
 40
0.0
 40
0.0
 40
0.0
 40
0.05
 40
0.05
 40
0.05
 40
0.05
 40
0.1
 40
0.1
 40
0.1
 40
0.1
 40
0.15
 40
0.15
 40
0.15
 40
0.15
 40
0.2
 40
0.2
 40
0.2
 40
0.2
 40
0.25
 40
0.25
 40
0.25
 40
0.25
 40
0.3
 40
0.3
 40
0.3
 40
0.3
 40
0.35
 40
0.35
 40
0.35
 40
0.35
 40
0.4
 40
0.4
 40
0.4
 40
0.4
 40
0.45
 40
0.45
 40
0.45
 40
0.45
 40
0.5
 40
0.5
 40
0.5
 40
0.5
 40
0.55
 40
0.55
 40
0.55
 40
0.55
 40
0.6
 40
0.6
 40
0.6
 40
0.6
 40
0.65
 40
0.65
 40
0.65
 40
0.65
 40
0.7
 40
0.7
 40
0.7
 40
0.7
 40
0.75
 40
0.75
 40
0.75
 40
0.75
 40
0.8
 40
0.8
 40
0.8
 40
0.8
 40
0.85
 40
0.85
 40
0.85
 40
0.85
 40
0.9
 40
0.9
 40
0.9
 40
0.9
 40
1.0
 40
1.0
 40
1.0
 40
1.0
 10
-51.576
 20
-108.6396
 30
0.0
 10
-51.576
 20
-108.6396
 30
0.0
 10
-51.8881
 20
-111.754
 30
0.0
 10
-49.1885
 20
-113.3113
 30
0.0
 10
-49.1885
 20
-113.3113
 30
0.0
 10
-46.4889
 20
-114.8685
 30
0.0
 10
-44.3087
 20
-114.1416
 30
0.0
 10
-43.3744
 20
-112.8958
 30
0.0
 10
-43.3744
 20
-112.8958
 30
0.0
 10
-42.4401
 20
-111.65
 30
0.0
 10
-42.1286
 20
-108.7954
 30
0.0
 10
-44.8799
 20
-106.4595
 30
0.0
 10
-44.8799
 20
-106.4595
 30
0.0
 10
-47.6313
 20
-104.1237
 30
0.0
 10
-54.4831
 20
-103.0829
 30
0.0
 10
-58.0124
 20
-111.1561
 30
0.0
 10
-58.0124
 20
-111.1561
 30
0.0
 10
-58.7393
 20
-112.5843
 30
0.0
 10
-60.0891
 20
-112.1695
 30
0.0
 10
-60.3908
 20
-109.8854
 30
0.0
 10
-60.3908
 20
-109.8854
 30
0.0
 10
-61.987
 20
-95.349
 30
0.0
 10
-52.4161
 20
-87.0002
 30
0.0
 10
-42.1809
 20
-89.1742
 30
0.0
 10
-42.1809
 20
-89.1742
 30
0.0
 10
-37.575
 20
-90.1524
 30
0.0
 10
-34.5712
 20
-93.7565
 30
0.0
 10
-31.8351
 20
-97.8212
 30
0.0
 10
-31.8351
 20
-97.8212
 30
0.0
 10
-34.0967
 20
-97.2779
 30
0.0
 10
-36.5184
 20
-98.25
 30
0.0
 10
-37.6911
 20
-100.3559
 30
0.0
 10
-37.6911
 20
-100.3559
 30
0.0
 10
-39.106
 20
-102.8967
 30
0.0
 10
-38.165
 20
-106.1195
 30
0.0
 10
-35.5895
 20
-107.5532
 30
0.0
 10
-35.5895
 20
-107.5532
 30
0.0
 10
-34.9873
 20
-107.8884
 30
0.0
 10
-34.3479
 20
-108.0916
 30
0.0
 10
-33.705
 20
-108.181
 30
0.0
 10
-33.705
 20
-108.181
 30
0.0
 10
-34.3169
 20
-108.4128
 30
0.0
 10
-34.896
 20
-108.7577
 30
0.0
 10
-35.4046
 20
-109.2266
 30
0.0
 10
-35.4046
 20
-109.2266
 30
0.0
 10
-37.5458
 20
-111.1999
 30
0.0
 10
-37.6516
 20
-114.5419
 30
0.0
 10
-35.6381
 20
-116.691
 30
0.0
 10
-35.6381
 20
-116.691
 30
0.0
 10
-33.626
 20
-118.8401
 30
0.0
 10
-30.2584
 20
-118.9824
 30
0.0
 10
-28.1172
 20
-117.0097
 30
0.0
 10
-28.1172
 20
-117.0097
 30
0.0
 10
-27.616
 20
-116.5474
 30
0.0
 10
-27.2315
 20
-116.0091
 30
0.0
 10
-26.9541
 20
-115.4306
 30
0.0
 10
-26.9541
 20
-115.4306
 30
0.0
 10
-26.9152
 20
-116.0827
 30
0.0
 10
-26.7571
 20
-116.7396
 30
0.0
 10
-26.459
 20
-117.3704
 30
0.0
 10
-26.459
 20
-117.3704
 30
0.0
 10
-25.2077
 20
-120.0238
 30
0.0
 10
-22.0379
 20
-121.1923
 30
0.0
 10
-19.3785
 20
-119.9788
 30
0.0
 10
-19.3785
 20
-119.9788
 30
0.0
 10
-19.0841
 20
-119.8443
 30
0.0
 10
-18.8109
 20
-119.6831
 30
0.0
 10
-18.5548
 20
-119.5043
 30
0.0
 10
-18.5548
 20
-119.5043
 30
0.0
 10
-23.7466
 20
-124.8403
 30
0.0
 10
-31.2694
 20
-130.7006
 30
0.0
 10
-39.2739
 20
-130.7006
 30
0.0
 10
-39.2739
 20
-130.7006
 30
0.0
 10
-48.0972
 20
-130.7006
 30
0.0
 10
-63.515
 20
-120.682
 30
0.0
 10
-51.576
 20
-108.6396
 30
0.0
  0
SPLINE
  5
8D
330
1F
100
AcDbEntity
  8
Camada 1
 62
   250
370
     9
100
AcDbSpline
210
0.0
220
0.0
230
1.0
 70
    11
 71
     3
 72
    80
 73
    76
 74
     0
 42
0.000000001
 43
0.0000000001
 40
0.0
 40
0.0
 40
0.0
 40
0.0
 40
0.05
 40
0.05
 40
0.05
 40
0.05
 40
0.1
 40
0.1
 40
0.1
 40
0.1
 40
0.15
 40
0.15
 40
0.15
 40
0.15
 40
0.2
 40
0.2
 40
0.2
 40
0.2
 40
0.25
 40
0.25
 40
0.25
 40
0.25
 40
0.3
 40
0.3
 40
0.3
 40
0.3
 40
0.35
 40
0.35
 40
0.35
 40
0.35
 40
0.4
 40
0.4
 40
0.4
 40
0.4
 40
0.45
 40
0.45
 40
0.45
 40
0.45
 40
0.5
 40
0.5
 40
0.5
 40
0.5
 40
0.55
 40
0.55
 40
0.55
 40
0.55
 40
0.6
 40
0.6
 40
0.6
 40
0.6
 40
0.65
 40
0.65
 40
0.65
 40
0.65
 40
0.7
 40
0.7
 40
0.7
 40
0.7
 40
0.75
 40
0.75
 40
0.75
 40
0.75
 40
0.8
 40
0.8
 40
0.8
 40
0.8
 40
0.85
 40
0.85
 40
0.85
 40
0.85
 40
0.9
 40
0.9
 40
0.9
 40
0.9
 40
1.0
 40
1.0
 40
1.0
 40
1.0
 10
3.9857
 20
-117.3704
 30
0.0
 10
4.2832
 20
-116.7396
 30
0.0
 10
4.4419
 20
-116.0827
 30
0.0
 10
4.4809
 20
-115.4306
 30
0.0
 10
4.4809
 20
-115.4306
 30
0.0
 10
4.7576
 20
-116.0091
 30
0.0
 10
5.1427
 20
-116.5474
 30
0.0
 10
5.6433
 20
-117.0097
 30
0.0
 10
5.6433
 20
-117.0097
 30
0.0
 10
7.7845
 20
-118.9824
 30
0.0
 10
11.1526
 20
-118.8401
 30
0.0
 10
13.1649
 20
-116.691
 30
0.0
 10
13.1649
 20
-116.691
 30
0.0
 10
15.1777
 20
-114.5419
 30
0.0
 10
15.0725
 20
-111.1999
 30
0.0
 10
12.9307
 20
-109.2266
 30
0.0
 10
12.9307
 20
-109.2266
 30
0.0
 10
12.4221
 20
-108.7577
 30
0.0
 10
11.8436
 20
-108.4128
 30
0.0
 10
11.2311
 20
-108.181
 30
0.0
 10
11.2311
 20
-108.181
 30
0.0
 10
11.874
 20
-108.0916
 30
0.0
 10
12.5134
 20
-107.8884
 30
0.0
 10
13.1156
 20
-107.5532
 30
0.0
 10
13.1156
 20
-107.5532
 30
0.0
 10
15.6911
 20
-106.1195
 30
0.0
 10
16.6321
 20
-102.8967
 30
0.0
 10
15.2172
 20
-100.3559
 30
0.0
 10
15.2172
 20
-100.3559
 30
0.0
 10
14.0445
 20
-98.25
 30
0.0
 10
11.6228
 20
-97.2779
 30
0.0
 10
9.3612
 20
-97.8212
 30
0.0
 10
9.3612
 20
-97.8212
 30
0.0
 10
12.0979
 20
-93.7565
 30
0.0
 10
15.1017
 20
-90.1524
 30
0.0
 10
19.707
 20
-89.1742
 30
0.0
 10
19.707
 20
-89.1742
 30
0.0
 10
29.9422
 20
-87.0002
 30
0.0
 10
39.5137
 20
-95.349
 30
0.0
 10
37.9176
 20
-109.8854
 30
0.0
 10
37.9176
 20
-109.8854
 30
0.0
 10
37.6152
 20
-112.1695
 30
0.0
 10
36.2654
 20
-112.5843
 30
0.0
 10
35.5391
 20
-111.1561
 30
0.0
 10
35.5391
 20
-111.1561
 30
0.0
 10
32.0092
 20
-103.0829
 30
0.0
 10
25.1574
 20
-104.1237
 30
0.0
 10
22.406
 20
-106.4595
 30
0.0
 10
22.406
 20
-106.4595
 30
0.0
 10
19.6547
 20
-108.7954
 30
0.0
 10
19.9668
 20
-111.65
 30
0.0
 10
20.9011
 20
-112.8958
 30
0.0
 10
20.9011
 20
-112.8958
 30
0.0
 10
21.8355
 20
-114.1416
 30
0.0
 10
24.0156
 20
-114.8685
 30
0.0
 10
26.7146
 20
-113.3113
 30
0.0
 10
26.7146
 20
-113.3113
 30
0.0
 10
29.4142
 20
-111.754
 30
0.0
 10
29.1021
 20
-108.6396
 30
0.0
 10
29.1021
 20
-108.6396
 30
0.0
 10
29.1021
 20
-108.6396
 30
0.0
 10
41.0411
 20
-120.682
 30
0.0
 10
25.6233
 20
-130.7006
 30
0.0
 10
16.8
 20
-130.7006
 30
0.0
 10
16.8
 20
-130.7006
 30
0.0
 10
8.7955
 20
-130.7006
 30
0.0
 10
1.2727
 20
-124.8403
 30
0.0
 10
-3.9191
 20
-119.5043
 30
0.0
 10
-3.9191
 20
-119.5043
 30
0.0
 10
-3.6629
 20
-119.6831
 30
0.0
 10
-3.3899
 20
-119.8443
 30
0.0
 10
-3.0948
 20
-119.9788
 30
0.0
 10
-3.0948
 20
-119.9788
 30
0.0
 10
-0.436
 20
-121.1923
 30
0.0
 10
2.7338
 20
-120.0238
 30
0.0
 10
3.9857
 20
-117.3704
 30
0.0
  0
SPLINE
  5
8E
330
1F
100
AcDbEntity
  8
Camada 1
 62
   250
370
     9
100
AcDbSpline
210
0.0
220
0.0
230
1.0
 70
    11
 71
     3
 72
    20
 73
    16
 74
     0
 42
0.000000001
 43
0.0000000001
 40
0.0
 40
0.0
 40
0.0
 40
0.0
 40
0.2
 40
0.2
 40
0.2
 40
0.2
 40
0.4
 40
0.4
 40
0.4
 40
0.4
 40
0.6
 40
0.6
 40
0.6
 40
0.6
 40
1.0
 40
1.0
 40
1.0
 40
1.0
 10
-27.414
 20
-110.6098
 30
0.0
 10
-29.4725
 20
-109.4645
 30
0.0
 10
-30.2237
 20
-106.8902
 30
0.0
 10
-29.0929
 20
-104.8604
 30
0.0
 10
-29.0929
 20
-104.8604
 30
0.0
 10
-27.9633
 20
-102.8305
 30
0.0
 10
-25.3787
 20
-102.1139
 30
0.0
 10
-23.3214
 20
-103.2593
 30
0.0
 10
-23.3214
 20
-103.2593
 30
0.0
 10
-21.2642
 20
-104.4053
 30
0.0
 10
-20.5123
 20
-106.9796
 30
0.0
 10
-21.6426
 20
-109.0095
 30
0.0
 10
-21.6426
 20
-109.0095
 30
0.0
 10
-22.7727
 20
-111.0393
 30
0.0
 10
-25.3568
 20
-111.7559
 30
0.0
 10
-27.414
 20
-110.6098
 30
0.0
  0
SPLINE
  5
8F
330
1F
100
AcDbEntity
  8
Camada 1
 62
   250
370
     9
100
AcDbSpline
210
0.0
220
0.0
230
1.0
 70
    11
 71
     3
 72
    20
 73
    16
 74
     0
 42
0.000000001
 43
0.0000000001
 40
0.0
 40
0.0
 40
0.0
 40
0.0
 40
0.2
 40
0.2
 40
0.2
 40
0.2
 40
0.4
 40
0.4
 40
0.4
 40
0.4
 40
0.6
 40
0.6
 40
0.6
 40
0.6
 40
1.0
 40
1.0
 40
1.0
 40
1.0
 10
4.9408
 20
-110.6098
 30
0.0
 10
6.9986
 20
-109.4645
 30
0.0
 10
7.7498
 20
-106.8902
 30
0.0
 10
6.6196
 20
-104.8604
 30
0.0
 10
6.6196
 20
-104.8604
 30
0.0
 10
5.4894
 20
-102.8305
 30
0.0
 10
2.9054
 20
-102.1139
 30
0.0
 10
0.8482
 20
-103.2593
 30
0.0
 10
0.8482
 20
-103.2593
 30
0.0
 10
-1.2097
 20
-104.4053
 30
0.0
 10
-1.9616
 20
-106.9796
 30
0.0
 10
-0.8308
 20
-109.0095
 30
0.0
 10
-0.8308
 20
-109.0095
 30
0.0
 10
0.2988
 20
-111.0393
 30
0.0
 10
2.8835
 20
-111.7559
 30
0.0
 10
4.9408
 20
-110.6098
 30
0.0
  0
SPLINE
  5
90
330
1F
100
AcDbEntity
  8
Camada 1
 62
   250
370
     9
100
AcDbSpline
210
0.0
220
0.0
230
1.0
 70
    11
 71
     3
 72
    80
 73
    76
 74
     0
 42
0.000000001
 43
0.0000000001
 40
0.0
 40
0.0
 40
0.0
 40
0.0
 40
0.05
 40
0.05
 40
0.05
 40
0.05
 40
0.1
 40
0.1
 40
0.1
 40
0.1
 40
0.15
 40
0.15
 40
0.15
 40
0.15
 40
0.2
 40
0.2
 40
0.2
 40
0.2
 40
0.25
 40
0.25
 40
0.25
 40
0.25
 40
0.3
 40
0.3
 40
0.3
 40
0.3
 40
0.35
 40
0.35
 40
0.35
 40
0.35
 40
0.4
 40
0.4
 40
0.4
 40
0.4
 40
0.45
 40
0.45
 40
0.45
 40
0.45
 40
0.5
 40
0.5
 40
0.5
 40
0.5
 40
0.55
 40
0.55
 40
0.55
 40
0.55
 40
0.6
 40
0.6
 40
0.6
 40
0.6
 40
0.65
 40
0.65
 40
0.65
 40
0.65
 40
0.7
 40
0.7
 40
0.7
 40
0.7
 40
0.75
 40
0.75
 40
0.75
 40
0.75
 40
0.8
 40
0.8
 40
0.8
 40
0.8
 40
0.85
 40
0.85
 40
0.85
 40
0.85
 40
0.9
 40
0.9
 40
0.9
 40
0.9
 40
1.0
 40
1.0
 40
1.0
 40
1.0
 10
-161.0385
 20
-108.6396
 30
0.0
 10
-161.0385
 20
-108.6396
 30
0.0
 10
-161.3506
 20
-111.754
 30
0.0
 10
-158.651
 20
-113.3113
 30
0.0
 10
-158.651
 20
-113.3113
 30
0.0
 10
-155.9514
 20
-114.8685
 30
0.0
 10
-153.7712
 20
-114.1416
 30
0.0
 10
-152.8369
 20
-112.8958
 30
0.0
 10
-152.8369
 20
-112.8958
 30
0.0
 10
-151.9026
 20
-111.65
 30
0.0
 10
-151.5911
 20
-108.7954
 30
0.0
 10
-154.3424
 20
-106.4595
 30
0.0
 10
-154.3424
 20
-106.4595
 30
0.0
 10
-157.0938
 20
-104.1237
 30
0.0
 10
-163.9456
 20
-103.0829
 30
0.0
 10
-167.4749
 20
-111.1561
 30
0.0
 10
-167.4749
 20
-111.1561
 30
0.0
 10
-168.2018
 20
-112.5843
 30
0.0
 10
-169.5516
 20
-112.1695
 30
0.0
 10
-169.8533
 20
-109.8854
 30
0.0
 10
-169.8533
 20
-109.8854
 30
0.0
 10
-171.4495
 20
-95.349
 30
0.0
 10
-161.8786
 20
-87.0002
 30
0.0
 10
-151.6434
 20
-89.1742
 30
0.0
 10
-151.6434
 20
-89.1742
 30
0.0
 10
-147.0375
 20
-90.1524
 30
0.0
 10
-144.0337
 20
-93.7565
 30
0.0
 10
-141.2976
 20
-97.8212
 30
0.0
 10
-141.2976
 20
-97.8212
 30
0.0
 10
-143.5592
 20
-97.2779
 30
0.0
 10
-145.9809
 20
-98.25
 30
0.0
 10
-147.1536
 20
-100.3559
 30
0.0
 10
-147.1536
 20
-100.3559
 30
0.0
 10
-148.5685
 20
-102.8967
 30
0.0
 10
-147.6275
 20
-106.1195
 30
0.0
 10
-145.052
 20
-107.5532
 30
0.0
 10
-145.052
 20
-107.5532
 30
0.0
 10
-144.4498
 20
-107.8884
 30
0.0
 10
-143.8104
 20
-108.0916
 30
0.0
 10
-143.1675
 20
-108.181
 30
0.0
 10
-143.1675
 20
-108.181
 30
0.0
 10
-143.7794
 20
-108.4128
 30
0.0
 10
-144.3585
 20
-108.7577
 30
0.0
 10
-144.8671
 20
-109.2266
 30
0.0
 10
-144.8671
 20
-109.2266
 30
0.0
 10
-147.0083
 20
-111.1999
 30
0.0
 10
-147.1141
 20
-114.5419
 30
0.0
 10
-145.1006
 20
-116.691
 30
0.0
 10
-145.1006
 20
-116.691
 30
0.0
 10
-143.0885
 20
-118.8401
 30
0.0
 10
-139.7209
 20
-118.9824
 30
0.0
 10
-137.5797
 20
-117.0097
 30
0.0
 10
-137.5797
 20
-117.0097
 30
0.0
 10
-137.0785
 20
-116.5474
 30
0.0
 10
-136.694
 20
-116.0091
 30
0.0
 10
-136.4166
 20
-115.4306
 30
0.0
 10
-136.4166
 20
-115.4306
 30
0.0
 10
-136.3777
 20
-116.0827
 30
0.0
 10
-136.2196
 20
-116.7396
 30
0.0
 10
-135.9215
 20
-117.3704
 30
0.0
 10
-135.9215
 20
-117.3704
 30
0.0
 10
-134.6702
 20
-120.0238
 30
0.0
 10
-131.5004
 20
-121.1923
 30
0.0
 10
-128.841
 20
-119.9788
 30
0.0
 10
-128.841
 20
-119.9788
 30
0.0
 10
-128.5466
 20
-119.8443
 30
0.0
 10
-128.2734
 20
-119.6831
 30
0.0
 10
-128.0173
 20
-119.5043
 30
0.0
 10
-128.0173
 20
-119.5043
 30
0.0
 10
-133.2091
 20
-124.8403
 30
0.0
 10
-140.7319
 20
-130.7006
 30
0.0
 10
-148.7364
 20
-130.7006
 30
0.0
 10
-148.7364
 20
-130.7006
 30
0.0
 10
-157.5597
 20
-130.7006
 30
0.0
 10
-172.9775
 20
-120.682
 30
0.0
 10
-161.0385
 20
-108.6396
 30
0.0
  0
SPLINE
  5
91
330
1F
100
AcDbEntity
  8
Camada 1
 62
   250
370
     9
100
AcDbSpline
210
0.0
220
0.0
230
1.0
 70
    11
 71
     3
 72
    80
 73
    76
 74
     0
 42
0.000000001
 43
0.0000000001
 40
0.0
 40
0.0
 40
0.0
 40
0.0
 40
0.05
 40
0.05
 40
0.05
 40
0.05
 40
0.1
 40
0.1
 40
0.1
 40
0.1
 40
0.15
 40
0.15
 40
0.15
 40
0.15
 40
0.2
 40
0.2
 40
0.2
 40
0.2
 40
0.25
 40
0.25
 40
0.25
 40
0.25
 40
0.3
 40
0.3
 40
0.3
 40
0.3
 40
0.35
 40
0.35
 40
0.35
 40
0.35
 40
0.4
 40
0.4
 40
0.4
 40
0.4
 40
0.45
 40
0.45
 40
0.45
 40
0.45
 40
0.5
 40
0.5
 40
0.5
 40
0.5
 40
0.55
 40
0.55
 40
0.55
 40
0.55
 40
0.6
 40
0.6
 40
0.6
 40
0.6
 40
0.65
 40
0.65
 40
0.65
 40
0.65
 40
0.7
 40
0.7
 40
0.7
 40
0.7
 40
0.75
 40
0.75
 40
0.75
 40
0.75
 40
0.8
 40
0.8
 40
0.8
 40
0.8
 40
0.85
 40
0.85
 40
0.85
 40
0.85
 40
0.9
 40
0.9
 40
0.9
 40
0.9
 40
1.0
 40
1.0
 40
1.0
 40
1.0
 10
-105.4768
 20
-117.3704
 30
0.0
 10
-105.1793
 20
-116.7396
 30
0.0
 10
-105.0206
 20
-116.0827
 30
0.0
 10
-104.9816
 20
-115.4306
 30
0.0
 10
-104.9816
 20
-115.4306
 30
0.0
 10
-104.7049
 20
-116.0091
 30
0.0
 10
-104.3198
 20
-116.5474
 30
0.0
 10
-103.8192
 20
-117.0097
 30
0.0
 10
-103.8192
 20
-117.0097
 30
0.0
 10
-101.678
 20
-118.9824
 30
0.0
 10
-98.3099
 20
-118.8401
 30
0.0
 10
-96.2976
 20
-116.691
 30
0.0
 10
-96.2976
 20
-116.691
 30
0.0
 10
-94.2848
 20
-114.5419
 30
0.0
 10
-94.39
 20
-111.1999
 30
0.0
 10
-96.5318
 20
-109.2266
 30
0.0
 10
-96.5318
 20
-109.2266
 30
0.0
 10
-97.0404
 20
-108.7577
 30
0.0
 10
-97.6189
 20
-108.4128
 30
0.0
 10
-98.2314
 20
-108.181
 30
0.0
 10
-98.2314
 20
-108.181
 30
0.0
 10
-97.5885
 20
-108.0916
 30
0.0
 10
-96.9491
 20
-107.8884
 30
0.0
 10
-96.3469
 20
-107.5532
 30
0.0
 10
-96.3469
 20
-107.5532
 30
0.0
 10
-93.7714
 20
-106.1195
 30
0.0
 10
-92.8304
 20
-102.8967
 30
0.0
 10
-94.2453
 20
-100.3559
 30
0.0
 10
-94.2453
 20
-100.3559
 30
0.0
 10
-95.418
 20
-98.25
 30
0.0
 10
-97.8397
 20
-97.2779
 30
0.0
 10
-100.1013
 20
-97.8212
 30
0.0
 10
-100.1013
 20
-97.8212
 30
0.0
 10
-97.3646
 20
-93.7565
 30
0.0
 10
-94.3608
 20
-90.1524
 30
0.0
 10
-89.7555
 20
-89.1742
 30
0.0
 10
-89.7555
 20
-89.1742
 30
0.0
 10
-79.5203
 20
-87.0002
 30
0.0
 10
-69.9488
 20
-95.349
 30
0.0
 10
-71.5449
 20
-109.8854
 30
0.0
 10
-71.5449
 20
-109.8854
 30
0.0
 10
-71.8473
 20
-112.1695
 30
0.0
 10
-73.1971
 20
-112.5843
 30
0.0
 10
-73.9234
 20
-111.1561
 30
0.0
 10
-73.9234
 20
-111.1561
 30
0.0
 10
-77.4533
 20
-103.0829
 30
0.0
 10
-84.3051
 20
-104.1237
 30
0.0
 10
-87.0565
 20
-106.4595
 30
0.0
 10
-87.0565
 20
-106.4595
 30
0.0
 10
-89.8078
 20
-108.7954
 30
0.0
 10
-89.4957
 20
-111.65
 30
0.0
 10
-88.5614
 20
-112.8958
 30
0.0
 10
-88.5614
 20
-112.8958
 30
0.0
 10
-87.627
 20
-114.1416
 30
0.0
 10
-85.4469
 20
-114.8685
 30
0.0
 10
-82.7479
 20
-113.3113
 30
0.0
 10
-82.7479
 20
-113.3113
 30
0.0
 10
-80.0483
 20
-111.754
 30
0.0
 10
-80.3604
 20
-108.6396
 30
0.0
 10
-80.3604
 20
-108.6396
 30
0.0
 10
-80.3604
 20
-108.6396
 30
0.0
 10
-68.4214
 20
-120.682
 30
0.0
 10
-83.8392
 20
-130.7006
 30
0.0
 10
-92.6625
 20
-130.7006
 30
0.0
 10
-92.6625
 20
-130.7006
 30
0.0
 10
-100.667
 20
-130.7006
 30
0.0
 10
-108.1898
 20
-124.8403
 30
0.0
 10
-113.3816
 20
-119.5043
 30
0.0
 10
-113.3816
 20
-119.5043
 30
0.0
 10
-113.1254
 20
-119.6831
 30
0.0
 10
-112.8524
 20
-119.8443
 30
0.0
 10
-112.5573
 20
-119.9788
 30
0.0
 10
-112.5573
 20
-119.9788
 30
0.0
 10
-109.8985
 20
-121.1923
 30
0.0
 10
-106.7287
 20
-120.0238
 30
0.0
 10
-105.4768
 20
-117.3704
 30
0.0
  0
SPLINE
  5
92
330
1F
100
AcDbEntity
  8
Camada 1
 62
   250
370
     9
100
AcDbSpline
210
0.0
220
0.0
230
1.0
 70
    11
 71
     3
 72
    20
 73
    16
 74
     0
 42
0.000000001
 43
0.0000000001
 40
0.0
 40
0.0
 40
0.0
 40
0.0
 40
0.2
 40
0.2
 40
0.2
 40
0.2
 40
0.4
 40
0.4
 40
0.4
 40
0.4
 40
0.6
 40
0.6
 40
0.6
 40
0.6
 40
1.0
 40
1.0
 40
1.0
 40
1.0
 10
-136.8765
 20
-110.6098
 30
0.0
 10
-138.935
 20
-109.4645
 30
0.0
 10
-139.6862
 20
-106.8902
 30
0.0
 10
-138.5554
 20
-104.8604
 30
0.0
 10
-138.5554
 20
-104.8604
 30
0.0
 10
-137.4258
 20
-102.8305
 30
0.0
 10
-134.8412
 20
-102.1139
 30
0.0
 10
-132.7839
 20
-103.2593
 30
0.0
 10
-132.7839
 20
-103.2593
 30
0.0
 10
-130.7267
 20
-104.4053
 30
0.0
 10
-129.9748
 20
-106.9796
 30
0.0
 10
-131.1051
 20
-109.0095
 30
0.0
 10
-131.1051
 20
-109.0095
 30
0.0
 10
-132.2352
 20
-111.0393
 30
0.0
 10
-134.8193
 20
-111.7559
 30
0.0
 10
-136.8765
 20
-110.6098
 30
0.0
  0
SPLINE
  5
93
330
1F
100
AcDbEntity
  8
Camada 1
 62
   250
370
     9
100
AcDbSpline
210
0.0
220
0.0
230
1.0
 70
     8
 71
     3
 72
    12
 73
     8
 74
     0
 42
0.000000001
 43
0.0000000001
 40
0.0
 40
0.0
 40
0.0
 40
0.0
 40
0.3333333333333333
 40
0.3333333333333333
 40
0.3333333333333333
 40
0.3333333333333333
 40
1.0
 40
1.0
 40
1.0
 40
1.0
 10
98.4126
 20
-136.0419
 30
0.0
 10
110.3925
 20
-133.9836
 30
0.0
 10
116.7723
 20
-125.4746
 30
0.0
 10
123.2518
 20
-118.6107
 30
0.0
 10
123.2518
 20
-118.6107
 30
0.0
 10
129.7309
 20
-125.4745
 30
0.0
 10
136.1107
 20
-133.9834
 30
0.0
 10
148.0902
 20
-136.0418
 30
0.0
  0
SPLINE
  5
94
330
1F
100
AcDbEntity
  8
Camada 1
 62
   250
370
     9
100
AcDbSpline
210
0.0
220
0.0
230
1.0
 70
     8
 71
     3
 72
    12
 73
     8
 74
     0
 42
0.000000001
 43
0.0000000001
 40
0.0
 40
0.0
 40
0.0
 40
0.0
 40
0.3333333333333333
 40
0.3333333333333333
 40
0.3333333333333333
 40
0.3333333333333333
 40
1.0
 40
1.0
 40
1.0
 40
1.0
 10
87.9128
 20
-136.0418
 30
0.0
 10
87.9128
 20
-136.0418
 30
0.0
 10
68.6672
 20
-136.0418
 30
0.0
 10
68.6672
 20
-136.0418
 30
0.0
 10
68.6672
 20
-136.0418
 30
0.0
 10
68.6672
 20
-136.0418
 30
0.0
 10
68.6672
 20
-113.1815
 30
0.0
 10
68.6672
 20
-113.1815
 30
0.0
  0
SPLINE
  5
95
330
1F
100
AcDbEntity
  8
Camada 1
 62
   250
370
     9
100
AcDbSpline
210
0.0
220
0.0
230
1.0
 70
    11
 71
     3
 72
    16
 73
    12
 74
     0
 42
0.000000001
 43
0.0000000001
 40
0.0
 40
0.0
 40
0.0
 40
0.0
 40
0.25
 40
0.25
 40
0.25
 40
0.25
 40
0.5
 40
0.5
 40
0.5
 40
0.5
 40
1.0
 40
1.0
 40
1.0
 40
1.0
 10
68.6672
 20
-102.695
 30
0.0
 10
68.6672
 20
-102.695
 30
0.0
 10
68.6672
 20
-85.0163
 30
0.0
 10
68.6672
 20
-85.0163
 30
0.0
 10
68.6672
 20
-85.0163
 30
0.0
 10
68.6672
 20
-85.0163
 30
0.0
 10
84.7022
 20
-85.0163
 30
0.0
 10
84.7022
 20
-85.0163
 30
0.0
 10
84.7022
 20
-85.0163
 30
0.0
 10
76.7749
 20
-86.7684
 30
0.0
 10
70.4173
 20
-93.7923
 30
0.0
 10
68.6672
 20
-102.695
 30
0.0
  0
SPLINE
  5
96
330
1F
100
AcDbEntity
  8
Camada 1
 62
   250
370
     9
100
AcDbSpline
210
0.0
220
0.0
230
1.0
 70
    11
 71
     3
 72
   120
 73
   116
 74
     0
 42
0.000000001
 43
0.0000000001
 40
0.0
 40
0.0
 40
0.0
 40
0.0
 40
0.0333333333333333
 40
0.0333333333333333
 40
0.0333333333333333
 40
0.0333333333333333
 40
0.0666666666666667
 40
0.0666666666666667
 40
0.0666666666666667
 40
0.0666666666666667
 40
0.1
 40
0.1
 40
0.1
 40
0.1
 40
0.1333333333333333
 40
0.1333333333333333
 40
0.1333333333333333
 40
0.1333333333333333
 40
0.1666666666666667
 40
0.1666666666666667
 40
0.1666666666666667
 40
0.1666666666666667
 40
0.2
 40
0.2
 40
0.2
 40
0.2
 40
0.2333333333333333
 40
0.2333333333333333
 40
0.2333333333333333
 40
0.2333333333333333
 40
0.2666666666666667
 40
0.2666666666666667
 40
0.2666666666666667
 40
0.2666666666666667
 40
0.3
 40
0.3
 40
0.3
 40
0.3
 40
0.3333333333333333
 40
0.3333333333333333
 40
0.3333333333333333
 40
0.3333333333333333
 40
0.3666666666666666
 40
0.3666666666666666
 40
0.3666666666666666
 40
0.3666666666666666
 40
0.4
 40
0.4
 40
0.4
 40
0.4
 40
0.4333333333333333
 40
0.4333333333333333
 40
0.4333333333333333
 40
0.4333333333333333
 40
0.4666666666666667
 40
0.4666666666666667
 40
0.4666666666666667
 40
0.4666666666666667
 40
0.5
 40
0.5
 40
0.5
 40
0.5
 40
0.5333333333333333
 40
0.5333333333333333
 40
0.5333333333333333
 40
0.5333333333333333
 40
0.5666666666666667
 40
0.5666666666666667
 40
0.5666666666666667
 40
0.5666666666666667
 40
0.6
 40
0.6
 40
0.6
 40
0.6
 40
0.6333333333333333
 40
0.6333333333333333
 40
0.6333333333333333
 40
0.6333333333333333
 40
0.6666666666666666
 40
0.6666666666666666
 40
0.6666666666666666
 40
0.6666666666666666
 40
0.7
 40
0.7
 40
0.7
 40
0.7
 40
0.7333333333333333
 40
0.7333333333333333
 40
0.7333333333333333
 40
0.7333333333333333
 40
0.7666666666666667
 40
0.7666666666666667
 40
0.7666666666666667
 40
0.7666666666666667
 40
0.8
 40
0.8
 40
0.8
 40
0.8
 40
0.8333333333333334
 40
0.8333333333333334
 40
0.8333333333333334
 40
0.8333333333333334
 40
0.8666666666666667
 40
0.8666666666666667
 40
0.8666666666666667
 40
0.8666666666666667
 40
0.9
 40
0.9
 40
0.9
 40
0.9
 40
0.9333333333333333
 40
0.9333333333333333
 40
0.9333333333333333
 40
0.9333333333333333
 40
1.0
 40
1.0
 40
1.0
 40
1.0
 10
154.0261
 20
-85.0163
 30
0.0
 10
154.0261
 20
-85.0163
 30
0.0
 10
92.4773
 20
-85.0163
 30
0.0
 10
92.4773
 20
-85.0163
 30
0.0
 10
92.4773
 20
-85.0163
 30
0.0
 10
92.904
 20
-85.1085
 30
0.0
 10
93.3321
 20
-85.2164
 30
0.0
 10
93.7615
 20
-85.3402
 30
0.0
 10
93.7615
 20
-85.3402
 30
0.0
 10
99.3067
 20
-86.9382
 30
0.0
 10
102.7301
 20
-91.4401
 30
0.0
 10
105.9808
 20
-96.4026
 30
0.0
 10
105.9808
 20
-96.4026
 30
0.0
 10
106.987
 20
-94.279
 30
0.0
 10
109.349
 20
-93.0302
 30
0.0
 10
111.7889
 20
-93.5193
 30
0.0
 10
111.7889
 20
-93.5193
 30
0.0
 10
114.6758
 20
-94.0978
 30
0.0
 10
116.57
 20
-96.8856
 30
0.0
 10
116.0201
 20
-99.7452
 30
0.0
 10
116.0201
 20
-99.7452
 30
0.0
 10
115.8899
 20
-100.4247
 30
0.0
 10
115.6296
 20
-101.0439
 30
0.0
 10
115.2756
 20
-101.5902
 30
0.0
 10
115.2756
 20
-101.5902
 30
0.0
 10
115.8443
 20
-101.2878
 30
0.0
 10
116.4769
 20
-101.0804
 30
0.0
 10
117.1589
 20
-101.0025
 30
0.0
 10
117.1589
 20
-101.0025
 30
0.0
 10
120.0738
 20
-100.6692
 30
0.0
 10
122.7369
 20
-102.7483
 30
0.0
 10
123.1065
 20
-105.6474
 30
0.0
 10
123.1065
 20
-105.6474
 30
0.0
 10
123.4756
 20
-108.5459
 30
0.0
 10
121.4114
 20
-111.1664
 30
0.0
 10
118.4965
 20
-111.4992
 30
0.0
 10
118.4965
 20
-111.4992
 30
0.0
 10
117.8036
 20
-111.5789
 30
0.0
 10
117.1272
 20
-111.518
 30
0.0
 10
116.491
 20
-111.3465
 30
0.0
 10
116.491
 20
-111.3465
 30
0.0
 10
116.963
 20
-111.793
 30
0.0
 10
117.3633
 20
-112.3289
 30
0.0
 10
117.6565
 20
-112.9494
 30
0.0
 10
117.6565
 20
-112.9494
 30
0.0
 10
118.4399
 20
-114.6106
 30
0.0
 10
118.286
 20
-116.461
 30
0.0
 10
117.4089
 20
-117.9099
 30
0.0
 10
117.4089
 20
-117.9099
 30
0.0
 10
118.8292
 20
-116.3515
 30
0.0
 10
120.0227
 20
-114.8971
 30
0.0
 10
120.9352
 20
-113.7237
 30
0.0
 10
120.9352
 20
-113.7237
 30
0.0
 10
121.378
 20
-113.2249
 30
0.0
 10
122.2953
 20
-112.8563
 30
0.0
 10
123.1643
 20
-112.8368
 30
0.0
 10
123.1643
 20
-112.8368
 30
0.0
 10
123.1934
 20
-112.8356
 30
0.0
 10
123.2226
 20
-112.8356
 30
0.0
 10
123.2518
 20
-112.8356
 30
0.0
 10
123.2518
 20
-112.8356
 30
0.0
 10
123.281
 20
-112.8356
 30
0.0
 10
123.3101
 20
-112.8356
 30
0.0
 10
123.3394
 20
-112.8368
 30
0.0
 10
123.3394
 20
-112.8368
 30
0.0
 10
124.2086
 20
-112.8563
 30
0.0
 10
125.1253
 20
-113.2249
 30
0.0
 10
125.5687
 20
-113.7237
 30
0.0
 10
125.5687
 20
-113.7237
 30
0.0
 10
126.4812
 20
-114.8971
 30
0.0
 10
127.6741
 20
-116.3515
 30
0.0
 10
129.0944
 20
-117.9099
 30
0.0
 10
129.0944
 20
-117.9099
 30
0.0
 10
128.2173
 20
-116.461
 30
0.0
 10
128.0634
 20
-114.6106
 30
0.0
 10
128.8468
 20
-112.9494
 30
0.0
 10
128.8468
 20
-112.9494
 30
0.0
 10
129.14
 20
-112.3289
 30
0.0
 10
129.5409
 20
-111.793
 30
0.0
 10
130.013
 20
-111.3465
 30
0.0
 10
130.013
 20
-111.3465
 30
0.0
 10
129.3761
 20
-111.518
 30
0.0
 10
128.6997
 20
-111.5789
 30
0.0
 10
128.0068
 20
-111.4992
 30
0.0
 10
128.0068
 20
-111.4992
 30
0.0
 10
125.0919
 20
-111.1664
 30
0.0
 10
123.028
 20
-108.5459
 30
0.0
 10
123.3972
 20
-105.6474
 30
0.0
 10
123.3972
 20
-105.6474
 30
0.0
 10
123.7664
 20
-102.7483
 30
0.0
 10
126.4301
 20
-100.6692
 30
0.0
 10
129.3444
 20
-101.0025
 30
0.0
 10
129.3444
 20
-101.0025
 30
0.0
 10
130.0264
 20
-101.0804
 30
0.0
 10
130.659
 20
-101.2878
 30
0.0
 10
131.2277
 20
-101.5902
 30
0.0
 10
131.2277
 20
-101.5902
 30
0.0
 10
130.8737
 20
-101.0439
 30
0.0
 10
130.6134
 20
-100.4247
 30
0.0
 10
130.4832
 20
-99.7452
 30
0.0
 10
130.4832
 20
-99.7452
 30
0.0
 10
129.9339
 20
-96.8856
 30
0.0
 10
131.8275
 20
-94.0978
 30
0.0
 10
134.7144
 20
-93.5193
 30
0.0
 10
134.7144
 20
-93.5193
 30
0.0
 10
137.1543
 20
-93.0302
 30
0.0
 10
139.5163
 20
-94.279
 30
0.0
 10
140.523
 20
-96.4026
 30
0.0
 10
140.523
 20
-96.4026
 30
0.0
 10
143.7738
 20
-91.4401
 30
0.0
 10
147.1973
 20
-86.9382
 30
0.0
 10
152.7418
 20
-85.3402
 30
0.0
 10
152.7418
 20
-85.3402
 30
0.0
 10
153.1712
 20
-85.2164
 30
0.0
 10
153.5995
 20
-85.1086
 30
0.0
 10
154.0261
 20
-85.0163
 30
0.0
  0
SPLINE
  5
97
330
1F
100
AcDbEntity
  8
Camada 1
 62
   250
370
     9
100
AcDbSpline
210
0.0
220
0.0
230
1.0
 70
    11
 71
     3
 72
    16
 73
    12
 74
     0
 42
0.000000001
 43
0.0000000001
 40
0.0
 40
0.0
 40
0.0
 40
0.0
 40
0.25
 40
0.25
 40
0.25
 40
0.25
 40
0.5
 40
0.5
 40
0.5
 40
0.5
 40
1.0
 40
1.0
 40
1.0
 40
1.0
 10
177.8627
 20
-102.8303
 30
0.0
 10
177.8627
 20
-102.8303
 30
0.0
 10
177.8627
 20
-85.0163
 30
0.0
 10
177.8627
 20
-85.0163
 30
0.0
 10
177.8627
 20
-85.0163
 30
0.0
 10
177.8627
 20
-85.0163
 30
0.0
 10
161.8014
 20
-85.0163
 30
0.0
 10
161.8014
 20
-85.0163
 30
0.0
 10
161.8014
 20
-85.0163
 30
0.0
 10
169.7687
 20
-86.7774
 30
0.0
 10
176.1505
 20
-93.8637
 30
0.0
 10
177.8627
 20
-102.8303
 30
0.0
  0
SPLINE
  5
98
330
1F
100
AcDbEntity
  8
Camada 1
 62
   250
370
     9
100
AcDbSpline
210
0.0
220
0.0
230
1.0
 70
     8
 71
     3
 72
    12
 73
     8
 74
     0
 42
0.000000001
 43
0.0000000001
 40
0.0
 40
0.0
 40
0.0
 40
0.0
 40
0.3333333333333333
 40
0.3333333333333333
 40
0.3333333333333333
 40
0.3333333333333333
 40
1.0
 40
1.0
 40
1.0
 40
1.0
 10
177.8627
 20
-113.0149
 30
0.0
 10
177.8627
 20
-113.0149
 30
0.0
 10
177.8627
 20
-136.0418
 30
0.0
 10
177.8627
 20
-136.0418
 30
0.0
 10
177.8627
 20
-136.0418
 30
0.0
 10
177.8627
 20
-136.0418
 30
0.0
 10
158.5899
 20
-136.0418
 30
0.0
 10
158.5899
 20
-136.0418
 30
0.0
  0
SPLINE
  5
99
330
1F
100
AcDbEntity
  8
Camada 1
 62
   250
370
     9
100
AcDbSpline
210
0.0
220
0.0
230
1.0
 70
    24
 71
     3
 72
     8
 73
     4
 74
     0
 42
0.000000001
 43
0.0000000001
 40
0.0
 40
0.0
 40
0.0
 40
0.0
 40
1.0
 40
1.0
 40
1.0
 40
1.0
 10
148.0901
 20
-136.0418
 30
0.0
 10
148.0901
 20
-136.0418
 30
0.0
 10
98.4141
 20
-136.0418
 30
0.0
 10
98.4141
 20
-136.0418
 30
0.0
  0
SPLINE
  5
9A
330
1F
100
AcDbEntity
  8
Camada 1
 62
   250
370
     9
100
AcDbSpline
210
0.0
220
0.0
230
1.0
 70
     8
 71
     3
 72
     8
 73
     4
 74
     0
 42
0.000000001
 43
0.0000000001
 40
0.0
 40
0.0
 40
0.0
 40
0.0
 40
1.0
 40
1.0
 40
1.0
 40
1.0
 10
158.5898
 20
-136.0419
 30
0.0
 10
170.5925
 20
-133.743
 30
0.0
 10
176.2784
 20
-123.2251
 30
0.0
 10
177.8627
 20
-113.0147
 30
0.0
  0
SPLINE
  5
9B
330
1F
100
AcDbEntity
  8
Camada 1
 62
   250
370
     9
100
AcDbSpline
210
0.0
220
0.0
230
1.0
 70
     8
 71
     3
 72
     8
 73
     4
 74
     0
 42
0.000000001
 43
0.0000000001
 40
0.0
 40
0.0
 40
0.0
 40
0.0
 40
1.0
 40
1.0
 40
1.0
 40
1.0
 10
68.6672
 20
-113.1813
 30
0.0
 10
70.2869
 20
-123.3395
 30
0.0
 10
75.9764
 20
-133.7554
 30
0.0
 10
87.9135
 20
-136.0419
 30
0.0
  0
SPLINE
  5
9C
330
1F
100
AcDbEntity
  8
Camada 1
 62
   250
370
     9
100
AcDbSpline
210
0.0
220
0.0
230
1.0
 70
    11
 71
     3
 72
    20
 73
    16
 74
     0
 42
0.000000001
 43
0.0000000001
 40
0.0
 40
0.0
 40
0.0
 40
0.0
 40
0.2
 40
0.2
 40
0.2
 40
0.2
 40
0.4
 40
0.4
 40
0.4
 40
0.4
 40
0.6
 40
0.6
 40
0.6
 40
0.6
 40
1.0
 40
1.0
 40
1.0
 40
1.0
 10
139.4294
 20
-110.5812
 30
0.0
 10
141.4872
 20
-109.4359
 30
0.0
 10
142.2384
 20
-106.8616
 30
0.0
 10
141.1082
 20
-104.8318
 30
0.0
 10
141.1082
 20
-104.8318
 30
0.0
 10
139.978
 20
-102.8019
 30
0.0
 10
137.394
 20
-102.0853
 30
0.0
 10
135.3368
 20
-103.2307
 30
0.0
 10
135.3368
 20
-103.2307
 30
0.0
 10
133.2789
 20
-104.3767
 30
0.0
 10
132.527
 20
-106.951
 30
0.0
 10
133.6578
 20
-108.9809
 30
0.0
 10
133.6578
 20
-108.9809
 30
0.0
 10
134.7874
 20
-111.0107
 30
0.0
 10
137.3721
 20
-111.7273
 30
0.0
 10
139.4294
 20
-110.5812
 30
0.0
  0
SPLINE
  5
9D
330
1F
100
AcDbEntity
  8
Camada 1
 62
   250
370
     9
100
AcDbSpline
210
0.0
220
0.0
230
1.0
 70
    11
 71
     3
 72
    80
 73
    76
 74
     0
 42
0.000000001
 43
0.0000000001
 40
0.0
 40
0.0
 40
0.0
 40
0.0
 40
0.05
 40
0.05
 40
0.05
 40
0.05
 40
0.1
 40
0.1
 40
0.1
 40
0.1
 40
0.15
 40
0.15
 40
0.15
 40
0.15
 40
0.2
 40
0.2
 40
0.2
 40
0.2
 40
0.25
 40
0.25
 40
0.25
 40
0.25
 40
0.3
 40
0.3
 40
0.3
 40
0.3
 40
0.35
 40
0.35
 40
0.35
 40
0.35
 40
0.4
 40
0.4
 40
0.4
 40
0.4
 40
0.45
 40
0.45
 40
0.45
 40
0.45
 40
0.5
 40
0.5
 40
0.5
 40
0.5
 40
0.55
 40
0.55
 40
0.55
 40
0.55
 40
0.6
 40
0.6
 40
0.6
 40
0.6
 40
0.65
 40
0.65
 40
0.65
 40
0.65
 40
0.7
 40
0.7
 40
0.7
 40
0.7
 40
0.75
 40
0.75
 40
0.75
 40
0.75
 40
0.8
 40
0.8
 40
0.8
 40
0.8
 40
0.85
 40
0.85
 40
0.85
 40
0.85
 40
0.9
 40
0.9
 40
0.9
 40
0.9
 40
1.0
 40
1.0
 40
1.0
 40
1.0
 10
82.9126
 20
-108.611
 30
0.0
 10
82.9126
 20
-108.611
 30
0.0
 10
82.6005
 20
-111.7254
 30
0.0
 10
85.3001
 20
-113.2827
 30
0.0
 10
85.3001
 20
-113.2827
 30
0.0
 10
87.9997
 20
-114.8399
 30
0.0
 10
90.1799
 20
-114.113
 30
0.0
 10
91.1142
 20
-112.8672
 30
0.0
 10
91.1142
 20
-112.8672
 30
0.0
 10
92.0485
 20
-111.6214
 30
0.0
 10
92.36
 20
-108.7668
 30
0.0
 10
89.6087
 20
-106.4309
 30
0.0
 10
89.6087
 20
-106.4309
 30
0.0
 10
86.8573
 20
-104.0951
 30
0.0
 10
80.0055
 20
-103.0543
 30
0.0
 10
76.4762
 20
-111.1275
 30
0.0
 10
76.4762
 20
-111.1275
 30
0.0
 10
75.7493
 20
-112.5557
 30
0.0
 10
74.3995
 20
-112.1409
 30
0.0
 10
74.0978
 20
-109.8568
 30
0.0
 10
74.0978
 20
-109.8568
 30
0.0
 10
72.5016
 20
-95.3204
 30
0.0
 10
82.0725
 20
-86.9716
 30
0.0
 10
92.3077
 20
-89.1456
 30
0.0
 10
92.3077
 20
-89.1456
 30
0.0
 10
96.9136
 20
-90.1238
 30
0.0
 10
99.9174
 20
-93.7279
 30
0.0
 10
102.6535
 20
-97.7926
 30
0.0
 10
102.6535
 20
-97.7926
 30
0.0
 10
100.3919
 20
-97.2493
 30
0.0
 10
97.9702
 20
-98.2214
 30
0.0
 10
96.7975
 20
-100.3273
 30
0.0
 10
96.7975
 20
-100.3273
 30
0.0
 10
95.3826
 20
-102.8681
 30
0.0
 10
96.3236
 20
-106.0909
 30
0.0
 10
98.8991
 20
-107.5246
 30
0.0
 10
98.8991
 20
-107.5246
 30
0.0
 10
99.5013
 20
-107.8598
 30
0.0
 10
100.1407
 20
-108.063
 30
0.0
 10
100.7836
 20
-108.1524
 30
0.0
 10
100.7836
 20
-108.1524
 30
0.0
 10
100.1717
 20
-108.3842
 30
0.0
 10
99.5926
 20
-108.7291
 30
0.0
 10
99.084
 20
-109.198
 30
0.0
 10
99.084
 20
-109.198
 30
0.0
 10
96.9428
 20
-111.1713
 30
0.0
 10
96.837
 20
-114.5133
 30
0.0
 10
98.8505
 20
-116.6624
 30
0.0
 10
98.8505
 20
-116.6624
 30
0.0
 10
100.8626
 20
-118.8115
 30
0.0
 10
104.2302
 20
-118.9538
 30
0.0
 10
106.3714
 20
-116.9811
 30
0.0
 10
106.3714
 20
-116.9811
 30
0.0
 10
106.8726
 20
-116.5188
 30
0.0
 10
107.2571
 20
-115.9805
 30
0.0
 10
107.5345
 20
-115.402
 30
0.0
 10
107.5345
 20
-115.402
 30
0.0
 10
107.5734
 20
-116.0541
 30
0.0
 10
107.7315
 20
-116.711
 30
0.0
 10
108.0296
 20
-117.3418
 30
0.0
 10
108.0296
 20
-117.3418
 30
0.0
 10
109.2809
 20
-119.9952
 30
0.0
 10
112.4507
 20
-121.1637
 30
0.0
 10
115.1101
 20
-119.9502
 30
0.0
 10
115.1101
 20
-119.9502
 30
0.0
 10
115.4045
 20
-119.8157
 30
0.0
 10
115.6777
 20
-119.6545
 30
0.0
 10
115.9338
 20
-119.4757
 30
0.0
 10
115.9338
 20
-119.4757
 30
0.0
 10
110.742
 20
-124.8117
 30
0.0
 10
103.2192
 20
-130.672
 30
0.0
 10
95.2147
 20
-130.672
 30
0.0
 10
95.2147
 20
-130.672
 30
0.0
 10
86.3914
 20
-130.672
 30
0.0
 10
70.9736
 20
-120.6534
 30
0.0
 10
82.9126
 20
-108.611
 30
0.0
  0
SPLINE
  5
9E
330
1F
100
AcDbEntity
  8
Camada 1
 62
   250
370
     9
100
AcDbSpline
210
0.0
220
0.0
230
1.0
 70
    11
 71
     3
 72
    80
 73
    76
 74
     0
 42
0.000000001
 43
0.0000000001
 40
0.0
 40
0.0
 40
0.0
 40
0.0
 40
0.05
 40
0.05
 40
0.05
 40
0.05
 40
0.1
 40
0.1
 40
0.1
 40
0.1
 40
0.15
 40
0.15
 40
0.15
 40
0.15
 40
0.2
 40
0.2
 40
0.2
 40
0.2
 40
0.25
 40
0.25
 40
0.25
 40
0.25
 40
0.3
 40
0.3
 40
0.3
 40
0.3
 40
0.35
 40
0.35
 40
0.35
 40
0.35
 40
0.4
 40
0.4
 40
0.4
 40
0.4
 40
0.45
 40
0.45
 40
0.45
 40
0.45
 40
0.5
 40
0.5
 40
0.5
 40
0.5
 40
0.55
 40
0.55
 40
0.55
 40
0.55
 40
0.6
 40
0.6
 40
0.6
 40
0.6
 40
0.65
 40
0.65
 40
0.65
 40
0.65
 40
0.7
 40
0.7
 40
0.7
 40
0.7
 40
0.75
 40
0.75
 40
0.75
 40
0.75
 40
0.8
 40
0.8
 40
0.8
 40
0.8
 40
0.85
 40
0.85
 40
0.85
 40
0.85
 40
0.9
 40
0.9
 40
0.9
 40
0.9
 40
1.0
 40
1.0
 40
1.0
 40
1.0
 10
138.4743
 20
-117.3418
 30
0.0
 10
138.7718
 20
-116.711
 30
0.0
 10
138.9305
 20
-116.0541
 30
0.0
 10
138.9695
 20
-115.402
 30
0.0
 10
138.9695
 20
-115.402
 30
0.0
 10
139.2462
 20
-115.9805
 30
0.0
 10
139.6313
 20
-116.5188
 30
0.0
 10
140.1319
 20
-116.9811
 30
0.0
 10
140.1319
 20
-116.9811
 30
0.0
 10
142.2731
 20
-118.9538
 30
0.0
 10
145.6412
 20
-118.8115
 30
0.0
 10
147.6535
 20
-116.6624
 30
0.0
 10
147.6535
 20
-116.6624
 30
0.0
 10
149.6663
 20
-114.5133
 30
0.0
 10
149.5611
 20
-111.1713
 30
0.0
 10
147.4193
 20
-109.198
 30
0.0
 10
147.4193
 20
-109.198
 30
0.0
 10
146.9107
 20
-108.7291
 30
0.0
 10
146.3322
 20
-108.3842
 30
0.0
 10
145.7197
 20
-108.1524
 30
0.0
 10
145.7197
 20
-108.1524
 30
0.0
 10
146.3626
 20
-108.063
 30
0.0
 10
147.002
 20
-107.8598
 30
0.0
 10
147.6042
 20
-107.5246
 30
0.0
 10
147.6042
 20
-107.5246
 30
0.0
 10
150.1797
 20
-106.0909
 30
0.0
 10
151.1207
 20
-102.8681
 30
0.0
 10
149.7058
 20
-100.3273
 30
0.0
 10
149.7058
 20
-100.3273
 30
0.0
 10
148.5331
 20
-98.2214
 30
0.0
 10
146.1114
 20
-97.2493
 30
0.0
 10
143.8498
 20
-97.7926
 30
0.0
 10
143.8498
 20
-97.7926
 30
0.0
 10
146.5865
 20
-93.7279
 30
0.0
 10
149.5903
 20
-90.1238
 30
0.0
 10
154.1956
 20
-89.1456
 30
0.0
 10
154.1956
 20
-89.1456
 30
0.0
 10
164.4308
 20
-86.9716
 30
0.0
 10
174.0023
 20
-95.3204
 30
0.0
 10
172.4062
 20
-109.8568
 30
0.0
 10
172.4062
 20
-109.8568
 30
0.0
 10
172.1038
 20
-112.1409
 30
0.0
 10
170.754
 20
-112.5557
 30
0.0
 10
170.0277
 20
-111.1275
 30
0.0
 10
170.0277
 20
-111.1275
 30
0.0
 10
166.4978
 20
-103.0543
 30
0.0
 10
159.646
 20
-104.0951
 30
0.0
 10
156.8946
 20
-106.4309
 30
0.0
 10
156.8946
 20
-106.4309
 30
0.0
 10
154.1433
 20
-108.7668
 30
0.0
 10
154.4554
 20
-111.6214
 30
0.0
 10
155.3897
 20
-112.8672
 30
0.0
 10
155.3897
 20
-112.8672
 30
0.0
 10
156.3241
 20
-114.113
 30
0.0
 10
158.5042
 20
-114.8399
 30
0.0
 10
161.2032
 20
-113.2827
 30
0.0
 10
161.2032
 20
-113.2827
 30
0.0
 10
163.9028
 20
-111.7254
 30
0.0
 10
163.5907
 20
-108.611
 30
0.0
 10
163.5907
 20
-108.611
 30
0.0
 10
163.5907
 20
-108.611
 30
0.0
 10
175.5297
 20
-120.6534
 30
0.0
 10
160.1119
 20
-130.672
 30
0.0
 10
151.2886
 20
-130.672
 30
0.0
 10
151.2886
 20
-130.672
 30
0.0
 10
143.2841
 20
-130.672
 30
0.0
 10
135.7613
 20
-124.8117
 30
0.0
 10
130.5695
 20
-119.4757
 30
0.0
 10
130.5695
 20
-119.4757
 30
0.0
 10
130.8257
 20
-119.6545
 30
0.0
 10
131.0987
 20
-119.8157
 30
0.0
 10
131.3938
 20
-119.9502
 30
0.0
 10
131.3938
 20
-119.9502
 30
0.0
 10
134.0526
 20
-121.1637
 30
0.0
 10
137.2224
 20
-119.9952
 30
0.0
 10
138.4743
 20
-117.3418
 30
0.0
  0
SPLINE
  5
9F
330
1F
100
AcDbEntity
  8
Camada 1
 62
   250
370
     9
100
AcDbSpline
210
0.0
220
0.0
230
1.0
 70
    11
 71
     3
 72
    20
 73
    16
 74
     0
 42
0.000000001
 43
0.0000000001
 40
0.0
 40
0.0
 40
0.0
 40
0.0
 40
0.2
 40
0.2
 40
0.2
 40
0.2
 40
0.4
 40
0.4
 40
0.4
 40
0.4
 40
0.6
 40
0.6
 40
0.6
 40
0.6
 40
1.0
 40
1.0
 40
1.0
 40
1.0
 10
107.0746
 20
-110.5812
 30
0.0
 10
105.0161
 20
-109.4359
 30
0.0
 10
104.2649
 20
-106.8616
 30
0.0
 10
105.3957
 20
-104.8318
 30
0.0
 10
105.3957
 20
-104.8318
 30
0.0
 10
106.5253
 20
-102.8019
 30
0.0
 10
109.1099
 20
-102.0853
 30
0.0
 10
111.1672
 20
-103.2307
 30
0.0
 10
111.1672
 20
-103.2307
 30
0.0
 10
113.2244
 20
-104.3767
 30
0.0
 10
113.9763
 20
-106.951
 30
0.0
 10
112.846
 20
-108.9809
 30
0.0
 10
112.846
 20
-108.9809
 30
0.0
 10
111.7159
 20
-111.0107
 30
0.0
 10
109.1318
 20
-111.7273
 30
0.0
 10
107.0746
 20
-110.5812
 30
0.0
  0
SPLINE
  5
A0
330
1F
100
AcDbEntity
  8
Camada 1
 62
   250
370
    20
100
AcDbSpline
210
0.0
220
0.0
230
1.0
 70
     8
 71
     3
 72
    16
 73
    12
 74
     0
 42
0.000000001
 43
0.0000000001
 40
0.0
 40
0.0
 40
0.0
 40
0.0
 40
0.25
 40
0.25
 40
0.25
 40
0.25
 40
0.5
 40
0.5
 40
0.5
 40
0.5
 40
1.0
 40
1.0
 40
1.0
 40
1.0
 10
-192.5361
 20
-86.0364
 30
0.0
 10
-192.5382
 20
-85.9643
 30
0.0
 10
-192.5394
 20
-85.8918
 30
0.0
 10
-192.5394
 20
-85.8191
 30
0.0
 10
-192.5394
 20
-85.8191
 30
0.0
 10
-192.5394
 20
-81.9297
 30
0.0
 10
-189.3852
 20
-78.7755
 30
0.0
 10
-185.4958
 20
-78.7755
 30
0.0
 10
-185.4958
 20
-78.7755
 30
0.0
 10
-185.3272
 20
-78.7755
 30
0.0
 10
-185.1599
 20
-78.7815
 30
0.0
 10
-184.9942
 20
-78.7931
 30
0.0
  0
SPLINE
  5
A1
330
1F
100
AcDbEntity
  8
Camada 1
 62
   250
370
    20
100
AcDbSpline
210
0.0
220
0.0
230
1.0
 70
     8
 71
     3
 72
    84
 73
    80
 74
     0
 42
0.000000001
 43
0.0000000001
 40
0.0
 40
0.0
 40
0.0
 40
0.0
 40
0.0476190476190476
 40
0.0476190476190476
 40
0.0476190476190476
 40
0.0476190476190476
 40
0.0952380952380952
 40
0.0952380952380952
 40
0.0952380952380952
 40
0.0952380952380952
 40
0.1428571428571428
 40
0.1428571428571428
 40
0.1428571428571428
 40
0.1428571428571428
 40
0.1904761904761905
 40
0.1904761904761905
 40
0.1904761904761905
 40
0.1904761904761905
 40
0.2380952380952381
 40
0.2380952380952381
 40
0.2380952380952381
 40
0.2380952380952381
 40
0.2857142857142857
 40
0.2857142857142857
 40
0.2857142857142857
 40
0.2857142857142857
 40
0.3333333333333333
 40
0.3333333333333333
 40
0.3333333333333333
 40
0.3333333333333333
 40
0.3809523809523809
 40
0.3809523809523809
 40
0.3809523809523809
 40
0.3809523809523809
 40
0.4285714285714285
 40
0.4285714285714285
 40
0.4285714285714285
 40
0.4285714285714285
 40
0.4761904761904762
 40
0.4761904761904762
 40
0.4761904761904762
 40
0.4761904761904762
 40
0.5238095238095238
 40
0.5238095238095238
 40
0.5238095238095238
 40
0.5238095238095238
 40
0.5714285714285714
 40
0.5714285714285714
 40
0.5714285714285714
 40
0.5714285714285714
 40
0.6190476190476191
 40
0.6190476190476191
 40
0.6190476190476191
 40
0.6190476190476191
 40
0.6666666666666666
 40
0.6666666666666666
 40
0.6666666666666666
 40
0.6666666666666666
 40
0.7142857142857143
 40
0.7142857142857143
 40
0.7142857142857143
 40
0.7142857142857143
 40
0.7619047619047619
 40
0.7619047619047619
 40
0.7619047619047619
 40
0.7619047619047619
 40
0.8095238095238095
 40
0.8095238095238095
 40
0.8095238095238095
 40
0.8095238095238095
 40
0.8571428571428571
 40
0.8571428571428571
 40
0.8571428571428571
 40
0.8571428571428571
 40
0.9047619047619048
 40
0.9047619047619048
 40
0.9047619047619048
 40
0.9047619047619048
 40
1.0
 40
1.0
 40
1.0
 40
1.0
 10
-185.9973
 20
-78.7931
 30
0.0
 10
-104.6378
 20
-78.7931
 30
0.0
 10
-26.7232
 20
-78.7931
 30
0.0
 10
54.4144
 20
-78.7931
 30
0.0
 10
54.4144
 20
-78.7931
 30
0.0
 10
58.2836
 20
-78.7931
 30
0.0
 10
61.4638
 20
-81.9495
 30
0.0
 10
61.4638
 20
-85.8195
 30
0.0
 10
61.4638
 20
-85.8195
 30
0.0
 10
61.4638
 20
-81.9301
 30
0.0
 10
64.6134
 20
-78.7978
 30
0.0
 10
68.5028
 20
-78.7978
 30
0.0
 10
68.5028
 20
-78.7978
 30
0.0
 10
106.5351
 20
-78.7978
 30
0.0
 10
143.497
 20
-78.7978
 30
0.0
 10
181.4751
 20
-78.7978
 30
0.0
 10
181.4751
 20
-78.7978
 30
0.0
 10
185.3646
 20
-78.7978
 30
0.0
 10
188.462
 20
-81.9297
 30
0.0
 10
188.462
 20
-85.8191
 30
0.0
 10
188.462
 20
-85.8191
 30
0.0
 10
188.462
 20
-90.0546
 30
0.0
 10
188.462
 20
-93.3916
 30
0.0
 10
188.462
 20
-97.6271
 30
0.0
 10
188.462
 20
-97.6271
 30
0.0
 10
188.462
 20
-97.6271
 30
0.0
 10
194.4354
 20
-97.6271
 30
0.0
 10
194.4354
 20
-97.6271
 30
0.0
 10
194.4354
 20
-97.6271
 30
0.0
 10
194.4354
 20
-97.6271
 30
0.0
 10
194.4354
 20
-123.5563
 30
0.0
 10
194.4354
 20
-123.5563
 30
0.0
 10
194.4354
 20
-123.5563
 30
0.0
 10
194.4354
 20
-123.5563
 30
0.0
 10
188.462
 20
-123.5563
 30
0.0
 10
188.462
 20
-123.5563
 30
0.0
 10
188.462
 20
-123.5563
 30
0.0
 10
188.462
 20
-123.5563
 30
0.0
 10
188.462
 20
-142.2978
 30
0.0
 10
188.462
 20
-142.2978
 30
0.0
 10
188.462
 20
-142.2978
 30
0.0
 10
188.462
 20
-142.2978
 30
0.0
 10
137.9436
 20
-142.2978
 30
0.0
 10
137.9436
 20
-142.2978
 30
0.0
 10
137.9436
 20
-142.2978
 30
0.0
 10
137.9436
 20
-142.2978
 30
0.0
 10
137.9436
 20
-148.2693
 30
0.0
 10
137.9436
 20
-148.2693
 30
0.0
 10
137.9436
 20
-148.2693
 30
0.0
 10
137.9436
 20
-148.2693
 30
0.0
 10
112.0144
 20
-148.2693
 30
0.0
 10
112.0144
 20
-148.2693
 30
0.0
 10
112.0144
 20
-148.2693
 30
0.0
 10
112.0144
 20
-148.2693
 30
0.0
 10
112.0144
 20
-142.2978
 30
0.0
 10
112.0144
 20
-142.2978
 30
0.0
 10
112.0144
 20
-142.2978
 30
0.0
 10
112.0144
 20
-142.2978
 30
0.0
 10
61.462
 20
-142.2978
 30
0.0
 10
61.462
 20
-142.2978
 30
0.0
 10
61.462
 20
-142.2978
 30
0.0
 10
61.462
 20
-142.2978
 30
0.0
 10
61.462
 20
-123.5563
 30
0.0
 10
61.462
 20
-123.5563
 30
0.0
 10
61.462
 20
-123.5563
 30
0.0
 10
61.462
 20
-123.5563
 30
0.0
 10
55.4763
 20
-123.5563
 30
0.0
 10
55.4763
 20
-123.5563
 30
0.0
 10
55.4763
 20
-123.5563
 30
0.0
 10
55.4763
 20
-123.5563
 30
0.0
 10
55.4763
 20
-97.6271
 30
0.0
 10
55.4763
 20
-97.6271
 30
0.0
 10
55.4763
 20
-97.6271
 30
0.0
 10
55.4763
 20
-97.6271
 30
0.0
 10
61.462
 20
-97.6271
 30
0.0
 10
61.462
 20
-97.6271
 30
0.0
 10
61.462
 20
-97.6271
 30
0.0
 10
61.462
 20
-97.6271
 30
0.0
 10
61.4638
 20
-85.8195
 30
0.0
 10
61.4638
 20
-85.8195
 30
0.0
  0
SPLINE
  5
A2
330
1F
100
AcDbEntity
  8
Camada 1
 62
   250
370
    20
100
AcDbSpline
210
0.0
220
0.0
230
1.0
 70
    24
 71
     3
 72
    12
 73
     8
 74
     0
 42
0.000000001
 43
0.0000000001
 40
0.0
 40
0.0
 40
0.0
 40
0.0
 40
0.3333333333333333
 40
0.3333333333333333
 40
0.3333333333333333
 40
0.3333333333333333
 40
1.0
 40
1.0
 40
1.0
 40
1.0
 10
-192.5361
 20
-97.6269
 30
0.0
 10
-192.5361
 20
-97.6269
 30
0.0
 10
-192.5361
 20
-85.9436
 30
0.0
 10
-192.5361
 20
-85.9436
 30
0.0
 10
-192.5361
 20
-85.9436
 30
0.0
 10
-192.5361
 20
-85.9436
 30
0.0
 10
-192.5361
 20
-85.6022
 30
0.0
 10
-192.5361
 20
-85.6022
 30
0.0
  0
SPLINE
  5
A3
330
1F
100
AcDbEntity
  8
Camada 1
 62
   250
370
     9
100
AcDbSpline
210
0.0
220
0.0
230
1.0
 70
     8
 71
     3
 72
    12
 73
     8
 74
     0
 42
0.000000001
 43
0.0000000001
 40
0.0
 40
0.0
 40
0.0
 40
0.0
 40
0.3333333333333333
 40
0.3333333333333333
 40
0.3333333333333333
 40
0.3333333333333333
 40
1.0
 40
1.0
 40
1.0
 40
1.0
 10
61.4638
 20
-71.4108
 30
0.0
 10
61.4638
 20
-71.4108
 30
0.0
 10
-192.5361
 20
-71.4108
 30
0.0
 10
-192.5361
 20
-71.4108
 30
0.0
 10
-192.5361
 20
-71.4108
 30
0.0
 10
-192.5361
 20
-71.4108
 30
0.0
 10
-192.5361
 20
-52.6738
 30
0.0
 10
-192.5361
 20
-52.6738
 30
0.0
  0
SPLINE
  5
A4
330
1F
100
AcDbEntity
  8
Camada 1
 62
   250
370
     9
100
AcDbSpline
210
0.0
220
0.0
230
1.0
 70
     8
 71
     3
 72
    16
 73
    12
 74
     0
 42
0.000000001
 43
0.0000000001
 40
0.0
 40
0.0
 40
0.0
 40
0.0
 40
0.25
 40
0.25
 40
0.25
 40
0.25
 40
0.5
 40
0.5
 40
0.5
 40
0.5
 40
1.0
 40
1.0
 40
1.0
 40
1.0
 10
-192.5363
 20
-52.6738
 30
0.0
 10
-192.5363
 20
-52.6738
 30
0.0
 10
-186.5506
 20
-52.6738
 30
0.0
 10
-186.5506
 20
-52.6738
 30
0.0
 10
-186.5506
 20
-52.6738
 30
0.0
 10
-186.5506
 20
-52.6738
 30
0.0
 10
-186.5506
 20
-26.7446
 30
0.0
 10
-186.5506
 20
-26.7446
 30
0.0
 10
-186.5506
 20
-26.7446
 30
0.0
 10
-186.5506
 20
-26.7446
 30
0.0
 10
-192.5363
 20
-26.7446
 30
0.0
 10
-192.5363
 20
-26.7446
 30
0.0
  0
SPLINE
  5
A5
330
1F
100
AcDbEntity
  8
Camada 1
 62
   250
370
     9
100
AcDbSpline
210
0.0
220
0.0
230
1.0
 70
     8
 71
     3
 72
   116
 73
   112
 74
     0
 42
0.000000001
 43
0.0000000001
 40
0.0
 40
0.0
 40
0.0
 40
0.0
 40
0.0344827586206897
 40
0.0344827586206897
 40
0.0344827586206897
 40
0.0344827586206897
 40
0.0689655172413793
 40
0.0689655172413793
 40
0.0689655172413793
 40
0.0689655172413793
 40
0.103448275862069
 40
0.103448275862069
 40
0.103448275862069
 40
0.103448275862069
 40
0.1379310344827586
 40
0.1379310344827586
 40
0.1379310344827586
 40
0.1379310344827586
 40
0.1724137931034483
 40
0.1724137931034483
 40
0.1724137931034483
 40
0.1724137931034483
 40
0.2068965517241379
 40
0.2068965517241379
 40
0.2068965517241379
 40
0.2068965517241379
 40
0.2413793103448276
 40
0.2413793103448276
 40
0.2413793103448276
 40
0.2413793103448276
 40
0.2758620689655172
 40
0.2758620689655172
 40
0.2758620689655172
 40
0.2758620689655172
 40
0.3103448275862069
 40
0.3103448275862069
 40
0.3103448275862069
 40
0.3103448275862069
 40
0.3448275862068966
 40
0.3448275862068966
 40
0.3448275862068966
 40
0.3448275862068966
 40
0.3793103448275862
 40
0.3793103448275862
 40
0.3793103448275862
 40
0.3793103448275862
 40
0.4137931034482759
 40
0.4137931034482759
 40
0.4137931034482759
 40
0.4137931034482759
 40
0.4482758620689655
 40
0.4482758620689655
 40
0.4482758620689655
 40
0.4482758620689655
 40
0.4827586206896552
 40
0.4827586206896552
 40
0.4827586206896552
 40
0.4827586206896552
 40
0.5172413793103449
 40
0.5172413793103449
 40
0.5172413793103449
 40
0.5172413793103449
 40
0.5517241379310345
 40
0.5517241379310345
 40
0.5517241379310345
 40
0.5517241379310345
 40
0.5862068965517241
 40
0.5862068965517241
 40
0.5862068965517241
 40
0.5862068965517241
 40
0.6206896551724138
 40
0.6206896551724138
 40
0.6206896551724138
 40
0.6206896551724138
 40
0.6551724137931034
 40
0.6551724137931034
 40
0.6551724137931034
 40
0.6551724137931034
 40
0.6896551724137931
 40
0.6896551724137931
 40
0.6896551724137931
 40
0.6896551724137931
 40
0.7241379310344828
 40
0.7241379310344828
 40
0.7241379310344828
 40
0.7241379310344828
 40
0.7586206896551724
 40
0.7586206896551724
 40
0.7586206896551724
 40
0.7586206896551724
 40
0.7931034482758621
 40
0.7931034482758621
 40
0.7931034482758621
 40
0.7931034482758621
 40
0.8275862068965517
 40
0.8275862068965517
 40
0.8275862068965517
 40
0.8275862068965517
 40
0.8620689655172413
 40
0.8620689655172413
 40
0.8620689655172413
 40
0.8620689655172413
 40
0.896551724137931
 40
0.896551724137931
 40
0.896551724137931
 40
0.896551724137931
 40
0.9310344827586207
 40
0.9310344827586207
 40
0.9310344827586207
 40
0.9310344827586207
 40
1.0
 40
1.0
 40
1.0
 40
1.0
 10
-90.3172
 20
-14.2517
 30
0.0
 10
-90.6139
 20
-14.3223
 30
0.0
 10
-90.9113
 20
-14.4006
 30
0.0
 10
-91.2093
 20
-14.4865
 30
0.0
 10
-91.2093
 20
-14.4865
 30
0.0
 10
-96.7538
 20
-16.0845
 30
0.0
 10
-100.1773
 20
-20.5864
 30
0.0
 10
-103.4281
 20
-25.5489
 30
0.0
 10
-103.4281
 20
-25.5489
 30
0.0
 10
-104.4348
 20
-23.4253
 30
0.0
 10
-106.7968
 20
-22.1765
 30
0.0
 10
-109.2367
 20
-22.6656
 30
0.0
 10
-109.2367
 20
-22.6656
 30
0.0
 10
-112.1236
 20
-23.2441
 30
0.0
 10
-114.0172
 20
-26.0319
 30
0.0
 10
-113.4679
 20
-28.8915
 30
0.0
 10
-113.4679
 20
-28.8915
 30
0.0
 10
-113.3377
 20
-29.571
 30
0.0
 10
-113.0774
 20
-30.1902
 30
0.0
 10
-112.7234
 20
-30.7365
 30
0.0
 10
-112.7234
 20
-30.7365
 30
0.0
 10
-113.2921
 20
-30.4341
 30
0.0
 10
-113.9247
 20
-30.2267
 30
0.0
 10
-114.6067
 20
-30.1488
 30
0.0
 10
-114.6067
 20
-30.1488
 30
0.0
 10
-117.521
 20
-29.8155
 30
0.0
 10
-120.1847
 20
-31.8946
 30
0.0
 10
-120.5539
 20
-34.7937
 30
0.0
 10
-120.5539
 20
-34.7937
 30
0.0
 10
-120.9231
 20
-37.6922
 30
0.0
 10
-118.8592
 20
-40.3127
 30
0.0
 10
-115.9443
 20
-40.6455
 30
0.0
 10
-115.9443
 20
-40.6455
 30
0.0
 10
-115.2514
 20
-40.7252
 30
0.0
 10
-114.575
 20
-40.6643
 30
0.0
 10
-113.9381
 20
-40.4928
 30
0.0
 10
-113.9381
 20
-40.4928
 30
0.0
 10
-114.4102
 20
-40.9393
 30
0.0
 10
-114.8111
 20
-41.4752
 30
0.0
 10
-115.1043
 20
-42.0957
 30
0.0
 10
-115.1043
 20
-42.0957
 30
0.0
 10
-115.8877
 20
-43.7569
 30
0.0
 10
-115.7338
 20
-45.6073
 30
0.0
 10
-114.8567
 20
-47.0562
 30
0.0
 10
-114.8567
 20
-47.0562
 30
0.0
 10
-116.277
 20
-45.4978
 30
0.0
 10
-117.4699
 20
-44.0434
 30
0.0
 10
-118.3824
 20
-42.87
 30
0.0
 10
-118.3824
 20
-42.87
 30
0.0
 10
-118.8258
 20
-42.3712
 30
0.0
 10
-119.7425
 20
-42.0026
 30
0.0
 10
-120.6117
 20
-41.9831
 30
0.0
 10
-120.6117
 20
-41.9831
 30
0.0
 10
-120.641
 20
-41.9819
 30
0.0
 10
-120.6701
 20
-41.9819
 30
0.0
 10
-120.6993
 20
-41.9819
 30
0.0
 10
-120.6993
 20
-41.9819
 30
0.0
 10
-120.7285
 20
-41.9819
 30
0.0
 10
-120.7577
 20
-41.9819
 30
0.0
 10
-120.7868
 20
-41.9831
 30
0.0
 10
-120.7868
 20
-41.9831
 30
0.0
 10
-121.6558
 20
-42.0026
 30
0.0
 10
-122.5731
 20
-42.3712
 30
0.0
 10
-123.0159
 20
-42.87
 30
0.0
 10
-123.0159
 20
-42.87
 30
0.0
 10
-123.9284
 20
-44.0434
 30
0.0
 10
-125.1219
 20
-45.4978
 30
0.0
 10
-126.5422
 20
-47.0562
 30
0.0
 10
-126.5422
 20
-47.0562
 30
0.0
 10
-125.6651
 20
-45.6073
 30
0.0
 10
-125.5112
 20
-43.7569
 30
0.0
 10
-126.2946
 20
-42.0957
 30
0.0
 10
-126.2946
 20
-42.0957
 30
0.0
 10
-126.5878
 20
-41.4752
 30
0.0
 10
-126.9881
 20
-40.9393
 30
0.0
 10
-127.4601
 20
-40.4928
 30
0.0
 10
-127.4601
 20
-40.4928
 30
0.0
 10
-126.8239
 20
-40.6643
 30
0.0
 10
-126.1475
 20
-40.7252
 30
0.0
 10
-125.4546
 20
-40.6455
 30
0.0
 10
-125.4546
 20
-40.6455
 30
0.0
 10
-122.5397
 20
-40.3127
 30
0.0
 10
-120.4755
 20
-37.6922
 30
0.0
 10
-120.8446
 20
-34.7937
 30
0.0
 10
-120.8446
 20
-34.7937
 30
0.0
 10
-121.2142
 20
-31.8946
 30
0.0
 10
-123.8773
 20
-29.8155
 30
0.0
 10
-126.7922
 20
-30.1488
 30
0.0
 10
-126.7922
 20
-30.1488
 30
0.0
 10
-127.4742
 20
-30.2267
 30
0.0
 10
-128.1068
 20
-30.4341
 30
0.0
 10
-128.6755
 20
-30.7365
 30
0.0
 10
-128.6755
 20
-30.7365
 30
0.0
 10
-128.3215
 20
-30.1902
 30
0.0
 10
-128.0612
 20
-29.571
 30
0.0
 10
-127.931
 20
-28.8915
 30
0.0
 10
-127.931
 20
-28.8915
 30
0.0
 10
-127.3811
 20
-26.0319
 30
0.0
 10
-129.2753
 20
-23.2441
 30
0.0
 10
-132.1622
 20
-22.6656
 30
0.0
 10
-132.1622
 20
-22.6656
 30
0.0
 10
-134.6021
 20
-22.1765
 30
0.0
 10
-136.9641
 20
-23.4253
 30
0.0
 10
-137.9703
 20
-25.5489
 30
0.0
 10
-137.9703
 20
-25.5489
 30
0.0
 10
-141.221
 20
-20.5864
 30
0.0
 10
-144.6444
 20
-16.0845
 30
0.0
 10
-150.1896
 20
-14.4865
 30
0.0
 10
-150.1896
 20
-14.4865
 30
0.0
 10
-150.4876
 20
-14.4006
 30
0.0
 10
-150.785
 20
-14.3223
 30
0.0
 10
-151.0818
 20
-14.2517
 30
0.0
  0
SPLINE
  5
A6
330
1F
100
AcDbEntity
  8
Camada 1
 62
   250
370
     9
100
AcDbSpline
210
0.0
220
0.0
230
1.0
 70
    24
 71
     3
 72
     8
 73
     4
 74
     0
 42
0.000000001
 43
0.0000000001
 40
0.0
 40
0.0
 40
0.0
 40
0.0
 40
1.0
 40
1.0
 40
1.0
 40
1.0
 10
-81.767
 20
-14.2517
 30
0.0
 10
-81.767
 20
-14.2517
 30
0.0
 10
-50.1695
 20
-14.2517
 30
0.0
 10
-50.1695
 20
-14.2517
 30
0.0
  0
SPLINE
  5
A7
330
1F
100
AcDbEntity
  8
Camada 1
 62
   250
370
     9
100
AcDbSpline
210
0.0
220
0.0
230
1.0
 70
    24
 71
     3
 72
     8
 73
     4
 74
     0
 42
0.000000001
 43
0.0000000001
 40
0.0
 40
0.0
 40
0.0
 40
0.0
 40
1.0
 40
1.0
 40
1.0
 40
1.0
 10
-41.6186
 20
-14.2517
 30
0.0
 10
-41.6186
 20
-14.2517
 30
0.0
 10
19.1458
 20
-14.2517
 30
0.0
 10
19.1458
 20
-14.2517
 30
0.0
  0
SPLINE
  5
A8
330
1F
100
AcDbEntity
  8
Camada 1
 62
   250
370
     9
100
AcDbSpline
210
0.0
220
0.0
230
1.0
 70
     8
 71
     3
 72
    12
 73
     8
 74
     0
 42
0.000000001
 43
0.0000000001
 40
0.0
 40
0.0
 40
0.0
 40
0.0
 40
0.3333333333333333
 40
0.3333333333333333
 40
0.3333333333333333
 40
0.3333333333333333
 40
1.0
 40
1.0
 40
1.0
 40
1.0
 10
27.6955
 20
-14.2517
 30
0.0
 10
27.6955
 20
-14.2517
 30
0.0
 10
43.3234
 20
-14.2517
 30
0.0
 10
43.3234
 20
-14.2517
 30
0.0
 10
43.3234
 20
-14.2517
 30
0.0
 10
43.3234
 20
-14.2517
 30
0.0
 10
43.3234
 20
-31.7184
 30
0.0
 10
43.3234
 20
-31.7184
 30
0.0
  0
SPLINE
  5
A9
330
1F
100
AcDbEntity
  8
Camada 1
 62
   250
370
     9
100
AcDbSpline
210
0.0
220
0.0
230
1.0
 70
     8
 71
     3
 72
    12
 73
     8
 74
     0
 42
0.000000001
 43
0.0000000001
 40
0.0
 40
0.0
 40
0.0
 40
0.0
 40
0.3333333333333333
 40
0.3333333333333333
 40
0.3333333333333333
 40
0.3333333333333333
 40
1.0
 40
1.0
 40
1.0
 40
1.0
 10
43.3234
 20
-42.4801
 30
0.0
 10
43.3234
 20
-42.4801
 30
0.0
 10
43.3234
 20
-65.0981
 30
0.0
 10
43.3234
 20
-65.0981
 30
0.0
 10
43.3234
 20
-65.0981
 30
0.0
 10
43.3234
 20
-65.0981
 30
0.0
 10
24.5483
 20
-65.0981
 30
0.0
 10
24.5483
 20
-65.0981
 30
0.0
  0
SPLINE
  5
AA
330
1F
100
AcDbEntity
  8
Camada 1
 62
   250
370
     9
100
AcDbSpline
210
0.0
220
0.0
230
1.0
 70
    24
 71
     3
 72
     8
 73
     4
 74
     0
 42
0.000000001
 43
0.0000000001
 40
0.0
 40
0.0
 40
0.0
 40
0.0
 40
1.0
 40
1.0
 40
1.0
 40
1.0
 10
13.0992
 20
-65.0981
 30
0.0
 10
13.0992
 20
-65.0981
 30
0.0
 10
-35.5768
 20
-65.0981
 30
0.0
 10
-35.5768
 20
-65.0981
 30
0.0
  0
SPLINE
  5
AB
330
1F
100
AcDbEntity
  8
Camada 1
 62
   250
370
     9
100
AcDbSpline
210
0.0
220
0.0
230
1.0
 70
    24
 71
     3
 72
     8
 73
     4
 74
     0
 42
0.000000001
 43
0.0000000001
 40
0.0
 40
0.0
 40
0.0
 40
0.0
 40
1.0
 40
1.0
 40
1.0
 40
1.0
 10
-47.0245
 20
-65.0981
 30
0.0
 10
-47.0245
 20
-65.0981
 30
0.0
 10
-84.9141
 20
-65.0981
 30
0.0
 10
-84.9141
 20
-65.0981
 30
0.0
  0
SPLINE
  5
AC
330
1F
100
AcDbEntity
  8
Camada 1
 62
   250
370
     9
100
AcDbSpline
210
0.0
220
0.0
230
1.0
 70
    24
 71
     3
 72
     8
 73
     4
 74
     0
 42
0.000000001
 43
0.0000000001
 40
0.0
 40
0.0
 40
0.0
 40
0.0
 40
1.0
 40
1.0
 40
1.0
 40
1.0
 10
-96.3611
 20
-65.0981
 30
0.0
 10
-96.3611
 20
-65.0981
 30
0.0
 10
-145.0386
 20
-65.0981
 30
0.0
 10
-145.0386
 20
-65.0981
 30
0.0
  0
SPLINE
  5
AD
330
1F
100
AcDbEntity
  8
Camada 1
 62
   250
370
     9
100
AcDbSpline
210
0.0
220
0.0
230
1.0
 70
     8
 71
     3
 72
    12
 73
     8
 74
     0
 42
0.000000001
 43
0.0000000001
 40
0.0
 40
0.0
 40
0.0
 40
0.0
 40
0.3333333333333333
 40
0.3333333333333333
 40
0.3333333333333333
 40
0.3333333333333333
 40
1.0
 40
1.0
 40
1.0
 40
1.0
 10
-156.4844
 20
-65.0981
 30
0.0
 10
-156.4844
 20
-65.0981
 30
0.0
 10
-174.8252
 20
-65.0981
 30
0.0
 10
-174.8252
 20
-65.0981
 30
0.0
 10
-174.8252
 20
-65.0981
 30
0.0
 10
-174.8252
 20
-65.0981
 30
0.0
 10
-174.8252
 20
-44.725
 30
0.0
 10
-174.8252
 20
-44.725
 30
0.0
  0
SPLINE
  5
AE
330
1F
100
AcDbEntity
  8
Camada 1
 62
   250
370
     9
100
AcDbSpline
210
0.0
220
0.0
230
1.0
 70
     8
 71
     3
 72
    12
 73
     8
 74
     0
 42
0.000000001
 43
0.0000000001
 40
0.0
 40
0.0
 40
0.0
 40
0.0
 40
0.3333333333333333
 40
0.3333333333333333
 40
0.3333333333333333
 40
0.3333333333333333
 40
1.0
 40
1.0
 40
1.0
 40
1.0
 10
-174.8252
 20
-29.9124
 30
0.0
 10
-174.8252
 20
-29.9124
 30
0.0
 10
-174.8252
 20
-14.2517
 30
0.0
 10
-174.8252
 20
-14.2517
 30
0.0
 10
-174.8252
 20
-14.2517
 30
0.0
 10
-174.8252
 20
-14.2517
 30
0.0
 10
-159.6324
 20
-14.2517
 30
0.0
 10
-159.6324
 20
-14.2517
 30
0.0
  0
SPLINE
  5
AF
330
1F
100
AcDbEntity
  8
Camada 1
 62
   250
370
     9
100
AcDbSpline
210
0.0
220
0.0
230
1.0
 70
    24
 71
     3
 72
     8
 73
     4
 74
     0
 42
0.000000001
 43
0.0000000001
 40
0.0
 40
0.0
 40
0.0
 40
0.0
 40
1.0
 40
1.0
 40
1.0
 40
1.0
 10
-151.0819
 20
-14.2517
 30
0.0
 10
-151.0819
 20
-14.2517
 30
0.0
 10
-90.3174
 20
-14.2517
 30
0.0
 10
-90.3174
 20
-14.2517
 30
0.0
  0
SPLINE
  5
B0
330
1F
100
AcDbEntity
  8
Camada 1
 62
   250
370
     9
100
AcDbSpline
210
0.0
220
0.0
230
1.0
 70
     8
 71
     3
 72
     8
 73
     4
 74
     0
 42
0.000000001
 43
0.0000000001
 40
0.0
 40
0.0
 40
0.0
 40
0.0
 40
1.0
 40
1.0
 40
1.0
 40
1.0
 10
-50.1691
 20
-14.2516
 30
0.0
 10
-58.1566
 20
-16.2005
 30
0.0
 10
-64.4799
 20
-23.5161
 30
0.0
 10
-65.9681
 20
-32.6576
 30
0.0
  0
SPLINE
  5
B1
330
1F
100
AcDbEntity
  8
Camada 1
 62
   250
370
     9
100
AcDbSpline
210
0.0
220
0.0
230
1.0
 70
     8
 71
     3
 72
     8
 73
     4
 74
     0
 42
0.000000001
 43
0.0000000001
 40
0.0
 40
0.0
 40
0.0
 40
0.0
 40
1.0
 40
1.0
 40
1.0
 40
1.0
 10
-65.968
 20
-41.3274
 30
0.0
 10
-64.5859
 20
-51.665
 30
0.0
 10
-59.0418
 20
-62.5584
 30
0.0
 10
-47.0223
 20
-65.0982
 30
0.0
  0
SPLINE
  5
B2
330
1F
100
AcDbEntity
  8
Camada 1
 62
   250
370
     9
100
AcDbSpline
210
0.0
220
0.0
230
1.0
 70
     8
 71
     3
 72
    12
 73
     8
 74
     0
 42
0.000000001
 43
0.0000000001
 40
0.0
 40
0.0
 40
0.0
 40
0.0
 40
0.3333333333333333
 40
0.3333333333333333
 40
0.3333333333333333
 40
0.3333333333333333
 40
1.0
 40
1.0
 40
1.0
 40
1.0
 10
-35.5773
 20
-65.0982
 30
0.0
 10
-23.918
 20
-62.8924
 30
0.0
 10
-17.6258
 20
-54.525
 30
0.0
 10
-11.2368
 20
-47.757
 30
0.0
 10
-11.2368
 20
-47.757
 30
0.0
 10
-4.8481
 20
-54.525
 30
0.0
 10
1.4439
 20
-62.8924
 30
0.0
 10
13.1031
 20
-65.0981
 30
0.0
  0
SPLINE
  5
B3
330
1F
100
AcDbEntity
  8
Camada 1
 62
   250
370
     9
100
AcDbSpline
210
0.0
220
0.0
230
1.0
 70
     8
 71
     3
 72
     8
 73
     4
 74
     0
 42
0.000000001
 43
0.0000000001
 40
0.0
 40
0.0
 40
0.0
 40
0.0
 40
1.0
 40
1.0
 40
1.0
 40
1.0
 10
24.5482
 20
-65.0982
 30
0.0
 10
36.122
 20
-62.6525
 30
0.0
 10
41.6918
 20
-52.4615
 30
0.0
 10
43.3235
 20
-42.4795
 30
0.0
  0
SPLINE
  5
B4
330
1F
100
AcDbEntity
  8
Camada 1
 62
   250
370
     9
100
AcDbSpline
210
0.0
220
0.0
230
1.0
 70
     8
 71
     3
 72
     8
 73
     4
 74
     0
 42
0.000000001
 43
0.0000000001
 40
0.0
 40
0.0
 40
0.0
 40
0.0
 40
1.0
 40
1.0
 40
1.0
 40
1.0
 10
43.3234
 20
-31.7188
 30
0.0
 10
41.568
 20
-23.0181
 30
0.0
 10
35.4076
 20
-16.1335
 30
0.0
 10
27.6955
 20
-14.2516
 30
0.0
  0
SPLINE
  5
B5
330
1F
100
AcDbEntity
  8
Camada 1
 62
   250
370
     9
100
AcDbSpline
210
0.0
220
0.0
230
1.0
 70
     8
 71
     3
 72
   116
 73
   112
 74
     0
 42
0.000000001
 43
0.0000000001
 40
0.0
 40
0.0
 40
0.0
 40
0.0
 40
0.0344827586206897
 40
0.0344827586206897
 40
0.0344827586206897
 40
0.0344827586206897
 40
0.0689655172413793
 40
0.0689655172413793
 40
0.0689655172413793
 40
0.0689655172413793
 40
0.103448275862069
 40
0.103448275862069
 40
0.103448275862069
 40
0.103448275862069
 40
0.1379310344827586
 40
0.1379310344827586
 40
0.1379310344827586
 40
0.1379310344827586
 40
0.1724137931034483
 40
0.1724137931034483
 40
0.1724137931034483
 40
0.1724137931034483
 40
0.2068965517241379
 40
0.2068965517241379
 40
0.2068965517241379
 40
0.2068965517241379
 40
0.2413793103448276
 40
0.2413793103448276
 40
0.2413793103448276
 40
0.2413793103448276
 40
0.2758620689655172
 40
0.2758620689655172
 40
0.2758620689655172
 40
0.2758620689655172
 40
0.3103448275862069
 40
0.3103448275862069
 40
0.3103448275862069
 40
0.3103448275862069
 40
0.3448275862068966
 40
0.3448275862068966
 40
0.3448275862068966
 40
0.3448275862068966
 40
0.3793103448275862
 40
0.3793103448275862
 40
0.3793103448275862
 40
0.3793103448275862
 40
0.4137931034482759
 40
0.4137931034482759
 40
0.4137931034482759
 40
0.4137931034482759
 40
0.4482758620689655
 40
0.4482758620689655
 40
0.4482758620689655
 40
0.4482758620689655
 40
0.4827586206896552
 40
0.4827586206896552
 40
0.4827586206896552
 40
0.4827586206896552
 40
0.5172413793103449
 40
0.5172413793103449
 40
0.5172413793103449
 40
0.5172413793103449
 40
0.5517241379310345
 40
0.5517241379310345
 40
0.5517241379310345
 40
0.5517241379310345
 40
0.5862068965517241
 40
0.5862068965517241
 40
0.5862068965517241
 40
0.5862068965517241
 40
0.6206896551724138
 40
0.6206896551724138
 40
0.6206896551724138
 40
0.6206896551724138
 40
0.6551724137931034
 40
0.6551724137931034
 40
0.6551724137931034
 40
0.6551724137931034
 40
0.6896551724137931
 40
0.6896551724137931
 40
0.6896551724137931
 40
0.6896551724137931
 40
0.7241379310344828
 40
0.7241379310344828
 40
0.7241379310344828
 40
0.7241379310344828
 40
0.7586206896551724
 40
0.7586206896551724
 40
0.7586206896551724
 40
0.7586206896551724
 40
0.7931034482758621
 40
0.7931034482758621
 40
0.7931034482758621
 40
0.7931034482758621
 40
0.8275862068965517
 40
0.8275862068965517
 40
0.8275862068965517
 40
0.8275862068965517
 40
0.8620689655172413
 40
0.8620689655172413
 40
0.8620689655172413
 40
0.8620689655172413
 40
0.896551724137931
 40
0.896551724137931
 40
0.896551724137931
 40
0.896551724137931
 40
0.9310344827586207
 40
0.9310344827586207
 40
0.9310344827586207
 40
0.9310344827586207
 40
1.0
 40
1.0
 40
1.0
 40
1.0
 10
19.1454
 20
-14.2517
 30
0.0
 10
18.8487
 20
-14.3224
 30
0.0
 10
18.5512
 20
-14.4006
 30
0.0
 10
18.2532
 20
-14.4865
 30
0.0
 10
18.2532
 20
-14.4865
 30
0.0
 10
12.7087
 20
-16.0845
 30
0.0
 10
9.2852
 20
-20.5864
 30
0.0
 10
6.0344
 20
-25.5489
 30
0.0
 10
6.0344
 20
-25.5489
 30
0.0
 10
5.0277
 20
-23.4253
 30
0.0
 10
2.6657
 20
-22.1765
 30
0.0
 10
0.2258
 20
-22.6656
 30
0.0
 10
0.2258
 20
-22.6656
 30
0.0
 10
-2.6611
 20
-23.2441
 30
0.0
 10
-4.5547
 20
-26.0319
 30
0.0
 10
-4.0054
 20
-28.8915
 30
0.0
 10
-4.0054
 20
-28.8915
 30
0.0
 10
-3.8752
 20
-29.571
 30
0.0
 10
-3.6149
 20
-30.1902
 30
0.0
 10
-3.2609
 20
-30.7365
 30
0.0
 10
-3.2609
 20
-30.7365
 30
0.0
 10
-3.8296
 20
-30.4341
 30
0.0
 10
-4.4622
 20
-30.2267
 30
0.0
 10
-5.1442
 20
-30.1488
 30
0.0
 10
-5.1442
 20
-30.1488
 30
0.0
 10
-8.0585
 20
-29.8155
 30
0.0
 10
-10.7222
 20
-31.8946
 30
0.0
 10
-11.0914
 20
-34.7937
 30
0.0
 10
-11.0914
 20
-34.7937
 30
0.0
 10
-11.4606
 20
-37.6922
 30
0.0
 10
-9.3967
 20
-40.3127
 30
0.0
 10
-6.4818
 20
-40.6455
 30
0.0
 10
-6.4818
 20
-40.6455
 30
0.0
 10
-5.7889
 20
-40.7252
 30
0.0
 10
-5.1125
 20
-40.6643
 30
0.0
 10
-4.4756
 20
-40.4928
 30
0.0
 10
-4.4756
 20
-40.4928
 30
0.0
 10
-4.9477
 20
-40.9393
 30
0.0
 10
-5.3486
 20
-41.4752
 30
0.0
 10
-5.6418
 20
-42.0957
 30
0.0
 10
-5.6418
 20
-42.0957
 30
0.0
 10
-6.4252
 20
-43.7569
 30
0.0
 10
-6.2713
 20
-45.6073
 30
0.0
 10
-5.3942
 20
-47.0562
 30
0.0
 10
-5.3942
 20
-47.0562
 30
0.0
 10
-6.8145
 20
-45.4978
 30
0.0
 10
-8.0074
 20
-44.0434
 30
0.0
 10
-8.9199
 20
-42.87
 30
0.0
 10
-8.9199
 20
-42.87
 30
0.0
 10
-9.3633
 20
-42.3712
 30
0.0
 10
-10.28
 20
-42.0026
 30
0.0
 10
-11.1492
 20
-41.9831
 30
0.0
 10
-11.1492
 20
-41.9831
 30
0.0
 10
-11.1785
 20
-41.9819
 30
0.0
 10
-11.2076
 20
-41.9819
 30
0.0
 10
-11.2368
 20
-41.9819
 30
0.0
 10
-11.2368
 20
-41.9819
 30
0.0
 10
-11.266
 20
-41.9819
 30
0.0
 10
-11.2952
 20
-41.9819
 30
0.0
 10
-11.3243
 20
-41.9831
 30
0.0
 10
-11.3243
 20
-41.9831
 30
0.0
 10
-12.1933
 20
-42.0026
 30
0.0
 10
-13.1106
 20
-42.3712
 30
0.0
 10
-13.5534
 20
-42.87
 30
0.0
 10
-13.5534
 20
-42.87
 30
0.0
 10
-14.4659
 20
-44.0434
 30
0.0
 10
-15.6594
 20
-45.4978
 30
0.0
 10
-17.0797
 20
-47.0562
 30
0.0
 10
-17.0797
 20
-47.0562
 30
0.0
 10
-16.2026
 20
-45.6073
 30
0.0
 10
-16.0487
 20
-43.7569
 30
0.0
 10
-16.8321
 20
-42.0957
 30
0.0
 10
-16.8321
 20
-42.0957
 30
0.0
 10
-17.1253
 20
-41.4752
 30
0.0
 10
-17.5256
 20
-40.9393
 30
0.0
 10
-17.9976
 20
-40.4928
 30
0.0
 10
-17.9976
 20
-40.4928
 30
0.0
 10
-17.3614
 20
-40.6643
 30
0.0
 10
-16.685
 20
-40.7252
 30
0.0
 10
-15.9921
 20
-40.6455
 30
0.0
 10
-15.9921
 20
-40.6455
 30
0.0
 10
-13.0772
 20
-40.3127
 30
0.0
 10
-11.013
 20
-37.6922
 30
0.0
 10
-11.3821
 20
-34.7937
 30
0.0
 10
-11.3821
 20
-34.7937
 30
0.0
 10
-11.7517
 20
-31.8946
 30
0.0
 10
-14.4148
 20
-29.8155
 30
0.0
 10
-17.3297
 20
-30.1488
 30
0.0
 10
-17.3297
 20
-30.1488
 30
0.0
 10
-18.0117
 20
-30.2267
 30
0.0
 10
-18.6443
 20
-30.4341
 30
0.0
 10
-19.213
 20
-30.7365
 30
0.0
 10
-19.213
 20
-30.7365
 30
0.0
 10
-18.859
 20
-30.1902
 30
0.0
 10
-18.5987
 20
-29.571
 30
0.0
 10
-18.4685
 20
-28.8915
 30
0.0
 10
-18.4685
 20
-28.8915
 30
0.0
 10
-17.9186
 20
-26.0319
 30
0.0
 10
-19.8128
 20
-23.2441
 30
0.0
 10
-22.6997
 20
-22.6656
 30
0.0
 10
-22.6997
 20
-22.6656
 30
0.0
 10
-25.1396
 20
-22.1765
 30
0.0
 10
-27.5016
 20
-23.4253
 30
0.0
 10
-28.5078
 20
-25.5489
 30
0.0
 10
-28.5078
 20
-25.5489
 30
0.0
 10
-31.7585
 20
-20.5864
 30
0.0
 10
-35.1819
 20
-16.0845
 30
0.0
 10
-40.7271
 20
-14.4865
 30
0.0
 10
-40.7271
 20
-14.4865
 30
0.0
 10
-41.0251
 20
-14.4006
 30
0.0
 10
-41.3227
 20
-14.3224
 30
0.0
 10
-41.6194
 20
-14.2517
 30
0.0
  0
SPLINE
  5
B6
330
1F
100
AcDbEntity
  8
Camada 1
 62
   250
370
     9
100
AcDbSpline
210
0.0
220
0.0
230
1.0
 70
     8
 71
     3
 72
     8
 73
     4
 74
     0
 42
0.000000001
 43
0.0000000001
 40
0.0
 40
0.0
 40
0.0
 40
0.0
 40
1.0
 40
1.0
 40
1.0
 40
1.0
 10
-159.6318
 20
-14.2517
 30
0.0
 10
-166.802
 20
-16.0013
 30
0.0
 10
-172.6311
 20
-22.0754
 30
0.0
 10
-174.8253
 20
-29.9129
 30
0.0
  0
SPLINE
  5
B7
330
1F
100
AcDbEntity
  8
Camada 1
 62
   250
370
     9
100
AcDbSpline
210
0.0
220
0.0
230
1.0
 70
     8
 71
     3
 72
     8
 73
     4
 74
     0
 42
0.000000001
 43
0.0000000001
 40
0.0
 40
0.0
 40
0.0
 40
0.0
 40
1.0
 40
1.0
 40
1.0
 40
1.0
 10
-174.8253
 20
-44.7249
 30
0.0
 10
-172.7593
 20
-53.9462
 30
0.0
 10
-167.1907
 20
-62.8358
 30
0.0
 10
-156.4849
 20
-65.0982
 30
0.0
  0
SPLINE
  5
B8
330
1F
100
AcDbEntity
  8
Camada 1
 62
   250
370
     9
100
AcDbSpline
210
0.0
220
0.0
230
1.0
 70
     8
 71
     3
 72
    12
 73
     8
 74
     0
 42
0.000000001
 43
0.0000000001
 40
0.0
 40
0.0
 40
0.0
 40
0.0
 40
0.3333333333333333
 40
0.3333333333333333
 40
0.3333333333333333
 40
0.3333333333333333
 40
1.0
 40
1.0
 40
1.0
 40
1.0
 10
-145.04
 20
-65.0982
 30
0.0
 10
-133.3805
 20
-62.8927
 30
0.0
 10
-127.0883
 20
-54.525
 30
0.0
 10
-120.6993
 20
-47.757
 30
0.0
 10
-120.6993
 20
-47.757
 30
0.0
 10
-114.3105
 20
-54.525
 30
0.0
 10
-108.0185
 20
-62.8926
 30
0.0
 10
-96.359
 20
-65.0982
 30
0.0
  0
SPLINE
  5
B9
330
1F
100
AcDbEntity
  8
Camada 1
 62
   250
370
     9
100
AcDbSpline
210
0.0
220
0.0
230
1.0
 70
     8
 71
     3
 72
     8
 73
     4
 74
     0
 42
0.000000001
 43
0.0000000001
 40
0.0
 40
0.0
 40
0.0
 40
0.0
 40
1.0
 40
1.0
 40
1.0
 40
1.0
 10
-84.9145
 20
-65.0982
 30
0.0
 10
-72.8946
 20
-62.5584
 30
0.0
 10
-67.3506
 20
-51.6653
 30
0.0
 10
-65.9679
 20
-41.3277
 30
0.0
  0
SPLINE
  5
BA
330
1F
100
AcDbEntity
  8
Camada 1
 62
   250
370
     9
100
AcDbSpline
210
0.0
220
0.0
230
1.0
 70
     8
 71
     3
 72
     8
 73
     4
 74
     0
 42
0.000000001
 43
0.0000000001
 40
0.0
 40
0.0
 40
0.0
 40
0.0
 40
1.0
 40
1.0
 40
1.0
 40
1.0
 10
-65.968
 20
-32.6578
 30
0.0
 10
-67.4564
 20
-23.5162
 30
0.0
 10
-73.7795
 20
-16.2006
 30
0.0
 10
-81.767
 20
-14.2516
 30
0.0
  0
SPLINE
  5
BB
330
1F
100
AcDbEntity
  8
Camada 1
 62
   250
370
     9
100
AcDbSpline
210
0.0
220
0.0
230
1.0
 70
    11
 71
     3
 72
    20
 73
    16
 74
     0
 42
0.000000001
 43
0.0000000001
 40
0.0
 40
0.0
 40
0.0
 40
0.0
 40
0.2
 40
0.2
 40
0.2
 40
0.2
 40
0.4
 40
0.4
 40
0.4
 40
0.4
 40
0.6
 40
0.6
 40
0.6
 40
0.6
 40
1.0
 40
1.0
 40
1.0
 40
1.0
 10
-104.5217
 20
-39.7275
 30
0.0
 10
-102.4639
 20
-38.5822
 30
0.0
 10
-101.7127
 20
-36.0079
 30
0.0
 10
-102.8429
 20
-33.9781
 30
0.0
 10
-102.8429
 20
-33.9781
 30
0.0
 10
-103.9731
 20
-31.9482
 30
0.0
 10
-106.5571
 20
-31.2316
 30
0.0
 10
-108.6143
 20
-32.377
 30
0.0
 10
-108.6143
 20
-32.377
 30
0.0
 10
-110.6722
 20
-33.523
 30
0.0
 10
-111.4241
 20
-36.0973
 30
0.0
 10
-110.2933
 20
-38.1272
 30
0.0
 10
-110.2933
 20
-38.1272
 30
0.0
 10
-109.1637
 20
-40.157
 30
0.0
 10
-106.579
 20
-40.8736
 30
0.0
 10
-104.5217
 20
-39.7275
 30
0.0
  0
SPLINE
  5
BC
330
1F
100
AcDbEntity
  8
Camada 1
 62
   250
370
     9
100
AcDbSpline
210
0.0
220
0.0
230
1.0
 70
    11
 71
     3
 72
    80
 73
    76
 74
     0
 42
0.000000001
 43
0.0000000001
 40
0.0
 40
0.0
 40
0.0
 40
0.0
 40
0.05
 40
0.05
 40
0.05
 40
0.05
 40
0.1
 40
0.1
 40
0.1
 40
0.1
 40
0.15
 40
0.15
 40
0.15
 40
0.15
 40
0.2
 40
0.2
 40
0.2
 40
0.2
 40
0.25
 40
0.25
 40
0.25
 40
0.25
 40
0.3
 40
0.3
 40
0.3
 40
0.3
 40
0.35
 40
0.35
 40
0.35
 40
0.35
 40
0.4
 40
0.4
 40
0.4
 40
0.4
 40
0.45
 40
0.45
 40
0.45
 40
0.45
 40
0.5
 40
0.5
 40
0.5
 40
0.5
 40
0.55
 40
0.55
 40
0.55
 40
0.55
 40
0.6
 40
0.6
 40
0.6
 40
0.6
 40
0.65
 40
0.65
 40
0.65
 40
0.65
 40
0.7
 40
0.7
 40
0.7
 40
0.7
 40
0.75
 40
0.75
 40
0.75
 40
0.75
 40
0.8
 40
0.8
 40
0.8
 40
0.8
 40
0.85
 40
0.85
 40
0.85
 40
0.85
 40
0.9
 40
0.9
 40
0.9
 40
0.9
 40
1.0
 40
1.0
 40
1.0
 40
1.0
 10
-51.576
 20
-37.7573
 30
0.0
 10
-51.576
 20
-37.7573
 30
0.0
 10
-51.8881
 20
-40.8717
 30
0.0
 10
-49.1885
 20
-42.429
 30
0.0
 10
-49.1885
 20
-42.429
 30
0.0
 10
-46.4889
 20
-43.9862
 30
0.0
 10
-44.3087
 20
-43.2593
 30
0.0
 10
-43.3744
 20
-42.0135
 30
0.0
 10
-43.3744
 20
-42.0135
 30
0.0
 10
-42.4401
 20
-40.7677
 30
0.0
 10
-42.1286
 20
-37.9131
 30
0.0
 10
-44.8799
 20
-35.5772
 30
0.0
 10
-44.8799
 20
-35.5772
 30
0.0
 10
-47.6313
 20
-33.2414
 30
0.0
 10
-54.4831
 20
-32.2006
 30
0.0
 10
-58.0124
 20
-40.2738
 30
0.0
 10
-58.0124
 20
-40.2738
 30
0.0
 10
-58.7393
 20
-41.702
 30
0.0
 10
-60.0891
 20
-41.2872
 30
0.0
 10
-60.3908
 20
-39.0031
 30
0.0
 10
-60.3908
 20
-39.0031
 30
0.0
 10
-61.987
 20
-24.4667
 30
0.0
 10
-52.4161
 20
-16.1179
 30
0.0
 10
-42.1809
 20
-18.2919
 30
0.0
 10
-42.1809
 20
-18.2919
 30
0.0
 10
-37.575
 20
-19.2701
 30
0.0
 10
-34.5712
 20
-22.8742
 30
0.0
 10
-31.8351
 20
-26.9389
 30
0.0
 10
-31.8351
 20
-26.9389
 30
0.0
 10
-34.0967
 20
-26.3956
 30
0.0
 10
-36.5184
 20
-27.3677
 30
0.0
 10
-37.6911
 20
-29.4736
 30
0.0
 10
-37.6911
 20
-29.4736
 30
0.0
 10
-39.106
 20
-32.0144
 30
0.0
 10
-38.165
 20
-35.2372
 30
0.0
 10
-35.5895
 20
-36.6709
 30
0.0
 10
-35.5895
 20
-36.6709
 30
0.0
 10
-34.9873
 20
-37.0061
 30
0.0
 10
-34.3479
 20
-37.2093
 30
0.0
 10
-33.705
 20
-37.2987
 30
0.0
 10
-33.705
 20
-37.2987
 30
0.0
 10
-34.3169
 20
-37.5305
 30
0.0
 10
-34.896
 20
-37.8754
 30
0.0
 10
-35.4046
 20
-38.3443
 30
0.0
 10
-35.4046
 20
-38.3443
 30
0.0
 10
-37.5458
 20
-40.3176
 30
0.0
 10
-37.6516
 20
-43.6596
 30
0.0
 10
-35.6381
 20
-45.8087
 30
0.0
 10
-35.6381
 20
-45.8087
 30
0.0
 10
-33.626
 20
-47.9578
 30
0.0
 10
-30.2584
 20
-48.1001
 30
0.0
 10
-28.1172
 20
-46.1274
 30
0.0
 10
-28.1172
 20
-46.1274
 30
0.0
 10
-27.616
 20
-45.6651
 30
0.0
 10
-27.2315
 20
-45.1268
 30
0.0
 10
-26.9541
 20
-44.5483
 30
0.0
 10
-26.9541
 20
-44.5483
 30
0.0
 10
-26.9152
 20
-45.2004
 30
0.0
 10
-26.7571
 20
-45.8573
 30
0.0
 10
-26.459
 20
-46.4881
 30
0.0
 10
-26.459
 20
-46.4881
 30
0.0
 10
-25.2077
 20
-49.1415
 30
0.0
 10
-22.0379
 20
-50.31
 30
0.0
 10
-19.3785
 20
-49.0965
 30
0.0
 10
-19.3785
 20
-49.0965
 30
0.0
 10
-19.0841
 20
-48.962
 30
0.0
 10
-18.8109
 20
-48.8008
 30
0.0
 10
-18.5548
 20
-48.622
 30
0.0
 10
-18.5548
 20
-48.622
 30
0.0
 10
-23.7466
 20
-53.958
 30
0.0
 10
-31.2694
 20
-59.8183
 30
0.0
 10
-39.2739
 20
-59.8183
 30
0.0
 10
-39.2739
 20
-59.8183
 30
0.0
 10
-48.0972
 20
-59.8183
 30
0.0
 10
-63.515
 20
-49.7997
 30
0.0
 10
-51.576
 20
-37.7573
 30
0.0
  0
SPLINE
  5
BD
330
1F
100
AcDbEntity
  8
Camada 1
 62
   250
370
     9
100
AcDbSpline
210
0.0
220
0.0
230
1.0
 70
    11
 71
     3
 72
    80
 73
    76
 74
     0
 42
0.000000001
 43
0.0000000001
 40
0.0
 40
0.0
 40
0.0
 40
0.0
 40
0.05
 40
0.05
 40
0.05
 40
0.05
 40
0.1
 40
0.1
 40
0.1
 40
0.1
 40
0.15
 40
0.15
 40
0.15
 40
0.15
 40
0.2
 40
0.2
 40
0.2
 40
0.2
 40
0.25
 40
0.25
 40
0.25
 40
0.25
 40
0.3
 40
0.3
 40
0.3
 40
0.3
 40
0.35
 40
0.35
 40
0.35
 40
0.35
 40
0.4
 40
0.4
 40
0.4
 40
0.4
 40
0.45
 40
0.45
 40
0.45
 40
0.45
 40
0.5
 40
0.5
 40
0.5
 40
0.5
 40
0.55
 40
0.55
 40
0.55
 40
0.55
 40
0.6
 40
0.6
 40
0.6
 40
0.6
 40
0.65
 40
0.65
 40
0.65
 40
0.65
 40
0.7
 40
0.7
 40
0.7
 40
0.7
 40
0.75
 40
0.75
 40
0.75
 40
0.75
 40
0.8
 40
0.8
 40
0.8
 40
0.8
 40
0.85
 40
0.85
 40
0.85
 40
0.85
 40
0.9
 40
0.9
 40
0.9
 40
0.9
 40
1.0
 40
1.0
 40
1.0
 40
1.0
 10
3.9857
 20
-46.4881
 30
0.0
 10
4.2832
 20
-45.8573
 30
0.0
 10
4.4419
 20
-45.2004
 30
0.0
 10
4.4809
 20
-44.5483
 30
0.0
 10
4.4809
 20
-44.5483
 30
0.0
 10
4.7576
 20
-45.1268
 30
0.0
 10
5.1427
 20
-45.6651
 30
0.0
 10
5.6433
 20
-46.1274
 30
0.0
 10
5.6433
 20
-46.1274
 30
0.0
 10
7.7845
 20
-48.1001
 30
0.0
 10
11.1526
 20
-47.9578
 30
0.0
 10
13.1649
 20
-45.8087
 30
0.0
 10
13.1649
 20
-45.8087
 30
0.0
 10
15.1777
 20
-43.6596
 30
0.0
 10
15.0725
 20
-40.3176
 30
0.0
 10
12.9307
 20
-38.3443
 30
0.0
 10
12.9307
 20
-38.3443
 30
0.0
 10
12.4221
 20
-37.8754
 30
0.0
 10
11.8436
 20
-37.5305
 30
0.0
 10
11.2311
 20
-37.2987
 30
0.0
 10
11.2311
 20
-37.2987
 30
0.0
 10
11.874
 20
-37.2093
 30
0.0
 10
12.5134
 20
-37.0061
 30
0.0
 10
13.1156
 20
-36.6709
 30
0.0
 10
13.1156
 20
-36.6709
 30
0.0
 10
15.6911
 20
-35.2372
 30
0.0
 10
16.6321
 20
-32.0144
 30
0.0
 10
15.2172
 20
-29.4736
 30
0.0
 10
15.2172
 20
-29.4736
 30
0.0
 10
14.0445
 20
-27.3677
 30
0.0
 10
11.6228
 20
-26.3956
 30
0.0
 10
9.3612
 20
-26.9389
 30
0.0
 10
9.3612
 20
-26.9389
 30
0.0
 10
12.0979
 20
-22.8742
 30
0.0
 10
15.1017
 20
-19.2701
 30
0.0
 10
19.707
 20
-18.2919
 30
0.0
 10
19.707
 20
-18.2919
 30
0.0
 10
29.9422
 20
-16.1179
 30
0.0
 10
39.5137
 20
-24.4667
 30
0.0
 10
37.9176
 20
-39.0031
 30
0.0
 10
37.9176
 20
-39.0031
 30
0.0
 10
37.6152
 20
-41.2872
 30
0.0
 10
36.2654
 20
-41.702
 30
0.0
 10
35.5391
 20
-40.2738
 30
0.0
 10
35.5391
 20
-40.2738
 30
0.0
 10
32.0092
 20
-32.2006
 30
0.0
 10
25.1574
 20
-33.2414
 30
0.0
 10
22.406
 20
-35.5772
 30
0.0
 10
22.406
 20
-35.5772
 30
0.0
 10
19.6547
 20
-37.9131
 30
0.0
 10
19.9668
 20
-40.7677
 30
0.0
 10
20.9011
 20
-42.0135
 30
0.0
 10
20.9011
 20
-42.0135
 30
0.0
 10
21.8355
 20
-43.2593
 30
0.0
 10
24.0156
 20
-43.9862
 30
0.0
 10
26.7146
 20
-42.429
 30
0.0
 10
26.7146
 20
-42.429
 30
0.0
 10
29.4142
 20
-40.8717
 30
0.0
 10
29.1021
 20
-37.7573
 30
0.0
 10
29.1021
 20
-37.7573
 30
0.0
 10
29.1021
 20
-37.7573
 30
0.0
 10
41.0411
 20
-49.7997
 30
0.0
 10
25.6233
 20
-59.8183
 30
0.0
 10
16.8
 20
-59.8183
 30
0.0
 10
16.8
 20
-59.8183
 30
0.0
 10
8.7955
 20
-59.8183
 30
0.0
 10
1.2727
 20
-53.958
 30
0.0
 10
-3.9191
 20
-48.622
 30
0.0
 10
-3.9191
 20
-48.622
 30
0.0
 10
-3.6629
 20
-48.8008
 30
0.0
 10
-3.3899
 20
-48.962
 30
0.0
 10
-3.0948
 20
-49.0965
 30
0.0
 10
-3.0948
 20
-49.0965
 30
0.0
 10
-0.436
 20
-50.31
 30
0.0
 10
2.7338
 20
-49.1415
 30
0.0
 10
3.9857
 20
-46.4881
 30
0.0
  0
SPLINE
  5
BE
330
1F
100
AcDbEntity
  8
Camada 1
 62
   250
370
     9
100
AcDbSpline
210
0.0
220
0.0
230
1.0
 70
    11
 71
     3
 72
    20
 73
    16
 74
     0
 42
0.000000001
 43
0.0000000001
 40
0.0
 40
0.0
 40
0.0
 40
0.0
 40
0.2
 40
0.2
 40
0.2
 40
0.2
 40
0.4
 40
0.4
 40
0.4
 40
0.4
 40
0.6
 40
0.6
 40
0.6
 40
0.6
 40
1.0
 40
1.0
 40
1.0
 40
1.0
 10
-27.414
 20
-39.7275
 30
0.0
 10
-29.4725
 20
-38.5822
 30
0.0
 10
-30.2237
 20
-36.0079
 30
0.0
 10
-29.0929
 20
-33.9781
 30
0.0
 10
-29.0929
 20
-33.9781
 30
0.0
 10
-27.9633
 20
-31.9482
 30
0.0
 10
-25.3787
 20
-31.2316
 30
0.0
 10
-23.3214
 20
-32.377
 30
0.0
 10
-23.3214
 20
-32.377
 30
0.0
 10
-21.2642
 20
-33.523
 30
0.0
 10
-20.5123
 20
-36.0973
 30
0.0
 10
-21.6426
 20
-38.1272
 30
0.0
 10
-21.6426
 20
-38.1272
 30
0.0
 10
-22.7727
 20
-40.157
 30
0.0
 10
-25.3568
 20
-40.8736
 30
0.0
 10
-27.414
 20
-39.7275
 30
0.0
  0
SPLINE
  5
BF
330
1F
100
AcDbEntity
  8
Camada 1
 62
   250
370
     9
100
AcDbSpline
210
0.0
220
0.0
230
1.0
 70
    11
 71
     3
 72
    20
 73
    16
 74
     0
 42
0.000000001
 43
0.0000000001
 40
0.0
 40
0.0
 40
0.0
 40
0.0
 40
0.2
 40
0.2
 40
0.2
 40
0.2
 40
0.4
 40
0.4
 40
0.4
 40
0.4
 40
0.6
 40
0.6
 40
0.6
 40
0.6
 40
1.0
 40
1.0
 40
1.0
 40
1.0
 10
4.9408
 20
-39.7275
 30
0.0
 10
6.9986
 20
-38.5822
 30
0.0
 10
7.7498
 20
-36.0079
 30
0.0
 10
6.6196
 20
-33.9781
 30
0.0
 10
6.6196
 20
-33.9781
 30
0.0
 10
5.4894
 20
-31.9482
 30
0.0
 10
2.9054
 20
-31.2316
 30
0.0
 10
0.8482
 20
-32.377
 30
0.0
 10
0.8482
 20
-32.377
 30
0.0
 10
-1.2097
 20
-33.523
 30
0.0
 10
-1.9616
 20
-36.0973
 30
0.0
 10
-0.8308
 20
-38.1272
 30
0.0
 10
-0.8308
 20
-38.1272
 30
0.0
 10
0.2988
 20
-40.157
 30
0.0
 10
2.8835
 20
-40.8736
 30
0.0
 10
4.9408
 20
-39.7275
 30
0.0
  0
SPLINE
  5
C0
330
1F
100
AcDbEntity
  8
Camada 1
 62
   250
370
     9
100
AcDbSpline
210
0.0
220
0.0
230
1.0
 70
    11
 71
     3
 72
    80
 73
    76
 74
     0
 42
0.000000001
 43
0.0000000001
 40
0.0
 40
0.0
 40
0.0
 40
0.0
 40
0.05
 40
0.05
 40
0.05
 40
0.05
 40
0.1
 40
0.1
 40
0.1
 40
0.1
 40
0.15
 40
0.15
 40
0.15
 40
0.15
 40
0.2
 40
0.2
 40
0.2
 40
0.2
 40
0.25
 40
0.25
 40
0.25
 40
0.25
 40
0.3
 40
0.3
 40
0.3
 40
0.3
 40
0.35
 40
0.35
 40
0.35
 40
0.35
 40
0.4
 40
0.4
 40
0.4
 40
0.4
 40
0.45
 40
0.45
 40
0.45
 40
0.45
 40
0.5
 40
0.5
 40
0.5
 40
0.5
 40
0.55
 40
0.55
 40
0.55
 40
0.55
 40
0.6
 40
0.6
 40
0.6
 40
0.6
 40
0.65
 40
0.65
 40
0.65
 40
0.65
 40
0.7
 40
0.7
 40
0.7
 40
0.7
 40
0.75
 40
0.75
 40
0.75
 40
0.75
 40
0.8
 40
0.8
 40
0.8
 40
0.8
 40
0.85
 40
0.85
 40
0.85
 40
0.85
 40
0.9
 40
0.9
 40
0.9
 40
0.9
 40
1.0
 40
1.0
 40
1.0
 40
1.0
 10
-161.0385
 20
-37.7573
 30
0.0
 10
-161.0385
 20
-37.7573
 30
0.0
 10
-161.3506
 20
-40.8717
 30
0.0
 10
-158.651
 20
-42.429
 30
0.0
 10
-158.651
 20
-42.429
 30
0.0
 10
-155.9514
 20
-43.9862
 30
0.0
 10
-153.7712
 20
-43.2593
 30
0.0
 10
-152.8369
 20
-42.0135
 30
0.0
 10
-152.8369
 20
-42.0135
 30
0.0
 10
-151.9026
 20
-40.7677
 30
0.0
 10
-151.5911
 20
-37.9131
 30
0.0
 10
-154.3424
 20
-35.5772
 30
0.0
 10
-154.3424
 20
-35.5772
 30
0.0
 10
-157.0938
 20
-33.2414
 30
0.0
 10
-163.9456
 20
-32.2006
 30
0.0
 10
-167.4749
 20
-40.2738
 30
0.0
 10
-167.4749
 20
-40.2738
 30
0.0
 10
-168.2018
 20
-41.702
 30
0.0
 10
-169.5516
 20
-41.2872
 30
0.0
 10
-169.8533
 20
-39.0031
 30
0.0
 10
-169.8533
 20
-39.0031
 30
0.0
 10
-171.4495
 20
-24.4667
 30
0.0
 10
-161.8786
 20
-16.1179
 30
0.0
 10
-151.6434
 20
-18.2919
 30
0.0
 10
-151.6434
 20
-18.2919
 30
0.0
 10
-147.0375
 20
-19.2701
 30
0.0
 10
-144.0337
 20
-22.8742
 30
0.0
 10
-141.2976
 20
-26.9389
 30
0.0
 10
-141.2976
 20
-26.9389
 30
0.0
 10
-143.5592
 20
-26.3956
 30
0.0
 10
-145.9809
 20
-27.3677
 30
0.0
 10
-147.1536
 20
-29.4736
 30
0.0
 10
-147.1536
 20
-29.4736
 30
0.0
 10
-148.5685
 20
-32.0144
 30
0.0
 10
-147.6275
 20
-35.2372
 30
0.0
 10
-145.052
 20
-36.6709
 30
0.0
 10
-145.052
 20
-36.6709
 30
0.0
 10
-144.4498
 20
-37.0061
 30
0.0
 10
-143.8104
 20
-37.2093
 30
0.0
 10
-143.1675
 20
-37.2987
 30
0.0
 10
-143.1675
 20
-37.2987
 30
0.0
 10
-143.7794
 20
-37.5305
 30
0.0
 10
-144.3585
 20
-37.8754
 30
0.0
 10
-144.8671
 20
-38.3443
 30
0.0
 10
-144.8671
 20
-38.3443
 30
0.0
 10
-147.0083
 20
-40.3176
 30
0.0
 10
-147.1141
 20
-43.6596
 30
0.0
 10
-145.1006
 20
-45.8087
 30
0.0
 10
-145.1006
 20
-45.8087
 30
0.0
 10
-143.0885
 20
-47.9578
 30
0.0
 10
-139.7209
 20
-48.1001
 30
0.0
 10
-137.5797
 20
-46.1274
 30
0.0
 10
-137.5797
 20
-46.1274
 30
0.0
 10
-137.0785
 20
-45.6651
 30
0.0
 10
-136.694
 20
-45.1268
 30
0.0
 10
-136.4166
 20
-44.5483
 30
0.0
 10
-136.4166
 20
-44.5483
 30
0.0
 10
-136.3777
 20
-45.2004
 30
0.0
 10
-136.2196
 20
-45.8573
 30
0.0
 10
-135.9215
 20
-46.4881
 30
0.0
 10
-135.9215
 20
-46.4881
 30
0.0
 10
-134.6702
 20
-49.1415
 30
0.0
 10
-131.5004
 20
-50.31
 30
0.0
 10
-128.841
 20
-49.0965
 30
0.0
 10
-128.841
 20
-49.0965
 30
0.0
 10
-128.5466
 20
-48.962
 30
0.0
 10
-128.2734
 20
-48.8008
 30
0.0
 10
-128.0173
 20
-48.622
 30
0.0
 10
-128.0173
 20
-48.622
 30
0.0
 10
-133.2091
 20
-53.958
 30
0.0
 10
-140.7319
 20
-59.8183
 30
0.0
 10
-148.7364
 20
-59.8183
 30
0.0
 10
-148.7364
 20
-59.8183
 30
0.0
 10
-157.5597
 20
-59.8183
 30
0.0
 10
-172.9775
 20
-49.7997
 30
0.0
 10
-161.0385
 20
-37.7573
 30
0.0
  0
SPLINE
  5
C1
330
1F
100
AcDbEntity
  8
Camada 1
 62
   250
370
     9
100
AcDbSpline
210
0.0
220
0.0
230
1.0
 70
    11
 71
     3
 72
    80
 73
    76
 74
     0
 42
0.000000001
 43
0.0000000001
 40
0.0
 40
0.0
 40
0.0
 40
0.0
 40
0.05
 40
0.05
 40
0.05
 40
0.05
 40
0.1
 40
0.1
 40
0.1
 40
0.1
 40
0.15
 40
0.15
 40
0.15
 40
0.15
 40
0.2
 40
0.2
 40
0.2
 40
0.2
 40
0.25
 40
0.25
 40
0.25
 40
0.25
 40
0.3
 40
0.3
 40
0.3
 40
0.3
 40
0.35
 40
0.35
 40
0.35
 40
0.35
 40
0.4
 40
0.4
 40
0.4
 40
0.4
 40
0.45
 40
0.45
 40
0.45
 40
0.45
 40
0.5
 40
0.5
 40
0.5
 40
0.5
 40
0.55
 40
0.55
 40
0.55
 40
0.55
 40
0.6
 40
0.6
 40
0.6
 40
0.6
 40
0.65
 40
0.65
 40
0.65
 40
0.65
 40
0.7
 40
0.7
 40
0.7
 40
0.7
 40
0.75
 40
0.75
 40
0.75
 40
0.75
 40
0.8
 40
0.8
 40
0.8
 40
0.8
 40
0.85
 40
0.85
 40
0.85
 40
0.85
 40
0.9
 40
0.9
 40
0.9
 40
0.9
 40
1.0
 40
1.0
 40
1.0
 40
1.0
 10
-105.4768
 20
-46.4881
 30
0.0
 10
-105.1793
 20
-45.8573
 30
0.0
 10
-105.0206
 20
-45.2004
 30
0.0
 10
-104.9816
 20
-44.5483
 30
0.0
 10
-104.9816
 20
-44.5483
 30
0.0
 10
-104.7049
 20
-45.1268
 30
0.0
 10
-104.3198
 20
-45.6651
 30
0.0
 10
-103.8192
 20
-46.1274
 30
0.0
 10
-103.8192
 20
-46.1274
 30
0.0
 10
-101.678
 20
-48.1001
 30
0.0
 10
-98.3099
 20
-47.9578
 30
0.0
 10
-96.2976
 20
-45.8087
 30
0.0
 10
-96.2976
 20
-45.8087
 30
0.0
 10
-94.2848
 20
-43.6596
 30
0.0
 10
-94.39
 20
-40.3176
 30
0.0
 10
-96.5318
 20
-38.3443
 30
0.0
 10
-96.5318
 20
-38.3443
 30
0.0
 10
-97.0404
 20
-37.8754
 30
0.0
 10
-97.6189
 20
-37.5305
 30
0.0
 10
-98.2314
 20
-37.2987
 30
0.0
 10
-98.2314
 20
-37.2987
 30
0.0
 10
-97.5885
 20
-37.2093
 30
0.0
 10
-96.9491
 20
-37.0061
 30
0.0
 10
-96.3469
 20
-36.6709
 30
0.0
 10
-96.3469
 20
-36.6709
 30
0.0
 10
-93.7714
 20
-35.2372
 30
0.0
 10
-92.8304
 20
-32.0144
 30
0.0
 10
-94.2453
 20
-29.4736
 30
0.0
 10
-94.2453
 20
-29.4736
 30
0.0
 10
-95.418
 20
-27.3677
 30
0.0
 10
-97.8397
 20
-26.3956
 30
0.0
 10
-100.1013
 20
-26.9389
 30
0.0
 10
-100.1013
 20
-26.9389
 30
0.0
 10
-97.3646
 20
-22.8742
 30
0.0
 10
-94.3608
 20
-19.2701
 30
0.0
 10
-89.7555
 20
-18.2919
 30
0.0
 10
-89.7555
 20
-18.2919
 30
0.0
 10
-79.5203
 20
-16.1179
 30
0.0
 10
-69.9488
 20
-24.4667
 30
0.0
 10
-71.5449
 20
-39.0031
 30
0.0
 10
-71.5449
 20
-39.0031
 30
0.0
 10
-71.8473
 20
-41.2872
 30
0.0
 10
-73.1971
 20
-41.702
 30
0.0
 10
-73.9234
 20
-40.2738
 30
0.0
 10
-73.9234
 20
-40.2738
 30
0.0
 10
-77.4533
 20
-32.2006
 30
0.0
 10
-84.3051
 20
-33.2414
 30
0.0
 10
-87.0565
 20
-35.5772
 30
0.0
 10
-87.0565
 20
-35.5772
 30
0.0
 10
-89.8078
 20
-37.9131
 30
0.0
 10
-89.4957
 20
-40.7677
 30
0.0
 10
-88.5614
 20
-42.0135
 30
0.0
 10
-88.5614
 20
-42.0135
 30
0.0
 10
-87.627
 20
-43.2593
 30
0.0
 10
-85.4469
 20
-43.9862
 30
0.0
 10
-82.7479
 20
-42.429
 30
0.0
 10
-82.7479
 20
-42.429
 30
0.0
 10
-80.0483
 20
-40.8717
 30
0.0
 10
-80.3604
 20
-37.7573
 30
0.0
 10
-80.3604
 20
-37.7573
 30
0.0
 10
-80.3604
 20
-37.7573
 30
0.0
 10
-68.4214
 20
-49.7997
 30
0.0
 10
-83.8392
 20
-59.8183
 30
0.0
 10
-92.6625
 20
-59.8183
 30
0.0
 10
-92.6625
 20
-59.8183
 30
0.0
 10
-100.667
 20
-59.8183
 30
0.0
 10
-108.1898
 20
-53.958
 30
0.0
 10
-113.3816
 20
-48.622
 30
0.0
 10
-113.3816
 20
-48.622
 30
0.0
 10
-113.1254
 20
-48.8008
 30
0.0
 10
-112.8524
 20
-48.962
 30
0.0
 10
-112.5573
 20
-49.0965
 30
0.0
 10
-112.5573
 20
-49.0965
 30
0.0
 10
-109.8985
 20
-50.31
 30
0.0
 10
-106.7287
 20
-49.1415
 30
0.0
 10
-105.4768
 20
-46.4881
 30
0.0
  0
SPLINE
  5
C2
330
1F
100
AcDbEntity
  8
Camada 1
 62
   250
370
     9
100
AcDbSpline
210
0.0
220
0.0
230
1.0
 70
    11
 71
     3
 72
    20
 73
    16
 74
     0
 42
0.000000001
 43
0.0000000001
 40
0.0
 40
0.0
 40
0.0
 40
0.0
 40
0.2
 40
0.2
 40
0.2
 40
0.2
 40
0.4
 40
0.4
 40
0.4
 40
0.4
 40
0.6
 40
0.6
 40
0.6
 40
0.6
 40
1.0
 40
1.0
 40
1.0
 40
1.0
 10
-136.8765
 20
-39.7275
 30
0.0
 10
-138.935
 20
-38.5822
 30
0.0
 10
-139.6862
 20
-36.0079
 30
0.0
 10
-138.5554
 20
-33.9781
 30
0.0
 10
-138.5554
 20
-33.9781
 30
0.0
 10
-137.4258
 20
-31.9482
 30
0.0
 10
-134.8412
 20
-31.2316
 30
0.0
 10
-132.7839
 20
-32.377
 30
0.0
 10
-132.7839
 20
-32.377
 30
0.0
 10
-130.7267
 20
-33.523
 30
0.0
 10
-129.9748
 20
-36.0973
 30
0.0
 10
-131.1051
 20
-38.1272
 30
0.0
 10
-131.1051
 20
-38.1272
 30
0.0
 10
-132.2352
 20
-40.157
 30
0.0
 10
-134.8193
 20
-40.8736
 30
0.0
 10
-136.8765
 20
-39.7275
 30
0.0
  0
SPLINE
  5
C3
330
1F
100
AcDbEntity
  8
Camada 1
 62
   250
370
     9
100
AcDbSpline
210
0.0
220
0.0
230
1.0
 70
     8
 71
     3
 72
    12
 73
     8
 74
     0
 42
0.000000001
 43
0.0000000001
 40
0.0
 40
0.0
 40
0.0
 40
0.0
 40
0.3333333333333333
 40
0.3333333333333333
 40
0.3333333333333333
 40
0.3333333333333333
 40
1.0
 40
1.0
 40
1.0
 40
1.0
 10
98.4126
 20
-65.1596
 30
0.0
 10
110.3925
 20
-63.1013
 30
0.0
 10
116.7723
 20
-54.5923
 30
0.0
 10
123.2518
 20
-47.7284
 30
0.0
 10
123.2518
 20
-47.7284
 30
0.0
 10
129.7309
 20
-54.5922
 30
0.0
 10
136.1107
 20
-63.1011
 30
0.0
 10
148.0902
 20
-65.1595
 30
0.0
  0
SPLINE
  5
C4
330
1F
100
AcDbEntity
  8
Camada 1
 62
   250
370
     9
100
AcDbSpline
210
0.0
220
0.0
230
1.0
 70
     8
 71
     3
 72
    12
 73
     8
 74
     0
 42
0.000000001
 43
0.0000000001
 40
0.0
 40
0.0
 40
0.0
 40
0.0
 40
0.3333333333333333
 40
0.3333333333333333
 40
0.3333333333333333
 40
0.3333333333333333
 40
1.0
 40
1.0
 40
1.0
 40
1.0
 10
87.9128
 20
-65.1595
 30
0.0
 10
87.9128
 20
-65.1595
 30
0.0
 10
68.6672
 20
-65.1595
 30
0.0
 10
68.6672
 20
-65.1595
 30
0.0
 10
68.6672
 20
-65.1595
 30
0.0
 10
68.6672
 20
-65.1595
 30
0.0
 10
68.6672
 20
-42.2992
 30
0.0
 10
68.6672
 20
-42.2992
 30
0.0
  0
SPLINE
  5
C5
330
1F
100
AcDbEntity
  8
Camada 1
 62
   250
370
     9
100
AcDbSpline
210
0.0
220
0.0
230
1.0
 70
    11
 71
     3
 72
    16
 73
    12
 74
     0
 42
0.000000001
 43
0.0000000001
 40
0.0
 40
0.0
 40
0.0
 40
0.0
 40
0.25
 40
0.25
 40
0.25
 40
0.25
 40
0.5
 40
0.5
 40
0.5
 40
0.5
 40
1.0
 40
1.0
 40
1.0
 40
1.0
 10
68.6672
 20
-31.8127
 30
0.0
 10
68.6672
 20
-31.8127
 30
0.0
 10
68.6672
 20
-14.134
 30
0.0
 10
68.6672
 20
-14.134
 30
0.0
 10
68.6672
 20
-14.134
 30
0.0
 10
68.6672
 20
-14.134
 30
0.0
 10
84.7022
 20
-14.134
 30
0.0
 10
84.7022
 20
-14.134
 30
0.0
 10
84.7022
 20
-14.134
 30
0.0
 10
76.7749
 20
-15.8861
 30
0.0
 10
70.4173
 20
-22.91
 30
0.0
 10
68.6672
 20
-31.8127
 30
0.0
  0
SPLINE
  5
C6
330
1F
100
AcDbEntity
  8
Camada 1
 62
   250
370
     9
100
AcDbSpline
210
0.0
220
0.0
230
1.0
 70
    11
 71
     3
 72
   120
 73
   116
 74
     0
 42
0.000000001
 43
0.0000000001
 40
0.0
 40
0.0
 40
0.0
 40
0.0
 40
0.0333333333333333
 40
0.0333333333333333
 40
0.0333333333333333
 40
0.0333333333333333
 40
0.0666666666666667
 40
0.0666666666666667
 40
0.0666666666666667
 40
0.0666666666666667
 40
0.1
 40
0.1
 40
0.1
 40
0.1
 40
0.1333333333333333
 40
0.1333333333333333
 40
0.1333333333333333
 40
0.1333333333333333
 40
0.1666666666666667
 40
0.1666666666666667
 40
0.1666666666666667
 40
0.1666666666666667
 40
0.2
 40
0.2
 40
0.2
 40
0.2
 40
0.2333333333333333
 40
0.2333333333333333
 40
0.2333333333333333
 40
0.2333333333333333
 40
0.2666666666666667
 40
0.2666666666666667
 40
0.2666666666666667
 40
0.2666666666666667
 40
0.3
 40
0.3
 40
0.3
 40
0.3
 40
0.3333333333333333
 40
0.3333333333333333
 40
0.3333333333333333
 40
0.3333333333333333
 40
0.3666666666666666
 40
0.3666666666666666
 40
0.3666666666666666
 40
0.3666666666666666
 40
0.4
 40
0.4
 40
0.4
 40
0.4
 40
0.4333333333333333
 40
0.4333333333333333
 40
0.4333333333333333
 40
0.4333333333333333
 40
0.4666666666666667
 40
0.4666666666666667
 40
0.4666666666666667
 40
0.4666666666666667
 40
0.5
 40
0.5
 40
0.5
 40
0.5
 40
0.5333333333333333
 40
0.5333333333333333
 40
0.5333333333333333
 40
0.5333333333333333
 40
0.5666666666666667
 40
0.5666666666666667
 40
0.5666666666666667
 40
0.5666666666666667
 40
0.6
 40
0.6
 40
0.6
 40
0.6
 40
0.6333333333333333
 40
0.6333333333333333
 40
0.6333333333333333
 40
0.6333333333333333
 40
0.6666666666666666
 40
0.6666666666666666
 40
0.6666666666666666
 40
0.6666666666666666
 40
0.7
 40
0.7
 40
0.7
 40
0.7
 40
0.7333333333333333
 40
0.7333333333333333
 40
0.7333333333333333
 40
0.7333333333333333
 40
0.7666666666666667
 40
0.7666666666666667
 40
0.7666666666666667
 40
0.7666666666666667
 40
0.8
 40
0.8
 40
0.8
 40
0.8
 40
0.8333333333333334
 40
0.8333333333333334
 40
0.8333333333333334
 40
0.8333333333333334
 40
0.8666666666666667
 40
0.8666666666666667
 40
0.8666666666666667
 40
0.8666666666666667
 40
0.9
 40
0.9
 40
0.9
 40
0.9
 40
0.9333333333333333
 40
0.9333333333333333
 40
0.9333333333333333
 40
0.9333333333333333
 40
1.0
 40
1.0
 40
1.0
 40
1.0
 10
154.0261
 20
-14.134
 30
0.0
 10
154.0261
 20
-14.134
 30
0.0
 10
92.4773
 20
-14.134
 30
0.0
 10
92.4773
 20
-14.134
 30
0.0
 10
92.4773
 20
-14.134
 30
0.0
 10
92.904
 20
-14.2262
 30
0.0
 10
93.3321
 20
-14.3341
 30
0.0
 10
93.7615
 20
-14.4579
 30
0.0
 10
93.7615
 20
-14.4579
 30
0.0
 10
99.3067
 20
-16.0559
 30
0.0
 10
102.7301
 20
-20.5578
 30
0.0
 10
105.9808
 20
-25.5203
 30
0.0
 10
105.9808
 20
-25.5203
 30
0.0
 10
106.987
 20
-23.3967
 30
0.0
 10
109.349
 20
-22.1479
 30
0.0
 10
111.7889
 20
-22.637
 30
0.0
 10
111.7889
 20
-22.637
 30
0.0
 10
114.6758
 20
-23.2155
 30
0.0
 10
116.57
 20
-26.0033
 30
0.0
 10
116.0201
 20
-28.8629
 30
0.0
 10
116.0201
 20
-28.8629
 30
0.0
 10
115.8899
 20
-29.5424
 30
0.0
 10
115.6296
 20
-30.1616
 30
0.0
 10
115.2756
 20
-30.7079
 30
0.0
 10
115.2756
 20
-30.7079
 30
0.0
 10
115.8443
 20
-30.4055
 30
0.0
 10
116.4769
 20
-30.1981
 30
0.0
 10
117.1589
 20
-30.1202
 30
0.0
 10
117.1589
 20
-30.1202
 30
0.0
 10
120.0738
 20
-29.7869
 30
0.0
 10
122.7369
 20
-31.866
 30
0.0
 10
123.1065
 20
-34.7651
 30
0.0
 10
123.1065
 20
-34.7651
 30
0.0
 10
123.4756
 20
-37.6636
 30
0.0
 10
121.4114
 20
-40.2841
 30
0.0
 10
118.4965
 20
-40.6169
 30
0.0
 10
118.4965
 20
-40.6169
 30
0.0
 10
117.8036
 20
-40.6966
 30
0.0
 10
117.1272
 20
-40.6357
 30
0.0
 10
116.491
 20
-40.4642
 30
0.0
 10
116.491
 20
-40.4642
 30
0.0
 10
116.963
 20
-40.9107
 30
0.0
 10
117.3633
 20
-41.4466
 30
0.0
 10
117.6565
 20
-42.0671
 30
0.0
 10
117.6565
 20
-42.0671
 30
0.0
 10
118.4399
 20
-43.7283
 30
0.0
 10
118.286
 20
-45.5787
 30
0.0
 10
117.4089
 20
-47.0276
 30
0.0
 10
117.4089
 20
-47.0276
 30
0.0
 10
118.8292
 20
-45.4692
 30
0.0
 10
120.0227
 20
-44.0148
 30
0.0
 10
120.9352
 20
-42.8414
 30
0.0
 10
120.9352
 20
-42.8414
 30
0.0
 10
121.378
 20
-42.3426
 30
0.0
 10
122.2953
 20
-41.974
 30
0.0
 10
123.1643
 20
-41.9545
 30
0.0
 10
123.1643
 20
-41.9545
 30
0.0
 10
123.1934
 20
-41.9533
 30
0.0
 10
123.2226
 20
-41.9533
 30
0.0
 10
123.2518
 20
-41.9533
 30
0.0
 10
123.2518
 20
-41.9533
 30
0.0
 10
123.281
 20
-41.9533
 30
0.0
 10
123.3101
 20
-41.9533
 30
0.0
 10
123.3394
 20
-41.9545
 30
0.0
 10
123.3394
 20
-41.9545
 30
0.0
 10
124.2086
 20
-41.974
 30
0.0
 10
125.1253
 20
-42.3426
 30
0.0
 10
125.5687
 20
-42.8414
 30
0.0
 10
125.5687
 20
-42.8414
 30
0.0
 10
126.4812
 20
-44.0148
 30
0.0
 10
127.6741
 20
-45.4692
 30
0.0
 10
129.0944
 20
-47.0276
 30
0.0
 10
129.0944
 20
-47.0276
 30
0.0
 10
128.2173
 20
-45.5787
 30
0.0
 10
128.0634
 20
-43.7283
 30
0.0
 10
128.8468
 20
-42.0671
 30
0.0
 10
128.8468
 20
-42.0671
 30
0.0
 10
129.14
 20
-41.4466
 30
0.0
 10
129.5409
 20
-40.9107
 30
0.0
 10
130.013
 20
-40.4642
 30
0.0
 10
130.013
 20
-40.4642
 30
0.0
 10
129.3761
 20
-40.6357
 30
0.0
 10
128.6997
 20
-40.6966
 30
0.0
 10
128.0068
 20
-40.6169
 30
0.0
 10
128.0068
 20
-40.6169
 30
0.0
 10
125.0919
 20
-40.2841
 30
0.0
 10
123.028
 20
-37.6636
 30
0.0
 10
123.3972
 20
-34.7651
 30
0.0
 10
123.3972
 20
-34.7651
 30
0.0
 10
123.7664
 20
-31.866
 30
0.0
 10
126.4301
 20
-29.7869
 30
0.0
 10
129.3444
 20
-30.1202
 30
0.0
 10
129.3444
 20
-30.1202
 30
0.0
 10
130.0264
 20
-30.1981
 30
0.0
 10
130.659
 20
-30.4055
 30
0.0
 10
131.2277
 20
-30.7079
 30
0.0
 10
131.2277
 20
-30.7079
 30
0.0
 10
130.8737
 20
-30.1616
 30
0.0
 10
130.6134
 20
-29.5424
 30
0.0
 10
130.4832
 20
-28.8629
 30
0.0
 10
130.4832
 20
-28.8629
 30
0.0
 10
129.9339
 20
-26.0033
 30
0.0
 10
131.8275
 20
-23.2155
 30
0.0
 10
134.7144
 20
-22.637
 30
0.0
 10
134.7144
 20
-22.637
 30
0.0
 10
137.1543
 20
-22.1479
 30
0.0
 10
139.5163
 20
-23.3967
 30
0.0
 10
140.523
 20
-25.5203
 30
0.0
 10
140.523
 20
-25.5203
 30
0.0
 10
143.7738
 20
-20.5578
 30
0.0
 10
147.1973
 20
-16.0559
 30
0.0
 10
152.7418
 20
-14.4579
 30
0.0
 10
152.7418
 20
-14.4579
 30
0.0
 10
153.1712
 20
-14.3341
 30
0.0
 10
153.5995
 20
-14.2263
 30
0.0
 10
154.0261
 20
-14.134
 30
0.0
  0
SPLINE
  5
C7
330
1F
100
AcDbEntity
  8
Camada 1
 62
   250
370
     9
100
AcDbSpline
210
0.0
220
0.0
230
1.0
 70
    11
 71
     3
 72
    16
 73
    12
 74
     0
 42
0.000000001
 43
0.0000000001
 40
0.0
 40
0.0
 40
0.0
 40
0.0
 40
0.25
 40
0.25
 40
0.25
 40
0.25
 40
0.5
 40
0.5
 40
0.5
 40
0.5
 40
1.0
 40
1.0
 40
1.0
 40
1.0
 10
177.8627
 20
-31.948
 30
0.0
 10
177.8627
 20
-31.948
 30
0.0
 10
177.8627
 20
-14.134
 30
0.0
 10
177.8627
 20
-14.134
 30
0.0
 10
177.8627
 20
-14.134
 30
0.0
 10
177.8627
 20
-14.134
 30
0.0
 10
161.8014
 20
-14.134
 30
0.0
 10
161.8014
 20
-14.134
 30
0.0
 10
161.8014
 20
-14.134
 30
0.0
 10
169.7687
 20
-15.8951
 30
0.0
 10
176.1505
 20
-22.9814
 30
0.0
 10
177.8627
 20
-31.948
 30
0.0
  0
SPLINE
  5
C8
330
1F
100
AcDbEntity
  8
Camada 1
 62
   250
370
     9
100
AcDbSpline
210
0.0
220
0.0
230
1.0
 70
     8
 71
     3
 72
    12
 73
     8
 74
     0
 42
0.000000001
 43
0.0000000001
 40
0.0
 40
0.0
 40
0.0
 40
0.0
 40
0.3333333333333333
 40
0.3333333333333333
 40
0.3333333333333333
 40
0.3333333333333333
 40
1.0
 40
1.0
 40
1.0
 40
1.0
 10
177.8627
 20
-42.1326
 30
0.0
 10
177.8627
 20
-42.1326
 30
0.0
 10
177.8627
 20
-65.1595
 30
0.0
 10
177.8627
 20
-65.1595
 30
0.0
 10
177.8627
 20
-65.1595
 30
0.0
 10
177.8627
 20
-65.1595
 30
0.0
 10
158.5899
 20
-65.1595
 30
0.0
 10
158.5899
 20
-65.1595
 30
0.0
  0
SPLINE
  5
C9
330
1F
100
AcDbEntity
  8
Camada 1
 62
   250
370
     9
100
AcDbSpline
210
0.0
220
0.0
230
1.0
 70
    24
 71
     3
 72
     8
 73
     4
 74
     0
 42
0.000000001
 43
0.0000000001
 40
0.0
 40
0.0
 40
0.0
 40
0.0
 40
1.0
 40
1.0
 40
1.0
 40
1.0
 10
148.0901
 20
-65.1595
 30
0.0
 10
148.0901
 20
-65.1595
 30
0.0
 10
98.4141
 20
-65.1595
 30
0.0
 10
98.4141
 20
-65.1595
 30
0.0
  0
SPLINE
  5
CA
330
1F
100
AcDbEntity
  8
Camada 1
 62
   250
370
     9
100
AcDbSpline
210
0.0
220
0.0
230
1.0
 70
     8
 71
     3
 72
     8
 73
     4
 74
     0
 42
0.000000001
 43
0.0000000001
 40
0.0
 40
0.0
 40
0.0
 40
0.0
 40
1.0
 40
1.0
 40
1.0
 40
1.0
 10
158.5898
 20
-65.1596
 30
0.0
 10
170.5925
 20
-62.8607
 30
0.0
 10
176.2784
 20
-52.3428
 30
0.0
 10
177.8627
 20
-42.1324
 30
0.0
  0
SPLINE
  5
CB
330
1F
100
AcDbEntity
  8
Camada 1
 62
   250
370
     9
100
AcDbSpline
210
0.0
220
0.0
230
1.0
 70
     8
 71
     3
 72
     8
 73
     4
 74
     0
 42
0.000000001
 43
0.0000000001
 40
0.0
 40
0.0
 40
0.0
 40
0.0
 40
1.0
 40
1.0
 40
1.0
 40
1.0
 10
68.6672
 20
-42.299
 30
0.0
 10
70.2869
 20
-52.4572
 30
0.0
 10
75.9764
 20
-62.8731
 30
0.0
 10
87.9135
 20
-65.1596
 30
0.0
  0
SPLINE
  5
CC
330
1F
100
AcDbEntity
  8
Camada 1
 62
   250
370
     9
100
AcDbSpline
210
0.0
220
0.0
230
1.0
 70
    11
 71
     3
 72
    20
 73
    16
 74
     0
 42
0.000000001
 43
0.0000000001
 40
0.0
 40
0.0
 40
0.0
 40
0.0
 40
0.2
 40
0.2
 40
0.2
 40
0.2
 40
0.4
 40
0.4
 40
0.4
 40
0.4
 40
0.6
 40
0.6
 40
0.6
 40
0.6
 40
1.0
 40
1.0
 40
1.0
 40
1.0
 10
139.4294
 20
-39.6989
 30
0.0
 10
141.4872
 20
-38.5536
 30
0.0
 10
142.2384
 20
-35.9793
 30
0.0
 10
141.1082
 20
-33.9495
 30
0.0
 10
141.1082
 20
-33.9495
 30
0.0
 10
139.978
 20
-31.9196
 30
0.0
 10
137.394
 20
-31.203
 30
0.0
 10
135.3368
 20
-32.3484
 30
0.0
 10
135.3368
 20
-32.3484
 30
0.0
 10
133.2789
 20
-33.4944
 30
0.0
 10
132.527
 20
-36.0687
 30
0.0
 10
133.6578
 20
-38.0986
 30
0.0
 10
133.6578
 20
-38.0986
 30
0.0
 10
134.7874
 20
-40.1284
 30
0.0
 10
137.3721
 20
-40.845
 30
0.0
 10
139.4294
 20
-39.6989
 30
0.0
  0
SPLINE
  5
CD
330
1F
100
AcDbEntity
  8
Camada 1
 62
   250
370
     9
100
AcDbSpline
210
0.0
220
0.0
230
1.0
 70
    11
 71
     3
 72
    80
 73
    76
 74
     0
 42
0.000000001
 43
0.0000000001
 40
0.0
 40
0.0
 40
0.0
 40
0.0
 40
0.05
 40
0.05
 40
0.05
 40
0.05
 40
0.1
 40
0.1
 40
0.1
 40
0.1
 40
0.15
 40
0.15
 40
0.15
 40
0.15
 40
0.2
 40
0.2
 40
0.2
 40
0.2
 40
0.25
 40
0.25
 40
0.25
 40
0.25
 40
0.3
 40
0.3
 40
0.3
 40
0.3
 40
0.35
 40
0.35
 40
0.35
 40
0.35
 40
0.4
 40
0.4
 40
0.4
 40
0.4
 40
0.45
 40
0.45
 40
0.45
 40
0.45
 40
0.5
 40
0.5
 40
0.5
 40
0.5
 40
0.55
 40
0.55
 40
0.55
 40
0.55
 40
0.6
 40
0.6
 40
0.6
 40
0.6
 40
0.65
 40
0.65
 40
0.65
 40
0.65
 40
0.7
 40
0.7
 40
0.7
 40
0.7
 40
0.75
 40
0.75
 40
0.75
 40
0.75
 40
0.8
 40
0.8
 40
0.8
 40
0.8
 40
0.85
 40
0.85
 40
0.85
 40
0.85
 40
0.9
 40
0.9
 40
0.9
 40
0.9
 40
1.0
 40
1.0
 40
1.0
 40
1.0
 10
82.9126
 20
-37.7287
 30
0.0
 10
82.9126
 20
-37.7287
 30
0.0
 10
82.6005
 20
-40.8431
 30
0.0
 10
85.3001
 20
-42.4004
 30
0.0
 10
85.3001
 20
-42.4004
 30
0.0
 10
87.9997
 20
-43.9576
 30
0.0
 10
90.1799
 20
-43.2307
 30
0.0
 10
91.1142
 20
-41.9849
 30
0.0
 10
91.1142
 20
-41.9849
 30
0.0
 10
92.0485
 20
-40.7391
 30
0.0
 10
92.36
 20
-37.8845
 30
0.0
 10
89.6087
 20
-35.5486
 30
0.0
 10
89.6087
 20
-35.5486
 30
0.0
 10
86.8573
 20
-33.2128
 30
0.0
 10
80.0055
 20
-32.172
 30
0.0
 10
76.4762
 20
-40.2452
 30
0.0
 10
76.4762
 20
-40.2452
 30
0.0
 10
75.7493
 20
-41.6734
 30
0.0
 10
74.3995
 20
-41.2586
 30
0.0
 10
74.0978
 20
-38.9745
 30
0.0
 10
74.0978
 20
-38.9745
 30
0.0
 10
72.5016
 20
-24.4381
 30
0.0
 10
82.0725
 20
-16.0893
 30
0.0
 10
92.3077
 20
-18.2633
 30
0.0
 10
92.3077
 20
-18.2633
 30
0.0
 10
96.9136
 20
-19.2415
 30
0.0
 10
99.9174
 20
-22.8456
 30
0.0
 10
102.6535
 20
-26.9103
 30
0.0
 10
102.6535
 20
-26.9103
 30
0.0
 10
100.3919
 20
-26.367
 30
0.0
 10
97.9702
 20
-27.3391
 30
0.0
 10
96.7975
 20
-29.445
 30
0.0
 10
96.7975
 20
-29.445
 30
0.0
 10
95.3826
 20
-31.9858
 30
0.0
 10
96.3236
 20
-35.2086
 30
0.0
 10
98.8991
 20
-36.6423
 30
0.0
 10
98.8991
 20
-36.6423
 30
0.0
 10
99.5013
 20
-36.9775
 30
0.0
 10
100.1407
 20
-37.1807
 30
0.0
 10
100.7836
 20
-37.2701
 30
0.0
 10
100.7836
 20
-37.2701
 30
0.0
 10
100.1717
 20
-37.5019
 30
0.0
 10
99.5926
 20
-37.8468
 30
0.0
 10
99.084
 20
-38.3157
 30
0.0
 10
99.084
 20
-38.3157
 30
0.0
 10
96.9428
 20
-40.289
 30
0.0
 10
96.837
 20
-43.631
 30
0.0
 10
98.8505
 20
-45.7801
 30
0.0
 10
98.8505
 20
-45.7801
 30
0.0
 10
100.8626
 20
-47.9292
 30
0.0
 10
104.2302
 20
-48.0715
 30
0.0
 10
106.3714
 20
-46.0988
 30
0.0
 10
106.3714
 20
-46.0988
 30
0.0
 10
106.8726
 20
-45.6365
 30
0.0
 10
107.2571
 20
-45.0982
 30
0.0
 10
107.5345
 20
-44.5197
 30
0.0
 10
107.5345
 20
-44.5197
 30
0.0
 10
107.5734
 20
-45.1718
 30
0.0
 10
107.7315
 20
-45.8287
 30
0.0
 10
108.0296
 20
-46.4595
 30
0.0
 10
108.0296
 20
-46.4595
 30
0.0
 10
109.2809
 20
-49.1129
 30
0.0
 10
112.4507
 20
-50.2814
 30
0.0
 10
115.1101
 20
-49.0679
 30
0.0
 10
115.1101
 20
-49.0679
 30
0.0
 10
115.4045
 20
-48.9334
 30
0.0
 10
115.6777
 20
-48.7722
 30
0.0
 10
115.9338
 20
-48.5934
 30
0.0
 10
115.9338
 20
-48.5934
 30
0.0
 10
110.742
 20
-53.9294
 30
0.0
 10
103.2192
 20
-59.7897
 30
0.0
 10
95.2147
 20
-59.7897
 30
0.0
 10
95.2147
 20
-59.7897
 30
0.0
 10
86.3914
 20
-59.7897
 30
0.0
 10
70.9736
 20
-49.7711
 30
0.0
 10
82.9126
 20
-37.7287
 30
0.0
  0
SPLINE
  5
CE
330
1F
100
AcDbEntity
  8
Camada 1
 62
   250
370
     9
100
AcDbSpline
210
0.0
220
0.0
230
1.0
 70
    11
 71
     3
 72
    80
 73
    76
 74
     0
 42
0.000000001
 43
0.0000000001
 40
0.0
 40
0.0
 40
0.0
 40
0.0
 40
0.05
 40
0.05
 40
0.05
 40
0.05
 40
0.1
 40
0.1
 40
0.1
 40
0.1
 40
0.15
 40
0.15
 40
0.15
 40
0.15
 40
0.2
 40
0.2
 40
0.2
 40
0.2
 40
0.25
 40
0.25
 40
0.25
 40
0.25
 40
0.3
 40
0.3
 40
0.3
 40
0.3
 40
0.35
 40
0.35
 40
0.35
 40
0.35
 40
0.4
 40
0.4
 40
0.4
 40
0.4
 40
0.45
 40
0.45
 40
0.45
 40
0.45
 40
0.5
 40
0.5
 40
0.5
 40
0.5
 40
0.55
 40
0.55
 40
0.55
 40
0.55
 40
0.6
 40
0.6
 40
0.6
 40
0.6
 40
0.65
 40
0.65
 40
0.65
 40
0.65
 40
0.7
 40
0.7
 40
0.7
 40
0.7
 40
0.75
 40
0.75
 40
0.75
 40
0.75
 40
0.8
 40
0.8
 40
0.8
 40
0.8
 40
0.85
 40
0.85
 40
0.85
 40
0.85
 40
0.9
 40
0.9
 40
0.9
 40
0.9
 40
1.0
 40
1.0
 40
1.0
 40
1.0
 10
138.4743
 20
-46.4595
 30
0.0
 10
138.7718
 20
-45.8287
 30
0.0
 10
138.9305
 20
-45.1718
 30
0.0
 10
138.9695
 20
-44.5197
 30
0.0
 10
138.9695
 20
-44.5197
 30
0.0
 10
139.2462
 20
-45.0982
 30
0.0
 10
139.6313
 20
-45.6365
 30
0.0
 10
140.1319
 20
-46.0988
 30
0.0
 10
140.1319
 20
-46.0988
 30
0.0
 10
142.2731
 20
-48.0715
 30
0.0
 10
145.6412
 20
-47.9292
 30
0.0
 10
147.6535
 20
-45.7801
 30
0.0
 10
147.6535
 20
-45.7801
 30
0.0
 10
149.6663
 20
-43.631
 30
0.0
 10
149.5611
 20
-40.289
 30
0.0
 10
147.4193
 20
-38.3157
 30
0.0
 10
147.4193
 20
-38.3157
 30
0.0
 10
146.9107
 20
-37.8468
 30
0.0
 10
146.3322
 20
-37.5019
 30
0.0
 10
145.7197
 20
-37.2701
 30
0.0
 10
145.7197
 20
-37.2701
 30
0.0
 10
146.3626
 20
-37.1807
 30
0.0
 10
147.002
 20
-36.9775
 30
0.0
 10
147.6042
 20
-36.6423
 30
0.0
 10
147.6042
 20
-36.6423
 30
0.0
 10
150.1797
 20
-35.2086
 30
0.0
 10
151.1207
 20
-31.9858
 30
0.0
 10
149.7058
 20
-29.445
 30
0.0
 10
149.7058
 20
-29.445
 30
0.0
 10
148.5331
 20
-27.3391
 30
0.0
 10
146.1114
 20
-26.367
 30
0.0
 10
143.8498
 20
-26.9103
 30
0.0
 10
143.8498
 20
-26.9103
 30
0.0
 10
146.5865
 20
-22.8456
 30
0.0
 10
149.5903
 20
-19.2415
 30
0.0
 10
154.1956
 20
-18.2633
 30
0.0
 10
154.1956
 20
-18.2633
 30
0.0
 10
164.4308
 20
-16.0893
 30
0.0
 10
174.0023
 20
-24.4381
 30
0.0
 10
172.4062
 20
-38.9745
 30
0.0
 10
172.4062
 20
-38.9745
 30
0.0
 10
172.1038
 20
-41.2586
 30
0.0
 10
170.754
 20
-41.6734
 30
0.0
 10
170.0277
 20
-40.2452
 30
0.0
 10
170.0277
 20
-40.2452
 30
0.0
 10
166.4978
 20
-32.172
 30
0.0
 10
159.646
 20
-33.2128
 30
0.0
 10
156.8946
 20
-35.5486
 30
0.0
 10
156.8946
 20
-35.5486
 30
0.0
 10
154.1433
 20
-37.8845
 30
0.0
 10
154.4554
 20
-40.7391
 30
0.0
 10
155.3897
 20
-41.9849
 30
0.0
 10
155.3897
 20
-41.9849
 30
0.0
 10
156.3241
 20
-43.2307
 30
0.0
 10
158.5042
 20
-43.9576
 30
0.0
 10
161.2032
 20
-42.4004
 30
0.0
 10
161.2032
 20
-42.4004
 30
0.0
 10
163.9028
 20
-40.8431
 30
0.0
 10
163.5907
 20
-37.7287
 30
0.0
 10
163.5907
 20
-37.7287
 30
0.0
 10
163.5907
 20
-37.7287
 30
0.0
 10
175.5297
 20
-49.7711
 30
0.0
 10
160.1119
 20
-59.7897
 30
0.0
 10
151.2886
 20
-59.7897
 30
0.0
 10
151.2886
 20
-59.7897
 30
0.0
 10
143.2841
 20
-59.7897
 30
0.0
 10
135.7613
 20
-53.9294
 30
0.0
 10
130.5695
 20
-48.5934
 30
0.0
 10
130.5695
 20
-48.5934
 30
0.0
 10
130.8257
 20
-48.7722
 30
0.0
 10
131.0987
 20
-48.9334
 30
0.0
 10
131.3938
 20
-49.0679
 30
0.0
 10
131.3938
 20
-49.0679
 30
0.0
 10
134.0526
 20
-50.2814
 30
0.0
 10
137.2224
 20
-49.1129
 30
0.0
 10
138.4743
 20
-46.4595
 30
0.0
  0
SPLINE
  5
CF
330
1F
100
AcDbEntity
  8
Camada 1
 62
   250
370
     9
100
AcDbSpline
210
0.0
220
0.0
230
1.0
 70
    11
 71
     3
 72
    20
 73
    16
 74
     0
 42
0.000000001
 43
0.0000000001
 40
0.0
 40
0.0
 40
0.0
 40
0.0
 40
0.2
 40
0.2
 40
0.2
 40
0.2
 40
0.4
 40
0.4
 40
0.4
 40
0.4
 40
0.6
 40
0.6
 40
0.6
 40
0.6
 40
1.0
 40
1.0
 40
1.0
 40
1.0
 10
107.0746
 20
-39.6989
 30
0.0
 10
105.0161
 20
-38.5536
 30
0.0
 10
104.2649
 20
-35.9793
 30
0.0
 10
105.3957
 20
-33.9495
 30
0.0
 10
105.3957
 20
-33.9495
 30
0.0
 10
106.5253
 20
-31.9196
 30
0.0
 10
109.1099
 20
-31.203
 30
0.0
 10
111.1672
 20
-32.3484
 30
0.0
 10
111.1672
 20
-32.3484
 30
0.0
 10
113.2244
 20
-33.4944
 30
0.0
 10
113.9763
 20
-36.0687
 30
0.0
 10
112.846
 20
-38.0986
 30
0.0
 10
112.846
 20
-38.0986
 30
0.0
 10
111.7159
 20
-40.1284
 30
0.0
 10
109.1318
 20
-40.845
 30
0.0
 10
107.0746
 20
-39.6989
 30
0.0
  0
SPLINE
  5
D0
330
1F
100
AcDbEntity
  8
Camada 1
 62
   250
370
    20
100
AcDbSpline
210
0.0
220
0.0
230
1.0
 70
     8
 71
     3
 72
    16
 73
    12
 74
     0
 42
0.000000001
 43
0.0000000001
 40
0.0
 40
0.0
 40
0.0
 40
0.0
 40
0.25
 40
0.25
 40
0.25
 40
0.25
 40
0.5
 40
0.5
 40
0.5
 40
0.5
 40
1.0
 40
1.0
 40
1.0
 40
1.0
 10
-192.5361
 20
-15.1541
 30
0.0
 10
-192.5382
 20
-15.082
 30
0.0
 10
-192.5394
 20
-15.0095
 30
0.0
 10
-192.5394
 20
-14.9368
 30
0.0
 10
-192.5394
 20
-14.9368
 30
0.0
 10
-192.5394
 20
-11.0474
 30
0.0
 10
-189.3852
 20
-7.8932
 30
0.0
 10
-185.4958
 20
-7.8932
 30
0.0
 10
-185.4958
 20
-7.8932
 30
0.0
 10
-185.3272
 20
-7.8932
 30
0.0
 10
-185.1599
 20
-7.8992
 30
0.0
 10
-184.9942
 20
-7.9108
 30
0.0
  0
SPLINE
  5
D1
330
1F
100
AcDbEntity
  8
Camada 1
 62
   250
370
    20
100
AcDbSpline
210
0.0
220
0.0
230
1.0
 70
     8
 71
     3
 72
    84
 73
    80
 74
     0
 42
0.000000001
 43
0.0000000001
 40
0.0
 40
0.0
 40
0.0
 40
0.0
 40
0.0476190476190476
 40
0.0476190476190476
 40
0.0476190476190476
 40
0.0476190476190476
 40
0.0952380952380952
 40
0.0952380952380952
 40
0.0952380952380952
 40
0.0952380952380952
 40
0.1428571428571428
 40
0.1428571428571428
 40
0.1428571428571428
 40
0.1428571428571428
 40
0.1904761904761905
 40
0.1904761904761905
 40
0.1904761904761905
 40
0.1904761904761905
 40
0.2380952380952381
 40
0.2380952380952381
 40
0.2380952380952381
 40
0.2380952380952381
 40
0.2857142857142857
 40
0.2857142857142857
 40
0.2857142857142857
 40
0.2857142857142857
 40
0.3333333333333333
 40
0.3333333333333333
 40
0.3333333333333333
 40
0.3333333333333333
 40
0.3809523809523809
 40
0.3809523809523809
 40
0.3809523809523809
 40
0.3809523809523809
 40
0.4285714285714285
 40
0.4285714285714285
 40
0.4285714285714285
 40
0.4285714285714285
 40
0.4761904761904762
 40
0.4761904761904762
 40
0.4761904761904762
 40
0.4761904761904762
 40
0.5238095238095238
 40
0.5238095238095238
 40
0.5238095238095238
 40
0.5238095238095238
 40
0.5714285714285714
 40
0.5714285714285714
 40
0.5714285714285714
 40
0.5714285714285714
 40
0.6190476190476191
 40
0.6190476190476191
 40
0.6190476190476191
 40
0.6190476190476191
 40
0.6666666666666666
 40
0.6666666666666666
 40
0.6666666666666666
 40
0.6666666666666666
 40
0.7142857142857143
 40
0.7142857142857143
 40
0.7142857142857143
 40
0.7142857142857143
 40
0.7619047619047619
 40
0.7619047619047619
 40
0.7619047619047619
 40
0.7619047619047619
 40
0.8095238095238095
 40
0.8095238095238095
 40
0.8095238095238095
 40
0.8095238095238095
 40
0.8571428571428571
 40
0.8571428571428571
 40
0.8571428571428571
 40
0.8571428571428571
 40
0.9047619047619048
 40
0.9047619047619048
 40
0.9047619047619048
 40
0.9047619047619048
 40
1.0
 40
1.0
 40
1.0
 40
1.0
 10
-185.9973
 20
-7.9108
 30
0.0
 10
-104.6378
 20
-7.9108
 30
0.0
 10
-26.7232
 20
-7.9108
 30
0.0
 10
54.4144
 20
-7.9108
 30
0.0
 10
54.4144
 20
-7.9108
 30
0.0
 10
58.2836
 20
-7.9108
 30
0.0
 10
61.4638
 20
-11.0672
 30
0.0
 10
61.4638
 20
-14.9372
 30
0.0
 10
61.4638
 20
-14.9372
 30
0.0
 10
61.4638
 20
-11.0478
 30
0.0
 10
64.6134
 20
-7.9155
 30
0.0
 10
68.5028
 20
-7.9155
 30
0.0
 10
68.5028
 20
-7.9155
 30
0.0
 10
106.5351
 20
-7.9155
 30
0.0
 10
143.497
 20
-7.9155
 30
0.0
 10
181.4751
 20
-7.9155
 30
0.0
 10
181.4751
 20
-7.9155
 30
0.0
 10
185.3646
 20
-7.9155
 30
0.0
 10
188.462
 20
-11.0474
 30
0.0
 10
188.462
 20
-14.9368
 30
0.0
 10
188.462
 20
-14.9368
 30
0.0
 10
188.462
 20
-19.1723
 30
0.0
 10
188.462
 20
-22.5093
 30
0.0
 10
188.462
 20
-26.7448
 30
0.0
 10
188.462
 20
-26.7448
 30
0.0
 10
188.462
 20
-26.7448
 30
0.0
 10
194.4354
 20
-26.7448
 30
0.0
 10
194.4354
 20
-26.7448
 30
0.0
 10
194.4354
 20
-26.7448
 30
0.0
 10
194.4354
 20
-26.7448
 30
0.0
 10
194.4354
 20
-52.674
 30
0.0
 10
194.4354
 20
-52.674
 30
0.0
 10
194.4354
 20
-52.674
 30
0.0
 10
194.4354
 20
-52.674
 30
0.0
 10
188.462
 20
-52.674
 30
0.0
 10
188.462
 20
-52.674
 30
0.0
 10
188.462
 20
-52.674
 30
0.0
 10
188.462
 20
-52.674
 30
0.0
 10
188.462
 20
-71.4155
 30
0.0
 10
188.462
 20
-71.4155
 30
0.0
 10
188.462
 20
-71.4155
 30
0.0
 10
188.462
 20
-71.4155
 30
0.0
 10
137.9436
 20
-71.4155
 30
0.0
 10
137.9436
 20
-71.4155
 30
0.0
 10
137.9436
 20
-71.4155
 30
0.0
 10
137.9436
 20
-71.4155
 30
0.0
 10
137.9436
 20
-77.387
 30
0.0
 10
137.9436
 20
-77.387
 30
0.0
 10
137.9436
 20
-77.387
 30
0.0
 10
137.9436
 20
-77.387
 30
0.0
 10
112.0144
 20
-77.387
 30
0.0
 10
112.0144
 20
-77.387
 30
0.0
 10
112.0144
 20
-77.387
 30
0.0
 10
112.0144
 20
-77.387
 30
0.0
 10
112.0144
 20
-71.4155
 30
0.0
 10
112.0144
 20
-71.4155
 30
0.0
 10
112.0144
 20
-71.4155
 30
0.0
 10
112.0144
 20
-71.4155
 30
0.0
 10
61.462
 20
-71.4155
 30
0.0
 10
61.462
 20
-71.4155
 30
0.0
 10
61.462
 20
-71.4155
 30
0.0
 10
61.462
 20
-71.4155
 30
0.0
 10
61.462
 20
-52.674
 30
0.0
 10
61.462
 20
-52.674
 30
0.0
 10
61.462
 20
-52.674
 30
0.0
 10
61.462
 20
-52.674
 30
0.0
 10
55.4763
 20
-52.674
 30
0.0
 10
55.4763
 20
-52.674
 30
0.0
 10
55.4763
 20
-52.674
 30
0.0
 10
55.4763
 20
-52.674
 30
0.0
 10
55.4763
 20
-26.7448
 30
0.0
 10
55.4763
 20
-26.7448
 30
0.0
 10
55.4763
 20
-26.7448
 30
0.0
 10
55.4763
 20
-26.7448
 30
0.0
 10
61.462
 20
-26.7448
 30
0.0
 10
61.462
 20
-26.7448
 30
0.0
 10
61.462
 20
-26.7448
 30
0.0
 10
61.462
 20
-26.7448
 30
0.0
 10
61.4638
 20
-14.9372
 30
0.0
 10
61.4638
 20
-14.9372
 30
0.0
  0
SPLINE
  5
D2
330
1F
100
AcDbEntity
  8
Camada 1
 62
   250
370
    20
100
AcDbSpline
210
0.0
220
0.0
230
1.0
 70
    24
 71
     3
 72
    12
 73
     8
 74
     0
 42
0.000000001
 43
0.0000000001
 40
0.0
 40
0.0
 40
0.0
 40
0.0
 40
0.3333333333333333
 40
0.3333333333333333
 40
0.3333333333333333
 40
0.3333333333333333
 40
1.0
 40
1.0
 40
1.0
 40
1.0
 10
-192.5361
 20
-26.7446
 30
0.0
 10
-192.5361
 20
-26.7446
 30
0.0
 10
-192.5361
 20
-15.0613
 30
0.0
 10
-192.5361
 20
-15.0613
 30
0.0
 10
-192.5361
 20
-15.0613
 30
0.0
 10
-192.5361
 20
-15.0613
 30
0.0
 10
-192.5361
 20
-14.7199
 30
0.0
 10
-192.5361
 20
-14.7199
 30
0.0
  0
ENDSEC
  0
SECTION
  2
OBJECTS
  0
DICTIONARY
  5
C
330
0
100
AcDbDictionary
281
     1
  3
ACAD_DETAILVIEWSTYLE
350
10E
  3
ACAD_GROUP
350
D
  3
ACAD_LAYOUT
350
1A
  3
ACAD_MATERIAL
350
43
  3
ACAD_MLEADERSTYLE
350
6B
  3
ACAD_MLINESTYLE
350
17
  3
ACAD_PLOTSETTINGS
350
19
  3
ACAD_PLOTSTYLENAME
350
E
  3
ACAD_SCALELIST
350
47
  3
ACAD_SECTIONVIEWSTYLE
350
10F
  3
ACAD_TABLESTYLE
350
69
  3
ACAD_VISUALSTYLE
350
2A
  3
ACDB_RECOMPOSE_DATA
350
10B
  3
AcDbVariableDictionary
350
D3
  0
SUN
  5
6D
330
29
100
AcDbSun
 90
        1
290
     0
 63
     7
421
 16777215
 40
1.0
291
     1
 91
  2455826
 92
 54000000
292
     0
 70
     2
 71
   256
280
     1
  0
DICTIONARY
  5
10E
102
{ACAD_REACTORS
330
C
102
}
330
C
100
AcDbDictionary
281
     1
  0
DICTIONARY
  5
D
102
{ACAD_REACTORS
330
C
102
}
330
C
100
AcDbDictionary
281
     1
  0
DICTIONARY
  5
1A
102
{ACAD_REACTORS
330
C
102
}
330
C
100
AcDbDictionary
281
     1
  3
Layout1
350
1E
  3
Layout2
350
26
  3
Model
350
22
  0
DICTIONARY
  5
43
102
{ACAD_REACTORS
330
C
102
}
330
C
100
AcDbDictionary
281
     1
  3
ByBlock
350
45
  3
ByLayer
350
44
  3
Global
350
46
  0
DICTIONARY
  5
6B
102
{ACAD_REACTORS
330
C
102
}
330
C
100
AcDbDictionary
281
     1
  3
Standard
350
6C
  0
DICTIONARY
  5
17
102
{ACAD_REACTORS
330
C
102
}
330
C
100
AcDbDictionary
281
     1
  3
Standard
350
18
  0
DICTIONARY
  5
19
102
{ACAD_REACTORS
330
C
102
}
330
C
100
AcDbDictionary
281
     1
  0
ACDBDICTIONARYWDFLT
  5
E
102
{ACAD_REACTORS
330
C
102
}
330
C
100
AcDbDictionary
281
     1
  3
Normal
350
F
100
AcDbDictionaryWithDefault
340
F
  0
DICTIONARY
  5
47
102
{ACAD_REACTORS
330
C
102
}
330
C
100
AcDbDictionary
281
     1
  3
A0
350
48
  3
A1
350
49
  3
A2
350
4A
  3
A3
350
4B
  3
A4
350
4C
  3
A5
350
4D
  3
A6
350
4E
  3
A7
350
4F
  3
A8
350
50
  3
A9
350
51
  3
B0
350
52
  3
B1
350
53
  3
B2
350
54
  3
B3
350
55
  3
B4
350
56
  3
B5
350
57
  3
B6
350
58
  3
B7
350
59
  3
B8
350
5A
  3
B9
350
5B
  3
C0
350
5C
  3
C1
350
5D
  3
C2
350
5E
  3
C3
350
5F
  3
C4
350
60
  3
C5
350
61
  3
C6
350
62
  3
C7
350
63
  3
C8
350
64
  3
C9
350
65
  3
D0
350
66
  3
D1
350
67
  3
D2
350
68
  0
DICTIONARY
  5
10F
102
{ACAD_REACTORS
330
C
102
}
330
C
100
AcDbDictionary
281
     1
  0
DICTIONARY
  5
69
102
{ACAD_REACTORS
330
C
102
}
330
C
100
AcDbDictionary
281
     1
  3
Standard
350
6A
  0
DICTIONARY
  5
2A
102
{ACAD_REACTORS
330
C
102
}
330
C
100
AcDbDictionary
281
     1
  3
2dWireframe
350
2F
  3
Basic
350
32
  3
Brighten
350
36
  3
ColorChange
350
3A
  3
Conceptual
350
34
  3
Dim
350
35
  3
EdgeColorOff
350
3D
  3
Facepattern
350
39
  3
Flat
350
2B
  3
FlatWithEdges
350
2C
  3
Gouraud
350
2D
  3
GouraudWithEdges
350
2E
  3
Hidden
350
31
  3
JitterOff
350
3B
  3
Linepattern
350
38
  3
OverhangOff
350
3C
  3
Realistic
350
33
  3
Shaded
350
42
  3
Shaded with edges
350
41
  3
Shades of Gray
350
3E
  3
Sketchy
350
3F
  3
Thicken
350
37
  3
Wireframe
350
30
  3
X-Ray
350
40
  0
XRECORD
  5
10B
102
{ACAD_REACTORS
330
C
102
}
330
C
100
AcDbXrecord
280
     1
 90
        1
330
6A
  0
DICTIONARY
  5
D3
102
{ACAD_REACTORS
330
C
102
}
330
C
100
AcDbDictionary
281
     1
  3
CANNOSCALE
350
D4
  3
CMLEADERSTYLE
350
10D
  3
CTABLESTYLE
350
10C
  3
XCLIPFRAME
350
D5
  0
LAYOUT
  5
1E
102
{ACAD_REACTORS
330
1A
102
}
330
1A
100
AcDbPlotSettings
  1

  2
none_device
  4

  6

 40
0.0
 41
0.0
 42
0.0
 43
0.0
 44
0.0
 45
0.0
 46
0.0
 47
0.0
 48
0.0
 49
0.0
140
0.0
141
0.0
142
1.0
143
1.0
 70
   688
 72
     0
 73
     0
 74
     5
  7

 75
    16
 76
     0
 77
     2
 78
   300
147
1.0
148
0.0
149
0.0
100
AcDbLayout
  1
Layout1
 70
     1
 71
     1
 10
0.0
 20
0.0
 11
12.0
 21
9.0
 12
0.0
 22
0.0
 32
0.0
 14
1.000000000000000E+20
 24
1.000000000000000E+20
 34
1.000000000000000E+20
 15
-1.000000000000000E+20
 25
-1.000000000000000E+20
 35
-1.000000000000000E+20
146
0.0
 13
0.0
 23
0.0
 33
0.0
 16
1.0
 26
0.0
 36
0.0
 17
0.0
 27
1.0
 37
0.0
 76
     0
330
1B
  0
LAYOUT
  5
26
102
{ACAD_REACTORS
330
1A
102
}
330
1A
100
AcDbPlotSettings
  1

  2
none_device
  4

  6

 40
0.0
 41
0.0
 42
0.0
 43
0.0
 44
0.0
 45
0.0
 46
0.0
 47
0.0
 48
0.0
 49
0.0
140
0.0
141
0.0
142
1.0
143
1.0
 70
   688
 72
     0
 73
     0
 74
     5
  7

 75
    16
 76
     0
 77
     2
 78
   300
147
1.0
148
0.0
149
0.0
100
AcDbLayout
  1
Layout2
 70
     1
 71
     2
 10
0.0
 20
0.0
 11
0.0
 21
0.0
 12
0.0
 22
0.0
 32
0.0
 14
0.0
 24
0.0
 34
0.0
 15
0.0
 25
0.0
 35
0.0
146
0.0
 13
0.0
 23
0.0
 33
0.0
 16
1.0
 26
0.0
 36
0.0
 17
0.0
 27
1.0
 37
0.0
 76
     0
330
23
  0
LAYOUT
  5
22
102
{ACAD_REACTORS
330
1A
102
}
330
1A
100
AcDbPlotSettings
  1

  2
none_device
  4
Letter_(8.50_x_11.00_Inches)
  6

 40
6.35
 41
6.35
 42
6.35000508
 43
6.35000508
 44
215.9
 45
279.4
 46
0.0
 47
0.0
 48
0.0
 49
0.0
140
0.0
141
0.0
142
1.0
143
1.0
 70
  1712
 72
     0
 73
     0
 74
     0
  7

 75
     0
 76
     0
 77
     2
 78
   300
147
1.0
148
0.0
149
0.0
100
AcDbLayout
  1
Model
 70
     1
 71
     0
 10
0.0
 20
0.0
 11
12.0
 21
9.0
 12
0.0
 22
0.0
 32
0.0
 14
-192.6394
 24
-148.3693
 34
0.0
 15
194.5354
 25
155.8347
 35
0.0
146
0.0
 13
0.0
 23
0.0
 33
0.0
 16
1.0
 26
0.0
 36
0.0
 17
0.0
 27
1.0
 37
0.0
 76
     0
330
1F
331
29
  0
MATERIAL
  5
45
102
{ACAD_REACTORS
330
43
102
}
330
43
100
AcDbMaterial
  1
ByBlock
 72
     1
 94
      127
  0
MATERIAL
  5
44
102
{ACAD_REACTORS
330
43
102
}
330
43
100
AcDbMaterial
  1
ByLayer
 72
     1
 94
      127
  0
MATERIAL
  5
46
102
{ACAD_REACTORS
330
43
102
}
330
43
100
AcDbMaterial
  1
Global
 72
     1
 94
      127
  0
MLEADERSTYLE
  5
6C
102
{ACAD_REACTORS
330
6B
102
}
102
{ACAD_XDICTIONARY
360
109
102
}
330
6B
100
AcDbMLeaderStyle
170
     2
171
     1
172
     0
 90
        2
 40
0.0
 41
0.0
173
     1
 91
-1056964608
340
14
 92
       -2
290
     1
 42
0.09
291
     1
 43
0.36
  3
Standard
341
0
 44
0.18
300

342
11
174
     1
178
     6
175
     1
176
     0
 93
-1056964608
 45
0.18
292
     0
297
     0
 46
0.18
343
0
 94
-1056964608
 47
1.0
 49
1.0
140
1.0
293
     1
141
0.0
294
     1
177
     0
142
1.0
295
     0
296
     0
143
0.125
1001
ACAD_MLEADERVER
1070
     2
  0
MLINESTYLE
  5
18
102
{ACAD_REACTORS
330
17
102
}
330
17
100
AcDbMlineStyle
  2
Standard
 70
     0
  3

 62
   256
 51
90.0
 52
90.0
 71
     2
 49
0.5
 62
   256
  6
BYLAYER
 49
-0.5
 62
   256
  6
BYLAYER
  0
ACDBPLACEHOLDER
  5
F
102
{ACAD_REACTORS
330
E
102
}
330
E
  0
SCALE
  5
48
102
{ACAD_REACTORS
330
47
102
}
330
47
100
AcDbScale
 70
     0
300
1:1
140
1.0
141
1.0
290
     1
  0
SCALE
  5
49
102
{ACAD_REACTORS
330
47
102
}
330
47
100
AcDbScale
 70
     0
300
1:2
140
1.0
141
2.0
290
     0
  0
SCALE
  5
4A
102
{ACAD_REACTORS
330
47
102
}
330
47
100
AcDbScale
 70
     0
300
1:4
140
1.0
141
4.0
290
     0
  0
SCALE
  5
4B
102
{ACAD_REACTORS
330
47
102
}
330
47
100
AcDbScale
 70
     0
300
1:5
140
1.0
141
5.0
290
     0
  0
SCALE
  5
4C
102
{ACAD_REACTORS
330
47
102
}
330
47
100
AcDbScale
 70
     0
300
1:8
140
1.0
141
8.0
290
     0
  0
SCALE
  5
4D
102
{ACAD_REACTORS
330
47
102
}
330
47
100
AcDbScale
 70
     0
300
1:10
140
1.0
141
10.0
290
     0
  0
SCALE
  5
4E
102
{ACAD_REACTORS
330
47
102
}
330
47
100
AcDbScale
 70
     0
300
1:16
140
1.0
141
16.0
290
     0
  0
SCALE
  5
4F
102
{ACAD_REACTORS
330
47
102
}
330
47
100
AcDbScale
 70
     0
300
1:20
140
1.0
141
20.0
290
     0
  0
SCALE
  5
50
102
{ACAD_REACTORS
330
47
102
}
330
47
100
AcDbScale
 70
     0
300
1:30
140
1.0
141
30.0
290
     0
  0
SCALE
  5
51
102
{ACAD_REACTORS
330
47
102
}
330
47
100
AcDbScale
 70
     0
300
1:40
140
1.0
141
40.0
290
     0
  0
SCALE
  5
52
102
{ACAD_REACTORS
330
47
102
}
330
47
100
AcDbScale
 70
     0
300
1:50
140
1.0
141
50.0
290
     0
  0
SCALE
  5
53
102
{ACAD_REACTORS
330
47
102
}
330
47
100
AcDbScale
 70
     0
300
1:100
140
1.0
141
100.0
290
     0
  0
SCALE
  5
54
102
{ACAD_REACTORS
330
47
102
}
330
47
100
AcDbScale
 70
     0
300
2:1
140
2.0
141
1.0
290
     0
  0
SCALE
  5
55
102
{ACAD_REACTORS
330
47
102
}
330
47
100
AcDbScale
 70
     0
300
4:1
140
4.0
141
1.0
290
     0
  0
SCALE
  5
56
102
{ACAD_REACTORS
330
47
102
}
330
47
100
AcDbScale
 70
     0
300
8:1
140
8.0
141
1.0
290
     0
  0
SCALE
  5
57
102
{ACAD_REACTORS
330
47
102
}
330
47
100
AcDbScale
 70
     0
300
10:1
140
10.0
141
1.0
290
     0
  0
SCALE
  5
58
102
{ACAD_REACTORS
330
47
102
}
330
47
100
AcDbScale
 70
     0
300
100:1
140
100.0
141
1.0
290
     0
  0
SCALE
  5
59
102
{ACAD_REACTORS
330
47
102
}
330
47
100
AcDbScale
 70
     0
300
1/128" = 1'-0"
140
0.0078125
141
12.0
290
     0
  0
SCALE
  5
5A
102
{ACAD_REACTORS
330
47
102
}
330
47
100
AcDbScale
 70
     0
300
1/64" = 1'-0"
140
0.015625
141
12.0
290
     0
  0
SCALE
  5
5B
102
{ACAD_REACTORS
330
47
102
}
330
47
100
AcDbScale
 70
     0
300
1/32" = 1'-0"
140
0.03125
141
12.0
290
     0
  0
SCALE
  5
5C
102
{ACAD_REACTORS
330
47
102
}
330
47
100
AcDbScale
 70
     0
300
1/16" = 1'-0"
140
0.0625
141
12.0
290
     0
  0
SCALE
  5
5D
102
{ACAD_REACTORS
330
47
102
}
330
47
100
AcDbScale
 70
     0
300
3/32" = 1'-0"
140
0.09375
141
12.0
290
     0
  0
SCALE
  5
5E
102
{ACAD_REACTORS
330
47
102
}
330
47
100
AcDbScale
 70
     0
300
1/8" = 1'-0"
140
0.125
141
12.0
290
     0
  0
SCALE
  5
5F
102
{ACAD_REACTORS
330
47
102
}
330
47
100
AcDbScale
 70
     0
300
3/16" = 1'-0"
140
0.1875
141
12.0
290
     0
  0
SCALE
  5
60
102
{ACAD_REACTORS
330
47
102
}
330
47
100
AcDbScale
 70
     0
300
1/4" = 1'-0"
140
0.25
141
12.0
290
     0
  0
SCALE
  5
61
102
{ACAD_REACTORS
330
47
102
}
330
47
100
AcDbScale
 70
     0
300
3/8" = 1'-0"
140
0.375
141
12.0
290
     0
  0
SCALE
  5
62
102
{ACAD_REACTORS
330
47
102
}
330
47
100
AcDbScale
 70
     0
300
1/2" = 1'-0"
140
0.5
141
12.0
290
     0
  0
SCALE
  5
63
102
{ACAD_REACTORS
330
47
102
}
330
47
100
AcDbScale
 70
     0
300
3/4" = 1'-0"
140
0.75
141
12.0
290
     0
  0
SCALE
  5
64
102
{ACAD_REACTORS
330
47
102
}
330
47
100
AcDbScale
 70
     0
300
1" = 1'-0"
140
1.0
141
12.0
290
     0
  0
SCALE
  5
65
102
{ACAD_REACTORS
330
47
102
}
330
47
100
AcDbScale
 70
     0
300
1-1/2" = 1'-0"
140
1.5
141
12.0
290
     0
  0
SCALE
  5
66
102
{ACAD_REACTORS
330
47
102
}
330
47
100
AcDbScale
 70
     0
300
3" = 1'-0"
140
3.0
141
12.0
290
     0
  0
SCALE
  5
67
102
{ACAD_REACTORS
330
47
102
}
330
47
100
AcDbScale
 70
     0
300
6" = 1'-0"
140
6.0
141
12.0
290
     0
  0
SCALE
  5
68
102
{ACAD_REACTORS
330
47
102
}
330
47
100
AcDbScale
 70
     0
300
1'-0" = 1'-0"
140
12.0
141
12.0
290
     0
  0
TABLESTYLE
  5
6A
102
{ACAD_REACTORS
330
69
102
}
102
{ACAD_XDICTIONARY
360
106
102
}
330
69
100
AcDbTableStyle
  3
Standard
 70
     0
 71
     0
 40
0.06
 41
0.06
280
     0
281
     0
  7
Standard
140
0.18
170
     2
 62
     0
 63
   257
283
     0
 90
        4
 91
        0
  1

274
    -2
284
     1
 64
     0
275
    -2
285
     1
 65
     0
276
    -2
286
     1
 66
     0
277
    -2
287
     1
 67
     0
278
    -2
288
     1
 68
     0
279
    -2
289
     1
 69
     0
  7
Standard
140
0.25
170
     5
 62
     0
 63
   257
283
     0
 90
        4
 91
        0
  1

274
    -2
284
     1
 64
     0
275
    -2
285
     1
 65
     0
276
    -2
286
     1
 66
     0
277
    -2
287
     1
 67
     0
278
    -2
288
     1
 68
     0
279
    -2
289
     1
 69
     0
  7
Standard
140
0.18
170
     5
 62
     0
 63
   257
283
     0
 90
        4
 91
        0
  1

274
    -2
284
     1
 64
     0
275
    -2
285
     1
 65
     0
276
    -2
286
     1
 66
     0
277
    -2
287
     1
 67
     0
278
    -2
288
     1
 68
     0
279
    -2
289
     1
 69
     0
  0
VISUALSTYLE
  5
2F
102
{ACAD_REACTORS
330
2A
102
}
102
{ACAD_XDICTIONARY
360
DE
102
}
330
2A
100
AcDbVisualStyle
  2
2dWireframe
 70
     4
 71
     0
 72
     2
 73
     0
 90
        0
 40
0.6
 41
30.0
 62
     5
 63
     7
421
 16777215
 74
     1
 91
        4
 64
     7
 65
   257
 75
     1
175
     1
 42
1.0
 92
        0
 66
   257
 43
1.0
 76
     1
 77
     6
 78
     2
 67
     7
 79
     5
170
     0
171
     0
290
     0
174
     0
 93
        1
 44
0.0
173
     0
291
     0
 45
0.0
  0
VISUALSTYLE
  5
32
102
{ACAD_REACTORS
330
2A
102
}
102
{ACAD_XDICTIONARY
360
E4
102
}
330
2A
100
AcDbVisualStyle
  2
Basic
 70
     7
 71
     1
 72
     0
 73
     1
 90
        0
 40
0.6
 41
30.0
 62
     5
 63
     7
421
 16777215
 74
     0
 91
        4
 64
     7
 65
   257
 75
     1
175
     1
 42
1.0
 92
        8
 66
     7
 43
1.0
 76
     1
 77
     6
 78
     2
 67
     7
 79
     5
170
     0
171
     0
290
     0
174
     0
 93
        1
 44
0.0
173
     0
291
     1
 45
0.0
  0
VISUALSTYLE
  5
36
102
{ACAD_REACTORS
330
2A
102
}
102
{ACAD_XDICTIONARY
360
EC
102
}
330
2A
100
AcDbVisualStyle
  2
Brighten
 70
    12
 71
     2
 72
     2
 73
     0
 90
        0
 40
0.6
 41
30.0
 62
     5
 63
     7
421
 16777215
 74
     1
 91
        4
 64
     7
 65
   257
 75
     1
175
     1
 42
1.0
 92
        8
 66
     7
 43
1.0
 76
     1
 77
     6
 78
     2
 67
     7
 79
     5
170
     0
171
     0
290
     0
174
     0
 93
        1
 44
50.0
173
     0
291
     1
 45
0.0
  0
VISUALSTYLE
  5
3A
102
{ACAD_REACTORS
330
2A
102
}
102
{ACAD_XDICTIONARY
360
F4
102
}
330
2A
100
AcDbVisualStyle
  2
ColorChange
 70
    16
 71
     2
 72
     2
 73
     3
 90
        0
 40
0.6
 41
30.0
 62
     5
 63
     8
421
  8421504
 74
     1
 91
        4
 64
     7
 65
   257
 75
     1
175
     1
 42
1.0
 92
        8
 66
     8
424
  8421504
 43
1.0
 76
     1
 77
     6
 78
     2
 67
     7
 79
     5
170
     0
171
     0
290
     0
174
     0
 93
        1
 44
0.0
173
     0
291
     1
 45
0.0
  0
VISUALSTYLE
  5
34
102
{ACAD_REACTORS
330
2A
102
}
102
{ACAD_XDICTIONARY
360
E8
102
}
330
2A
100
AcDbVisualStyle
  2
Conceptual
 70
     9
 71
     3
 72
     2
 73
     0
 90
        0
 40
0.6
 41
30.0
 62
     5
 63
     7
421
 16777215
 74
     2
 91
        2
 64
     7
 65
   257
 75
     1
175
     1
 42
179.0
 92
        8
 66
     7
 43
1.0
 76
     1
 77
     6
 78
     2
 67
     7
 79
     3
170
     0
171
     0
290
     0
174
     0
 93
        1
 44
0.0
173
     0
291
     0
 45
0.0
  0
VISUALSTYLE
  5
35
102
{ACAD_REACTORS
330
2A
102
}
102
{ACAD_XDICTIONARY
360
EA
102
}
330
2A
100
AcDbVisualStyle
  2
Dim
 70
    11
 71
     2
 72
     2
 73
     0
 90
        0
 40
0.6
 41
30.0
 62
     5
 63
     7
421
 16777215
 74
     1
 91
        4
 64
     7
 65
   257
 75
     1
175
     1
 42
1.0
 92
        8
 66
     7
 43
1.0
 76
     1
 77
     6
 78
     2
 67
     7
 79
     5
170
     0
171
     0
290
     0
174
     0
 93
        1
 44
-50.0
173
     0
291
     1
 45
0.0
  0
VISUALSTYLE
  5
3D
102
{ACAD_REACTORS
330
2A
102
}
102
{ACAD_XDICTIONARY
360
FA
102
}
330
2A
100
AcDbVisualStyle
  2
EdgeColorOff
 70
    22
 71
     2
 72
     2
 73
     0
 90
        0
 40
0.6
 41
30.0
 62
     5
 63
     7
421
 16777215
 74
     1
 91
        4
 64
     7
 65
   257
 75
     1
175
     1
 42
1.0
 92
        8
 66
     7
 43
1.0
 76
     1
 77
     6
 78
     2
 67
     7
 79
     5
170
     0
171
     0
290
     0
174
     0
 93
        1
 44
0.0
173
     0
291
     1
 45
0.0
  0
VISUALSTYLE
  5
39
102
{ACAD_REACTORS
330
2A
102
}
102
{ACAD_XDICTIONARY
360
F2
102
}
330
2A
100
AcDbVisualStyle
  2
Facepattern
 70
    15
 71
     2
 72
     2
 73
     0
 90
        0
 40
0.6
 41
30.0
 62
     5
 63
     7
421
 16777215
 74
     1
 91
        4
 64
     7
 65
   257
 75
     1
175
     1
 42
1.0
 92
        8
 66
     7
 43
1.0
 76
     1
 77
     6
 78
     2
 67
     7
 79
     5
170
     0
171
     0
290
     0
174
     0
 93
        1
 44
0.0
173
     0
291
     1
 45
0.0
  0
VISUALSTYLE
  5
2B
102
{ACAD_REACTORS
330
2A
102
}
102
{ACAD_XDICTIONARY
360
D6
102
}
330
2A
100
AcDbVisualStyle
  2
Flat
 70
     0
 71
     2
 72
     1
 73
     1
 90
        2
 40
0.6
 41
30.0
 62
     5
 63
     7
421
 16777215
 74
     0
 91
        0
 64
     7
 65
   257
 75
     1
175
     1
 42
1.0
 92
        8
 66
     7
 43
1.0
 76
     1
 77
     6
 78
     2
 67
     7
 79
     5
170
     0
171
     0
290
     0
174
     0
 93
       13
 44
0.0
173
     0
291
     1
 45
0.0
  0
VISUALSTYLE
  5
2C
102
{ACAD_REACTORS
330
2A
102
}
102
{ACAD_XDICTIONARY
360
D8
102
}
330
2A
100
AcDbVisualStyle
  2
FlatWithEdges
 70
     1
 71
     2
 72
     1
 73
     1
 90
        2
 40
0.6
 41
30.0
 62
     5
 63
     7
421
 16777215
 74
     1
 91
        0
 64
     7
 65
   257
 75
     1
175
     1
 42
1.0
 92
        0
 66
   257
 43
1.0
 76
     1
 77
     6
 78
     2
 67
     7
 79
     5
170
     0
171
     0
290
     0
174
     0
 93
       13
 44
0.0
173
     0
291
     1
 45
0.0
  0
VISUALSTYLE
  5
2D
102
{ACAD_REACTORS
330
2A
102
}
102
{ACAD_XDICTIONARY
360
DA
102
}
330
2A
100
AcDbVisualStyle
  2
Gouraud
 70
     2
 71
     2
 72
     2
 73
     1
 90
        2
 40
0.6
 41
30.0
 62
     5
 63
     7
421
 16777215
 74
     0
 91
        0
 64
     7
 65
   257
 75
     1
175
     1
 42
1.0
 92
        0
 66
     7
 43
1.0
 76
     1
 77
     6
 78
     2
 67
     7
 79
     5
170
     0
171
     0
290
     0
174
     0
 93
       13
 44
0.0
173
     0
291
     1
 45
0.0
  0
VISUALSTYLE
  5
2E
102
{ACAD_REACTORS
330
2A
102
}
102
{ACAD_XDICTIONARY
360
DC
102
}
330
2A
100
AcDbVisualStyle
  2
GouraudWithEdges
 70
     3
 71
     2
 72
     2
 73
     1
 90
        2
 40
0.6
 41
30.0
 62
     5
 63
     7
421
 16777215
 74
     1
 91
        0
 64
     7
 65
   257
 75
     1
175
     1
 42
1.0
 92
        0
 66
   257
 43
1.0
 76
     1
 77
     6
 78
     2
 67
     7
 79
     5
170
     0
171
     0
290
     0
174
     0
 93
       13
 44
0.0
173
     0
291
     1
 45
0.0
  0
VISUALSTYLE
  5
31
102
{ACAD_REACTORS
330
2A
102
}
102
{ACAD_XDICTIONARY
360
E2
102
}
330
2A
100
AcDbVisualStyle
  2
Hidden
 70
     6
 71
     1
 72
     2
 73
     2
 90
        0
 40
0.6
 41
30.0
 62
     5
 63
     7
421
 16777215
 74
     2
 91
        2
 64
     7
 65
   257
 75
     2
175
     1
 42
40.0
 92
        0
 66
   257
 43
1.0
 76
     1
 77
     6
 78
     2
 67
     7
 79
     3
170
     0
171
     0
290
     0
174
     0
 93
        1
 44
0.0
173
     0
291
     0
 45
0.0
  0
VISUALSTYLE
  5
3B
102
{ACAD_REACTORS
330
2A
102
}
102
{ACAD_XDICTIONARY
360
F6
102
}
330
2A
100
AcDbVisualStyle
  2
JitterOff
 70
    20
 71
     2
 72
     2
 73
     0
 90
        0
 40
0.6
 41
30.0
 62
     5
 63
     7
421
 16777215
 74
     1
 91
        4
 64
     7
 65
   257
 75
     1
175
     1
 42
1.0
 92
       10
 66
     7
 43
1.0
 76
     1
 77
     6
 78
     2
 67
     7
 79
     5
170
     0
171
     0
290
     0
174
     0
 93
        1
 44
0.0
173
     0
291
     1
 45
0.0
  0
VISUALSTYLE
  5
38
102
{ACAD_REACTORS
330
2A
102
}
102
{ACAD_XDICTIONARY
360
F0
102
}
330
2A
100
AcDbVisualStyle
  2
Linepattern
 70
    14
 71
     2
 72
     2
 73
     0
 90
        0
 40
0.6
 41
30.0
 62
     5
 63
     7
421
 16777215
 74
     1
 91
        4
 64
     7
 65
   257
 75
     7
175
     7
 42
1.0
 92
        8
 66
     7
 43
1.0
 76
     1
 77
     6
 78
     2
 67
     7
 79
     5
170
     0
171
     0
290
     0
174
     0
 93
        1
 44
0.0
173
     0
291
     1
 45
0.0
  0
VISUALSTYLE
  5
3C
102
{ACAD_REACTORS
330
2A
102
}
102
{ACAD_XDICTIONARY
360
F8
102
}
330
2A
100
AcDbVisualStyle
  2
OverhangOff
 70
    21
 71
     2
 72
     2
 73
     0
 90
        0
 40
0.6
 41
30.0
 62
     5
 63
     7
421
 16777215
 74
     1
 91
        4
 64
     7
 65
   257
 75
     1
175
     1
 42
1.0
 92
        9
 66
     7
 43
1.0
 76
     1
 77
     6
 78
     2
 67
     7
 79
     5
170
     0
171
     0
290
     0
174
     0
 93
        1
 44
0.0
173
     0
291
     1
 45
0.0
  0
VISUALSTYLE
  5
33
102
{ACAD_REACTORS
330
2A
102
}
102
{ACAD_XDICTIONARY
360
E6
102
}
330
2A
100
AcDbVisualStyle
  2
Realistic
 70
     8
 71
     2
 72
     3
 73
     0
 90
        2
 40
0.6
 41
30.0
 62
     5
 63
     7
421
 16777215
 74
     0
 91
        0
 64
     7
 65
   257
 75
     1
175
     1
 42
1.0
 92
        8
 66
   257
 43
1.0
 76
     1
 77
     6
 78
     2
 67
     7
 79
     3
170
     0
171
     0
290
     0
174
     0
 93
       13
 44
0.0
173
     0
291
     0
 45
0.0
  0
VISUALSTYLE
  5
42
102
{ACAD_REACTORS
330
2A
102
}
102
{ACAD_XDICTIONARY
360
104
102
}
330
2A
100
AcDbVisualStyle
  2
Shaded
 70
    27
 71
     2
 72
     2
 73
     1
 90
        2
 40
0.6
 41
30.0
 62
     5
 63
     7
421
 16777215
 74
     0
 91
        4
 64
     7
 65
   257
 75
     1
175
     1
 42
1.0
 92
        8
 66
   257
 43
1.0
 76
     1
 77
     6
 78
     2
 67
     8
425
  7895160
 79
     3
170
     0
171
     0
290
     0
174
     0
 93
        5
 44
0.0
173
     0
291
     0
 45
0.0
  0
VISUALSTYLE
  5
41
102
{ACAD_REACTORS
330
2A
102
}
102
{ACAD_XDICTIONARY
360
102
102
}
330
2A
100
AcDbVisualStyle
  2
Shaded with edges
 70
    26
 71
     2
 72
     2
 73
     1
 90
        2
 40
0.6
 41
30.0
 62
     5
 63
     7
421
 16777215
 74
     1
 91
       10
 64
     7
 65
   257
 75
     2
175
     1
 42
1.0
 92
        8
 66
   257
 43
1.0
 76
     1
 77
     6
 78
     2
 67
     7
 79
     3
170
     0
171
     0
290
     0
174
     0
 93
        5
 44
0.0
173
     0
291
     0
 45
0.0
  0
VISUALSTYLE
  5
3E
102
{ACAD_REACTORS
330
2A
102
}
102
{ACAD_XDICTIONARY
360
FC
102
}
330
2A
100
AcDbVisualStyle
  2
Shades of Gray
 70
    23
 71
     2
 72
     2
 73
     3
 90
        0
 40
0.6
 41
30.0
 62
     5
 63
     7
421
 16777215
 74
     2
 91
        2
 64
     7
 65
     7
 75
     1
175
     1
 42
40.0
 92
        8
 66
     7
 43
1.0
 76
     1
 77
     6
 78
     2
 67
     7
 79
     3
170
     0
171
     0
290
     0
174
     0
 93
        1
 44
0.0
173
     0
291
     0
 45
0.0
  0
VISUALSTYLE
  5
3F
102
{ACAD_REACTORS
330
2A
102
}
102
{ACAD_XDICTIONARY
360
FE
102
}
330
2A
100
AcDbVisualStyle
  2
Sketchy
 70
    24
 71
     1
 72
     2
 73
     2
 90
        0
 40
0.6
 41
30.0
 62
     5
 63
     7
421
 16777215
 74
     2
 91
        2
 64
     7
 65
     7
 75
     1
175
     1
 42
40.0
 92
       11
 66
     7
 43
1.0
 76
     1
 77
     6
 78
     2
 67
     7
 79
     6
170
     0
171
     0
290
     0
174
     0
 93
        1
 44
0.0
173
     0
291
     0
 45
0.0
  0
VISUALSTYLE
  5
37
102
{ACAD_REACTORS
330
2A
102
}
102
{ACAD_XDICTIONARY
360
EE
102
}
330
2A
100
AcDbVisualStyle
  2
Thicken
 70
    13
 71
     2
 72
     2
 73
     0
 90
        0
 40
0.6
 41
30.0
 62
     5
 63
     7
421
 16777215
 74
     1
 91
        4
 64
     7
 65
   257
 75
     1
175
     1
 42
1.0
 92
       12
 66
     7
 43
1.0
 76
     1
 77
     6
 78
     2
 67
     7
 79
     5
170
     0
171
     0
290
     0
174
     0
 93
        1
 44
0.0
173
     0
291
     1
 45
0.0
  0
VISUALSTYLE
  5
30
102
{ACAD_REACTORS
330
2A
102
}
102
{ACAD_XDICTIONARY
360
E0
102
}
330
2A
100
AcDbVisualStyle
  2
Wireframe
 70
     5
 71
     0
 72
     2
 73
     0
 90
        0
 40
0.6
 41
30.0
 62
     5
 63
     7
421
 16777215
 74
     1
 91
        4
 64
     7
 65
   257
 75
     1
175
     1
 42
1.0
 92
        0
 66
   257
 43
1.0
 76
     1
 77
     6
 78
     2
 67
     7
 79
     3
170
     0
171
     0
290
     0
174
     0
 93
        1
 44
0.0
173
     0
291
     0
 45
0.0
  0
VISUALSTYLE
  5
40
102
{ACAD_REACTORS
330
2A
102
}
102
{ACAD_XDICTIONARY
360
100
102
}
330
2A
100
AcDbVisualStyle
  2
X-Ray
 70
    25
 71
     2
 72
     2
 73
     1
 90
        1
 40
0.5
 41
30.0
 62
     5
 63
     7
421
 16777215
 74
     1
 91
        0
 64
     7
 65
   257
 75
     1
175
     1
 42
1.0
 92
        8
 66
     7
 43
1.0
 76
     1
 77
     6
 78
     2
 67
     7
 79
     3
170
     0
171
     0
290
     0
174
     0
 93
       13
 44
0.0
173
     0
291
     0
 45
0.0
  0
DICTIONARYVAR
  5
D4
102
{ACAD_REACTORS
330
D3
102
}
330
D3
100
DictionaryVariables
280
     0
  1
1:1
  0
DICTIONARYVAR
  5
10D
102
{ACAD_REACTORS
330
D3
102
}
330
D3
100
DictionaryVariables
280
     0
  1
Standard
  0
DICTIONARYVAR
  5
10C
102
{ACAD_REACTORS
330
D3
102
}
330
D3
100
DictionaryVariables
280
     0
  1
Standard
  0
DICTIONARYVAR
  5
D5
102
{ACAD_REACTORS
330
D3
102
}
330
D3
100
DictionaryVariables
280
     0
  1
2
  0
DICTIONARY
  5
109
330
6C
100
AcDbDictionary
280
     1
281
     1
  3
ACAD_XREC_ROUNDTRIP
360
10A
  0
DICTIONARY
  5
106
330
6A
100
AcDbDictionary
280
     1
281
     1
  3
ACAD_ROUNDTRIP_2008_TABLESTYLE_CELLSTYLEMAP
360
107
  0
DICTIONARY
  5
DE
330
2F
100
AcDbDictionary
280
     1
281
     1
  3
ACAD_XREC_ROUNDTRIP
360
DF
  0
DICTIONARY
  5
E4
330
32
100
AcDbDictionary
280
     1
281
     1
  3
ACAD_XREC_ROUNDTRIP
360
E5
  0
DICTIONARY
  5
EC
330
36
100
AcDbDictionary
280
     1
281
     1
  3
ACAD_XREC_ROUNDTRIP
360
ED
  0
DICTIONARY
  5
F4
330
3A
100
AcDbDictionary
280
     1
281
     1
  3
ACAD_XREC_ROUNDTRIP
360
F5
  0
DICTIONARY
  5
E8
330
34
100
AcDbDictionary
280
     1
281
     1
  3
ACAD_XREC_ROUNDTRIP
360
E9
  0
DICTIONARY
  5
EA
330
35
100
AcDbDictionary
280
     1
281
     1
  3
ACAD_XREC_ROUNDTRIP
360
EB
  0
DICTIONARY
  5
FA
330
3D
100
AcDbDictionary
280
     1
281
     1
  3
ACAD_XREC_ROUNDTRIP
360
FB
  0
DICTIONARY
  5
F2
330
39
100
AcDbDictionary
280
     1
281
     1
  3
ACAD_XREC_ROUNDTRIP
360
F3
  0
DICTIONARY
  5
D6
330
2B
100
AcDbDictionary
280
     1
281
     1
  3
ACAD_XREC_ROUNDTRIP
360
D7
  0
DICTIONARY
  5
D8
330
2C
100
AcDbDictionary
280
     1
281
     1
  3
ACAD_XREC_ROUNDTRIP
360
D9
  0
DICTIONARY
  5
DA
330
2D
100
AcDbDictionary
280
     1
281
     1
  3
ACAD_XREC_ROUNDTRIP
360
DB
  0
DICTIONARY
  5
DC
330
2E
100
AcDbDictionary
280
     1
281
     1
  3
ACAD_XREC_ROUNDTRIP
360
DD
  0
DICTIONARY
  5
E2
330
31
100
AcDbDictionary
280
     1
281
     1
  3
ACAD_XREC_ROUNDTRIP
360
E3
  0
DICTIONARY
  5
F6
330
3B
100
AcDbDictionary
280
     1
281
     1
  3
ACAD_XREC_ROUNDTRIP
360
F7
  0
DICTIONARY
  5
F0
330
38
100
AcDbDictionary
280
     1
281
     1
  3
ACAD_XREC_ROUNDTRIP
360
F1
  0
DICTIONARY
  5
F8
330
3C
100
AcDbDictionary
280
     1
281
     1
  3
ACAD_XREC_ROUNDTRIP
360
F9
  0
DICTIONARY
  5
E6
330
33
100
AcDbDictionary
280
     1
281
     1
  3
ACAD_XREC_ROUNDTRIP
360
E7
  0
DICTIONARY
  5
104
330
42
100
AcDbDictionary
280
     1
281
     1
  3
ACAD_XREC_ROUNDTRIP
360
105
  0
DICTIONARY
  5
102
330
41
100
AcDbDictionary
280
     1
281
     1
  3
ACAD_XREC_ROUNDTRIP
360
103
  0
DICTIONARY
  5
FC
330
3E
100
AcDbDictionary
280
     1
281
     1
  3
ACAD_XREC_ROUNDTRIP
360
FD
  0
DICTIONARY
  5
FE
330
3F
100
AcDbDictionary
280
     1
281
     1
  3
ACAD_XREC_ROUNDTRIP
360
FF
  0
DICTIONARY
  5
EE
330
37
100
AcDbDictionary
280
     1
281
     1
  3
ACAD_XREC_ROUNDTRIP
360
EF
  0
DICTIONARY
  5
E0
330
30
100
AcDbDictionary
280
     1
281
     1
  3
ACAD_XREC_ROUNDTRIP
360
E1
  0
DICTIONARY
  5
100
330
40
100
AcDbDictionary
280
     1
281
     1
  3
ACAD_XREC_ROUNDTRIP
360
101
  0
XRECORD
  5
10A
102
{ACAD_REACTORS
330
109
102
}
330
109
100
AcDbXrecord
280
     1
102
ACAD_ROUNDTRIP_2010_MLEADER_STYLE
  0
CELLSTYLEMAP
  5
107
102
{ACAD_REACTORS
330
106
102
}
330
106
100
AcDbCellStyleMap
 90
        3
300
CELLSTYLE
  1
TABLEFORMAT_BEGIN
 90
        5
170
     1
 91
        0
 92
    32768
 62
   257
 93
        1
300
CONTENTFORMAT
  1
CONTENTFORMAT_BEGIN
 90
        0
 91
        0
 92
        4
 93
        0
300

 40
0.0
140
1.0
 94
        5
 62
     0
340
11
144
0.25
309
CONTENTFORMAT_END
171
     1
301
MARGIN
  1
CELLMARGIN_BEGIN
 40
0.06
 40
0.06
 40
0.06
 40
0.06
 40
0.06
 40
0.06
309
CELLMARGIN_END
 94
        6
 95
        1
302
GRIDFORMAT
  1
GRIDFORMAT_BEGIN
 90
        0
 91
        1
 62
     0
 92
       -2
340
14
 93
        0
 40
0.045
309
GRIDFORMAT_END
 95
        2
302
GRIDFORMAT
  1
GRIDFORMAT_BEGIN
 90
        0
 91
        1
 62
     0
 92
       -2
340
14
 93
        0
 40
0.045
309
GRIDFORMAT_END
 95
        4
302
GRIDFORMAT
  1
GRIDFORMAT_BEGIN
 90
        0
 91
        1
 62
     0
 92
       -2
340
14
 93
        0
 40
0.045
309
GRIDFORMAT_END
 95
        8
302
GRIDFORMAT
  1
GRIDFORMAT_BEGIN
 90
        0
 91
        1
 62
     0
 92
       -2
340
14
 93
        0
 40
0.045
309
GRIDFORMAT_END
 95
       16
302
GRIDFORMAT
  1
GRIDFORMAT_BEGIN
 90
        0
 91
        1
 62
     0
 92
       -2
340
14
 93
        0
 40
0.045
309
GRIDFORMAT_END
 95
       32
302
GRIDFORMAT
  1
GRIDFORMAT_BEGIN
 90
        0
 91
        1
 62
     0
 92
       -2
340
14
 93
        0
 40
0.045
309
GRIDFORMAT_END
309
TABLEFORMAT_END
  1
CELLSTYLE_BEGIN
 90
        1
 91
        1
300
_TITLE
309
CELLSTYLE_END
300
CELLSTYLE
  1
TABLEFORMAT_BEGIN
 90
        5
170
     1
 91
        0
 92
        0
 62
   257
 93
        1
300
CONTENTFORMAT
  1
CONTENTFORMAT_BEGIN
 90
        0
 91
        0
 92
        4
 93
        0
300

 40
0.0
140
1.0
 94
        5
 62
     0
340
11
144
0.18
309
CONTENTFORMAT_END
171
     1
301
MARGIN
  1
CELLMARGIN_BEGIN
 40
0.06
 40
0.06
 40
0.06
 40
0.06
 40
0.06
 40
0.06
309
CELLMARGIN_END
 94
        6
 95
        1
302
GRIDFORMAT
  1
GRIDFORMAT_BEGIN
 90
        0
 91
        1
 62
     0
 92
       -2
340
14
 93
        0
 40
0.045
309
GRIDFORMAT_END
 95
        2
302
GRIDFORMAT
  1
GRIDFORMAT_BEGIN
 90
        0
 91
        1
 62
     0
 92
       -2
340
14
 93
        0
 40
0.045
309
GRIDFORMAT_END
 95
        4
302
GRIDFORMAT
  1
GRIDFORMAT_BEGIN
 90
        0
 91
        1
 62
     0
 92
       -2
340
14
 93
        0
 40
0.045
309
GRIDFORMAT_END
 95
        8
302
GRIDFORMAT
  1
GRIDFORMAT_BEGIN
 90
        0
 91
        1
 62
     0
 92
       -2
340
14
 93
        0
 40
0.045
309
GRIDFORMAT_END
 95
       16
302
GRIDFORMAT
  1
GRIDFORMAT_BEGIN
 90
        0
 91
        1
 62
     0
 92
       -2
340
14
 93
        0
 40
0.045
309
GRIDFORMAT_END
 95
       32
302
GRIDFORMAT
  1
GRIDFORMAT_BEGIN
 90
        0
 91
        1
 62
     0
 92
       -2
340
14
 93
        0
 40
0.045
309
GRIDFORMAT_END
309
TABLEFORMAT_END
  1
CELLSTYLE_BEGIN
 90
        2
 91
        1
300
_HEADER
309
CELLSTYLE_END
300
CELLSTYLE
  1
TABLEFORMAT_BEGIN
 90
        5
170
     1
 91
        0
 92
        0
 62
   257
 93
        1
300
CONTENTFORMAT
  1
CONTENTFORMAT_BEGIN
 90
        0
 91
        0
 92
        4
 93
        0
300

 40
0.0
140
1.0
 94
        2
 62
     0
340
11
144
0.18
309
CONTENTFORMAT_END
171
     1
301
MARGIN
  1
CELLMARGIN_BEGIN
 40
0.06
 40
0.06
 40
0.06
 40
0.06
 40
0.06
 40
0.06
309
CELLMARGIN_END
 94
        6
 95
        1
302
GRIDFORMAT
  1
GRIDFORMAT_BEGIN
 90
        0
 91
        1
 62
     0
 92
       -2
340
14
 93
        0
 40
0.045
309
GRIDFORMAT_END
 95
        2
302
GRIDFORMAT
  1
GRIDFORMAT_BEGIN
 90
        0
 91
        1
 62
     0
 92
       -2
340
14
 93
        0
 40
0.045
309
GRIDFORMAT_END
 95
        4
302
GRIDFORMAT
  1
GRIDFORMAT_BEGIN
 90
        0
 91
        1
 62
     0
 92
       -2
340
14
 93
        0
 40
0.045
309
GRIDFORMAT_END
 95
        8
302
GRIDFORMAT
  1
GRIDFORMAT_BEGIN
 90
        0
 91
        1
 62
     0
 92
       -2
340
14
 93
        0
 40
0.045
309
GRIDFORMAT_END
 95
       16
302
GRIDFORMAT
  1
GRIDFORMAT_BEGIN
 90
        0
 91
        1
 62
     0
 92
       -2
340
14
 93
        0
 40
0.045
309
GRIDFORMAT_END
 95
       32
302
GRIDFORMAT
  1
GRIDFORMAT_BEGIN
 90
        0
 91
        1
 62
     0
 92
       -2
340
14
 93
        0
 40
0.045
309
GRIDFORMAT_END
309
TABLEFORMAT_END
  1
CELLSTYLE_BEGIN
 90
        3
 91
        2
300
_DATA
309
CELLSTYLE_END
  0
XRECORD
  5
DF
102
{ACAD_REACTORS
330
DE
102
}
330
DE
100
AcDbXrecord
280
     1
102
RTVSPropertyOp0
 70
     1
102
RTVSPropertyOp1
 70
     1
102
RTVSPropertyOp2
 70
     1
102
RTVSPropertyOp3
 70
     1
102
RTVSPropertyOp4
 70
     1
102
RTVSPropertyOp5
 70
     1
102
RTVSPropertyOp6
 70
     1
102
RTVSPropertyOp7
 70
     1
102
RTVSPropertyOp8
 70
     1
102
RTVSPropertyOp9
 70
     1
102
RTVSPropertyOp10
 70
     1
102
RTVSPropertyOp11
 70
     1
102
RTVSPropertyOp12
 70
     1
102
RTVSPropertyOp13
 70
     1
102
RTVSPropertyOp14
 70
     1
102
RTVSPropertyOp15
 70
     1
102
RTVSPropertyOp16
 70
     1
102
RTVSPropertyOp17
 70
     1
102
RTVSPropertyOp18
 70
     1
102
RTVSPropertyOp19
 70
     1
102
RTVSPropertyOp20
 70
     1
102
RTVSPropertyOp21
 70
     1
102
RTVSPropertyOp22
 70
     1
102
RTVSPropertyOp23
 70
     1
102
RTVSPropertyOp24
 70
     1
102
RTVSPropertyOp25
 70
     1
102
RTVSPropertyOp26
 70
     1
102
RTVSPropertyOp27
 70
     1
102
RTVSPropertyOp28
 70
     1
102
RTVSPropertyOp29
 70
     1
102
RTVSPropertyOp30
 70
     1
102
RTVSPropertyOp31
 70
     1
102
RTVSPropertyOp32
 70
     1
102
RTVSPropertyOp33
 70
     1
102
RTVSPropertyOp34
 70
     1
102
RTVSPropertyOp35
 70
     1
102
RTVSPropertyOp36
 70
     1
102
RTVSPropertyOp37
 70
     1
102
RTVSPropertyOp38
 70
     1
102
RTVSPropertyOp39
 70
     1
102
RTVSPropertyOp40
 70
     1
102
RTVSPropertyOp41
 70
     1
102
RTVSPropertyOp42
 70
     1
102
RTVSPropertyOp43
 70
     1
102
RTVSPropertyOp44
 70
     1
102
RTVSPropertyOp45
 70
     1
102
RTVSPropertyOp46
 70
     1
102
RTVSPropertyOp47
 70
     1
102
RTVSPropertyOp48
 70
     1
102
RTVSPropertyOp49
 70
     1
102
RTVSPropertyOp50
 70
     1
102
RTVSPropertyOp51
 70
     0
102
RTVSPropertyOp52
 70
     0
102
RTVSPropertyOp53
 70
     1
102
RTVSPropertyOp54
 70
     1
102
RTVSPropertyOp55
 70
     1
102
RTVSPropertyOp56
 70
     1
102
RTVSPropertyOp57
 70
     1
102
RTVSPost2010Prop28
280
     1
102
RTVSPost2010PropOp28
 70
     1
102
RTVSPost2010Prop29
280
     1
102
RTVSPost2010PropOp29
 70
     1
102
RTVSPost2010Prop30
280
     0
102
RTVSPost2010PropOp30
 70
     1
102
RTVSPost2010Prop31
280
     0
102
RTVSPost2010PropOp31
 70
     1
102
RTVSPost2010Prop32
280
     0
102
RTVSPost2010PropOp32
 70
     1
102
RTVSPost2010Prop33
280
     0
102
RTVSPost2010PropOp33
 70
     1
102
RTVSPost2010Prop34
280
     0
102
RTVSPost2010PropOp34
 70
     1
102
RTVSPost2010Prop35
280
     0
102
RTVSPost2010PropOp35
 70
     1
102
RTVSPost2010Prop36
280
     0
102
RTVSPost2010PropOp36
 70
     1
102
RTVSPost2010Prop37
 90
       50
102
RTVSPost2010PropOp37
 70
     1
102
RTVSPost2010Prop38
140
0.0
102
RTVSPost2010PropOp38
 70
     1
102
RTVSPost2010Prop39
140
1.0
102
RTVSPost2010PropOp39
 70
     1
102
RTVSPost2010Prop40
 90
        0
102
RTVSPost2010PropOp40
 70
     1
102
RTVSPost2010Prop41ColorIndex
 90
       18
102
RTVSPost2010Prop41ColorRGB
 90
        0
102
RTVSPost2010PropOp41
 70
     1
102
RTVSPost2010Prop42
 90
       50
102
RTVSPost2010PropOp42
 70
     1
102
RTVSPost2010Prop43
 90
        3
102
RTVSPost2010PropOp43
 70
     1
102
RTVSPost2010Prop44ColorIndex
 90
        5
102
RTVSPost2010Prop44ColorRGB
 90
      255
102
RTVSPost2010PropOp44
 70
     1
102
RTVSPost2010Prop45
280
     0
102
RTVSPost2010PropOp45
 70
     1
102
RTVSPost2010Prop46
 90
       50
102
RTVSPost2010PropOp46
 70
     1
102
RTVSPost2010Prop47
 90
       50
102
RTVSPost2010PropOp47
 70
     1
102
RTVSPost2010Prop48
 90
       50
102
RTVSPost2010PropOp48
 70
     1
102
RTVSPost2010Prop49
280
     0
102
RTVSPost2010PropOp49
 70
     1
102
RTVSPost2010Prop50
 90
       50
102
RTVSPost2010PropOp50
 70
     1
102
RTVSPost2010Prop51ColorIndex
 90
      256
102
RTVSPost2010Prop51ColorRGB
 90
-16777216
102
RTVSPost2010PropOp51
 70
     0
102
RTVSPost2010Prop52
140
1.0
102
RTVSPost2010PropOp52
 70
     0
102
RTVSPost2010Prop53
 90
        2
102
RTVSPost2010PropOp53
 70
     1
102
RTVSPost2010Prop54
  1
strokes_ogs.tif
102
RTVSPost2010PropOp54
 70
     1
102
RTVSPost2010Prop55
280
     0
102
RTVSPost2010PropOp55
 70
     1
102
RTVSPost2010Prop56
140
1.0
102
RTVSPost2010PropOp56
 70
     1
102
RTVSPost2010Prop57
140
1.0
102
RTVSPost2010PropOp57
 70
     1
  0
XRECORD
  5
E5
102
{ACAD_REACTORS
330
E4
102
}
330
E4
100
AcDbXrecord
280
     1
102
RTVSPropertyOp0
 70
     1
102
RTVSPropertyOp1
 70
     1
102
RTVSPropertyOp2
 70
     1
102
RTVSPropertyOp3
 70
     1
102
RTVSPropertyOp4
 70
     1
102
RTVSPropertyOp5
 70
     1
102
RTVSPropertyOp6
 70
     1
102
RTVSPropertyOp7
 70
     1
102
RTVSPropertyOp8
 70
     1
102
RTVSPropertyOp9
 70
     1
102
RTVSPropertyOp10
 70
     1
102
RTVSPropertyOp11
 70
     1
102
RTVSPropertyOp12
 70
     1
102
RTVSPropertyOp13
 70
     1
102
RTVSPropertyOp14
 70
     1
102
RTVSPropertyOp15
 70
     1
102
RTVSPropertyOp16
 70
     1
102
RTVSPropertyOp17
 70
     1
102
RTVSPropertyOp18
 70
     1
102
RTVSPropertyOp19
 70
     1
102
RTVSPropertyOp20
 70
     1
102
RTVSPropertyOp21
 70
     1
102
RTVSPropertyOp22
 70
     1
102
RTVSPropertyOp23
 70
     1
102
RTVSPropertyOp24
 70
     1
102
RTVSPropertyOp25
 70
     1
102
RTVSPropertyOp26
 70
     1
102
RTVSPropertyOp27
 70
     1
102
RTVSPropertyOp28
 70
     1
102
RTVSPropertyOp29
 70
     1
102
RTVSPropertyOp30
 70
     1
102
RTVSPropertyOp31
 70
     1
102
RTVSPropertyOp32
 70
     1
102
RTVSPropertyOp33
 70
     1
102
RTVSPropertyOp34
 70
     1
102
RTVSPropertyOp35
 70
     1
102
RTVSPropertyOp36
 70
     1
102
RTVSPropertyOp37
 70
     1
102
RTVSPropertyOp38
 70
     1
102
RTVSPropertyOp39
 70
     1
102
RTVSPropertyOp40
 70
     1
102
RTVSPropertyOp41
 70
     1
102
RTVSPropertyOp42
 70
     1
102
RTVSPropertyOp43
 70
     1
102
RTVSPropertyOp44
 70
     1
102
RTVSPropertyOp45
 70
     1
102
RTVSPropertyOp46
 70
     1
102
RTVSPropertyOp47
 70
     1
102
RTVSPropertyOp48
 70
     1
102
RTVSPropertyOp49
 70
     1
102
RTVSPropertyOp50
 70
     1
102
RTVSPropertyOp51
 70
     0
102
RTVSPropertyOp52
 70
     0
102
RTVSPropertyOp53
 70
     1
102
RTVSPropertyOp54
 70
     1
102
RTVSPropertyOp55
 70
     1
102
RTVSPropertyOp56
 70
     1
102
RTVSPropertyOp57
 70
     1
102
RTVSPost2010Prop28
280
     0
102
RTVSPost2010PropOp28
 70
     1
102
RTVSPost2010Prop29
280
     1
102
RTVSPost2010PropOp29
 70
     1
102
RTVSPost2010Prop30
280
     1
102
RTVSPost2010PropOp30
 70
     1
102
RTVSPost2010Prop31
280
     0
102
RTVSPost2010PropOp31
 70
     1
102
RTVSPost2010Prop32
280
     0
102
RTVSPost2010PropOp32
 70
     1
102
RTVSPost2010Prop33
280
     0
102
RTVSPost2010PropOp33
 70
     1
102
RTVSPost2010Prop34
280
     0
102
RTVSPost2010PropOp34
 70
     1
102
RTVSPost2010Prop35
280
     0
102
RTVSPost2010PropOp35
 70
     1
102
RTVSPost2010Prop36
280
     0
102
RTVSPost2010PropOp36
 70
     1
102
RTVSPost2010Prop37
 90
       50
102
RTVSPost2010PropOp37
 70
     1
102
RTVSPost2010Prop38
140
0.0
102
RTVSPost2010PropOp38
 70
     1
102
RTVSPost2010Prop39
140
1.0
102
RTVSPost2010PropOp39
 70
     1
102
RTVSPost2010Prop40
 90
        0
102
RTVSPost2010PropOp40
 70
     1
102
RTVSPost2010Prop41ColorIndex
 90
       18
102
RTVSPost2010Prop41ColorRGB
 90
        0
102
RTVSPost2010PropOp41
 70
     1
102
RTVSPost2010Prop42
 90
       50
102
RTVSPost2010PropOp42
 70
     1
102
RTVSPost2010Prop43
 90
        3
102
RTVSPost2010PropOp43
 70
     1
102
RTVSPost2010Prop44ColorIndex
 90
        5
102
RTVSPost2010Prop44ColorRGB
 90
      255
102
RTVSPost2010PropOp44
 70
     1
102
RTVSPost2010Prop45
280
     0
102
RTVSPost2010PropOp45
 70
     1
102
RTVSPost2010Prop46
 90
       50
102
RTVSPost2010PropOp46
 70
     1
102
RTVSPost2010Prop47
 90
       50
102
RTVSPost2010PropOp47
 70
     1
102
RTVSPost2010Prop48
 90
       50
102
RTVSPost2010PropOp48
 70
     1
102
RTVSPost2010Prop49
280
     0
102
RTVSPost2010PropOp49
 70
     1
102
RTVSPost2010Prop50
 90
       50
102
RTVSPost2010PropOp50
 70
     1
102
RTVSPost2010Prop51ColorIndex
 90
      256
102
RTVSPost2010Prop51ColorRGB
 90
-16777216
102
RTVSPost2010PropOp51
 70
     0
102
RTVSPost2010Prop52
140
1.0
102
RTVSPost2010PropOp52
 70
     0
102
RTVSPost2010Prop53
 90
        2
102
RTVSPost2010PropOp53
 70
     1
102
RTVSPost2010Prop54
  1
strokes_ogs.tif
102
RTVSPost2010PropOp54
 70
     1
102
RTVSPost2010Prop55
280
     0
102
RTVSPost2010PropOp55
 70
     1
102
RTVSPost2010Prop56
140
1.0
102
RTVSPost2010PropOp56
 70
     1
102
RTVSPost2010Prop57
140
1.0
102
RTVSPost2010PropOp57
 70
     1
  0
XRECORD
  5
ED
102
{ACAD_REACTORS
330
EC
102
}
330
EC
100
AcDbXrecord
280
     1
102
RTVSPropertyOp0
 70
     1
102
RTVSPropertyOp1
 70
     1
102
RTVSPropertyOp2
 70
     1
102
RTVSPropertyOp3
 70
     1
102
RTVSPropertyOp4
 70
     1
102
RTVSPropertyOp5
 70
     1
102
RTVSPropertyOp6
 70
     1
102
RTVSPropertyOp7
 70
     1
102
RTVSPropertyOp8
 70
     1
102
RTVSPropertyOp9
 70
     1
102
RTVSPropertyOp10
 70
     1
102
RTVSPropertyOp11
 70
     1
102
RTVSPropertyOp12
 70
     1
102
RTVSPropertyOp13
 70
     1
102
RTVSPropertyOp14
 70
     1
102
RTVSPropertyOp15
 70
     1
102
RTVSPropertyOp16
 70
     1
102
RTVSPropertyOp17
 70
     1
102
RTVSPropertyOp18
 70
     1
102
RTVSPropertyOp19
 70
     1
102
RTVSPropertyOp20
 70
     1
102
RTVSPropertyOp21
 70
     1
102
RTVSPropertyOp22
 70
     1
102
RTVSPropertyOp23
 70
     1
102
RTVSPropertyOp24
 70
     1
102
RTVSPropertyOp25
 70
     1
102
RTVSPropertyOp26
 70
     1
102
RTVSPropertyOp27
 70
     1
102
RTVSPropertyOp28
 70
     1
102
RTVSPropertyOp29
 70
     1
102
RTVSPropertyOp30
 70
     1
102
RTVSPropertyOp31
 70
     1
102
RTVSPropertyOp32
 70
     1
102
RTVSPropertyOp33
 70
     1
102
RTVSPropertyOp34
 70
     1
102
RTVSPropertyOp35
 70
     1
102
RTVSPropertyOp36
 70
     1
102
RTVSPropertyOp37
 70
     1
102
RTVSPropertyOp38
 70
     1
102
RTVSPropertyOp39
 70
     1
102
RTVSPropertyOp40
 70
     1
102
RTVSPropertyOp41
 70
     1
102
RTVSPropertyOp42
 70
     1
102
RTVSPropertyOp43
 70
     1
102
RTVSPropertyOp44
 70
     1
102
RTVSPropertyOp45
 70
     1
102
RTVSPropertyOp46
 70
     1
102
RTVSPropertyOp47
 70
     1
102
RTVSPropertyOp48
 70
     1
102
RTVSPropertyOp49
 70
     1
102
RTVSPropertyOp50
 70
     1
102
RTVSPropertyOp51
 70
     0
102
RTVSPropertyOp52
 70
     0
102
RTVSPropertyOp53
 70
     1
102
RTVSPropertyOp54
 70
     1
102
RTVSPropertyOp55
 70
     1
102
RTVSPropertyOp56
 70
     1
102
RTVSPropertyOp57
 70
     1
102
RTVSPost2010Prop28
280
     0
102
RTVSPost2010PropOp28
 70
     1
102
RTVSPost2010Prop29
280
     1
102
RTVSPost2010PropOp29
 70
     1
102
RTVSPost2010Prop30
280
     1
102
RTVSPost2010PropOp30
 70
     1
102
RTVSPost2010Prop31
280
     0
102
RTVSPost2010PropOp31
 70
     1
102
RTVSPost2010Prop32
280
     0
102
RTVSPost2010PropOp32
 70
     1
102
RTVSPost2010Prop33
280
     0
102
RTVSPost2010PropOp33
 70
     1
102
RTVSPost2010Prop34
280
     0
102
RTVSPost2010PropOp34
 70
     1
102
RTVSPost2010Prop35
280
     0
102
RTVSPost2010PropOp35
 70
     1
102
RTVSPost2010Prop36
280
     0
102
RTVSPost2010PropOp36
 70
     1
102
RTVSPost2010Prop37
 90
       50
102
RTVSPost2010PropOp37
 70
     1
102
RTVSPost2010Prop38
140
0.0
102
RTVSPost2010PropOp38
 70
     1
102
RTVSPost2010Prop39
140
1.0
102
RTVSPost2010PropOp39
 70
     1
102
RTVSPost2010Prop40
 90
        0
102
RTVSPost2010PropOp40
 70
     1
102
RTVSPost2010Prop41ColorIndex
 90
       18
102
RTVSPost2010Prop41ColorRGB
 90
        0
102
RTVSPost2010PropOp41
 70
     1
102
RTVSPost2010Prop42
 90
       50
102
RTVSPost2010PropOp42
 70
     1
102
RTVSPost2010Prop43
 90
        3
102
RTVSPost2010PropOp43
 70
     1
102
RTVSPost2010Prop44ColorIndex
 90
        5
102
RTVSPost2010Prop44ColorRGB
 90
      255
102
RTVSPost2010PropOp44
 70
     1
102
RTVSPost2010Prop45
280
     0
102
RTVSPost2010PropOp45
 70
     1
102
RTVSPost2010Prop46
 90
       50
102
RTVSPost2010PropOp46
 70
     1
102
RTVSPost2010Prop47
 90
       50
102
RTVSPost2010PropOp47
 70
     1
102
RTVSPost2010Prop48
 90
       50
102
RTVSPost2010PropOp48
 70
     1
102
RTVSPost2010Prop49
280
     0
102
RTVSPost2010PropOp49
 70
     1
102
RTVSPost2010Prop50
 90
       50
102
RTVSPost2010PropOp50
 70
     1
102
RTVSPost2010Prop51ColorIndex
 90
      256
102
RTVSPost2010Prop51ColorRGB
 90
-16777216
102
RTVSPost2010PropOp51
 70
     0
102
RTVSPost2010Prop52
140
1.0
102
RTVSPost2010PropOp52
 70
     0
102
RTVSPost2010Prop53
 90
        2
102
RTVSPost2010PropOp53
 70
     1
102
RTVSPost2010Prop54
  1
strokes_ogs.tif
102
RTVSPost2010PropOp54
 70
     1
102
RTVSPost2010Prop55
280
     0
102
RTVSPost2010PropOp55
 70
     1
102
RTVSPost2010Prop56
140
1.0
102
RTVSPost2010PropOp56
 70
     1
102
RTVSPost2010Prop57
140
1.0
102
RTVSPost2010PropOp57
 70
     1
  0
XRECORD
  5
F5
102
{ACAD_REACTORS
330
F4
102
}
330
F4
100
AcDbXrecord
280
     1
102
RTVSPropertyOp0
 70
     1
102
RTVSPropertyOp1
 70
     1
102
RTVSPropertyOp2
 70
     1
102
RTVSPropertyOp3
 70
     1
102
RTVSPropertyOp4
 70
     1
102
RTVSPropertyOp5
 70
     1
102
RTVSPropertyOp6
 70
     1
102
RTVSPropertyOp7
 70
     1
102
RTVSPropertyOp8
 70
     1
102
RTVSPropertyOp9
 70
     1
102
RTVSPropertyOp10
 70
     1
102
RTVSPropertyOp11
 70
     1
102
RTVSPropertyOp12
 70
     1
102
RTVSPropertyOp13
 70
     1
102
RTVSPropertyOp14
 70
     1
102
RTVSPropertyOp15
 70
     1
102
RTVSPropertyOp16
 70
     1
102
RTVSPropertyOp17
 70
     1
102
RTVSPropertyOp18
 70
     1
102
RTVSPropertyOp19
 70
     1
102
RTVSPropertyOp20
 70
     1
102
RTVSPropertyOp21
 70
     1
102
RTVSPropertyOp22
 70
     1
102
RTVSPropertyOp23
 70
     1
102
RTVSPropertyOp24
 70
     1
102
RTVSPropertyOp25
 70
     1
102
RTVSPropertyOp26
 70
     1
102
RTVSPropertyOp27
 70
     1
102
RTVSPropertyOp28
 70
     1
102
RTVSPropertyOp29
 70
     1
102
RTVSPropertyOp30
 70
     1
102
RTVSPropertyOp31
 70
     1
102
RTVSPropertyOp32
 70
     1
102
RTVSPropertyOp33
 70
     1
102
RTVSPropertyOp34
 70
     1
102
RTVSPropertyOp35
 70
     1
102
RTVSPropertyOp36
 70
     1
102
RTVSPropertyOp37
 70
     1
102
RTVSPropertyOp38
 70
     1
102
RTVSPropertyOp39
 70
     1
102
RTVSPropertyOp40
 70
     1
102
RTVSPropertyOp41
 70
     1
102
RTVSPropertyOp42
 70
     1
102
RTVSPropertyOp43
 70
     1
102
RTVSPropertyOp44
 70
     1
102
RTVSPropertyOp45
 70
     1
102
RTVSPropertyOp46
 70
     1
102
RTVSPropertyOp47
 70
     1
102
RTVSPropertyOp48
 70
     1
102
RTVSPropertyOp49
 70
     1
102
RTVSPropertyOp50
 70
     1
102
RTVSPropertyOp51
 70
     0
102
RTVSPropertyOp52
 70
     0
102
RTVSPropertyOp53
 70
     1
102
RTVSPropertyOp54
 70
     1
102
RTVSPropertyOp55
 70
     1
102
RTVSPropertyOp56
 70
     1
102
RTVSPropertyOp57
 70
     1
102
RTVSPost2010Prop28
280
     0
102
RTVSPost2010PropOp28
 70
     1
102
RTVSPost2010Prop29
280
     1
102
RTVSPost2010PropOp29
 70
     1
102
RTVSPost2010Prop30
280
     1
102
RTVSPost2010PropOp30
 70
     1
102
RTVSPost2010Prop31
280
     0
102
RTVSPost2010PropOp31
 70
     1
102
RTVSPost2010Prop32
280
     0
102
RTVSPost2010PropOp32
 70
     1
102
RTVSPost2010Prop33
280
     0
102
RTVSPost2010PropOp33
 70
     1
102
RTVSPost2010Prop34
280
     0
102
RTVSPost2010PropOp34
 70
     1
102
RTVSPost2010Prop35
280
     0
102
RTVSPost2010PropOp35
 70
     1
102
RTVSPost2010Prop36
280
     0
102
RTVSPost2010PropOp36
 70
     1
102
RTVSPost2010Prop37
 90
       50
102
RTVSPost2010PropOp37
 70
     1
102
RTVSPost2010Prop38
140
0.0
102
RTVSPost2010PropOp38
 70
     1
102
RTVSPost2010Prop39
140
1.0
102
RTVSPost2010PropOp39
 70
     1
102
RTVSPost2010Prop40
 90
        0
102
RTVSPost2010PropOp40
 70
     1
102
RTVSPost2010Prop41ColorIndex
 90
       18
102
RTVSPost2010Prop41ColorRGB
 90
        0
102
RTVSPost2010PropOp41
 70
     1
102
RTVSPost2010Prop42
 90
       50
102
RTVSPost2010PropOp42
 70
     1
102
RTVSPost2010Prop43
 90
        3
102
RTVSPost2010PropOp43
 70
     1
102
RTVSPost2010Prop44ColorIndex
 90
        5
102
RTVSPost2010Prop44ColorRGB
 90
      255
102
RTVSPost2010PropOp44
 70
     1
102
RTVSPost2010Prop45
280
     0
102
RTVSPost2010PropOp45
 70
     1
102
RTVSPost2010Prop46
 90
       50
102
RTVSPost2010PropOp46
 70
     1
102
RTVSPost2010Prop47
 90
       50
102
RTVSPost2010PropOp47
 70
     1
102
RTVSPost2010Prop48
 90
       50
102
RTVSPost2010PropOp48
 70
     1
102
RTVSPost2010Prop49
280
     0
102
RTVSPost2010PropOp49
 70
     1
102
RTVSPost2010Prop50
 90
       50
102
RTVSPost2010PropOp50
 70
     1
102
RTVSPost2010Prop51ColorIndex
 90
      256
102
RTVSPost2010Prop51ColorRGB
 90
-16777216
102
RTVSPost2010PropOp51
 70
     0
102
RTVSPost2010Prop52
140
1.0
102
RTVSPost2010PropOp52
 70
     0
102
RTVSPost2010Prop53
 90
        2
102
RTVSPost2010PropOp53
 70
     1
102
RTVSPost2010Prop54
  1
strokes_ogs.tif
102
RTVSPost2010PropOp54
 70
     1
102
RTVSPost2010Prop55
280
     0
102
RTVSPost2010PropOp55
 70
     1
102
RTVSPost2010Prop56
140
1.0
102
RTVSPost2010PropOp56
 70
     1
102
RTVSPost2010Prop57
140
1.0
102
RTVSPost2010PropOp57
 70
     1
  0
XRECORD
  5
E9
102
{ACAD_REACTORS
330
E8
102
}
330
E8
100
AcDbXrecord
280
     1
102
RTVSPropertyOp0
 70
     1
102
RTVSPropertyOp1
 70
     1
102
RTVSPropertyOp2
 70
     1
102
RTVSPropertyOp3
 70
     1
102
RTVSPropertyOp4
 70
     1
102
RTVSPropertyOp5
 70
     1
102
RTVSPropertyOp6
 70
     1
102
RTVSPropertyOp7
 70
     1
102
RTVSPropertyOp8
 70
     1
102
RTVSPropertyOp9
 70
     1
102
RTVSPropertyOp10
 70
     1
102
RTVSPropertyOp11
 70
     1
102
RTVSPropertyOp12
 70
     1
102
RTVSPropertyOp13
 70
     1
102
RTVSPropertyOp14
 70
     1
102
RTVSPropertyOp15
 70
     1
102
RTVSPropertyOp16
 70
     1
102
RTVSPropertyOp17
 70
     1
102
RTVSPropertyOp18
 70
     1
102
RTVSPropertyOp19
 70
     1
102
RTVSPropertyOp20
 70
     1
102
RTVSPropertyOp21
 70
     1
102
RTVSPropertyOp22
 70
     1
102
RTVSPropertyOp23
 70
     1
102
RTVSPropertyOp24
 70
     1
102
RTVSPropertyOp25
 70
     1
102
RTVSPropertyOp26
 70
     1
102
RTVSPropertyOp27
 70
     1
102
RTVSPropertyOp28
 70
     1
102
RTVSPropertyOp29
 70
     1
102
RTVSPropertyOp30
 70
     1
102
RTVSPropertyOp31
 70
     1
102
RTVSPropertyOp32
 70
     1
102
RTVSPropertyOp33
 70
     1
102
RTVSPropertyOp34
 70
     1
102
RTVSPropertyOp35
 70
     1
102
RTVSPropertyOp36
 70
     1
102
RTVSPropertyOp37
 70
     1
102
RTVSPropertyOp38
 70
     1
102
RTVSPropertyOp39
 70
     1
102
RTVSPropertyOp40
 70
     1
102
RTVSPropertyOp41
 70
     1
102
RTVSPropertyOp42
 70
     1
102
RTVSPropertyOp43
 70
     1
102
RTVSPropertyOp44
 70
     1
102
RTVSPropertyOp45
 70
     1
102
RTVSPropertyOp46
 70
     1
102
RTVSPropertyOp47
 70
     1
102
RTVSPropertyOp48
 70
     1
102
RTVSPropertyOp49
 70
     1
102
RTVSPropertyOp50
 70
     1
102
RTVSPropertyOp51
 70
     0
102
RTVSPropertyOp52
 70
     0
102
RTVSPropertyOp53
 70
     1
102
RTVSPropertyOp54
 70
     1
102
RTVSPropertyOp55
 70
     1
102
RTVSPropertyOp56
 70
     1
102
RTVSPropertyOp57
 70
     1
102
RTVSPost2010Prop28
280
     0
102
RTVSPost2010PropOp28
 70
     1
102
RTVSPost2010Prop29
280
     1
102
RTVSPost2010PropOp29
 70
     1
102
RTVSPost2010Prop30
280
     1
102
RTVSPost2010PropOp30
 70
     1
102
RTVSPost2010Prop31
280
     0
102
RTVSPost2010PropOp31
 70
     1
102
RTVSPost2010Prop32
280
     0
102
RTVSPost2010PropOp32
 70
     1
102
RTVSPost2010Prop33
280
     0
102
RTVSPost2010PropOp33
 70
     1
102
RTVSPost2010Prop34
280
     0
102
RTVSPost2010PropOp34
 70
     1
102
RTVSPost2010Prop35
280
     0
102
RTVSPost2010PropOp35
 70
     1
102
RTVSPost2010Prop36
280
     0
102
RTVSPost2010PropOp36
 70
     1
102
RTVSPost2010Prop37
 90
       50
102
RTVSPost2010PropOp37
 70
     1
102
RTVSPost2010Prop38
140
0.0
102
RTVSPost2010PropOp38
 70
     1
102
RTVSPost2010Prop39
140
1.0
102
RTVSPost2010PropOp39
 70
     1
102
RTVSPost2010Prop40
 90
        0
102
RTVSPost2010PropOp40
 70
     1
102
RTVSPost2010Prop41ColorIndex
 90
       18
102
RTVSPost2010Prop41ColorRGB
 90
        0
102
RTVSPost2010PropOp41
 70
     1
102
RTVSPost2010Prop42
 90
       50
102
RTVSPost2010PropOp42
 70
     1
102
RTVSPost2010Prop43
 90
        3
102
RTVSPost2010PropOp43
 70
     1
102
RTVSPost2010Prop44ColorIndex
 90
        5
102
RTVSPost2010Prop44ColorRGB
 90
      255
102
RTVSPost2010PropOp44
 70
     1
102
RTVSPost2010Prop45
280
     0
102
RTVSPost2010PropOp45
 70
     1
102
RTVSPost2010Prop46
 90
       50
102
RTVSPost2010PropOp46
 70
     1
102
RTVSPost2010Prop47
 90
       50
102
RTVSPost2010PropOp47
 70
     1
102
RTVSPost2010Prop48
 90
       50
102
RTVSPost2010PropOp48
 70
     1
102
RTVSPost2010Prop49
280
     0
102
RTVSPost2010PropOp49
 70
     1
102
RTVSPost2010Prop50
 90
       50
102
RTVSPost2010PropOp50
 70
     1
102
RTVSPost2010Prop51ColorIndex
 90
      256
102
RTVSPost2010Prop51ColorRGB
 90
-16777216
102
RTVSPost2010PropOp51
 70
     0
102
RTVSPost2010Prop52
140
1.0
102
RTVSPost2010PropOp52
 70
     0
102
RTVSPost2010Prop53
 90
        2
102
RTVSPost2010PropOp53
 70
     1
102
RTVSPost2010Prop54
  1
strokes_ogs.tif
102
RTVSPost2010PropOp54
 70
     1
102
RTVSPost2010Prop55
280
     0
102
RTVSPost2010PropOp55
 70
     1
102
RTVSPost2010Prop56
140
1.0
102
RTVSPost2010PropOp56
 70
     1
102
RTVSPost2010Prop57
140
1.0
102
RTVSPost2010PropOp57
 70
     1
  0
XRECORD
  5
EB
102
{ACAD_REACTORS
330
EA
102
}
330
EA
100
AcDbXrecord
280
     1
102
RTVSPropertyOp0
 70
     1
102
RTVSPropertyOp1
 70
     1
102
RTVSPropertyOp2
 70
     1
102
RTVSPropertyOp3
 70
     1
102
RTVSPropertyOp4
 70
     1
102
RTVSPropertyOp5
 70
     1
102
RTVSPropertyOp6
 70
     1
102
RTVSPropertyOp7
 70
     1
102
RTVSPropertyOp8
 70
     1
102
RTVSPropertyOp9
 70
     1
102
RTVSPropertyOp10
 70
     1
102
RTVSPropertyOp11
 70
     1
102
RTVSPropertyOp12
 70
     1
102
RTVSPropertyOp13
 70
     1
102
RTVSPropertyOp14
 70
     1
102
RTVSPropertyOp15
 70
     1
102
RTVSPropertyOp16
 70
     1
102
RTVSPropertyOp17
 70
     1
102
RTVSPropertyOp18
 70
     1
102
RTVSPropertyOp19
 70
     1
102
RTVSPropertyOp20
 70
     1
102
RTVSPropertyOp21
 70
     1
102
RTVSPropertyOp22
 70
     1
102
RTVSPropertyOp23
 70
     1
102
RTVSPropertyOp24
 70
     1
102
RTVSPropertyOp25
 70
     1
102
RTVSPropertyOp26
 70
     1
102
RTVSPropertyOp27
 70
     1
102
RTVSPropertyOp28
 70
     1
102
RTVSPropertyOp29
 70
     1
102
RTVSPropertyOp30
 70
     1
102
RTVSPropertyOp31
 70
     1
102
RTVSPropertyOp32
 70
     1
102
RTVSPropertyOp33
 70
     1
102
RTVSPropertyOp34
 70
     1
102
RTVSPropertyOp35
 70
     1
102
RTVSPropertyOp36
 70
     1
102
RTVSPropertyOp37
 70
     1
102
RTVSPropertyOp38
 70
     1
102
RTVSPropertyOp39
 70
     1
102
RTVSPropertyOp40
 70
     1
102
RTVSPropertyOp41
 70
     1
102
RTVSPropertyOp42
 70
     1
102
RTVSPropertyOp43
 70
     1
102
RTVSPropertyOp44
 70
     1
102
RTVSPropertyOp45
 70
     1
102
RTVSPropertyOp46
 70
     1
102
RTVSPropertyOp47
 70
     1
102
RTVSPropertyOp48
 70
     1
102
RTVSPropertyOp49
 70
     1
102
RTVSPropertyOp50
 70
     1
102
RTVSPropertyOp51
 70
     0
102
RTVSPropertyOp52
 70
     0
102
RTVSPropertyOp53
 70
     1
102
RTVSPropertyOp54
 70
     1
102
RTVSPropertyOp55
 70
     1
102
RTVSPropertyOp56
 70
     1
102
RTVSPropertyOp57
 70
     1
102
RTVSPost2010Prop28
280
     0
102
RTVSPost2010PropOp28
 70
     1
102
RTVSPost2010Prop29
280
     1
102
RTVSPost2010PropOp29
 70
     1
102
RTVSPost2010Prop30
280
     1
102
RTVSPost2010PropOp30
 70
     1
102
RTVSPost2010Prop31
280
     0
102
RTVSPost2010PropOp31
 70
     1
102
RTVSPost2010Prop32
280
     0
102
RTVSPost2010PropOp32
 70
     1
102
RTVSPost2010Prop33
280
     0
102
RTVSPost2010PropOp33
 70
     1
102
RTVSPost2010Prop34
280
     0
102
RTVSPost2010PropOp34
 70
     1
102
RTVSPost2010Prop35
280
     0
102
RTVSPost2010PropOp35
 70
     1
102
RTVSPost2010Prop36
280
     0
102
RTVSPost2010PropOp36
 70
     1
102
RTVSPost2010Prop37
 90
       50
102
RTVSPost2010PropOp37
 70
     1
102
RTVSPost2010Prop38
140
0.0
102
RTVSPost2010PropOp38
 70
     1
102
RTVSPost2010Prop39
140
1.0
102
RTVSPost2010PropOp39
 70
     1
102
RTVSPost2010Prop40
 90
        0
102
RTVSPost2010PropOp40
 70
     1
102
RTVSPost2010Prop41ColorIndex
 90
       18
102
RTVSPost2010Prop41ColorRGB
 90
        0
102
RTVSPost2010PropOp41
 70
     1
102
RTVSPost2010Prop42
 90
       50
102
RTVSPost2010PropOp42
 70
     1
102
RTVSPost2010Prop43
 90
        3
102
RTVSPost2010PropOp43
 70
     1
102
RTVSPost2010Prop44ColorIndex
 90
        5
102
RTVSPost2010Prop44ColorRGB
 90
      255
102
RTVSPost2010PropOp44
 70
     1
102
RTVSPost2010Prop45
280
     0
102
RTVSPost2010PropOp45
 70
     1
102
RTVSPost2010Prop46
 90
       50
102
RTVSPost2010PropOp46
 70
     1
102
RTVSPost2010Prop47
 90
       50
102
RTVSPost2010PropOp47
 70
     1
102
RTVSPost2010Prop48
 90
       50
102
RTVSPost2010PropOp48
 70
     1
102
RTVSPost2010Prop49
280
     0
102
RTVSPost2010PropOp49
 70
     1
102
RTVSPost2010Prop50
 90
       50
102
RTVSPost2010PropOp50
 70
     1
102
RTVSPost2010Prop51ColorIndex
 90
      256
102
RTVSPost2010Prop51ColorRGB
 90
-16777216
102
RTVSPost2010PropOp51
 70
     0
102
RTVSPost2010Prop52
140
1.0
102
RTVSPost2010PropOp52
 70
     0
102
RTVSPost2010Prop53
 90
        2
102
RTVSPost2010PropOp53
 70
     1
102
RTVSPost2010Prop54
  1
strokes_ogs.tif
102
RTVSPost2010PropOp54
 70
     1
102
RTVSPost2010Prop55
280
     0
102
RTVSPost2010PropOp55
 70
     1
102
RTVSPost2010Prop56
140
1.0
102
RTVSPost2010PropOp56
 70
     1
102
RTVSPost2010Prop57
140
1.0
102
RTVSPost2010PropOp57
 70
     1
  0
XRECORD
  5
FB
102
{ACAD_REACTORS
330
FA
102
}
330
FA
100
AcDbXrecord
280
     1
102
RTVSPropertyOp0
 70
     0
102
RTVSPropertyOp1
 70
     0
102
RTVSPropertyOp2
 70
     0
102
RTVSPropertyOp3
 70
     0
102
RTVSPropertyOp4
 70
     0
102
RTVSPropertyOp5
 70
     0
102
RTVSPropertyOp6
 70
     0
102
RTVSPropertyOp7
 70
     0
102
RTVSPropertyOp8
 70
     0
102
RTVSPropertyOp9
 70
     0
102
RTVSPropertyOp10
 70
     0
102
RTVSPropertyOp11
 70
     0
102
RTVSPropertyOp12
 70
     0
102
RTVSPropertyOp13
 70
     0
102
RTVSPropertyOp14
 70
     2
102
RTVSPropertyOp15
 70
     0
102
RTVSPropertyOp16
 70
     0
102
RTVSPropertyOp17
 70
     0
102
RTVSPropertyOp18
 70
     0
102
RTVSPropertyOp19
 70
     0
102
RTVSPropertyOp20
 70
     0
102
RTVSPropertyOp21
 70
     0
102
RTVSPropertyOp22
 70
     0
102
RTVSPropertyOp23
 70
     0
102
RTVSPropertyOp24
 70
     0
102
RTVSPropertyOp25
 70
     0
102
RTVSPropertyOp26
 70
     0
102
RTVSPropertyOp27
 70
     0
102
RTVSPropertyOp28
 70
     0
102
RTVSPropertyOp29
 70
     0
102
RTVSPropertyOp30
 70
     0
102
RTVSPropertyOp31
 70
     0
102
RTVSPropertyOp32
 70
     0
102
RTVSPropertyOp33
 70
     0
102
RTVSPropertyOp34
 70
     0
102
RTVSPropertyOp35
 70
     0
102
RTVSPropertyOp36
 70
     0
102
RTVSPropertyOp37
 70
     0
102
RTVSPropertyOp38
 70
     0
102
RTVSPropertyOp39
 70
     0
102
RTVSPropertyOp40
 70
     0
102
RTVSPropertyOp41
 70
     0
102
RTVSPropertyOp42
 70
     0
102
RTVSPropertyOp43
 70
     0
102
RTVSPropertyOp44
 70
     0
102
RTVSPropertyOp45
 70
     0
102
RTVSPropertyOp46
 70
     0
102
RTVSPropertyOp47
 70
     0
102
RTVSPropertyOp48
 70
     0
102
RTVSPropertyOp49
 70
     0
102
RTVSPropertyOp50
 70
     0
102
RTVSPropertyOp51
 70
     0
102
RTVSPropertyOp52
 70
     0
102
RTVSPropertyOp53
 70
     0
102
RTVSPropertyOp54
 70
     0
102
RTVSPropertyOp55
 70
     0
102
RTVSPropertyOp56
 70
     0
102
RTVSPropertyOp57
 70
     0
102
RTVSPost2010Prop28
280
     0
102
RTVSPost2010PropOp28
 70
     0
102
RTVSPost2010Prop29
280
     1
102
RTVSPost2010PropOp29
 70
     0
102
RTVSPost2010Prop30
280
     1
102
RTVSPost2010PropOp30
 70
     0
102
RTVSPost2010Prop31
280
     0
102
RTVSPost2010PropOp31
 70
     0
102
RTVSPost2010Prop32
280
     0
102
RTVSPost2010PropOp32
 70
     0
102
RTVSPost2010Prop33
280
     0
102
RTVSPost2010PropOp33
 70
     0
102
RTVSPost2010Prop34
280
     0
102
RTVSPost2010PropOp34
 70
     0
102
RTVSPost2010Prop35
280
     0
102
RTVSPost2010PropOp35
 70
     0
102
RTVSPost2010Prop36
280
     0
102
RTVSPost2010PropOp36
 70
     0
102
RTVSPost2010Prop37
 90
       50
102
RTVSPost2010PropOp37
 70
     0
102
RTVSPost2010Prop38
140
0.0
102
RTVSPost2010PropOp38
 70
     0
102
RTVSPost2010Prop39
140
1.0
102
RTVSPost2010PropOp39
 70
     0
102
RTVSPost2010Prop40
 90
        0
102
RTVSPost2010PropOp40
 70
     0
102
RTVSPost2010Prop41ColorIndex
 90
       18
102
RTVSPost2010Prop41ColorRGB
 90
        0
102
RTVSPost2010PropOp41
 70
     0
102
RTVSPost2010Prop42
 90
       50
102
RTVSPost2010PropOp42
 70
     0
102
RTVSPost2010Prop43
 90
        3
102
RTVSPost2010PropOp43
 70
     0
102
RTVSPost2010Prop44ColorIndex
 90
        5
102
RTVSPost2010Prop44ColorRGB
 90
      255
102
RTVSPost2010PropOp44
 70
     0
102
RTVSPost2010Prop45
280
     0
102
RTVSPost2010PropOp45
 70
     0
102
RTVSPost2010Prop46
 90
       50
102
RTVSPost2010PropOp46
 70
     0
102
RTVSPost2010Prop47
 90
       50
102
RTVSPost2010PropOp47
 70
     0
102
RTVSPost2010Prop48
 90
       50
102
RTVSPost2010PropOp48
 70
     0
102
RTVSPost2010Prop49
280
     0
102
RTVSPost2010PropOp49
 70
     0
102
RTVSPost2010Prop50
 90
       50
102
RTVSPost2010PropOp50
 70
     0
102
RTVSPost2010Prop51ColorIndex
 90
      256
102
RTVSPost2010Prop51ColorRGB
 90
-16777216
102
RTVSPost2010PropOp51
 70
     0
102
RTVSPost2010Prop52
140
1.0
102
RTVSPost2010PropOp52
 70
     0
102
RTVSPost2010Prop53
 90
        2
102
RTVSPost2010PropOp53
 70
     0
102
RTVSPost2010Prop54
  1
strokes_ogs.tif
102
RTVSPost2010PropOp54
 70
     0
102
RTVSPost2010Prop55
280
     0
102
RTVSPost2010PropOp55
 70
     0
102
RTVSPost2010Prop56
140
1.0
102
RTVSPost2010PropOp56
 70
     0
102
RTVSPost2010Prop57
140
1.0
102
RTVSPost2010PropOp57
 70
     0
  0
XRECORD
  5
F3
102
{ACAD_REACTORS
330
F2
102
}
330
F2
100
AcDbXrecord
280
     1
102
RTVSPropertyOp0
 70
     1
102
RTVSPropertyOp1
 70
     1
102
RTVSPropertyOp2
 70
     1
102
RTVSPropertyOp3
 70
     1
102
RTVSPropertyOp4
 70
     1
102
RTVSPropertyOp5
 70
     1
102
RTVSPropertyOp6
 70
     1
102
RTVSPropertyOp7
 70
     1
102
RTVSPropertyOp8
 70
     1
102
RTVSPropertyOp9
 70
     1
102
RTVSPropertyOp10
 70
     1
102
RTVSPropertyOp11
 70
     1
102
RTVSPropertyOp12
 70
     1
102
RTVSPropertyOp13
 70
     1
102
RTVSPropertyOp14
 70
     1
102
RTVSPropertyOp15
 70
     1
102
RTVSPropertyOp16
 70
     1
102
RTVSPropertyOp17
 70
     1
102
RTVSPropertyOp18
 70
     1
102
RTVSPropertyOp19
 70
     1
102
RTVSPropertyOp20
 70
     1
102
RTVSPropertyOp21
 70
     1
102
RTVSPropertyOp22
 70
     1
102
RTVSPropertyOp23
 70
     1
102
RTVSPropertyOp24
 70
     1
102
RTVSPropertyOp25
 70
     1
102
RTVSPropertyOp26
 70
     1
102
RTVSPropertyOp27
 70
     1
102
RTVSPropertyOp28
 70
     1
102
RTVSPropertyOp29
 70
     1
102
RTVSPropertyOp30
 70
     1
102
RTVSPropertyOp31
 70
     1
102
RTVSPropertyOp32
 70
     1
102
RTVSPropertyOp33
 70
     1
102
RTVSPropertyOp34
 70
     1
102
RTVSPropertyOp35
 70
     1
102
RTVSPropertyOp36
 70
     1
102
RTVSPropertyOp37
 70
     1
102
RTVSPropertyOp38
 70
     1
102
RTVSPropertyOp39
 70
     1
102
RTVSPropertyOp40
 70
     1
102
RTVSPropertyOp41
 70
     1
102
RTVSPropertyOp42
 70
     1
102
RTVSPropertyOp43
 70
     1
102
RTVSPropertyOp44
 70
     1
102
RTVSPropertyOp45
 70
     1
102
RTVSPropertyOp46
 70
     1
102
RTVSPropertyOp47
 70
     1
102
RTVSPropertyOp48
 70
     1
102
RTVSPropertyOp49
 70
     1
102
RTVSPropertyOp50
 70
     1
102
RTVSPropertyOp51
 70
     0
102
RTVSPropertyOp52
 70
     0
102
RTVSPropertyOp53
 70
     1
102
RTVSPropertyOp54
 70
     1
102
RTVSPropertyOp55
 70
     1
102
RTVSPropertyOp56
 70
     1
102
RTVSPropertyOp57
 70
     1
102
RTVSPost2010Prop28
280
     0
102
RTVSPost2010PropOp28
 70
     1
102
RTVSPost2010Prop29
280
     1
102
RTVSPost2010PropOp29
 70
     1
102
RTVSPost2010Prop30
280
     1
102
RTVSPost2010PropOp30
 70
     1
102
RTVSPost2010Prop31
280
     0
102
RTVSPost2010PropOp31
 70
     1
102
RTVSPost2010Prop32
280
     0
102
RTVSPost2010PropOp32
 70
     1
102
RTVSPost2010Prop33
280
     0
102
RTVSPost2010PropOp33
 70
     1
102
RTVSPost2010Prop34
280
     0
102
RTVSPost2010PropOp34
 70
     1
102
RTVSPost2010Prop35
280
     0
102
RTVSPost2010PropOp35
 70
     1
102
RTVSPost2010Prop36
280
     0
102
RTVSPost2010PropOp36
 70
     1
102
RTVSPost2010Prop37
 90
       50
102
RTVSPost2010PropOp37
 70
     1
102
RTVSPost2010Prop38
140
0.0
102
RTVSPost2010PropOp38
 70
     1
102
RTVSPost2010Prop39
140
1.0
102
RTVSPost2010PropOp39
 70
     1
102
RTVSPost2010Prop40
 90
        0
102
RTVSPost2010PropOp40
 70
     1
102
RTVSPost2010Prop41ColorIndex
 90
       18
102
RTVSPost2010Prop41ColorRGB
 90
        0
102
RTVSPost2010PropOp41
 70
     1
102
RTVSPost2010Prop42
 90
       50
102
RTVSPost2010PropOp42
 70
     1
102
RTVSPost2010Prop43
 90
        3
102
RTVSPost2010PropOp43
 70
     1
102
RTVSPost2010Prop44ColorIndex
 90
        5
102
RTVSPost2010Prop44ColorRGB
 90
      255
102
RTVSPost2010PropOp44
 70
     1
102
RTVSPost2010Prop45
280
     0
102
RTVSPost2010PropOp45
 70
     1
102
RTVSPost2010Prop46
 90
       50
102
RTVSPost2010PropOp46
 70
     1
102
RTVSPost2010Prop47
 90
       50
102
RTVSPost2010PropOp47
 70
     1
102
RTVSPost2010Prop48
 90
       50
102
RTVSPost2010PropOp48
 70
     1
102
RTVSPost2010Prop49
280
     0
102
RTVSPost2010PropOp49
 70
     1
102
RTVSPost2010Prop50
 90
       50
102
RTVSPost2010PropOp50
 70
     1
102
RTVSPost2010Prop51ColorIndex
 90
      256
102
RTVSPost2010Prop51ColorRGB
 90
-16777216
102
RTVSPost2010PropOp51
 70
     0
102
RTVSPost2010Prop52
140
1.0
102
RTVSPost2010PropOp52
 70
     0
102
RTVSPost2010Prop53
 90
        2
102
RTVSPost2010PropOp53
 70
     1
102
RTVSPost2010Prop54
  1
strokes_ogs.tif
102
RTVSPost2010PropOp54
 70
     1
102
RTVSPost2010Prop55
280
     0
102
RTVSPost2010PropOp55
 70
     1
102
RTVSPost2010Prop56
140
1.0
102
RTVSPost2010PropOp56
 70
     1
102
RTVSPost2010Prop57
140
1.0
102
RTVSPost2010PropOp57
 70
     1
  0
XRECORD
  5
D7
102
{ACAD_REACTORS
330
D6
102
}
330
D6
100
AcDbXrecord
280
     1
102
RTVSPropertyOp0
 70
     1
102
RTVSPropertyOp1
 70
     1
102
RTVSPropertyOp2
 70
     1
102
RTVSPropertyOp3
 70
     1
102
RTVSPropertyOp4
 70
     1
102
RTVSPropertyOp5
 70
     1
102
RTVSPropertyOp6
 70
     1
102
RTVSPropertyOp7
 70
     1
102
RTVSPropertyOp8
 70
     1
102
RTVSPropertyOp9
 70
     1
102
RTVSPropertyOp10
 70
     1
102
RTVSPropertyOp11
 70
     1
102
RTVSPropertyOp12
 70
     1
102
RTVSPropertyOp13
 70
     1
102
RTVSPropertyOp14
 70
     1
102
RTVSPropertyOp15
 70
     1
102
RTVSPropertyOp16
 70
     1
102
RTVSPropertyOp17
 70
     1
102
RTVSPropertyOp18
 70
     1
102
RTVSPropertyOp19
 70
     1
102
RTVSPropertyOp20
 70
     1
102
RTVSPropertyOp21
 70
     1
102
RTVSPropertyOp22
 70
     1
102
RTVSPropertyOp23
 70
     1
102
RTVSPropertyOp24
 70
     1
102
RTVSPropertyOp25
 70
     1
102
RTVSPropertyOp26
 70
     1
102
RTVSPropertyOp27
 70
     1
102
RTVSPropertyOp28
 70
     1
102
RTVSPropertyOp29
 70
     1
102
RTVSPropertyOp30
 70
     1
102
RTVSPropertyOp31
 70
     1
102
RTVSPropertyOp32
 70
     1
102
RTVSPropertyOp33
 70
     1
102
RTVSPropertyOp34
 70
     1
102
RTVSPropertyOp35
 70
     1
102
RTVSPropertyOp36
 70
     1
102
RTVSPropertyOp37
 70
     1
102
RTVSPropertyOp38
 70
     1
102
RTVSPropertyOp39
 70
     1
102
RTVSPropertyOp40
 70
     1
102
RTVSPropertyOp41
 70
     1
102
RTVSPropertyOp42
 70
     1
102
RTVSPropertyOp43
 70
     1
102
RTVSPropertyOp44
 70
     1
102
RTVSPropertyOp45
 70
     1
102
RTVSPropertyOp46
 70
     1
102
RTVSPropertyOp47
 70
     1
102
RTVSPropertyOp48
 70
     1
102
RTVSPropertyOp49
 70
     1
102
RTVSPropertyOp50
 70
     1
102
RTVSPropertyOp51
 70
     0
102
RTVSPropertyOp52
 70
     0
102
RTVSPropertyOp53
 70
     1
102
RTVSPropertyOp54
 70
     1
102
RTVSPropertyOp55
 70
     1
102
RTVSPropertyOp56
 70
     1
102
RTVSPropertyOp57
 70
     1
102
RTVSPost2010Prop28
280
     0
102
RTVSPost2010PropOp28
 70
     1
102
RTVSPost2010Prop29
280
     1
102
RTVSPost2010PropOp29
 70
     1
102
RTVSPost2010Prop30
280
     1
102
RTVSPost2010PropOp30
 70
     1
102
RTVSPost2010Prop31
280
     0
102
RTVSPost2010PropOp31
 70
     1
102
RTVSPost2010Prop32
280
     0
102
RTVSPost2010PropOp32
 70
     1
102
RTVSPost2010Prop33
280
     0
102
RTVSPost2010PropOp33
 70
     1
102
RTVSPost2010Prop34
280
     0
102
RTVSPost2010PropOp34
 70
     1
102
RTVSPost2010Prop35
280
     0
102
RTVSPost2010PropOp35
 70
     1
102
RTVSPost2010Prop36
280
     0
102
RTVSPost2010PropOp36
 70
     1
102
RTVSPost2010Prop37
 90
       50
102
RTVSPost2010PropOp37
 70
     1
102
RTVSPost2010Prop38
140
0.0
102
RTVSPost2010PropOp38
 70
     1
102
RTVSPost2010Prop39
140
1.0
102
RTVSPost2010PropOp39
 70
     1
102
RTVSPost2010Prop40
 90
        0
102
RTVSPost2010PropOp40
 70
     1
102
RTVSPost2010Prop41ColorIndex
 90
       18
102
RTVSPost2010Prop41ColorRGB
 90
        0
102
RTVSPost2010PropOp41
 70
     1
102
RTVSPost2010Prop42
 90
       50
102
RTVSPost2010PropOp42
 70
     1
102
RTVSPost2010Prop43
 90
        3
102
RTVSPost2010PropOp43
 70
     1
102
RTVSPost2010Prop44ColorIndex
 90
        5
102
RTVSPost2010Prop44ColorRGB
 90
      255
102
RTVSPost2010PropOp44
 70
     1
102
RTVSPost2010Prop45
280
     0
102
RTVSPost2010PropOp45
 70
     1
102
RTVSPost2010Prop46
 90
       50
102
RTVSPost2010PropOp46
 70
     1
102
RTVSPost2010Prop47
 90
       50
102
RTVSPost2010PropOp47
 70
     1
102
RTVSPost2010Prop48
 90
       50
102
RTVSPost2010PropOp48
 70
     1
102
RTVSPost2010Prop49
280
     0
102
RTVSPost2010PropOp49
 70
     1
102
RTVSPost2010Prop50
 90
       50
102
RTVSPost2010PropOp50
 70
     1
102
RTVSPost2010Prop51ColorIndex
 90
      256
102
RTVSPost2010Prop51ColorRGB
 90
-16777216
102
RTVSPost2010PropOp51
 70
     0
102
RTVSPost2010Prop52
140
1.0
102
RTVSPost2010PropOp52
 70
     0
102
RTVSPost2010Prop53
 90
        2
102
RTVSPost2010PropOp53
 70
     1
102
RTVSPost2010Prop54
  1
strokes_ogs.tif
102
RTVSPost2010PropOp54
 70
     1
102
RTVSPost2010Prop55
280
     0
102
RTVSPost2010PropOp55
 70
     1
102
RTVSPost2010Prop56
140
1.0
102
RTVSPost2010PropOp56
 70
     1
102
RTVSPost2010Prop57
140
1.0
102
RTVSPost2010PropOp57
 70
     1
  0
XRECORD
  5
D9
102
{ACAD_REACTORS
330
D8
102
}
330
D8
100
AcDbXrecord
280
     1
102
RTVSPropertyOp0
 70
     1
102
RTVSPropertyOp1
 70
     1
102
RTVSPropertyOp2
 70
     1
102
RTVSPropertyOp3
 70
     1
102
RTVSPropertyOp4
 70
     1
102
RTVSPropertyOp5
 70
     1
102
RTVSPropertyOp6
 70
     1
102
RTVSPropertyOp7
 70
     1
102
RTVSPropertyOp8
 70
     1
102
RTVSPropertyOp9
 70
     1
102
RTVSPropertyOp10
 70
     1
102
RTVSPropertyOp11
 70
     1
102
RTVSPropertyOp12
 70
     1
102
RTVSPropertyOp13
 70
     1
102
RTVSPropertyOp14
 70
     1
102
RTVSPropertyOp15
 70
     1
102
RTVSPropertyOp16
 70
     1
102
RTVSPropertyOp17
 70
     1
102
RTVSPropertyOp18
 70
     1
102
RTVSPropertyOp19
 70
     1
102
RTVSPropertyOp20
 70
     1
102
RTVSPropertyOp21
 70
     1
102
RTVSPropertyOp22
 70
     1
102
RTVSPropertyOp23
 70
     1
102
RTVSPropertyOp24
 70
     1
102
RTVSPropertyOp25
 70
     1
102
RTVSPropertyOp26
 70
     1
102
RTVSPropertyOp27
 70
     1
102
RTVSPropertyOp28
 70
     1
102
RTVSPropertyOp29
 70
     1
102
RTVSPropertyOp30
 70
     1
102
RTVSPropertyOp31
 70
     1
102
RTVSPropertyOp32
 70
     1
102
RTVSPropertyOp33
 70
     1
102
RTVSPropertyOp34
 70
     1
102
RTVSPropertyOp35
 70
     1
102
RTVSPropertyOp36
 70
     1
102
RTVSPropertyOp37
 70
     1
102
RTVSPropertyOp38
 70
     1
102
RTVSPropertyOp39
 70
     1
102
RTVSPropertyOp40
 70
     1
102
RTVSPropertyOp41
 70
     1
102
RTVSPropertyOp42
 70
     1
102
RTVSPropertyOp43
 70
     1
102
RTVSPropertyOp44
 70
     1
102
RTVSPropertyOp45
 70
     1
102
RTVSPropertyOp46
 70
     1
102
RTVSPropertyOp47
 70
     1
102
RTVSPropertyOp48
 70
     1
102
RTVSPropertyOp49
 70
     1
102
RTVSPropertyOp50
 70
     1
102
RTVSPropertyOp51
 70
     0
102
RTVSPropertyOp52
 70
     0
102
RTVSPropertyOp53
 70
     1
102
RTVSPropertyOp54
 70
     1
102
RTVSPropertyOp55
 70
     1
102
RTVSPropertyOp56
 70
     1
102
RTVSPropertyOp57
 70
     1
102
RTVSPost2010Prop28
280
     0
102
RTVSPost2010PropOp28
 70
     1
102
RTVSPost2010Prop29
280
     1
102
RTVSPost2010PropOp29
 70
     1
102
RTVSPost2010Prop30
280
     1
102
RTVSPost2010PropOp30
 70
     1
102
RTVSPost2010Prop31
280
     0
102
RTVSPost2010PropOp31
 70
     1
102
RTVSPost2010Prop32
280
     0
102
RTVSPost2010PropOp32
 70
     1
102
RTVSPost2010Prop33
280
     0
102
RTVSPost2010PropOp33
 70
     1
102
RTVSPost2010Prop34
280
     0
102
RTVSPost2010PropOp34
 70
     1
102
RTVSPost2010Prop35
280
     0
102
RTVSPost2010PropOp35
 70
     1
102
RTVSPost2010Prop36
280
     0
102
RTVSPost2010PropOp36
 70
     1
102
RTVSPost2010Prop37
 90
       50
102
RTVSPost2010PropOp37
 70
     1
102
RTVSPost2010Prop38
140
0.0
102
RTVSPost2010PropOp38
 70
     1
102
RTVSPost2010Prop39
140
1.0
102
RTVSPost2010PropOp39
 70
     1
102
RTVSPost2010Prop40
 90
        0
102
RTVSPost2010PropOp40
 70
     1
102
RTVSPost2010Prop41ColorIndex
 90
       18
102
RTVSPost2010Prop41ColorRGB
 90
        0
102
RTVSPost2010PropOp41
 70
     1
102
RTVSPost2010Prop42
 90
       50
102
RTVSPost2010PropOp42
 70
     1
102
RTVSPost2010Prop43
 90
        3
102
RTVSPost2010PropOp43
 70
     1
102
RTVSPost2010Prop44ColorIndex
 90
        5
102
RTVSPost2010Prop44ColorRGB
 90
      255
102
RTVSPost2010PropOp44
 70
     1
102
RTVSPost2010Prop45
280
     0
102
RTVSPost2010PropOp45
 70
     1
102
RTVSPost2010Prop46
 90
       50
102
RTVSPost2010PropOp46
 70
     1
102
RTVSPost2010Prop47
 90
       50
102
RTVSPost2010PropOp47
 70
     1
102
RTVSPost2010Prop48
 90
       50
102
RTVSPost2010PropOp48
 70
     1
102
RTVSPost2010Prop49
280
     0
102
RTVSPost2010PropOp49
 70
     1
102
RTVSPost2010Prop50
 90
       50
102
RTVSPost2010PropOp50
 70
     1
102
RTVSPost2010Prop51ColorIndex
 90
      256
102
RTVSPost2010Prop51ColorRGB
 90
-16777216
102
RTVSPost2010PropOp51
 70
     0
102
RTVSPost2010Prop52
140
1.0
102
RTVSPost2010PropOp52
 70
     0
102
RTVSPost2010Prop53
 90
        2
102
RTVSPost2010PropOp53
 70
     1
102
RTVSPost2010Prop54
  1
strokes_ogs.tif
102
RTVSPost2010PropOp54
 70
     1
102
RTVSPost2010Prop55
280
     0
102
RTVSPost2010PropOp55
 70
     1
102
RTVSPost2010Prop56
140
1.0
102
RTVSPost2010PropOp56
 70
     1
102
RTVSPost2010Prop57
140
1.0
102
RTVSPost2010PropOp57
 70
     1
  0
XRECORD
  5
DB
102
{ACAD_REACTORS
330
DA
102
}
330
DA
100
AcDbXrecord
280
     1
102
RTVSPropertyOp0
 70
     1
102
RTVSPropertyOp1
 70
     1
102
RTVSPropertyOp2
 70
     1
102
RTVSPropertyOp3
 70
     1
102
RTVSPropertyOp4
 70
     1
102
RTVSPropertyOp5
 70
     1
102
RTVSPropertyOp6
 70
     1
102
RTVSPropertyOp7
 70
     1
102
RTVSPropertyOp8
 70
     1
102
RTVSPropertyOp9
 70
     1
102
RTVSPropertyOp10
 70
     1
102
RTVSPropertyOp11
 70
     1
102
RTVSPropertyOp12
 70
     1
102
RTVSPropertyOp13
 70
     1
102
RTVSPropertyOp14
 70
     1
102
RTVSPropertyOp15
 70
     1
102
RTVSPropertyOp16
 70
     1
102
RTVSPropertyOp17
 70
     1
102
RTVSPropertyOp18
 70
     1
102
RTVSPropertyOp19
 70
     1
102
RTVSPropertyOp20
 70
     1
102
RTVSPropertyOp21
 70
     1
102
RTVSPropertyOp22
 70
     1
102
RTVSPropertyOp23
 70
     1
102
RTVSPropertyOp24
 70
     1
102
RTVSPropertyOp25
 70
     1
102
RTVSPropertyOp26
 70
     1
102
RTVSPropertyOp27
 70
     1
102
RTVSPropertyOp28
 70
     1
102
RTVSPropertyOp29
 70
     1
102
RTVSPropertyOp30
 70
     1
102
RTVSPropertyOp31
 70
     1
102
RTVSPropertyOp32
 70
     1
102
RTVSPropertyOp33
 70
     1
102
RTVSPropertyOp34
 70
     1
102
RTVSPropertyOp35
 70
     1
102
RTVSPropertyOp36
 70
     1
102
RTVSPropertyOp37
 70
     1
102
RTVSPropertyOp38
 70
     1
102
RTVSPropertyOp39
 70
     1
102
RTVSPropertyOp40
 70
     1
102
RTVSPropertyOp41
 70
     1
102
RTVSPropertyOp42
 70
     1
102
RTVSPropertyOp43
 70
     1
102
RTVSPropertyOp44
 70
     1
102
RTVSPropertyOp45
 70
     1
102
RTVSPropertyOp46
 70
     1
102
RTVSPropertyOp47
 70
     1
102
RTVSPropertyOp48
 70
     1
102
RTVSPropertyOp49
 70
     1
102
RTVSPropertyOp50
 70
     1
102
RTVSPropertyOp51
 70
     0
102
RTVSPropertyOp52
 70
     0
102
RTVSPropertyOp53
 70
     1
102
RTVSPropertyOp54
 70
     1
102
RTVSPropertyOp55
 70
     1
102
RTVSPropertyOp56
 70
     1
102
RTVSPropertyOp57
 70
     1
102
RTVSPost2010Prop28
280
     0
102
RTVSPost2010PropOp28
 70
     1
102
RTVSPost2010Prop29
280
     1
102
RTVSPost2010PropOp29
 70
     1
102
RTVSPost2010Prop30
280
     1
102
RTVSPost2010PropOp30
 70
     1
102
RTVSPost2010Prop31
280
     0
102
RTVSPost2010PropOp31
 70
     1
102
RTVSPost2010Prop32
280
     0
102
RTVSPost2010PropOp32
 70
     1
102
RTVSPost2010Prop33
280
     0
102
RTVSPost2010PropOp33
 70
     1
102
RTVSPost2010Prop34
280
     0
102
RTVSPost2010PropOp34
 70
     1
102
RTVSPost2010Prop35
280
     0
102
RTVSPost2010PropOp35
 70
     1
102
RTVSPost2010Prop36
280
     0
102
RTVSPost2010PropOp36
 70
     1
102
RTVSPost2010Prop37
 90
       50
102
RTVSPost2010PropOp37
 70
     1
102
RTVSPost2010Prop38
140
0.0
102
RTVSPost2010PropOp38
 70
     1
102
RTVSPost2010Prop39
140
1.0
102
RTVSPost2010PropOp39
 70
     1
102
RTVSPost2010Prop40
 90
        0
102
RTVSPost2010PropOp40
 70
     1
102
RTVSPost2010Prop41ColorIndex
 90
       18
102
RTVSPost2010Prop41ColorRGB
 90
        0
102
RTVSPost2010PropOp41
 70
     1
102
RTVSPost2010Prop42
 90
       50
102
RTVSPost2010PropOp42
 70
     1
102
RTVSPost2010Prop43
 90
        3
102
RTVSPost2010PropOp43
 70
     1
102
RTVSPost2010Prop44ColorIndex
 90
        5
102
RTVSPost2010Prop44ColorRGB
 90
      255
102
RTVSPost2010PropOp44
 70
     1
102
RTVSPost2010Prop45
280
     0
102
RTVSPost2010PropOp45
 70
     1
102
RTVSPost2010Prop46
 90
       50
102
RTVSPost2010PropOp46
 70
     1
102
RTVSPost2010Prop47
 90
       50
102
RTVSPost2010PropOp47
 70
     1
102
RTVSPost2010Prop48
 90
       50
102
RTVSPost2010PropOp48
 70
     1
102
RTVSPost2010Prop49
280
     0
102
RTVSPost2010PropOp49
 70
     1
102
RTVSPost2010Prop50
 90
       50
102
RTVSPost2010PropOp50
 70
     1
102
RTVSPost2010Prop51ColorIndex
 90
      256
102
RTVSPost2010Prop51ColorRGB
 90
-16777216
102
RTVSPost2010PropOp51
 70
     0
102
RTVSPost2010Prop52
140
1.0
102
RTVSPost2010PropOp52
 70
     0
102
RTVSPost2010Prop53
 90
        2
102
RTVSPost2010PropOp53
 70
     1
102
RTVSPost2010Prop54
  1
strokes_ogs.tif
102
RTVSPost2010PropOp54
 70
     1
102
RTVSPost2010Prop55
280
     0
102
RTVSPost2010PropOp55
 70
     1
102
RTVSPost2010Prop56
140
1.0
102
RTVSPost2010PropOp56
 70
     1
102
RTVSPost2010Prop57
140
1.0
102
RTVSPost2010PropOp57
 70
     1
  0
XRECORD
  5
DD
102
{ACAD_REACTORS
330
DC
102
}
330
DC
100
AcDbXrecord
280
     1
102
RTVSPropertyOp0
 70
     1
102
RTVSPropertyOp1
 70
     1
102
RTVSPropertyOp2
 70
     1
102
RTVSPropertyOp3
 70
     1
102
RTVSPropertyOp4
 70
     1
102
RTVSPropertyOp5
 70
     1
102
RTVSPropertyOp6
 70
     1
102
RTVSPropertyOp7
 70
     1
102
RTVSPropertyOp8
 70
     1
102
RTVSPropertyOp9
 70
     1
102
RTVSPropertyOp10
 70
     1
102
RTVSPropertyOp11
 70
     1
102
RTVSPropertyOp12
 70
     1
102
RTVSPropertyOp13
 70
     1
102
RTVSPropertyOp14
 70
     1
102
RTVSPropertyOp15
 70
     1
102
RTVSPropertyOp16
 70
     1
102
RTVSPropertyOp17
 70
     1
102
RTVSPropertyOp18
 70
     1
102
RTVSPropertyOp19
 70
     1
102
RTVSPropertyOp20
 70
     1
102
RTVSPropertyOp21
 70
     1
102
RTVSPropertyOp22
 70
     1
102
RTVSPropertyOp23
 70
     1
102
RTVSPropertyOp24
 70
     1
102
RTVSPropertyOp25
 70
     1
102
RTVSPropertyOp26
 70
     1
102
RTVSPropertyOp27
 70
     1
102
RTVSPropertyOp28
 70
     1
102
RTVSPropertyOp29
 70
     1
102
RTVSPropertyOp30
 70
     1
102
RTVSPropertyOp31
 70
     1
102
RTVSPropertyOp32
 70
     1
102
RTVSPropertyOp33
 70
     1
102
RTVSPropertyOp34
 70
     1
102
RTVSPropertyOp35
 70
     1
102
RTVSPropertyOp36
 70
     1
102
RTVSPropertyOp37
 70
     1
102
RTVSPropertyOp38
 70
     1
102
RTVSPropertyOp39
 70
     1
102
RTVSPropertyOp40
 70
     1
102
RTVSPropertyOp41
 70
     1
102
RTVSPropertyOp42
 70
     1
102
RTVSPropertyOp43
 70
     1
102
RTVSPropertyOp44
 70
     1
102
RTVSPropertyOp45
 70
     1
102
RTVSPropertyOp46
 70
     1
102
RTVSPropertyOp47
 70
     1
102
RTVSPropertyOp48
 70
     1
102
RTVSPropertyOp49
 70
     1
102
RTVSPropertyOp50
 70
     1
102
RTVSPropertyOp51
 70
     0
102
RTVSPropertyOp52
 70
     0
102
RTVSPropertyOp53
 70
     1
102
RTVSPropertyOp54
 70
     1
102
RTVSPropertyOp55
 70
     1
102
RTVSPropertyOp56
 70
     1
102
RTVSPropertyOp57
 70
     1
102
RTVSPost2010Prop28
280
     0
102
RTVSPost2010PropOp28
 70
     1
102
RTVSPost2010Prop29
280
     1
102
RTVSPost2010PropOp29
 70
     1
102
RTVSPost2010Prop30
280
     1
102
RTVSPost2010PropOp30
 70
     1
102
RTVSPost2010Prop31
280
     0
102
RTVSPost2010PropOp31
 70
     1
102
RTVSPost2010Prop32
280
     0
102
RTVSPost2010PropOp32
 70
     1
102
RTVSPost2010Prop33
280
     0
102
RTVSPost2010PropOp33
 70
     1
102
RTVSPost2010Prop34
280
     0
102
RTVSPost2010PropOp34
 70
     1
102
RTVSPost2010Prop35
280
     0
102
RTVSPost2010PropOp35
 70
     1
102
RTVSPost2010Prop36
280
     0
102
RTVSPost2010PropOp36
 70
     1
102
RTVSPost2010Prop37
 90
       50
102
RTVSPost2010PropOp37
 70
     1
102
RTVSPost2010Prop38
140
0.0
102
RTVSPost2010PropOp38
 70
     1
102
RTVSPost2010Prop39
140
1.0
102
RTVSPost2010PropOp39
 70
     1
102
RTVSPost2010Prop40
 90
        0
102
RTVSPost2010PropOp40
 70
     1
102
RTVSPost2010Prop41ColorIndex
 90
       18
102
RTVSPost2010Prop41ColorRGB
 90
        0
102
RTVSPost2010PropOp41
 70
     1
102
RTVSPost2010Prop42
 90
       50
102
RTVSPost2010PropOp42
 70
     1
102
RTVSPost2010Prop43
 90
        3
102
RTVSPost2010PropOp43
 70
     1
102
RTVSPost2010Prop44ColorIndex
 90
        5
102
RTVSPost2010Prop44ColorRGB
 90
      255
102
RTVSPost2010PropOp44
 70
     1
102
RTVSPost2010Prop45
280
     0
102
RTVSPost2010PropOp45
 70
     1
102
RTVSPost2010Prop46
 90
       50
102
RTVSPost2010PropOp46
 70
     1
102
RTVSPost2010Prop47
 90
       50
102
RTVSPost2010PropOp47
 70
     1
102
RTVSPost2010Prop48
 90
       50
102
RTVSPost2010PropOp48
 70
     1
102
RTVSPost2010Prop49
280
     0
102
RTVSPost2010PropOp49
 70
     1
102
RTVSPost2010Prop50
 90
       50
102
RTVSPost2010PropOp50
 70
     1
102
RTVSPost2010Prop51ColorIndex
 90
      256
102
RTVSPost2010Prop51ColorRGB
 90
-16777216
102
RTVSPost2010PropOp51
 70
     0
102
RTVSPost2010Prop52
140
1.0
102
RTVSPost2010PropOp52
 70
     0
102
RTVSPost2010Prop53
 90
        2
102
RTVSPost2010PropOp53
 70
     1
102
RTVSPost2010Prop54
  1
strokes_ogs.tif
102
RTVSPost2010PropOp54
 70
     1
102
RTVSPost2010Prop55
280
     0
102
RTVSPost2010PropOp55
 70
     1
102
RTVSPost2010Prop56
140
1.0
102
RTVSPost2010PropOp56
 70
     1
102
RTVSPost2010Prop57
140
1.0
102
RTVSPost2010PropOp57
 70
     1
  0
XRECORD
  5
E3
102
{ACAD_REACTORS
330
E2
102
}
330
E2
100
AcDbXrecord
280
     1
102
RTVSPropertyOp0
 70
     1
102
RTVSPropertyOp1
 70
     1
102
RTVSPropertyOp2
 70
     1
102
RTVSPropertyOp3
 70
     1
102
RTVSPropertyOp4
 70
     1
102
RTVSPropertyOp5
 70
     1
102
RTVSPropertyOp6
 70
     1
102
RTVSPropertyOp7
 70
     1
102
RTVSPropertyOp8
 70
     1
102
RTVSPropertyOp9
 70
     1
102
RTVSPropertyOp10
 70
     1
102
RTVSPropertyOp11
 70
     1
102
RTVSPropertyOp12
 70
     1
102
RTVSPropertyOp13
 70
     1
102
RTVSPropertyOp14
 70
     1
102
RTVSPropertyOp15
 70
     1
102
RTVSPropertyOp16
 70
     1
102
RTVSPropertyOp17
 70
     1
102
RTVSPropertyOp18
 70
     1
102
RTVSPropertyOp19
 70
     1
102
RTVSPropertyOp20
 70
     1
102
RTVSPropertyOp21
 70
     1
102
RTVSPropertyOp22
 70
     1
102
RTVSPropertyOp23
 70
     1
102
RTVSPropertyOp24
 70
     1
102
RTVSPropertyOp25
 70
     1
102
RTVSPropertyOp26
 70
     1
102
RTVSPropertyOp27
 70
     1
102
RTVSPropertyOp28
 70
     1
102
RTVSPropertyOp29
 70
     1
102
RTVSPropertyOp30
 70
     1
102
RTVSPropertyOp31
 70
     1
102
RTVSPropertyOp32
 70
     1
102
RTVSPropertyOp33
 70
     1
102
RTVSPropertyOp34
 70
     1
102
RTVSPropertyOp35
 70
     1
102
RTVSPropertyOp36
 70
     1
102
RTVSPropertyOp37
 70
     1
102
RTVSPropertyOp38
 70
     1
102
RTVSPropertyOp39
 70
     1
102
RTVSPropertyOp40
 70
     1
102
RTVSPropertyOp41
 70
     1
102
RTVSPropertyOp42
 70
     1
102
RTVSPropertyOp43
 70
     1
102
RTVSPropertyOp44
 70
     1
102
RTVSPropertyOp45
 70
     1
102
RTVSPropertyOp46
 70
     1
102
RTVSPropertyOp47
 70
     1
102
RTVSPropertyOp48
 70
     1
102
RTVSPropertyOp49
 70
     1
102
RTVSPropertyOp50
 70
     1
102
RTVSPropertyOp51
 70
     0
102
RTVSPropertyOp52
 70
     0
102
RTVSPropertyOp53
 70
     1
102
RTVSPropertyOp54
 70
     1
102
RTVSPropertyOp55
 70
     1
102
RTVSPropertyOp56
 70
     1
102
RTVSPropertyOp57
 70
     1
102
RTVSPost2010Prop28
280
     0
102
RTVSPost2010PropOp28
 70
     1
102
RTVSPost2010Prop29
280
     1
102
RTVSPost2010PropOp29
 70
     1
102
RTVSPost2010Prop30
280
     1
102
RTVSPost2010PropOp30
 70
     1
102
RTVSPost2010Prop31
280
     0
102
RTVSPost2010PropOp31
 70
     1
102
RTVSPost2010Prop32
280
     0
102
RTVSPost2010PropOp32
 70
     1
102
RTVSPost2010Prop33
280
     0
102
RTVSPost2010PropOp33
 70
     1
102
RTVSPost2010Prop34
280
     0
102
RTVSPost2010PropOp34
 70
     1
102
RTVSPost2010Prop35
280
     0
102
RTVSPost2010PropOp35
 70
     1
102
RTVSPost2010Prop36
280
     0
102
RTVSPost2010PropOp36
 70
     1
102
RTVSPost2010Prop37
 90
       50
102
RTVSPost2010PropOp37
 70
     1
102
RTVSPost2010Prop38
140
0.0
102
RTVSPost2010PropOp38
 70
     1
102
RTVSPost2010Prop39
140
1.0
102
RTVSPost2010PropOp39
 70
     1
102
RTVSPost2010Prop40
 90
        0
102
RTVSPost2010PropOp40
 70
     1
102
RTVSPost2010Prop41ColorIndex
 90
       18
102
RTVSPost2010Prop41ColorRGB
 90
        0
102
RTVSPost2010PropOp41
 70
     1
102
RTVSPost2010Prop42
 90
       50
102
RTVSPost2010PropOp42
 70
     1
102
RTVSPost2010Prop43
 90
        3
102
RTVSPost2010PropOp43
 70
     1
102
RTVSPost2010Prop44ColorIndex
 90
        5
102
RTVSPost2010Prop44ColorRGB
 90
      255
102
RTVSPost2010PropOp44
 70
     1
102
RTVSPost2010Prop45
280
     0
102
RTVSPost2010PropOp45
 70
     1
102
RTVSPost2010Prop46
 90
       50
102
RTVSPost2010PropOp46
 70
     1
102
RTVSPost2010Prop47
 90
       50
102
RTVSPost2010PropOp47
 70
     1
102
RTVSPost2010Prop48
 90
       50
102
RTVSPost2010PropOp48
 70
     1
102
RTVSPost2010Prop49
280
     0
102
RTVSPost2010PropOp49
 70
     1
102
RTVSPost2010Prop50
 90
       50
102
RTVSPost2010PropOp50
 70
     1
102
RTVSPost2010Prop51ColorIndex
 90
      256
102
RTVSPost2010Prop51ColorRGB
 90
-16777216
102
RTVSPost2010PropOp51
 70
     0
102
RTVSPost2010Prop52
140
1.0
102
RTVSPost2010PropOp52
 70
     0
102
RTVSPost2010Prop53
 90
        2
102
RTVSPost2010PropOp53
 70
     1
102
RTVSPost2010Prop54
  1
strokes_ogs.tif
102
RTVSPost2010PropOp54
 70
     1
102
RTVSPost2010Prop55
280
     0
102
RTVSPost2010PropOp55
 70
     1
102
RTVSPost2010Prop56
140
1.0
102
RTVSPost2010PropOp56
 70
     1
102
RTVSPost2010Prop57
140
1.0
102
RTVSPost2010PropOp57
 70
     1
  0
XRECORD
  5
F7
102
{ACAD_REACTORS
330
F6
102
}
330
F6
100
AcDbXrecord
280
     1
102
RTVSPropertyOp0
 70
     0
102
RTVSPropertyOp1
 70
     0
102
RTVSPropertyOp2
 70
     0
102
RTVSPropertyOp3
 70
     0
102
RTVSPropertyOp4
 70
     0
102
RTVSPropertyOp5
 70
     0
102
RTVSPropertyOp6
 70
     0
102
RTVSPropertyOp7
 70
     0
102
RTVSPropertyOp8
 70
     0
102
RTVSPropertyOp9
 70
     0
102
RTVSPropertyOp10
 70
     0
102
RTVSPropertyOp11
 70
     0
102
RTVSPropertyOp12
 70
     0
102
RTVSPropertyOp13
 70
     0
102
RTVSPropertyOp14
 70
     2
102
RTVSPropertyOp15
 70
     0
102
RTVSPropertyOp16
 70
     0
102
RTVSPropertyOp17
 70
     0
102
RTVSPropertyOp18
 70
     0
102
RTVSPropertyOp19
 70
     0
102
RTVSPropertyOp20
 70
     0
102
RTVSPropertyOp21
 70
     0
102
RTVSPropertyOp22
 70
     0
102
RTVSPropertyOp23
 70
     0
102
RTVSPropertyOp24
 70
     0
102
RTVSPropertyOp25
 70
     0
102
RTVSPropertyOp26
 70
     0
102
RTVSPropertyOp27
 70
     0
102
RTVSPropertyOp28
 70
     0
102
RTVSPropertyOp29
 70
     0
102
RTVSPropertyOp30
 70
     0
102
RTVSPropertyOp31
 70
     0
102
RTVSPropertyOp32
 70
     0
102
RTVSPropertyOp33
 70
     0
102
RTVSPropertyOp34
 70
     0
102
RTVSPropertyOp35
 70
     0
102
RTVSPropertyOp36
 70
     0
102
RTVSPropertyOp37
 70
     0
102
RTVSPropertyOp38
 70
     0
102
RTVSPropertyOp39
 70
     0
102
RTVSPropertyOp40
 70
     0
102
RTVSPropertyOp41
 70
     0
102
RTVSPropertyOp42
 70
     0
102
RTVSPropertyOp43
 70
     0
102
RTVSPropertyOp44
 70
     0
102
RTVSPropertyOp45
 70
     0
102
RTVSPropertyOp46
 70
     0
102
RTVSPropertyOp47
 70
     0
102
RTVSPropertyOp48
 70
     0
102
RTVSPropertyOp49
 70
     0
102
RTVSPropertyOp50
 70
     0
102
RTVSPropertyOp51
 70
     0
102
RTVSPropertyOp52
 70
     0
102
RTVSPropertyOp53
 70
     0
102
RTVSPropertyOp54
 70
     0
102
RTVSPropertyOp55
 70
     0
102
RTVSPropertyOp56
 70
     0
102
RTVSPropertyOp57
 70
     0
102
RTVSPost2010Prop28
280
     0
102
RTVSPost2010PropOp28
 70
     0
102
RTVSPost2010Prop29
280
     1
102
RTVSPost2010PropOp29
 70
     0
102
RTVSPost2010Prop30
280
     1
102
RTVSPost2010PropOp30
 70
     0
102
RTVSPost2010Prop31
280
     0
102
RTVSPost2010PropOp31
 70
     0
102
RTVSPost2010Prop32
280
     0
102
RTVSPost2010PropOp32
 70
     0
102
RTVSPost2010Prop33
280
     0
102
RTVSPost2010PropOp33
 70
     0
102
RTVSPost2010Prop34
280
     0
102
RTVSPost2010PropOp34
 70
     0
102
RTVSPost2010Prop35
280
     0
102
RTVSPost2010PropOp35
 70
     0
102
RTVSPost2010Prop36
280
     0
102
RTVSPost2010PropOp36
 70
     0
102
RTVSPost2010Prop37
 90
       50
102
RTVSPost2010PropOp37
 70
     0
102
RTVSPost2010Prop38
140
0.0
102
RTVSPost2010PropOp38
 70
     0
102
RTVSPost2010Prop39
140
1.0
102
RTVSPost2010PropOp39
 70
     0
102
RTVSPost2010Prop40
 90
        0
102
RTVSPost2010PropOp40
 70
     0
102
RTVSPost2010Prop41ColorIndex
 90
       18
102
RTVSPost2010Prop41ColorRGB
 90
        0
102
RTVSPost2010PropOp41
 70
     0
102
RTVSPost2010Prop42
 90
       50
102
RTVSPost2010PropOp42
 70
     0
102
RTVSPost2010Prop43
 90
        3
102
RTVSPost2010PropOp43
 70
     0
102
RTVSPost2010Prop44ColorIndex
 90
        5
102
RTVSPost2010Prop44ColorRGB
 90
      255
102
RTVSPost2010PropOp44
 70
     0
102
RTVSPost2010Prop45
280
     0
102
RTVSPost2010PropOp45
 70
     0
102
RTVSPost2010Prop46
 90
       50
102
RTVSPost2010PropOp46
 70
     0
102
RTVSPost2010Prop47
 90
       50
102
RTVSPost2010PropOp47
 70
     0
102
RTVSPost2010Prop48
 90
       50
102
RTVSPost2010PropOp48
 70
     0
102
RTVSPost2010Prop49
280
     0
102
RTVSPost2010PropOp49
 70
     0
102
RTVSPost2010Prop50
 90
       50
102
RTVSPost2010PropOp50
 70
     0
102
RTVSPost2010Prop51ColorIndex
 90
      256
102
RTVSPost2010Prop51ColorRGB
 90
-16777216
102
RTVSPost2010PropOp51
 70
     0
102
RTVSPost2010Prop52
140
1.0
102
RTVSPost2010PropOp52
 70
     0
102
RTVSPost2010Prop53
 90
        2
102
RTVSPost2010PropOp53
 70
     0
102
RTVSPost2010Prop54
  1
strokes_ogs.tif
102
RTVSPost2010PropOp54
 70
     0
102
RTVSPost2010Prop55
280
     0
102
RTVSPost2010PropOp55
 70
     0
102
RTVSPost2010Prop56
140
1.0
102
RTVSPost2010PropOp56
 70
     0
102
RTVSPost2010Prop57
140
1.0
102
RTVSPost2010PropOp57
 70
     0
  0
XRECORD
  5
F1
102
{ACAD_REACTORS
330
F0
102
}
330
F0
100
AcDbXrecord
280
     1
102
RTVSPropertyOp0
 70
     1
102
RTVSPropertyOp1
 70
     1
102
RTVSPropertyOp2
 70
     1
102
RTVSPropertyOp3
 70
     1
102
RTVSPropertyOp4
 70
     1
102
RTVSPropertyOp5
 70
     1
102
RTVSPropertyOp6
 70
     1
102
RTVSPropertyOp7
 70
     1
102
RTVSPropertyOp8
 70
     1
102
RTVSPropertyOp9
 70
     1
102
RTVSPropertyOp10
 70
     1
102
RTVSPropertyOp11
 70
     1
102
RTVSPropertyOp12
 70
     1
102
RTVSPropertyOp13
 70
     1
102
RTVSPropertyOp14
 70
     1
102
RTVSPropertyOp15
 70
     1
102
RTVSPropertyOp16
 70
     1
102
RTVSPropertyOp17
 70
     1
102
RTVSPropertyOp18
 70
     1
102
RTVSPropertyOp19
 70
     1
102
RTVSPropertyOp20
 70
     1
102
RTVSPropertyOp21
 70
     1
102
RTVSPropertyOp22
 70
     1
102
RTVSPropertyOp23
 70
     1
102
RTVSPropertyOp24
 70
     1
102
RTVSPropertyOp25
 70
     1
102
RTVSPropertyOp26
 70
     1
102
RTVSPropertyOp27
 70
     1
102
RTVSPropertyOp28
 70
     1
102
RTVSPropertyOp29
 70
     1
102
RTVSPropertyOp30
 70
     1
102
RTVSPropertyOp31
 70
     1
102
RTVSPropertyOp32
 70
     1
102
RTVSPropertyOp33
 70
     1
102
RTVSPropertyOp34
 70
     1
102
RTVSPropertyOp35
 70
     1
102
RTVSPropertyOp36
 70
     1
102
RTVSPropertyOp37
 70
     1
102
RTVSPropertyOp38
 70
     1
102
RTVSPropertyOp39
 70
     1
102
RTVSPropertyOp40
 70
     1
102
RTVSPropertyOp41
 70
     1
102
RTVSPropertyOp42
 70
     1
102
RTVSPropertyOp43
 70
     1
102
RTVSPropertyOp44
 70
     1
102
RTVSPropertyOp45
 70
     1
102
RTVSPropertyOp46
 70
     1
102
RTVSPropertyOp47
 70
     1
102
RTVSPropertyOp48
 70
     1
102
RTVSPropertyOp49
 70
     1
102
RTVSPropertyOp50
 70
     1
102
RTVSPropertyOp51
 70
     0
102
RTVSPropertyOp52
 70
     0
102
RTVSPropertyOp53
 70
     1
102
RTVSPropertyOp54
 70
     1
102
RTVSPropertyOp55
 70
     1
102
RTVSPropertyOp56
 70
     1
102
RTVSPropertyOp57
 70
     1
102
RTVSPost2010Prop28
280
     0
102
RTVSPost2010PropOp28
 70
     1
102
RTVSPost2010Prop29
280
     1
102
RTVSPost2010PropOp29
 70
     1
102
RTVSPost2010Prop30
280
     1
102
RTVSPost2010PropOp30
 70
     1
102
RTVSPost2010Prop31
280
     0
102
RTVSPost2010PropOp31
 70
     1
102
RTVSPost2010Prop32
280
     0
102
RTVSPost2010PropOp32
 70
     1
102
RTVSPost2010Prop33
280
     0
102
RTVSPost2010PropOp33
 70
     1
102
RTVSPost2010Prop34
280
     0
102
RTVSPost2010PropOp34
 70
     1
102
RTVSPost2010Prop35
280
     0
102
RTVSPost2010PropOp35
 70
     1
102
RTVSPost2010Prop36
280
     0
102
RTVSPost2010PropOp36
 70
     1
102
RTVSPost2010Prop37
 90
       50
102
RTVSPost2010PropOp37
 70
     1
102
RTVSPost2010Prop38
140
0.0
102
RTVSPost2010PropOp38
 70
     1
102
RTVSPost2010Prop39
140
1.0
102
RTVSPost2010PropOp39
 70
     1
102
RTVSPost2010Prop40
 90
        0
102
RTVSPost2010PropOp40
 70
     1
102
RTVSPost2010Prop41ColorIndex
 90
       18
102
RTVSPost2010Prop41ColorRGB
 90
        0
102
RTVSPost2010PropOp41
 70
     1
102
RTVSPost2010Prop42
 90
       50
102
RTVSPost2010PropOp42
 70
     1
102
RTVSPost2010Prop43
 90
        3
102
RTVSPost2010PropOp43
 70
     1
102
RTVSPost2010Prop44ColorIndex
 90
        5
102
RTVSPost2010Prop44ColorRGB
 90
      255
102
RTVSPost2010PropOp44
 70
     1
102
RTVSPost2010Prop45
280
     0
102
RTVSPost2010PropOp45
 70
     1
102
RTVSPost2010Prop46
 90
       50
102
RTVSPost2010PropOp46
 70
     1
102
RTVSPost2010Prop47
 90
       50
102
RTVSPost2010PropOp47
 70
     1
102
RTVSPost2010Prop48
 90
       50
102
RTVSPost2010PropOp48
 70
     1
102
RTVSPost2010Prop49
280
     0
102
RTVSPost2010PropOp49
 70
     1
102
RTVSPost2010Prop50
 90
       50
102
RTVSPost2010PropOp50
 70
     1
102
RTVSPost2010Prop51ColorIndex
 90
      256
102
RTVSPost2010Prop51ColorRGB
 90
-16777216
102
RTVSPost2010PropOp51
 70
     0
102
RTVSPost2010Prop52
140
1.0
102
RTVSPost2010PropOp52
 70
     0
102
RTVSPost2010Prop53
 90
        2
102
RTVSPost2010PropOp53
 70
     1
102
RTVSPost2010Prop54
  1
strokes_ogs.tif
102
RTVSPost2010PropOp54
 70
     1
102
RTVSPost2010Prop55
280
     0
102
RTVSPost2010PropOp55
 70
     1
102
RTVSPost2010Prop56
140
1.0
102
RTVSPost2010PropOp56
 70
     1
102
RTVSPost2010Prop57
140
1.0
102
RTVSPost2010PropOp57
 70
     1
  0
XRECORD
  5
F9
102
{ACAD_REACTORS
330
F8
102
}
330
F8
100
AcDbXrecord
280
     1
102
RTVSPropertyOp0
 70
     0
102
RTVSPropertyOp1
 70
     0
102
RTVSPropertyOp2
 70
     0
102
RTVSPropertyOp3
 70
     0
102
RTVSPropertyOp4
 70
     0
102
RTVSPropertyOp5
 70
     0
102
RTVSPropertyOp6
 70
     0
102
RTVSPropertyOp7
 70
     0
102
RTVSPropertyOp8
 70
     0
102
RTVSPropertyOp9
 70
     0
102
RTVSPropertyOp10
 70
     0
102
RTVSPropertyOp11
 70
     0
102
RTVSPropertyOp12
 70
     0
102
RTVSPropertyOp13
 70
     0
102
RTVSPropertyOp14
 70
     2
102
RTVSPropertyOp15
 70
     0
102
RTVSPropertyOp16
 70
     0
102
RTVSPropertyOp17
 70
     0
102
RTVSPropertyOp18
 70
     0
102
RTVSPropertyOp19
 70
     0
102
RTVSPropertyOp20
 70
     0
102
RTVSPropertyOp21
 70
     0
102
RTVSPropertyOp22
 70
     0
102
RTVSPropertyOp23
 70
     0
102
RTVSPropertyOp24
 70
     0
102
RTVSPropertyOp25
 70
     0
102
RTVSPropertyOp26
 70
     0
102
RTVSPropertyOp27
 70
     0
102
RTVSPropertyOp28
 70
     0
102
RTVSPropertyOp29
 70
     0
102
RTVSPropertyOp30
 70
     0
102
RTVSPropertyOp31
 70
     0
102
RTVSPropertyOp32
 70
     0
102
RTVSPropertyOp33
 70
     0
102
RTVSPropertyOp34
 70
     0
102
RTVSPropertyOp35
 70
     0
102
RTVSPropertyOp36
 70
     0
102
RTVSPropertyOp37
 70
     0
102
RTVSPropertyOp38
 70
     0
102
RTVSPropertyOp39
 70
     0
102
RTVSPropertyOp40
 70
     0
102
RTVSPropertyOp41
 70
     0
102
RTVSPropertyOp42
 70
     0
102
RTVSPropertyOp43
 70
     0
102
RTVSPropertyOp44
 70
     0
102
RTVSPropertyOp45
 70
     0
102
RTVSPropertyOp46
 70
     0
102
RTVSPropertyOp47
 70
     0
102
RTVSPropertyOp48
 70
     0
102
RTVSPropertyOp49
 70
     0
102
RTVSPropertyOp50
 70
     0
102
RTVSPropertyOp51
 70
     0
102
RTVSPropertyOp52
 70
     0
102
RTVSPropertyOp53
 70
     0
102
RTVSPropertyOp54
 70
     0
102
RTVSPropertyOp55
 70
     0
102
RTVSPropertyOp56
 70
     0
102
RTVSPropertyOp57
 70
     0
102
RTVSPost2010Prop28
280
     0
102
RTVSPost2010PropOp28
 70
     0
102
RTVSPost2010Prop29
280
     1
102
RTVSPost2010PropOp29
 70
     0
102
RTVSPost2010Prop30
280
     1
102
RTVSPost2010PropOp30
 70
     0
102
RTVSPost2010Prop31
280
     0
102
RTVSPost2010PropOp31
 70
     0
102
RTVSPost2010Prop32
280
     0
102
RTVSPost2010PropOp32
 70
     0
102
RTVSPost2010Prop33
280
     0
102
RTVSPost2010PropOp33
 70
     0
102
RTVSPost2010Prop34
280
     0
102
RTVSPost2010PropOp34
 70
     0
102
RTVSPost2010Prop35
280
     0
102
RTVSPost2010PropOp35
 70
     0
102
RTVSPost2010Prop36
280
     0
102
RTVSPost2010PropOp36
 70
     0
102
RTVSPost2010Prop37
 90
       50
102
RTVSPost2010PropOp37
 70
     0
102
RTVSPost2010Prop38
140
0.0
102
RTVSPost2010PropOp38
 70
     0
102
RTVSPost2010Prop39
140
1.0
102
RTVSPost2010PropOp39
 70
     0
102
RTVSPost2010Prop40
 90
        0
102
RTVSPost2010PropOp40
 70
     0
102
RTVSPost2010Prop41ColorIndex
 90
       18
102
RTVSPost2010Prop41ColorRGB
 90
        0
102
RTVSPost2010PropOp41
 70
     0
102
RTVSPost2010Prop42
 90
       50
102
RTVSPost2010PropOp42
 70
     0
102
RTVSPost2010Prop43
 90
        3
102
RTVSPost2010PropOp43
 70
     0
102
RTVSPost2010Prop44ColorIndex
 90
        5
102
RTVSPost2010Prop44ColorRGB
 90
      255
102
RTVSPost2010PropOp44
 70
     0
102
RTVSPost2010Prop45
280
     0
102
RTVSPost2010PropOp45
 70
     0
102
RTVSPost2010Prop46
 90
       50
102
RTVSPost2010PropOp46
 70
     0
102
RTVSPost2010Prop47
 90
       50
102
RTVSPost2010PropOp47
 70
     0
102
RTVSPost2010Prop48
 90
       50
102
RTVSPost2010PropOp48
 70
     0
102
RTVSPost2010Prop49
280
     0
102
RTVSPost2010PropOp49
 70
     0
102
RTVSPost2010Prop50
 90
       50
102
RTVSPost2010PropOp50
 70
     0
102
RTVSPost2010Prop51ColorIndex
 90
      256
102
RTVSPost2010Prop51ColorRGB
 90
-16777216
102
RTVSPost2010PropOp51
 70
     0
102
RTVSPost2010Prop52
140
1.0
102
RTVSPost2010PropOp52
 70
     0
102
RTVSPost2010Prop53
 90
        2
102
RTVSPost2010PropOp53
 70
     0
102
RTVSPost2010Prop54
  1
strokes_ogs.tif
102
RTVSPost2010PropOp54
 70
     0
102
RTVSPost2010Prop55
280
     0
102
RTVSPost2010PropOp55
 70
     0
102
RTVSPost2010Prop56
140
1.0
102
RTVSPost2010PropOp56
 70
     0
102
RTVSPost2010Prop57
140
1.0
102
RTVSPost2010PropOp57
 70
     0
  0
XRECORD
  5
E7
102
{ACAD_REACTORS
330
E6
102
}
330
E6
100
AcDbXrecord
280
     1
102
RTVSPropertyOp0
 70
     1
102
RTVSPropertyOp1
 70
     1
102
RTVSPropertyOp2
 70
     1
102
RTVSPropertyOp3
 70
     1
102
RTVSPropertyOp4
 70
     1
102
RTVSPropertyOp5
 70
     1
102
RTVSPropertyOp6
 70
     1
102
RTVSPropertyOp7
 70
     1
102
RTVSPropertyOp8
 70
     1
102
RTVSPropertyOp9
 70
     1
102
RTVSPropertyOp10
 70
     1
102
RTVSPropertyOp11
 70
     1
102
RTVSPropertyOp12
 70
     1
102
RTVSPropertyOp13
 70
     1
102
RTVSPropertyOp14
 70
     1
102
RTVSPropertyOp15
 70
     1
102
RTVSPropertyOp16
 70
     1
102
RTVSPropertyOp17
 70
     1
102
RTVSPropertyOp18
 70
     1
102
RTVSPropertyOp19
 70
     1
102
RTVSPropertyOp20
 70
     1
102
RTVSPropertyOp21
 70
     1
102
RTVSPropertyOp22
 70
     1
102
RTVSPropertyOp23
 70
     1
102
RTVSPropertyOp24
 70
     1
102
RTVSPropertyOp25
 70
     1
102
RTVSPropertyOp26
 70
     1
102
RTVSPropertyOp27
 70
     1
102
RTVSPropertyOp28
 70
     1
102
RTVSPropertyOp29
 70
     1
102
RTVSPropertyOp30
 70
     1
102
RTVSPropertyOp31
 70
     1
102
RTVSPropertyOp32
 70
     1
102
RTVSPropertyOp33
 70
     1
102
RTVSPropertyOp34
 70
     1
102
RTVSPropertyOp35
 70
     1
102
RTVSPropertyOp36
 70
     1
102
RTVSPropertyOp37
 70
     1
102
RTVSPropertyOp38
 70
     1
102
RTVSPropertyOp39
 70
     1
102
RTVSPropertyOp40
 70
     1
102
RTVSPropertyOp41
 70
     1
102
RTVSPropertyOp42
 70
     1
102
RTVSPropertyOp43
 70
     1
102
RTVSPropertyOp44
 70
     1
102
RTVSPropertyOp45
 70
     1
102
RTVSPropertyOp46
 70
     1
102
RTVSPropertyOp47
 70
     1
102
RTVSPropertyOp48
 70
     1
102
RTVSPropertyOp49
 70
     1
102
RTVSPropertyOp50
 70
     1
102
RTVSPropertyOp51
 70
     0
102
RTVSPropertyOp52
 70
     0
102
RTVSPropertyOp53
 70
     1
102
RTVSPropertyOp54
 70
     1
102
RTVSPropertyOp55
 70
     1
102
RTVSPropertyOp56
 70
     1
102
RTVSPropertyOp57
 70
     1
102
RTVSPost2010Prop28
280
     0
102
RTVSPost2010PropOp28
 70
     1
102
RTVSPost2010Prop29
280
     1
102
RTVSPost2010PropOp29
 70
     1
102
RTVSPost2010Prop30
280
     1
102
RTVSPost2010PropOp30
 70
     1
102
RTVSPost2010Prop31
280
     0
102
RTVSPost2010PropOp31
 70
     1
102
RTVSPost2010Prop32
280
     0
102
RTVSPost2010PropOp32
 70
     1
102
RTVSPost2010Prop33
280
     0
102
RTVSPost2010PropOp33
 70
     1
102
RTVSPost2010Prop34
280
     0
102
RTVSPost2010PropOp34
 70
     1
102
RTVSPost2010Prop35
280
     0
102
RTVSPost2010PropOp35
 70
     1
102
RTVSPost2010Prop36
280
     0
102
RTVSPost2010PropOp36
 70
     1
102
RTVSPost2010Prop37
 90
       50
102
RTVSPost2010PropOp37
 70
     1
102
RTVSPost2010Prop38
140
0.0
102
RTVSPost2010PropOp38
 70
     1
102
RTVSPost2010Prop39
140
1.0
102
RTVSPost2010PropOp39
 70
     1
102
RTVSPost2010Prop40
 90
        0
102
RTVSPost2010PropOp40
 70
     1
102
RTVSPost2010Prop41ColorIndex
 90
       18
102
RTVSPost2010Prop41ColorRGB
 90
        0
102
RTVSPost2010PropOp41
 70
     1
102
RTVSPost2010Prop42
 90
       50
102
RTVSPost2010PropOp42
 70
     1
102
RTVSPost2010Prop43
 90
        3
102
RTVSPost2010PropOp43
 70
     1
102
RTVSPost2010Prop44ColorIndex
 90
        5
102
RTVSPost2010Prop44ColorRGB
 90
      255
102
RTVSPost2010PropOp44
 70
     1
102
RTVSPost2010Prop45
280
     0
102
RTVSPost2010PropOp45
 70
     1
102
RTVSPost2010Prop46
 90
       50
102
RTVSPost2010PropOp46
 70
     1
102
RTVSPost2010Prop47
 90
       50
102
RTVSPost2010PropOp47
 70
     1
102
RTVSPost2010Prop48
 90
       50
102
RTVSPost2010PropOp48
 70
     1
102
RTVSPost2010Prop49
280
     0
102
RTVSPost2010PropOp49
 70
     1
102
RTVSPost2010Prop50
 90
       50
102
RTVSPost2010PropOp50
 70
     1
102
RTVSPost2010Prop51ColorIndex
 90
      256
102
RTVSPost2010Prop51ColorRGB
 90
-16777216
102
RTVSPost2010PropOp51
 70
     0
102
RTVSPost2010Prop52
140
1.0
102
RTVSPost2010PropOp52
 70
     0
102
RTVSPost2010Prop53
 90
        2
102
RTVSPost2010PropOp53
 70
     1
102
RTVSPost2010Prop54
  1
strokes_ogs.tif
102
RTVSPost2010PropOp54
 70
     1
102
RTVSPost2010Prop55
280
     0
102
RTVSPost2010PropOp55
 70
     1
102
RTVSPost2010Prop56
140
1.0
102
RTVSPost2010PropOp56
 70
     1
102
RTVSPost2010Prop57
140
1.0
102
RTVSPost2010PropOp57
 70
     1
  0
XRECORD
  5
105
102
{ACAD_REACTORS
330
104
102
}
330
104
100
AcDbXrecord
280
     1
102
RTVSPropertyOp0
 70
     1
102
RTVSPropertyOp1
 70
     1
102
RTVSPropertyOp2
 70
     1
102
RTVSPropertyOp3
 70
     1
102
RTVSPropertyOp4
 70
     1
102
RTVSPropertyOp5
 70
     1
102
RTVSPropertyOp6
 70
     1
102
RTVSPropertyOp7
 70
     1
102
RTVSPropertyOp8
 70
     1
102
RTVSPropertyOp9
 70
     1
102
RTVSPropertyOp10
 70
     1
102
RTVSPropertyOp11
 70
     1
102
RTVSPropertyOp12
 70
     1
102
RTVSPropertyOp13
 70
     1
102
RTVSPropertyOp14
 70
     1
102
RTVSPropertyOp15
 70
     1
102
RTVSPropertyOp16
 70
     1
102
RTVSPropertyOp17
 70
     1
102
RTVSPropertyOp18
 70
     1
102
RTVSPropertyOp19
 70
     1
102
RTVSPropertyOp20
 70
     1
102
RTVSPropertyOp21
 70
     1
102
RTVSPropertyOp22
 70
     1
102
RTVSPropertyOp23
 70
     1
102
RTVSPropertyOp24
 70
     1
102
RTVSPropertyOp25
 70
     1
102
RTVSPropertyOp26
 70
     1
102
RTVSPropertyOp27
 70
     1
102
RTVSPropertyOp28
 70
     1
102
RTVSPropertyOp29
 70
     1
102
RTVSPropertyOp30
 70
     1
102
RTVSPropertyOp31
 70
     1
102
RTVSPropertyOp32
 70
     1
102
RTVSPropertyOp33
 70
     1
102
RTVSPropertyOp34
 70
     1
102
RTVSPropertyOp35
 70
     1
102
RTVSPropertyOp36
 70
     1
102
RTVSPropertyOp37
 70
     1
102
RTVSPropertyOp38
 70
     1
102
RTVSPropertyOp39
 70
     1
102
RTVSPropertyOp40
 70
     1
102
RTVSPropertyOp41
 70
     1
102
RTVSPropertyOp42
 70
     1
102
RTVSPropertyOp43
 70
     1
102
RTVSPropertyOp44
 70
     1
102
RTVSPropertyOp45
 70
     1
102
RTVSPropertyOp46
 70
     1
102
RTVSPropertyOp47
 70
     1
102
RTVSPropertyOp48
 70
     1
102
RTVSPropertyOp49
 70
     1
102
RTVSPropertyOp50
 70
     1
102
RTVSPropertyOp51
 70
     0
102
RTVSPropertyOp52
 70
     0
102
RTVSPropertyOp53
 70
     1
102
RTVSPropertyOp54
 70
     1
102
RTVSPropertyOp55
 70
     1
102
RTVSPropertyOp56
 70
     1
102
RTVSPropertyOp57
 70
     1
102
RTVSPost2010Prop28
280
     0
102
RTVSPost2010PropOp28
 70
     1
102
RTVSPost2010Prop29
280
     1
102
RTVSPost2010PropOp29
 70
     1
102
RTVSPost2010Prop30
280
     1
102
RTVSPost2010PropOp30
 70
     1
102
RTVSPost2010Prop31
280
     0
102
RTVSPost2010PropOp31
 70
     1
102
RTVSPost2010Prop32
280
     0
102
RTVSPost2010PropOp32
 70
     1
102
RTVSPost2010Prop33
280
     0
102
RTVSPost2010PropOp33
 70
     1
102
RTVSPost2010Prop34
280
     0
102
RTVSPost2010PropOp34
 70
     1
102
RTVSPost2010Prop35
280
     0
102
RTVSPost2010PropOp35
 70
     1
102
RTVSPost2010Prop36
280
     0
102
RTVSPost2010PropOp36
 70
     1
102
RTVSPost2010Prop37
 90
       50
102
RTVSPost2010PropOp37
 70
     1
102
RTVSPost2010Prop38
140
0.0
102
RTVSPost2010PropOp38
 70
     1
102
RTVSPost2010Prop39
140
1.0
102
RTVSPost2010PropOp39
 70
     1
102
RTVSPost2010Prop40
 90
        0
102
RTVSPost2010PropOp40
 70
     1
102
RTVSPost2010Prop41ColorIndex
 90
       18
102
RTVSPost2010Prop41ColorRGB
 90
        0
102
RTVSPost2010PropOp41
 70
     1
102
RTVSPost2010Prop42
 90
       50
102
RTVSPost2010PropOp42
 70
     1
102
RTVSPost2010Prop43
 90
        3
102
RTVSPost2010PropOp43
 70
     1
102
RTVSPost2010Prop44ColorIndex
 90
        5
102
RTVSPost2010Prop44ColorRGB
 90
      255
102
RTVSPost2010PropOp44
 70
     1
102
RTVSPost2010Prop45
280
     0
102
RTVSPost2010PropOp45
 70
     1
102
RTVSPost2010Prop46
 90
       50
102
RTVSPost2010PropOp46
 70
     1
102
RTVSPost2010Prop47
 90
       50
102
RTVSPost2010PropOp47
 70
     1
102
RTVSPost2010Prop48
 90
       50
102
RTVSPost2010PropOp48
 70
     1
102
RTVSPost2010Prop49
280
     0
102
RTVSPost2010PropOp49
 70
     1
102
RTVSPost2010Prop50
 90
       50
102
RTVSPost2010PropOp50
 70
     1
102
RTVSPost2010Prop51ColorIndex
 90
      256
102
RTVSPost2010Prop51ColorRGB
 90
-16777216
102
RTVSPost2010PropOp51
 70
     0
102
RTVSPost2010Prop52
140
1.0
102
RTVSPost2010PropOp52
 70
     0
102
RTVSPost2010Prop53
 90
        2
102
RTVSPost2010PropOp53
 70
     1
102
RTVSPost2010Prop54
  1
strokes_ogs.tif
102
RTVSPost2010PropOp54
 70
     1
102
RTVSPost2010Prop55
280
     0
102
RTVSPost2010PropOp55
 70
     1
102
RTVSPost2010Prop56
140
1.0
102
RTVSPost2010PropOp56
 70
     1
102
RTVSPost2010Prop57
140
1.0
102
RTVSPost2010PropOp57
 70
     1
  0
XRECORD
  5
103
102
{ACAD_REACTORS
330
102
102
}
330
102
100
AcDbXrecord
280
     1
102
RTVSPropertyOp0
 70
     1
102
RTVSPropertyOp1
 70
     1
102
RTVSPropertyOp2
 70
     1
102
RTVSPropertyOp3
 70
     1
102
RTVSPropertyOp4
 70
     1
102
RTVSPropertyOp5
 70
     1
102
RTVSPropertyOp6
 70
     1
102
RTVSPropertyOp7
 70
     1
102
RTVSPropertyOp8
 70
     1
102
RTVSPropertyOp9
 70
     1
102
RTVSPropertyOp10
 70
     1
102
RTVSPropertyOp11
 70
     1
102
RTVSPropertyOp12
 70
     1
102
RTVSPropertyOp13
 70
     1
102
RTVSPropertyOp14
 70
     1
102
RTVSPropertyOp15
 70
     1
102
RTVSPropertyOp16
 70
     1
102
RTVSPropertyOp17
 70
     1
102
RTVSPropertyOp18
 70
     1
102
RTVSPropertyOp19
 70
     1
102
RTVSPropertyOp20
 70
     1
102
RTVSPropertyOp21
 70
     1
102
RTVSPropertyOp22
 70
     1
102
RTVSPropertyOp23
 70
     1
102
RTVSPropertyOp24
 70
     1
102
RTVSPropertyOp25
 70
     1
102
RTVSPropertyOp26
 70
     1
102
RTVSPropertyOp27
 70
     1
102
RTVSPropertyOp28
 70
     1
102
RTVSPropertyOp29
 70
     1
102
RTVSPropertyOp30
 70
     1
102
RTVSPropertyOp31
 70
     1
102
RTVSPropertyOp32
 70
     1
102
RTVSPropertyOp33
 70
     1
102
RTVSPropertyOp34
 70
     1
102
RTVSPropertyOp35
 70
     1
102
RTVSPropertyOp36
 70
     1
102
RTVSPropertyOp37
 70
     1
102
RTVSPropertyOp38
 70
     1
102
RTVSPropertyOp39
 70
     1
102
RTVSPropertyOp40
 70
     1
102
RTVSPropertyOp41
 70
     1
102
RTVSPropertyOp42
 70
     1
102
RTVSPropertyOp43
 70
     1
102
RTVSPropertyOp44
 70
     1
102
RTVSPropertyOp45
 70
     1
102
RTVSPropertyOp46
 70
     1
102
RTVSPropertyOp47
 70
     1
102
RTVSPropertyOp48
 70
     1
102
RTVSPropertyOp49
 70
     1
102
RTVSPropertyOp50
 70
     1
102
RTVSPropertyOp51
 70
     0
102
RTVSPropertyOp52
 70
     0
102
RTVSPropertyOp53
 70
     1
102
RTVSPropertyOp54
 70
     1
102
RTVSPropertyOp55
 70
     1
102
RTVSPropertyOp56
 70
     1
102
RTVSPropertyOp57
 70
     1
102
RTVSPost2010Prop28
280
     0
102
RTVSPost2010PropOp28
 70
     1
102
RTVSPost2010Prop29
280
     1
102
RTVSPost2010PropOp29
 70
     1
102
RTVSPost2010Prop30
280
     1
102
RTVSPost2010PropOp30
 70
     1
102
RTVSPost2010Prop31
280
     0
102
RTVSPost2010PropOp31
 70
     1
102
RTVSPost2010Prop32
280
     0
102
RTVSPost2010PropOp32
 70
     1
102
RTVSPost2010Prop33
280
     0
102
RTVSPost2010PropOp33
 70
     1
102
RTVSPost2010Prop34
280
     0
102
RTVSPost2010PropOp34
 70
     1
102
RTVSPost2010Prop35
280
     0
102
RTVSPost2010PropOp35
 70
     1
102
RTVSPost2010Prop36
280
     0
102
RTVSPost2010PropOp36
 70
     1
102
RTVSPost2010Prop37
 90
       50
102
RTVSPost2010PropOp37
 70
     1
102
RTVSPost2010Prop38
140
0.0
102
RTVSPost2010PropOp38
 70
     1
102
RTVSPost2010Prop39
140
1.0
102
RTVSPost2010PropOp39
 70
     1
102
RTVSPost2010Prop40
 90
        0
102
RTVSPost2010PropOp40
 70
     1
102
RTVSPost2010Prop41ColorIndex
 90
       18
102
RTVSPost2010Prop41ColorRGB
 90
        0
102
RTVSPost2010PropOp41
 70
     1
102
RTVSPost2010Prop42
 90
       50
102
RTVSPost2010PropOp42
 70
     1
102
RTVSPost2010Prop43
 90
        3
102
RTVSPost2010PropOp43
 70
     1
102
RTVSPost2010Prop44ColorIndex
 90
        5
102
RTVSPost2010Prop44ColorRGB
 90
      255
102
RTVSPost2010PropOp44
 70
     1
102
RTVSPost2010Prop45
280
     0
102
RTVSPost2010PropOp45
 70
     1
102
RTVSPost2010Prop46
 90
       50
102
RTVSPost2010PropOp46
 70
     1
102
RTVSPost2010Prop47
 90
       50
102
RTVSPost2010PropOp47
 70
     1
102
RTVSPost2010Prop48
 90
       50
102
RTVSPost2010PropOp48
 70
     1
102
RTVSPost2010Prop49
280
     0
102
RTVSPost2010PropOp49
 70
     1
102
RTVSPost2010Prop50
 90
       50
102
RTVSPost2010PropOp50
 70
     1
102
RTVSPost2010Prop51ColorIndex
 90
      256
102
RTVSPost2010Prop51ColorRGB
 90
-16777216
102
RTVSPost2010PropOp51
 70
     0
102
RTVSPost2010Prop52
140
1.0
102
RTVSPost2010PropOp52
 70
     0
102
RTVSPost2010Prop53
 90
        2
102
RTVSPost2010PropOp53
 70
     1
102
RTVSPost2010Prop54
  1
strokes_ogs.tif
102
RTVSPost2010PropOp54
 70
     1
102
RTVSPost2010Prop55
280
     0
102
RTVSPost2010PropOp55
 70
     1
102
RTVSPost2010Prop56
140
1.0
102
RTVSPost2010PropOp56
 70
     1
102
RTVSPost2010Prop57
140
1.0
102
RTVSPost2010PropOp57
 70
     1
  0
XRECORD
  5
FD
102
{ACAD_REACTORS
330
FC
102
}
330
FC
100
AcDbXrecord
280
     1
102
RTVSPropertyOp0
 70
     1
102
RTVSPropertyOp1
 70
     1
102
RTVSPropertyOp2
 70
     1
102
RTVSPropertyOp3
 70
     1
102
RTVSPropertyOp4
 70
     1
102
RTVSPropertyOp5
 70
     1
102
RTVSPropertyOp6
 70
     1
102
RTVSPropertyOp7
 70
     1
102
RTVSPropertyOp8
 70
     1
102
RTVSPropertyOp9
 70
     1
102
RTVSPropertyOp10
 70
     1
102
RTVSPropertyOp11
 70
     1
102
RTVSPropertyOp12
 70
     1
102
RTVSPropertyOp13
 70
     1
102
RTVSPropertyOp14
 70
     1
102
RTVSPropertyOp15
 70
     1
102
RTVSPropertyOp16
 70
     1
102
RTVSPropertyOp17
 70
     1
102
RTVSPropertyOp18
 70
     1
102
RTVSPropertyOp19
 70
     1
102
RTVSPropertyOp20
 70
     1
102
RTVSPropertyOp21
 70
     1
102
RTVSPropertyOp22
 70
     1
102
RTVSPropertyOp23
 70
     1
102
RTVSPropertyOp24
 70
     1
102
RTVSPropertyOp25
 70
     1
102
RTVSPropertyOp26
 70
     1
102
RTVSPropertyOp27
 70
     1
102
RTVSPropertyOp28
 70
     1
102
RTVSPropertyOp29
 70
     1
102
RTVSPropertyOp30
 70
     1
102
RTVSPropertyOp31
 70
     1
102
RTVSPropertyOp32
 70
     1
102
RTVSPropertyOp33
 70
     1
102
RTVSPropertyOp34
 70
     1
102
RTVSPropertyOp35
 70
     1
102
RTVSPropertyOp36
 70
     1
102
RTVSPropertyOp37
 70
     1
102
RTVSPropertyOp38
 70
     1
102
RTVSPropertyOp39
 70
     1
102
RTVSPropertyOp40
 70
     1
102
RTVSPropertyOp41
 70
     1
102
RTVSPropertyOp42
 70
     1
102
RTVSPropertyOp43
 70
     1
102
RTVSPropertyOp44
 70
     1
102
RTVSPropertyOp45
 70
     1
102
RTVSPropertyOp46
 70
     1
102
RTVSPropertyOp47
 70
     1
102
RTVSPropertyOp48
 70
     1
102
RTVSPropertyOp49
 70
     1
102
RTVSPropertyOp50
 70
     1
102
RTVSPropertyOp51
 70
     0
102
RTVSPropertyOp52
 70
     0
102
RTVSPropertyOp53
 70
     1
102
RTVSPropertyOp54
 70
     1
102
RTVSPropertyOp55
 70
     1
102
RTVSPropertyOp56
 70
     1
102
RTVSPropertyOp57
 70
     1
102
RTVSPost2010Prop28
280
     0
102
RTVSPost2010PropOp28
 70
     1
102
RTVSPost2010Prop29
280
     1
102
RTVSPost2010PropOp29
 70
     1
102
RTVSPost2010Prop30
280
     1
102
RTVSPost2010PropOp30
 70
     1
102
RTVSPost2010Prop31
280
     0
102
RTVSPost2010PropOp31
 70
     1
102
RTVSPost2010Prop32
280
     0
102
RTVSPost2010PropOp32
 70
     1
102
RTVSPost2010Prop33
280
     0
102
RTVSPost2010PropOp33
 70
     1
102
RTVSPost2010Prop34
280
     0
102
RTVSPost2010PropOp34
 70
     1
102
RTVSPost2010Prop35
280
     0
102
RTVSPost2010PropOp35
 70
     1
102
RTVSPost2010Prop36
280
     0
102
RTVSPost2010PropOp36
 70
     1
102
RTVSPost2010Prop37
 90
       50
102
RTVSPost2010PropOp37
 70
     1
102
RTVSPost2010Prop38
140
0.0
102
RTVSPost2010PropOp38
 70
     1
102
RTVSPost2010Prop39
140
1.0
102
RTVSPost2010PropOp39
 70
     1
102
RTVSPost2010Prop40
 90
        0
102
RTVSPost2010PropOp40
 70
     1
102
RTVSPost2010Prop41ColorIndex
 90
       18
102
RTVSPost2010Prop41ColorRGB
 90
        0
102
RTVSPost2010PropOp41
 70
     1
102
RTVSPost2010Prop42
 90
       50
102
RTVSPost2010PropOp42
 70
     1
102
RTVSPost2010Prop43
 90
        3
102
RTVSPost2010PropOp43
 70
     1
102
RTVSPost2010Prop44ColorIndex
 90
        5
102
RTVSPost2010Prop44ColorRGB
 90
      255
102
RTVSPost2010PropOp44
 70
     1
102
RTVSPost2010Prop45
280
     0
102
RTVSPost2010PropOp45
 70
     1
102
RTVSPost2010Prop46
 90
       50
102
RTVSPost2010PropOp46
 70
     1
102
RTVSPost2010Prop47
 90
       50
102
RTVSPost2010PropOp47
 70
     1
102
RTVSPost2010Prop48
 90
       50
102
RTVSPost2010PropOp48
 70
     1
102
RTVSPost2010Prop49
280
     0
102
RTVSPost2010PropOp49
 70
     1
102
RTVSPost2010Prop50
 90
       50
102
RTVSPost2010PropOp50
 70
     1
102
RTVSPost2010Prop51ColorIndex
 90
      256
102
RTVSPost2010Prop51ColorRGB
 90
-16777216
102
RTVSPost2010PropOp51
 70
     0
102
RTVSPost2010Prop52
140
1.0
102
RTVSPost2010PropOp52
 70
     0
102
RTVSPost2010Prop53
 90
        2
102
RTVSPost2010PropOp53
 70
     1
102
RTVSPost2010Prop54
  1
strokes_ogs.tif
102
RTVSPost2010PropOp54
 70
     1
102
RTVSPost2010Prop55
280
     0
102
RTVSPost2010PropOp55
 70
     1
102
RTVSPost2010Prop56
140
1.0
102
RTVSPost2010PropOp56
 70
     1
102
RTVSPost2010Prop57
140
1.0
102
RTVSPost2010PropOp57
 70
     1
  0
XRECORD
  5
FF
102
{ACAD_REACTORS
330
FE
102
}
330
FE
100
AcDbXrecord
280
     1
102
RTVSPropertyOp0
 70
     1
102
RTVSPropertyOp1
 70
     1
102
RTVSPropertyOp2
 70
     1
102
RTVSPropertyOp3
 70
     1
102
RTVSPropertyOp4
 70
     1
102
RTVSPropertyOp5
 70
     1
102
RTVSPropertyOp6
 70
     1
102
RTVSPropertyOp7
 70
     1
102
RTVSPropertyOp8
 70
     1
102
RTVSPropertyOp9
 70
     1
102
RTVSPropertyOp10
 70
     1
102
RTVSPropertyOp11
 70
     1
102
RTVSPropertyOp12
 70
     1
102
RTVSPropertyOp13
 70
     1
102
RTVSPropertyOp14
 70
     1
102
RTVSPropertyOp15
 70
     1
102
RTVSPropertyOp16
 70
     1
102
RTVSPropertyOp17
 70
     1
102
RTVSPropertyOp18
 70
     1
102
RTVSPropertyOp19
 70
     1
102
RTVSPropertyOp20
 70
     1
102
RTVSPropertyOp21
 70
     1
102
RTVSPropertyOp22
 70
     1
102
RTVSPropertyOp23
 70
     1
102
RTVSPropertyOp24
 70
     1
102
RTVSPropertyOp25
 70
     1
102
RTVSPropertyOp26
 70
     1
102
RTVSPropertyOp27
 70
     1
102
RTVSPropertyOp28
 70
     1
102
RTVSPropertyOp29
 70
     1
102
RTVSPropertyOp30
 70
     1
102
RTVSPropertyOp31
 70
     1
102
RTVSPropertyOp32
 70
     1
102
RTVSPropertyOp33
 70
     1
102
RTVSPropertyOp34
 70
     1
102
RTVSPropertyOp35
 70
     1
102
RTVSPropertyOp36
 70
     1
102
RTVSPropertyOp37
 70
     1
102
RTVSPropertyOp38
 70
     1
102
RTVSPropertyOp39
 70
     1
102
RTVSPropertyOp40
 70
     1
102
RTVSPropertyOp41
 70
     1
102
RTVSPropertyOp42
 70
     1
102
RTVSPropertyOp43
 70
     1
102
RTVSPropertyOp44
 70
     1
102
RTVSPropertyOp45
 70
     1
102
RTVSPropertyOp46
 70
     1
102
RTVSPropertyOp47
 70
     1
102
RTVSPropertyOp48
 70
     1
102
RTVSPropertyOp49
 70
     1
102
RTVSPropertyOp50
 70
     1
102
RTVSPropertyOp51
 70
     0
102
RTVSPropertyOp52
 70
     0
102
RTVSPropertyOp53
 70
     1
102
RTVSPropertyOp54
 70
     1
102
RTVSPropertyOp55
 70
     1
102
RTVSPropertyOp56
 70
     1
102
RTVSPropertyOp57
 70
     1
102
RTVSPost2010Prop28
280
     0
102
RTVSPost2010PropOp28
 70
     1
102
RTVSPost2010Prop29
280
     1
102
RTVSPost2010PropOp29
 70
     1
102
RTVSPost2010Prop30
280
     1
102
RTVSPost2010PropOp30
 70
     1
102
RTVSPost2010Prop31
280
     0
102
RTVSPost2010PropOp31
 70
     1
102
RTVSPost2010Prop32
280
     0
102
RTVSPost2010PropOp32
 70
     1
102
RTVSPost2010Prop33
280
     0
102
RTVSPost2010PropOp33
 70
     1
102
RTVSPost2010Prop34
280
     0
102
RTVSPost2010PropOp34
 70
     1
102
RTVSPost2010Prop35
280
     0
102
RTVSPost2010PropOp35
 70
     1
102
RTVSPost2010Prop36
280
     0
102
RTVSPost2010PropOp36
 70
     1
102
RTVSPost2010Prop37
 90
       50
102
RTVSPost2010PropOp37
 70
     1
102
RTVSPost2010Prop38
140
0.0
102
RTVSPost2010PropOp38
 70
     1
102
RTVSPost2010Prop39
140
1.0
102
RTVSPost2010PropOp39
 70
     1
102
RTVSPost2010Prop40
 90
        0
102
RTVSPost2010PropOp40
 70
     1
102
RTVSPost2010Prop41ColorIndex
 90
       18
102
RTVSPost2010Prop41ColorRGB
 90
        0
102
RTVSPost2010PropOp41
 70
     1
102
RTVSPost2010Prop42
 90
       50
102
RTVSPost2010PropOp42
 70
     1
102
RTVSPost2010Prop43
 90
        3
102
RTVSPost2010PropOp43
 70
     1
102
RTVSPost2010Prop44ColorIndex
 90
        5
102
RTVSPost2010Prop44ColorRGB
 90
      255
102
RTVSPost2010PropOp44
 70
     1
102
RTVSPost2010Prop45
280
     0
102
RTVSPost2010PropOp45
 70
     1
102
RTVSPost2010Prop46
 90
       50
102
RTVSPost2010PropOp46
 70
     1
102
RTVSPost2010Prop47
 90
       50
102
RTVSPost2010PropOp47
 70
     1
102
RTVSPost2010Prop48
 90
       50
102
RTVSPost2010PropOp48
 70
     1
102
RTVSPost2010Prop49
280
     0
102
RTVSPost2010PropOp49
 70
     1
102
RTVSPost2010Prop50
 90
       50
102
RTVSPost2010PropOp50
 70
     1
102
RTVSPost2010Prop51ColorIndex
 90
      256
102
RTVSPost2010Prop51ColorRGB
 90
-16777216
102
RTVSPost2010PropOp51
 70
     0
102
RTVSPost2010Prop52
140
1.0
102
RTVSPost2010PropOp52
 70
     0
102
RTVSPost2010Prop53
 90
        2
102
RTVSPost2010PropOp53
 70
     1
102
RTVSPost2010Prop54
  1
strokes_ogs.tif
102
RTVSPost2010PropOp54
 70
     1
102
RTVSPost2010Prop55
280
     0
102
RTVSPost2010PropOp55
 70
     1
102
RTVSPost2010Prop56
140
1.0
102
RTVSPost2010PropOp56
 70
     1
102
RTVSPost2010Prop57
140
1.0
102
RTVSPost2010PropOp57
 70
     1
  0
XRECORD
  5
EF
102
{ACAD_REACTORS
330
EE
102
}
330
EE
100
AcDbXrecord
280
     1
102
RTVSPropertyOp0
 70
     1
102
RTVSPropertyOp1
 70
     1
102
RTVSPropertyOp2
 70
     1
102
RTVSPropertyOp3
 70
     1
102
RTVSPropertyOp4
 70
     1
102
RTVSPropertyOp5
 70
     1
102
RTVSPropertyOp6
 70
     1
102
RTVSPropertyOp7
 70
     1
102
RTVSPropertyOp8
 70
     1
102
RTVSPropertyOp9
 70
     1
102
RTVSPropertyOp10
 70
     1
102
RTVSPropertyOp11
 70
     1
102
RTVSPropertyOp12
 70
     1
102
RTVSPropertyOp13
 70
     1
102
RTVSPropertyOp14
 70
     1
102
RTVSPropertyOp15
 70
     1
102
RTVSPropertyOp16
 70
     1
102
RTVSPropertyOp17
 70
     1
102
RTVSPropertyOp18
 70
     1
102
RTVSPropertyOp19
 70
     1
102
RTVSPropertyOp20
 70
     1
102
RTVSPropertyOp21
 70
     1
102
RTVSPropertyOp22
 70
     1
102
RTVSPropertyOp23
 70
     1
102
RTVSPropertyOp24
 70
     1
102
RTVSPropertyOp25
 70
     1
102
RTVSPropertyOp26
 70
     1
102
RTVSPropertyOp27
 70
     1
102
RTVSPropertyOp28
 70
     1
102
RTVSPropertyOp29
 70
     1
102
RTVSPropertyOp30
 70
     1
102
RTVSPropertyOp31
 70
     1
102
RTVSPropertyOp32
 70
     1
102
RTVSPropertyOp33
 70
     1
102
RTVSPropertyOp34
 70
     1
102
RTVSPropertyOp35
 70
     1
102
RTVSPropertyOp36
 70
     1
102
RTVSPropertyOp37
 70
     1
102
RTVSPropertyOp38
 70
     1
102
RTVSPropertyOp39
 70
     1
102
RTVSPropertyOp40
 70
     1
102
RTVSPropertyOp41
 70
     1
102
RTVSPropertyOp42
 70
     1
102
RTVSPropertyOp43
 70
     1
102
RTVSPropertyOp44
 70
     1
102
RTVSPropertyOp45
 70
     1
102
RTVSPropertyOp46
 70
     1
102
RTVSPropertyOp47
 70
     1
102
RTVSPropertyOp48
 70
     1
102
RTVSPropertyOp49
 70
     1
102
RTVSPropertyOp50
 70
     1
102
RTVSPropertyOp51
 70
     0
102
RTVSPropertyOp52
 70
     0
102
RTVSPropertyOp53
 70
     1
102
RTVSPropertyOp54
 70
     1
102
RTVSPropertyOp55
 70
     1
102
RTVSPropertyOp56
 70
     1
102
RTVSPropertyOp57
 70
     1
102
RTVSPost2010Prop28
280
     0
102
RTVSPost2010PropOp28
 70
     1
102
RTVSPost2010Prop29
280
     1
102
RTVSPost2010PropOp29
 70
     1
102
RTVSPost2010Prop30
280
     1
102
RTVSPost2010PropOp30
 70
     1
102
RTVSPost2010Prop31
280
     0
102
RTVSPost2010PropOp31
 70
     1
102
RTVSPost2010Prop32
280
     0
102
RTVSPost2010PropOp32
 70
     1
102
RTVSPost2010Prop33
280
     0
102
RTVSPost2010PropOp33
 70
     1
102
RTVSPost2010Prop34
280
     0
102
RTVSPost2010PropOp34
 70
     1
102
RTVSPost2010Prop35
280
     0
102
RTVSPost2010PropOp35
 70
     1
102
RTVSPost2010Prop36
280
     0
102
RTVSPost2010PropOp36
 70
     1
102
RTVSPost2010Prop37
 90
       50
102
RTVSPost2010PropOp37
 70
     1
102
RTVSPost2010Prop38
140
0.0
102
RTVSPost2010PropOp38
 70
     1
102
RTVSPost2010Prop39
140
1.0
102
RTVSPost2010PropOp39
 70
     1
102
RTVSPost2010Prop40
 90
        0
102
RTVSPost2010PropOp40
 70
     1
102
RTVSPost2010Prop41ColorIndex
 90
       18
102
RTVSPost2010Prop41ColorRGB
 90
        0
102
RTVSPost2010PropOp41
 70
     1
102
RTVSPost2010Prop42
 90
       50
102
RTVSPost2010PropOp42
 70
     1
102
RTVSPost2010Prop43
 90
        3
102
RTVSPost2010PropOp43
 70
     1
102
RTVSPost2010Prop44ColorIndex
 90
        5
102
RTVSPost2010Prop44ColorRGB
 90
      255
102
RTVSPost2010PropOp44
 70
     1
102
RTVSPost2010Prop45
280
     0
102
RTVSPost2010PropOp45
 70
     1
102
RTVSPost2010Prop46
 90
       50
102
RTVSPost2010PropOp46
 70
     1
102
RTVSPost2010Prop47
 90
       50
102
RTVSPost2010PropOp47
 70
     1
102
RTVSPost2010Prop48
 90
       50
102
RTVSPost2010PropOp48
 70
     1
102
RTVSPost2010Prop49
280
     0
102
RTVSPost2010PropOp49
 70
     1
102
RTVSPost2010Prop50
 90
       50
102
RTVSPost2010PropOp50
 70
     1
102
RTVSPost2010Prop51ColorIndex
 90
      256
102
RTVSPost2010Prop51ColorRGB
 90
-16777216
102
RTVSPost2010PropOp51
 70
     0
102
RTVSPost2010Prop52
140
1.0
102
RTVSPost2010PropOp52
 70
     0
102
RTVSPost2010Prop53
 90
        2
102
RTVSPost2010PropOp53
 70
     1
102
RTVSPost2010Prop54
  1
strokes_ogs.tif
102
RTVSPost2010PropOp54
 70
     1
102
RTVSPost2010Prop55
280
     0
102
RTVSPost2010PropOp55
 70
     1
102
RTVSPost2010Prop56
140
1.0
102
RTVSPost2010PropOp56
 70
     1
102
RTVSPost2010Prop57
140
1.0
102
RTVSPost2010PropOp57
 70
     1
  0
XRECORD
  5
E1
102
{ACAD_REACTORS
330
E0
102
}
330
E0
100
AcDbXrecord
280
     1
102
RTVSPropertyOp0
 70
     1
102
RTVSPropertyOp1
 70
     1
102
RTVSPropertyOp2
 70
     1
102
RTVSPropertyOp3
 70
     1
102
RTVSPropertyOp4
 70
     1
102
RTVSPropertyOp5
 70
     1
102
RTVSPropertyOp6
 70
     1
102
RTVSPropertyOp7
 70
     1
102
RTVSPropertyOp8
 70
     1
102
RTVSPropertyOp9
 70
     1
102
RTVSPropertyOp10
 70
     1
102
RTVSPropertyOp11
 70
     1
102
RTVSPropertyOp12
 70
     1
102
RTVSPropertyOp13
 70
     1
102
RTVSPropertyOp14
 70
     1
102
RTVSPropertyOp15
 70
     1
102
RTVSPropertyOp16
 70
     1
102
RTVSPropertyOp17
 70
     1
102
RTVSPropertyOp18
 70
     1
102
RTVSPropertyOp19
 70
     1
102
RTVSPropertyOp20
 70
     1
102
RTVSPropertyOp21
 70
     1
102
RTVSPropertyOp22
 70
     1
102
RTVSPropertyOp23
 70
     1
102
RTVSPropertyOp24
 70
     1
102
RTVSPropertyOp25
 70
     1
102
RTVSPropertyOp26
 70
     1
102
RTVSPropertyOp27
 70
     1
102
RTVSPropertyOp28
 70
     1
102
RTVSPropertyOp29
 70
     1
102
RTVSPropertyOp30
 70
     1
102
RTVSPropertyOp31
 70
     1
102
RTVSPropertyOp32
 70
     1
102
RTVSPropertyOp33
 70
     1
102
RTVSPropertyOp34
 70
     1
102
RTVSPropertyOp35
 70
     1
102
RTVSPropertyOp36
 70
     1
102
RTVSPropertyOp37
 70
     1
102
RTVSPropertyOp38
 70
     1
102
RTVSPropertyOp39
 70
     1
102
RTVSPropertyOp40
 70
     1
102
RTVSPropertyOp41
 70
     1
102
RTVSPropertyOp42
 70
     1
102
RTVSPropertyOp43
 70
     1
102
RTVSPropertyOp44
 70
     1
102
RTVSPropertyOp45
 70
     1
102
RTVSPropertyOp46
 70
     1
102
RTVSPropertyOp47
 70
     1
102
RTVSPropertyOp48
 70
     1
102
RTVSPropertyOp49
 70
     1
102
RTVSPropertyOp50
 70
     1
102
RTVSPropertyOp51
 70
     0
102
RTVSPropertyOp52
 70
     0
102
RTVSPropertyOp53
 70
     1
102
RTVSPropertyOp54
 70
     1
102
RTVSPropertyOp55
 70
     1
102
RTVSPropertyOp56
 70
     1
102
RTVSPropertyOp57
 70
     1
102
RTVSPost2010Prop28
280
     0
102
RTVSPost2010PropOp28
 70
     1
102
RTVSPost2010Prop29
280
     1
102
RTVSPost2010PropOp29
 70
     1
102
RTVSPost2010Prop30
280
     1
102
RTVSPost2010PropOp30
 70
     1
102
RTVSPost2010Prop31
280
     0
102
RTVSPost2010PropOp31
 70
     1
102
RTVSPost2010Prop32
280
     0
102
RTVSPost2010PropOp32
 70
     1
102
RTVSPost2010Prop33
280
     0
102
RTVSPost2010PropOp33
 70
     1
102
RTVSPost2010Prop34
280
     0
102
RTVSPost2010PropOp34
 70
     1
102
RTVSPost2010Prop35
280
     0
102
RTVSPost2010PropOp35
 70
     1
102
RTVSPost2010Prop36
280
     0
102
RTVSPost2010PropOp36
 70
     1
102
RTVSPost2010Prop37
 90
       50
102
RTVSPost2010PropOp37
 70
     1
102
RTVSPost2010Prop38
140
0.0
102
RTVSPost2010PropOp38
 70
     1
102
RTVSPost2010Prop39
140
1.0
102
RTVSPost2010PropOp39
 70
     1
102
RTVSPost2010Prop40
 90
        0
102
RTVSPost2010PropOp40
 70
     1
102
RTVSPost2010Prop41ColorIndex
 90
       18
102
RTVSPost2010Prop41ColorRGB
 90
        0
102
RTVSPost2010PropOp41
 70
     1
102
RTVSPost2010Prop42
 90
       50
102
RTVSPost2010PropOp42
 70
     1
102
RTVSPost2010Prop43
 90
        3
102
RTVSPost2010PropOp43
 70
     1
102
RTVSPost2010Prop44ColorIndex
 90
        5
102
RTVSPost2010Prop44ColorRGB
 90
      255
102
RTVSPost2010PropOp44
 70
     1
102
RTVSPost2010Prop45
280
     0
102
RTVSPost2010PropOp45
 70
     1
102
RTVSPost2010Prop46
 90
       50
102
RTVSPost2010PropOp46
 70
     1
102
RTVSPost2010Prop47
 90
       50
102
RTVSPost2010PropOp47
 70
     1
102
RTVSPost2010Prop48
 90
       50
102
RTVSPost2010PropOp48
 70
     1
102
RTVSPost2010Prop49
280
     0
102
RTVSPost2010PropOp49
 70
     1
102
RTVSPost2010Prop50
 90
       50
102
RTVSPost2010PropOp50
 70
     1
102
RTVSPost2010Prop51ColorIndex
 90
      256
102
RTVSPost2010Prop51ColorRGB
 90
-16777216
102
RTVSPost2010PropOp51
 70
     0
102
RTVSPost2010Prop52
140
1.0
102
RTVSPost2010PropOp52
 70
     0
102
RTVSPost2010Prop53
 90
        2
102
RTVSPost2010PropOp53
 70
     1
102
RTVSPost2010Prop54
  1
strokes_ogs.tif
102
RTVSPost2010PropOp54
 70
     1
102
RTVSPost2010Prop55
280
     0
102
RTVSPost2010PropOp55
 70
     1
102
RTVSPost2010Prop56
140
1.0
102
RTVSPost2010PropOp56
 70
     1
102
RTVSPost2010Prop57
140
1.0
102
RTVSPost2010PropOp57
 70
     1
  0
XRECORD
  5
101
102
{ACAD_REACTORS
330
100
102
}
330
100
100
AcDbXrecord
280
     1
102
RTVSPropertyOp0
 70
     1
102
RTVSPropertyOp1
 70
     1
102
RTVSPropertyOp2
 70
     1
102
RTVSPropertyOp3
 70
     1
102
RTVSPropertyOp4
 70
     1
102
RTVSPropertyOp5
 70
     1
102
RTVSPropertyOp6
 70
     1
102
RTVSPropertyOp7
 70
     1
102
RTVSPropertyOp8
 70
     1
102
RTVSPropertyOp9
 70
     1
102
RTVSPropertyOp10
 70
     1
102
RTVSPropertyOp11
 70
     1
102
RTVSPropertyOp12
 70
     1
102
RTVSPropertyOp13
 70
     1
102
RTVSPropertyOp14
 70
     1
102
RTVSPropertyOp15
 70
     1
102
RTVSPropertyOp16
 70
     1
102
RTVSPropertyOp17
 70
     1
102
RTVSPropertyOp18
 70
     1
102
RTVSPropertyOp19
 70
     1
102
RTVSPropertyOp20
 70
     1
102
RTVSPropertyOp21
 70
     1
102
RTVSPropertyOp22
 70
     1
102
RTVSPropertyOp23
 70
     1
102
RTVSPropertyOp24
 70
     1
102
RTVSPropertyOp25
 70
     1
102
RTVSPropertyOp26
 70
     1
102
RTVSPropertyOp27
 70
     1
102
RTVSPropertyOp28
 70
     1
102
RTVSPropertyOp29
 70
     1
102
RTVSPropertyOp30
 70
     1
102
RTVSPropertyOp31
 70
     1
102
RTVSPropertyOp32
 70
     1
102
RTVSPropertyOp33
 70
     1
102
RTVSPropertyOp34
 70
     1
102
RTVSPropertyOp35
 70
     1
102
RTVSPropertyOp36
 70
     1
102
RTVSPropertyOp37
 70
     1
102
RTVSPropertyOp38
 70
     1
102
RTVSPropertyOp39
 70
     1
102
RTVSPropertyOp40
 70
     1
102
RTVSPropertyOp41
 70
     1
102
RTVSPropertyOp42
 70
     1
102
RTVSPropertyOp43
 70
     1
102
RTVSPropertyOp44
 70
     1
102
RTVSPropertyOp45
 70
     1
102
RTVSPropertyOp46
 70
     1
102
RTVSPropertyOp47
 70
     1
102
RTVSPropertyOp48
 70
     1
102
RTVSPropertyOp49
 70
     1
102
RTVSPropertyOp50
 70
     1
102
RTVSPropertyOp51
 70
     0
102
RTVSPropertyOp52
 70
     0
102
RTVSPropertyOp53
 70
     1
102
RTVSPropertyOp54
 70
     1
102
RTVSPropertyOp55
 70
     1
102
RTVSPropertyOp56
 70
     1
102
RTVSPropertyOp57
 70
     1
102
RTVSPost2010Prop28
280
     0
102
RTVSPost2010PropOp28
 70
     1
102
RTVSPost2010Prop29
280
     1
102
RTVSPost2010PropOp29
 70
     1
102
RTVSPost2010Prop30
280
     1
102
RTVSPost2010PropOp30
 70
     1
102
RTVSPost2010Prop31
280
     0
102
RTVSPost2010PropOp31
 70
     1
102
RTVSPost2010Prop32
280
     0
102
RTVSPost2010PropOp32
 70
     1
102
RTVSPost2010Prop33
280
     0
102
RTVSPost2010PropOp33
 70
     1
102
RTVSPost2010Prop34
280
     0
102
RTVSPost2010PropOp34
 70
     1
102
RTVSPost2010Prop35
280
     0
102
RTVSPost2010PropOp35
 70
     1
102
RTVSPost2010Prop36
280
     0
102
RTVSPost2010PropOp36
 70
     1
102
RTVSPost2010Prop37
 90
       50
102
RTVSPost2010PropOp37
 70
     1
102
RTVSPost2010Prop38
140
0.0
102
RTVSPost2010PropOp38
 70
     1
102
RTVSPost2010Prop39
140
1.0
102
RTVSPost2010PropOp39
 70
     1
102
RTVSPost2010Prop40
 90
        0
102
RTVSPost2010PropOp40
 70
     1
102
RTVSPost2010Prop41ColorIndex
 90
       18
102
RTVSPost2010Prop41ColorRGB
 90
        0
102
RTVSPost2010PropOp41
 70
     1
102
RTVSPost2010Prop42
 90
       50
102
RTVSPost2010PropOp42
 70
     1
102
RTVSPost2010Prop43
 90
        3
102
RTVSPost2010PropOp43
 70
     1
102
RTVSPost2010Prop44ColorIndex
 90
        5
102
RTVSPost2010Prop44ColorRGB
 90
      255
102
RTVSPost2010PropOp44
 70
     1
102
RTVSPost2010Prop45
280
     0
102
RTVSPost2010PropOp45
 70
     1
102
RTVSPost2010Prop46
 90
       50
102
RTVSPost2010PropOp46
 70
     1
102
RTVSPost2010Prop47
 90
       50
102
RTVSPost2010PropOp47
 70
     1
102
RTVSPost2010Prop48
 90
       50
102
RTVSPost2010PropOp48
 70
     1
102
RTVSPost2010Prop49
280
     0
102
RTVSPost2010PropOp49
 70
     1
102
RTVSPost2010Prop50
 90
       50
102
RTVSPost2010PropOp50
 70
     1
102
RTVSPost2010Prop51ColorIndex
 90
      256
102
RTVSPost2010Prop51ColorRGB
 90
-16777216
102
RTVSPost2010PropOp51
 70
     0
102
RTVSPost2010Prop52
140
1.0
102
RTVSPost2010PropOp52
 70
     0
102
RTVSPost2010Prop53
 90
        2
102
RTVSPost2010PropOp53
 70
     1
102
RTVSPost2010Prop54
  1
strokes_ogs.tif
102
RTVSPost2010PropOp54
 70
     1
102
RTVSPost2010Prop55
280
     0
102
RTVSPost2010PropOp55
 70
     1
102
RTVSPost2010Prop56
140
1.0
102
RTVSPost2010PropOp56
 70
     1
102
RTVSPost2010Prop57
140
1.0
102
RTVSPost2010PropOp57
 70
     1
  0
ENDSEC
  0
EOF
