  0
SECTION
  2
HEADER
  9
$ACADVER
  1
AC1024
  9
$ACADMAINTVER
 70
     6
  9
$DWGCODEPAGE
  3
ANSI_1252
  9
$INSBASE
 10
0.0
 20
0.0
 30
0.0
  9
$EXTMIN
 10
1.000000000000000E+20
 20
1.000000000000000E+20
 30
1.000000000000000E+20
  9
$EXTMAX
 10
-1.000000000000000E+20
 20
-1.000000000000000E+20
 30
-1.000000000000000E+20
  9
$LIMMIN
 10
0.0
 20
0.0
  9
$LIMMAX
 10
12.0
 20
9.0
  9
$ORTHOMODE
 70
     0
  9
$REGENMODE
 70
     1
  9
$FILLMODE
 70
     1
  9
$QTEXTMODE
 70
     0
  9
$MIRRTEXT
 70
     1
  9
$LTSCALE
 40
1.0
  9
$ATTMODE
 70
     1
  9
$TEXTSIZE
 40
0.2
  9
$TRACEWID
 40
0.05
  9
$TEXTSTYLE
  7
Standard
  9
$CLAYER
  8
0
  9
$CELTYPE
  6
ByLayer
  9
$CECOLOR
 62
   256
  9
$CELTSCALE
 40
1.0
  9
$DISPSILH
 70
     0
  9
$DIMSCALE
 40
1.0
  9
$DIMASZ
 40
0.18
  9
$DIMEXO
 40
0.0625
  9
$DIMDLI
 40
0.38
  9
$DIMRND
 40
0.0
  9
$DIMDLE
 40
0.0
  9
$DIMEXE
 40
0.18
  9
$DIMTP
 40
0.0
  9
$DIMTM
 40
0.0
  9
$DIMTXT
 40
0.18
  9
$DIMCEN
 40
0.09
  9
$DIMTSZ
 40
0.0
  9
$DIMTOL
 70
     0
  9
$DIMLIM
 70
     0
  9
$DIMTIH
 70
     1
  9
$DIMTOH
 70
     1
  9
$DIMSE1
 70
     0
  9
$DIMSE2
 70
     0
  9
$DIMTAD
 70
     0
  9
$DIMZIN
 70
     0
  9
$DIMBLK
  1

  9
$DIMASO
 70
     1
  9
$DIMSHO
 70
     1
  9
$DIMPOST
  1

  9
$DIMAPOST
  1

  9
$DIMALT
 70
     0
  9
$DIMALTD
 70
     2
  9
$DIMALTF
 40
25.4
  9
$DIMLFAC
 40
1.0
  9
$DIMTOFL
 70
     0
  9
$DIMTVP
 40
0.0
  9
$DIMTIX
 70
     0
  9
$DIMSOXD
 70
     0
  9
$DIMSAH
 70
     0
  9
$DIMBLK1
  1

  9
$DIMBLK2
  1

  9
$DIMSTYLE
  2
Standard
  9
$DIMCLRD
 70
     0
  9
$DIMCLRE
 70
     0
  9
$DIMCLRT
 70
     0
  9
$DIMTFAC
 40
1.0
  9
$DIMGAP
 40
0.09
  9
$DIMJUST
 70
     0
  9
$DIMSD1
 70
     0
  9
$DIMSD2
 70
     0
  9
$DIMTOLJ
 70
     1
  9
$DIMTZIN
 70
     0
  9
$DIMALTZ
 70
     0
  9
$DIMALTTZ
 70
     0
  9
$DIMUPT
 70
     0
  9
$DIMDEC
 70
     4
  9
$DIMTDEC
 70
     4
  9
$DIMALTU
 70
     2
  9
$DIMALTTD
 70
     2
  9
$DIMTXSTY
  7
Standard
  9
$DIMAUNIT
 70
     0
  9
$DIMADEC
 70
     0
  9
$DIMALTRND
 40
0.0
  9
$DIMAZIN
 70
     0
  9
$DIMDSEP
 70
    46
  9
$DIMATFIT
 70
     3
  9
$DIMFRAC
 70
     0
  9
$DIMLDRBLK
  1

  9
$DIMLUNIT
 70
     2
  9
$DIMLWD
 70
    -2
  9
$DIMLWE
 70
    -2
  9
$DIMTMOVE
 70
     0
  9
$DIMFXL
 40
1.0
  9
$DIMFXLON
 70
     0
  9
$DIMJOGANG
 40
0.7853981633974483
  9
$DIMTFILL
 70
     0
  9
$DIMTFILLCLR
 70
     0
  9
$DIMARCSYM
 70
     0
  9
$DIMLTYPE
  6

  9
$DIMLTEX1
  6

  9
$DIMLTEX2
  6

  9
$DIMTXTDIRECTION
 70
     0
  9
$LUNITS
 70
     2
  9
$LUPREC
 70
     4
  9
$SKETCHINC
 40
0.1
  9
$FILLETRAD
 40
0.5
  9
$AUNITS
 70
     0
  9
$AUPREC
 70
     0
  9
$MENU
  1
.
  9
$ELEVATION
 40
0.0
  9
$PELEVATION
 40
0.0
  9
$THICKNESS
 40
0.0
  9
$LIMCHECK
 70
     0
  9
$CHAMFERA
 40
0.5
  9
$CHAMFERB
 40
0.5
  9
$CHAMFERC
 40
1.0
  9
$CHAMFERD
 40
0.0
  9
$SKPOLY
 70
     0
  9
$TDCREATE
 40
2457405.836069456
  9
$TDUCREATE
 40
2457405.794402789
  9
$TDUPDATE
 40
2457405.836069827
  9
$TDUUPDATE
 40
2457405.79440316
  9
$TDINDWG
 40
0.0000000116
  9
$TDUSRTIMER
 40
0.0000000116
  9
$USRTIMER
 70
     1
  9
$ANGBASE
 50
0.0
  9
$ANGDIR
 70
     0
  9
$PDMODE
 70
     0
  9
$PDSIZE
 40
0.0
  9
$PLINEWID
 40
0.0
  9
$SPLFRAME
 70
     0
  9
$SPLINETYPE
 70
     6
  9
$SPLINESEGS
 70
     8
  9
$HANDSEED
  5
DC
  9
$SURFTAB1
 70
     6
  9
$SURFTAB2
 70
     6
  9
$SURFTYPE
 70
     6
  9
$SURFU
 70
     6
  9
$SURFV
 70
     6
  9
$UCSBASE
  2

  9
$UCSNAME
  2

  9
$UCSORG
 10
0.0
 20
0.0
 30
0.0
  9
$UCSXDIR
 10
1.0
 20
0.0
 30
0.0
  9
$UCSYDIR
 10
0.0
 20
1.0
 30
0.0
  9
$UCSORTHOREF
  2

  9
$UCSORTHOVIEW
 70
     0
  9
$UCSORGTOP
 10
0.0
 20
0.0
 30
0.0
  9
$UCSORGBOTTOM
 10
0.0
 20
0.0
 30
0.0
  9
$UCSORGLEFT
 10
0.0
 20
0.0
 30
0.0
  9
$UCSORGRIGHT
 10
0.0
 20
0.0
 30
0.0
  9
$UCSORGFRONT
 10
0.0
 20
0.0
 30
0.0
  9
$UCSORGBACK
 10
0.0
 20
0.0
 30
0.0
  9
$PUCSBASE
  2

  9
$PUCSNAME
  2

  9
$PUCSORG
 10
0.0
 20
0.0
 30
0.0
  9
$PUCSXDIR
 10
1.0
 20
0.0
 30
0.0
  9
$PUCSYDIR
 10
0.0
 20
1.0
 30
0.0
  9
$PUCSORTHOREF
  2

  9
$PUCSORTHOVIEW
 70
     0
  9
$PUCSORGTOP
 10
0.0
 20
0.0
 30
0.0
  9
$PUCSORGBOTTOM
 10
0.0
 20
0.0
 30
0.0
  9
$PUCSORGLEFT
 10
0.0
 20
0.0
 30
0.0
  9
$PUCSORGRIGHT
 10
0.0
 20
0.0
 30
0.0
  9
$PUCSORGFRONT
 10
0.0
 20
0.0
 30
0.0
  9
$PUCSORGBACK
 10
0.0
 20
0.0
 30
0.0
  9
$USERI1
 70
     0
  9
$USERI2
 70
     0
  9
$USERI3
 70
     0
  9
$USERI4
 70
     0
  9
$USERI5
 70
     0
  9
$USERR1
 40
0.0
  9
$USERR2
 40
0.0
  9
$USERR3
 40
0.0
  9
$USERR4
 40
0.0
  9
$USERR5
 40
0.0
  9
$WORLDVIEW
 70
     1
  9
$SHADEDGE
 70
     3
  9
$SHADEDIF
 70
    70
  9
$TILEMODE
 70
     1
  9
$MAXACTVP
 70
    64
  9
$PINSBASE
 10
0.0
 20
0.0
 30
0.0
  9
$PLIMCHECK
 70
     0
  9
$PEXTMIN
 10
1.000000000000000E+20
 20
1.000000000000000E+20
 30
1.000000000000000E+20
  9
$PEXTMAX
 10
-1.000000000000000E+20
 20
-1.000000000000000E+20
 30
-1.000000000000000E+20
  9
$PLIMMIN
 10
0.0
 20
0.0
  9
$PLIMMAX
 10
12.0
 20
9.0
  9
$UNITMODE
 70
     0
  9
$VISRETAIN
 70
     1
  9
$PLINEGEN
 70
     0
  9
$PSLTSCALE
 70
     1
  9
$TREEDEPTH
 70
  3020
  9
$CMLSTYLE
  2
Standard
  9
$CMLJUST
 70
     0
  9
$CMLSCALE
 40
1.0
  9
$PROXYGRAPHICS
 70
     1
  9
$MEASUREMENT
 70
     0
  9
$CELWEIGHT
370
    -1
  9
$ENDCAPS
280
     0
  9
$JOINSTYLE
280
     0
  9
$LWDISPLAY
290
     1
  9
$INSUNITS
 70
     1
  9
$HYPERLINKBASE
  1

  9
$STYLESHEET
  1

  9
$XEDIT
290
     1
  9
$CEPSNTYPE
380
     0
  9
$PSTYLEMODE
290
     1
  9
$FINGERPRINTGUID
  2
{A0C383AD-5F1D-44C5-9887-6EB4A5F5951D}
  9
$VERSIONGUID
  2
{FAEB1C32-E019-11D5-929B-00C0DF256EC4}
  9
$EXTNAMES
290
     1
  9
$PSVPSCALE
 40
0.0
  9
$OLESTARTUP
290
     0
  9
$SORTENTS
280
   127
  9
$INDEXCTL
280
     0
  9
$HIDETEXT
280
     1
  9
$XCLIPFRAME
280
     2
  9
$HALOGAP
280
     0
  9
$OBSCOLOR
 70
   257
  9
$OBSLTYPE
280
     0
  9
$INTERSECTIONDISPLAY
280
     0
  9
$INTERSECTIONCOLOR
 70
   257
  9
$DIMASSOC
280
     2
  9
$PROJECTNAME
  1

  9
$CAMERADISPLAY
290
     0
  9
$LENSLENGTH
 40
50.0
  9
$CAMERAHEIGHT
 40
0.0
  9
$STEPSPERSEC
 40
2.0
  9
$STEPSIZE
 40
6.0
  9
$3DDWFPREC
 40
2.0
  9
$PSOLWIDTH
 40
0.25
  9
$PSOLHEIGHT
 40
4.0
  9
$LOFTANG1
 40
1.570796326794897
  9
$LOFTANG2
 40
1.570796326794897
  9
$LOFTMAG1
 40
0.0
  9
$LOFTMAG2
 40
0.0
  9
$LOFTPARAM
 70
     7
  9
$LOFTNORMALS
280
     1
  9
$LATITUDE
 40
37.795
  9
$LONGITUDE
 40
-122.394
  9
$NORTHDIRECTION
 40
0.0
  9
$TIMEZONE
 70
 -8000
  9
$LIGHTGLYPHDISPLAY
280
     1
  9
$TILEMODELIGHTSYNCH
280
     1
  9
$CMATERIAL
347
3C
  9
$SOLIDHIST
280
     1
  9
$SHOWHIST
280
     1
  9
$DWFFRAME
280
     2
  9
$DGNFRAME
280
     2
  9
$REALWORLDSCALE
290
     1
  9
$INTERFERECOLOR
 62
   256
  9
$CSHADOW
280
     0
  9
$SHADOWPLANELOCATION
 40
0.0
  0
ENDSEC
  0
SECTION
  2
CLASSES
  0
CLASS
  1
ACDBDICTIONARYWDFLT
  2
AcDbDictionaryWithDefault
  3
ObjectDBX Classes
 90
        0
 91
        4
280
     0
281
     0
  0
CLASS
  1
VISUALSTYLE
  2
AcDbVisualStyle
  3
ObjectDBX Classes
 90
     4095
 91
        4
280
     0
281
     0
  0
CLASS
  1
MATERIAL
  2
AcDbMaterial
  3
ObjectDBX Classes
 90
     1153
 91
        4
280
     0
281
     0
  0
CLASS
  1
SUN
  2
AcDbSun
  3
SCENEOE
 90
     1024
 91
        4
280
     0
281
     0
  0
ENDSEC
  0
SECTION
  2
TABLES
  0
TABLE
  2
VPORT
  5
8
330
0
100
AcDbSymbolTable
 70
     1
  0
VPORT
  5
29
330
8
100
AcDbSymbolTableRecord
100
AcDbViewportTableRecord
  2
*Active
 70
     0
 10
0.0
 20
0.0
 11
1.0
 21
1.0
 12
0.0
 22
0.0
 13
0.0
 23
0.0
 14
0.5
 24
0.5
 15
0.5
 25
0.5
 16
0.0
 26
0.0
 36
1.0
 17
233.2838481361234
 27
-248.7083332711562
 37
0.0
 40
497.4166665423125
 41
0.9379816312056735
 42
50.0
 43
0.0
 44
0.0
 50
0.0
 51
0.0
 71
     0
 72
   100
 73
     1
 74
     3
 75
     0
 76
     0
 77
     0
 78
     0
281
     0
 65
     1
110
0.0
120
0.0
130
0.0
111
1.0
121
0.0
131
0.0
112
0.0
122
1.0
132
0.0
 79
     0
146
0.0
 60
     3
 61
     5
292
     1
282
     1
141
0.0
142
0.0
 63
   250
361
3F
  0
ENDTAB
  0
TABLE
  2
LTYPE
  5
5
330
0
100
AcDbSymbolTable
 70
     1
  0
LTYPE
  5
14
330
5
100
AcDbSymbolTableRecord
100
AcDbLinetypeTableRecord
  2
ByBlock
 70
     0
  3

 72
    65
 73
     0
 40
0.0
  0
LTYPE
  5
15
330
5
100
AcDbSymbolTableRecord
100
AcDbLinetypeTableRecord
  2
ByLayer
 70
     0
  3

 72
    65
 73
     0
 40
0.0
  0
LTYPE
  5
16
330
5
100
AcDbSymbolTableRecord
100
AcDbLinetypeTableRecord
  2
Continuous
 70
     0
  3
Solid line
 72
    65
 73
     0
 40
0.0
  0
ENDTAB
  0
TABLE
  2
LAYER
  5
2
330
0
100
AcDbSymbolTable
 70
     2
  0
LAYER
  5
10
330
2
100
AcDbSymbolTableRecord
100
AcDbLayerTableRecord
  2
0
 70
     0
 62
     7
  6
Continuous
370
    -3
390
F
347
3E
  0
LAYER
  5
40
330
2
100
AcDbSymbolTableRecord
100
AcDbLayerTableRecord
  2
Calque 3
 70
     0
 62
     7
  6
Continuous
370
    -3
390
F
347
3E
  0
ENDTAB
  0
TABLE
  2
STYLE
  5
3
330
0
100
AcDbSymbolTable
 70
     1
  0
STYLE
  5
11
330
3
100
AcDbSymbolTableRecord
100
AcDbTextStyleTableRecord
  2
Standard
 70
     0
 40
0.0
 41
1.0
 50
0.0
 71
     0
 42
0.2
  3
txt
  4

  0
ENDTAB
  0
TABLE
  2
VIEW
  5
6
330
0
100
AcDbSymbolTable
 70
     0
  0
ENDTAB
  0
TABLE
  2
UCS
  5
7
330
0
100
AcDbSymbolTable
 70
     0
  0
ENDTAB
  0
TABLE
  2
APPID
  5
9
330
0
100
AcDbSymbolTable
 70
     1
  0
APPID
  5
12
330
9
100
AcDbSymbolTableRecord
100
AcDbRegAppTableRecord
  2
ACAD
 70
     0
  0
ENDTAB
  0
TABLE
  2
DIMSTYLE
  5
A
330
0
100
AcDbSymbolTable
 70
     1
100
AcDbDimStyleTable
  0
DIMSTYLE
105
27
330
A
100
AcDbSymbolTableRecord
100
AcDbDimStyleTableRecord
  2
Standard
 70
     0
178
     0
340
11
  0
ENDTAB
  0
TABLE
  2
BLOCK_RECORD
  5
1
330
0
100
AcDbSymbolTable
 70
     5
  0
BLOCK_RECORD
  5
1F
330
1
100
AcDbSymbolTableRecord
100
AcDbBlockTableRecord
  2
*Model_Space
340
22
 70
     0
280
     1
281
     0
  0
BLOCK_RECORD
  5
1B
330
1
100
AcDbSymbolTableRecord
100
AcDbBlockTableRecord
  2
*Paper_Space
340
1E
 70
     0
280
     1
281
     0
  0
BLOCK_RECORD
  5
23
330
1
100
AcDbSymbolTableRecord
100
AcDbBlockTableRecord
  2
*Paper_Space0
340
26
 70
     0
280
     1
281
     0
  0
BLOCK_RECORD
  5
7D
330
1
100
AcDbSymbolTableRecord
100
AcDbBlockTableRecord
  2
block 2
340
0
102
{BLKREFS
331
7E
102
}
 70
     0
280
     1
281
     0
  0
BLOCK_RECORD
  5
97
330
1
100
AcDbSymbolTableRecord
100
AcDbBlockTableRecord
  2
block 3
340
0
102
{BLKREFS
331
98
102
}
 70
     0
280
     1
281
     0
  0
BLOCK_RECORD
  5
9C
330
1
100
AcDbSymbolTableRecord
100
AcDbBlockTableRecord
  2
block 4
340
0
102
{BLKREFS
331
9D
102
}
 70
     0
280
     1
281
     0
  0
BLOCK_RECORD
  5
B6
330
1
100
AcDbSymbolTableRecord
100
AcDbBlockTableRecord
  2
block 5
340
0
102
{BLKREFS
331
B7
102
}
 70
     0
280
     1
281
     0
  0
ENDTAB
  0
ENDSEC
  0
SECTION
  2
BLOCKS
  0
BLOCK
  5
20
330
1F
100
AcDbEntity
  8
0
100
AcDbBlockBegin
  2
*Model_Space
 70
     0
 10
0.0
 20
0.0
 30
0.0
  3
*Model_Space
  1

  0
ENDBLK
  5
21
330
1F
100
AcDbEntity
  8
0
100
AcDbBlockEnd
  0
BLOCK
  5
1C
330
1B
100
AcDbEntity
 67
     1
  8
0
100
AcDbBlockBegin
  2
*Paper_Space
 70
     0
 10
0.0
 20
0.0
 30
0.0
  3
*Paper_Space
  1

  0
ENDBLK
  5
1D
330
1B
100
AcDbEntity
 67
     1
  8
0
100
AcDbBlockEnd
  0
BLOCK
  5
24
330
23
100
AcDbEntity
  8
0
100
AcDbBlockBegin
  2
*Paper_Space0
 70
     0
 10
0.0
 20
0.0
 30
0.0
  3
*Paper_Space0
  1

  0
ENDBLK
  5
25
330
23
100
AcDbEntity
  8
0
100
AcDbBlockEnd
  0
BLOCK
  5
7F
330
7D
100
AcDbEntity
  8
0
100
AcDbBlockBegin
  2
block 2
 70
     0
 10
0.0
 20
0.0
 30
0.0
  3
block 2
  1

  0
SPLINE
  5
81
330
7D
100
AcDbEntity
  8
Calque 3
 62
    22
420
 14951456
370
     5
100
AcDbSpline
210
0.0
220
0.0
230
1.0
 70
    11
 71
     3
 72
   137
 73
   133
 74
     0
 42
0.0000000001
 43
0.0000000001
 12
1.0
 22
0.0
 32
0.0
 13
1.0
 23
0.0
 33
0.0
 40
0.0
 40
0.0
 40
0.0
 40
0.0
 40
1.0
 40
1.0
 40
1.0
 40
2.0
 40
2.0
 40
2.0
 40
3.0
 40
3.0
 40
3.0
 40
4.0
 40
4.0
 40
4.0
 40
5.0
 40
5.0
 40
5.0
 40
6.0
 40
6.0
 40
6.0
 40
7.0
 40
7.0
 40
7.0
 40
8.0
 40
8.0
 40
8.0
 40
9.0
 40
9.0
 40
9.0
 40
10.0
 40
10.0
 40
10.0
 40
11.0
 40
11.0
 40
11.0
 40
12.0
 40
12.0
 40
12.0
 40
13.0
 40
13.0
 40
13.0
 40
14.0
 40
14.0
 40
14.0
 40
15.0
 40
15.0
 40
15.0
 40
16.0
 40
16.0
 40
16.0
 40
17.0
 40
17.0
 40
17.0
 40
18.0
 40
18.0
 40
18.0
 40
19.0
 40
19.0
 40
19.0
 40
20.0
 40
20.0
 40
20.0
 40
21.0
 40
21.0
 40
21.0
 40
22.0
 40
22.0
 40
22.0
 40
23.0
 40
23.0
 40
23.0
 40
24.0
 40
24.0
 40
24.0
 40
25.0
 40
25.0
 40
25.0
 40
26.0
 40
26.0
 40
26.0
 40
27.0
 40
27.0
 40
27.0
 40
28.0
 40
28.0
 40
28.0
 40
29.0
 40
29.0
 40
29.0
 40
30.0
 40
30.0
 40
30.0
 40
31.0
 40
31.0
 40
31.0
 40
32.0
 40
32.0
 40
32.0
 40
33.0
 40
33.0
 40
33.0
 40
34.0
 40
34.0
 40
34.0
 40
35.0
 40
35.0
 40
35.0
 40
36.0
 40
36.0
 40
36.0
 40
37.0
 40
37.0
 40
37.0
 40
38.0
 40
38.0
 40
38.0
 40
39.0
 40
39.0
 40
39.0
 40
40.0
 40
40.0
 40
40.0
 40
41.0
 40
41.0
 40
41.0
 40
42.0
 40
42.0
 40
42.0
 40
43.0
 40
43.0
 40
43.0
 40
44.0
 40
44.0
 40
44.0
 40
44.0
 10
314.5309083645369
 20
-116.7442208041473
 30
0.0
 10
313.3642017276354
 20
-115.5775141377722
 30
0.0
 10
311.253426503708
 20
-115.3198452489479
 30
0.0
 10
309.8403045953153
 20
-116.1716977487347
 30
0.0
 10
309.8403045953153
 20
-116.1716977487347
 30
0.0
 10
295.2274380236761
 20
-124.980347190977
 30
0.0
 10
295.2274380236761
 20
-124.980347190977
 30
0.0
 10
293.8142808375065
 20
-125.8321996907641
 30
0.0
 10
291.703540891356
 20
-125.5745660797174
 30
0.0
 10
290.5367989766776
 20
-124.4078241355648
 30
0.0
 10
290.5367989766776
 20
-124.4078241355648
 30
0.0
 10
282.8731958388591
 20
-116.7442208041473
 30
0.0
 10
282.8731958388591
 20
-116.7442208041473
 30
0.0
 10
281.7064610406847
 20
-115.5775141377722
 30
0.0
 10
279.5956787002533
 20
-115.3198452489479
 30
0.0
 10
278.1825920696375
 20
-116.1716977487347
 30
0.0
 10
278.1825920696375
 20
-116.1716977487347
 30
0.0
 10
263.5696902202214
 20
-124.980347190977
 30
0.0
 10
263.5696902202214
 20
-124.980347190977
 30
0.0
 10
262.1565749344606
 20
-125.8321996907641
 30
0.0
 10
260.0458283656782
 20
-125.5745660797174
 30
0.0
 10
258.8790864509998
 20
-124.4078241355648
 30
0.0
 10
258.8790864509998
 20
-124.4078241355648
 30
0.0
 10
251.2154833131813
 20
-116.7442208041473
 30
0.0
 10
251.2154833131813
 20
-116.7442208041473
 30
0.0
 10
250.0487413985029
 20
-115.5775141377722
 30
0.0
 10
247.9379661745755
 20
-115.3198452489479
 30
0.0
 10
246.5248795439597
 20
-116.1716977487347
 30
0.0
 10
246.5248795439597
 20
-116.1716977487347
 30
0.0
 10
231.9119776945437
 20
-124.980347190977
 30
0.0
 10
231.9119776945437
 20
-124.980347190977
 30
0.0
 10
230.498855786151
 20
-125.8321996907641
 30
0.0
 10
228.186503345144
 20
-125.8321996907641
 30
0.0
 10
226.7733814367513
 20
-124.980347190977
 30
0.0
 10
226.7733814367513
 20
-124.980347190977
 30
0.0
 10
212.1604795873352
 20
-116.1716977487347
 30
0.0
 10
212.1604795873352
 20
-116.1716977487347
 30
0.0
 10
210.7473929567194
 20
-115.3198452489479
 30
0.0
 10
208.636617732792
 20
-115.5775141377722
 30
0.0
 10
207.4698758181139
 20
-116.7442208041473
 30
0.0
 10
207.4698758181139
 20
-116.7442208041473
 30
0.0
 10
199.8062777278263
 20
-124.4078241355648
 30
0.0
 10
199.8062777278263
 20
-124.4078241355648
 30
0.0
 10
198.6395660433936
 20
-125.5745660797174
 30
0.0
 10
196.5287908194662
 20
-125.8321996907641
 30
0.0
 10
195.1156689110735
 20
-124.980347190977
 30
0.0
 10
195.1156689110735
 20
-124.980347190977
 30
0.0
 10
180.5027670616574
 20
-116.1716977487347
 30
0.0
 10
180.5027670616574
 20
-116.1716977487347
 30
0.0
 10
179.0896451532647
 20
-115.3198452489479
 30
0.0
 10
176.9788699293373
 20
-115.5775141377722
 30
0.0
 10
175.8121632924358
 20
-116.7442208041473
 30
0.0
 10
175.8121632924358
 20
-116.7442208041473
 30
0.0
 10
168.1485601546173
 20
-124.4078241355648
 30
0.0
 10
168.1485601546173
 20
-124.4078241355648
 30
0.0
 10
166.9818535177158
 20
-125.5745660797174
 30
0.0
 10
164.8710782937884
 20
-125.8321996907641
 30
0.0
 10
163.4579563853957
 20
-124.980347190977
 30
0.0
 10
163.4579563853957
 20
-124.980347190977
 30
0.0
 10
148.845058296122
 20
-116.1716977487347
 30
0.0
 10
148.845058296122
 20
-116.1716977487347
 30
0.0
 10
147.4319326275869
 20
-115.3198452489479
 30
0.0
 10
145.3211610747809
 20
-115.5775141377722
 30
0.0
 10
144.154450766758
 20
-116.7442208041473
 30
0.0
 10
144.154450766758
 20
-116.7442208041473
 30
0.0
 10
136.4908476289395
 20
-124.4078241355648
 30
0.0
 10
136.4908476289395
 20
-124.4078241355648
 30
0.0
 10
135.934834587569
 20
-124.9638371909811
 30
0.0
 10
134.3507918502035
 20
-126.562096912804
 30
0.0
 10
134.3507918502035
 20
-126.562096912804
 30
0.0
 10
134.3507918502035
 20
-126.562096912804
 30
0.0
 10
132.6065527280361
 20
-124.8178930243512
 30
0.0
 10
133.4786546502314
 20
-125.6899949685776
 30
0.0
 10
134.3507918502035
 20
-126.562096912804
 30
0.0
 10
15.99857805155593
 20
-8.2098797201698
 30
0.0
 10
15.99857805155593
 20
-8.2098797201698
 30
0.0
 10
15.99857805155593
 20
-8.2098797201698
 30
0.0
 10
12.78247944124882
 20
-8.2098797201698
 30
0.0
 10
12.78247944124882
 20
-8.2098797201698
 30
0.0
 10
12.78247944124882
 20
-8.2098797201698
 30
0.0
 10
12.78247944124882
 20
-22.20986582778074
 30
0.0
 10
12.78247944124882
 20
-22.20986582778074
 30
0.0
 10
12.78247944124882
 20
-22.20986582778074
 30
0.0
 10
7.135248053771873
 20
-22.20986582778074
 30
0.0
 10
7.135248053771873
 20
-22.20986582778074
 30
0.0
 10
7.135248053771873
 20
-22.20986582778074
 30
0.0
 10
7.135248053771873
 20
-8.2098797201698
 30
0.0
 10
7.135248053771873
 20
-8.2098797201698
 30
0.0
 10
7.135248053771873
 20
-8.2098797201698
 30
0.0
 10
3.566371665775172
 20
-8.2098797201698
 30
0.0
 10
3.566371665775172
 20
-8.2098797201698
 30
0.0
 10
3.566371665775172
 20
-8.2098797201698
 30
0.0
 10
3.566371665775172
 20
-27.77123110416825
 30
0.0
 10
3.566371665775172
 20
-27.77123110416825
 30
0.0
 10
3.566371665775172
 20
-27.77123110416825
 30
0.0
 10
134.3502626835504
 20
-158.5587591270271
 30
0.0
 10
134.3502626835504
 20
-158.5587591270271
 30
0.0
 10
134.3502626835504
 20
-158.5587591270271
 30
0.0
 10
134.3507918502035
 20
-158.5582652381383
 30
0.0
 10
134.3507918502035
 20
-158.5582652381383
 30
0.0
 10
134.3507918502035
 20
-158.5582652381383
 30
0.0
 10
134.3507918502035
 20
-158.5621105159149
 30
0.0
 10
134.3507918502035
 20
-158.5621105159149
 30
0.0
 10
134.3507918502035
 20
-158.5621105159149
 30
0.0
 10
324.3507950584552
 20
-158.5621105159149
 30
0.0
 10
324.3507950584552
 20
-158.5621105159149
 30
0.0
 10
324.3507950584552
 20
-158.5621105159149
 30
0.0
 10
324.3507950584552
 20
-158.5568894048051
 30
0.0
 10
324.3507950584552
 20
-158.5568894048051
 30
0.0
 10
324.3507950584552
 20
-158.5568894048051
 30
0.0
 10
442.7048548893241
 20
-276.910976319661
 30
0.0
 10
442.7048548893241
 20
-276.910976319661
 30
0.0
 10
442.7048548893241
 20
-276.910976319661
 30
0.0
 10
445.9209887774088
 20
-276.910976319661
 30
0.0
 10
445.9209887774088
 20
-276.910976319661
 30
0.0
 10
445.9209887774088
 20
-276.910976319661
 30
0.0
 10
445.9209887774088
 20
-262.9109902120501
 30
0.0
 10
445.9209887774088
 20
-262.9109902120501
 30
0.0
 10
445.9209887774088
 20
-262.9109902120501
 30
0.0
 10
451.568220164886
 20
-262.9109902120501
 30
0.0
 10
451.568220164886
 20
-262.9109902120501
 30
0.0
 10
451.568220164886
 20
-262.9109902120501
 30
0.0
 10
451.568220164886
 20
-276.910976319661
 30
0.0
 10
451.568220164886
 20
-276.910976319661
 30
0.0
 10
451.568220164886
 20
-276.910976319661
 30
0.0
 10
455.1370612751045
 20
-276.910976319661
 30
0.0
 10
455.1370612751045
 20
-276.910976319661
 30
0.0
 10
455.1370612751045
 20
-276.910976319661
 30
0.0
 10
455.1370612751045
 20
-257.3496249356629
 30
0.0
 10
455.1370612751045
 20
-257.3496249356629
 30
0.0
 10
455.1370612751045
 20
-257.3496249356629
 30
0.0
 10
314.5309083645369
 20
-116.7442208041473
 30
0.0
 10
314.5309083645369
 20
-116.7442208041473
 30
0.0
  0
POLYLINE
  5
82
330
7D
100
AcDbEntity
  8
Calque 3
 62
    22
420
 14951456
370
     5
100
AcDb2dPolyline
 66
     1
 10
0.0
 20
0.0
 30
0.0
  0
VERTEX
  5
83
330
82
100
AcDbEntity
  8
Calque 3
 62
    22
420
 14951456
370
     5
100
AcDbVertex
100
AcDb2dVertex
 10
240.3426608127923
 20
-138.1520110765731
 30
0.0
  0
VERTEX
  5
84
330
82
100
AcDbEntity
  8
Calque 3
 62
    22
420
 14951456
370
     5
100
AcDbVertex
100
AcDb2dVertex
 10
218.3426630407257
 20
-138.1520110765731
 30
0.0
  0
VERTEX
  5
85
330
82
100
AcDbEntity
  8
Calque 3
 62
    22
420
 14951456
370
     5
100
AcDbVertex
100
AcDb2dVertex
 10
218.3426630407257
 20
-131.9020235781355
 30
0.0
  0
VERTEX
  5
86
330
82
100
AcDbEntity
  8
Calque 3
 62
    22
420
 14951456
370
     5
100
AcDbVertex
100
AcDb2dVertex
 10
240.3426608127923
 20
-131.9020235781355
 30
0.0
  0
VERTEX
  5
87
330
82
100
AcDbEntity
  8
Calque 3
 62
    22
420
 14951456
370
     5
100
AcDbVertex
100
AcDb2dVertex
 10
240.3426608127923
 20
-138.1520110765731
 30
0.0
  0
SEQEND
  5
88
330
82
100
AcDbEntity
  8
Calque 3
 62
    22
420
 14951456
370
     5
  0
POLYLINE
  5
89
330
7D
100
AcDbEntity
  8
Calque 3
 62
    22
420
 14951456
370
     5
100
AcDb2dPolyline
 66
     1
 10
0.0
 20
0.0
 30
0.0
  0
VERTEX
  5
8A
330
89
100
AcDbEntity
  8
Calque 3
 62
    22
420
 14951456
370
     5
100
AcDbVertex
100
AcDb2dVertex
 10
316.2071672106609
 20
-138.1520110765731
 30
0.0
  0
VERTEX
  5
8B
330
89
100
AcDbEntity
  8
Calque 3
 62
    22
420
 14951456
370
     5
100
AcDbVertex
100
AcDb2dVertex
 10
293.2071502974402
 20
-138.1520110765731
 30
0.0
  0
VERTEX
  5
8C
330
89
100
AcDbEntity
  8
Calque 3
 62
    22
420
 14951456
370
     5
100
AcDbVertex
100
AcDb2dVertex
 10
293.2071502974402
 20
-131.9020235781355
 30
0.0
  0
VERTEX
  5
8D
330
89
100
AcDbEntity
  8
Calque 3
 62
    22
420
 14951456
370
     5
100
AcDbVertex
100
AcDb2dVertex
 10
316.2071672106609
 20
-131.9020235781355
 30
0.0
  0
VERTEX
  5
8E
330
89
100
AcDbEntity
  8
Calque 3
 62
    22
420
 14951456
370
     5
100
AcDbVertex
100
AcDb2dVertex
 10
316.2071672106609
 20
-138.1520110765731
 30
0.0
  0
SEQEND
  5
8F
330
89
100
AcDbEntity
  8
Calque 3
 62
    22
420
 14951456
370
     5
  0
POLYLINE
  5
90
330
7D
100
AcDbEntity
  8
Calque 3
 62
    22
420
 14951456
370
     5
100
AcDb2dPolyline
 66
     1
 10
0.0
 20
0.0
 30
0.0
  0
VERTEX
  5
91
330
90
100
AcDbEntity
  8
Calque 3
 62
    22
420
 14951456
370
     5
100
AcDbVertex
100
AcDb2dVertex
 10
165.4601466120936
 20
-138.1520110765731
 30
0.0
  0
VERTEX
  5
92
330
90
100
AcDbEntity
  8
Calque 3
 62
    22
420
 14951456
370
     5
100
AcDbVertex
100
AcDb2dVertex
 10
142.4601649766495
 20
-138.1520110765731
 30
0.0
  0
VERTEX
  5
93
330
90
100
AcDbEntity
  8
Calque 3
 62
    22
420
 14951456
370
     5
100
AcDbVertex
100
AcDb2dVertex
 10
142.4601649766495
 20
-131.9020235781355
 30
0.0
  0
VERTEX
  5
94
330
90
100
AcDbEntity
  8
Calque 3
 62
    22
420
 14951456
370
     5
100
AcDbVertex
100
AcDb2dVertex
 10
165.4601466120936
 20
-131.9020235781355
 30
0.0
  0
VERTEX
  5
95
330
90
100
AcDbEntity
  8
Calque 3
 62
    22
420
 14951456
370
     5
100
AcDbVertex
100
AcDb2dVertex
 10
165.4601466120936
 20
-138.1520110765731
 30
0.0
  0
SEQEND
  5
96
330
90
100
AcDbEntity
  8
Calque 3
 62
    22
420
 14951456
370
     5
  0
ENDBLK
  5
80
330
7D
100
AcDbEntity
  8
0
100
AcDbBlockEnd
  0
BLOCK
  5
99
330
97
100
AcDbEntity
  8
0
100
AcDbBlockBegin
  2
block 3
 70
     0
 10
0.0
 20
0.0
 30
0.0
  3
block 3
  1

  0
SPLINE
  5
9B
330
97
100
AcDbEntity
  8
Calque 3
 62
    22
420
 14951456
370
     5
100
AcDbSpline
210
0.0
220
0.0
230
1.0
 70
    11
 71
     3
 72
   137
 73
   133
 74
     0
 42
0.0000000001
 43
0.0000000001
 12
1.0
 22
0.0
 32
0.0
 13
1.0
 23
0.0
 33
0.0
 40
0.0
 40
0.0
 40
0.0
 40
0.0
 40
1.0
 40
1.0
 40
1.0
 40
2.0
 40
2.0
 40
2.0
 40
3.0
 40
3.0
 40
3.0
 40
4.0
 40
4.0
 40
4.0
 40
5.0
 40
5.0
 40
5.0
 40
6.0
 40
6.0
 40
6.0
 40
7.0
 40
7.0
 40
7.0
 40
8.0
 40
8.0
 40
8.0
 40
9.0
 40
9.0
 40
9.0
 40
10.0
 40
10.0
 40
10.0
 40
11.0
 40
11.0
 40
11.0
 40
12.0
 40
12.0
 40
12.0
 40
13.0
 40
13.0
 40
13.0
 40
14.0
 40
14.0
 40
14.0
 40
15.0
 40
15.0
 40
15.0
 40
16.0
 40
16.0
 40
16.0
 40
17.0
 40
17.0
 40
17.0
 40
18.0
 40
18.0
 40
18.0
 40
19.0
 40
19.0
 40
19.0
 40
20.0
 40
20.0
 40
20.0
 40
21.0
 40
21.0
 40
21.0
 40
22.0
 40
22.0
 40
22.0
 40
23.0
 40
23.0
 40
23.0
 40
24.0
 40
24.0
 40
24.0
 40
25.0
 40
25.0
 40
25.0
 40
26.0
 40
26.0
 40
26.0
 40
27.0
 40
27.0
 40
27.0
 40
28.0
 40
28.0
 40
28.0
 40
29.0
 40
29.0
 40
29.0
 40
30.0
 40
30.0
 40
30.0
 40
31.0
 40
31.0
 40
31.0
 40
32.0
 40
32.0
 40
32.0
 40
33.0
 40
33.0
 40
33.0
 40
34.0
 40
34.0
 40
34.0
 40
35.0
 40
35.0
 40
35.0
 40
36.0
 40
36.0
 40
36.0
 40
37.0
 40
37.0
 40
37.0
 40
38.0
 40
38.0
 40
38.0
 40
39.0
 40
39.0
 40
39.0
 40
40.0
 40
40.0
 40
40.0
 40
41.0
 40
41.0
 40
41.0
 40
42.0
 40
42.0
 40
42.0
 40
43.0
 40
43.0
 40
43.0
 40
44.0
 40
44.0
 40
44.0
 40
44.0
 10
314.5309083645369
 20
-161.9981307928338
 30
0.0
 10
313.3642017276354
 20
-160.8313888486809
 30
0.0
 10
311.253426503708
 20
-160.5737552376345
 30
0.0
 10
309.8403045953153
 20
-161.4255724596438
 30
0.0
 10
309.8403045953153
 20
-161.4255724596438
 30
0.0
 10
295.2274380236761
 20
-170.2342571796636
 30
0.0
 10
295.2274380236761
 20
-170.2342571796636
 30
0.0
 10
293.8142808375065
 20
-171.0860744016728
 30
0.0
 10
291.703540891356
 20
-170.8284407906267
 30
0.0
 10
290.5367989766776
 20
-169.6616988464735
 30
0.0
 10
290.5367989766776
 20
-169.6616988464735
 30
0.0
 10
282.8731958388591
 20
-161.9981307928338
 30
0.0
 10
282.8731958388591
 20
-161.9981307928338
 30
0.0
 10
281.7064610406847
 20
-160.8313888486809
 30
0.0
 10
279.5956787002533
 20
-160.5737552376345
 30
0.0
 10
278.1825920696375
 20
-161.4255724596438
 30
0.0
 10
278.1825920696375
 20
-161.4255724596438
 30
0.0
 10
263.5696902202214
 20
-170.2342571796636
 30
0.0
 10
263.5696902202214
 20
-170.2342571796636
 30
0.0
 10
262.1565749344606
 20
-171.0860744016728
 30
0.0
 10
260.0458283656782
 20
-170.8284407906267
 30
0.0
 10
258.8790864509998
 20
-169.6616988464735
 30
0.0
 10
258.8790864509998
 20
-169.6616988464735
 30
0.0
 10
251.2154833131813
 20
-161.9981307928338
 30
0.0
 10
251.2154833131813
 20
-161.9981307928338
 30
0.0
 10
250.0487413985029
 20
-160.8313888486809
 30
0.0
 10
247.9379661745755
 20
-160.5737552376345
 30
0.0
 10
246.5248795439597
 20
-161.4255724596438
 30
0.0
 10
246.5248795439597
 20
-161.4255724596438
 30
0.0
 10
231.9119776945437
 20
-170.2342571796636
 30
0.0
 10
231.9119776945437
 20
-170.2342571796636
 30
0.0
 10
230.498855786151
 20
-171.0860744016728
 30
0.0
 10
228.186503345144
 20
-171.0860744016728
 30
0.0
 10
226.7733814367513
 20
-170.2342571796636
 30
0.0
 10
226.7733814367513
 20
-170.2342571796636
 30
0.0
 10
212.1604795873352
 20
-161.4255724596438
 30
0.0
 10
212.1604795873352
 20
-161.4255724596438
 30
0.0
 10
210.7473929567194
 20
-160.5737552376345
 30
0.0
 10
208.636617732792
 20
-160.8313888486809
 30
0.0
 10
207.4698758181139
 20
-161.9981307928338
 30
0.0
 10
207.4698758181139
 20
-161.9981307928338
 30
0.0
 10
199.8062777278263
 20
-169.6616988464735
 30
0.0
 10
199.8062777278263
 20
-169.6616988464735
 30
0.0
 10
198.6395660433936
 20
-170.8284407906267
 30
0.0
 10
196.5287908194662
 20
-171.0860744016728
 30
0.0
 10
195.1156689110735
 20
-170.2342571796636
 30
0.0
 10
195.1156689110735
 20
-170.2342571796636
 30
0.0
 10
180.5027670616574
 20
-161.4255724596438
 30
0.0
 10
180.5027670616574
 20
-161.4255724596438
 30
0.0
 10
179.0896451532647
 20
-160.5737552376345
 30
0.0
 10
176.9788699293373
 20
-160.8313888486809
 30
0.0
 10
175.8121632924358
 20
-161.9981307928338
 30
0.0
 10
175.8121632924358
 20
-161.9981307928338
 30
0.0
 10
168.1485601546173
 20
-169.6616988464735
 30
0.0
 10
168.1485601546173
 20
-169.6616988464735
 30
0.0
 10
166.9818535177158
 20
-170.8284407906267
 30
0.0
 10
164.8710782937884
 20
-171.0860744016728
 30
0.0
 10
163.4579563853957
 20
-170.2342571796636
 30
0.0
 10
163.4579563853957
 20
-170.2342571796636
 30
0.0
 10
148.845058296122
 20
-161.4255724596438
 30
0.0
 10
148.845058296122
 20
-161.4255724596438
 30
0.0
 10
147.4319326275869
 20
-160.5737552376345
 30
0.0
 10
145.3211610747809
 20
-160.8313888486809
 30
0.0
 10
144.154450766758
 20
-161.9981307928338
 30
0.0
 10
144.154450766758
 20
-161.9981307928338
 30
0.0
 10
136.4908476289395
 20
-169.6616988464735
 30
0.0
 10
136.4908476289395
 20
-169.6616988464735
 30
0.0
 10
135.934834587569
 20
-170.2177471796677
 30
0.0
 10
134.3507918502035
 20
-171.8159716237127
 30
0.0
 10
134.3507918502035
 20
-171.8159716237127
 30
0.0
 10
134.3507918502035
 20
-171.8159716237127
 30
0.0
 10
132.6065527280361
 20
-170.0717677352599
 30
0.0
 10
133.4786546502314
 20
-170.9438696794863
 30
0.0
 10
134.3507918502035
 20
-171.8159716237127
 30
0.0
 10
15.99857805155593
 20
-53.4637544310785
 30
0.0
 10
15.99857805155593
 20
-53.4637544310785
 30
0.0
 10
15.99857805155593
 20
-53.4637544310785
 30
0.0
 10
12.78247944124882
 20
-53.4637544310785
 30
0.0
 10
12.78247944124882
 20
-53.4637544310785
 30
0.0
 10
12.78247944124882
 20
-53.4637544310785
 30
0.0
 10
12.78247944124882
 20
-67.46374053868976
 30
0.0
 10
12.78247944124882
 20
-67.46374053868976
 30
0.0
 10
12.78247944124882
 20
-67.46374053868976
 30
0.0
 10
7.135248053771873
 20
-67.46374053868976
 30
0.0
 10
7.135248053771873
 20
-67.46374053868976
 30
0.0
 10
7.135248053771873
 20
-67.46374053868976
 30
0.0
 10
7.135248053771873
 20
-53.4637544310785
 30
0.0
 10
7.135248053771873
 20
-53.4637544310785
 30
0.0
 10
7.135248053771873
 20
-53.4637544310785
 30
0.0
 10
3.566371665775172
 20
-53.4637544310785
 30
0.0
 10
3.566371665775172
 20
-53.4637544310785
 30
0.0
 10
3.566371665775172
 20
-53.4637544310785
 30
0.0
 10
3.566371665775172
 20
-73.02510581507696
 30
0.0
 10
3.566371665775172
 20
-73.02510581507696
 30
0.0
 10
3.566371665775172
 20
-73.02510581507696
 30
0.0
 10
134.3502626835504
 20
-203.8126338379358
 30
0.0
 10
134.3502626835504
 20
-203.8126338379358
 30
0.0
 10
134.3502626835504
 20
-203.8126338379358
 30
0.0
 10
134.3507918502035
 20
-203.812139949047
 30
0.0
 10
134.3507918502035
 20
-203.812139949047
 30
0.0
 10
134.3507918502035
 20
-203.812139949047
 30
0.0
 10
134.3507918502035
 20
-203.8159852268239
 30
0.0
 10
134.3507918502035
 20
-203.8159852268239
 30
0.0
 10
134.3507918502035
 20
-203.8159852268239
 30
0.0
 10
324.3507950584552
 20
-203.8159852268239
 30
0.0
 10
324.3507950584552
 20
-203.8159852268239
 30
0.0
 10
324.3507950584552
 20
-203.8159852268239
 30
0.0
 10
324.3507950584552
 20
-203.8107641157141
 30
0.0
 10
324.3507950584552
 20
-203.8107641157141
 30
0.0
 10
324.3507950584552
 20
-203.8107641157141
 30
0.0
 10
442.7048548893241
 20
-322.16485103057
 30
0.0
 10
442.7048548893241
 20
-322.16485103057
 30
0.0
 10
442.7048548893241
 20
-322.16485103057
 30
0.0
 10
445.9209887774088
 20
-322.16485103057
 30
0.0
 10
445.9209887774088
 20
-322.16485103057
 30
0.0
 10
445.9209887774088
 20
-322.16485103057
 30
0.0
 10
445.9209887774088
 20
-308.1648649229591
 30
0.0
 10
445.9209887774088
 20
-308.1648649229591
 30
0.0
 10
445.9209887774088
 20
-308.1648649229591
 30
0.0
 10
451.568220164886
 20
-308.1648649229591
 30
0.0
 10
451.568220164886
 20
-308.1648649229591
 30
0.0
 10
451.568220164886
 20
-308.1648649229591
 30
0.0
 10
451.568220164886
 20
-322.16485103057
 30
0.0
 10
451.568220164886
 20
-322.16485103057
 30
0.0
 10
451.568220164886
 20
-322.16485103057
 30
0.0
 10
455.1370612751045
 20
-322.16485103057
 30
0.0
 10
455.1370612751045
 20
-322.16485103057
 30
0.0
 10
455.1370612751045
 20
-322.16485103057
 30
0.0
 10
455.1370612751045
 20
-302.6034996465713
 30
0.0
 10
455.1370612751045
 20
-302.6034996465713
 30
0.0
 10
455.1370612751045
 20
-302.6034996465713
 30
0.0
 10
314.5309083645369
 20
-161.9981307928338
 30
0.0
 10
314.5309083645369
 20
-161.9981307928338
 30
0.0
  0
ENDBLK
  5
9A
330
97
100
AcDbEntity
  8
0
100
AcDbBlockEnd
  0
BLOCK
  5
9E
330
9C
100
AcDbEntity
  8
0
100
AcDbBlockBegin
  2
block 4
 70
     0
 10
0.0
 20
0.0
 30
0.0
  3
block 4
  1

  0
SPLINE
  5
A0
330
9C
100
AcDbEntity
  8
Calque 3
 62
    22
420
 14951456
370
     5
100
AcDbSpline
210
0.0
220
0.0
230
1.0
 70
    11
 71
     3
 72
   137
 73
   133
 74
     0
 42
0.0000000001
 43
0.0000000001
 12
1.0
 22
0.0
 32
0.0
 13
1.0
 23
0.0
 33
0.0
 40
0.0
 40
0.0
 40
0.0
 40
0.0
 40
1.0
 40
1.0
 40
1.0
 40
2.0
 40
2.0
 40
2.0
 40
3.0
 40
3.0
 40
3.0
 40
4.0
 40
4.0
 40
4.0
 40
5.0
 40
5.0
 40
5.0
 40
6.0
 40
6.0
 40
6.0
 40
7.0
 40
7.0
 40
7.0
 40
8.0
 40
8.0
 40
8.0
 40
9.0
 40
9.0
 40
9.0
 40
10.0
 40
10.0
 40
10.0
 40
11.0
 40
11.0
 40
11.0
 40
12.0
 40
12.0
 40
12.0
 40
13.0
 40
13.0
 40
13.0
 40
14.0
 40
14.0
 40
14.0
 40
15.0
 40
15.0
 40
15.0
 40
16.0
 40
16.0
 40
16.0
 40
17.0
 40
17.0
 40
17.0
 40
18.0
 40
18.0
 40
18.0
 40
19.0
 40
19.0
 40
19.0
 40
20.0
 40
20.0
 40
20.0
 40
21.0
 40
21.0
 40
21.0
 40
22.0
 40
22.0
 40
22.0
 40
23.0
 40
23.0
 40
23.0
 40
24.0
 40
24.0
 40
24.0
 40
25.0
 40
25.0
 40
25.0
 40
26.0
 40
26.0
 40
26.0
 40
27.0
 40
27.0
 40
27.0
 40
28.0
 40
28.0
 40
28.0
 40
29.0
 40
29.0
 40
29.0
 40
30.0
 40
30.0
 40
30.0
 40
31.0
 40
31.0
 40
31.0
 40
32.0
 40
32.0
 40
32.0
 40
33.0
 40
33.0
 40
33.0
 40
34.0
 40
34.0
 40
34.0
 40
35.0
 40
35.0
 40
35.0
 40
36.0
 40
36.0
 40
36.0
 40
37.0
 40
37.0
 40
37.0
 40
38.0
 40
38.0
 40
38.0
 40
39.0
 40
39.0
 40
39.0
 40
40.0
 40
40.0
 40
40.0
 40
41.0
 40
41.0
 40
41.0
 40
42.0
 40
42.0
 40
42.0
 40
43.0
 40
43.0
 40
43.0
 40
44.0
 40
44.0
 40
44.0
 40
44.0
 10
314.5309083645369
 20
-207.2520055037425
 30
0.0
 10
313.3642017276354
 20
-206.0852635595899
 30
0.0
 10
311.253426503708
 20
-205.8276299485432
 30
0.0
 10
309.8403045953153
 20
-206.6794471705525
 30
0.0
 10
309.8403045953153
 20
-206.6794471705525
 30
0.0
 10
295.2274380236761
 20
-215.4881318905726
 30
0.0
 10
295.2274380236761
 20
-215.4881318905726
 30
0.0
 10
293.8142808375065
 20
-216.3399491125819
 30
0.0
 10
291.703540891356
 20
-216.0823155015351
 30
0.0
 10
290.5367989766776
 20
-214.91560883516
 30
0.0
 10
290.5367989766776
 20
-214.91560883516
 30
0.0
 10
282.8731958388591
 20
-207.2520055037425
 30
0.0
 10
282.8731958388591
 20
-207.2520055037425
 30
0.0
 10
281.7064610406847
 20
-206.0852635595899
 30
0.0
 10
279.5956787002533
 20
-205.8276299485432
 30
0.0
 10
278.1825920696375
 20
-206.6794471705525
 30
0.0
 10
278.1825920696375
 20
-206.6794471705525
 30
0.0
 10
263.5696902202214
 20
-215.4881318905726
 30
0.0
 10
263.5696902202214
 20
-215.4881318905726
 30
0.0
 10
262.1565749344606
 20
-216.3399491125819
 30
0.0
 10
260.0458283656782
 20
-216.0823155015351
 30
0.0
 10
258.8790864509998
 20
-214.91560883516
 30
0.0
 10
258.8790864509998
 20
-214.91560883516
 30
0.0
 10
251.2154833131813
 20
-207.2520055037425
 30
0.0
 10
251.2154833131813
 20
-207.2520055037425
 30
0.0
 10
250.0487413985029
 20
-206.0852635595899
 30
0.0
 10
247.9379661745755
 20
-205.8276299485432
 30
0.0
 10
246.5248795439597
 20
-206.6794471705525
 30
0.0
 10
246.5248795439597
 20
-206.6794471705525
 30
0.0
 10
231.9119776945437
 20
-215.4881318905726
 30
0.0
 10
231.9119776945437
 20
-215.4881318905726
 30
0.0
 10
230.498855786151
 20
-216.3399491125819
 30
0.0
 10
228.186503345144
 20
-216.3399491125819
 30
0.0
 10
226.7733814367513
 20
-215.4881318905726
 30
0.0
 10
226.7733814367513
 20
-215.4881318905726
 30
0.0
 10
212.1604795873352
 20
-206.6794471705525
 30
0.0
 10
212.1604795873352
 20
-206.6794471705525
 30
0.0
 10
210.7473929567194
 20
-205.8276299485432
 30
0.0
 10
208.636617732792
 20
-206.0852635595899
 30
0.0
 10
207.4698758181139
 20
-207.2520055037425
 30
0.0
 10
207.4698758181139
 20
-207.2520055037425
 30
0.0
 10
199.8062777278263
 20
-214.91560883516
 30
0.0
 10
199.8062777278263
 20
-214.91560883516
 30
0.0
 10
198.6395660433936
 20
-216.0823155015351
 30
0.0
 10
196.5287908194662
 20
-216.3399491125819
 30
0.0
 10
195.1156689110735
 20
-215.4881318905726
 30
0.0
 10
195.1156689110735
 20
-215.4881318905726
 30
0.0
 10
180.5027670616574
 20
-206.6794471705525
 30
0.0
 10
180.5027670616574
 20
-206.6794471705525
 30
0.0
 10
179.0896451532647
 20
-205.8276299485432
 30
0.0
 10
176.9788699293373
 20
-206.0852635595899
 30
0.0
 10
175.8121632924358
 20
-207.2520055037425
 30
0.0
 10
175.8121632924358
 20
-207.2520055037425
 30
0.0
 10
168.1485601546173
 20
-214.91560883516
 30
0.0
 10
168.1485601546173
 20
-214.91560883516
 30
0.0
 10
166.9818535177158
 20
-216.0823155015351
 30
0.0
 10
164.8710782937884
 20
-216.3399491125819
 30
0.0
 10
163.4579563853957
 20
-215.4881318905726
 30
0.0
 10
163.4579563853957
 20
-215.4881318905726
 30
0.0
 10
148.845058296122
 20
-206.6794471705525
 30
0.0
 10
148.845058296122
 20
-206.6794471705525
 30
0.0
 10
147.4319326275869
 20
-205.8276299485432
 30
0.0
 10
145.3211610747809
 20
-206.0852635595899
 30
0.0
 10
144.154450766758
 20
-207.2520055037425
 30
0.0
 10
144.154450766758
 20
-207.2520055037425
 30
0.0
 10
136.4908476289395
 20
-214.91560883516
 30
0.0
 10
136.4908476289395
 20
-214.91560883516
 30
0.0
 10
135.934834587569
 20
-215.4716218905767
 30
0.0
 10
134.3507918502035
 20
-217.0698463346214
 30
0.0
 10
134.3507918502035
 20
-217.0698463346214
 30
0.0
 10
134.3507918502035
 20
-217.0698463346214
 30
0.0
 10
132.6065527280361
 20
-215.3256424461686
 30
0.0
 10
133.4786546502314
 20
-216.197744390395
 30
0.0
 10
134.3507918502035
 20
-217.0698463346214
 30
0.0
 10
15.99857805155593
 20
-98.71766441976504
 30
0.0
 10
15.99857805155593
 20
-98.71766441976504
 30
0.0
 10
15.99857805155593
 20
-98.71766441976504
 30
0.0
 10
12.78247944124882
 20
-98.71766441976504
 30
0.0
 10
12.78247944124882
 20
-98.71766441976504
 30
0.0
 10
12.78247944124882
 20
-98.71766441976504
 30
0.0
 10
12.78247944124882
 20
-112.7176505273763
 30
0.0
 10
12.78247944124882
 20
-112.7176505273763
 30
0.0
 10
12.78247944124882
 20
-112.7176505273763
 30
0.0
 10
7.135248053771873
 20
-112.7176505273763
 30
0.0
 10
7.135248053771873
 20
-112.7176505273763
 30
0.0
 10
7.135248053771873
 20
-112.7176505273763
 30
0.0
 10
7.135248053771873
 20
-98.71766441976504
 30
0.0
 10
7.135248053771873
 20
-98.71766441976504
 30
0.0
 10
7.135248053771873
 20
-98.71766441976504
 30
0.0
 10
3.566371665775172
 20
-98.71766441976504
 30
0.0
 10
3.566371665775172
 20
-98.71766441976504
 30
0.0
 10
3.566371665775172
 20
-98.71766441976504
 30
0.0
 10
3.566371665775172
 20
-118.278980525986
 30
0.0
 10
3.566371665775172
 20
-118.278980525986
 30
0.0
 10
3.566371665775172
 20
-118.278980525986
 30
0.0
 10
134.3502626835504
 20
-249.0665438266223
 30
0.0
 10
134.3502626835504
 20
-249.0665438266223
 30
0.0
 10
134.3502626835504
 20
-249.0665438266223
 30
0.0
 10
134.3507918502035
 20
-249.0660499377332
 30
0.0
 10
134.3507918502035
 20
-249.0660499377332
 30
0.0
 10
134.3507918502035
 20
-249.0660499377332
 30
0.0
 10
134.3507918502035
 20
-249.0698599377323
 30
0.0
 10
134.3507918502035
 20
-249.0698599377323
 30
0.0
 10
134.3507918502035
 20
-249.0698599377323
 30
0.0
 10
324.3507950584552
 20
-249.0698599377323
 30
0.0
 10
324.3507950584552
 20
-249.0698599377323
 30
0.0
 10
324.3507950584552
 20
-249.0698599377323
 30
0.0
 10
324.3507950584552
 20
-249.0646388266228
 30
0.0
 10
324.3507950584552
 20
-249.0646388266228
 30
0.0
 10
324.3507950584552
 20
-249.0646388266228
 30
0.0
 10
442.7048548893241
 20
-367.4187257414784
 30
0.0
 10
442.7048548893241
 20
-367.4187257414784
 30
0.0
 10
442.7048548893241
 20
-367.4187257414784
 30
0.0
 10
445.9209887774088
 20
-367.4187257414784
 30
0.0
 10
445.9209887774088
 20
-367.4187257414784
 30
0.0
 10
445.9209887774088
 20
-367.4187257414784
 30
0.0
 10
445.9209887774088
 20
-353.4187396338675
 30
0.0
 10
445.9209887774088
 20
-353.4187396338675
 30
0.0
 10
445.9209887774088
 20
-353.4187396338675
 30
0.0
 10
451.568220164886
 20
-353.4187396338675
 30
0.0
 10
451.568220164886
 20
-353.4187396338675
 30
0.0
 10
451.568220164886
 20
-353.4187396338675
 30
0.0
 10
451.568220164886
 20
-367.4187257414784
 30
0.0
 10
451.568220164886
 20
-367.4187257414784
 30
0.0
 10
451.568220164886
 20
-367.4187257414784
 30
0.0
 10
455.1370612751045
 20
-367.4187257414784
 30
0.0
 10
455.1370612751045
 20
-367.4187257414784
 30
0.0
 10
455.1370612751045
 20
-367.4187257414784
 30
0.0
 10
455.1370612751045
 20
-347.8574096352578
 30
0.0
 10
455.1370612751045
 20
-347.8574096352578
 30
0.0
 10
455.1370612751045
 20
-347.8574096352578
 30
0.0
 10
314.5309083645369
 20
-207.2520055037425
 30
0.0
 10
314.5309083645369
 20
-207.2520055037425
 30
0.0
  0
POLYLINE
  5
A1
330
9C
100
AcDbEntity
  8
Calque 3
 62
    22
420
 14951456
370
     5
100
AcDb2dPolyline
 66
     1
 10
0.0
 20
0.0
 30
0.0
  0
VERTEX
  5
A2
330
A1
100
AcDbEntity
  8
Calque 3
 62
    22
420
 14951456
370
     5
100
AcDbVertex
100
AcDb2dVertex
 10
240.3426608127923
 20
-228.6597957761684
 30
0.0
  0
VERTEX
  5
A3
330
A1
100
AcDbEntity
  8
Calque 3
 62
    22
420
 14951456
370
     5
100
AcDbVertex
100
AcDb2dVertex
 10
218.3426630407257
 20
-228.6597957761684
 30
0.0
  0
VERTEX
  5
A4
330
A1
100
AcDbEntity
  8
Calque 3
 62
    22
420
 14951456
370
     5
100
AcDbVertex
100
AcDb2dVertex
 10
218.3426630407257
 20
-222.4097729999532
 30
0.0
  0
VERTEX
  5
A5
330
A1
100
AcDbEntity
  8
Calque 3
 62
    22
420
 14951456
370
     5
100
AcDbVertex
100
AcDb2dVertex
 10
240.3426608127923
 20
-222.4097729999532
 30
0.0
  0
VERTEX
  5
A6
330
A1
100
AcDbEntity
  8
Calque 3
 62
    22
420
 14951456
370
     5
100
AcDbVertex
100
AcDb2dVertex
 10
240.3426608127923
 20
-228.6597957761684
 30
0.0
  0
SEQEND
  5
A7
330
A1
100
AcDbEntity
  8
Calque 3
 62
    22
420
 14951456
370
     5
  0
POLYLINE
  5
A8
330
9C
100
AcDbEntity
  8
Calque 3
 62
    22
420
 14951456
370
     5
100
AcDb2dPolyline
 66
     1
 10
0.0
 20
0.0
 30
0.0
  0
VERTEX
  5
A9
330
A8
100
AcDbEntity
  8
Calque 3
 62
    22
420
 14951456
370
     5
100
AcDbVertex
100
AcDb2dVertex
 10
316.2071672106609
 20
-228.6597957761684
 30
0.0
  0
VERTEX
  5
AA
330
A8
100
AcDbEntity
  8
Calque 3
 62
    22
420
 14951456
370
     5
100
AcDbVertex
100
AcDb2dVertex
 10
293.2071502974402
 20
-228.6597957761684
 30
0.0
  0
VERTEX
  5
AB
330
A8
100
AcDbEntity
  8
Calque 3
 62
    22
420
 14951456
370
     5
100
AcDbVertex
100
AcDb2dVertex
 10
293.2071502974402
 20
-222.4097729999532
 30
0.0
  0
VERTEX
  5
AC
330
A8
100
AcDbEntity
  8
Calque 3
 62
    22
420
 14951456
370
     5
100
AcDbVertex
100
AcDb2dVertex
 10
316.2071672106609
 20
-222.4097729999532
 30
0.0
  0
VERTEX
  5
AD
330
A8
100
AcDbEntity
  8
Calque 3
 62
    22
420
 14951456
370
     5
100
AcDbVertex
100
AcDb2dVertex
 10
316.2071672106609
 20
-228.6597957761684
 30
0.0
  0
SEQEND
  5
AE
330
A8
100
AcDbEntity
  8
Calque 3
 62
    22
420
 14951456
370
     5
  0
POLYLINE
  5
AF
330
9C
100
AcDbEntity
  8
Calque 3
 62
    22
420
 14951456
370
     5
100
AcDb2dPolyline
 66
     1
 10
0.0
 20
0.0
 30
0.0
  0
VERTEX
  5
B0
330
AF
100
AcDbEntity
  8
Calque 3
 62
    22
420
 14951456
370
     5
100
AcDbVertex
100
AcDb2dVertex
 10
165.4601466120936
 20
-228.6597957761684
 30
0.0
  0
VERTEX
  5
B1
330
AF
100
AcDbEntity
  8
Calque 3
 62
    22
420
 14951456
370
     5
100
AcDbVertex
100
AcDb2dVertex
 10
142.4601649766495
 20
-228.6597957761684
 30
0.0
  0
VERTEX
  5
B2
330
AF
100
AcDbEntity
  8
Calque 3
 62
    22
420
 14951456
370
     5
100
AcDbVertex
100
AcDb2dVertex
 10
142.4601649766495
 20
-222.4097729999532
 30
0.0
  0
VERTEX
  5
B3
330
AF
100
AcDbEntity
  8
Calque 3
 62
    22
420
 14951456
370
     5
100
AcDbVertex
100
AcDb2dVertex
 10
165.4601466120936
 20
-222.4097729999532
 30
0.0
  0
VERTEX
  5
B4
330
AF
100
AcDbEntity
  8
Calque 3
 62
    22
420
 14951456
370
     5
100
AcDbVertex
100
AcDb2dVertex
 10
165.4601466120936
 20
-228.6597957761684
 30
0.0
  0
SEQEND
  5
B5
330
AF
100
AcDbEntity
  8
Calque 3
 62
    22
420
 14951456
370
     5
  0
ENDBLK
  5
9F
330
9C
100
AcDbEntity
  8
0
100
AcDbBlockEnd
  0
BLOCK
  5
B8
330
B6
100
AcDbEntity
  8
0
100
AcDbBlockBegin
  2
block 5
 70
     0
 10
0.0
 20
0.0
 30
0.0
  3
block 5
  1

  0
SPLINE
  5
BA
330
B6
100
AcDbEntity
  8
Calque 3
 62
    22
420
 14951456
370
     5
100
AcDbSpline
210
0.0
220
0.0
230
1.0
 70
    11
 71
     3
 72
   137
 73
   133
 74
     0
 42
0.0000000001
 43
0.0000000001
 12
1.0
 22
0.0
 32
0.0
 13
1.0
 23
0.0
 33
0.0
 40
0.0
 40
0.0
 40
0.0
 40
0.0
 40
1.0
 40
1.0
 40
1.0
 40
2.0
 40
2.0
 40
2.0
 40
3.0
 40
3.0
 40
3.0
 40
4.0
 40
4.0
 40
4.0
 40
5.0
 40
5.0
 40
5.0
 40
6.0
 40
6.0
 40
6.0
 40
7.0
 40
7.0
 40
7.0
 40
8.0
 40
8.0
 40
8.0
 40
9.0
 40
9.0
 40
9.0
 40
10.0
 40
10.0
 40
10.0
 40
11.0
 40
11.0
 40
11.0
 40
12.0
 40
12.0
 40
12.0
 40
13.0
 40
13.0
 40
13.0
 40
14.0
 40
14.0
 40
14.0
 40
15.0
 40
15.0
 40
15.0
 40
16.0
 40
16.0
 40
16.0
 40
17.0
 40
17.0
 40
17.0
 40
18.0
 40
18.0
 40
18.0
 40
19.0
 40
19.0
 40
19.0
 40
20.0
 40
20.0
 40
20.0
 40
21.0
 40
21.0
 40
21.0
 40
22.0
 40
22.0
 40
22.0
 40
23.0
 40
23.0
 40
23.0
 40
24.0
 40
24.0
 40
24.0
 40
25.0
 40
25.0
 40
25.0
 40
26.0
 40
26.0
 40
26.0
 40
27.0
 40
27.0
 40
27.0
 40
28.0
 40
28.0
 40
28.0
 40
29.0
 40
29.0
 40
29.0
 40
30.0
 40
30.0
 40
30.0
 40
31.0
 40
31.0
 40
31.0
 40
32.0
 40
32.0
 40
32.0
 40
33.0
 40
33.0
 40
33.0
 40
34.0
 40
34.0
 40
34.0
 40
35.0
 40
35.0
 40
35.0
 40
36.0
 40
36.0
 40
36.0
 40
37.0
 40
37.0
 40
37.0
 40
38.0
 40
38.0
 40
38.0
 40
39.0
 40
39.0
 40
39.0
 40
40.0
 40
40.0
 40
40.0
 40
41.0
 40
41.0
 40
41.0
 40
42.0
 40
42.0
 40
42.0
 40
43.0
 40
43.0
 40
43.0
 40
44.0
 40
44.0
 40
44.0
 40
44.0
 10
314.5309083645369
 20
-252.5058802146512
 30
0.0
 10
313.3642017276354
 20
-251.3391735482765
 30
0.0
 10
311.253426503708
 20
-251.0815046594519
 30
0.0
 10
309.8403045953153
 20
-251.9333218814612
 30
0.0
 10
309.8403045953153
 20
-251.9333218814612
 30
0.0
 10
295.2274380236761
 20
-260.742006601481
 30
0.0
 10
295.2274380236761
 20
-260.742006601481
 30
0.0
 10
293.8142808375065
 20
-261.5938238234903
 30
0.0
 10
291.703540891356
 20
-261.3361902124438
 30
0.0
 10
290.5367989766776
 20
-260.169483546069
 30
0.0
 10
290.5367989766776
 20
-260.169483546069
 30
0.0
 10
282.8731958388591
 20
-252.5058802146512
 30
0.0
 10
282.8731958388591
 20
-252.5058802146512
 30
0.0
 10
281.7064610406847
 20
-251.3391735482765
 30
0.0
 10
279.5956787002533
 20
-251.0815046594519
 30
0.0
 10
278.1825920696375
 20
-251.9333218814612
 30
0.0
 10
278.1825920696375
 20
-251.9333218814612
 30
0.0
 10
263.5696902202214
 20
-260.742006601481
 30
0.0
 10
263.5696902202214
 20
-260.742006601481
 30
0.0
 10
262.1565749344606
 20
-261.5938238234903
 30
0.0
 10
260.0458283656782
 20
-261.3361902124438
 30
0.0
 10
258.8790864509998
 20
-260.169483546069
 30
0.0
 10
258.8790864509998
 20
-260.169483546069
 30
0.0
 10
251.2154833131813
 20
-252.5058802146512
 30
0.0
 10
251.2154833131813
 20
-252.5058802146512
 30
0.0
 10
250.0487413985029
 20
-251.3391735482765
 30
0.0
 10
247.9379661745755
 20
-251.0815046594519
 30
0.0
 10
246.5248795439597
 20
-251.9333218814612
 30
0.0
 10
246.5248795439597
 20
-251.9333218814612
 30
0.0
 10
231.9119776945437
 20
-260.742006601481
 30
0.0
 10
231.9119776945437
 20
-260.742006601481
 30
0.0
 10
230.498855786151
 20
-261.5938238234903
 30
0.0
 10
228.186503345144
 20
-261.5938238234903
 30
0.0
 10
226.7733814367513
 20
-260.742006601481
 30
0.0
 10
226.7733814367513
 20
-260.742006601481
 30
0.0
 10
212.1604795873352
 20
-251.9333218814612
 30
0.0
 10
212.1604795873352
 20
-251.9333218814612
 30
0.0
 10
210.7473929567194
 20
-251.0815046594519
 30
0.0
 10
208.636617732792
 20
-251.3391735482765
 30
0.0
 10
207.4698758181139
 20
-252.5058802146512
 30
0.0
 10
207.4698758181139
 20
-252.5058802146512
 30
0.0
 10
199.8062777278263
 20
-260.169483546069
 30
0.0
 10
199.8062777278263
 20
-260.169483546069
 30
0.0
 10
198.6395660433936
 20
-261.3361902124438
 30
0.0
 10
196.5287908194662
 20
-261.5938238234903
 30
0.0
 10
195.1156689110735
 20
-260.742006601481
 30
0.0
 10
195.1156689110735
 20
-260.742006601481
 30
0.0
 10
180.5027670616574
 20
-251.9333218814612
 30
0.0
 10
180.5027670616574
 20
-251.9333218814612
 30
0.0
 10
179.0896451532647
 20
-251.0815046594519
 30
0.0
 10
176.9788699293373
 20
-251.3391735482765
 30
0.0
 10
175.8121632924358
 20
-252.5058802146512
 30
0.0
 10
175.8121632924358
 20
-252.5058802146512
 30
0.0
 10
168.1485601546173
 20
-260.169483546069
 30
0.0
 10
168.1485601546173
 20
-260.169483546069
 30
0.0
 10
166.9818535177158
 20
-261.3361902124438
 30
0.0
 10
164.8710782937884
 20
-261.5938238234903
 30
0.0
 10
163.4579563853957
 20
-260.742006601481
 30
0.0
 10
163.4579563853957
 20
-260.742006601481
 30
0.0
 10
148.845058296122
 20
-251.9333218814612
 30
0.0
 10
148.845058296122
 20
-251.9333218814612
 30
0.0
 10
147.4319326275869
 20
-251.0815046594519
 30
0.0
 10
145.3211610747809
 20
-251.3391735482765
 30
0.0
 10
144.154450766758
 20
-252.5058802146512
 30
0.0
 10
144.154450766758
 20
-252.5058802146512
 30
0.0
 10
136.4908476289395
 20
-260.169483546069
 30
0.0
 10
136.4908476289395
 20
-260.169483546069
 30
0.0
 10
135.934834587569
 20
-260.7254966014851
 30
0.0
 10
134.3507918502035
 20
-262.323756323308
 30
0.0
 10
134.3507918502035
 20
-262.323756323308
 30
0.0
 10
134.3507918502035
 20
-262.323756323308
 30
0.0
 10
132.6065527280361
 20
-260.5795524348552
 30
0.0
 10
133.4786546502314
 20
-261.4516543790813
 30
0.0
 10
134.3507918502035
 20
-262.323756323308
 30
0.0
 10
15.99857805155593
 20
-143.9715391306737
 30
0.0
 10
15.99857805155593
 20
-143.9715391306737
 30
0.0
 10
15.99857805155593
 20
-143.9715391306737
 30
0.0
 10
12.78247944124882
 20
-143.9715391306737
 30
0.0
 10
12.78247944124882
 20
-143.9715391306737
 30
0.0
 10
12.78247944124882
 20
-143.9715391306737
 30
0.0
 10
12.78247944124882
 20
-157.971525238285
 30
0.0
 10
12.78247944124882
 20
-157.971525238285
 30
0.0
 10
12.78247944124882
 20
-157.971525238285
 30
0.0
 10
7.135248053771873
 20
-157.971525238285
 30
0.0
 10
7.135248053771873
 20
-157.971525238285
 30
0.0
 10
7.135248053771873
 20
-157.971525238285
 30
0.0
 10
7.135248053771873
 20
-143.9715391306737
 30
0.0
 10
7.135248053771873
 20
-143.9715391306737
 30
0.0
 10
7.135248053771873
 20
-143.9715391306737
 30
0.0
 10
3.566371665775172
 20
-143.9715391306737
 30
0.0
 10
3.566371665775172
 20
-143.9715391306737
 30
0.0
 10
3.566371665775172
 20
-143.9715391306737
 30
0.0
 10
3.566371665775172
 20
-163.5328905146728
 30
0.0
 10
3.566371665775172
 20
-163.5328905146728
 30
0.0
 10
3.566371665775172
 20
-163.5328905146728
 30
0.0
 10
134.3502626835504
 20
-294.3204185375307
 30
0.0
 10
134.3502626835504
 20
-294.3204185375307
 30
0.0
 10
134.3502626835504
 20
-294.3204185375307
 30
0.0
 10
134.3507918502035
 20
-294.3199246486423
 30
0.0
 10
134.3507918502035
 20
-294.3199246486423
 30
0.0
 10
134.3507918502035
 20
-294.3199246486423
 30
0.0
 10
134.3507918502035
 20
-294.3237346486413
 30
0.0
 10
134.3507918502035
 20
-294.3237346486413
 30
0.0
 10
134.3507918502035
 20
-294.3237346486413
 30
0.0
 10
324.3507950584552
 20
-294.3237346486413
 30
0.0
 10
324.3507950584552
 20
-294.3237346486413
 30
0.0
 10
324.3507950584552
 20
-294.3237346486413
 30
0.0
 10
324.3507950584552
 20
-294.3185488153094
 30
0.0
 10
324.3507950584552
 20
-294.3185488153094
 30
0.0
 10
324.3507950584552
 20
-294.3185488153094
 30
0.0
 10
442.7048548893241
 20
-412.672635730165
 30
0.0
 10
442.7048548893241
 20
-412.672635730165
 30
0.0
 10
442.7048548893241
 20
-412.672635730165
 30
0.0
 10
445.9209887774088
 20
-412.672635730165
 30
0.0
 10
445.9209887774088
 20
-412.672635730165
 30
0.0
 10
445.9209887774088
 20
-412.672635730165
 30
0.0
 10
445.9209887774088
 20
-398.672649622554
 30
0.0
 10
445.9209887774088
 20
-398.672649622554
 30
0.0
 10
445.9209887774088
 20
-398.672649622554
 30
0.0
 10
451.568220164886
 20
-398.672649622554
 30
0.0
 10
451.568220164886
 20
-398.672649622554
 30
0.0
 10
451.568220164886
 20
-398.672649622554
 30
0.0
 10
451.568220164886
 20
-412.672635730165
 30
0.0
 10
451.568220164886
 20
-412.672635730165
 30
0.0
 10
451.568220164886
 20
-412.672635730165
 30
0.0
 10
455.1370612751045
 20
-412.672635730165
 30
0.0
 10
455.1370612751045
 20
-412.672635730165
 30
0.0
 10
455.1370612751045
 20
-412.672635730165
 30
0.0
 10
455.1370612751045
 20
-393.1112843461668
 30
0.0
 10
455.1370612751045
 20
-393.1112843461668
 30
0.0
 10
455.1370612751045
 20
-393.1112843461668
 30
0.0
 10
314.5309083645369
 20
-252.5058802146512
 30
0.0
 10
314.5309083645369
 20
-252.5058802146512
 30
0.0
  0
ENDBLK
  5
B9
330
B6
100
AcDbEntity
  8
0
100
AcDbBlockEnd
  0
ENDSEC
  0
SECTION
  2
ENTITIES
  0
POLYLINE
  5
41
330
1F
100
AcDbEntity
  8
Calque 3
 62
    22
420
 14951456
370
     5
100
AcDb2dPolyline
 66
     1
 10
0.0
 20
0.0
 30
0.0
  0
VERTEX
  5
42
330
41
100
AcDbEntity
  8
Calque 3
 62
    22
420
 14951456
370
     5
100
AcDbVertex
100
AcDb2dVertex
 10
404.1454676767417
 20
-111.3295405277233
 30
0.0
  0
VERTEX
  5
43
330
41
100
AcDbEntity
  8
Calque 3
 62
    22
420
 14951456
370
     5
100
AcDbVertex
100
AcDb2dVertex
 10
404.1454676767417
 20
-91.76818914372456
 30
0.0
  0
VERTEX
  5
44
330
41
100
AcDbEntity
  8
Calque 3
 62
    22
420
 14951456
370
     5
100
AcDbVertex
100
AcDb2dVertex
 10
400.576591288745
 20
-91.76818914372456
 30
0.0
  0
VERTEX
  5
45
330
41
100
AcDbEntity
  8
Calque 3
 62
    22
420
 14951456
370
     5
100
AcDbVertex
100
AcDb2dVertex
 10
400.576591288745
 20
-105.7681752513358
 30
0.0
  0
VERTEX
  5
46
330
41
100
AcDbEntity
  8
Calque 3
 62
    22
420
 14951456
370
     5
100
AcDbVertex
100
AcDb2dVertex
 10
394.9293599012677
 20
-105.7681752513358
 30
0.0
  0
VERTEX
  5
47
330
41
100
AcDbEntity
  8
Calque 3
 62
    22
420
 14951456
370
     5
100
AcDbVertex
100
AcDb2dVertex
 10
394.9293599012677
 20
-91.76818914372456
 30
0.0
  0
VERTEX
  5
48
330
41
100
AcDbEntity
  8
Calque 3
 62
    22
420
 14951456
370
     5
100
AcDbVertex
100
AcDb2dVertex
 10
134.9293473909989
 20
-91.76818914372456
 30
0.0
  0
VERTEX
  5
49
330
41
100
AcDbEntity
  8
Calque 3
 62
    22
420
 14951456
370
     5
100
AcDbVertex
100
AcDb2dVertex
 10
134.9293473909989
 20
-105.7681752513358
 30
0.0
  0
VERTEX
  5
4A
330
41
100
AcDbEntity
  8
Calque 3
 62
    22
420
 14951456
370
     5
100
AcDbVertex
100
AcDb2dVertex
 10
129.2821194121239
 20
-105.7681752513358
 30
0.0
  0
VERTEX
  5
4B
330
41
100
AcDbEntity
  8
Calque 3
 62
    22
420
 14951456
370
     5
100
AcDbVertex
100
AcDb2dVertex
 10
129.2821194121239
 20
-91.76818914372456
 30
0.0
  0
VERTEX
  5
4C
330
41
100
AcDbEntity
  8
Calque 3
 62
    22
420
 14951456
370
     5
100
AcDbVertex
100
AcDb2dVertex
 10
125.7132398483436
 20
-91.76818914372456
 30
0.0
  0
VERTEX
  5
4D
330
41
100
AcDbEntity
  8
Calque 3
 62
    22
420
 14951456
370
     5
100
AcDbVertex
100
AcDb2dVertex
 10
125.7132398483436
 20
-111.3295405277233
 30
0.0
  0
VERTEX
  5
4E
330
41
100
AcDbEntity
  8
Calque 3
 62
    22
420
 14951456
370
     5
100
AcDbVertex
100
AcDb2dVertex
 10
404.1454676767417
 20
-111.3295405277233
 30
0.0
  0
SEQEND
  5
4F
330
41
100
AcDbEntity
  8
Calque 3
 62
    22
420
 14951456
370
     5
  0
POLYLINE
  5
50
330
1F
100
AcDbEntity
  8
Calque 3
 62
    22
420
 14951456
370
     5
100
AcDb2dPolyline
 66
     1
 10
0.0
 20
0.0
 30
0.0
  0
VERTEX
  5
51
330
50
100
AcDbEntity
  8
Calque 3
 62
    22
420
 14951456
370
     5
100
AcDbVertex
100
AcDb2dVertex
 10
378.6602718497796
 20
-85.99184108961323
 30
0.0
  0
VERTEX
  5
52
330
50
100
AcDbEntity
  8
Calque 3
 62
    22
420
 14951456
370
     5
100
AcDbVertex
100
AcDb2dVertex
 10
378.6602718497796
 20
-66.4305249833923
 30
0.0
  0
VERTEX
  5
53
330
50
100
AcDbEntity
  8
Calque 3
 62
    22
420
 14951456
370
     5
100
AcDbVertex
100
AcDb2dVertex
 10
375.0914307395605
 20
-66.4305249833923
 30
0.0
  0
VERTEX
  5
54
330
50
100
AcDbEntity
  8
Calque 3
 62
    22
420
 14951456
370
     5
100
AcDbVertex
100
AcDb2dVertex
 10
375.0914307395605
 20
-80.43047581322571
 30
0.0
  0
VERTEX
  5
55
330
50
100
AcDbEntity
  8
Calque 3
 62
    22
420
 14951456
370
     5
100
AcDbVertex
100
AcDb2dVertex
 10
369.4441993520832
 20
-80.43047581322571
 30
0.0
  0
VERTEX
  5
56
330
50
100
AcDbEntity
  8
Calque 3
 62
    22
420
 14951456
370
     5
100
AcDbVertex
100
AcDb2dVertex
 10
369.4441993520832
 20
-66.4305249833923
 30
0.0
  0
VERTEX
  5
57
330
50
100
AcDbEntity
  8
Calque 3
 62
    22
420
 14951456
370
     5
100
AcDbVertex
100
AcDb2dVertex
 10
109.4441874856239
 20
-66.4305249833923
 30
0.0
  0
VERTEX
  5
58
330
50
100
AcDbEntity
  8
Calque 3
 62
    22
420
 14951456
370
     5
100
AcDbVertex
100
AcDb2dVertex
 10
109.4441874856239
 20
-80.43047581322571
 30
0.0
  0
VERTEX
  5
59
330
50
100
AcDbEntity
  8
Calque 3
 62
    22
420
 14951456
370
     5
100
AcDbVertex
100
AcDb2dVertex
 10
103.796920963031
 20
-80.43047581322571
 30
0.0
  0
VERTEX
  5
5A
330
50
100
AcDbEntity
  8
Calque 3
 62
    22
420
 14951456
370
     5
100
AcDbVertex
100
AcDb2dVertex
 10
103.796920963031
 20
-66.4305249833923
 30
0.0
  0
VERTEX
  5
5B
330
50
100
AcDbEntity
  8
Calque 3
 62
    22
420
 14951456
370
     5
100
AcDbVertex
100
AcDb2dVertex
 10
100.2280799429686
 20
-66.4305249833923
 30
0.0
  0
VERTEX
  5
5C
330
50
100
AcDbEntity
  8
Calque 3
 62
    22
420
 14951456
370
     5
100
AcDbVertex
100
AcDb2dVertex
 10
100.2280799429686
 20
-85.99184108961323
 30
0.0
  0
VERTEX
  5
5D
330
50
100
AcDbEntity
  8
Calque 3
 62
    22
420
 14951456
370
     5
100
AcDbVertex
100
AcDb2dVertex
 10
378.6602718497796
 20
-85.99184108961323
 30
0.0
  0
SEQEND
  5
5E
330
50
100
AcDbEntity
  8
Calque 3
 62
    22
420
 14951456
370
     5
  0
POLYLINE
  5
5F
330
1F
100
AcDbEntity
  8
Calque 3
 62
    22
420
 14951456
370
     5
100
AcDb2dPolyline
 66
     1
 10
0.0
 20
0.0
 30
0.0
  0
VERTEX
  5
60
330
5F
100
AcDbEntity
  8
Calque 3
 62
    22
420
 14951456
370
     5
100
AcDbVertex
100
AcDb2dVertex
 10
353.0631396339564
 20
-60.65417692928097
 30
0.0
  0
VERTEX
  5
61
330
5F
100
AcDbEntity
  8
Calque 3
 62
    22
420
 14951456
370
     5
100
AcDbVertex
100
AcDb2dVertex
 10
353.0631396339564
 20
-41.0928255452822
 30
0.0
  0
VERTEX
  5
62
330
5F
100
AcDbEntity
  8
Calque 3
 62
    22
420
 14951456
370
     5
100
AcDbVertex
100
AcDb2dVertex
 10
349.4942544169921
 20
-41.0928255452822
 30
0.0
  0
VERTEX
  5
63
330
5F
100
AcDbEntity
  8
Calque 3
 62
    22
420
 14951456
370
     5
100
AcDbVertex
100
AcDb2dVertex
 10
349.4942544169921
 20
-55.09281165289345
 30
0.0
  0
VERTEX
  5
64
330
5F
100
AcDbEntity
  8
Calque 3
 62
    22
420
 14951456
370
     5
100
AcDbVertex
100
AcDb2dVertex
 10
343.8470231721761
 20
-55.09281165289345
 30
0.0
  0
VERTEX
  5
65
330
5F
100
AcDbEntity
  8
Calque 3
 62
    22
420
 14951456
370
     5
100
AcDbVertex
100
AcDb2dVertex
 10
343.8470231721761
 20
-41.0928255452822
 30
0.0
  0
VERTEX
  5
66
330
5F
100
AcDbEntity
  8
Calque 3
 62
    22
420
 14951456
370
     5
100
AcDbVertex
100
AcDb2dVertex
 10
83.84702063866207
 20
-41.0928255452822
 30
0.0
  0
VERTEX
  5
67
330
5F
100
AcDbEntity
  8
Calque 3
 62
    22
420
 14951456
370
     5
100
AcDbVertex
100
AcDb2dVertex
 10
83.84702063866207
 20
-55.09281165289345
 30
0.0
  0
VERTEX
  5
68
330
5F
100
AcDbEntity
  8
Calque 3
 62
    22
420
 14951456
370
     5
100
AcDbVertex
100
AcDb2dVertex
 10
78.19978939384605
 20
-55.09281165289345
 30
0.0
  0
VERTEX
  5
69
330
5F
100
AcDbEntity
  8
Calque 3
 62
    22
420
 14951456
370
     5
100
AcDbVertex
100
AcDb2dVertex
 10
78.19978939384605
 20
-41.0928255452822
 30
0.0
  0
VERTEX
  5
6A
330
5F
100
AcDbEntity
  8
Calque 3
 62
    22
420
 14951456
370
     5
100
AcDbVertex
100
AcDb2dVertex
 10
74.63091309600678
 20
-41.0928255452822
 30
0.0
  0
VERTEX
  5
6B
330
5F
100
AcDbEntity
  8
Calque 3
 62
    22
420
 14951456
370
     5
100
AcDbVertex
100
AcDb2dVertex
 10
74.63091309600678
 20
-60.65417692928097
 30
0.0
  0
VERTEX
  5
6C
330
5F
100
AcDbEntity
  8
Calque 3
 62
    22
420
 14951456
370
     5
100
AcDbVertex
100
AcDb2dVertex
 10
353.0631396339564
 20
-60.65417692928097
 30
0.0
  0
SEQEND
  5
6D
330
5F
100
AcDbEntity
  8
Calque 3
 62
    22
420
 14951456
370
     5
  0
POLYLINE
  5
6E
330
1F
100
AcDbEntity
  8
Calque 3
 62
    22
420
 14951456
370
     5
100
AcDb2dPolyline
 66
     1
 10
0.0
 20
0.0
 30
0.0
  0
VERTEX
  5
6F
330
6E
100
AcDbEntity
  8
Calque 3
 62
    22
420
 14951456
370
     5
100
AcDbVertex
100
AcDb2dVertex
 10
328.3906649553895
 20
-35.31647749117087
 30
0.0
  0
VERTEX
  5
70
330
6E
100
AcDbEntity
  8
Calque 3
 62
    22
420
 14951456
370
     5
100
AcDbVertex
100
AcDb2dVertex
 10
328.3906649553895
 20
-15.75516138494994
 30
0.0
  0
VERTEX
  5
71
330
6E
100
AcDbEntity
  8
Calque 3
 62
    22
420
 14951456
370
     5
100
AcDbVertex
100
AcDb2dVertex
 10
324.8217886575502
 20
-15.75516138494994
 30
0.0
  0
VERTEX
  5
72
330
6E
100
AcDbEntity
  8
Calque 3
 62
    22
420
 14951456
370
     5
100
AcDbVertex
100
AcDb2dVertex
 10
324.8217886575502
 20
-29.75511221478336
 30
0.0
  0
VERTEX
  5
73
330
6E
100
AcDbEntity
  8
Calque 3
 62
    22
420
 14951456
370
     5
100
AcDbVertex
100
AcDb2dVertex
 10
319.1745574127342
 20
-29.75511221478336
 30
0.0
  0
VERTEX
  5
74
330
6E
100
AcDbEntity
  8
Calque 3
 62
    22
420
 14951456
370
     5
100
AcDbVertex
100
AcDb2dVertex
 10
319.1745574127342
 20
-15.75516138494994
 30
0.0
  0
VERTEX
  5
75
330
6E
100
AcDbEntity
  8
Calque 3
 62
    22
420
 14951456
370
     5
100
AcDbVertex
100
AcDb2dVertex
 10
59.17455487922022
 20
-15.75516138494994
 30
0.0
  0
VERTEX
  5
76
330
6E
100
AcDbEntity
  8
Calque 3
 62
    22
420
 14951456
370
     5
100
AcDbVertex
100
AcDb2dVertex
 10
59.17455487922022
 20
-29.75511221478336
 30
0.0
  0
VERTEX
  5
77
330
6E
100
AcDbEntity
  8
Calque 3
 62
    22
420
 14951456
370
     5
100
AcDbVertex
100
AcDb2dVertex
 10
53.52732498661809
 20
-29.75511221478336
 30
0.0
  0
VERTEX
  5
78
330
6E
100
AcDbEntity
  8
Calque 3
 62
    22
420
 14951456
370
     5
100
AcDbVertex
100
AcDb2dVertex
 10
53.52732498661809
 20
-15.75516138494994
 30
0.0
  0
VERTEX
  5
79
330
6E
100
AcDbEntity
  8
Calque 3
 62
    22
420
 14951456
370
     5
100
AcDbVertex
100
AcDb2dVertex
 10
49.95844733656494
 20
-15.75516138494994
 30
0.0
  0
VERTEX
  5
7A
330
6E
100
AcDbEntity
  8
Calque 3
 62
    22
420
 14951456
370
     5
100
AcDbVertex
100
AcDb2dVertex
 10
49.95844733656494
 20
-35.31647749117087
 30
0.0
  0
VERTEX
  5
7B
330
6E
100
AcDbEntity
  8
Calque 3
 62
    22
420
 14951456
370
     5
100
AcDbVertex
100
AcDb2dVertex
 10
328.3906649553895
 20
-35.31647749117087
 30
0.0
  0
SEQEND
  5
7C
330
6E
100
AcDbEntity
  8
Calque 3
 62
    22
420
 14951456
370
     5
  0
INSERT
  5
7E
330
1F
100
AcDbEntity
  8
Calque 3
100
AcDbBlockReference
  2
block 2
 10
0.0
 20
0.0
 30
0.0
  0
INSERT
  5
98
330
1F
100
AcDbEntity
  8
Calque 3
100
AcDbBlockReference
  2
block 3
 10
0.0
 20
0.0
 30
0.0
  0
INSERT
  5
9D
330
1F
100
AcDbEntity
  8
Calque 3
100
AcDbBlockReference
  2
block 4
 10
0.0
 20
0.0
 30
0.0
  0
INSERT
  5
B7
330
1F
100
AcDbEntity
  8
Calque 3
100
AcDbBlockReference
  2
block 5
 10
0.0
 20
0.0
 30
0.0
  0
POLYLINE
  5
BB
330
1F
100
AcDbEntity
  8
Calque 3
 62
    22
420
 14951456
370
     5
100
AcDb2dPolyline
 66
     1
 10
0.0
 20
0.0
 30
0.0
  0
VERTEX
  5
BC
330
BB
100
AcDbEntity
  8
Calque 3
 62
    22
420
 14951456
370
     5
100
AcDbVertex
100
AcDb2dVertex
 10
127.7360675745147
 20
-309.7862668669978
 30
0.0
  0
VERTEX
  5
BD
330
BB
100
AcDbEntity
  8
Calque 3
 62
    22
420
 14951456
370
     5
100
AcDbVertex
100
AcDb2dVertex
 10
121.7360585609211
 20
-309.7862668669978
 30
0.0
  0
VERTEX
  5
BE
330
BB
100
AcDbEntity
  8
Calque 3
 62
    22
420
 14951456
370
     5
100
AcDbVertex
100
AcDb2dVertex
 10
121.7360585609211
 20
-332.7862843612481
 30
0.0
  0
VERTEX
  5
BF
330
BB
100
AcDbEntity
  8
Calque 3
 62
    22
420
 14951456
370
     5
100
AcDbVertex
100
AcDb2dVertex
 10
127.7360675745147
 20
-332.7862843612481
 30
0.0
  0
VERTEX
  5
C0
330
BB
100
AcDbEntity
  8
Calque 3
 62
    22
420
 14951456
370
     5
100
AcDbVertex
100
AcDb2dVertex
 10
127.7360675745147
 20
-385.6507751813653
 30
0.0
  0
VERTEX
  5
C1
330
BB
100
AcDbEntity
  8
Calque 3
 62
    22
420
 14951456
370
     5
100
AcDbVertex
100
AcDb2dVertex
 10
121.7360585609211
 20
-385.6507751813653
 30
0.0
  0
VERTEX
  5
C2
330
BB
100
AcDbEntity
  8
Calque 3
 62
    22
420
 14951456
370
     5
100
AcDbVertex
100
AcDb2dVertex
 10
121.7360585609211
 20
-407.6507735091985
 30
0.0
  0
VERTEX
  5
C3
330
BB
100
AcDbEntity
  8
Calque 3
 62
    22
420
 14951456
370
     5
100
AcDbVertex
100
AcDb2dVertex
 10
127.7360675745147
 20
-407.6507735091985
 30
0.0
  0
VERTEX
  5
C4
330
BB
100
AcDbEntity
  8
Calque 3
 62
    22
420
 14951456
370
     5
100
AcDbVertex
100
AcDb2dVertex
 10
127.7360675745147
 20
-460.5332912737559
 30
0.0
  0
VERTEX
  5
C5
330
BB
100
AcDbEntity
  8
Calque 3
 62
    22
420
 14951456
370
     5
100
AcDbVertex
100
AcDb2dVertex
 10
121.7360585609211
 20
-460.5332912737559
 30
0.0
  0
VERTEX
  5
C6
330
BB
100
AcDbEntity
  8
Calque 3
 62
    22
420
 14951456
370
     5
100
AcDbVertex
100
AcDb2dVertex
 10
121.7360585609211
 20
-483.533273490228
 30
0.0
  0
VERTEX
  5
C7
330
BB
100
AcDbEntity
  8
Calque 3
 62
    22
420
 14951456
370
     5
100
AcDbVertex
100
AcDb2dVertex
 10
127.7360675745147
 20
-483.533273490228
 30
0.0
  0
VERTEX
  5
C8
330
BB
100
AcDbEntity
  8
Calque 3
 62
    22
420
 14951456
370
     5
100
AcDbVertex
100
AcDb2dVertex
 10
127.7360675745147
 20
-491.6426468215338
 30
0.0
  0
VERTEX
  5
C9
330
BB
100
AcDbEntity
  8
Calque 3
 62
    22
420
 14951456
370
     5
100
AcDbVertex
100
AcDb2dVertex
 10
327.7360505276457
 20
-491.6426468215338
 30
0.0
  0
VERTEX
  5
CA
330
BB
100
AcDbEntity
  8
Calque 3
 62
    22
420
 14951456
370
     5
100
AcDbVertex
100
AcDb2dVertex
 10
327.7360505276457
 20
-483.533273490228
 30
0.0
  0
VERTEX
  5
CB
330
BB
100
AcDbEntity
  8
Calque 3
 62
    22
420
 14951456
370
     5
100
AcDbVertex
100
AcDb2dVertex
 10
333.7360595412393
 20
-483.533273490228
 30
0.0
  0
VERTEX
  5
CC
330
BB
100
AcDbEntity
  8
Calque 3
 62
    22
420
 14951456
370
     5
100
AcDbVertex
100
AcDb2dVertex
 10
333.7360595412393
 20
-460.5332912737559
 30
0.0
  0
VERTEX
  5
CD
330
BB
100
AcDbEntity
  8
Calque 3
 62
    22
420
 14951456
370
     5
100
AcDbVertex
100
AcDb2dVertex
 10
327.7360505276457
 20
-460.5332912737559
 30
0.0
  0
VERTEX
  5
CE
330
BB
100
AcDbEntity
  8
Calque 3
 62
    22
420
 14951456
370
     5
100
AcDbVertex
100
AcDb2dVertex
 10
327.7360505276457
 20
-407.6507735091985
 30
0.0
  0
VERTEX
  5
CF
330
BB
100
AcDbEntity
  8
Calque 3
 62
    22
420
 14951456
370
     5
100
AcDbVertex
100
AcDb2dVertex
 10
333.7360595412393
 20
-407.6507735091985
 30
0.0
  0
VERTEX
  5
D0
330
BB
100
AcDbEntity
  8
Calque 3
 62
    22
420
 14951456
370
     5
100
AcDbVertex
100
AcDb2dVertex
 10
333.7360595412393
 20
-385.6507751813653
 30
0.0
  0
VERTEX
  5
D1
330
BB
100
AcDbEntity
  8
Calque 3
 62
    22
420
 14951456
370
     5
100
AcDbVertex
100
AcDb2dVertex
 10
327.7360505276457
 20
-385.6507751813653
 30
0.0
  0
VERTEX
  5
D2
330
BB
100
AcDbEntity
  8
Calque 3
 62
    22
420
 14951456
370
     5
100
AcDbVertex
100
AcDb2dVertex
 10
327.7360505276457
 20
-332.7862843612481
 30
0.0
  0
VERTEX
  5
D3
330
BB
100
AcDbEntity
  8
Calque 3
 62
    22
420
 14951456
370
     5
100
AcDbVertex
100
AcDb2dVertex
 10
333.7360595412393
 20
-332.7862843612481
 30
0.0
  0
VERTEX
  5
D4
330
BB
100
AcDbEntity
  8
Calque 3
 62
    22
420
 14951456
370
     5
100
AcDbVertex
100
AcDb2dVertex
 10
333.7360595412393
 20
-309.7862668669978
 30
0.0
  0
VERTEX
  5
D5
330
BB
100
AcDbEntity
  8
Calque 3
 62
    22
420
 14951456
370
     5
100
AcDbVertex
100
AcDb2dVertex
 10
327.7360505276457
 20
-309.7862668669978
 30
0.0
  0
VERTEX
  5
D6
330
BB
100
AcDbEntity
  8
Calque 3
 62
    22
420
 14951456
370
     5
100
AcDbVertex
100
AcDb2dVertex
 10
327.7360505276457
 20
-301.642638813478
 30
0.0
  0
VERTEX
  5
D7
330
BB
100
AcDbEntity
  8
Calque 3
 62
    22
420
 14951456
370
     5
100
AcDbVertex
100
AcDb2dVertex
 10
127.7360675745147
 20
-301.642638813478
 30
0.0
  0
VERTEX
  5
D8
330
BB
100
AcDbEntity
  8
Calque 3
 62
    22
420
 14951456
370
     5
100
AcDbVertex
100
AcDb2dVertex
 10
127.7360675745147
 20
-309.7862668669978
 30
0.0
  0
SEQEND
  5
D9
330
BB
100
AcDbEntity
  8
Calque 3
 62
    22
420
 14951456
370
     5
  0
ENDSEC
  0
SECTION
  2
OBJECTS
  0
DICTIONARY
  5
C
330
0
100
AcDbDictionary
281
     1
  3
ACAD_GROUP
350
D
  3
ACAD_LAYOUT
350
1A
  3
ACAD_MATERIAL
350
3B
  3
ACAD_MLEADERSTYLE
350
DB
  3
ACAD_MLINESTYLE
350
17
  3
ACAD_PLOTSETTINGS
350
19
  3
ACAD_PLOTSTYLENAME
350
E
  3
ACAD_TABLESTYLE
350
DA
  3
ACAD_VISUALSTYLE
350
2A
  0
SUN
  5
3F
330
29
100
AcDbSun
 90
        1
290
     0
 63
     7
421
 16777215
 40
1.0
291
     1
 91
  2455826
 92
 54000000
292
     0
 70
     2
 71
   256
280
     1
  0
DICTIONARY
  5
D
102
{ACAD_REACTORS
330
C
102
}
330
C
100
AcDbDictionary
281
     1
  0
DICTIONARY
  5
1A
102
{ACAD_REACTORS
330
C
102
}
330
C
100
AcDbDictionary
281
     1
  3
Layout1
350
1E
  3
Layout2
350
26
  3
Model
350
22
  0
DICTIONARY
  5
3B
102
{ACAD_REACTORS
330
C
102
}
330
C
100
AcDbDictionary
281
     1
  3
ByBlock
350
3D
  3
ByLayer
350
3C
  3
Global
350
3E
  0
DICTIONARY
  5
DB
102
{ACAD_REACTORS
330
C
102
}
330
C
100
AcDbDictionary
281
     1
  0
DICTIONARY
  5
17
102
{ACAD_REACTORS
330
C
102
}
330
C
100
AcDbDictionary
281
     1
  3
Standard
350
18
  0
DICTIONARY
  5
19
102
{ACAD_REACTORS
330
C
102
}
330
C
100
AcDbDictionary
281
     1
  0
ACDBDICTIONARYWDFLT
  5
E
102
{ACAD_REACTORS
330
C
102
}
330
C
100
AcDbDictionary
281
     1
  3
Normal
350
F
100
AcDbDictionaryWithDefault
340
F
  0
DICTIONARY
  5
DA
102
{ACAD_REACTORS
330
C
102
}
330
C
100
AcDbDictionary
281
     1
  0
DICTIONARY
  5
2A
102
{ACAD_REACTORS
330
C
102
}
330
C
100
AcDbDictionary
281
     1
  3
2dWireframe
350
2F
  3
3D Hidden
350
31
  3
3dWireframe
350
30
  3
Basic
350
32
  3
Brighten
350
36
  3
ColorChange
350
3A
  3
Conceptual
350
34
  3
Dim
350
35
  3
Facepattern
350
39
  3
Flat
350
2B
  3
FlatWithEdges
350
2C
  3
Gouraud
350
2D
  3
GouraudWithEdges
350
2E
  3
Linepattern
350
38
  3
Realistic
350
33
  3
Thicken
350
37
  0
LAYOUT
  5
1E
102
{ACAD_REACTORS
330
1A
102
}
330
1A
100
AcDbPlotSettings
  1

  2
none_device
  4

  6

 40
0.0
 41
0.0
 42
0.0
 43
0.0
 44
0.0
 45
0.0
 46
0.0
 47
0.0
 48
0.0
 49
0.0
140
0.0
141
0.0
142
1.0
143
1.0
 70
   688
 72
     0
 73
     0
 74
     5
  7

 75
    16
 76
     0
 77
     2
 78
   300
147
1.0
148
0.0
149
0.0
100
AcDbLayout
  1
Layout1
 70
     1
 71
     1
 10
0.0
 20
0.0
 11
12.0
 21
9.0
 12
0.0
 22
0.0
 32
0.0
 14
1.000000000000000E+20
 24
1.000000000000000E+20
 34
1.000000000000000E+20
 15
-1.000000000000000E+20
 25
-1.000000000000000E+20
 35
-1.000000000000000E+20
146
0.0
 13
0.0
 23
0.0
 33
0.0
 16
1.0
 26
0.0
 36
0.0
 17
0.0
 27
1.0
 37
0.0
 76
     0
330
1B
  0
LAYOUT
  5
26
102
{ACAD_REACTORS
330
1A
102
}
330
1A
100
AcDbPlotSettings
  1

  2
none_device
  4

  6

 40
0.0
 41
0.0
 42
0.0
 43
0.0
 44
0.0
 45
0.0
 46
0.0
 47
0.0
 48
0.0
 49
0.0
140
0.0
141
0.0
142
1.0
143
1.0
 70
   688
 72
     0
 73
     0
 74
     5
  7

 75
    16
 76
     0
 77
     2
 78
   300
147
1.0
148
0.0
149
0.0
100
AcDbLayout
  1
Layout2
 70
     1
 71
     2
 10
0.0
 20
0.0
 11
0.0
 21
0.0
 12
0.0
 22
0.0
 32
0.0
 14
0.0
 24
0.0
 34
0.0
 15
0.0
 25
0.0
 35
0.0
146
0.0
 13
0.0
 23
0.0
 33
0.0
 16
1.0
 26
0.0
 36
0.0
 17
0.0
 27
1.0
 37
0.0
 76
     0
330
23
  0
LAYOUT
  5
22
102
{ACAD_REACTORS
330
1A
102
}
330
1A
100
AcDbPlotSettings
  1

  2
none_device
  4

  6

 40
0.0
 41
0.0
 42
0.0
 43
0.0
 44
0.0
 45
0.0
 46
0.0
 47
0.0
 48
0.0
 49
0.0
140
0.0
141
0.0
142
1.0
143
1.0
 70
  1712
 72
     0
 73
     0
 74
     0
  7

 75
     0
 76
     0
 77
     2
 78
   300
147
1.0
148
0.0
149
0.0
100
AcDbLayout
  1
Model
 70
     1
 71
     0
 10
0.0
 20
0.0
 11
12.0
 21
9.0
 12
0.0
 22
0.0
 32
0.0
 14
1.000000000000000E+20
 24
1.000000000000000E+20
 34
1.000000000000000E+20
 15
-1.000000000000000E+20
 25
-1.000000000000000E+20
 35
-1.000000000000000E+20
146
0.0
 13
0.0
 23
0.0
 33
0.0
 16
1.0
 26
0.0
 36
0.0
 17
0.0
 27
1.0
 37
0.0
 76
     0
330
1F
331
29
  0
MATERIAL
  5
3D
102
{ACAD_REACTORS
330
3B
102
}
330
3B
100
AcDbMaterial
  1
ByBlock
 72
     1
 94
      127
  0
MATERIAL
  5
3C
102
{ACAD_REACTORS
330
3B
102
}
330
3B
100
AcDbMaterial
  1
ByLayer
 72
     1
 94
      127
  0
MATERIAL
  5
3E
102
{ACAD_REACTORS
330
3B
102
}
330
3B
100
AcDbMaterial
  1
Global
 72
     1
 94
      127
  0
MLINESTYLE
  5
18
102
{ACAD_REACTORS
330
17
102
}
330
17
100
AcDbMlineStyle
  2
Standard
 70
     0
  3

 62
   256
 51
90.0
 52
90.0
 71
     2
 49
0.5
 62
   256
  6
BYLAYER
 49
-0.5
 62
   256
  6
BYLAYER
  0
ACDBPLACEHOLDER
  5
F
102
{ACAD_REACTORS
330
E
102
}
330
E
  0
VISUALSTYLE
  5
2F
102
{ACAD_REACTORS
330
2A
102
}
330
2A
100
AcDbVisualStyle
  2
2dWireframe
 70
     4
177
     2
291
     0
 71
     0
176
     1
 72
     2
176
     1
 73
     0
176
     1
 90
        0
176
     1
 40
-0.6
176
     1
 41
-30.0
176
     1
 62
     5
 63
     7
421
 16777215
176
     1
 74
     1
176
     1
 91
        4
176
     1
 64
     7
176
     1
 65
   257
176
     1
 75
     1
176
     1
175
     1
176
     1
 42
1.0
176
     1
 92
        0
176
     1
 66
   257
176
     1
 43
1.0
176
     1
 76
     1
176
     1
 77
     6
176
     1
 78
     2
176
     1
 67
     7
176
     1
 79
     5
176
     1
170
     0
176
     1
171
     0
176
     1
290
     0
176
     1
 93
        1
176
     1
 44
0.0
176
     1
173
     0
176
     1
  0
VISUALSTYLE
  5
31
102
{ACAD_REACTORS
330
2A
102
}
330
2A
100
AcDbVisualStyle
  2
3D Hidden
 70
     6
177
     2
291
     0
 71
     1
176
     1
 72
     2
176
     1
 73
     2
176
     1
 90
        0
176
     1
 40
-0.6
176
     1
 41
-30.0
176
     1
 62
     5
 63
     7
421
 16777215
176
     1
 74
     2
176
     1
 91
        2
176
     1
 64
     7
176
     1
 65
   257
176
     1
 75
     2
176
     1
175
     1
176
     1
 42
40.0
176
     1
 92
        0
176
     1
 66
   257
176
     1
 43
1.0
176
     1
 76
     1
176
     1
 77
     6
176
     1
 78
     2
176
     1
 67
     7
176
     1
 79
     3
176
     1
170
     0
176
     1
171
     0
176
     1
290
     0
176
     1
 93
        1
176
     1
 44
0.0
176
     1
173
     0
176
     1
  0
VISUALSTYLE
  5
30
102
{ACAD_REACTORS
330
2A
102
}
330
2A
100
AcDbVisualStyle
  2
3dWireframe
 70
     5
177
     2
291
     0
 71
     0
176
     1
 72
     2
176
     1
 73
     0
176
     1
 90
        0
176
     1
 40
-0.6
176
     1
 41
-30.0
176
     1
 62
     5
 63
     7
421
 16777215
176
     1
 74
     1
176
     1
 91
        4
176
     1
 64
     7
176
     1
 65
   257
176
     1
 75
     1
176
     1
175
     1
176
     1
 42
1.0
176
     1
 92
        0
176
     1
 66
   257
176
     1
 43
1.0
176
     1
 76
     1
176
     1
 77
     6
176
     1
 78
     2
176
     1
 67
     7
176
     1
 79
     5
176
     1
170
     0
176
     1
171
     0
176
     1
290
     0
176
     1
 93
        1
176
     1
 44
0.0
176
     1
173
     0
176
     1
  0
VISUALSTYLE
  5
32
102
{ACAD_REACTORS
330
2A
102
}
330
2A
100
AcDbVisualStyle
  2
Basic
 70
     7
177
     2
291
     1
 71
     1
176
     1
 72
     0
176
     1
 73
     1
176
     1
 90
        0
176
     1
 40
-0.6
176
     1
 41
-30.0
176
     1
 62
     5
 63
     7
421
 16777215
176
     1
 74
     0
176
     1
 91
        4
176
     1
 64
     7
176
     1
 65
   257
176
     1
 75
     1
176
     1
175
     1
176
     1
 42
1.0
176
     1
 92
        8
176
     1
 66
     7
176
     1
 43
1.0
176
     1
 76
     1
176
     1
 77
     6
176
     1
 78
     2
176
     1
 67
     7
176
     1
 79
     5
176
     1
170
     0
176
     1
171
     0
176
     1
290
     0
176
     1
 93
        1
176
     1
 44
0.0
176
     1
173
     0
176
     1
  0
VISUALSTYLE
  5
36
102
{ACAD_REACTORS
330
2A
102
}
330
2A
100
AcDbVisualStyle
  2
Brighten
 70
    12
177
     2
291
     1
 71
     2
176
     1
 72
     2
176
     1
 73
     0
176
     1
 90
        0
176
     1
 40
-0.6
176
     1
 41
-30.0
176
     1
 62
     5
 63
     7
421
 16777215
176
     1
 74
     1
176
     1
 91
        4
176
     1
 64
     7
176
     1
 65
   257
176
     1
 75
     1
176
     1
175
     1
176
     1
 42
1.0
176
     1
 92
        8
176
     1
 66
     7
176
     1
 43
1.0
176
     1
 76
     1
176
     1
 77
     6
176
     1
 78
     2
176
     1
 67
     7
176
     1
 79
     5
176
     1
170
     0
176
     1
171
     0
176
     1
290
     0
176
     1
 93
        1
176
     1
 44
50.0
176
     1
173
     0
176
     1
  0
VISUALSTYLE
  5
3A
102
{ACAD_REACTORS
330
2A
102
}
330
2A
100
AcDbVisualStyle
  2
ColorChange
 70
    16
177
     2
291
     1
 71
     2
176
     1
 72
     2
176
     1
 73
     3
176
     1
 90
        0
176
     1
 40
-0.6
176
     1
 41
-30.0
176
     1
 62
     5
 63
     8
421
  8421504
176
     1
 74
     1
176
     1
 91
        4
176
     1
 64
     7
176
     1
 65
   257
176
     1
 75
     1
176
     1
175
     1
176
     1
 42
1.0
176
     1
 92
        8
176
     1
 66
     8
424
  8421504
176
     1
 43
1.0
176
     1
 76
     1
176
     1
 77
     6
176
     1
 78
     2
176
     1
 67
     7
176
     1
 79
     5
176
     1
170
     0
176
     1
171
     0
176
     1
290
     0
176
     1
 93
        1
176
     1
 44
0.0
176
     1
173
     0
176
     1
  0
VISUALSTYLE
  5
34
102
{ACAD_REACTORS
330
2A
102
}
330
2A
100
AcDbVisualStyle
  2
Conceptual
 70
     9
177
     2
291
     0
 71
     3
176
     1
 72
     2
176
     1
 73
     0
176
     1
 90
        0
176
     1
 40
-0.6
176
     1
 41
-30.0
176
     1
 62
     5
 63
     7
421
 16777215
176
     1
 74
     2
176
     1
 91
        2
176
     1
 64
     7
176
     1
 65
   257
176
     1
 75
     1
176
     1
175
     1
176
     1
 42
40.0
176
     1
 92
        8
176
     1
 66
     7
176
     1
 43
1.0
176
     1
 76
     1
176
     1
 77
     6
176
     1
 78
     2
176
     1
 67
     7
176
     1
 79
     3
176
     1
170
     0
176
     1
171
     0
176
     1
290
     0
176
     1
 93
        1
176
     1
 44
0.0
176
     1
173
     0
176
     1
  0
VISUALSTYLE
  5
35
102
{ACAD_REACTORS
330
2A
102
}
330
2A
100
AcDbVisualStyle
  2
Dim
 70
    11
177
     2
291
     1
 71
     2
176
     1
 72
     2
176
     1
 73
     0
176
     1
 90
        0
176
     1
 40
-0.6
176
     1
 41
-30.0
176
     1
 62
     5
 63
     7
421
 16777215
176
     1
 74
     1
176
     1
 91
        4
176
     1
 64
     7
176
     1
 65
   257
176
     1
 75
     1
176
     1
175
     1
176
     1
 42
1.0
176
     1
 92
        8
176
     1
 66
     7
176
     1
 43
1.0
176
     1
 76
     1
176
     1
 77
     6
176
     1
 78
     2
176
     1
 67
     7
176
     1
 79
     5
176
     1
170
     0
176
     1
171
     0
176
     1
290
     0
176
     1
 93
        1
176
     1
 44
-50.0
176
     1
173
     0
176
     1
  0
VISUALSTYLE
  5
39
102
{ACAD_REACTORS
330
2A
102
}
330
2A
100
AcDbVisualStyle
  2
Facepattern
 70
    15
177
     2
291
     1
 71
     2
176
     1
 72
     2
176
     1
 73
     0
176
     1
 90
        0
176
     1
 40
-0.6
176
     1
 41
-30.0
176
     1
 62
     5
 63
     7
421
 16777215
176
     1
 74
     1
176
     1
 91
        4
176
     1
 64
     7
176
     1
 65
   257
176
     1
 75
     1
176
     1
175
     1
176
     1
 42
1.0
176
     1
 92
        8
176
     1
 66
     7
176
     1
 43
1.0
176
     1
 76
     1
176
     1
 77
     6
176
     1
 78
     2
176
     1
 67
     7
176
     1
 79
     5
176
     1
170
     0
176
     1
171
     0
176
     1
290
     0
176
     1
 93
        1
176
     1
 44
0.0
176
     1
173
     0
176
     1
  0
VISUALSTYLE
  5
2B
102
{ACAD_REACTORS
330
2A
102
}
330
2A
100
AcDbVisualStyle
  2
Flat
 70
     0
177
     2
291
     1
 71
     2
176
     1
 72
     1
176
     1
 73
     1
176
     1
 90
        2
176
     1
 40
-0.6
176
     1
 41
30.0
176
     1
 62
     5
 63
     7
421
 16777215
176
     1
 74
     0
176
     1
 91
        4
176
     1
 64
     7
176
     1
 65
   257
176
     1
 75
     1
176
     1
175
     1
176
     1
 42
1.0
176
     1
 92
        8
176
     1
 66
     7
176
     1
 43
1.0
176
     1
 76
     1
176
     1
 77
     6
176
     1
 78
     2
176
     1
 67
     7
176
     1
 79
     5
176
     1
170
     0
176
     1
171
     0
176
     1
290
     0
176
     1
 93
       13
176
     1
 44
0.0
176
     1
173
     0
176
     1
  0
VISUALSTYLE
  5
2C
102
{ACAD_REACTORS
330
2A
102
}
330
2A
100
AcDbVisualStyle
  2
FlatWithEdges
 70
     1
177
     2
291
     1
 71
     2
176
     1
 72
     1
176
     1
 73
     1
176
     1
 90
        2
176
     1
 40
-0.6
176
     1
 41
30.0
176
     1
 62
     5
 63
     7
421
 16777215
176
     1
 74
     1
176
     1
 91
        4
176
     1
 64
     7
176
     1
 65
   257
176
     1
 75
     1
176
     1
175
     1
176
     1
 42
1.0
176
     1
 92
        0
176
     1
 66
   257
176
     1
 43
1.0
176
     1
 76
     1
176
     1
 77
     6
176
     1
 78
     2
176
     1
 67
     7
176
     1
 79
     5
176
     1
170
     0
176
     1
171
     0
176
     1
290
     0
176
     1
 93
       13
176
     1
 44
0.0
176
     1
173
     0
176
     1
  0
VISUALSTYLE
  5
2D
102
{ACAD_REACTORS
330
2A
102
}
330
2A
100
AcDbVisualStyle
  2
Gouraud
 70
     2
177
     2
291
     1
 71
     2
176
     1
 72
     2
176
     1
 73
     1
176
     1
 90
        2
176
     1
 40
-0.6
176
     1
 41
30.0
176
     1
 62
     5
 63
     7
421
 16777215
176
     1
 74
     0
176
     1
 91
        4
176
     1
 64
     7
176
     1
 65
   257
176
     1
 75
     1
176
     1
175
     1
176
     1
 42
1.0
176
     1
 92
        0
176
     1
 66
     7
176
     1
 43
1.0
176
     1
 76
     1
176
     1
 77
     6
176
     1
 78
     2
176
     1
 67
     7
176
     1
 79
     5
176
     1
170
     0
176
     1
171
     0
176
     1
290
     0
176
     1
 93
       13
176
     1
 44
0.0
176
     1
173
     0
176
     1
  0
VISUALSTYLE
  5
2E
102
{ACAD_REACTORS
330
2A
102
}
330
2A
100
AcDbVisualStyle
  2
GouraudWithEdges
 70
     3
177
     2
291
     1
 71
     2
176
     1
 72
     2
176
     1
 73
     1
176
     1
 90
        2
176
     1
 40
-0.6
176
     1
 41
30.0
176
     1
 62
     5
 63
     7
421
 16777215
176
     1
 74
     1
176
     1
 91
        4
176
     1
 64
     7
176
     1
 65
   257
176
     1
 75
     1
176
     1
175
     1
176
     1
 42
1.0
176
     1
 92
        0
176
     1
 66
   257
176
     1
 43
1.0
176
     1
 76
     1
176
     1
 77
     6
176
     1
 78
     2
176
     1
 67
     7
176
     1
 79
     5
176
     1
170
     0
176
     1
171
     0
176
     1
290
     0
176
     1
 93
       13
176
     1
 44
0.0
176
     1
173
     0
176
     1
  0
VISUALSTYLE
  5
38
102
{ACAD_REACTORS
330
2A
102
}
330
2A
100
AcDbVisualStyle
  2
Linepattern
 70
    14
177
     2
291
     1
 71
     2
176
     1
 72
     2
176
     1
 73
     0
176
     1
 90
        0
176
     1
 40
-0.6
176
     1
 41
-30.0
176
     1
 62
     5
 63
     7
421
 16777215
176
     1
 74
     1
176
     1
 91
        4
176
     1
 64
     7
176
     1
 65
   257
176
     1
 75
     7
176
     1
175
     7
176
     1
 42
1.0
176
     1
 92
        8
176
     1
 66
     7
176
     1
 43
1.0
176
     1
 76
     1
176
     1
 77
     6
176
     1
 78
     2
176
     1
 67
     7
176
     1
 79
     5
176
     1
170
     0
176
     1
171
     0
176
     1
290
     0
176
     1
 93
        1
176
     1
 44
0.0
176
     1
173
     0
176
     1
  0
VISUALSTYLE
  5
33
102
{ACAD_REACTORS
330
2A
102
}
330
2A
100
AcDbVisualStyle
  2
Realistic
 70
     8
177
     2
291
     0
 71
     2
176
     1
 72
     2
176
     1
 73
     0
176
     1
 90
        0
176
     1
 40
-0.6
176
     1
 41
-30.0
176
     1
 62
     5
 63
     7
421
 16777215
176
     1
 74
     1
176
     1
 91
        0
176
     1
 64
     7
176
     1
 65
   257
176
     1
 75
     1
176
     1
175
     1
176
     1
 42
1.0
176
     1
 92
        8
176
     1
 66
     8
424
  7895160
176
     1
 43
1.0
176
     1
 76
     1
176
     1
 77
     6
176
     1
 78
     2
176
     1
 67
     7
176
     1
 79
     5
176
     1
170
     0
176
     1
171
     0
176
     1
290
     0
176
     1
 93
       13
176
     1
 44
0.0
176
     1
173
     0
176
     1
  0
VISUALSTYLE
  5
37
102
{ACAD_REACTORS
330
2A
102
}
330
2A
100
AcDbVisualStyle
  2
Thicken
 70
    13
177
     2
291
     1
 71
     2
176
     1
 72
     2
176
     1
 73
     0
176
     1
 90
        0
176
     1
 40
-0.6
176
     1
 41
-30.0
176
     1
 62
     5
 63
     7
421
 16777215
176
     1
 74
     1
176
     1
 91
        4
176
     1
 64
     7
176
     1
 65
   257
176
     1
 75
     1
176
     1
175
     1
176
     1
 42
1.0
176
     1
 92
       12
176
     1
 66
     7
176
     1
 43
1.0
176
     1
 76
     1
176
     1
 77
     6
176
     1
 78
     2
176
     1
 67
     7
176
     1
 79
     5
176
     1
170
     0
176
     1
171
     0
176
     1
290
     0
176
     1
 93
        1
176
     1
 44
0.0
176
     1
173
     0
176
     1
  0
ENDSEC
  0
EOF
