  0
SECTION
  2
HEADER
  9
$ACADVER
  1
AC1015
  9
$ACADMAINTVER
 70
     6
  9
$DWGCODEPAGE
  3
ANSI_1252
  9
$INSBASE
 10
0.0
 20
0.0
 30
0.0
  9
$EXTMIN
 10
1.000000000000000E+20
 20
1.000000000000000E+20
 30
1.000000000000000E+20
  9
$EXTMAX
 10
-1.000000000000000E+20
 20
-1.000000000000000E+20
 30
-1.000000000000000E+20
  9
$LIMMIN
 10
0.0
 20
0.0
  9
$LIMMAX
 10
12.0
 20
9.0
  9
$ORTHOMODE
 70
     0
  9
$REGENMODE
 70
     1
  9
$FILLMODE
 70
     1
  9
$QTEXTMODE
 70
     0
  9
$MIRRTEXT
 70
     1
  9
$LTSCALE
 40
1.0
  9
$ATTMODE
 70
     1
  9
$TEXTSIZE
 40
0.2
  9
$TRACEWID
 40
0.05
  9
$TEXTSTYLE
  7
Standard
  9
$CLAYER
  8
0
  9
$CELTYPE
  6
ByLayer
  9
$CECOLOR
 62
   256
  9
$CELTSCALE
 40
1.0
  9
$DISPSILH
 70
     0
  9
$DIMSCALE
 40
1.0
  9
$DIMASZ
 40
0.18
  9
$DIMEXO
 40
0.0625
  9
$DIMDLI
 40
0.38
  9
$DIMRND
 40
0.0
  9
$DIMDLE
 40
0.0
  9
$DIMEXE
 40
0.18
  9
$DIMTP
 40
0.0
  9
$DIMTM
 40
0.0
  9
$DIMTXT
 40
0.18
  9
$DIMCEN
 40
0.09
  9
$DIMTSZ
 40
0.0
  9
$DIMTOL
 70
     0
  9
$DIMLIM
 70
     0
  9
$DIMTIH
 70
     1
  9
$DIMTOH
 70
     1
  9
$DIMSE1
 70
     0
  9
$DIMSE2
 70
     0
  9
$DIMTAD
 70
     0
  9
$DIMZIN
 70
     0
  9
$DIMBLK
  1

  9
$DIMASO
 70
     1
  9
$DIMSHO
 70
     1
  9
$DIMPOST
  1

  9
$DIMAPOST
  1

  9
$DIMALT
 70
     0
  9
$DIMALTD
 70
     2
  9
$DIMALTF
 40
25.4
  9
$DIMLFAC
 40
1.0
  9
$DIMTOFL
 70
     0
  9
$DIMTVP
 40
0.0
  9
$DIMTIX
 70
     0
  9
$DIMSOXD
 70
     0
  9
$DIMSAH
 70
     0
  9
$DIMBLK1
  1

  9
$DIMBLK2
  1

  9
$DIMSTYLE
  2
Standard
  9
$DIMCLRD
 70
     0
  9
$DIMCLRE
 70
     0
  9
$DIMCLRT
 70
     0
  9
$DIMTFAC
 40
1.0
  9
$DIMGAP
 40
0.09
  9
$DIMJUST
 70
     0
  9
$DIMSD1
 70
     0
  9
$DIMSD2
 70
     0
  9
$DIMTOLJ
 70
     1
  9
$DIMTZIN
 70
     0
  9
$DIMALTZ
 70
     0
  9
$DIMALTTZ
 70
     0
  9
$DIMUPT
 70
     0
  9
$DIMDEC
 70
     4
  9
$DIMTDEC
 70
     4
  9
$DIMALTU
 70
     2
  9
$DIMALTTD
 70
     2
  9
$DIMTXSTY
  7
Standard
  9
$DIMAUNIT
 70
     0
  9
$DIMADEC
 70
     0
  9
$DIMALTRND
 40
0.0
  9
$DIMAZIN
 70
     0
  9
$DIMDSEP
 70
    46
  9
$DIMATFIT
 70
     3
  9
$DIMFRAC
 70
     0
  9
$DIMLDRBLK
  1

  9
$DIMLUNIT
 70
     2
  9
$DIMLWD
 70
    -2
  9
$DIMLWE
 70
    -2
  9
$DIMTMOVE
 70
     0
  9
$LUNITS
 70
     2
  9
$LUPREC
 70
     4
  9
$SKETCHINC
 40
0.1
  9
$FILLETRAD
 40
0.5
  9
$AUNITS
 70
     0
  9
$AUPREC
 70
     0
  9
$MENU
  1
.
  9
$ELEVATION
 40
0.0
  9
$PELEVATION
 40
0.0
  9
$THICKNESS
 40
0.0
  9
$LIMCHECK
 70
     0
  9
$CHAMFERA
 40
0.5
  9
$CHAMFERB
 40
0.5
  9
$CHAMFERC
 40
1.0
  9
$CHAMFERD
 40
0.0
  9
$SKPOLY
 70
     0
  9
$TDCREATE
 40
2458449.495004826
  9
$TDUCREATE
 40
2458449.70333816
  9
$TDUPDATE
 40
2458449.495004838
  9
$TDUUPDATE
 40
2458449.703338171
  9
$TDINDWG
 40
0.0000000116
  9
$TDUSRTIMER
 40
0.0000000116
  9
$USRTIMER
 70
     1
  9
$ANGBASE
 50
0.0
  9
$ANGDIR
 70
     0
  9
$PDMODE
 70
     0
  9
$PDSIZE
 40
0.0
  9
$PLINEWID
 40
0.0
  9
$SPLFRAME
 70
     0
  9
$SPLINETYPE
 70
     6
  9
$SPLINESEGS
 70
     8
  9
$HANDSEED
  5
60
  9
$SURFTAB1
 70
     6
  9
$SURFTAB2
 70
     6
  9
$SURFTYPE
 70
     6
  9
$SURFU
 70
     6
  9
$SURFV
 70
     6
  9
$UCSBASE
  2

  9
$UCSNAME
  2

  9
$UCSORG
 10
0.0
 20
0.0
 30
0.0
  9
$UCSXDIR
 10
1.0
 20
0.0
 30
0.0
  9
$UCSYDIR
 10
0.0
 20
1.0
 30
0.0
  9
$UCSORTHOREF
  2

  9
$UCSORTHOVIEW
 70
     0
  9
$UCSORGTOP
 10
0.0
 20
0.0
 30
0.0
  9
$UCSORGBOTTOM
 10
0.0
 20
0.0
 30
0.0
  9
$UCSORGLEFT
 10
0.0
 20
0.0
 30
0.0
  9
$UCSORGRIGHT
 10
0.0
 20
0.0
 30
0.0
  9
$UCSORGFRONT
 10
0.0
 20
0.0
 30
0.0
  9
$UCSORGBACK
 10
0.0
 20
0.0
 30
0.0
  9
$PUCSBASE
  2

  9
$PUCSNAME
  2

  9
$PUCSORG
 10
0.0
 20
0.0
 30
0.0
  9
$PUCSXDIR
 10
1.0
 20
0.0
 30
0.0
  9
$PUCSYDIR
 10
0.0
 20
1.0
 30
0.0
  9
$PUCSORTHOREF
  2

  9
$PUCSORTHOVIEW
 70
     0
  9
$PUCSORGTOP
 10
0.0
 20
0.0
 30
0.0
  9
$PUCSORGBOTTOM
 10
0.0
 20
0.0
 30
0.0
  9
$PUCSORGLEFT
 10
0.0
 20
0.0
 30
0.0
  9
$PUCSORGRIGHT
 10
0.0
 20
0.0
 30
0.0
  9
$PUCSORGFRONT
 10
0.0
 20
0.0
 30
0.0
  9
$PUCSORGBACK
 10
0.0
 20
0.0
 30
0.0
  9
$USERI1
 70
     0
  9
$USERI2
 70
     0
  9
$USERI3
 70
     0
  9
$USERI4
 70
     0
  9
$USERI5
 70
     0
  9
$USERR1
 40
0.0
  9
$USERR2
 40
0.0
  9
$USERR3
 40
0.0
  9
$USERR4
 40
0.0
  9
$USERR5
 40
0.0
  9
$WORLDVIEW
 70
     1
  9
$SHADEDGE
 70
     3
  9
$SHADEDIF
 70
    70
  9
$TILEMODE
 70
     1
  9
$MAXACTVP
 70
    64
  9
$PINSBASE
 10
0.0
 20
0.0
 30
0.0
  9
$PLIMCHECK
 70
     0
  9
$PEXTMIN
 10
1.000000000000000E+20
 20
1.000000000000000E+20
 30
1.000000000000000E+20
  9
$PEXTMAX
 10
-1.000000000000000E+20
 20
-1.000000000000000E+20
 30
-1.000000000000000E+20
  9
$PLIMMIN
 10
0.0
 20
0.0
  9
$PLIMMAX
 10
12.0
 20
9.0
  9
$UNITMODE
 70
     0
  9
$VISRETAIN
 70
     1
  9
$PLINEGEN
 70
     0
  9
$PSLTSCALE
 70
     1
  9
$TREEDEPTH
 70
  3020
  9
$CMLSTYLE
  2
Standard
  9
$CMLJUST
 70
     0
  9
$CMLSCALE
 40
1.0
  9
$PROXYGRAPHICS
 70
     1
  9
$MEASUREMENT
 70
     0
  9
$CELWEIGHT
370
    -1
  9
$ENDCAPS
280
     0
  9
$JOINSTYLE
280
     0
  9
$LWDISPLAY
290
     1
  9
$INSUNITS
 70
     1
  9
$HYPERLINKBASE
  1

  9
$STYLESHEET
  1

  9
$XEDIT
290
     1
  9
$CEPSNTYPE
380
     0
  9
$PSTYLEMODE
290
     1
  9
$FINGERPRINTGUID
  2
{9EF43C9B-9B42-42D2-9B2D-F4C88B56111A}
  9
$VERSIONGUID
  2
{FAEB1C32-E019-11D5-929B-00C0DF256EC4}
  9
$EXTNAMES
290
     1
  9
$PSVPSCALE
 40
0.0
  9
$OLESTARTUP
290
     0
  0
ENDSEC
  0
SECTION
  2
CLASSES
  0
CLASS
  1
ACDBDICTIONARYWDFLT
  2
AcDbDictionaryWithDefault
  3
ObjectDBX Classes
 90
        0
280
     0
281
     0
  0
CLASS
  1
VISUALSTYLE
  2
AcDbVisualStyle
  3
ObjectDBX Classes
 90
     4095
280
     0
281
     0
  0
CLASS
  1
ACDBPLACEHOLDER
  2
AcDbPlaceHolder
  3
ObjectDBX Classes
 90
        0
280
     0
281
     0
  0
CLASS
  1
LAYOUT
  2
AcDbLayout
  3
ObjectDBX Classes
 90
        0
280
     0
281
     0
  0
ENDSEC
  0
SECTION
  2
TABLES
  0
TABLE
  2
VPORT
  5
8
330
0
100
AcDbSymbolTable
 70
     1
  0
VPORT
  5
29
330
8
100
AcDbSymbolTableRecord
100
AcDbViewportTableRecord
  2
*Active
 70
     0
 10
0.0
 20
0.0
 11
1.0
 21
1.0
 12
0.0
 22
0.0
 13
0.0
 23
0.0
 14
0.5
 24
0.5
 15
0.5
 25
0.5
 16
0.0
 26
0.0
 36
1.0
 17
500.0
 27
-500.0
 37
0.0
 40
1000.0
 41
1.0
 42
50.0
 43
0.0
 44
0.0
 50
0.0
 51
0.0
 71
     0
 72
   100
 73
     1
 74
     3
 75
     0
 76
     0
 77
     0
 78
     0
281
     0
 65
     1
110
0.0
120
0.0
130
0.0
111
1.0
121
0.0
131
0.0
112
0.0
122
1.0
132
0.0
 79
     0
146
0.0
  0
ENDTAB
  0
TABLE
  2
LTYPE
  5
5
330
0
100
AcDbSymbolTable
 70
     1
  0
LTYPE
  5
14
330
5
100
AcDbSymbolTableRecord
100
AcDbLinetypeTableRecord
  2
ByBlock
 70
     0
  3

 72
    65
 73
     0
 40
0.0
  0
LTYPE
  5
15
330
5
100
AcDbSymbolTableRecord
100
AcDbLinetypeTableRecord
  2
ByLayer
 70
     0
  3

 72
    65
 73
     0
 40
0.0
  0
LTYPE
  5
16
330
5
100
AcDbSymbolTableRecord
100
AcDbLinetypeTableRecord
  2
Continuous
 70
     0
  3
Solid line
 72
    65
 73
     0
 40
0.0
  0
ENDTAB
  0
TABLE
  2
LAYER
  5
2
330
0
100
AcDbSymbolTable
 70
     2
  0
LAYER
  5
10
330
2
100
AcDbSymbolTableRecord
100
AcDbLayerTableRecord
  2
0
 70
     0
 62
     7
  6
Continuous
370
    -3
390
F
  0
LAYER
  5
3B
330
2
100
AcDbSymbolTableRecord
100
AcDbLayerTableRecord
  2
Layer 1
 70
     0
 62
     7
  6
Continuous
370
    -3
390
F
  0
ENDTAB
  0
TABLE
  2
STYLE
  5
3
330
0
100
AcDbSymbolTable
 70
     1
  0
STYLE
  5
11
330
3
100
AcDbSymbolTableRecord
100
AcDbTextStyleTableRecord
  2
Standard
 70
     0
 40
0.0
 41
1.0
 50
0.0
 71
     0
 42
0.2
  3
txt
  4

  0
ENDTAB
  0
TABLE
  2
VIEW
  5
6
330
0
100
AcDbSymbolTable
 70
     0
  0
ENDTAB
  0
TABLE
  2
UCS
  5
7
330
0
100
AcDbSymbolTable
 70
     0
  0
ENDTAB
  0
TABLE
  2
APPID
  5
9
330
0
100
AcDbSymbolTable
 70
     1
  0
APPID
  5
12
330
9
100
AcDbSymbolTableRecord
100
AcDbRegAppTableRecord
  2
ACAD
 70
     0
  0
ENDTAB
  0
TABLE
  2
DIMSTYLE
  5
A
330
0
100
AcDbSymbolTable
 70
     1
100
AcDbDimStyleTable
  0
DIMSTYLE
105
27
330
A
100
AcDbSymbolTableRecord
100
AcDbDimStyleTableRecord
  2
Standard
 70
     0
340
11
  0
ENDTAB
  0
TABLE
  2
BLOCK_RECORD
  5
1
330
0
100
AcDbSymbolTable
 70
     2
  0
BLOCK_RECORD
  5
1F
330
1
100
AcDbSymbolTableRecord
100
AcDbBlockTableRecord
  2
*Model_Space
340
22
  0
BLOCK_RECORD
  5
1B
330
1
100
AcDbSymbolTableRecord
100
AcDbBlockTableRecord
  2
*Paper_Space
340
1E
  0
BLOCK_RECORD
  5
23
330
1
100
AcDbSymbolTableRecord
100
AcDbBlockTableRecord
  2
*Paper_Space0
340
26
  0
BLOCK_RECORD
  5
3C
330
1
100
AcDbSymbolTableRecord
100
AcDbBlockTableRecord
  2
block 2
340
0
102
{BLKREFS
331
3D
102
}
  0
ENDTAB
  0
ENDSEC
  0
SECTION
  2
BLOCKS
  0
BLOCK
  5
20
330
1F
100
AcDbEntity
  8
0
100
AcDbBlockBegin
  2
*Model_Space
 70
     0
 71
     0
 10
0.0
 20
0.0
 30
0.0
  3
*Model_Space
  1

  0
ENDBLK
  5
21
330
1F
100
AcDbEntity
  8
0
100
AcDbBlockEnd
  0
BLOCK
  5
1C
330
1B
100
AcDbEntity
 67
     1
  8
0
100
AcDbBlockBegin
  2
*Paper_Space
 70
     0
 71
     0
 10
0.0
 20
0.0
 30
0.0
  3
*Paper_Space
  1

  0
ENDBLK
  5
1D
330
1B
100
AcDbEntity
 67
     1
  8
0
100
AcDbBlockEnd
  0
BLOCK
  5
24
330
23
100
AcDbEntity
  8
0
100
AcDbBlockBegin
  2
*Paper_Space0
 70
     0
 71
     0
 10
0.0
 20
0.0
 30
0.0
  3
*Paper_Space0
  1

  0
ENDBLK
  5
25
330
23
100
AcDbEntity
  8
0
100
AcDbBlockEnd
  0
BLOCK
  5
3E
330
3C
100
AcDbEntity
  8
0
100
AcDbBlockBegin
  2
block 2
 70
     0
 71
     0
 10
0.0
 20
0.0
 30
0.0
  3
block 2
  1

  0
SPLINE
  5
40
330
3C
100
AcDbEntity
  8
Layer 1
370
     0
100
AcDbSpline
210
0.0
220
0.0
230
1.0
 70
    11
 71
     3
 72
    23
 73
    19
 74
     0
 42
0.0000000001
 43
0.0000000001
 40
0.0
 40
0.0
 40
0.0
 40
0.0
 40
1.0
 40
1.0
 40
1.0
 40
2.0
 40
2.0
 40
2.0
 40
3.0
 40
3.0
 40
3.0
 40
4.0
 40
4.0
 40
4.0
 40
5.0
 40
5.0
 40
5.0
 40
6.0
 40
6.0
 40
6.0
 40
6.0
 10
727.4462890625
 20
-415.86669921875
 30
0.0
 10
728.5556640625
 20
-415.63427734375
 30
0.0
 10
729.658203125
 20
-415.39453125
 30
0.0
 10
730.767578125
 20
-415.1396484375
 30
0.0
 10
734.6962890625
 20
-413.25732421875
 30
0.0
 10
739.158203125
 20
-411.05322265625
 30
0.0
 10
743.5888671875
 20
-408.57177734375
 30
0.0
 10
740.78515625
 20
-396.46240234375
 30
0.0
 10
735.4990234375
 20
-387.3828125
 30
0.0
 10
726.6513671875
 20
-379.41259765625
 30
0.0
 10
720.6455078125
 20
-373.99169921875
 30
0.0
 10
713.560546875
 20
-369.59814453125
 30
0.0
 10
705.173828125
 20
-366.12646484375
 30
0.0
 10
714.392578125
 20
-381.43701171875
 30
0.0
 10
720.4736328125
 20
-398.39697265625
 30
0.0
 10
722.962890625
 20
-415.86669921875
 30
0.0
 10
722.962890625
 20
-415.86669921875
 30
0.0
 10
727.4462890625
 20
-415.86669921875
 30
0.0
 10
727.4462890625
 20
-415.86669921875
 30
0.0
  0
SPLINE
  5
41
330
3C
100
AcDbEntity
  8
Layer 1
370
     0
100
AcDbSpline
210
0.0
220
0.0
230
1.0
 70
    11
 71
     3
 72
    20
 73
    16
 74
     0
 42
0.0000000001
 43
0.0000000001
 40
0.0
 40
0.0
 40
0.0
 40
0.0
 40
1.0
 40
1.0
 40
1.0
 40
2.0
 40
2.0
 40
2.0
 40
3.0
 40
3.0
 40
3.0
 40
4.0
 40
4.0
 40
4.0
 40
5.0
 40
5.0
 40
5.0
 40
5.0
 10
655.71484375
 20
-341.62353515625
 30
0.0
 10
658.2939453125
 20
-341.93115234375
 30
0.0
 10
660.9111328125
 20
-342.23876953125
 30
0.0
 10
663.546875
 20
-342.568359375
 30
0.0
 10
651.103515625
 20
-331.869140625
 30
0.0
 10
638.02734375
 20
-324.01904296875
 30
0.0
 10
627.201171875
 20
-320.9072265625
 30
0.0
 10
611.001953125
 20
-316.2587890625
 30
0.0
 10
590.4091796875
 20
-316.3037109375
 30
0.0
 10
570.994140625
 20
-320.92236328125
 30
0.0
 10
592.5908203125
 20
-330.21240234375
 30
0.0
 10
617.3525390625
 20
-336.71240234375
 30
0.0
 10
644.7607421875
 20
-340.28173828125
 30
0.0
 10
648.3779296875
 20
-340.75390625
 30
0.0
 10
652.033203125
 20
-341.18896484375
 30
0.0
 10
655.71484375
 20
-341.62353515625
 30
0.0
  0
SPLINE
  5
42
330
3C
100
AcDbEntity
  8
Layer 1
370
     0
100
AcDbSpline
210
0.0
220
0.0
230
1.0
 70
    11
 71
     3
 72
    35
 73
    31
 74
     0
 42
0.0000000001
 43
0.0000000001
 40
0.0
 40
0.0
 40
0.0
 40
0.0
 40
1.0
 40
1.0
 40
1.0
 40
2.0
 40
2.0
 40
2.0
 40
3.0
 40
3.0
 40
3.0
 40
4.0
 40
4.0
 40
4.0
 40
5.0
 40
5.0
 40
5.0
 40
6.0
 40
6.0
 40
6.0
 40
7.0
 40
7.0
 40
7.0
 40
8.0
 40
8.0
 40
8.0
 40
9.0
 40
9.0
 40
9.0
 40
10.0
 40
10.0
 40
10.0
 40
10.0
 10
573.8916015625
 20
-409.72607421875
 30
0.0
 10
572.9052734375
 20
-411.89306640625
 30
0.0
 10
571.728515625
 20
-413.947265625
 30
0.0
 10
570.3671875
 20
-415.86669921875
 30
0.0
 10
570.3671875
 20
-415.86669921875
 30
0.0
 10
706.0400390625
 20
-415.86669921875
 30
0.0
 10
706.0400390625
 20
-415.86669921875
 30
0.0
 10
706.400390625
 20
-399.0341796875
 30
0.0
 10
697.095703125
 20
-378.587890625
 30
0.0
 10
680.064453125
 20
-358.99609375
 30
0.0
 10
678.087890625
 20
-358.62890625
 30
0.0
 10
676.109375
 20
-358.298828125
 30
0.0
 10
674.1220703125
 20
-357.98388671875
 30
0.0
 10
664.0146484375
 20
-356.40966796875
 30
0.0
 10
653.798828125
 20
-355.0673828125
 30
0.0
 10
643.9208984375
 20
-353.77001953125
 30
0.0
 10
614.056640625
 20
-349.84912109375
 30
0.0
 10
583.173828125
 20
-345.79248046875
 30
0.0
 10
553.1826171875
 20
-334.83837890625
 30
0.0
 10
549.890625
 20
-333.63134765625
 30
0.0
 10
546.63671875
 20
-332.34130859375
 30
0.0
 10
543.4951171875
 20
-330.99169921875
 30
0.0
 10
538.490234375
 20
-333.57861328125
 30
0.0
 10
533.8984375
 20
-336.4501953125
 30
0.0
 10
529.79296875
 20
-339.56201171875
 30
0.0
 10
538.7080078125
 20
-341.81103515625
 30
0.0
 10
546.974609375
 20
-345.5302734375
 30
0.0
 10
554.45703125
 20
-350.666015625
 30
0.0
 10
571.7919921875
 20
-362.57275390625
 30
0.0
 10
583.7958984375
 20
-387.9150390625
 30
0.0
 10
573.8916015625
 20
-409.72607421875
 30
0.0
  0
SPLINE
  5
43
330
3C
100
AcDbEntity
  8
Layer 1
370
     0
100
AcDbSpline
210
0.0
220
0.0
230
1.0
 70
    11
 71
     3
 72
    20
 73
    16
 74
     0
 42
0.0000000001
 43
0.0000000001
 40
0.0
 40
0.0
 40
0.0
 40
0.0
 40
1.0
 40
1.0
 40
1.0
 40
2.0
 40
2.0
 40
2.0
 40
3.0
 40
3.0
 40
3.0
 40
4.0
 40
4.0
 40
4.0
 40
5.0
 40
5.0
 40
5.0
 40
5.0
 10
499.9970703125
 20
-415.86669921875
 30
0.0
 10
489.447265625
 20
-402.74560546875
 30
0.0
 10
485.451171875
 20
-383.79150390625
 30
0.0
 10
490.0361328125
 20
-365.93896484375
 30
0.0
 10
490.767578125
 20
-363.09716796875
 30
0.0
 10
491.7080078125
 20
-360.28564453125
 30
0.0
 10
492.84765625
 20
-357.5341796875
 30
0.0
 10
469.875
 20
-360.9755859375
 30
0.0
 10
449.166015625
 20
-369.82275390625
 30
0.0
 10
431.5087890625
 20
-378.52783203125
 30
0.0
 10
436.62890625
 20
-391.6640625
 30
0.0
 10
439.6435546875
 20
-404.18505859375
 30
0.0
 10
440.490234375
 20
-415.86669921875
 30
0.0
 10
440.490234375
 20
-415.86669921875
 30
0.0
 10
499.9970703125
 20
-415.86669921875
 30
0.0
 10
499.9970703125
 20
-415.86669921875
 30
0.0
  0
SPLINE
  5
44
330
3C
100
AcDbEntity
  8
Layer 1
370
     0
100
AcDbSpline
210
0.0
220
0.0
230
1.0
 70
    11
 71
     3
 72
    23
 73
    19
 74
     0
 42
0.0000000001
 43
0.0000000001
 40
0.0
 40
0.0
 40
0.0
 40
0.0
 40
1.0
 40
1.0
 40
1.0
 40
2.0
 40
2.0
 40
2.0
 40
3.0
 40
3.0
 40
3.0
 40
4.0
 40
4.0
 40
4.0
 40
5.0
 40
5.0
 40
5.0
 40
6.0
 40
6.0
 40
6.0
 40
6.0
 10
536.2900390625
 20
-414.63720703125
 30
0.0
 10
540.6728515625
 20
-414.63720703125
 30
0.0
 10
544.8974609375
 20
-413.44482421875
 30
0.0
 10
548.8486328125
 20
-411.0908203125
 30
0.0
 10
554.615234375
 20
-407.65673828125
 30
0.0
 10
557.958984375
 20
-402.60302734375
 30
0.0
 10
558.775390625
 20
-396.07275390625
 30
0.0
 10
559.896484375
 20
-387.15771484375
 30
0.0
 10
555.8369140625
 20
-376.33837890625
 30
0.0
 10
548.6796875
 20
-369.14794921875
 30
0.0
 10
540.7998046875
 20
-361.23046875
 30
0.0
 10
529.1708984375
 20
-356.89697265625
 30
0.0
 10
514.0888671875
 20
-356.24462890625
 30
0.0
 10
509.091796875
 20
-364.0498046875
 30
0.0
 10
504.349609375
 20
-375.71630859375
 30
0.0
 10
507.318359375
 20
-389.58740234375
 30
0.0
 10
510.3212890625
 20
-403.63037109375
 30
0.0
 10
523.048828125
 20
-414.63720703125
 30
0.0
 10
536.2900390625
 20
-414.63720703125
 30
0.0
  0
SPLINE
  5
45
330
3C
100
AcDbEntity
  8
Layer 1
370
     0
100
AcDbSpline
210
0.0
220
0.0
230
1.0
 70
    11
 71
     3
 72
    80
 73
    76
 74
     0
 42
0.0000000001
 43
0.0000000001
 40
0.0
 40
0.0
 40
0.0
 40
0.0
 40
1.0
 40
1.0
 40
1.0
 40
2.0
 40
2.0
 40
2.0
 40
3.0
 40
3.0
 40
3.0
 40
4.0
 40
4.0
 40
4.0
 40
5.0
 40
5.0
 40
5.0
 40
6.0
 40
6.0
 40
6.0
 40
7.0
 40
7.0
 40
7.0
 40
8.0
 40
8.0
 40
8.0
 40
9.0
 40
9.0
 40
9.0
 40
10.0
 40
10.0
 40
10.0
 40
11.0
 40
11.0
 40
11.0
 40
12.0
 40
12.0
 40
12.0
 40
13.0
 40
13.0
 40
13.0
 40
14.0
 40
14.0
 40
14.0
 40
15.0
 40
15.0
 40
15.0
 40
16.0
 40
16.0
 40
16.0
 40
17.0
 40
17.0
 40
17.0
 40
18.0
 40
18.0
 40
18.0
 40
19.0
 40
19.0
 40
19.0
 40
20.0
 40
20.0
 40
20.0
 40
21.0
 40
21.0
 40
21.0
 40
22.0
 40
22.0
 40
22.0
 40
23.0
 40
23.0
 40
23.0
 40
24.0
 40
24.0
 40
24.0
 40
25.0
 40
25.0
 40
25.0
 40
25.0
 10
775.0498046875
 20
-590.783203125
 30
0.0
 10
793.0556640625
 20
-606.107421875
 30
0.0
 10
799.626953125
 20
-632.087890625
 30
0.0
 10
791.3984375
 20
-655.443359375
 30
0.0
 10
783.78125
 20
-677.08203125
 30
0.0
 10
763.2216796875
 20
-692.791015625
 30
0.0
 10
742.5205078125
 20
-692.791015625
 30
0.0
 10
739.5888671875
 20
-692.791015625
 30
0.0
 10
736.634765625
 20
-692.490234375
 30
0.0
 10
733.748046875
 20
-691.890625
 30
0.0
 10
722.021484375
 20
-689.453125
 30
0.0
 10
712.6083984375
 20
-681.828125
 30
0.0
 10
707.92578125
 20
-670.95703125
 30
0.0
 10
703.216796875
 20
-660.025390625
 30
0.0
 10
704.1806640625
 20
-647.3828125
 30
0.0
 10
710.5048828125
 20
-637.134765625
 30
0.0
 10
713.091796875
 20
-632.935546875
 30
0.0
 10
717.0126953125
 20
-630.625
 30
0.0
 10
721.5419921875
 20
-630.625
 30
0.0
 10
727.337890625
 20
-630.625
 30
0.0
 10
733.013671875
 20
-634.501953125
 30
0.0
 10
735.345703125
 20
-640.05078125
 30
0.0
 10
737.572265625
 20
-645.34375
 30
0.0
 10
736.349609375
 20
-650.9375
 30
0.0
 10
731.986328125
 20
-655.3984375
 30
0.0
 10
730.876953125
 20
-656.53125
 30
0.0
 10
730.4755859375
 20
-657.74609375
 30
0.0
 10
730.73046875
 20
-659.20703125
 30
0.0
 10
731.240234375
 20
-662.154296875
 30
0.0
 10
734.171875
 20
-665.244140625
 30
0.0
 10
736.59765625
 20
-666.419921875
 30
0.0
 10
739.904296875
 20
-668.033203125
 30
0.0
 10
744.2822265625
 20
-667.76953125
 30
0.0
 10
750.1943359375
 20
-665.611328125
 30
0.0
 10
758.19140625
 20
-662.693359375
 30
0.0
 10
764.3916015625
 20
-656.125
 30
0.0
 10
767.66015625
 20
-647.12890625
 30
0.0
 10
773.7412109375
 20
-630.37890625
 30
0.0
 10
767.263671875
 20
-612.744140625
 30
0.0
 10
751.904296875
 20
-604.255859375
 30
0.0
 10
743.248046875
 20
-599.47265625
 30
0.0
 10
733.05859375
 20
-597.04296875
 30
0.0
 10
721.6240234375
 20
-597.04296875
 30
0.0
 10
697.96875
 20
-597.04296875
 30
0.0
 10
672.8583984375
 20
-606.90234375
 30
0.0
 10
649.255859375
 20
-617.556640625
 30
0.0
 10
641.015625
 20
-621.275390625
 30
0.0
 10
631.9619140625
 20
-625.865234375
 30
0.0
 10
622.3759765625
 20
-630.72265625
 30
0.0
 10
619.98828125
 20
-631.9296875
 30
0.0
 10
617.56640625
 20
-633.16015625
 30
0.0
 10
615.1181640625
 20
-634.390625
 30
0.0
 10
621.1015625
 20
-649.138671875
 30
0.0
 10
627.796875
 20
-660.70703125
 30
0.0
 10
635.5380859375
 20
-669.673828125
 30
0.0
 10
655.775390625
 20
-693.142578125
 30
0.0
 10
682.98046875
 20
-706.060546875
 30
0.0
 10
712.154296875
 20
-706.060546875
 30
0.0
 10
742.1005859375
 20
-705.962890625
 30
0.0
 10
768.568359375
 20
-692.130859375
 30
0.0
 10
789.037109375
 20
-666.068359375
 30
0.0
 10
795.259765625
 20
-658.150390625
 30
0.0
 10
801.08203125
 20
-649.595703125
 30
0.0
 10
806.712890625
 20
-641.326171875
 30
0.0
 10
818.671875
 20
-623.7421875
 30
0.0
 10
831.0390625
 20
-605.568359375
 30
0.0
 10
848.2021484375
 20
-591.958984375
 30
0.0
 10
849.693359375
 20
-590.775390625
 30
0.0
 10
851.208984375
 20
-589.634765625
 30
0.0
 10
852.7529296875
 20
-588.548828125
 30
0.0
 10
852.7529296875
 20
-588.548828125
 30
0.0
 10
772.2607421875
 20
-588.548828125
 30
0.0
 10
772.2607421875
 20
-588.548828125
 30
0.0
 10
773.216796875
 20
-589.267578125
 30
0.0
 10
774.146484375
 20
-590.009765625
 30
0.0
 10
775.0498046875
 20
-590.783203125
 30
0.0
  0
SPLINE
  5
46
330
3C
100
AcDbEntity
  8
Layer 1
370
     0
100
AcDbSpline
210
0.0
220
0.0
230
1.0
 70
    11
 71
     3
 72
    29
 73
    25
 74
     0
 42
0.0000000001
 43
0.0000000001
 40
0.0
 40
0.0
 40
0.0
 40
0.0
 40
1.0
 40
1.0
 40
1.0
 40
2.0
 40
2.0
 40
2.0
 40
3.0
 40
3.0
 40
3.0
 40
4.0
 40
4.0
 40
4.0
 40
5.0
 40
5.0
 40
5.0
 40
6.0
 40
6.0
 40
6.0
 40
7.0
 40
7.0
 40
7.0
 40
8.0
 40
8.0
 40
8.0
 40
8.0
 10
447.775390625
 20
-594.681640625
 30
0.0
 10
448.7568359375
 20
-592.515625
 30
0.0
 10
449.9345703125
 20
-590.46875
 30
0.0
 10
451.298828125
 20
-588.548828125
 30
0.0
 10
451.298828125
 20
-588.548828125
 30
0.0
 10
426.1064453125
 20
-588.548828125
 30
0.0
 10
426.1064453125
 20
-588.548828125
 30
0.0
 10
426.1064453125
 20
-588.548828125
 30
0.0
 10
426.1064453125
 20
-658.08984375
 30
0.0
 10
426.1064453125
 20
-658.08984375
 30
0.0
 10
440.2958984375
 20
-660.8828125
 30
0.0
 10
454.4892578125
 20
-664.458984375
 30
0.0
 10
468.4873046875
 20
-669.576171875
 30
0.0
 10
471.779296875
 20
-670.77734375
 30
0.0
 10
475.029296875
 20
-672.06640625
 30
0.0
 10
478.1748046875
 20
-673.416015625
 30
0.0
 10
483.171875
 20
-670.8359375
 30
0.0
 10
487.7607421875
 20
-667.96484375
 30
0.0
 10
491.869140625
 20
-664.845703125
 30
0.0
 10
482.9619140625
 20
-662.603515625
 30
0.0
 10
474.69140625
 20
-658.884765625
 30
0.0
 10
467.208984375
 20
-653.7421875
 30
0.0
 10
449.8779296875
 20
-641.841796875
 30
0.0
 10
437.8701171875
 20
-616.4921875
 30
0.0
 10
447.775390625
 20
-594.681640625
 30
0.0
  0
SPLINE
  5
47
330
3C
100
AcDbEntity
  8
Layer 1
370
     0
100
AcDbSpline
210
0.0
220
0.0
230
1.0
 70
    11
 71
     3
 72
    14
 73
    10
 74
     0
 42
0.0000000001
 43
0.0000000001
 40
0.0
 40
0.0
 40
0.0
 40
0.0
 40
1.0
 40
1.0
 40
1.0
 40
2.0
 40
2.0
 40
2.0
 40
3.0
 40
3.0
 40
3.0
 40
3.0
 10
426.1064453125
 20
-686.822265625
 30
0.0
 10
434.23046875
 20
-686.5
 30
0.0
 10
442.548828125
 20
-685.416015625
 30
0.0
 10
450.6689453125
 20
-683.484375
 30
0.0
 10
442.890625
 20
-680.13671875
 30
0.0
 10
434.6796875
 20
-677.16796875
 30
0.0
 10
426.1064453125
 20
-674.55078125
 30
0.0
 10
426.1064453125
 20
-674.55078125
 30
0.0
 10
426.1064453125
 20
-686.822265625
 30
0.0
 10
426.1064453125
 20
-686.822265625
 30
0.0
  0
SPLINE
  5
48
330
3C
100
AcDbEntity
  8
Layer 1
370
     0
100
AcDbSpline
210
0.0
220
0.0
230
1.0
 70
    11
 71
     3
 72
    20
 73
    16
 74
     0
 42
0.0000000001
 43
0.0000000001
 40
0.0
 40
0.0
 40
0.0
 40
0.0
 40
1.0
 40
1.0
 40
1.0
 40
2.0
 40
2.0
 40
2.0
 40
3.0
 40
3.0
 40
3.0
 40
4.0
 40
4.0
 40
4.0
 40
5.0
 40
5.0
 40
5.0
 40
5.0
 10
664.37109375
 20
-588.548828125
 30
0.0
 10
664.37109375
 20
-588.548828125
 30
0.0
 10
600.302734375
 20
-588.548828125
 30
0.0
 10
600.302734375
 20
-588.548828125
 30
0.0
 10
600.302734375
 20
-588.548828125
 30
0.0
 10
600.748046875
 20
-590.107421875
 30
0.0
 10
600.748046875
 20
-590.107421875
 30
0.0
 10
603.21484375
 20
-598.74609375
 30
0.0
 10
605.75390625
 20
-607.638671875
 30
0.0
 10
608.5986328125
 20
-616.38671875
 30
0.0
 10
611.42578125
 20
-614.888671875
 30
0.0
 10
614.248046875
 20
-613.373046875
 30
0.0
 10
617.0712890625
 20
-611.8671875
 30
0.0
 10
632.3857421875
 20
-603.6796875
 30
0.0
 10
648.0703125
 20
-595.2890625
 30
0.0
 10
664.37109375
 20
-588.548828125
 30
0.0
  0
SPLINE
  5
49
330
3C
100
AcDbEntity
  8
Layer 1
370
     0
100
AcDbSpline
210
0.0
220
0.0
230
1.0
 70
    11
 71
     3
 72
    20
 73
    16
 74
     0
 42
0.0000000001
 43
0.0000000001
 40
0.0
 40
0.0
 40
0.0
 40
0.0
 40
1.0
 40
1.0
 40
1.0
 40
2.0
 40
2.0
 40
2.0
 40
3.0
 40
3.0
 40
3.0
 40
4.0
 40
4.0
 40
4.0
 40
5.0
 40
5.0
 40
5.0
 40
5.0
 10
521.669921875
 20
-588.548828125
 30
0.0
 10
532.22265625
 20
-601.669921875
 30
0.0
 10
536.21875
 20
-620.6171875
 30
0.0
 10
531.6298828125
 20
-638.46875
 30
0.0
 10
530.8955078125
 20
-641.318359375
 30
0.0
 10
529.9541015625
 20
-644.12890625
 30
0.0
 10
528.818359375
 20
-646.873046875
 30
0.0
 10
551.806640625
 20
-643.431640625
 30
0.0
 10
572.5078125
 20
-634.583984375
 30
0.0
 10
590.158203125
 20
-625.87890625
 30
0.0
 10
585.037109375
 20
-612.744140625
 30
0.0
 10
582.0234375
 20
-600.21484375
 30
0.0
 10
581.171875
 20
-588.548828125
 30
0.0
 10
581.171875
 20
-588.548828125
 30
0.0
 10
521.669921875
 20
-588.548828125
 30
0.0
 10
521.669921875
 20
-588.548828125
 30
0.0
  0
SPLINE
  5
4A
330
3C
100
AcDbEntity
  8
Layer 1
370
     0
100
AcDbSpline
210
0.0
220
0.0
230
1.0
 70
    11
 71
     3
 72
    23
 73
    19
 74
     0
 42
0.0000000001
 43
0.0000000001
 40
0.0
 40
0.0
 40
0.0
 40
0.0
 40
1.0
 40
1.0
 40
1.0
 40
2.0
 40
2.0
 40
2.0
 40
3.0
 40
3.0
 40
3.0
 40
4.0
 40
4.0
 40
4.0
 40
5.0
 40
5.0
 40
5.0
 40
6.0
 40
6.0
 40
6.0
 40
6.0
 10
485.3759765625
 20
-589.771484375
 30
0.0
 10
480.998046875
 20
-589.771484375
 30
0.0
 10
476.7724609375
 20
-590.962890625
 30
0.0
 10
472.8251953125
 20
-593.31640625
 30
0.0
 10
467.0517578125
 20
-596.7578125
 30
0.0
 10
463.7109375
 20
-601.8046875
 30
0.0
 10
462.890625
 20
-608.3359375
 30
0.0
 10
461.76953125
 20
-617.25
 30
0.0
 10
465.830078125
 20
-628.068359375
 30
0.0
 10
472.990234375
 20
-635.259765625
 30
0.0
 10
480.8623046875
 20
-643.177734375
 30
0.0
 10
492.4921875
 20
-647.51171875
 30
0.0
 10
507.5771484375
 20
-648.1640625
 30
0.0
 10
512.578125
 20
-640.365234375
 30
0.0
 10
517.3203125
 20
-628.69921875
 30
0.0
 10
514.34765625
 20
-614.828125
 30
0.0
 10
511.3408203125
 20
-600.77734375
 30
0.0
 10
498.6171875
 20
-589.771484375
 30
0.0
 10
485.3759765625
 20
-589.771484375
 30
0.0
  0
SPLINE
  5
4B
330
3C
100
AcDbEntity
  8
Layer 1
370
     0
100
AcDbSpline
210
0.0
220
0.0
230
1.0
 70
    11
 71
     3
 72
   392
 73
   388
 74
     0
 42
0.0000000001
 43
0.0000000001
 40
0.0
 40
0.0
 40
0.0
 40
0.0
 40
1.0
 40
1.0
 40
1.0
 40
2.0
 40
2.0
 40
2.0
 40
3.0
 40
3.0
 40
3.0
 40
4.0
 40
4.0
 40
4.0
 40
5.0
 40
5.0
 40
5.0
 40
6.0
 40
6.0
 40
6.0
 40
7.0
 40
7.0
 40
7.0
 40
8.0
 40
8.0
 40
8.0
 40
9.0
 40
9.0
 40
9.0
 40
10.0
 40
10.0
 40
10.0
 40
11.0
 40
11.0
 40
11.0
 40
12.0
 40
12.0
 40
12.0
 40
13.0
 40
13.0
 40
13.0
 40
14.0
 40
14.0
 40
14.0
 40
15.0
 40
15.0
 40
15.0
 40
16.0
 40
16.0
 40
16.0
 40
17.0
 40
17.0
 40
17.0
 40
18.0
 40
18.0
 40
18.0
 40
19.0
 40
19.0
 40
19.0
 40
20.0
 40
20.0
 40
20.0
 40
21.0
 40
21.0
 40
21.0
 40
22.0
 40
22.0
 40
22.0
 40
23.0
 40
23.0
 40
23.0
 40
24.0
 40
24.0
 40
24.0
 40
25.0
 40
25.0
 40
25.0
 40
26.0
 40
26.0
 40
26.0
 40
27.0
 40
27.0
 40
27.0
 40
28.0
 40
28.0
 40
28.0
 40
29.0
 40
29.0
 40
29.0
 40
30.0
 40
30.0
 40
30.0
 40
31.0
 40
31.0
 40
31.0
 40
32.0
 40
32.0
 40
32.0
 40
33.0
 40
33.0
 40
33.0
 40
34.0
 40
34.0
 40
34.0
 40
35.0
 40
35.0
 40
35.0
 40
36.0
 40
36.0
 40
36.0
 40
37.0
 40
37.0
 40
37.0
 40
38.0
 40
38.0
 40
38.0
 40
39.0
 40
39.0
 40
39.0
 40
40.0
 40
40.0
 40
40.0
 40
41.0
 40
41.0
 40
41.0
 40
42.0
 40
42.0
 40
42.0
 40
43.0
 40
43.0
 40
43.0
 40
44.0
 40
44.0
 40
44.0
 40
45.0
 40
45.0
 40
45.0
 40
46.0
 40
46.0
 40
46.0
 40
47.0
 40
47.0
 40
47.0
 40
48.0
 40
48.0
 40
48.0
 40
49.0
 40
49.0
 40
49.0
 40
50.0
 40
50.0
 40
50.0
 40
51.0
 40
51.0
 40
51.0
 40
52.0
 40
52.0
 40
52.0
 40
53.0
 40
53.0
 40
53.0
 40
54.0
 40
54.0
 40
54.0
 40
55.0
 40
55.0
 40
55.0
 40
56.0
 40
56.0
 40
56.0
 40
57.0
 40
57.0
 40
57.0
 40
58.0
 40
58.0
 40
58.0
 40
59.0
 40
59.0
 40
59.0
 40
60.0
 40
60.0
 40
60.0
 40
61.0
 40
61.0
 40
61.0
 40
62.0
 40
62.0
 40
62.0
 40
63.0
 40
63.0
 40
63.0
 40
64.0
 40
64.0
 40
64.0
 40
65.0
 40
65.0
 40
65.0
 40
66.0
 40
66.0
 40
66.0
 40
67.0
 40
67.0
 40
67.0
 40
68.0
 40
68.0
 40
68.0
 40
69.0
 40
69.0
 40
69.0
 40
70.0
 40
70.0
 40
70.0
 40
71.0
 40
71.0
 40
71.0
 40
72.0
 40
72.0
 40
72.0
 40
73.0
 40
73.0
 40
73.0
 40
74.0
 40
74.0
 40
74.0
 40
75.0
 40
75.0
 40
75.0
 40
76.0
 40
76.0
 40
76.0
 40
77.0
 40
77.0
 40
77.0
 40
78.0
 40
78.0
 40
78.0
 40
79.0
 40
79.0
 40
79.0
 40
80.0
 40
80.0
 40
80.0
 40
81.0
 40
81.0
 40
81.0
 40
82.0
 40
82.0
 40
82.0
 40
83.0
 40
83.0
 40
83.0
 40
84.0
 40
84.0
 40
84.0
 40
85.0
 40
85.0
 40
85.0
 40
86.0
 40
86.0
 40
86.0
 40
87.0
 40
87.0
 40
87.0
 40
88.0
 40
88.0
 40
88.0
 40
89.0
 40
89.0
 40
89.0
 40
90.0
 40
90.0
 40
90.0
 40
91.0
 40
91.0
 40
91.0
 40
92.0
 40
92.0
 40
92.0
 40
93.0
 40
93.0
 40
93.0
 40
94.0
 40
94.0
 40
94.0
 40
95.0
 40
95.0
 40
95.0
 40
96.0
 40
96.0
 40
96.0
 40
97.0
 40
97.0
 40
97.0
 40
98.0
 40
98.0
 40
98.0
 40
99.0
 40
99.0
 40
99.0
 40
100.0
 40
100.0
 40
100.0
 40
101.0
 40
101.0
 40
101.0
 40
102.0
 40
102.0
 40
102.0
 40
103.0
 40
103.0
 40
103.0
 40
104.0
 40
104.0
 40
104.0
 40
105.0
 40
105.0
 40
105.0
 40
106.0
 40
106.0
 40
106.0
 40
107.0
 40
107.0
 40
107.0
 40
108.0
 40
108.0
 40
108.0
 40
109.0
 40
109.0
 40
109.0
 40
110.0
 40
110.0
 40
110.0
 40
111.0
 40
111.0
 40
111.0
 40
112.0
 40
112.0
 40
112.0
 40
113.0
 40
113.0
 40
113.0
 40
114.0
 40
114.0
 40
114.0
 40
115.0
 40
115.0
 40
115.0
 40
116.0
 40
116.0
 40
116.0
 40
117.0
 40
117.0
 40
117.0
 40
118.0
 40
118.0
 40
118.0
 40
119.0
 40
119.0
 40
119.0
 40
120.0
 40
120.0
 40
120.0
 40
121.0
 40
121.0
 40
121.0
 40
122.0
 40
122.0
 40
122.0
 40
123.0
 40
123.0
 40
123.0
 40
124.0
 40
124.0
 40
124.0
 40
125.0
 40
125.0
 40
125.0
 40
126.0
 40
126.0
 40
126.0
 40
127.0
 40
127.0
 40
127.0
 40
128.0
 40
128.0
 40
128.0
 40
129.0
 40
129.0
 40
129.0
 40
129.0
 10
912.10546875
 20
-641.294921875
 30
0.0
 10
915.3896484375
 20
-637.0
 30
0.0
 10
916.2783203125
 20
-631.27734375
 30
0.0
 10
914.6171875
 20
-625.17578125
 30
0.0
 10
912.533203125
 20
-617.51953125
 30
0.0
 10
906.0771484375
 20
-612.578125
 30
0.0
 10
898.1669921875
 20
-612.578125
 30
0.0
 10
895.35546875
 20
-612.578125
 30
0.0
 10
892.4765625
 20
-613.216796875
 30
0.0
 10
889.830078125
 20
-614.4375
 30
0.0
 10
877.94921875
 20
-619.919921875
 30
0.0
 10
874.5302734375
 20
-634.044921875
 30
0.0
 10
875.208984375
 20
-644.474609375
 30
0.0
 10
876.5732421875
 20
-665.46875
 30
0.0
 10
894.2119140625
 20
-682.541015625
 30
0.0
 10
914.52734375
 20
-682.541015625
 30
0.0
 10
916.86328125
 20
-682.541015625
 30
0.0
 10
919.2060546875
 20
-682.30859375
 30
0.0
 10
921.49609375
 20
-681.8515625
 30
0.0
 10
942.966796875
 20
-677.5703125
 30
0.0
 10
960.2412109375
 20
-655.255859375
 30
0.0
 10
960.818359375
 20
-631.052734375
 30
0.0
 10
961.4033203125
 20
-606.873046875
 30
0.0
 10
946.2578125
 20
-584.072265625
 30
0.0
 10
923.982421875
 20
-575.615234375
 30
0.0
 10
920.0078125
 20
-574.107421875
 30
0.0
 10
915.8544921875
 20
-573.013671875
 30
0.0
 10
911.587890625
 20
-572.345703125
 30
0.0
 10
911.587890625
 20
-572.345703125
 30
0.0
 10
911.587890625
 20
-571.392578125
 30
0.0
 10
911.587890625
 20
-571.392578125
 30
0.0
 10
911.587890625
 20
-571.392578125
 30
0.0
 10
107.525390625
 20
-571.392578125
 30
0.0
 10
107.525390625
 20
-571.392578125
 30
0.0
 10
107.525390625
 20
-571.392578125
 30
0.0
 10
107.525390625
 20
-588.548828125
 30
0.0
 10
107.525390625
 20
-588.548828125
 30
0.0
 10
107.525390625
 20
-588.548828125
 30
0.0
 10
250.17822265625
 20
-588.548828125
 30
0.0
 10
250.17822265625
 20
-588.548828125
 30
0.0
 10
240.138671875
 20
-593.51953125
 30
0.0
 10
230.552734375
 20
-599.48828125
 30
0.0
 10
221.525390625
 20
-606.400390625
 30
0.0
 10
212.92919921875
 20
-610.3828125
 30
0.0
 10
205.697265625
 20
-613.404296875
 30
0.0
 10
197.94140625
 20
-613.404296875
 30
0.0
 10
194.255859375
 20
-613.404296875
 30
0.0
 10
190.66796875
 20
-612.720703125
 30
0.0
 10
186.9794921875
 20
-611.3125
 30
0.0
 10
182.533203125
 20
-609.609375
 30
0.0
 10
176.755859375
 20
-607.263671875
 30
0.0
 10
171.5341796875
 20
-604.181640625
 30
0.0
 10
171.5341796875
 20
-604.181640625
 30
0.0
 10
169.60693359375
 20
-603.02734375
 30
0.0
 10
169.60693359375
 20
-603.02734375
 30
0.0
 10
165.783203125
 20
-600.6875
 30
0.0
 10
162.1689453125
 20
-598.482421875
 30
0.0
 10
156.15625
 20
-598.318359375
 30
0.0
 10
153.3515625
 20
-598.318359375
 30
0.0
 10
150.7197265625
 20
-599.615234375
 30
0.0
 10
148.935546875
 20
-601.865234375
 30
0.0
 10
147.0537109375
 20
-604.2421875
 30
0.0
 10
146.3447265625
 20
-607.40625
 30
0.0
 10
147.03857421875
 20
-610.322265625
 30
0.0
 10
151.439453125
 20
-628.751953125
 30
0.0
 10
176.3662109375
 20
-630.18359375
 30
0.0
 10
183.9013671875
 20
-630.18359375
 30
0.0
 10
186.37939453125
 20
-630.18359375
 30
0.0
 10
188.7861328125
 20
-630.056640625
 30
0.0
 10
191.05810546875
 20
-629.80078125
 30
0.0
 10
192.91015625
 20
-629.599609375
 30
0.0
 10
195.14453125
 20
-629.283203125
 30
0.0
 10
197.6259765625
 20
-628.796875
 30
0.0
 10
196.57275390625
 20
-630.025390625
 30
0.0
 10
195.5341796875
 20
-631.27734375
 30
0.0
 10
194.52197265625
 20
-632.552734375
 30
0.0
 10
193.701171875
 20
-632.853515625
 30
0.0
 10
192.9814453125
 20
-633.376953125
 30
0.0
 10
192.4375
 20
-634.09765625
 30
0.0
 10
189.6484375
 20
-637.79296875
 30
0.0
 10
186.7841796875
 20
-641.796875
 30
0.0
 10
183.8154296875
 20
-645.935546875
 30
0.0
 10
165.2431640625
 20
-671.86328125
 30
0.0
 10
144.189453125
 20
-701.412109375
 30
0.0
 10
112.3916015625
 20
-699.03515625
 30
0.0
 10
105.373046875
 20
-698.48828125
 30
0.0
 10
100.357421875
 20
-703.189453125
 30
0.0
 10
100.04248046875
 20
-710.05078125
 30
0.0
 10
99.7578125
 20
-716.236328125
 30
0.0
 10
103.798828125
 20
-723.216796875
 30
0.0
 10
111.8515625
 20
-723.958984375
 30
0.0
 10
132.6806640625
 20
-725.892578125
 30
0.0
 10
147.30859375
 20
-712.845703125
 30
0.0
 10
158.66015625
 20
-700.123046875
 30
0.0
 10
161.216796875
 20
-697.2578125
 30
0.0
 10
163.83740234375
 20
-694.3125
 30
0.0
 10
166.46533203125
 20
-691.291015625
 30
0.0
 10
161.3740234375
 20
-716.513671875
 30
0.0
 10
164.86083984375
 20
-741.076171875
 30
0.0
 10
176.7373046875
 20
-761.890625
 30
0.0
 10
179.88671875
 20
-767.416015625
 30
0.0
 10
183.7177734375
 20
-772.671875
 30
0.0
 10
188.15283203125
 20
-777.529296875
 30
0.0
 10
188.2841796875
 20
-780.177734375
 30
0.0
 10
188.61376953125
 20
-782.779296875
 30
0.0
 10
188.9326171875
 20
-785.3125
 30
0.0
 10
189.326171875
 20
-788.447265625
 30
0.0
 10
189.701171875
 20
-791.400390625
 30
0.0
 10
189.70849609375
 20
-794.33203125
 30
0.0
 10
189.73828125
 20
-803.509765625
 30
0.0
 10
187.5869140625
 20
-811.47265625
 30
0.0
 10
182.72802734375
 20
-820.154296875
 30
0.0
 10
182.435546875
 20
-820.6875
 30
0.0
 10
182.0009765625
 20
-821.400390625
 30
0.0
 10
181.4833984375
 20
-822.26171875
 30
0.0
 10
175.77001953125
 20
-831.73828125
 30
0.0
 10
169.9970703125
 20
-842.423828125
 30
0.0
 10
173.82080078125
 20
-849.185546875
 30
0.0
 10
175.03515625
 20
-851.337890625
 30
0.0
 10
177.70458984375
 20
-853.89453125
 30
0.0
 10
183.548828125
 20
-853.89453125
 30
0.0
 10
183.9052734375
 20
-853.89453125
 30
0.0
 10
184.2724609375
 20
-853.88671875
 30
0.0
 10
184.6513671875
 20
-853.865234375
 30
0.0
 10
202.64208984375
 20
-852.98046875
 30
0.0
 10
205.45751953125
 20
-823.537109375
 30
0.0
 10
206.5185546875
 20
-812.455078125
 30
0.0
 10
207.005859375
 20
-807.400390625
 30
0.0
 10
207.6728515625
 20
-800.49609375
 30
0.0
 10
207.41455078125
 20
-793.455078125
 30
0.0
 10
220.95556640625
 20
-801.755859375
 30
0.0
 10
236.419921875
 20
-806.26171875
 30
0.0
 10
251.73046875
 20
-806.26171875
 30
0.0
 10
264.982421875
 20
-806.26171875
 30
0.0
 10
277.91259765625
 20
-802.8359375
 30
0.0
 10
289.189453125
 20
-796.341796875
 30
0.0
 10
294.8046875
 20
-795.953125
 30
0.0
 10
300.1806640625
 20
-796.423828125
 30
0.0
 10
305.03955078125
 20
-797.841796875
 30
0.0
 10
306.1455078125
 20
-798.16015625
 30
0.0
 10
307.24755859375
 20
-798.7265625
 30
0.0
 10
308.357421875
 20
-799.375
 30
0.0
 10
307.6376953125
 20
-807.353515625
 30
0.0
 10
306.80517578125
 20
-813.740234375
 30
0.0
 10
305.837890625
 20
-818.46875
 30
0.0
 10
302.10791015625
 20
-836.6953125
 30
0.0
 10
293.6806640625
 20
-850.130859375
 30
0.0
 10
280.5478515625
 20
-858.75390625
 30
0.0
 10
267.408203125
 20
-867.376953125
 30
0.0
 10
243.7900390625
 20
-871.6875
 30
0.0
 10
209.6826171875
 20
-871.6875
 30
0.0
 10
209.6826171875
 20
-871.6875
 30
0.0
 10
186.154296875
 20
-871.6875
 30
0.0
 10
186.154296875
 20
-871.6875
 30
0.0
 10
186.154296875
 20
-871.6875
 30
0.0
 10
186.154296875
 20
-898.740234375
 30
0.0
 10
186.154296875
 20
-898.740234375
 30
0.0
 10
186.154296875
 20
-898.740234375
 30
0.0
 10
863.662109375
 20
-898.740234375
 30
0.0
 10
863.662109375
 20
-898.740234375
 30
0.0
 10
863.662109375
 20
-898.740234375
 30
0.0
 10
869.5478515625
 20
-664.080078125
 30
0.0
 10
869.5478515625
 20
-664.080078125
 30
0.0
 10
869.5478515625
 20
-664.080078125
 30
0.0
 10
841.904296875
 20
-664.080078125
 30
0.0
 10
841.904296875
 20
-664.080078125
 30
0.0
 10
824.26171875
 20
-727.212890625
 30
0.0
 10
804.751953125
 20
-773.279296875
 30
0.0
 10
783.38671875
 20
-802.287109375
 30
0.0
 10
762.0146484375
 20
-831.3125
 30
0.0
 10
739.46875
 20
-850.130859375
 30
0.0
 10
715.75390625
 20
-858.75390625
 30
0.0
 10
692.0263671875
 20
-867.376953125
 30
0.0
 10
655.666015625
 20
-871.6875
 30
0.0
 10
606.66015625
 20
-871.6875
 30
0.0
 10
606.66015625
 20
-871.6875
 30
0.0
 10
546.08203125
 20
-871.6875
 30
0.0
 10
546.08203125
 20
-871.6875
 30
0.0
 10
500.20703125
 20
-871.6875
 30
0.0
 10
470.3056640625
 20
-867.67578125
 30
0.0
 10
456.3974609375
 20
-859.630859375
 30
0.0
 10
442.4736328125
 20
-851.6015625
 30
0.0
 10
433.9453125
 20
-840.32421875
 30
0.0
 10
430.8115234375
 20
-825.81640625
 30
0.0
 10
427.669921875
 20
-811.314453125
 30
0.0
 10
426.1064453125
 20
-775.236328125
 30
0.0
 10
426.1064453125
 20
-717.599609375
 30
0.0
 10
426.1064453125
 20
-717.599609375
 30
0.0
 10
426.1064453125
 20
-701.5703125
 30
0.0
 10
426.1064453125
 20
-701.5703125
 30
0.0
 10
440.91796875
 20
-701.55859375
 30
0.0
 10
455.99609375
 20
-698.96875
 30
0.0
 10
470.9208984375
 20
-693.85546875
 30
0.0
 10
470.9208984375
 20
-693.85546875
 30
0.0
 10
471.220703125
 20
-693.75
 30
0.0
 10
471.220703125
 20
-693.75
 30
0.0
 10
475.8388671875
 20
-696.404296875
 30
0.0
 10
480.0078125
 20
-699.04296875
 30
0.0
 10
483.921875
 20
-701.787109375
 30
0.0
 10
501.0732421875
 20
-713.814453125
 30
0.0
 10
512.0986328125
 20
-729.634765625
 30
0.0
 10
514.17578125
 20
-745.185546875
 30
0.0
 10
516.3271484375
 20
-761.341796875
 30
0.0
 10
507.3447265625
 20
-776.1796875
 30
0.0
 10
492.814453125
 20
-780.4609375
 30
0.0
 10
486.486328125
 20
-782.3203125
 30
0.0
 10
482.8720703125
 20
-787.990234375
 30
0.0
 10
483.81640625
 20
-794.556640625
 30
0.0
 10
484.65234375
 20
-800.330078125
 30
0.0
 10
489.2451171875
 20
-806.171875
 30
0.0
 10
496.4052734375
 20
-806.171875
 30
0.0
 10
497.6875
 20
-806.171875
 30
0.0
 10
499.0
 20
-805.9765625
 30
0.0
 10
500.30859375
 20
-805.5859375
 30
0.0
 10
520.162109375
 20
-799.73828125
 30
0.0
 10
534.81640625
 20
-783.205078125
 30
0.0
 10
539.109375
 20
-762.482421875
 30
0.0
 10
540.1103515625
 20
-763.26171875
 30
0.0
 10
541.0927734375
 20
-764.00390625
 30
0.0
 10
542.029296875
 20
-764.716796875
 30
0.0
 10
542.029296875
 20
-764.716796875
 30
0.0
 10
543.02734375
 20
-765.474609375
 30
0.0
 10
543.02734375
 20
-765.474609375
 30
0.0
 10
550.419921875
 20
-771.111328125
 30
0.0
 10
560.287109375
 20
-777.634765625
 30
0.0
 10
571.435546875
 20
-778.017578125
 30
0.0
 10
576.013671875
 20
-778.017578125
 30
0.0
 10
579.732421875
 20
-774.81640625
 30
0.0
 10
580.69140625
 20
-770.046875
 30
0.0
 10
581.7265625
 20
-764.904296875
 30
0.0
 10
579.271484375
 20
-759.828125
 30
0.0
 10
574.8623046875
 20
-757.9765625
 30
0.0
 10
571.0537109375
 20
-756.38671875
 30
0.0
 10
567.169921875
 20
-755.478515625
 30
0.0
 10
563.4130859375
 20
-754.609375
 30
0.0
 10
559.341796875
 20
-753.6640625
 30
0.0
 10
555.49609375
 20
-752.765625
 30
0.0
 10
551.888671875
 20
-751.0703125
 30
0.0
 10
548.9951171875
 20
-749.705078125
 30
0.0
 10
546.37890625
 20
-747.62890625
 30
0.0
 10
543.6044921875
 20
-745.431640625
 30
0.0
 10
542.396484375
 20
-744.48046875
 30
0.0
 10
541.193359375
 20
-743.52734375
 30
0.0
 10
539.9638671875
 20
-742.626953125
 30
0.0
 10
539.720703125
 20
-740.54296875
 30
0.0
 10
539.375
 20
-738.48828125
 30
0.0
 10
538.9404296875
 20
-736.501953125
 30
0.0
 10
538.4609375
 20
-734.34375
 30
0.0
 10
537.8828125
 20
-732.205078125
 30
0.0
 10
537.208984375
 20
-730.099609375
 30
0.0
 10
539.12109375
 20
-730.849609375
 30
0.0
 10
541.06640625
 20
-731.53125
 30
0.0
 10
542.9892578125
 20
-732.123046875
 30
0.0
 10
548.5
 20
-733.810546875
 30
0.0
 10
553.80078125
 20
-729.603515625
 30
0.0
 10
554.17578125
 20
-723.486328125
 30
0.0
 10
554.4912109375
 20
-718.39453125
 30
0.0
 10
551.3125
 20
-714.4140625
 30
0.0
 10
546.453125
 20
-713.814453125
 30
0.0
 10
541.328125
 20
-713.19140625
 30
0.0
 10
536.724609375
 20
-712.494140625
 30
0.0
 10
532.2900390625
 20
-710.365234375
 30
0.0
 10
530.6181640625
 20
-709.5546875
 30
0.0
 10
528.9765625
 20
-708.580078125
 30
0.0
 10
527.236328125
 20
-707.552734375
 30
0.0
 10
526.037109375
 20
-706.841796875
 30
0.0
 10
524.8369140625
 20
-706.13671875
 30
0.0
 10
523.623046875
 20
-705.46875
 30
0.0
 10
516.57421875
 20
-696.90625
 30
0.0
 10
507.359375
 20
-689.220703125
 30
0.0
 10
496.169921875
 20
-682.548828125
 30
0.0
 10
503.798828125
 20
-678.072265625
 30
0.0
 10
510.2802734375
 20
-672.98828125
 30
0.0
 10
515.501953125
 20
-667.38671875
 30
0.0
 10
543.484375
 20
-666.794921875
 30
0.0
 10
572.5830078125
 20
-654.95703125
 30
0.0
 10
597.8505859375
 20
-642.892578125
 30
0.0
 10
609.892578125
 20
-666.3828125
 30
0.0
 10
626.822265625
 20
-687.8046875
 30
0.0
 10
643.6396484375
 20
-700.693359375
 30
0.0
 10
663.06640625
 20
-715.591796875
 30
0.0
 10
687.3515625
 20
-723.79296875
 30
0.0
 10
712.01953125
 20
-723.79296875
 30
0.0
 10
728.896484375
 20
-723.79296875
 30
0.0
 10
745.72265625
 20
-719.88671875
 30
0.0
 10
760.6875
 20
-712.486328125
 30
0.0
 10
768.181640625
 20
-708.783203125
 30
0.0
 10
775.30859375
 20
-703.9609375
 30
0.0
 10
782.2734375
 20
-697.880859375
 30
0.0
 10
780.9013671875
 20
-708.0859375
 30
0.0
 10
780.4892578125
 20
-720.15625
 30
0.0
 10
785.4267578125
 20
-730.25
 30
0.0
 10
787.2451171875
 20
-733.953125
 30
0.0
 10
790.66796875
 20
-736.07421875
 30
0.0
 10
794.8173828125
 20
-736.07421875
 30
0.0
 10
798.39453125
 20
-736.07421875
 30
0.0
 10
801.9970703125
 20
-734.462890625
 30
0.0
 10
804.4560546875
 20
-731.763671875
 30
0.0
 10
806.6337890625
 20
-729.37109375
 30
0.0
 10
807.67578125
 20
-726.365234375
 30
0.0
 10
807.3876953125
 20
-723.306640625
 30
0.0
 10
806.9267578125
 20
-718.42578125
 30
0.0
 10
805.689453125
 20
-713.822265625
 30
0.0
 10
804.490234375
 20
-709.359375
 30
0.0
 10
803.169921875
 20
-704.44921875
 30
0.0
 10
801.92578125
 20
-699.80859375
 30
0.0
 10
801.677734375
 20
-694.919921875
 30
0.0
 10
801.4833984375
 20
-690.990234375
 30
0.0
 10
802.203125
 20
-686.994140625
 30
0.0
 10
802.9716796875
 20
-682.765625
 30
0.0
 10
803.4853515625
 20
-679.923828125
 30
0.0
 10
804.017578125
 20
-676.9921875
 30
0.0
 10
804.2646484375
 20
-674.015625
 30
0.0
 10
808.486328125
 20
-668.609375
 30
0.0
 10
812.587890625
 20
-662.96484375
 30
0.0
 10
816.580078125
 20
-657.423828125
 30
0.0
 10
816.62890625
 20
-664.740234375
 30
0.0
 10
817.6787109375
 20
-671.197265625
 30
0.0
 10
818.3232421875
 20
-674.50390625
 30
0.0
 10
819.2265625
 20
-679.083984375
 30
0.0
 10
822.904296875
 20
-682.044921875
 30
0.0
 10
827.703125
 20
-682.044921875
 30
0.0
 10
831.51171875
 20
-682.044921875
 30
0.0
 10
835.291015625
 20
-680.134765625
 30
0.0
 10
837.318359375
 20
-677.171875
 30
0.0
 10
839.1298828125
 20
-674.533203125
 30
0.0
 10
839.458984375
 20
-671.353515625
 30
0.0
 10
838.2451171875
 20
-668.220703125
 30
0.0
 10
835.9765625
 20
-662.341796875
 30
0.0
 10
834.076171875
 20
-656.98828125
 30
0.0
 10
833.8212890625
 20
-650.9453125
 30
0.0
 10
833.7275390625
 20
-648.6796875
 30
0.0
 10
833.828125
 20
-646.37109375
 30
0.0
 10
833.94140625
 20
-643.927734375
 30
0.0
 10
834.083984375
 20
-640.6953125
 30
0.0
 10
834.2333984375
 20
-637.373046875
 30
0.0
 10
833.9033203125
 20
-634.015625
 30
0.0
 10
837.1123046875
 20
-629.97265625
 30
0.0
 10
840.15625
 20
-626.390625
 30
0.0
 10
843.1484375
 20
-623.134765625
 30
0.0
 10
843.091796875
 20
-631.076171875
 30
0.0
 10
845.203125
 20
-638.904296875
 30
0.0
 10
849.236328125
 20
-644.630859375
 30
0.0
 10
851.2607421875
 20
-647.517578125
 30
0.0
 10
855.2646484375
 20
-648.830078125
 30
0.0
 10
858.349609375
 20
-647.578125
 30
0.0
 10
859.666015625
 20
-647.046875
 30
0.0
 10
860.513671875
 20
-646.36328125
 30
0.0
 10
861.248046875
 20
-645.697265625
 30
0.0
 10
863.34765625
 20
-643.76171875
 30
0.0
 10
864.09375
 20
-640.267578125
 30
0.0
 10
862.9833984375
 20
-637.568359375
 30
0.0
 10
862.9833984375
 20
-637.568359375
 30
0.0
 10
862.78515625
 20
-637.08203125
 30
0.0
 10
862.78515625
 20
-637.08203125
 30
0.0
 10
860.6103515625
 20
-631.78125
 30
0.0
 10
858.728515625
 20
-627.19921875
 30
0.0
 10
858.8037109375
 20
-621.755859375
 30
0.0
 10
858.87890625
 20
-616.05078125
 30
0.0
 10
861.0302734375
 20
-610.681640625
 30
0.0
 10
863.1640625
 20
-605.478515625
 30
0.0
 10
864.517578125
 20
-604.548828125
 30
0.0
 10
865.892578125
 20
-603.6484375
 30
0.0
 10
867.310546875
 20
-602.794921875
 30
0.0
 10
877.2333984375
 20
-596.818359375
 30
0.0
 10
889.3125
 20
-593.384765625
 30
0.0
 10
900.439453125
 20
-593.384765625
 30
0.0
 10
911.587890625
 20
-593.384765625
 30
0.0
 10
931.337890625
 20
-596.810546875
 30
0.0
 10
938.294921875
 20
-619.76953125
 30
0.0
 10
942.45703125
 20
-633.505859375
 30
0.0
 10
937.455078125
 20
-648.8828125
 30
0.0
 10
926.4111328125
 20
-656.328125
 30
0.0
 10
919.6484375
 20
-660.87890625
 30
0.0
 10
912.12109375
 20
-661.306640625
 30
0.0
 10
906.025390625
 20
-657.453125
 30
0.0
 10
902.8310546875
 20
-655.390625
 30
0.0
 10
900.39453125
 20
-652.669921875
 30
0.0
 10
898.51953125
 20
-649.041015625
 30
0.0
 10
898.33203125
 20
-648.6953125
 30
0.0
 10
898.1630859375
 20
-648.357421875
 30
0.0
 10
898.009765625
 20
-648.021484375
 30
0.0
 10
898.04296875
 20
-648.021484375
 30
0.0
 10
898.0771484375
 20
-648.021484375
 30
0.0
 10
898.115234375
 20
-648.021484375
 30
0.0
 10
903.6552734375
 20
-648.021484375
 30
0.0
 10
908.888671875
 20
-645.509765625
 30
0.0
 10
912.10546875
 20
-641.294921875
 30
0.0
  0
SPLINE
  5
4C
330
3C
100
AcDbEntity
  8
Layer 1
370
     0
100
AcDbSpline
210
0.0
220
0.0
230
1.0
 70
    11
 71
     3
 72
    26
 73
    22
 74
     0
 42
0.0000000001
 43
0.0000000001
 40
0.0
 40
0.0
 40
0.0
 40
0.0
 40
1.0
 40
1.0
 40
1.0
 40
2.0
 40
2.0
 40
2.0
 40
3.0
 40
3.0
 40
3.0
 40
4.0
 40
4.0
 40
4.0
 40
5.0
 40
5.0
 40
5.0
 40
6.0
 40
6.0
 40
6.0
 40
7.0
 40
7.0
 40
7.0
 40
7.0
 10
290.8984375
 20
-589.267578125
 30
0.0
 10
292.00830078125
 20
-589.021484375
 30
0.0
 10
293.1181640625
 20
-588.78125
 30
0.0
 10
294.2236328125
 20
-588.548828125
 30
0.0
 10
294.2236328125
 20
-588.548828125
 30
0.0
 10
298.7041015625
 20
-588.548828125
 30
0.0
 10
298.7041015625
 20
-588.548828125
 30
0.0
 10
300.7021484375
 20
-602.5546875
 30
0.0
 10
305.03564453125
 20
-616.2109375
 30
0.0
 10
311.423828125
 20
-628.98046875
 30
0.0
 10
311.423828125
 20
-628.98046875
 30
0.0
 10
311.423828125
 20
-635.953125
 30
0.0
 10
311.423828125
 20
-635.953125
 30
0.0
 10
305.2158203125
 20
-632.8984375
 30
0.0
 10
299.7646484375
 20
-629.279296875
 30
0.0
 10
295.0146484375
 20
-624.99609375
 30
0.0
 10
286.1640625
 20
-617.017578125
 30
0.0
 10
280.8740234375
 20
-607.9375
 30
0.0
 10
278.0810546875
 20
-595.8359375
 30
0.0
 10
282.49365234375
 20
-593.361328125
 30
0.0
 10
286.9697265625
 20
-591.158203125
 30
0.0
 10
290.8984375
 20
-589.267578125
 30
0.0
  0
SPLINE
  5
4D
330
3C
100
AcDbEntity
  8
Layer 1
370
     0
100
AcDbSpline
210
0.0
220
0.0
230
1.0
 70
    11
 71
     3
 72
    95
 73
    91
 74
     0
 42
0.0000000001
 43
0.0000000001
 40
0.0
 40
0.0
 40
0.0
 40
0.0
 40
1.0
 40
1.0
 40
1.0
 40
2.0
 40
2.0
 40
2.0
 40
3.0
 40
3.0
 40
3.0
 40
4.0
 40
4.0
 40
4.0
 40
5.0
 40
5.0
 40
5.0
 40
6.0
 40
6.0
 40
6.0
 40
7.0
 40
7.0
 40
7.0
 40
8.0
 40
8.0
 40
8.0
 40
9.0
 40
9.0
 40
9.0
 40
10.0
 40
10.0
 40
10.0
 40
11.0
 40
11.0
 40
11.0
 40
12.0
 40
12.0
 40
12.0
 40
13.0
 40
13.0
 40
13.0
 40
14.0
 40
14.0
 40
14.0
 40
15.0
 40
15.0
 40
15.0
 40
16.0
 40
16.0
 40
16.0
 40
17.0
 40
17.0
 40
17.0
 40
18.0
 40
18.0
 40
18.0
 40
19.0
 40
19.0
 40
19.0
 40
20.0
 40
20.0
 40
20.0
 40
21.0
 40
21.0
 40
21.0
 40
22.0
 40
22.0
 40
22.0
 40
23.0
 40
23.0
 40
23.0
 40
24.0
 40
24.0
 40
24.0
 40
25.0
 40
25.0
 40
25.0
 40
26.0
 40
26.0
 40
26.0
 40
27.0
 40
27.0
 40
27.0
 40
28.0
 40
28.0
 40
28.0
 40
29.0
 40
29.0
 40
29.0
 40
30.0
 40
30.0
 40
30.0
 40
30.0
 10
262.46337890625
 20
-715.80078125
 30
0.0
 10
264.37158203125
 20
-721.505859375
 30
0.0
 10
269.6689453125
 20
-725.337890625
 30
0.0
 10
275.65185546875
 20
-725.337890625
 30
0.0
 10
277.830078125
 20
-725.337890625
 30
0.0
 10
280.0419921875
 20
-724.8515625
 30
0.0
 10
282.2236328125
 20
-723.8984375
 30
0.0
 10
287.0673828125
 20
-721.783203125
 30
0.0
 10
290.7490234375
 20
-722.263671875
 30
0.0
 10
293.59765625
 20
-725.5703125
 30
0.0
 10
297.7744140625
 20
-730.40625
 30
0.0
 10
299.052734375
 20
-739.62890625
 30
0.0
 10
298.1337890625
 20
-745.8515625
 30
0.0
 10
296.541015625
 20
-756.6640625
 30
0.0
 10
289.8115234375
 20
-765.10546875
 30
0.0
 10
284.45068359375
 20
-770.279296875
 30
0.0
 10
274.5869140625
 20
-779.794921875
 30
0.0
 10
260.794921875
 20
-785.251953125
 30
0.0
 10
246.61669921875
 20
-785.251953125
 30
0.0
 10
241.87060546875
 20
-785.251953125
 30
0.0
 10
237.19580078125
 20
-784.638671875
 30
0.0
 10
232.7080078125
 20
-783.431640625
 30
0.0
 10
224.91064453125
 20
-781.33984375
 30
0.0
 10
217.75390625
 20
-777.97265625
 30
0.0
 10
211.32080078125
 20
-773.384765625
 30
0.0
 10
227.42236328125
 20
-773.923828125
 30
0.0
 10
241.10595703125
 20
-766.681640625
 30
0.0
 10
247.208984375
 20
-754.34765625
 30
0.0
 10
249.076171875
 20
-750.576171875
 30
0.0
 10
248.8359375
 20
-746.294921875
 30
0.0
 10
246.5419921875
 20
-742.60546875
 30
0.0
 10
244.240234375
 20
-738.88671875
 30
0.0
 10
240.318359375
 20
-736.583984375
 30
0.0
 10
236.318359375
 20
-736.583984375
 30
0.0
 10
233.21826171875
 20
-736.583984375
 30
0.0
 10
230.3017578125
 20
-737.986328125
 30
0.0
 10
228.1044921875
 20
-740.53515625
 30
0.0
 10
221.57421875
 20
-748.1171875
 30
0.0
 10
215.4931640625
 20
-754.52734375
 30
0.0
 10
207.22705078125
 20
-756.236328125
 30
0.0
 10
201.8701171875
 20
-757.337890625
 30
0.0
 10
196.7041015625
 20
-755.666015625
 30
0.0
 10
191.087890625
 20
-750.99609375
 30
0.0
 10
181.31103515625
 20
-734.24609375
 30
0.0
 10
177.49462890625
 20
-713.3046875
 30
0.0
 10
180.61376953125
 20
-693.435546875
 30
0.0
 10
185.5322265625
 20
-662.1015625
 30
0.0
 10
203.9619140625
 20
-634.48046875
 30
0.0
 10
232.4423828125
 20
-614.693359375
 30
0.0
 10
232.265625
 20
-614.947265625
 30
0.0
 10
232.0859375
 20
-615.2109375
 30
0.0
 10
231.91015625
 20
-615.47265625
 30
0.0
 10
220.02197265625
 20
-633.078125
 30
0.0
 10
216.6220703125
 20
-659.544921875
 30
0.0
 10
233.7431640625
 20
-673.91796875
 30
0.0
 10
235.91748046875
 20
-675.748046875
 30
0.0
 10
238.736328125
 20
-676.751953125
 30
0.0
 10
241.68310546875
 20
-676.751953125
 30
0.0
 10
245.728515625
 20
-676.751953125
 30
0.0
 10
249.4658203125
 20
-674.9453125
 30
0.0
 10
251.677734375
 20
-671.908203125
 30
0.0
 10
253.7099609375
 20
-669.134765625
 30
0.0
 10
254.2119140625
 20
-665.65625
 30
0.0
 10
253.08349609375
 20
-662.125
 30
0.0
 10
246.99169921875
 20
-643.02734375
 30
0.0
 10
242.59423828125
 20
-629.23046875
 30
0.0
 10
256.3486328125
 20
-612.78125
 30
0.0
 10
259.04443359375
 20
-609.564453125
 30
0.0
 10
262.25341796875
 20
-606.53515625
 30
0.0
 10
266.0810546875
 20
-603.611328125
 30
0.0
 10
269.8076171875
 20
-618.26953125
 30
0.0
 10
280.7392578125
 20
-631.29296875
 30
0.0
 10
290.59130859375
 20
-639.142578125
 30
0.0
 10
296.716796875
 20
-644.021484375
 30
0.0
 10
303.56640625
 20
-647.9765625
 30
0.0
 10
311.423828125
 20
-651.21484375
 30
0.0
 10
311.423828125
 20
-651.21484375
 30
0.0
 10
311.423828125
 20
-691.140625
 30
0.0
 10
311.423828125
 20
-691.140625
 30
0.0
 10
311.423828125
 20
-694.9765625
 30
0.0
 10
311.416015625
 20
-698.708984375
 30
0.0
 10
311.4013671875
 20
-702.3828125
 30
0.0
 10
304.529296875
 20
-696.53515625
 30
0.0
 10
295.9072265625
 20
-692.947265625
 30
0.0
 10
287.14599609375
 20
-692.947265625
 30
0.0
 10
280.2705078125
 20
-692.947265625
 30
0.0
 10
273.67626953125
 20
-695.173828125
 30
0.0
 10
268.06787109375
 20
-699.388671875
 30
0.0
 10
262.60205078125
 20
-703.50390625
 30
0.0
 10
260.4541015625
 20
-709.794921875
 30
0.0
 10
262.46337890625
 20
-715.80078125
 30
0.0
  0
SPLINE
  5
4E
330
3C
100
AcDbEntity
  8
Layer 1
370
     0
100
AcDbSpline
210
0.0
220
0.0
230
1.0
 70
    11
 71
     3
 72
    17
 73
    13
 74
     0
 42
0.0000000001
 43
0.0000000001
 40
0.0
 40
0.0
 40
0.0
 40
0.0
 40
1.0
 40
1.0
 40
1.0
 40
2.0
 40
2.0
 40
2.0
 40
3.0
 40
3.0
 40
3.0
 40
4.0
 40
4.0
 40
4.0
 40
4.0
 10
307.791015625
 20
-782.224609375
 30
0.0
 10
307.791015625
 20
-782.224609375
 30
0.0
 10
306.9814453125
 20
-782.1640625
 30
0.0
 10
306.9814453125
 20
-782.1640625
 30
0.0
 10
307.92236328125
 20
-781.14453125
 30
0.0
 10
308.8369140625
 20
-780.0859375
 30
0.0
 10
309.73681640625
 20
-779.0
 30
0.0
 10
309.6767578125
 20
-780.134765625
 30
0.0
 10
309.6171875
 20
-781.24609375
 30
0.0
 10
309.556640625
 20
-782.34375
 30
0.0
 10
308.94970703125
 20
-782.298828125
 30
0.0
 10
308.34228515625
 20
-782.26171875
 30
0.0
 10
307.791015625
 20
-782.224609375
 30
0.0
  0
SPLINE
  5
4F
330
3C
100
AcDbEntity
  8
Layer 1
370
     0
100
AcDbSpline
210
0.0
220
0.0
230
1.0
 70
    11
 71
     3
 72
    14
 73
    10
 74
     0
 42
0.0000000001
 43
0.0000000001
 40
0.0
 40
0.0
 40
0.0
 40
0.0
 40
1.0
 40
1.0
 40
1.0
 40
2.0
 40
2.0
 40
2.0
 40
3.0
 40
3.0
 40
3.0
 40
3.0
 10
426.1064453125
 20
-686.822265625
 30
0.0
 10
426.1064453125
 20
-686.822265625
 30
0.0
 10
426.1064453125
 20
-674.55078125
 30
0.0
 10
426.1064453125
 20
-674.55078125
 30
0.0
 10
434.6796875
 20
-677.16796875
 30
0.0
 10
442.890625
 20
-680.13671875
 30
0.0
 10
450.6689453125
 20
-683.484375
 30
0.0
 10
442.548828125
 20
-685.416015625
 30
0.0
 10
434.23046875
 20
-686.5
 30
0.0
 10
426.1064453125
 20
-686.822265625
 30
0.0
  0
SPLINE
  5
50
330
3C
100
AcDbEntity
  8
Layer 1
370
     0
100
AcDbSpline
210
0.0
220
0.0
230
1.0
 70
    11
 71
     3
 72
    29
 73
    25
 74
     0
 42
0.0000000001
 43
0.0000000001
 40
0.0
 40
0.0
 40
0.0
 40
0.0
 40
1.0
 40
1.0
 40
1.0
 40
2.0
 40
2.0
 40
2.0
 40
3.0
 40
3.0
 40
3.0
 40
4.0
 40
4.0
 40
4.0
 40
5.0
 40
5.0
 40
5.0
 40
6.0
 40
6.0
 40
6.0
 40
7.0
 40
7.0
 40
7.0
 40
8.0
 40
8.0
 40
8.0
 40
8.0
 10
478.1748046875
 20
-673.416015625
 30
0.0
 10
475.029296875
 20
-672.06640625
 30
0.0
 10
471.779296875
 20
-670.77734375
 30
0.0
 10
468.4873046875
 20
-669.576171875
 30
0.0
 10
454.4892578125
 20
-664.458984375
 30
0.0
 10
440.2958984375
 20
-660.8828125
 30
0.0
 10
426.1064453125
 20
-658.08984375
 30
0.0
 10
426.1064453125
 20
-658.08984375
 30
0.0
 10
426.1064453125
 20
-588.548828125
 30
0.0
 10
426.1064453125
 20
-588.548828125
 30
0.0
 10
426.1064453125
 20
-588.548828125
 30
0.0
 10
451.298828125
 20
-588.548828125
 30
0.0
 10
451.298828125
 20
-588.548828125
 30
0.0
 10
449.9345703125
 20
-590.46875
 30
0.0
 10
448.7568359375
 20
-592.515625
 30
0.0
 10
447.775390625
 20
-594.681640625
 30
0.0
 10
437.8701171875
 20
-616.4921875
 30
0.0
 10
449.8779296875
 20
-641.841796875
 30
0.0
 10
467.208984375
 20
-653.7421875
 30
0.0
 10
474.69140625
 20
-658.884765625
 30
0.0
 10
482.9619140625
 20
-662.603515625
 30
0.0
 10
491.869140625
 20
-664.845703125
 30
0.0
 10
487.7607421875
 20
-667.96484375
 30
0.0
 10
483.171875
 20
-670.8359375
 30
0.0
 10
478.1748046875
 20
-673.416015625
 30
0.0
  0
SPLINE
  5
51
330
3C
100
AcDbEntity
  8
Layer 1
370
     0
100
AcDbSpline
210
0.0
220
0.0
230
1.0
 70
    11
 71
     3
 72
    23
 73
    19
 74
     0
 42
0.0000000001
 43
0.0000000001
 40
0.0
 40
0.0
 40
0.0
 40
0.0
 40
1.0
 40
1.0
 40
1.0
 40
2.0
 40
2.0
 40
2.0
 40
3.0
 40
3.0
 40
3.0
 40
4.0
 40
4.0
 40
4.0
 40
5.0
 40
5.0
 40
5.0
 40
6.0
 40
6.0
 40
6.0
 40
6.0
 10
507.5771484375
 20
-648.1640625
 30
0.0
 10
492.4921875
 20
-647.51171875
 30
0.0
 10
480.8623046875
 20
-643.177734375
 30
0.0
 10
472.990234375
 20
-635.259765625
 30
0.0
 10
465.830078125
 20
-628.068359375
 30
0.0
 10
461.76953125
 20
-617.25
 30
0.0
 10
462.890625
 20
-608.3359375
 30
0.0
 10
463.7109375
 20
-601.8046875
 30
0.0
 10
467.0517578125
 20
-596.7578125
 30
0.0
 10
472.8251953125
 20
-593.31640625
 30
0.0
 10
476.7724609375
 20
-590.962890625
 30
0.0
 10
480.998046875
 20
-589.771484375
 30
0.0
 10
485.3759765625
 20
-589.771484375
 30
0.0
 10
498.6171875
 20
-589.771484375
 30
0.0
 10
511.3408203125
 20
-600.77734375
 30
0.0
 10
514.34765625
 20
-614.828125
 30
0.0
 10
517.3203125
 20
-628.69921875
 30
0.0
 10
512.578125
 20
-640.365234375
 30
0.0
 10
507.5771484375
 20
-648.1640625
 30
0.0
  0
SPLINE
  5
52
330
3C
100
AcDbEntity
  8
Layer 1
370
     0
100
AcDbSpline
210
0.0
220
0.0
230
1.0
 70
    11
 71
     3
 72
    20
 73
    16
 74
     0
 42
0.0000000001
 43
0.0000000001
 40
0.0
 40
0.0
 40
0.0
 40
0.0
 40
1.0
 40
1.0
 40
1.0
 40
2.0
 40
2.0
 40
2.0
 40
3.0
 40
3.0
 40
3.0
 40
4.0
 40
4.0
 40
4.0
 40
5.0
 40
5.0
 40
5.0
 40
5.0
 10
528.818359375
 20
-646.873046875
 30
0.0
 10
529.9541015625
 20
-644.12890625
 30
0.0
 10
530.8955078125
 20
-641.318359375
 30
0.0
 10
531.6298828125
 20
-638.46875
 30
0.0
 10
536.21875
 20
-620.6171875
 30
0.0
 10
532.22265625
 20
-601.669921875
 30
0.0
 10
521.669921875
 20
-588.548828125
 30
0.0
 10
521.669921875
 20
-588.548828125
 30
0.0
 10
581.171875
 20
-588.548828125
 30
0.0
 10
581.171875
 20
-588.548828125
 30
0.0
 10
582.0234375
 20
-600.21484375
 30
0.0
 10
585.037109375
 20
-612.744140625
 30
0.0
 10
590.158203125
 20
-625.87890625
 30
0.0
 10
572.5078125
 20
-634.583984375
 30
0.0
 10
551.806640625
 20
-643.431640625
 30
0.0
 10
528.818359375
 20
-646.873046875
 30
0.0
  0
SPLINE
  5
53
330
3C
100
AcDbEntity
  8
Layer 1
370
     0
100
AcDbSpline
210
0.0
220
0.0
230
1.0
 70
    11
 71
     3
 72
    20
 73
    16
 74
     0
 42
0.0000000001
 43
0.0000000001
 40
0.0
 40
0.0
 40
0.0
 40
0.0
 40
1.0
 40
1.0
 40
1.0
 40
2.0
 40
2.0
 40
2.0
 40
3.0
 40
3.0
 40
3.0
 40
4.0
 40
4.0
 40
4.0
 40
5.0
 40
5.0
 40
5.0
 40
5.0
 10
600.748046875
 20
-590.107421875
 30
0.0
 10
600.748046875
 20
-590.107421875
 30
0.0
 10
600.302734375
 20
-588.548828125
 30
0.0
 10
600.302734375
 20
-588.548828125
 30
0.0
 10
600.302734375
 20
-588.548828125
 30
0.0
 10
664.37109375
 20
-588.548828125
 30
0.0
 10
664.37109375
 20
-588.548828125
 30
0.0
 10
648.0703125
 20
-595.2890625
 30
0.0
 10
632.3857421875
 20
-603.6796875
 30
0.0
 10
617.0712890625
 20
-611.8671875
 30
0.0
 10
614.248046875
 20
-613.373046875
 30
0.0
 10
611.42578125
 20
-614.888671875
 30
0.0
 10
608.5986328125
 20
-616.38671875
 30
0.0
 10
605.75390625
 20
-607.638671875
 30
0.0
 10
603.21484375
 20
-598.74609375
 30
0.0
 10
600.748046875
 20
-590.107421875
 30
0.0
  0
SPLINE
  5
54
330
3C
100
AcDbEntity
  8
Layer 1
370
     0
100
AcDbSpline
210
0.0
220
0.0
230
1.0
 70
    11
 71
     3
 72
    80
 73
    76
 74
     0
 42
0.0000000001
 43
0.0000000001
 40
0.0
 40
0.0
 40
0.0
 40
0.0
 40
1.0
 40
1.0
 40
1.0
 40
2.0
 40
2.0
 40
2.0
 40
3.0
 40
3.0
 40
3.0
 40
4.0
 40
4.0
 40
4.0
 40
5.0
 40
5.0
 40
5.0
 40
6.0
 40
6.0
 40
6.0
 40
7.0
 40
7.0
 40
7.0
 40
8.0
 40
8.0
 40
8.0
 40
9.0
 40
9.0
 40
9.0
 40
10.0
 40
10.0
 40
10.0
 40
11.0
 40
11.0
 40
11.0
 40
12.0
 40
12.0
 40
12.0
 40
13.0
 40
13.0
 40
13.0
 40
14.0
 40
14.0
 40
14.0
 40
15.0
 40
15.0
 40
15.0
 40
16.0
 40
16.0
 40
16.0
 40
17.0
 40
17.0
 40
17.0
 40
18.0
 40
18.0
 40
18.0
 40
19.0
 40
19.0
 40
19.0
 40
20.0
 40
20.0
 40
20.0
 40
21.0
 40
21.0
 40
21.0
 40
22.0
 40
22.0
 40
22.0
 40
23.0
 40
23.0
 40
23.0
 40
24.0
 40
24.0
 40
24.0
 40
25.0
 40
25.0
 40
25.0
 40
25.0
 10
848.2021484375
 20
-591.958984375
 30
0.0
 10
831.0390625
 20
-605.568359375
 30
0.0
 10
818.671875
 20
-623.7421875
 30
0.0
 10
806.712890625
 20
-641.326171875
 30
0.0
 10
801.08203125
 20
-649.595703125
 30
0.0
 10
795.259765625
 20
-658.150390625
 30
0.0
 10
789.037109375
 20
-666.068359375
 30
0.0
 10
768.568359375
 20
-692.130859375
 30
0.0
 10
742.1005859375
 20
-705.962890625
 30
0.0
 10
712.154296875
 20
-706.060546875
 30
0.0
 10
682.98046875
 20
-706.060546875
 30
0.0
 10
655.775390625
 20
-693.142578125
 30
0.0
 10
635.5380859375
 20
-669.673828125
 30
0.0
 10
627.796875
 20
-660.70703125
 30
0.0
 10
621.1015625
 20
-649.138671875
 30
0.0
 10
615.1181640625
 20
-634.390625
 30
0.0
 10
617.56640625
 20
-633.16015625
 30
0.0
 10
619.98828125
 20
-631.9296875
 30
0.0
 10
622.3759765625
 20
-630.72265625
 30
0.0
 10
631.9619140625
 20
-625.865234375
 30
0.0
 10
641.015625
 20
-621.275390625
 30
0.0
 10
649.255859375
 20
-617.556640625
 30
0.0
 10
672.8583984375
 20
-606.90234375
 30
0.0
 10
697.96875
 20
-597.04296875
 30
0.0
 10
721.6240234375
 20
-597.04296875
 30
0.0
 10
733.05859375
 20
-597.04296875
 30
0.0
 10
743.248046875
 20
-599.47265625
 30
0.0
 10
751.904296875
 20
-604.255859375
 30
0.0
 10
767.263671875
 20
-612.744140625
 30
0.0
 10
773.7412109375
 20
-630.37890625
 30
0.0
 10
767.66015625
 20
-647.12890625
 30
0.0
 10
764.3916015625
 20
-656.125
 30
0.0
 10
758.19140625
 20
-662.693359375
 30
0.0
 10
750.1943359375
 20
-665.611328125
 30
0.0
 10
744.2822265625
 20
-667.76953125
 30
0.0
 10
739.904296875
 20
-668.033203125
 30
0.0
 10
736.59765625
 20
-666.419921875
 30
0.0
 10
734.171875
 20
-665.244140625
 30
0.0
 10
731.240234375
 20
-662.154296875
 30
0.0
 10
730.73046875
 20
-659.20703125
 30
0.0
 10
730.4755859375
 20
-657.74609375
 30
0.0
 10
730.876953125
 20
-656.53125
 30
0.0
 10
731.986328125
 20
-655.3984375
 30
0.0
 10
736.349609375
 20
-650.9375
 30
0.0
 10
737.572265625
 20
-645.34375
 30
0.0
 10
735.345703125
 20
-640.05078125
 30
0.0
 10
733.013671875
 20
-634.501953125
 30
0.0
 10
727.337890625
 20
-630.625
 30
0.0
 10
721.5419921875
 20
-630.625
 30
0.0
 10
717.0126953125
 20
-630.625
 30
0.0
 10
713.091796875
 20
-632.935546875
 30
0.0
 10
710.5048828125
 20
-637.134765625
 30
0.0
 10
704.1806640625
 20
-647.3828125
 30
0.0
 10
703.216796875
 20
-660.025390625
 30
0.0
 10
707.92578125
 20
-670.95703125
 30
0.0
 10
712.6083984375
 20
-681.828125
 30
0.0
 10
722.021484375
 20
-689.453125
 30
0.0
 10
733.748046875
 20
-691.890625
 30
0.0
 10
736.634765625
 20
-692.490234375
 30
0.0
 10
739.5888671875
 20
-692.791015625
 30
0.0
 10
742.5205078125
 20
-692.791015625
 30
0.0
 10
763.2216796875
 20
-692.791015625
 30
0.0
 10
783.78125
 20
-677.08203125
 30
0.0
 10
791.3984375
 20
-655.443359375
 30
0.0
 10
799.626953125
 20
-632.087890625
 30
0.0
 10
793.0556640625
 20
-606.107421875
 30
0.0
 10
775.0498046875
 20
-590.783203125
 30
0.0
 10
774.146484375
 20
-590.009765625
 30
0.0
 10
773.216796875
 20
-589.267578125
 30
0.0
 10
772.2607421875
 20
-588.548828125
 30
0.0
 10
772.2607421875
 20
-588.548828125
 30
0.0
 10
852.7529296875
 20
-588.548828125
 30
0.0
 10
852.7529296875
 20
-588.548828125
 30
0.0
 10
851.208984375
 20
-589.634765625
 30
0.0
 10
849.693359375
 20
-590.775390625
 30
0.0
 10
848.2021484375
 20
-591.958984375
 30
0.0
  0
HATCH
  5
55
330
3C
100
AcDbEntity
  8
Layer 1
 62
     7
100
AcDbHatch
 10
0.0
 20
0.0
 30
0.0
210
0.0
220
0.0
230
1.0
  2
SOLID
 70
     1
 71
     0
 91
       10
 92
        1
 93
        1
 72
     4
 94
        3
 73
     0
 74
     1
 95
      392
 96
      388
 40
0.0
 40
0.0
 40
0.0
 40
0.0
 40
1.0
 40
1.0
 40
1.0
 40
2.0
 40
2.0
 40
2.0
 40
3.0
 40
3.0
 40
3.0
 40
4.0
 40
4.0
 40
4.0
 40
5.0
 40
5.0
 40
5.0
 40
6.0
 40
6.0
 40
6.0
 40
7.0
 40
7.0
 40
7.0
 40
8.0
 40
8.0
 40
8.0
 40
9.0
 40
9.0
 40
9.0
 40
10.0
 40
10.0
 40
10.0
 40
11.0
 40
11.0
 40
11.0
 40
12.0
 40
12.0
 40
12.0
 40
13.0
 40
13.0
 40
13.0
 40
14.0
 40
14.0
 40
14.0
 40
15.0
 40
15.0
 40
15.0
 40
16.0
 40
16.0
 40
16.0
 40
17.0
 40
17.0
 40
17.0
 40
18.0
 40
18.0
 40
18.0
 40
19.0
 40
19.0
 40
19.0
 40
20.0
 40
20.0
 40
20.0
 40
21.0
 40
21.0
 40
21.0
 40
22.0
 40
22.0
 40
22.0
 40
23.0
 40
23.0
 40
23.0
 40
24.0
 40
24.0
 40
24.0
 40
25.0
 40
25.0
 40
25.0
 40
26.0
 40
26.0
 40
26.0
 40
27.0
 40
27.0
 40
27.0
 40
28.0
 40
28.0
 40
28.0
 40
29.0
 40
29.0
 40
29.0
 40
30.0
 40
30.0
 40
30.0
 40
31.0
 40
31.0
 40
31.0
 40
32.0
 40
32.0
 40
32.0
 40
33.0
 40
33.0
 40
33.0
 40
34.0
 40
34.0
 40
34.0
 40
35.0
 40
35.0
 40
35.0
 40
36.0
 40
36.0
 40
36.0
 40
37.0
 40
37.0
 40
37.0
 40
38.0
 40
38.0
 40
38.0
 40
39.0
 40
39.0
 40
39.0
 40
40.0
 40
40.0
 40
40.0
 40
41.0
 40
41.0
 40
41.0
 40
42.0
 40
42.0
 40
42.0
 40
43.0
 40
43.0
 40
43.0
 40
44.0
 40
44.0
 40
44.0
 40
45.0
 40
45.0
 40
45.0
 40
46.0
 40
46.0
 40
46.0
 40
47.0
 40
47.0
 40
47.0
 40
48.0
 40
48.0
 40
48.0
 40
49.0
 40
49.0
 40
49.0
 40
50.0
 40
50.0
 40
50.0
 40
51.0
 40
51.0
 40
51.0
 40
52.0
 40
52.0
 40
52.0
 40
53.0
 40
53.0
 40
53.0
 40
54.0
 40
54.0
 40
54.0
 40
55.0
 40
55.0
 40
55.0
 40
56.0
 40
56.0
 40
56.0
 40
57.0
 40
57.0
 40
57.0
 40
58.0
 40
58.0
 40
58.0
 40
59.0
 40
59.0
 40
59.0
 40
60.0
 40
60.0
 40
60.0
 40
61.0
 40
61.0
 40
61.0
 40
62.0
 40
62.0
 40
62.0
 40
63.0
 40
63.0
 40
63.0
 40
64.0
 40
64.0
 40
64.0
 40
65.0
 40
65.0
 40
65.0
 40
66.0
 40
66.0
 40
66.0
 40
67.0
 40
67.0
 40
67.0
 40
68.0
 40
68.0
 40
68.0
 40
69.0
 40
69.0
 40
69.0
 40
70.0
 40
70.0
 40
70.0
 40
71.0
 40
71.0
 40
71.0
 40
72.0
 40
72.0
 40
72.0
 40
73.0
 40
73.0
 40
73.0
 40
74.0
 40
74.0
 40
74.0
 40
75.0
 40
75.0
 40
75.0
 40
76.0
 40
76.0
 40
76.0
 40
77.0
 40
77.0
 40
77.0
 40
78.0
 40
78.0
 40
78.0
 40
79.0
 40
79.0
 40
79.0
 40
80.0
 40
80.0
 40
80.0
 40
81.0
 40
81.0
 40
81.0
 40
82.0
 40
82.0
 40
82.0
 40
83.0
 40
83.0
 40
83.0
 40
84.0
 40
84.0
 40
84.0
 40
85.0
 40
85.0
 40
85.0
 40
86.0
 40
86.0
 40
86.0
 40
87.0
 40
87.0
 40
87.0
 40
88.0
 40
88.0
 40
88.0
 40
89.0
 40
89.0
 40
89.0
 40
90.0
 40
90.0
 40
90.0
 40
91.0
 40
91.0
 40
91.0
 40
92.0
 40
92.0
 40
92.0
 40
93.0
 40
93.0
 40
93.0
 40
94.0
 40
94.0
 40
94.0
 40
95.0
 40
95.0
 40
95.0
 40
96.0
 40
96.0
 40
96.0
 40
97.0
 40
97.0
 40
97.0
 40
98.0
 40
98.0
 40
98.0
 40
99.0
 40
99.0
 40
99.0
 40
100.0
 40
100.0
 40
100.0
 40
101.0
 40
101.0
 40
101.0
 40
102.0
 40
102.0
 40
102.0
 40
103.0
 40
103.0
 40
103.0
 40
104.0
 40
104.0
 40
104.0
 40
105.0
 40
105.0
 40
105.0
 40
106.0
 40
106.0
 40
106.0
 40
107.0
 40
107.0
 40
107.0
 40
108.0
 40
108.0
 40
108.0
 40
109.0
 40
109.0
 40
109.0
 40
110.0
 40
110.0
 40
110.0
 40
111.0
 40
111.0
 40
111.0
 40
112.0
 40
112.0
 40
112.0
 40
113.0
 40
113.0
 40
113.0
 40
114.0
 40
114.0
 40
114.0
 40
115.0
 40
115.0
 40
115.0
 40
116.0
 40
116.0
 40
116.0
 40
117.0
 40
117.0
 40
117.0
 40
118.0
 40
118.0
 40
118.0
 40
119.0
 40
119.0
 40
119.0
 40
120.0
 40
120.0
 40
120.0
 40
121.0
 40
121.0
 40
121.0
 40
122.0
 40
122.0
 40
122.0
 40
123.0
 40
123.0
 40
123.0
 40
124.0
 40
124.0
 40
124.0
 40
125.0
 40
125.0
 40
125.0
 40
126.0
 40
126.0
 40
126.0
 40
127.0
 40
127.0
 40
127.0
 40
128.0
 40
128.0
 40
128.0
 40
129.0
 40
129.0
 40
129.0
 40
129.0
 10
912.10546875
 20
-641.294921875
 10
915.3896484375
 20
-637.0
 10
916.2783203125
 20
-631.27734375
 10
914.6171875
 20
-625.17578125
 10
912.533203125
 20
-617.51953125
 10
906.0771484375
 20
-612.578125
 10
898.1669921875
 20
-612.578125
 10
895.35546875
 20
-612.578125
 10
892.4765625
 20
-613.216796875
 10
889.830078125
 20
-614.4375
 10
877.94921875
 20
-619.919921875
 10
874.5302734375
 20
-634.044921875
 10
875.208984375
 20
-644.474609375
 10
876.5732421875
 20
-665.46875
 10
894.2119140625
 20
-682.541015625
 10
914.52734375
 20
-682.541015625
 10
916.86328125
 20
-682.541015625
 10
919.2060546875
 20
-682.30859375
 10
921.49609375
 20
-681.8515625
 10
942.966796875
 20
-677.5703125
 10
960.2412109375
 20
-655.255859375
 10
960.818359375
 20
-631.052734375
 10
961.4033203125
 20
-606.873046875
 10
946.2578125
 20
-584.072265625
 10
923.982421875
 20
-575.615234375
 10
920.0078125
 20
-574.107421875
 10
915.8544921875
 20
-573.013671875
 10
911.587890625
 20
-572.345703125
 10
911.587890625
 20
-572.345703125
 10
911.587890625
 20
-571.392578125
 10
911.587890625
 20
-571.392578125
 10
911.587890625
 20
-571.392578125
 10
107.525390625
 20
-571.392578125
 10
107.525390625
 20
-571.392578125
 10
107.525390625
 20
-571.392578125
 10
107.525390625
 20
-588.548828125
 10
107.525390625
 20
-588.548828125
 10
107.525390625
 20
-588.548828125
 10
250.17822265625
 20
-588.548828125
 10
250.17822265625
 20
-588.548828125
 10
240.138671875
 20
-593.51953125
 10
230.552734375
 20
-599.48828125
 10
221.525390625
 20
-606.400390625
 10
212.92919921875
 20
-610.3828125
 10
205.697265625
 20
-613.404296875
 10
197.94140625
 20
-613.404296875
 10
194.255859375
 20
-613.404296875
 10
190.66796875
 20
-612.720703125
 10
186.9794921875
 20
-611.3125
 10
182.533203125
 20
-609.609375
 10
176.755859375
 20
-607.263671875
 10
171.5341796875
 20
-604.181640625
 10
171.5341796875
 20
-604.181640625
 10
169.60693359375
 20
-603.02734375
 10
169.60693359375
 20
-603.02734375
 10
165.783203125
 20
-600.6875
 10
162.1689453125
 20
-598.482421875
 10
156.15625
 20
-598.318359375
 10
153.3515625
 20
-598.318359375
 10
150.7197265625
 20
-599.615234375
 10
148.935546875
 20
-601.865234375
 10
147.0537109375
 20
-604.2421875
 10
146.3447265625
 20
-607.40625
 10
147.03857421875
 20
-610.322265625
 10
151.439453125
 20
-628.751953125
 10
176.3662109375
 20
-630.18359375
 10
183.9013671875
 20
-630.18359375
 10
186.37939453125
 20
-630.18359375
 10
188.7861328125
 20
-630.056640625
 10
191.05810546875
 20
-629.80078125
 10
192.91015625
 20
-629.599609375
 10
195.14453125
 20
-629.283203125
 10
197.6259765625
 20
-628.796875
 10
196.57275390625
 20
-630.025390625
 10
195.5341796875
 20
-631.27734375
 10
194.52197265625
 20
-632.552734375
 10
193.701171875
 20
-632.853515625
 10
192.9814453125
 20
-633.376953125
 10
192.4375
 20
-634.09765625
 10
189.6484375
 20
-637.79296875
 10
186.7841796875
 20
-641.796875
 10
183.8154296875
 20
-645.935546875
 10
165.2431640625
 20
-671.86328125
 10
144.189453125
 20
-701.412109375
 10
112.3916015625
 20
-699.03515625
 10
105.373046875
 20
-698.48828125
 10
100.357421875
 20
-703.189453125
 10
100.04248046875
 20
-710.05078125
 10
99.7578125
 20
-716.236328125
 10
103.798828125
 20
-723.216796875
 10
111.8515625
 20
-723.958984375
 10
132.6806640625
 20
-725.892578125
 10
147.30859375
 20
-712.845703125
 10
158.66015625
 20
-700.123046875
 10
161.216796875
 20
-697.2578125
 10
163.83740234375
 20
-694.3125
 10
166.46533203125
 20
-691.291015625
 10
161.3740234375
 20
-716.513671875
 10
164.86083984375
 20
-741.076171875
 10
176.7373046875
 20
-761.890625
 10
179.88671875
 20
-767.416015625
 10
183.7177734375
 20
-772.671875
 10
188.15283203125
 20
-777.529296875
 10
188.2841796875
 20
-780.177734375
 10
188.61376953125
 20
-782.779296875
 10
188.9326171875
 20
-785.3125
 10
189.326171875
 20
-788.447265625
 10
189.701171875
 20
-791.400390625
 10
189.70849609375
 20
-794.33203125
 10
189.73828125
 20
-803.509765625
 10
187.5869140625
 20
-811.47265625
 10
182.72802734375
 20
-820.154296875
 10
182.435546875
 20
-820.6875
 10
182.0009765625
 20
-821.400390625
 10
181.4833984375
 20
-822.26171875
 10
175.77001953125
 20
-831.73828125
 10
169.9970703125
 20
-842.423828125
 10
173.82080078125
 20
-849.185546875
 10
175.03515625
 20
-851.337890625
 10
177.70458984375
 20
-853.89453125
 10
183.548828125
 20
-853.89453125
 10
183.9052734375
 20
-853.89453125
 10
184.2724609375
 20
-853.88671875
 10
184.6513671875
 20
-853.865234375
 10
202.64208984375
 20
-852.98046875
 10
205.45751953125
 20
-823.537109375
 10
206.5185546875
 20
-812.455078125
 10
207.005859375
 20
-807.400390625
 10
207.6728515625
 20
-800.49609375
 10
207.41455078125
 20
-793.455078125
 10
220.95556640625
 20
-801.755859375
 10
236.419921875
 20
-806.26171875
 10
251.73046875
 20
-806.26171875
 10
264.982421875
 20
-806.26171875
 10
277.91259765625
 20
-802.8359375
 10
289.189453125
 20
-796.341796875
 10
294.8046875
 20
-795.953125
 10
300.1806640625
 20
-796.423828125
 10
305.03955078125
 20
-797.841796875
 10
306.1455078125
 20
-798.16015625
 10
307.24755859375
 20
-798.7265625
 10
308.357421875
 20
-799.375
 10
307.6376953125
 20
-807.353515625
 10
306.80517578125
 20
-813.740234375
 10
305.837890625
 20
-818.46875
 10
302.10791015625
 20
-836.6953125
 10
293.6806640625
 20
-850.130859375
 10
280.5478515625
 20
-858.75390625
 10
267.408203125
 20
-867.376953125
 10
243.7900390625
 20
-871.6875
 10
209.6826171875
 20
-871.6875
 10
209.6826171875
 20
-871.6875
 10
186.154296875
 20
-871.6875
 10
186.154296875
 20
-871.6875
 10
186.154296875
 20
-871.6875
 10
186.154296875
 20
-898.740234375
 10
186.154296875
 20
-898.740234375
 10
186.154296875
 20
-898.740234375
 10
863.662109375
 20
-898.740234375
 10
863.662109375
 20
-898.740234375
 10
863.662109375
 20
-898.740234375
 10
869.5478515625
 20
-664.080078125
 10
869.5478515625
 20
-664.080078125
 10
869.5478515625
 20
-664.080078125
 10
841.904296875
 20
-664.080078125
 10
841.904296875
 20
-664.080078125
 10
824.26171875
 20
-727.212890625
 10
804.751953125
 20
-773.279296875
 10
783.38671875
 20
-802.287109375
 10
762.0146484375
 20
-831.3125
 10
739.46875
 20
-850.130859375
 10
715.75390625
 20
-858.75390625
 10
692.0263671875
 20
-867.376953125
 10
655.666015625
 20
-871.6875
 10
606.66015625
 20
-871.6875
 10
606.66015625
 20
-871.6875
 10
546.08203125
 20
-871.6875
 10
546.08203125
 20
-871.6875
 10
500.20703125
 20
-871.6875
 10
470.3056640625
 20
-867.67578125
 10
456.3974609375
 20
-859.630859375
 10
442.4736328125
 20
-851.6015625
 10
433.9453125
 20
-840.32421875
 10
430.8115234375
 20
-825.81640625
 10
427.669921875
 20
-811.314453125
 10
426.1064453125
 20
-775.236328125
 10
426.1064453125
 20
-717.599609375
 10
426.1064453125
 20
-717.599609375
 10
426.1064453125
 20
-701.5703125
 10
426.1064453125
 20
-701.5703125
 10
440.91796875
 20
-701.55859375
 10
455.99609375
 20
-698.96875
 10
470.9208984375
 20
-693.85546875
 10
470.9208984375
 20
-693.85546875
 10
471.220703125
 20
-693.75
 10
471.220703125
 20
-693.75
 10
475.8388671875
 20
-696.404296875
 10
480.0078125
 20
-699.04296875
 10
483.921875
 20
-701.787109375
 10
501.0732421875
 20
-713.814453125
 10
512.0986328125
 20
-729.634765625
 10
514.17578125
 20
-745.185546875
 10
516.3271484375
 20
-761.341796875
 10
507.3447265625
 20
-776.1796875
 10
492.814453125
 20
-780.4609375
 10
486.486328125
 20
-782.3203125
 10
482.8720703125
 20
-787.990234375
 10
483.81640625
 20
-794.556640625
 10
484.65234375
 20
-800.330078125
 10
489.2451171875
 20
-806.171875
 10
496.4052734375
 20
-806.171875
 10
497.6875
 20
-806.171875
 10
499.0
 20
-805.9765625
 10
500.30859375
 20
-805.5859375
 10
520.162109375
 20
-799.73828125
 10
534.81640625
 20
-783.205078125
 10
539.109375
 20
-762.482421875
 10
540.1103515625
 20
-763.26171875
 10
541.0927734375
 20
-764.00390625
 10
542.029296875
 20
-764.716796875
 10
542.029296875
 20
-764.716796875
 10
543.02734375
 20
-765.474609375
 10
543.02734375
 20
-765.474609375
 10
550.419921875
 20
-771.111328125
 10
560.287109375
 20
-777.634765625
 10
571.435546875
 20
-778.017578125
 10
576.013671875
 20
-778.017578125
 10
579.732421875
 20
-774.81640625
 10
580.69140625
 20
-770.046875
 10
581.7265625
 20
-764.904296875
 10
579.271484375
 20
-759.828125
 10
574.8623046875
 20
-757.9765625
 10
571.0537109375
 20
-756.38671875
 10
567.169921875
 20
-755.478515625
 10
563.4130859375
 20
-754.609375
 10
559.341796875
 20
-753.6640625
 10
555.49609375
 20
-752.765625
 10
551.888671875
 20
-751.0703125
 10
548.9951171875
 20
-749.705078125
 10
546.37890625
 20
-747.62890625
 10
543.6044921875
 20
-745.431640625
 10
542.396484375
 20
-744.48046875
 10
541.193359375
 20
-743.52734375
 10
539.9638671875
 20
-742.626953125
 10
539.720703125
 20
-740.54296875
 10
539.375
 20
-738.48828125
 10
538.9404296875
 20
-736.501953125
 10
538.4609375
 20
-734.34375
 10
537.8828125
 20
-732.205078125
 10
537.208984375
 20
-730.099609375
 10
539.12109375
 20
-730.849609375
 10
541.06640625
 20
-731.53125
 10
542.9892578125
 20
-732.123046875
 10
548.5
 20
-733.810546875
 10
553.80078125
 20
-729.603515625
 10
554.17578125
 20
-723.486328125
 10
554.4912109375
 20
-718.39453125
 10
551.3125
 20
-714.4140625
 10
546.453125
 20
-713.814453125
 10
541.328125
 20
-713.19140625
 10
536.724609375
 20
-712.494140625
 10
532.2900390625
 20
-710.365234375
 10
530.6181640625
 20
-709.5546875
 10
528.9765625
 20
-708.580078125
 10
527.236328125
 20
-707.552734375
 10
526.037109375
 20
-706.841796875
 10
524.8369140625
 20
-706.13671875
 10
523.623046875
 20
-705.46875
 10
516.57421875
 20
-696.90625
 10
507.359375
 20
-689.220703125
 10
496.169921875
 20
-682.548828125
 10
503.798828125
 20
-678.072265625
 10
510.2802734375
 20
-672.98828125
 10
515.501953125
 20
-667.38671875
 10
543.484375
 20
-666.794921875
 10
572.5830078125
 20
-654.95703125
 10
597.8505859375
 20
-642.892578125
 10
609.892578125
 20
-666.3828125
 10
626.822265625
 20
-687.8046875
 10
643.6396484375
 20
-700.693359375
 10
663.06640625
 20
-715.591796875
 10
687.3515625
 20
-723.79296875
 10
712.01953125
 20
-723.79296875
 10
728.896484375
 20
-723.79296875
 10
745.72265625
 20
-719.88671875
 10
760.6875
 20
-712.486328125
 10
768.181640625
 20
-708.783203125
 10
775.30859375
 20
-703.9609375
 10
782.2734375
 20
-697.880859375
 10
780.9013671875
 20
-708.0859375
 10
780.4892578125
 20
-720.15625
 10
785.4267578125
 20
-730.25
 10
787.2451171875
 20
-733.953125
 10
790.66796875
 20
-736.07421875
 10
794.8173828125
 20
-736.07421875
 10
798.39453125
 20
-736.07421875
 10
801.9970703125
 20
-734.462890625
 10
804.4560546875
 20
-731.763671875
 10
806.6337890625
 20
-729.37109375
 10
807.67578125
 20
-726.365234375
 10
807.3876953125
 20
-723.306640625
 10
806.9267578125
 20
-718.42578125
 10
805.689453125
 20
-713.822265625
 10
804.490234375
 20
-709.359375
 10
803.169921875
 20
-704.44921875
 10
801.92578125
 20
-699.80859375
 10
801.677734375
 20
-694.919921875
 10
801.4833984375
 20
-690.990234375
 10
802.203125
 20
-686.994140625
 10
802.9716796875
 20
-682.765625
 10
803.4853515625
 20
-679.923828125
 10
804.017578125
 20
-676.9921875
 10
804.2646484375
 20
-674.015625
 10
808.486328125
 20
-668.609375
 10
812.587890625
 20
-662.96484375
 10
816.580078125
 20
-657.423828125
 10
816.62890625
 20
-664.740234375
 10
817.6787109375
 20
-671.197265625
 10
818.3232421875
 20
-674.50390625
 10
819.2265625
 20
-679.083984375
 10
822.904296875
 20
-682.044921875
 10
827.703125
 20
-682.044921875
 10
831.51171875
 20
-682.044921875
 10
835.291015625
 20
-680.134765625
 10
837.318359375
 20
-677.171875
 10
839.1298828125
 20
-674.533203125
 10
839.458984375
 20
-671.353515625
 10
838.2451171875
 20
-668.220703125
 10
835.9765625
 20
-662.341796875
 10
834.076171875
 20
-656.98828125
 10
833.8212890625
 20
-650.9453125
 10
833.7275390625
 20
-648.6796875
 10
833.828125
 20
-646.37109375
 10
833.94140625
 20
-643.927734375
 10
834.083984375
 20
-640.6953125
 10
834.2333984375
 20
-637.373046875
 10
833.9033203125
 20
-634.015625
 10
837.1123046875
 20
-629.97265625
 10
840.15625
 20
-626.390625
 10
843.1484375
 20
-623.134765625
 10
843.091796875
 20
-631.076171875
 10
845.203125
 20
-638.904296875
 10
849.236328125
 20
-644.630859375
 10
851.2607421875
 20
-647.517578125
 10
855.2646484375
 20
-648.830078125
 10
858.349609375
 20
-647.578125
 10
859.666015625
 20
-647.046875
 10
860.513671875
 20
-646.36328125
 10
861.248046875
 20
-645.697265625
 10
863.34765625
 20
-643.76171875
 10
864.09375
 20
-640.267578125
 10
862.9833984375
 20
-637.568359375
 10
862.9833984375
 20
-637.568359375
 10
862.78515625
 20
-637.08203125
 10
862.78515625
 20
-637.08203125
 10
860.6103515625
 20
-631.78125
 10
858.728515625
 20
-627.19921875
 10
858.8037109375
 20
-621.755859375
 10
858.87890625
 20
-616.05078125
 10
861.0302734375
 20
-610.681640625
 10
863.1640625
 20
-605.478515625
 10
864.517578125
 20
-604.548828125
 10
865.892578125
 20
-603.6484375
 10
867.310546875
 20
-602.794921875
 10
877.2333984375
 20
-596.818359375
 10
889.3125
 20
-593.384765625
 10
900.439453125
 20
-593.384765625
 10
911.587890625
 20
-593.384765625
 10
931.337890625
 20
-596.810546875
 10
938.294921875
 20
-619.76953125
 10
942.45703125
 20
-633.505859375
 10
937.455078125
 20
-648.8828125
 10
926.4111328125
 20
-656.328125
 10
919.6484375
 20
-660.87890625
 10
912.12109375
 20
-661.306640625
 10
906.025390625
 20
-657.453125
 10
902.8310546875
 20
-655.390625
 10
900.39453125
 20
-652.669921875
 10
898.51953125
 20
-649.041015625
 10
898.33203125
 20
-648.6953125
 10
898.1630859375
 20
-648.357421875
 10
898.009765625
 20
-648.021484375
 10
898.04296875
 20
-648.021484375
 10
898.0771484375
 20
-648.021484375
 10
898.115234375
 20
-648.021484375
 10
903.6552734375
 20
-648.021484375
 10
908.888671875
 20
-645.509765625
 10
912.10546875
 20
-641.294921875
 97
        0
 92
        1
 93
        1
 72
     4
 94
        3
 73
     0
 74
     1
 95
       26
 96
       22
 40
0.0
 40
0.0
 40
0.0
 40
0.0
 40
1.0
 40
1.0
 40
1.0
 40
2.0
 40
2.0
 40
2.0
 40
3.0
 40
3.0
 40
3.0
 40
4.0
 40
4.0
 40
4.0
 40
5.0
 40
5.0
 40
5.0
 40
6.0
 40
6.0
 40
6.0
 40
7.0
 40
7.0
 40
7.0
 40
7.0
 10
290.8984375
 20
-589.267578125
 10
292.00830078125
 20
-589.021484375
 10
293.1181640625
 20
-588.78125
 10
294.2236328125
 20
-588.548828125
 10
294.2236328125
 20
-588.548828125
 10
298.7041015625
 20
-588.548828125
 10
298.7041015625
 20
-588.548828125
 10
300.7021484375
 20
-602.5546875
 10
305.03564453125
 20
-616.2109375
 10
311.423828125
 20
-628.98046875
 10
311.423828125
 20
-628.98046875
 10
311.423828125
 20
-635.953125
 10
311.423828125
 20
-635.953125
 10
305.2158203125
 20
-632.8984375
 10
299.7646484375
 20
-629.279296875
 10
295.0146484375
 20
-624.99609375
 10
286.1640625
 20
-617.017578125
 10
280.8740234375
 20
-607.9375
 10
278.0810546875
 20
-595.8359375
 10
282.49365234375
 20
-593.361328125
 10
286.9697265625
 20
-591.158203125
 10
290.8984375
 20
-589.267578125
 97
        0
 92
        1
 93
        1
 72
     4
 94
        3
 73
     0
 74
     1
 95
       95
 96
       91
 40
0.0
 40
0.0
 40
0.0
 40
0.0
 40
1.0
 40
1.0
 40
1.0
 40
2.0
 40
2.0
 40
2.0
 40
3.0
 40
3.0
 40
3.0
 40
4.0
 40
4.0
 40
4.0
 40
5.0
 40
5.0
 40
5.0
 40
6.0
 40
6.0
 40
6.0
 40
7.0
 40
7.0
 40
7.0
 40
8.0
 40
8.0
 40
8.0
 40
9.0
 40
9.0
 40
9.0
 40
10.0
 40
10.0
 40
10.0
 40
11.0
 40
11.0
 40
11.0
 40
12.0
 40
12.0
 40
12.0
 40
13.0
 40
13.0
 40
13.0
 40
14.0
 40
14.0
 40
14.0
 40
15.0
 40
15.0
 40
15.0
 40
16.0
 40
16.0
 40
16.0
 40
17.0
 40
17.0
 40
17.0
 40
18.0
 40
18.0
 40
18.0
 40
19.0
 40
19.0
 40
19.0
 40
20.0
 40
20.0
 40
20.0
 40
21.0
 40
21.0
 40
21.0
 40
22.0
 40
22.0
 40
22.0
 40
23.0
 40
23.0
 40
23.0
 40
24.0
 40
24.0
 40
24.0
 40
25.0
 40
25.0
 40
25.0
 40
26.0
 40
26.0
 40
26.0
 40
27.0
 40
27.0
 40
27.0
 40
28.0
 40
28.0
 40
28.0
 40
29.0
 40
29.0
 40
29.0
 40
30.0
 40
30.0
 40
30.0
 40
30.0
 10
262.46337890625
 20
-715.80078125
 10
264.37158203125
 20
-721.505859375
 10
269.6689453125
 20
-725.337890625
 10
275.65185546875
 20
-725.337890625
 10
277.830078125
 20
-725.337890625
 10
280.0419921875
 20
-724.8515625
 10
282.2236328125
 20
-723.8984375
 10
287.0673828125
 20
-721.783203125
 10
290.7490234375
 20
-722.263671875
 10
293.59765625
 20
-725.5703125
 10
297.7744140625
 20
-730.40625
 10
299.052734375
 20
-739.62890625
 10
298.1337890625
 20
-745.8515625
 10
296.541015625
 20
-756.6640625
 10
289.8115234375
 20
-765.10546875
 10
284.45068359375
 20
-770.279296875
 10
274.5869140625
 20
-779.794921875
 10
260.794921875
 20
-785.251953125
 10
246.61669921875
 20
-785.251953125
 10
241.87060546875
 20
-785.251953125
 10
237.19580078125
 20
-784.638671875
 10
232.7080078125
 20
-783.431640625
 10
224.91064453125
 20
-781.33984375
 10
217.75390625
 20
-777.97265625
 10
211.32080078125
 20
-773.384765625
 10
227.42236328125
 20
-773.923828125
 10
241.10595703125
 20
-766.681640625
 10
247.208984375
 20
-754.34765625
 10
249.076171875
 20
-750.576171875
 10
248.8359375
 20
-746.294921875
 10
246.5419921875
 20
-742.60546875
 10
244.240234375
 20
-738.88671875
 10
240.318359375
 20
-736.583984375
 10
236.318359375
 20
-736.583984375
 10
233.21826171875
 20
-736.583984375
 10
230.3017578125
 20
-737.986328125
 10
228.1044921875
 20
-740.53515625
 10
221.57421875
 20
-748.1171875
 10
215.4931640625
 20
-754.52734375
 10
207.22705078125
 20
-756.236328125
 10
201.8701171875
 20
-757.337890625
 10
196.7041015625
 20
-755.666015625
 10
191.087890625
 20
-750.99609375
 10
181.31103515625
 20
-734.24609375
 10
177.49462890625
 20
-713.3046875
 10
180.61376953125
 20
-693.435546875
 10
185.5322265625
 20
-662.1015625
 10
203.9619140625
 20
-634.48046875
 10
232.4423828125
 20
-614.693359375
 10
232.265625
 20
-614.947265625
 10
232.0859375
 20
-615.2109375
 10
231.91015625
 20
-615.47265625
 10
220.02197265625
 20
-633.078125
 10
216.6220703125
 20
-659.544921875
 10
233.7431640625
 20
-673.91796875
 10
235.91748046875
 20
-675.748046875
 10
238.736328125
 20
-676.751953125
 10
241.68310546875
 20
-676.751953125
 10
245.728515625
 20
-676.751953125
 10
249.4658203125
 20
-674.9453125
 10
251.677734375
 20
-671.908203125
 10
253.7099609375
 20
-669.134765625
 10
254.2119140625
 20
-665.65625
 10
253.08349609375
 20
-662.125
 10
246.99169921875
 20
-643.02734375
 10
242.59423828125
 20
-629.23046875
 10
256.3486328125
 20
-612.78125
 10
259.04443359375
 20
-609.564453125
 10
262.25341796875
 20
-606.53515625
 10
266.0810546875
 20
-603.611328125
 10
269.8076171875
 20
-618.26953125
 10
280.7392578125
 20
-631.29296875
 10
290.59130859375
 20
-639.142578125
 10
296.716796875
 20
-644.021484375
 10
303.56640625
 20
-647.9765625
 10
311.423828125
 20
-651.21484375
 10
311.423828125
 20
-651.21484375
 10
311.423828125
 20
-691.140625
 10
311.423828125
 20
-691.140625
 10
311.423828125
 20
-694.9765625
 10
311.416015625
 20
-698.708984375
 10
311.4013671875
 20
-702.3828125
 10
304.529296875
 20
-696.53515625
 10
295.9072265625
 20
-692.947265625
 10
287.14599609375
 20
-692.947265625
 10
280.2705078125
 20
-692.947265625
 10
273.67626953125
 20
-695.173828125
 10
268.06787109375
 20
-699.388671875
 10
262.60205078125
 20
-703.50390625
 10
260.4541015625
 20
-709.794921875
 10
262.46337890625
 20
-715.80078125
 97
        0
 92
        1
 93
        1
 72
     4
 94
        3
 73
     0
 74
     1
 95
       17
 96
       13
 40
0.0
 40
0.0
 40
0.0
 40
0.0
 40
1.0
 40
1.0
 40
1.0
 40
2.0
 40
2.0
 40
2.0
 40
3.0
 40
3.0
 40
3.0
 40
4.0
 40
4.0
 40
4.0
 40
4.0
 10
307.791015625
 20
-782.224609375
 10
307.791015625
 20
-782.224609375
 10
306.9814453125
 20
-782.1640625
 10
306.9814453125
 20
-782.1640625
 10
307.92236328125
 20
-781.14453125
 10
308.8369140625
 20
-780.0859375
 10
309.73681640625
 20
-779.0
 10
309.6767578125
 20
-780.134765625
 10
309.6171875
 20
-781.24609375
 10
309.556640625
 20
-782.34375
 10
308.94970703125
 20
-782.298828125
 10
308.34228515625
 20
-782.26171875
 10
307.791015625
 20
-782.224609375
 97
        0
 92
        1
 93
        1
 72
     4
 94
        3
 73
     0
 74
     1
 95
       14
 96
       10
 40
0.0
 40
0.0
 40
0.0
 40
0.0
 40
1.0
 40
1.0
 40
1.0
 40
2.0
 40
2.0
 40
2.0
 40
3.0
 40
3.0
 40
3.0
 40
3.0
 10
426.1064453125
 20
-686.822265625
 10
426.1064453125
 20
-686.822265625
 10
426.1064453125
 20
-674.55078125
 10
426.1064453125
 20
-674.55078125
 10
434.6796875
 20
-677.16796875
 10
442.890625
 20
-680.13671875
 10
450.6689453125
 20
-683.484375
 10
442.548828125
 20
-685.416015625
 10
434.23046875
 20
-686.5
 10
426.1064453125
 20
-686.822265625
 97
        0
 92
        1
 93
        1
 72
     4
 94
        3
 73
     0
 74
     1
 95
       29
 96
       25
 40
0.0
 40
0.0
 40
0.0
 40
0.0
 40
1.0
 40
1.0
 40
1.0
 40
2.0
 40
2.0
 40
2.0
 40
3.0
 40
3.0
 40
3.0
 40
4.0
 40
4.0
 40
4.0
 40
5.0
 40
5.0
 40
5.0
 40
6.0
 40
6.0
 40
6.0
 40
7.0
 40
7.0
 40
7.0
 40
8.0
 40
8.0
 40
8.0
 40
8.0
 10
478.1748046875
 20
-673.416015625
 10
475.029296875
 20
-672.06640625
 10
471.779296875
 20
-670.77734375
 10
468.4873046875
 20
-669.576171875
 10
454.4892578125
 20
-664.458984375
 10
440.2958984375
 20
-660.8828125
 10
426.1064453125
 20
-658.08984375
 10
426.1064453125
 20
-658.08984375
 10
426.1064453125
 20
-588.548828125
 10
426.1064453125
 20
-588.548828125
 10
426.1064453125
 20
-588.548828125
 10
451.298828125
 20
-588.548828125
 10
451.298828125
 20
-588.548828125
 10
449.9345703125
 20
-590.46875
 10
448.7568359375
 20
-592.515625
 10
447.775390625
 20
-594.681640625
 10
437.8701171875
 20
-616.4921875
 10
449.8779296875
 20
-641.841796875
 10
467.208984375
 20
-653.7421875
 10
474.69140625
 20
-658.884765625
 10
482.9619140625
 20
-662.603515625
 10
491.869140625
 20
-664.845703125
 10
487.7607421875
 20
-667.96484375
 10
483.171875
 20
-670.8359375
 10
478.1748046875
 20
-673.416015625
 97
        0
 92
        1
 93
        1
 72
     4
 94
        3
 73
     0
 74
     1
 95
       23
 96
       19
 40
0.0
 40
0.0
 40
0.0
 40
0.0
 40
1.0
 40
1.0
 40
1.0
 40
2.0
 40
2.0
 40
2.0
 40
3.0
 40
3.0
 40
3.0
 40
4.0
 40
4.0
 40
4.0
 40
5.0
 40
5.0
 40
5.0
 40
6.0
 40
6.0
 40
6.0
 40
6.0
 10
507.5771484375
 20
-648.1640625
 10
492.4921875
 20
-647.51171875
 10
480.8623046875
 20
-643.177734375
 10
472.990234375
 20
-635.259765625
 10
465.830078125
 20
-628.068359375
 10
461.76953125
 20
-617.25
 10
462.890625
 20
-608.3359375
 10
463.7109375
 20
-601.8046875
 10
467.0517578125
 20
-596.7578125
 10
472.8251953125
 20
-593.31640625
 10
476.7724609375
 20
-590.962890625
 10
480.998046875
 20
-589.771484375
 10
485.3759765625
 20
-589.771484375
 10
498.6171875
 20
-589.771484375
 10
511.3408203125
 20
-600.77734375
 10
514.34765625
 20
-614.828125
 10
517.3203125
 20
-628.69921875
 10
512.578125
 20
-640.365234375
 10
507.5771484375
 20
-648.1640625
 97
        0
 92
        1
 93
        1
 72
     4
 94
        3
 73
     0
 74
     1
 95
       20
 96
       16
 40
0.0
 40
0.0
 40
0.0
 40
0.0
 40
1.0
 40
1.0
 40
1.0
 40
2.0
 40
2.0
 40
2.0
 40
3.0
 40
3.0
 40
3.0
 40
4.0
 40
4.0
 40
4.0
 40
5.0
 40
5.0
 40
5.0
 40
5.0
 10
528.818359375
 20
-646.873046875
 10
529.9541015625
 20
-644.12890625
 10
530.8955078125
 20
-641.318359375
 10
531.6298828125
 20
-638.46875
 10
536.21875
 20
-620.6171875
 10
532.22265625
 20
-601.669921875
 10
521.669921875
 20
-588.548828125
 10
521.669921875
 20
-588.548828125
 10
581.171875
 20
-588.548828125
 10
581.171875
 20
-588.548828125
 10
582.0234375
 20
-600.21484375
 10
585.037109375
 20
-612.744140625
 10
590.158203125
 20
-625.87890625
 10
572.5078125
 20
-634.583984375
 10
551.806640625
 20
-643.431640625
 10
528.818359375
 20
-646.873046875
 97
        0
 92
        1
 93
        1
 72
     4
 94
        3
 73
     0
 74
     1
 95
       20
 96
       16
 40
0.0
 40
0.0
 40
0.0
 40
0.0
 40
1.0
 40
1.0
 40
1.0
 40
2.0
 40
2.0
 40
2.0
 40
3.0
 40
3.0
 40
3.0
 40
4.0
 40
4.0
 40
4.0
 40
5.0
 40
5.0
 40
5.0
 40
5.0
 10
600.748046875
 20
-590.107421875
 10
600.748046875
 20
-590.107421875
 10
600.302734375
 20
-588.548828125
 10
600.302734375
 20
-588.548828125
 10
600.302734375
 20
-588.548828125
 10
664.37109375
 20
-588.548828125
 10
664.37109375
 20
-588.548828125
 10
648.0703125
 20
-595.2890625
 10
632.3857421875
 20
-603.6796875
 10
617.0712890625
 20
-611.8671875
 10
614.248046875
 20
-613.373046875
 10
611.42578125
 20
-614.888671875
 10
608.5986328125
 20
-616.38671875
 10
605.75390625
 20
-607.638671875
 10
603.21484375
 20
-598.74609375
 10
600.748046875
 20
-590.107421875
 97
        0
 92
        1
 93
        1
 72
     4
 94
        3
 73
     0
 74
     1
 95
       80
 96
       76
 40
0.0
 40
0.0
 40
0.0
 40
0.0
 40
1.0
 40
1.0
 40
1.0
 40
2.0
 40
2.0
 40
2.0
 40
3.0
 40
3.0
 40
3.0
 40
4.0
 40
4.0
 40
4.0
 40
5.0
 40
5.0
 40
5.0
 40
6.0
 40
6.0
 40
6.0
 40
7.0
 40
7.0
 40
7.0
 40
8.0
 40
8.0
 40
8.0
 40
9.0
 40
9.0
 40
9.0
 40
10.0
 40
10.0
 40
10.0
 40
11.0
 40
11.0
 40
11.0
 40
12.0
 40
12.0
 40
12.0
 40
13.0
 40
13.0
 40
13.0
 40
14.0
 40
14.0
 40
14.0
 40
15.0
 40
15.0
 40
15.0
 40
16.0
 40
16.0
 40
16.0
 40
17.0
 40
17.0
 40
17.0
 40
18.0
 40
18.0
 40
18.0
 40
19.0
 40
19.0
 40
19.0
 40
20.0
 40
20.0
 40
20.0
 40
21.0
 40
21.0
 40
21.0
 40
22.0
 40
22.0
 40
22.0
 40
23.0
 40
23.0
 40
23.0
 40
24.0
 40
24.0
 40
24.0
 40
25.0
 40
25.0
 40
25.0
 40
25.0
 10
848.2021484375
 20
-591.958984375
 10
831.0390625
 20
-605.568359375
 10
818.671875
 20
-623.7421875
 10
806.712890625
 20
-641.326171875
 10
801.08203125
 20
-649.595703125
 10
795.259765625
 20
-658.150390625
 10
789.037109375
 20
-666.068359375
 10
768.568359375
 20
-692.130859375
 10
742.1005859375
 20
-705.962890625
 10
712.154296875
 20
-706.060546875
 10
682.98046875
 20
-706.060546875
 10
655.775390625
 20
-693.142578125
 10
635.5380859375
 20
-669.673828125
 10
627.796875
 20
-660.70703125
 10
621.1015625
 20
-649.138671875
 10
615.1181640625
 20
-634.390625
 10
617.56640625
 20
-633.16015625
 10
619.98828125
 20
-631.9296875
 10
622.3759765625
 20
-630.72265625
 10
631.9619140625
 20
-625.865234375
 10
641.015625
 20
-621.275390625
 10
649.255859375
 20
-617.556640625
 10
672.8583984375
 20
-606.90234375
 10
697.96875
 20
-597.04296875
 10
721.6240234375
 20
-597.04296875
 10
733.05859375
 20
-597.04296875
 10
743.248046875
 20
-599.47265625
 10
751.904296875
 20
-604.255859375
 10
767.263671875
 20
-612.744140625
 10
773.7412109375
 20
-630.37890625
 10
767.66015625
 20
-647.12890625
 10
764.3916015625
 20
-656.125
 10
758.19140625
 20
-662.693359375
 10
750.1943359375
 20
-665.611328125
 10
744.2822265625
 20
-667.76953125
 10
739.904296875
 20
-668.033203125
 10
736.59765625
 20
-666.419921875
 10
734.171875
 20
-665.244140625
 10
731.240234375
 20
-662.154296875
 10
730.73046875
 20
-659.20703125
 10
730.4755859375
 20
-657.74609375
 10
730.876953125
 20
-656.53125
 10
731.986328125
 20
-655.3984375
 10
736.349609375
 20
-650.9375
 10
737.572265625
 20
-645.34375
 10
735.345703125
 20
-640.05078125
 10
733.013671875
 20
-634.501953125
 10
727.337890625
 20
-630.625
 10
721.5419921875
 20
-630.625
 10
717.0126953125
 20
-630.625
 10
713.091796875
 20
-632.935546875
 10
710.5048828125
 20
-637.134765625
 10
704.1806640625
 20
-647.3828125
 10
703.216796875
 20
-660.025390625
 10
707.92578125
 20
-670.95703125
 10
712.6083984375
 20
-681.828125
 10
722.021484375
 20
-689.453125
 10
733.748046875
 20
-691.890625
 10
736.634765625
 20
-692.490234375
 10
739.5888671875
 20
-692.791015625
 10
742.5205078125
 20
-692.791015625
 10
763.2216796875
 20
-692.791015625
 10
783.78125
 20
-677.08203125
 10
791.3984375
 20
-655.443359375
 10
799.626953125
 20
-632.087890625
 10
793.0556640625
 20
-606.107421875
 10
775.0498046875
 20
-590.783203125
 10
774.146484375
 20
-590.009765625
 10
773.216796875
 20
-589.267578125
 10
772.2607421875
 20
-588.548828125
 10
772.2607421875
 20
-588.548828125
 10
852.7529296875
 20
-588.548828125
 10
852.7529296875
 20
-588.548828125
 10
851.208984375
 20
-589.634765625
 10
849.693359375
 20
-590.775390625
 10
848.2021484375
 20
-591.958984375
 97
        0
 75
     2
 76
     1
 98
        0
  0
SPLINE
  5
56
330
3C
100
AcDbEntity
  8
Layer 1
370
     0
100
AcDbSpline
210
0.0
220
0.0
230
1.0
 70
    11
 71
     3
 72
   482
 73
   478
 74
     0
 42
0.0000000001
 43
0.0000000001
 40
0.0
 40
0.0
 40
0.0
 40
0.0
 40
1.0
 40
1.0
 40
1.0
 40
2.0
 40
2.0
 40
2.0
 40
3.0
 40
3.0
 40
3.0
 40
4.0
 40
4.0
 40
4.0
 40
5.0
 40
5.0
 40
5.0
 40
6.0
 40
6.0
 40
6.0
 40
7.0
 40
7.0
 40
7.0
 40
8.0
 40
8.0
 40
8.0
 40
9.0
 40
9.0
 40
9.0
 40
10.0
 40
10.0
 40
10.0
 40
11.0
 40
11.0
 40
11.0
 40
12.0
 40
12.0
 40
12.0
 40
13.0
 40
13.0
 40
13.0
 40
14.0
 40
14.0
 40
14.0
 40
15.0
 40
15.0
 40
15.0
 40
16.0
 40
16.0
 40
16.0
 40
17.0
 40
17.0
 40
17.0
 40
18.0
 40
18.0
 40
18.0
 40
19.0
 40
19.0
 40
19.0
 40
20.0
 40
20.0
 40
20.0
 40
21.0
 40
21.0
 40
21.0
 40
22.0
 40
22.0
 40
22.0
 40
23.0
 40
23.0
 40
23.0
 40
24.0
 40
24.0
 40
24.0
 40
25.0
 40
25.0
 40
25.0
 40
26.0
 40
26.0
 40
26.0
 40
27.0
 40
27.0
 40
27.0
 40
28.0
 40
28.0
 40
28.0
 40
29.0
 40
29.0
 40
29.0
 40
30.0
 40
30.0
 40
30.0
 40
31.0
 40
31.0
 40
31.0
 40
32.0
 40
32.0
 40
32.0
 40
33.0
 40
33.0
 40
33.0
 40
34.0
 40
34.0
 40
34.0
 40
35.0
 40
35.0
 40
35.0
 40
36.0
 40
36.0
 40
36.0
 40
37.0
 40
37.0
 40
37.0
 40
38.0
 40
38.0
 40
38.0
 40
39.0
 40
39.0
 40
39.0
 40
40.0
 40
40.0
 40
40.0
 40
41.0
 40
41.0
 40
41.0
 40
42.0
 40
42.0
 40
42.0
 40
43.0
 40
43.0
 40
43.0
 40
44.0
 40
44.0
 40
44.0
 40
45.0
 40
45.0
 40
45.0
 40
46.0
 40
46.0
 40
46.0
 40
47.0
 40
47.0
 40
47.0
 40
48.0
 40
48.0
 40
48.0
 40
49.0
 40
49.0
 40
49.0
 40
50.0
 40
50.0
 40
50.0
 40
51.0
 40
51.0
 40
51.0
 40
52.0
 40
52.0
 40
52.0
 40
53.0
 40
53.0
 40
53.0
 40
54.0
 40
54.0
 40
54.0
 40
55.0
 40
55.0
 40
55.0
 40
56.0
 40
56.0
 40
56.0
 40
57.0
 40
57.0
 40
57.0
 40
58.0
 40
58.0
 40
58.0
 40
59.0
 40
59.0
 40
59.0
 40
60.0
 40
60.0
 40
60.0
 40
61.0
 40
61.0
 40
61.0
 40
62.0
 40
62.0
 40
62.0
 40
63.0
 40
63.0
 40
63.0
 40
64.0
 40
64.0
 40
64.0
 40
65.0
 40
65.0
 40
65.0
 40
66.0
 40
66.0
 40
66.0
 40
67.0
 40
67.0
 40
67.0
 40
68.0
 40
68.0
 40
68.0
 40
69.0
 40
69.0
 40
69.0
 40
70.0
 40
70.0
 40
70.0
 40
71.0
 40
71.0
 40
71.0
 40
72.0
 40
72.0
 40
72.0
 40
73.0
 40
73.0
 40
73.0
 40
74.0
 40
74.0
 40
74.0
 40
75.0
 40
75.0
 40
75.0
 40
76.0
 40
76.0
 40
76.0
 40
77.0
 40
77.0
 40
77.0
 40
78.0
 40
78.0
 40
78.0
 40
79.0
 40
79.0
 40
79.0
 40
80.0
 40
80.0
 40
80.0
 40
81.0
 40
81.0
 40
81.0
 40
82.0
 40
82.0
 40
82.0
 40
83.0
 40
83.0
 40
83.0
 40
84.0
 40
84.0
 40
84.0
 40
85.0
 40
85.0
 40
85.0
 40
86.0
 40
86.0
 40
86.0
 40
87.0
 40
87.0
 40
87.0
 40
88.0
 40
88.0
 40
88.0
 40
89.0
 40
89.0
 40
89.0
 40
90.0
 40
90.0
 40
90.0
 40
91.0
 40
91.0
 40
91.0
 40
92.0
 40
92.0
 40
92.0
 40
93.0
 40
93.0
 40
93.0
 40
94.0
 40
94.0
 40
94.0
 40
95.0
 40
95.0
 40
95.0
 40
96.0
 40
96.0
 40
96.0
 40
97.0
 40
97.0
 40
97.0
 40
98.0
 40
98.0
 40
98.0
 40
99.0
 40
99.0
 40
99.0
 40
100.0
 40
100.0
 40
100.0
 40
101.0
 40
101.0
 40
101.0
 40
102.0
 40
102.0
 40
102.0
 40
103.0
 40
103.0
 40
103.0
 40
104.0
 40
104.0
 40
104.0
 40
105.0
 40
105.0
 40
105.0
 40
106.0
 40
106.0
 40
106.0
 40
107.0
 40
107.0
 40
107.0
 40
108.0
 40
108.0
 40
108.0
 40
109.0
 40
109.0
 40
109.0
 40
110.0
 40
110.0
 40
110.0
 40
111.0
 40
111.0
 40
111.0
 40
112.0
 40
112.0
 40
112.0
 40
113.0
 40
113.0
 40
113.0
 40
114.0
 40
114.0
 40
114.0
 40
115.0
 40
115.0
 40
115.0
 40
116.0
 40
116.0
 40
116.0
 40
117.0
 40
117.0
 40
117.0
 40
118.0
 40
118.0
 40
118.0
 40
119.0
 40
119.0
 40
119.0
 40
120.0
 40
120.0
 40
120.0
 40
121.0
 40
121.0
 40
121.0
 40
122.0
 40
122.0
 40
122.0
 40
123.0
 40
123.0
 40
123.0
 40
124.0
 40
124.0
 40
124.0
 40
125.0
 40
125.0
 40
125.0
 40
126.0
 40
126.0
 40
126.0
 40
127.0
 40
127.0
 40
127.0
 40
128.0
 40
128.0
 40
128.0
 40
129.0
 40
129.0
 40
129.0
 40
130.0
 40
130.0
 40
130.0
 40
131.0
 40
131.0
 40
131.0
 40
132.0
 40
132.0
 40
132.0
 40
133.0
 40
133.0
 40
133.0
 40
134.0
 40
134.0
 40
134.0
 40
135.0
 40
135.0
 40
135.0
 40
136.0
 40
136.0
 40
136.0
 40
137.0
 40
137.0
 40
137.0
 40
138.0
 40
138.0
 40
138.0
 40
139.0
 40
139.0
 40
139.0
 40
140.0
 40
140.0
 40
140.0
 40
141.0
 40
141.0
 40
141.0
 40
142.0
 40
142.0
 40
142.0
 40
143.0
 40
143.0
 40
143.0
 40
144.0
 40
144.0
 40
144.0
 40
145.0
 40
145.0
 40
145.0
 40
146.0
 40
146.0
 40
146.0
 40
147.0
 40
147.0
 40
147.0
 40
148.0
 40
148.0
 40
148.0
 40
149.0
 40
149.0
 40
149.0
 40
150.0
 40
150.0
 40
150.0
 40
151.0
 40
151.0
 40
151.0
 40
152.0
 40
152.0
 40
152.0
 40
153.0
 40
153.0
 40
153.0
 40
154.0
 40
154.0
 40
154.0
 40
155.0
 40
155.0
 40
155.0
 40
156.0
 40
156.0
 40
156.0
 40
157.0
 40
157.0
 40
157.0
 40
158.0
 40
158.0
 40
158.0
 40
159.0
 40
159.0
 40
159.0
 40
159.0
 10
914.140625
 20
-433.02197265625
 30
0.0
 10
914.140625
 20
-433.02197265625
 30
0.0
 10
914.140625
 20
-415.86669921875
 30
0.0
 10
914.140625
 20
-415.86669921875
 30
0.0
 10
914.140625
 20
-415.86669921875
 30
0.0
 10
771.48828125
 20
-415.86669921875
 30
0.0
 10
771.48828125
 20
-415.86669921875
 30
0.0
 10
781.52734375
 20
-410.89599609375
 30
0.0
 10
791.109375
 20
-404.919921875
 30
0.0
 10
800.13671875
 20
-398.00732421875
 30
0.0
 10
808.7412109375
 20
-394.02587890625
 30
0.0
 10
815.9765625
 20
-391.00439453125
 30
0.0
 10
823.7255859375
 20
-391.00439453125
 30
0.0
 10
827.4140625
 20
-391.00439453125
 30
0.0
 10
830.998046875
 20
-391.69384765625
 30
0.0
 10
834.69140625
 20
-393.103515625
 30
0.0
 10
839.140625
 20
-394.8056640625
 30
0.0
 10
844.91796875
 20
-397.15234375
 30
0.0
 10
850.1328125
 20
-400.2265625
 30
0.0
 10
850.1328125
 20
-400.2265625
 30
0.0
 10
852.0517578125
 20
-401.38134765625
 30
0.0
 10
852.0517578125
 20
-401.38134765625
 30
0.0
 10
855.8828125
 20
-403.72021484375
 30
0.0
 10
859.4970703125
 20
-405.9248046875
 30
0.0
 10
865.5107421875
 20
-406.08984375
 30
0.0
 10
868.318359375
 20
-406.08984375
 30
0.0
 10
870.9541015625
 20
-404.79248046875
 30
0.0
 10
872.73828125
 20
-402.53564453125
 30
0.0
 10
874.61328125
 20
-400.15869140625
 30
0.0
 10
875.3251953125
 20
-397.00244140625
 30
0.0
 10
874.6279296875
 20
-394.0859375
 30
0.0
 10
870.2265625
 20
-375.66357421875
 30
0.0
 10
845.296875
 20
-374.23193359375
 30
0.0
 10
837.76171875
 20
-374.23193359375
 30
0.0
 10
835.287109375
 20
-374.23193359375
 30
0.0
 10
832.8798828125
 20
-374.35888671875
 30
0.0
 10
830.6083984375
 20
-374.6064453125
 30
0.0
 10
828.7529296875
 20
-374.80908203125
 30
0.0
 10
826.525390625
 20
-375.1240234375
 30
0.0
 10
824.0400390625
 20
-375.611328125
 30
0.0
 10
825.09375
 20
-374.38134765625
 30
0.0
 10
826.1318359375
 20
-373.12939453125
 30
0.0
 10
827.14453125
 20
-371.8623046875
 30
0.0
 10
827.96484375
 20
-371.5625
 30
0.0
 10
828.685546875
 20
-371.02978515625
 30
0.0
 10
829.228515625
 20
-370.31005859375
 30
0.0
 10
832.017578125
 20
-366.61376953125
 30
0.0
 10
834.8818359375
 20
-362.61767578125
 30
0.0
 10
837.8515625
 20
-358.47119140625
 30
0.0
 10
856.4228515625
 20
-332.5439453125
 30
0.0
 10
877.5517578125
 20
-303.0400390625
 30
0.0
 10
909.275390625
 20
-305.3642578125
 30
0.0
 10
909.638671875
 20
-305.39453125
 30
0.0
 10
909.9951171875
 20
-305.40966796875
 30
0.0
 10
910.33984375
 20
-305.40966796875
 30
0.0
 10
910.33984375
 20
-305.40966796875
 30
0.0
 10
910.33984375
 20
-305.40966796875
 30
0.0
 10
910.34375
 20
-305.40966796875
 30
0.0
 10
916.6826171875
 20
-305.40966796875
 30
0.0
 10
921.32421875
 20
-300.86572265625
 30
0.0
 10
921.6240234375
 20
-294.365234375
 30
0.0
 10
921.912109375
 20
-288.171875
 30
0.0
 10
917.87109375
 20
-281.19140625
 30
0.0
 10
909.814453125
 20
-280.44189453125
 30
0.0
 10
888.9638671875
 20
-278.50732421875
 30
0.0
 10
874.357421875
 20
-291.56103515625
 30
0.0
 10
863.005859375
 20
-304.28466796875
 30
0.0
 10
860.44921875
 20
-307.14892578125
 30
0.0
 10
857.8330078125
 20
-310.087890625
 30
0.0
 10
855.205078125
 20
-313.1171875
 30
0.0
 10
860.2958984375
 20
-287.89453125
 30
0.0
 10
856.8056640625
 20
-263.33154296875
 30
0.0
 10
844.9296875
 20
-242.51025390625
 30
0.0
 10
841.7646484375
 20
-236.9697265625
 30
0.0
 10
837.92578125
 20
-231.71337890625
 30
0.0
 10
833.513671875
 20
-226.87744140625
 30
0.0
 10
833.3828125
 20
-224.23095703125
 30
0.0
 10
833.052734375
 20
-221.62939453125
 30
0.0
 10
832.734375
 20
-219.0947265625
 30
0.0
 10
832.33984375
 20
-215.9609375
 30
0.0
 10
831.96484375
 20
-213.0068359375
 30
0.0
 10
831.9580078125
 20
-210.0751953125
 30
0.0
 10
831.927734375
 20
-200.89794921875
 30
0.0
 10
834.083984375
 20
-192.93505859375
 30
0.0
 10
838.9384765625
 20
-184.2451171875
 30
0.0
 10
839.23828125
 20
-183.72021484375
 30
0.0
 10
839.669921875
 20
-183.00048828125
 30
0.0
 10
840.1904296875
 20
-182.13818359375
 30
0.0
 10
845.896484375
 20
-172.6611328125
 30
0.0
 10
851.666015625
 20
-161.984375
 30
0.0
 10
847.845703125
 20
-155.2138671875
 30
0.0
 10
846.556640625
 20
-152.94189453125
 30
0.0
 10
843.646484375
 20
-150.19775390625
 30
0.0
 10
837.0185546875
 20
-150.54248046875
 30
0.0
 10
819.0390625
 20
-151.42724609375
 30
0.0
 10
816.212890625
 20
-180.86376953125
 30
0.0
 10
815.1484375
 20
-191.9453125
 30
0.0
 10
814.66015625
 20
-197.00634765625
 30
0.0
 10
813.9931640625
 20
-203.91162109375
 30
0.0
 10
814.251953125
 20
-210.9521484375
 30
0.0
 10
800.7109375
 20
-202.64501953125
 30
0.0
 10
785.25
 20
-198.14599609375
 30
0.0
 10
769.9365234375
 20
-198.14599609375
 30
0.0
 10
756.6796875
 20
-198.14599609375
 30
0.0
 10
743.75
 20
-201.57275390625
 30
0.0
 10
732.4736328125
 20
-208.06591796875
 30
0.0
 10
726.869140625
 20
-208.45556640625
 30
0.0
 10
721.4931640625
 20
-207.98291015625
 30
0.0
 10
716.626953125
 20
-206.56591796875
 30
0.0
 10
713.5224609375
 20
-205.66650390625
 30
0.0
 10
710.42578125
 20
-203.20703125
 30
0.0
 10
707.1572265625
 20
-200.60546875
 30
0.0
 10
702.2685546875
 20
-196.72119140625
 30
0.0
 10
697.21484375
 20
-192.70263671875
 30
0.0
 10
690.748046875
 20
-192.70263671875
 30
0.0
 10
689.390625
 20
-192.70263671875
 30
0.0
 10
688.0234375
 20
-192.89013671875
 30
0.0
 10
686.6806640625
 20
-193.25732421875
 30
0.0
 10
682.5947265625
 20
-194.38232421875
 30
0.0
 10
679.6630859375
 20
-198.19091796875
 30
0.0
 10
679.5576171875
 20
-202.509765625
 30
0.0
 10
679.0927734375
 20
-219.91943359375
 30
0.0
 10
702.5908203125
 20
-221.44921875
 30
0.0
 10
713.8828125
 20
-222.18408203125
 30
0.0
 10
713.8828125
 20
-222.18408203125
 30
0.0
 10
714.6923828125
 20
-222.236328125
 30
0.0
 10
714.6923828125
 20
-222.236328125
 30
0.0
 10
700.814453125
 20
-237.27685546875
 30
0.0
 10
690.955078125
 20
-260.16748046875
 30
0.0
 10
697.40234375
 20
-282.46630859375
 30
0.0
 10
702.1787109375
 20
-298.99853515625
 30
0.0
 10
718.1416015625
 20
-311.4677734375
 30
0.0
 10
734.5244140625
 20
-311.4677734375
 30
0.0
 10
741.3994140625
 20
-311.4677734375
 30
0.0
 10
747.998046875
 20
-309.2333984375
 30
0.0
 10
753.5986328125
 20
-305.01953125
 30
0.0
 10
759.064453125
 20
-300.9033203125
 30
0.0
 10
761.216796875
 20
-294.61279296875
 30
0.0
 10
759.20703125
 20
-288.60693359375
 30
0.0
 10
757.298828125
 20
-282.90087890625
 30
0.0
 10
751.998046875
 20
-279.06982421875
 30
0.0
 10
746.0185546875
 20
-279.06982421875
 30
0.0
 10
743.8359375
 20
-279.06982421875
 30
0.0
 10
741.625
 20
-279.55712890625
 30
0.0
 10
739.4423828125
 20
-280.50927734375
 30
0.0
 10
734.6142578125
 20
-282.6162109375
 30
0.0
 10
730.92578125
 20
-282.1513671875
 30
0.0
 10
728.068359375
 20
-278.83740234375
 30
0.0
 10
723.892578125
 20
-274.00146484375
 30
0.0
 10
722.6171875
 20
-264.77880859375
 30
0.0
 10
723.5322265625
 20
-258.5556640625
 30
0.0
 10
725.12890625
 20
-247.74365234375
 30
0.0
 10
731.8583984375
 20
-239.30126953125
 30
0.0
 10
737.2236328125
 20
-234.1279296875
 30
0.0
 10
747.0830078125
 20
-224.61328125
 30
0.0
 10
760.87109375
 20
-219.15478515625
 30
0.0
 10
775.0498046875
 20
-219.15478515625
 30
0.0
 10
779.7919921875
 20
-219.15478515625
 30
0.0
 10
784.474609375
 20
-219.76953125
 30
0.0
 10
788.9580078125
 20
-220.97705078125
 30
0.0
 10
796.755859375
 20
-223.076171875
 30
0.0
 10
803.912109375
 20
-226.43505859375
 30
0.0
 10
810.345703125
 20
-231.02392578125
 30
0.0
 10
794.1767578125
 20
-230.49169921875
 30
0.0
 10
780.560546875
 20
-237.734375
 30
0.0
 10
774.45703125
 20
-250.06103515625
 30
0.0
 10
772.58984375
 20
-253.83203125
 30
0.0
 10
772.833984375
 20
-258.11328125
 30
0.0
 10
775.12890625
 20
-261.81005859375
 30
0.0
 10
777.43359375
 20
-265.52099609375
 30
0.0
 10
781.34765625
 20
-267.82275390625
 30
0.0
 10
785.34375
 20
-267.82275390625
 30
0.0
 10
788.4443359375
 20
-267.82275390625
 30
0.0
 10
791.365234375
 20
-266.4208984375
 30
0.0
 10
793.5576171875
 20
-263.87158203125
 30
0.0
 10
800.095703125
 20
-256.29150390625
 30
0.0
 10
806.1806640625
 20
-249.880859375
 30
0.0
 10
814.443359375
 20
-248.1787109375
 30
0.0
 10
819.7890625
 20
-247.0615234375
 30
0.0
 10
824.962890625
 20
-248.74853515625
 30
0.0
 10
830.578125
 20
-253.412109375
 30
0.0
 10
840.35546875
 20
-270.16259765625
 30
0.0
 10
844.171875
 20
-291.09619140625
 30
0.0
 10
841.052734375
 20
-310.97998046875
 30
0.0
 10
836.130859375
 20
-342.3134765625
 30
0.0
 10
817.705078125
 20
-369.927734375
 30
0.0
 10
789.228515625
 20
-389.71435546875
 30
0.0
 10
789.404296875
 20
-389.45947265625
 30
0.0
 10
789.580078125
 20
-389.20458984375
 30
0.0
 10
789.7568359375
 20
-388.9423828125
 30
0.0
 10
801.6484375
 20
-371.33740234375
 30
0.0
 10
805.048828125
 20
-344.8701171875
 30
0.0
 10
787.927734375
 20
-330.48974609375
 30
0.0
 10
785.7490234375
 20
-328.66015625
 30
0.0
 10
782.9296875
 20
-327.6552734375
 30
0.0
 10
779.990234375
 20
-327.6552734375
 30
0.0
 10
775.94140625
 20
-327.6552734375
 30
0.0
 10
772.2080078125
 20
-329.46240234375
 30
0.0
 10
769.98828125
 20
-332.4990234375
 30
0.0
 10
767.95703125
 20
-335.27294921875
 30
0.0
 10
767.4541015625
 20
-338.751953125
 30
0.0
 10
768.5791015625
 20
-342.28369140625
 30
0.0
 10
774.6708984375
 20
-361.38037109375
 30
0.0
 10
779.076171875
 20
-375.17626953125
 30
0.0
 10
765.3134765625
 20
-391.63427734375
 30
0.0
 10
762.6220703125
 20
-394.8505859375
 30
0.0
 10
759.4130859375
 20
-397.8720703125
 30
0.0
 10
755.5859375
 20
-400.8037109375
 30
0.0
 10
751.859375
 20
-386.13818359375
 30
0.0
 10
740.927734375
 20
-373.11474609375
 30
0.0
 10
731.0712890625
 20
-365.27197265625
 30
0.0
 10
720.5185546875
 20
-356.86669921875
 30
0.0
 10
707.9072265625
 20
-351.12353515625
 30
0.0
 10
691.4716796875
 20
-347.2470703125
 30
0.0
 10
666.97265625
 20
-319.0029296875
 30
0.0
 10
632.119140625
 20
-302.83740234375
 30
0.0
 10
595.634765625
 20
-302.83740234375
 30
0.0
 10
580.80078125
 20
-302.83740234375
 30
0.0
 10
565.6962890625
 20
-305.43212890625
 30
0.0
 10
550.73828125
 20
-310.552734375
 30
0.0
 10
550.73828125
 20
-310.552734375
 30
0.0
 10
550.4453125
 20
-310.65771484375
 30
0.0
 10
550.4453125
 20
-310.65771484375
 30
0.0
 10
545.8271484375
 20
-308.00341796875
 30
0.0
 10
541.658203125
 20
-305.3642578125
 30
0.0
 10
537.744140625
 20
-302.6201171875
 30
0.0
 10
520.59375
 20
-290.59375
 30
0.0
 10
509.568359375
 20
-274.7734375
 30
0.0
 10
507.498046875
 20
-259.22314453125
 30
0.0
 10
505.3388671875
 20
-243.0654296875
 30
0.0
 10
514.3212890625
 20
-228.22705078125
 30
0.0
 10
528.8525390625
 20
-223.94580078125
 30
0.0
 10
535.1806640625
 20
-222.08642578125
 30
0.0
 10
538.7978515625
 20
-216.41845703125
 30
0.0
 10
537.849609375
 20
-209.85009765625
 30
0.0
 10
537.017578125
 20
-204.07666015625
 30
0.0
 10
532.4248046875
 20
-198.23583984375
 30
0.0
 10
525.2607421875
 20
-198.23583984375
 30
0.0
 10
523.978515625
 20
-198.23583984375
 30
0.0
 10
522.666015625
 20
-198.43115234375
 30
0.0
 10
521.3583984375
 20
-198.8134765625
 30
0.0
 10
501.50390625
 20
-204.6689453125
 30
0.0
 10
486.853515625
 20
-221.20166015625
 30
0.0
 10
482.560546875
 20
-241.93310546875
 30
0.0
 10
481.5634765625
 20
-241.14599609375
 30
0.0
 10
480.578125
 20
-240.39599609375
 30
0.0
 10
479.63671875
 20
-239.68408203125
 30
0.0
 10
479.63671875
 20
-239.68408203125
 30
0.0
 10
478.6435546875
 20
-238.92626953125
 30
0.0
 10
478.6435546875
 20
-238.92626953125
 30
0.0
 10
471.25
 20
-233.29541015625
 30
0.0
 10
461.3798828125
 20
-226.7724609375
 30
0.0
 10
450.22265625
 20
-226.39013671875
 30
0.0
 10
445.6533203125
 20
-226.39013671875
 30
0.0
 10
441.9375
 20
-229.591796875
 30
0.0
 10
440.978515625
 20
-234.35302734375
 30
0.0
 10
439.939453125
 20
-239.49658203125
 30
0.0
 10
442.3876953125
 20
-244.572265625
 30
0.0
 10
446.8037109375
 20
-246.431640625
 30
0.0
 10
450.609375
 20
-248.021484375
 30
0.0
 10
454.4892578125
 20
-248.9208984375
 30
0.0
 10
458.24609375
 20
-249.79833984375
 30
0.0
 10
462.32421875
 20
-250.7431640625
 30
0.0
 10
466.1708984375
 20
-251.63525390625
 30
0.0
 10
469.78515625
 20
-253.33740234375
 30
0.0
 10
472.6640625
 20
-254.6943359375
 30
0.0
 10
475.2734375
 20
-256.763671875
 30
0.0
 10
478.0400390625
 20
-258.953125
 30
0.0
 10
479.25390625
 20
-259.92041015625
 30
0.0
 10
480.46484375
 20
-260.8798828125
 30
0.0
 10
481.7060546875
 20
-261.77978515625
 30
0.0
 10
481.9462890625
 20
-263.84912109375
 30
0.0
 10
482.291015625
 20
-265.89599609375
 30
0.0
 10
482.7333984375
 20
-267.90576171875
 30
0.0
 10
483.2060546875
 20
-270.06494140625
 30
0.0
 10
483.783203125
 20
-272.20166015625
 30
0.0
 10
484.4580078125
 20
-274.31591796875
 30
0.0
 10
482.5458984375
 20
-273.55908203125
 30
0.0
 10
480.603515625
 20
-272.87646484375
 30
0.0
 10
478.6767578125
 20
-272.2841796875
 30
0.0
 10
473.169921875
 20
-270.60498046875
 30
0.0
 10
467.865234375
 20
-274.80322265625
 30
0.0
 10
467.490234375
 20
-280.9140625
 30
0.0
 10
467.1796875
 20
-286.0126953125
 30
0.0
 10
470.3544921875
 20
-289.994140625
 30
0.0
 10
475.212890625
 20
-290.59375
 30
0.0
 10
480.341796875
 20
-291.2236328125
 30
0.0
 10
484.94921875
 20
-291.91357421875
 30
0.0
 10
489.373046875
 20
-294.04248046875
 30
0.0
 10
491.041015625
 20
-294.8525390625
 30
0.0
 10
492.6796875
 20
-295.81982421875
 30
0.0
 10
494.4111328125
 20
-296.84716796875
 30
0.0
 10
495.6181640625
 20
-297.55908203125
 30
0.0
 10
496.8251953125
 20
-298.271484375
 30
0.0
 10
498.05078125
 20
-298.93896484375
 30
0.0
 10
505.095703125
 20
-307.50146484375
 30
0.0
 10
514.306640625
 20
-315.1865234375
 30
0.0
 10
525.4970703125
 20
-321.85986328125
 30
0.0
 10
517.8681640625
 20
-326.33544921875
 30
0.0
 10
511.3896484375
 20
-331.41943359375
 30
0.0
 10
506.1640625
 20
-337.02001953125
 30
0.0
 10
479.029296875
 20
-337.59375
 30
0.0
 10
450.841796875
 20
-348.75439453125
 30
0.0
 10
426.1064453125
 20
-360.435546875
 30
0.0
 10
426.1064453125
 20
-360.435546875
 30
0.0
 10
426.1064453125
 20
-300.041015625
 30
0.0
 10
426.1064453125
 20
-300.041015625
 30
0.0
 10
426.1064453125
 20
-233.783203125
 30
0.0
 10
428.16796875
 20
-191.82568359375
 30
0.0
 10
432.2841796875
 20
-174.18310546875
 30
0.0
 10
436.400390625
 20
-156.54052734375
 30
0.0
 10
444.5322265625
 20
-144.484375
 30
0.0
 10
456.689453125
 20
-138.013671875
 30
0.0
 10
468.8359375
 20
-131.54345703125
 30
0.0
 10
494.5234375
 20
-128.3115234375
 30
0.0
 10
533.7294921875
 20
-128.3115234375
 30
0.0
 10
533.7294921875
 20
-128.3115234375
 30
0.0
 10
569.021484375
 20
-128.3115234375
 30
0.0
 10
569.021484375
 20
-128.3115234375
 30
0.0
 10
569.021484375
 20
-128.3115234375
 30
0.0
 10
569.021484375
 20
-101.259765625
 30
0.0
 10
569.021484375
 20
-101.259765625
 30
0.0
 10
569.021484375
 20
-101.259765625
 30
0.0
 10
186.154296875
 20
-101.259765625
 30
0.0
 10
186.154296875
 20
-101.259765625
 30
0.0
 10
186.154296875
 20
-101.259765625
 30
0.0
 10
186.154296875
 20
-128.3115234375
 30
0.0
 10
186.154296875
 20
-128.3115234375
 30
0.0
 10
186.154296875
 20
-128.3115234375
 30
0.0
 10
203.796875
 20
-128.3115234375
 30
0.0
 10
203.796875
 20
-128.3115234375
 30
0.0
 10
244.1796875
 20
-128.3115234375
 30
0.0
 10
270.34716796875
 20
-131.84326171875
 30
0.0
 10
282.3134765625
 20
-138.8984375
 30
0.0
 10
294.26904296875
 20
-145.9541015625
 30
0.0
 10
302.10791015625
 20
-158.7001953125
 30
0.0
 10
305.837890625
 20
-177.1220703125
 30
0.0
 10
309.1669921875
 20
-193.60595703125
 30
0.0
 10
311.00390625
 20
-228.16357421875
 30
0.0
 10
311.3564453125
 20
-280.685546875
 30
0.0
 10
310.78662109375
 20
-280.67822265625
 30
0.0
 10
310.216796875
 20
-280.6142578125
 30
0.0
 10
309.64697265625
 20
-280.6142578125
 30
0.0
 10
292.7734375
 20
-280.6142578125
 30
0.0
 10
275.9443359375
 20
-284.52783203125
 30
0.0
 10
260.978515625
 20
-291.9208984375
 30
0.0
 10
253.4921875
 20
-295.62451171875
 30
0.0
 10
246.36181640625
 20
-300.44580078125
 30
0.0
 10
239.388671875
 20
-306.5341796875
 30
0.0
 10
240.7646484375
 20
-296.322265625
 30
0.0
 10
241.1806640625
 20
-284.25830078125
 30
0.0
 10
236.236328125
 20
-274.166015625
 30
0.0
 10
234.41796875
 20
-270.45458984375
 30
0.0
 10
230.9990234375
 20
-268.3330078125
 30
0.0
 10
226.8447265625
 20
-268.3330078125
 30
0.0
 10
223.2724609375
 20
-268.3330078125
 30
0.0
 10
219.669921875
 20
-269.94482421875
 30
0.0
 10
217.21044921875
 20
-272.64404296875
 30
0.0
 10
215.0361328125
 20
-275.03564453125
 30
0.0
 10
213.994140625
 20
-278.04248046875
 30
0.0
 10
214.2822265625
 20
-281.1015625
 30
0.0
 10
214.740234375
 20
-285.990234375
 30
0.0
 10
215.98046875
 20
-290.60107421875
 30
0.0
 10
217.1806640625
 20
-295.0625
 30
0.0
 10
218.49609375
 20
-299.9736328125
 30
0.0
 10
219.7412109375
 20
-304.60693359375
 30
0.0
 10
219.98828125
 20
-309.48828125
 30
0.0
 10
220.18701171875
 20
-313.42431640625
 30
0.0
 10
219.4599609375
 20
-317.42822265625
 30
0.0
 10
218.6953125
 20
-321.66455078125
 30
0.0
 10
218.177734375
 20
-324.50634765625
 30
0.0
 10
217.6455078125
 20
-327.4228515625
 30
0.0
 10
217.4013671875
 20
-330.39208984375
 30
0.0
 10
213.1767578125
 20
-335.80517578125
 30
0.0
 10
209.0751953125
 20
-341.44384765625
 30
0.0
 10
205.08642578125
 20
-346.98486328125
 30
0.0
 10
205.0341796875
 20
-339.6669921875
 30
0.0
 10
203.98828125
 20
-333.21875
 30
0.0
 10
203.33984375
 20
-329.90478515625
 30
0.0
 10
202.439453125
 20
-325.32373046875
 30
0.0
 10
198.76220703125
 20
-322.36962890625
 30
0.0
 10
193.96728515625
 20
-322.36962890625
 30
0.0
 10
190.154296875
 20
-322.36962890625
 30
0.0
 10
186.37939453125
 20
-324.28125
 30
0.0
 10
184.34765625
 20
-327.2353515625
 30
0.0
 10
182.54052734375
 20
-329.87451171875
 30
0.0
 10
182.2109375
 20
-333.0537109375
 30
0.0
 10
183.41796875
 20
-336.1953125
 30
0.0
 10
185.689453125
 20
-342.06591796875
 30
0.0
 10
187.59033203125
 20
-347.41943359375
 30
0.0
 10
187.84912109375
 20
-353.462890625
 30
0.0
 10
187.93896484375
 20
-355.7197265625
 30
0.0
 10
187.837890625
 20
-358.02880859375
 30
0.0
 10
187.72900390625
 20
-360.4658203125
 30
0.0
 10
187.5869140625
 20
-363.697265625
 30
0.0
 10
187.4365234375
 20
-367.03369140625
 30
0.0
 10
187.7666015625
 20
-370.392578125
 30
0.0
 10
184.5576171875
 20
-374.43408203125
 30
0.0
 10
181.509765625
 20
-378.025390625
 30
0.0
 10
178.521484375
 20
-381.27197265625
 30
0.0
 10
178.57421875
 20
-373.33935546875
 30
0.0
 10
176.4638671875
 20
-365.51171875
 30
0.0
 10
172.43359375
 20
-359.78369140625
 30
0.0
 10
170.4091796875
 20
-356.88916015625
 30
0.0
 10
166.4619140625
 20
-355.5546875
 30
0.0
 10
163.2978515625
 20
-356.84423828125
 30
0.0
 10
161.95166015625
 20
-357.38427734375
 30
0.0
 10
161.08203125
 20
-358.09619140625
 30
0.0
 10
160.4296875
 20
-358.70361328125
 30
0.0
 10
158.3154296875
 20
-360.63818359375
 30
0.0
 10
157.5693359375
 20
-364.14697265625
 30
0.0
 10
158.6865234375
 20
-366.84619140625
 30
0.0
 10
158.6865234375
 20
-366.84619140625
 30
0.0
 10
158.8662109375
 20
-367.28125
 30
0.0
 10
158.8662109375
 20
-367.28125
 30
0.0
 10
161.0478515625
 20
-372.59716796875
 30
0.0
 10
162.93359375
 20
-377.193359375
 30
0.0
 10
162.85888671875
 20
-382.6591796875
 30
0.0
 10
162.78759765625
 20
-388.3349609375
 30
0.0
 10
160.654296875
 20
-393.6884765625
 30
0.0
 10
158.5029296875
 20
-398.92919921875
 30
0.0
 10
157.1455078125
 20
-399.85888671875
 30
0.0
 10
155.7734375
 20
-400.76611328125
 30
0.0
 10
154.3564453125
 20
-401.62109375
 30
0.0
 10
144.4365234375
 20
-407.5966796875
 30
0.0
 10
132.35791015625
 20
-411.0234375
 30
0.0
 10
121.2314453125
 20
-411.0234375
 30
0.0
 10
110.08203125
 20
-411.0234375
 30
0.0
 10
90.3330078125
 20
-407.5966796875
 30
0.0
 10
83.375
 20
-384.638671875
 30
0.0
 10
79.2060546875
 20
-370.90283203125
 30
0.0
 10
84.20703125
 20
-355.5322265625
 30
0.0
 10
95.2587890625
 20
-348.07958984375
 30
0.0
 10
102.01806640625
 20
-343.5283203125
 30
0.0
 10
109.5498046875
 20
-343.10107421875
 30
0.0
 10
115.6376953125
 20
-346.95458984375
 30
0.0
 10
118.83935546875
 20
-349.02392578125
 30
0.0
 10
121.2802734375
 20
-351.74560546875
 30
0.0
 10
123.14697265625
 20
-355.37451171875
 30
0.0
 10
123.33056640625
 20
-355.7119140625
 30
0.0
 10
123.5029296875
 20
-356.04931640625
 30
0.0
 10
123.65673828125
 20
-356.38671875
 30
0.0
 10
118.1796875
 20
-356.3720703125
 30
0.0
 10
112.7998046875
 20
-358.8759765625
 30
0.0
 10
109.55712890625
 20
-363.1123046875
 30
0.0
 10
106.2802734375
 20
-367.40869140625
 30
0.0
 10
105.388671875
 20
-373.12939453125
 30
0.0
 10
107.052734375
 20
-379.23291015625
 30
0.0
 10
109.13720703125
 20
-386.88818359375
 30
0.0
 10
115.5927734375
 20
-391.83642578125
 30
0.0
 10
123.4990234375
 20
-391.83642578125
 30
0.0
 10
126.30712890625
 20
-391.83642578125
 30
0.0
 10
129.19384765625
 20
-391.19189453125
 30
0.0
 10
131.8369140625
 20
-389.96923828125
 30
0.0
 10
143.724609375
 20
-384.48876953125
 30
0.0
 10
147.1396484375
 20
-370.36279296875
 30
0.0
 10
146.4541015625
 20
-359.93310546875
 30
0.0
 10
145.0888671875
 20
-338.94677734375
 30
0.0
 10
127.4541015625
 20
-321.8671875
 30
0.0
 10
107.142578125
 20
-321.8671875
 30
0.0
 10
104.8037109375
 20
-321.8671875
 30
0.0
 10
102.46044921875
 20
-322.099609375
 30
0.0
 10
100.173828125
 20
-322.55712890625
 30
0.0
 10
78.70361328125
 20
-326.83837890625
 30
0.0
 10
61.4287109375
 20
-349.1513671875
 30
0.0
 10
60.8515625
 20
-373.3544921875
 30
0.0
 10
60.2666015625
 20
-397.54248046875
 30
0.0
 10
75.412109375
 20
-420.34326171875
 30
0.0
 10
97.6884765625
 20
-428.80029296875
 30
0.0
 10
101.654296875
 20
-430.3076171875
 30
0.0
 10
105.80859375
 20
-431.39501953125
 30
0.0
 10
110.07421875
 20
-432.06201171875
 30
0.0
 10
110.07421875
 20
-432.06201171875
 30
0.0
 10
110.07421875
 20
-433.02197265625
 30
0.0
 10
110.07421875
 20
-433.02197265625
 30
0.0
 10
110.07421875
 20
-433.02197265625
 30
0.0
 10
914.140625
 20
-433.02197265625
 30
0.0
 10
914.140625
 20
-433.02197265625
 30
0.0
  0
SPLINE
  5
57
330
3C
100
AcDbEntity
  8
Layer 1
370
     0
100
AcDbSpline
210
0.0
220
0.0
230
1.0
 70
    11
 71
     3
 72
    23
 73
    19
 74
     0
 42
0.0000000001
 43
0.0000000001
 40
0.0
 40
0.0
 40
0.0
 40
0.0
 40
1.0
 40
1.0
 40
1.0
 40
2.0
 40
2.0
 40
2.0
 40
3.0
 40
3.0
 40
3.0
 40
4.0
 40
4.0
 40
4.0
 40
5.0
 40
5.0
 40
5.0
 40
6.0
 40
6.0
 40
6.0
 40
6.0
 10
726.6513671875
 20
-379.41259765625
 30
0.0
 10
735.4990234375
 20
-387.3828125
 30
0.0
 10
740.78515625
 20
-396.46240234375
 30
0.0
 10
743.5888671875
 20
-408.57177734375
 30
0.0
 10
739.158203125
 20
-411.05322265625
 30
0.0
 10
734.6962890625
 20
-413.25732421875
 30
0.0
 10
730.767578125
 20
-415.1396484375
 30
0.0
 10
729.658203125
 20
-415.39453125
 30
0.0
 10
728.5556640625
 20
-415.63427734375
 30
0.0
 10
727.4462890625
 20
-415.86669921875
 30
0.0
 10
727.4462890625
 20
-415.86669921875
 30
0.0
 10
722.962890625
 20
-415.86669921875
 30
0.0
 10
722.962890625
 20
-415.86669921875
 30
0.0
 10
720.4736328125
 20
-398.39697265625
 30
0.0
 10
714.392578125
 20
-381.43701171875
 30
0.0
 10
705.173828125
 20
-366.12646484375
 30
0.0
 10
713.560546875
 20
-369.59814453125
 30
0.0
 10
720.6455078125
 20
-373.99169921875
 30
0.0
 10
726.6513671875
 20
-379.41259765625
 30
0.0
  0
SPLINE
  5
58
330
3C
100
AcDbEntity
  8
Layer 1
370
     0
100
AcDbSpline
210
0.0
220
0.0
230
1.0
 70
    11
 71
     3
 72
    20
 73
    16
 74
     0
 42
0.0000000001
 43
0.0000000001
 40
0.0
 40
0.0
 40
0.0
 40
0.0
 40
1.0
 40
1.0
 40
1.0
 40
2.0
 40
2.0
 40
2.0
 40
3.0
 40
3.0
 40
3.0
 40
4.0
 40
4.0
 40
4.0
 40
5.0
 40
5.0
 40
5.0
 40
5.0
 10
627.201171875
 20
-320.9072265625
 30
0.0
 10
638.02734375
 20
-324.01904296875
 30
0.0
 10
651.103515625
 20
-331.869140625
 30
0.0
 10
663.546875
 20
-342.568359375
 30
0.0
 10
660.9111328125
 20
-342.23876953125
 30
0.0
 10
658.2939453125
 20
-341.93115234375
 30
0.0
 10
655.71484375
 20
-341.62353515625
 30
0.0
 10
652.033203125
 20
-341.18896484375
 30
0.0
 10
648.3779296875
 20
-340.75390625
 30
0.0
 10
644.7607421875
 20
-340.28173828125
 30
0.0
 10
617.3525390625
 20
-336.71240234375
 30
0.0
 10
592.5908203125
 20
-330.21240234375
 30
0.0
 10
570.994140625
 20
-320.92236328125
 30
0.0
 10
590.4091796875
 20
-316.3037109375
 30
0.0
 10
611.001953125
 20
-316.2587890625
 30
0.0
 10
627.201171875
 20
-320.9072265625
 30
0.0
  0
SPLINE
  5
59
330
3C
100
AcDbEntity
  8
Layer 1
370
     0
100
AcDbSpline
210
0.0
220
0.0
230
1.0
 70
    11
 71
     3
 72
    35
 73
    31
 74
     0
 42
0.0000000001
 43
0.0000000001
 40
0.0
 40
0.0
 40
0.0
 40
0.0
 40
1.0
 40
1.0
 40
1.0
 40
2.0
 40
2.0
 40
2.0
 40
3.0
 40
3.0
 40
3.0
 40
4.0
 40
4.0
 40
4.0
 40
5.0
 40
5.0
 40
5.0
 40
6.0
 40
6.0
 40
6.0
 40
7.0
 40
7.0
 40
7.0
 40
8.0
 40
8.0
 40
8.0
 40
9.0
 40
9.0
 40
9.0
 40
10.0
 40
10.0
 40
10.0
 40
10.0
 10
543.4951171875
 20
-330.99169921875
 30
0.0
 10
546.63671875
 20
-332.34130859375
 30
0.0
 10
549.890625
 20
-333.63134765625
 30
0.0
 10
553.1826171875
 20
-334.83837890625
 30
0.0
 10
583.173828125
 20
-345.79248046875
 30
0.0
 10
614.056640625
 20
-349.84912109375
 30
0.0
 10
643.9208984375
 20
-353.77001953125
 30
0.0
 10
653.798828125
 20
-355.0673828125
 30
0.0
 10
664.0146484375
 20
-356.40966796875
 30
0.0
 10
674.1220703125
 20
-357.98388671875
 30
0.0
 10
676.109375
 20
-358.298828125
 30
0.0
 10
678.087890625
 20
-358.62890625
 30
0.0
 10
680.064453125
 20
-358.99609375
 30
0.0
 10
697.095703125
 20
-378.587890625
 30
0.0
 10
706.400390625
 20
-399.0341796875
 30
0.0
 10
706.0400390625
 20
-415.86669921875
 30
0.0
 10
706.0400390625
 20
-415.86669921875
 30
0.0
 10
570.3671875
 20
-415.86669921875
 30
0.0
 10
570.3671875
 20
-415.86669921875
 30
0.0
 10
571.728515625
 20
-413.947265625
 30
0.0
 10
572.9052734375
 20
-411.89306640625
 30
0.0
 10
573.8916015625
 20
-409.72607421875
 30
0.0
 10
583.7958984375
 20
-387.9150390625
 30
0.0
 10
571.7919921875
 20
-362.57275390625
 30
0.0
 10
554.45703125
 20
-350.666015625
 30
0.0
 10
546.974609375
 20
-345.5302734375
 30
0.0
 10
538.7080078125
 20
-341.81103515625
 30
0.0
 10
529.79296875
 20
-339.56201171875
 30
0.0
 10
533.8984375
 20
-336.4501953125
 30
0.0
 10
538.490234375
 20
-333.57861328125
 30
0.0
 10
543.4951171875
 20
-330.99169921875
 30
0.0
  0
SPLINE
  5
5A
330
3C
100
AcDbEntity
  8
Layer 1
370
     0
100
AcDbSpline
210
0.0
220
0.0
230
1.0
 70
    11
 71
     3
 72
    23
 73
    19
 74
     0
 42
0.0000000001
 43
0.0000000001
 40
0.0
 40
0.0
 40
0.0
 40
0.0
 40
1.0
 40
1.0
 40
1.0
 40
2.0
 40
2.0
 40
2.0
 40
3.0
 40
3.0
 40
3.0
 40
4.0
 40
4.0
 40
4.0
 40
5.0
 40
5.0
 40
5.0
 40
6.0
 40
6.0
 40
6.0
 40
6.0
 10
514.0888671875
 20
-356.24462890625
 30
0.0
 10
529.1708984375
 20
-356.89697265625
 30
0.0
 10
540.7998046875
 20
-361.23046875
 30
0.0
 10
548.6796875
 20
-369.14794921875
 30
0.0
 10
555.8369140625
 20
-376.33837890625
 30
0.0
 10
559.896484375
 20
-387.15771484375
 30
0.0
 10
558.775390625
 20
-396.07275390625
 30
0.0
 10
557.958984375
 20
-402.60302734375
 30
0.0
 10
554.615234375
 20
-407.65673828125
 30
0.0
 10
548.8486328125
 20
-411.0908203125
 30
0.0
 10
544.8974609375
 20
-413.44482421875
 30
0.0
 10
540.6728515625
 20
-414.63720703125
 30
0.0
 10
536.2900390625
 20
-414.63720703125
 30
0.0
 10
523.048828125
 20
-414.63720703125
 30
0.0
 10
510.3212890625
 20
-403.63037109375
 30
0.0
 10
507.318359375
 20
-389.58740234375
 30
0.0
 10
504.349609375
 20
-375.71630859375
 30
0.0
 10
509.091796875
 20
-364.0498046875
 30
0.0
 10
514.0888671875
 20
-356.24462890625
 30
0.0
  0
SPLINE
  5
5B
330
3C
100
AcDbEntity
  8
Layer 1
370
     0
100
AcDbSpline
210
0.0
220
0.0
230
1.0
 70
    11
 71
     3
 72
    20
 73
    16
 74
     0
 42
0.0000000001
 43
0.0000000001
 40
0.0
 40
0.0
 40
0.0
 40
0.0
 40
1.0
 40
1.0
 40
1.0
 40
2.0
 40
2.0
 40
2.0
 40
3.0
 40
3.0
 40
3.0
 40
4.0
 40
4.0
 40
4.0
 40
5.0
 40
5.0
 40
5.0
 40
5.0
 10
492.84765625
 20
-357.5341796875
 30
0.0
 10
491.7080078125
 20
-360.28564453125
 30
0.0
 10
490.767578125
 20
-363.09716796875
 30
0.0
 10
490.0361328125
 20
-365.93896484375
 30
0.0
 10
485.451171875
 20
-383.79150390625
 30
0.0
 10
489.447265625
 20
-402.74560546875
 30
0.0
 10
499.9970703125
 20
-415.86669921875
 30
0.0
 10
499.9970703125
 20
-415.86669921875
 30
0.0
 10
440.490234375
 20
-415.86669921875
 30
0.0
 10
440.490234375
 20
-415.86669921875
 30
0.0
 10
439.6435546875
 20
-404.18505859375
 30
0.0
 10
436.62890625
 20
-391.6640625
 30
0.0
 10
431.5087890625
 20
-378.52783203125
 30
0.0
 10
449.166015625
 20
-369.82275390625
 30
0.0
 10
469.875
 20
-360.9755859375
 30
0.0
 10
492.84765625
 20
-357.5341796875
 30
0.0
  0
SPLINE
  5
5C
330
3C
100
AcDbEntity
  8
Layer 1
370
     0
100
AcDbSpline
210
0.0
220
0.0
230
1.0
 70
    11
 71
     3
 72
    44
 73
    40
 74
     0
 42
0.0000000001
 43
0.0000000001
 40
0.0
 40
0.0
 40
0.0
 40
0.0
 40
1.0
 40
1.0
 40
1.0
 40
2.0
 40
2.0
 40
2.0
 40
3.0
 40
3.0
 40
3.0
 40
4.0
 40
4.0
 40
4.0
 40
5.0
 40
5.0
 40
5.0
 40
6.0
 40
6.0
 40
6.0
 40
7.0
 40
7.0
 40
7.0
 40
8.0
 40
8.0
 40
8.0
 40
9.0
 40
9.0
 40
9.0
 40
10.0
 40
10.0
 40
10.0
 40
11.0
 40
11.0
 40
11.0
 40
12.0
 40
12.0
 40
12.0
 40
13.0
 40
13.0
 40
13.0
 40
13.0
 10
168.9169921875
 20
-415.86669921875
 30
0.0
 10
170.4541015625
 20
-414.77197265625
 30
0.0
 10
171.97265625
 20
-413.63232421875
 30
0.0
 10
173.46484375
 20
-412.45556640625
 30
0.0
 10
190.630859375
 20
-398.83935546875
 30
0.0
 10
202.99462890625
 20
-380.66455078125
 30
0.0
 10
214.95361328125
 20
-363.08984375
 30
0.0
 10
220.58447265625
 20
-354.8125
 30
0.0
 10
226.40625
 20
-346.25732421875
 30
0.0
 10
232.6298828125
 20
-338.33984375
 30
0.0
 10
253.1025390625
 20
-312.27734375
 30
0.0
 10
279.5693359375
 20
-298.44384765625
 30
0.0
 10
309.50830078125
 20
-298.3388671875
 30
0.0
 10
310.1494140625
 20
-298.3388671875
 30
0.0
 10
310.78271484375
 20
-298.38037109375
 30
0.0
 10
311.419921875
 20
-298.3916015625
 30
0.0
 10
311.423828125
 20
-298.9501953125
 30
0.0
 10
311.423828125
 20
-299.478515625
 30
0.0
 10
311.423828125
 20
-300.041015625
 30
0.0
 10
311.423828125
 20
-300.041015625
 30
0.0
 10
311.423828125
 20
-329.0087890625
 30
0.0
 10
311.423828125
 20
-329.0087890625
 30
0.0
 10
306.29541015625
 20
-320.52099609375
 30
0.0
 10
297.96875
 20
-314.60546875
 30
0.0
 10
287.921875
 20
-312.52490234375
 30
0.0
 10
285.03515625
 20
-311.92529296875
 30
0.0
 10
282.0810546875
 20
-311.61767578125
 30
0.0
 10
279.14208984375
 20
-311.61767578125
 30
0.0
 10
258.4482421875
 20
-311.61767578125
 30
0.0
 10
237.89306640625
 20
-327.32568359375
 30
0.0
 10
230.26416015625
 20
-348.9716796875
 30
0.0
 10
222.04296875
 20
-372.31982421875
 30
0.0
 10
228.6142578125
 20
-398.30712890625
 30
0.0
 10
246.61669921875
 20
-413.63232421875
 30
0.0
 10
247.52392578125
 20
-414.3974609375
 30
0.0
 10
248.45361328125
 20
-415.14697265625
 30
0.0
 10
249.40625
 20
-415.86669921875
 30
0.0
 10
249.40625
 20
-415.86669921875
 30
0.0
 10
168.9169921875
 20
-415.86669921875
 30
0.0
 10
168.9169921875
 20
-415.86669921875
 30
0.0
  0
SPLINE
  5
5D
330
3C
100
AcDbEntity
  8
Layer 1
370
     0
100
AcDbSpline
210
0.0
220
0.0
230
1.0
 70
    11
 71
     3
 72
    41
 73
    37
 74
     0
 42
0.0000000001
 43
0.0000000001
 40
0.0
 40
0.0
 40
0.0
 40
0.0
 40
1.0
 40
1.0
 40
1.0
 40
2.0
 40
2.0
 40
2.0
 40
3.0
 40
3.0
 40
3.0
 40
4.0
 40
4.0
 40
4.0
 40
5.0
 40
5.0
 40
5.0
 40
6.0
 40
6.0
 40
6.0
 40
7.0
 40
7.0
 40
7.0
 40
8.0
 40
8.0
 40
8.0
 40
9.0
 40
9.0
 40
9.0
 40
10.0
 40
10.0
 40
10.0
 40
11.0
 40
11.0
 40
11.0
 40
12.0
 40
12.0
 40
12.0
 40
12.0
 10
269.7626953125
 20
-400.1513671875
 30
0.0
 10
254.4072265625
 20
-391.65673828125
 30
0.0
 10
247.9287109375
 20
-374.029296875
 30
0.0
 10
254.009765625
 20
-357.279296875
 30
0.0
 10
257.27099609375
 20
-348.28173828125
 30
0.0
 10
263.4716796875
 20
-341.72119140625
 30
0.0
 10
271.4716796875
 20
-338.79736328125
 30
0.0
 10
277.3916015625
 20
-336.63037109375
 30
0.0
 10
281.7626953125
 20
-336.37548828125
 30
0.0
 10
285.0732421875
 20
-337.9873046875
 30
0.0
 10
287.49462890625
 20
-339.16455078125
 30
0.0
 10
290.42626953125
 20
-342.26123046875
 30
0.0
 10
290.9365234375
 20
-345.2001953125
 30
0.0
 10
291.19140625
 20
-346.669921875
 30
0.0
 10
290.7939453125
 20
-347.876953125
 30
0.0
 10
289.68408203125
 20
-349.0166015625
 30
0.0
 10
285.3203125
 20
-353.47021484375
 30
0.0
 10
284.0908203125
 20
-359.0634765625
 30
0.0
 10
286.3173828125
 20
-364.36474609375
 30
0.0
 10
288.6494140625
 20
-369.91259765625
 30
0.0
 10
294.3291015625
 20
-373.78955078125
 30
0.0
 10
300.125
 20
-373.78955078125
 30
0.0
 10
304.6533203125
 20
-373.78955078125
 30
0.0
 10
308.57470703125
 20
-371.47216796875
 30
0.0
 10
311.1650390625
 20
-367.28125
 30
0.0
 10
311.2587890625
 20
-367.12353515625
 30
0.0
 10
311.330078125
 20
-366.95849609375
 30
0.0
 10
311.423828125
 20
-366.80126953125
 30
0.0
 10
311.423828125
 20
-366.80126953125
 30
0.0
 10
311.423828125
 20
-406.62939453125
 30
0.0
 10
311.423828125
 20
-406.62939453125
 30
0.0
 10
307.60009765625
 20
-407.0908203125
 30
0.0
 10
303.802734375
 20
-407.3642578125
 30
0.0
 10
300.0419921875
 20
-407.3642578125
 30
0.0
 10
288.6083984375
 20
-407.3642578125
 30
0.0
 10
278.42236328125
 20
-404.94287109375
 30
0.0
 10
269.7626953125
 20
-400.1513671875
 30
0.0
  0
HATCH
  5
5E
330
3C
100
AcDbEntity
  8
Layer 1
 62
     7
100
AcDbHatch
 10
0.0
 20
0.0
 30
0.0
210
0.0
220
0.0
230
1.0
  2
SOLID
 70
     1
 71
     0
 91
        8
 92
        1
 93
        1
 72
     4
 94
        3
 73
     0
 74
     1
 95
      482
 96
      478
 40
0.0
 40
0.0
 40
0.0
 40
0.0
 40
1.0
 40
1.0
 40
1.0
 40
2.0
 40
2.0
 40
2.0
 40
3.0
 40
3.0
 40
3.0
 40
4.0
 40
4.0
 40
4.0
 40
5.0
 40
5.0
 40
5.0
 40
6.0
 40
6.0
 40
6.0
 40
7.0
 40
7.0
 40
7.0
 40
8.0
 40
8.0
 40
8.0
 40
9.0
 40
9.0
 40
9.0
 40
10.0
 40
10.0
 40
10.0
 40
11.0
 40
11.0
 40
11.0
 40
12.0
 40
12.0
 40
12.0
 40
13.0
 40
13.0
 40
13.0
 40
14.0
 40
14.0
 40
14.0
 40
15.0
 40
15.0
 40
15.0
 40
16.0
 40
16.0
 40
16.0
 40
17.0
 40
17.0
 40
17.0
 40
18.0
 40
18.0
 40
18.0
 40
19.0
 40
19.0
 40
19.0
 40
20.0
 40
20.0
 40
20.0
 40
21.0
 40
21.0
 40
21.0
 40
22.0
 40
22.0
 40
22.0
 40
23.0
 40
23.0
 40
23.0
 40
24.0
 40
24.0
 40
24.0
 40
25.0
 40
25.0
 40
25.0
 40
26.0
 40
26.0
 40
26.0
 40
27.0
 40
27.0
 40
27.0
 40
28.0
 40
28.0
 40
28.0
 40
29.0
 40
29.0
 40
29.0
 40
30.0
 40
30.0
 40
30.0
 40
31.0
 40
31.0
 40
31.0
 40
32.0
 40
32.0
 40
32.0
 40
33.0
 40
33.0
 40
33.0
 40
34.0
 40
34.0
 40
34.0
 40
35.0
 40
35.0
 40
35.0
 40
36.0
 40
36.0
 40
36.0
 40
37.0
 40
37.0
 40
37.0
 40
38.0
 40
38.0
 40
38.0
 40
39.0
 40
39.0
 40
39.0
 40
40.0
 40
40.0
 40
40.0
 40
41.0
 40
41.0
 40
41.0
 40
42.0
 40
42.0
 40
42.0
 40
43.0
 40
43.0
 40
43.0
 40
44.0
 40
44.0
 40
44.0
 40
45.0
 40
45.0
 40
45.0
 40
46.0
 40
46.0
 40
46.0
 40
47.0
 40
47.0
 40
47.0
 40
48.0
 40
48.0
 40
48.0
 40
49.0
 40
49.0
 40
49.0
 40
50.0
 40
50.0
 40
50.0
 40
51.0
 40
51.0
 40
51.0
 40
52.0
 40
52.0
 40
52.0
 40
53.0
 40
53.0
 40
53.0
 40
54.0
 40
54.0
 40
54.0
 40
55.0
 40
55.0
 40
55.0
 40
56.0
 40
56.0
 40
56.0
 40
57.0
 40
57.0
 40
57.0
 40
58.0
 40
58.0
 40
58.0
 40
59.0
 40
59.0
 40
59.0
 40
60.0
 40
60.0
 40
60.0
 40
61.0
 40
61.0
 40
61.0
 40
62.0
 40
62.0
 40
62.0
 40
63.0
 40
63.0
 40
63.0
 40
64.0
 40
64.0
 40
64.0
 40
65.0
 40
65.0
 40
65.0
 40
66.0
 40
66.0
 40
66.0
 40
67.0
 40
67.0
 40
67.0
 40
68.0
 40
68.0
 40
68.0
 40
69.0
 40
69.0
 40
69.0
 40
70.0
 40
70.0
 40
70.0
 40
71.0
 40
71.0
 40
71.0
 40
72.0
 40
72.0
 40
72.0
 40
73.0
 40
73.0
 40
73.0
 40
74.0
 40
74.0
 40
74.0
 40
75.0
 40
75.0
 40
75.0
 40
76.0
 40
76.0
 40
76.0
 40
77.0
 40
77.0
 40
77.0
 40
78.0
 40
78.0
 40
78.0
 40
79.0
 40
79.0
 40
79.0
 40
80.0
 40
80.0
 40
80.0
 40
81.0
 40
81.0
 40
81.0
 40
82.0
 40
82.0
 40
82.0
 40
83.0
 40
83.0
 40
83.0
 40
84.0
 40
84.0
 40
84.0
 40
85.0
 40
85.0
 40
85.0
 40
86.0
 40
86.0
 40
86.0
 40
87.0
 40
87.0
 40
87.0
 40
88.0
 40
88.0
 40
88.0
 40
89.0
 40
89.0
 40
89.0
 40
90.0
 40
90.0
 40
90.0
 40
91.0
 40
91.0
 40
91.0
 40
92.0
 40
92.0
 40
92.0
 40
93.0
 40
93.0
 40
93.0
 40
94.0
 40
94.0
 40
94.0
 40
95.0
 40
95.0
 40
95.0
 40
96.0
 40
96.0
 40
96.0
 40
97.0
 40
97.0
 40
97.0
 40
98.0
 40
98.0
 40
98.0
 40
99.0
 40
99.0
 40
99.0
 40
100.0
 40
100.0
 40
100.0
 40
101.0
 40
101.0
 40
101.0
 40
102.0
 40
102.0
 40
102.0
 40
103.0
 40
103.0
 40
103.0
 40
104.0
 40
104.0
 40
104.0
 40
105.0
 40
105.0
 40
105.0
 40
106.0
 40
106.0
 40
106.0
 40
107.0
 40
107.0
 40
107.0
 40
108.0
 40
108.0
 40
108.0
 40
109.0
 40
109.0
 40
109.0
 40
110.0
 40
110.0
 40
110.0
 40
111.0
 40
111.0
 40
111.0
 40
112.0
 40
112.0
 40
112.0
 40
113.0
 40
113.0
 40
113.0
 40
114.0
 40
114.0
 40
114.0
 40
115.0
 40
115.0
 40
115.0
 40
116.0
 40
116.0
 40
116.0
 40
117.0
 40
117.0
 40
117.0
 40
118.0
 40
118.0
 40
118.0
 40
119.0
 40
119.0
 40
119.0
 40
120.0
 40
120.0
 40
120.0
 40
121.0
 40
121.0
 40
121.0
 40
122.0
 40
122.0
 40
122.0
 40
123.0
 40
123.0
 40
123.0
 40
124.0
 40
124.0
 40
124.0
 40
125.0
 40
125.0
 40
125.0
 40
126.0
 40
126.0
 40
126.0
 40
127.0
 40
127.0
 40
127.0
 40
128.0
 40
128.0
 40
128.0
 40
129.0
 40
129.0
 40
129.0
 40
130.0
 40
130.0
 40
130.0
 40
131.0
 40
131.0
 40
131.0
 40
132.0
 40
132.0
 40
132.0
 40
133.0
 40
133.0
 40
133.0
 40
134.0
 40
134.0
 40
134.0
 40
135.0
 40
135.0
 40
135.0
 40
136.0
 40
136.0
 40
136.0
 40
137.0
 40
137.0
 40
137.0
 40
138.0
 40
138.0
 40
138.0
 40
139.0
 40
139.0
 40
139.0
 40
140.0
 40
140.0
 40
140.0
 40
141.0
 40
141.0
 40
141.0
 40
142.0
 40
142.0
 40
142.0
 40
143.0
 40
143.0
 40
143.0
 40
144.0
 40
144.0
 40
144.0
 40
145.0
 40
145.0
 40
145.0
 40
146.0
 40
146.0
 40
146.0
 40
147.0
 40
147.0
 40
147.0
 40
148.0
 40
148.0
 40
148.0
 40
149.0
 40
149.0
 40
149.0
 40
150.0
 40
150.0
 40
150.0
 40
151.0
 40
151.0
 40
151.0
 40
152.0
 40
152.0
 40
152.0
 40
153.0
 40
153.0
 40
153.0
 40
154.0
 40
154.0
 40
154.0
 40
155.0
 40
155.0
 40
155.0
 40
156.0
 40
156.0
 40
156.0
 40
157.0
 40
157.0
 40
157.0
 40
158.0
 40
158.0
 40
158.0
 40
159.0
 40
159.0
 40
159.0
 40
159.0
 10
914.140625
 20
-433.02197265625
 10
914.140625
 20
-433.02197265625
 10
914.140625
 20
-415.86669921875
 10
914.140625
 20
-415.86669921875
 10
914.140625
 20
-415.86669921875
 10
771.48828125
 20
-415.86669921875
 10
771.48828125
 20
-415.86669921875
 10
781.52734375
 20
-410.89599609375
 10
791.109375
 20
-404.919921875
 10
800.13671875
 20
-398.00732421875
 10
808.7412109375
 20
-394.02587890625
 10
815.9765625
 20
-391.00439453125
 10
823.7255859375
 20
-391.00439453125
 10
827.4140625
 20
-391.00439453125
 10
830.998046875
 20
-391.69384765625
 10
834.69140625
 20
-393.103515625
 10
839.140625
 20
-394.8056640625
 10
844.91796875
 20
-397.15234375
 10
850.1328125
 20
-400.2265625
 10
850.1328125
 20
-400.2265625
 10
852.0517578125
 20
-401.38134765625
 10
852.0517578125
 20
-401.38134765625
 10
855.8828125
 20
-403.72021484375
 10
859.4970703125
 20
-405.9248046875
 10
865.5107421875
 20
-406.08984375
 10
868.318359375
 20
-406.08984375
 10
870.9541015625
 20
-404.79248046875
 10
872.73828125
 20
-402.53564453125
 10
874.61328125
 20
-400.15869140625
 10
875.3251953125
 20
-397.00244140625
 10
874.6279296875
 20
-394.0859375
 10
870.2265625
 20
-375.66357421875
 10
845.296875
 20
-374.23193359375
 10
837.76171875
 20
-374.23193359375
 10
835.287109375
 20
-374.23193359375
 10
832.8798828125
 20
-374.35888671875
 10
830.6083984375
 20
-374.6064453125
 10
828.7529296875
 20
-374.80908203125
 10
826.525390625
 20
-375.1240234375
 10
824.0400390625
 20
-375.611328125
 10
825.09375
 20
-374.38134765625
 10
826.1318359375
 20
-373.12939453125
 10
827.14453125
 20
-371.8623046875
 10
827.96484375
 20
-371.5625
 10
828.685546875
 20
-371.02978515625
 10
829.228515625
 20
-370.31005859375
 10
832.017578125
 20
-366.61376953125
 10
834.8818359375
 20
-362.61767578125
 10
837.8515625
 20
-358.47119140625
 10
856.4228515625
 20
-332.5439453125
 10
877.5517578125
 20
-303.0400390625
 10
909.275390625
 20
-305.3642578125
 10
909.638671875
 20
-305.39453125
 10
909.9951171875
 20
-305.40966796875
 10
910.33984375
 20
-305.40966796875
 10
910.33984375
 20
-305.40966796875
 10
910.33984375
 20
-305.40966796875
 10
910.34375
 20
-305.40966796875
 10
916.6826171875
 20
-305.40966796875
 10
921.32421875
 20
-300.86572265625
 10
921.6240234375
 20
-294.365234375
 10
921.912109375
 20
-288.171875
 10
917.87109375
 20
-281.19140625
 10
909.814453125
 20
-280.44189453125
 10
888.9638671875
 20
-278.50732421875
 10
874.357421875
 20
-291.56103515625
 10
863.005859375
 20
-304.28466796875
 10
860.44921875
 20
-307.14892578125
 10
857.8330078125
 20
-310.087890625
 10
855.205078125
 20
-313.1171875
 10
860.2958984375
 20
-287.89453125
 10
856.8056640625
 20
-263.33154296875
 10
844.9296875
 20
-242.51025390625
 10
841.7646484375
 20
-236.9697265625
 10
837.92578125
 20
-231.71337890625
 10
833.513671875
 20
-226.87744140625
 10
833.3828125
 20
-224.23095703125
 10
833.052734375
 20
-221.62939453125
 10
832.734375
 20
-219.0947265625
 10
832.33984375
 20
-215.9609375
 10
831.96484375
 20
-213.0068359375
 10
831.9580078125
 20
-210.0751953125
 10
831.927734375
 20
-200.89794921875
 10
834.083984375
 20
-192.93505859375
 10
838.9384765625
 20
-184.2451171875
 10
839.23828125
 20
-183.72021484375
 10
839.669921875
 20
-183.00048828125
 10
840.1904296875
 20
-182.13818359375
 10
845.896484375
 20
-172.6611328125
 10
851.666015625
 20
-161.984375
 10
847.845703125
 20
-155.2138671875
 10
846.556640625
 20
-152.94189453125
 10
843.646484375
 20
-150.19775390625
 10
837.0185546875
 20
-150.54248046875
 10
819.0390625
 20
-151.42724609375
 10
816.212890625
 20
-180.86376953125
 10
815.1484375
 20
-191.9453125
 10
814.66015625
 20
-197.00634765625
 10
813.9931640625
 20
-203.91162109375
 10
814.251953125
 20
-210.9521484375
 10
800.7109375
 20
-202.64501953125
 10
785.25
 20
-198.14599609375
 10
769.9365234375
 20
-198.14599609375
 10
756.6796875
 20
-198.14599609375
 10
743.75
 20
-201.57275390625
 10
732.4736328125
 20
-208.06591796875
 10
726.869140625
 20
-208.45556640625
 10
721.4931640625
 20
-207.98291015625
 10
716.626953125
 20
-206.56591796875
 10
713.5224609375
 20
-205.66650390625
 10
710.42578125
 20
-203.20703125
 10
707.1572265625
 20
-200.60546875
 10
702.2685546875
 20
-196.72119140625
 10
697.21484375
 20
-192.70263671875
 10
690.748046875
 20
-192.70263671875
 10
689.390625
 20
-192.70263671875
 10
688.0234375
 20
-192.89013671875
 10
686.6806640625
 20
-193.25732421875
 10
682.5947265625
 20
-194.38232421875
 10
679.6630859375
 20
-198.19091796875
 10
679.5576171875
 20
-202.509765625
 10
679.0927734375
 20
-219.91943359375
 10
702.5908203125
 20
-221.44921875
 10
713.8828125
 20
-222.18408203125
 10
713.8828125
 20
-222.18408203125
 10
714.6923828125
 20
-222.236328125
 10
714.6923828125
 20
-222.236328125
 10
700.814453125
 20
-237.27685546875
 10
690.955078125
 20
-260.16748046875
 10
697.40234375
 20
-282.46630859375
 10
702.1787109375
 20
-298.99853515625
 10
718.1416015625
 20
-311.4677734375
 10
734.5244140625
 20
-311.4677734375
 10
741.3994140625
 20
-311.4677734375
 10
747.998046875
 20
-309.2333984375
 10
753.5986328125
 20
-305.01953125
 10
759.064453125
 20
-300.9033203125
 10
761.216796875
 20
-294.61279296875
 10
759.20703125
 20
-288.60693359375
 10
757.298828125
 20
-282.90087890625
 10
751.998046875
 20
-279.06982421875
 10
746.0185546875
 20
-279.06982421875
 10
743.8359375
 20
-279.06982421875
 10
741.625
 20
-279.55712890625
 10
739.4423828125
 20
-280.50927734375
 10
734.6142578125
 20
-282.6162109375
 10
730.92578125
 20
-282.1513671875
 10
728.068359375
 20
-278.83740234375
 10
723.892578125
 20
-274.00146484375
 10
722.6171875
 20
-264.77880859375
 10
723.5322265625
 20
-258.5556640625
 10
725.12890625
 20
-247.74365234375
 10
731.8583984375
 20
-239.30126953125
 10
737.2236328125
 20
-234.1279296875
 10
747.0830078125
 20
-224.61328125
 10
760.87109375
 20
-219.15478515625
 10
775.0498046875
 20
-219.15478515625
 10
779.7919921875
 20
-219.15478515625
 10
784.474609375
 20
-219.76953125
 10
788.9580078125
 20
-220.97705078125
 10
796.755859375
 20
-223.076171875
 10
803.912109375
 20
-226.43505859375
 10
810.345703125
 20
-231.02392578125
 10
794.1767578125
 20
-230.49169921875
 10
780.560546875
 20
-237.734375
 10
774.45703125
 20
-250.06103515625
 10
772.58984375
 20
-253.83203125
 10
772.833984375
 20
-258.11328125
 10
775.12890625
 20
-261.81005859375
 10
777.43359375
 20
-265.52099609375
 10
781.34765625
 20
-267.82275390625
 10
785.34375
 20
-267.82275390625
 10
788.4443359375
 20
-267.82275390625
 10
791.365234375
 20
-266.4208984375
 10
793.5576171875
 20
-263.87158203125
 10
800.095703125
 20
-256.29150390625
 10
806.1806640625
 20
-249.880859375
 10
814.443359375
 20
-248.1787109375
 10
819.7890625
 20
-247.0615234375
 10
824.962890625
 20
-248.74853515625
 10
830.578125
 20
-253.412109375
 10
840.35546875
 20
-270.16259765625
 10
844.171875
 20
-291.09619140625
 10
841.052734375
 20
-310.97998046875
 10
836.130859375
 20
-342.3134765625
 10
817.705078125
 20
-369.927734375
 10
789.228515625
 20
-389.71435546875
 10
789.404296875
 20
-389.45947265625
 10
789.580078125
 20
-389.20458984375
 10
789.7568359375
 20
-388.9423828125
 10
801.6484375
 20
-371.33740234375
 10
805.048828125
 20
-344.8701171875
 10
787.927734375
 20
-330.48974609375
 10
785.7490234375
 20
-328.66015625
 10
782.9296875
 20
-327.6552734375
 10
779.990234375
 20
-327.6552734375
 10
775.94140625
 20
-327.6552734375
 10
772.2080078125
 20
-329.46240234375
 10
769.98828125
 20
-332.4990234375
 10
767.95703125
 20
-335.27294921875
 10
767.4541015625
 20
-338.751953125
 10
768.5791015625
 20
-342.28369140625
 10
774.6708984375
 20
-361.38037109375
 10
779.076171875
 20
-375.17626953125
 10
765.3134765625
 20
-391.63427734375
 10
762.6220703125
 20
-394.8505859375
 10
759.4130859375
 20
-397.8720703125
 10
755.5859375
 20
-400.8037109375
 10
751.859375
 20
-386.13818359375
 10
740.927734375
 20
-373.11474609375
 10
731.0712890625
 20
-365.27197265625
 10
720.5185546875
 20
-356.86669921875
 10
707.9072265625
 20
-351.12353515625
 10
691.4716796875
 20
-347.2470703125
 10
666.97265625
 20
-319.0029296875
 10
632.119140625
 20
-302.83740234375
 10
595.634765625
 20
-302.83740234375
 10
580.80078125
 20
-302.83740234375
 10
565.6962890625
 20
-305.43212890625
 10
550.73828125
 20
-310.552734375
 10
550.73828125
 20
-310.552734375
 10
550.4453125
 20
-310.65771484375
 10
550.4453125
 20
-310.65771484375
 10
545.8271484375
 20
-308.00341796875
 10
541.658203125
 20
-305.3642578125
 10
537.744140625
 20
-302.6201171875
 10
520.59375
 20
-290.59375
 10
509.568359375
 20
-274.7734375
 10
507.498046875
 20
-259.22314453125
 10
505.3388671875
 20
-243.0654296875
 10
514.3212890625
 20
-228.22705078125
 10
528.8525390625
 20
-223.94580078125
 10
535.1806640625
 20
-222.08642578125
 10
538.7978515625
 20
-216.41845703125
 10
537.849609375
 20
-209.85009765625
 10
537.017578125
 20
-204.07666015625
 10
532.4248046875
 20
-198.23583984375
 10
525.2607421875
 20
-198.23583984375
 10
523.978515625
 20
-198.23583984375
 10
522.666015625
 20
-198.43115234375
 10
521.3583984375
 20
-198.8134765625
 10
501.50390625
 20
-204.6689453125
 10
486.853515625
 20
-221.20166015625
 10
482.560546875
 20
-241.93310546875
 10
481.5634765625
 20
-241.14599609375
 10
480.578125
 20
-240.39599609375
 10
479.63671875
 20
-239.68408203125
 10
479.63671875
 20
-239.68408203125
 10
478.6435546875
 20
-238.92626953125
 10
478.6435546875
 20
-238.92626953125
 10
471.25
 20
-233.29541015625
 10
461.3798828125
 20
-226.7724609375
 10
450.22265625
 20
-226.39013671875
 10
445.6533203125
 20
-226.39013671875
 10
441.9375
 20
-229.591796875
 10
440.978515625
 20
-234.35302734375
 10
439.939453125
 20
-239.49658203125
 10
442.3876953125
 20
-244.572265625
 10
446.8037109375
 20
-246.431640625
 10
450.609375
 20
-248.021484375
 10
454.4892578125
 20
-248.9208984375
 10
458.24609375
 20
-249.79833984375
 10
462.32421875
 20
-250.7431640625
 10
466.1708984375
 20
-251.63525390625
 10
469.78515625
 20
-253.33740234375
 10
472.6640625
 20
-254.6943359375
 10
475.2734375
 20
-256.763671875
 10
478.0400390625
 20
-258.953125
 10
479.25390625
 20
-259.92041015625
 10
480.46484375
 20
-260.8798828125
 10
481.7060546875
 20
-261.77978515625
 10
481.9462890625
 20
-263.84912109375
 10
482.291015625
 20
-265.89599609375
 10
482.7333984375
 20
-267.90576171875
 10
483.2060546875
 20
-270.06494140625
 10
483.783203125
 20
-272.20166015625
 10
484.4580078125
 20
-274.31591796875
 10
482.5458984375
 20
-273.55908203125
 10
480.603515625
 20
-272.87646484375
 10
478.6767578125
 20
-272.2841796875
 10
473.169921875
 20
-270.60498046875
 10
467.865234375
 20
-274.80322265625
 10
467.490234375
 20
-280.9140625
 10
467.1796875
 20
-286.0126953125
 10
470.3544921875
 20
-289.994140625
 10
475.212890625
 20
-290.59375
 10
480.341796875
 20
-291.2236328125
 10
484.94921875
 20
-291.91357421875
 10
489.373046875
 20
-294.04248046875
 10
491.041015625
 20
-294.8525390625
 10
492.6796875
 20
-295.81982421875
 10
494.4111328125
 20
-296.84716796875
 10
495.6181640625
 20
-297.55908203125
 10
496.8251953125
 20
-298.271484375
 10
498.05078125
 20
-298.93896484375
 10
505.095703125
 20
-307.50146484375
 10
514.306640625
 20
-315.1865234375
 10
525.4970703125
 20
-321.85986328125
 10
517.8681640625
 20
-326.33544921875
 10
511.3896484375
 20
-331.41943359375
 10
506.1640625
 20
-337.02001953125
 10
479.029296875
 20
-337.59375
 10
450.841796875
 20
-348.75439453125
 10
426.1064453125
 20
-360.435546875
 10
426.1064453125
 20
-360.435546875
 10
426.1064453125
 20
-300.041015625
 10
426.1064453125
 20
-300.041015625
 10
426.1064453125
 20
-233.783203125
 10
428.16796875
 20
-191.82568359375
 10
432.2841796875
 20
-174.18310546875
 10
436.400390625
 20
-156.54052734375
 10
444.5322265625
 20
-144.484375
 10
456.689453125
 20
-138.013671875
 10
468.8359375
 20
-131.54345703125
 10
494.5234375
 20
-128.3115234375
 10
533.7294921875
 20
-128.3115234375
 10
533.7294921875
 20
-128.3115234375
 10
569.021484375
 20
-128.3115234375
 10
569.021484375
 20
-128.3115234375
 10
569.021484375
 20
-128.3115234375
 10
569.021484375
 20
-101.259765625
 10
569.021484375
 20
-101.259765625
 10
569.021484375
 20
-101.259765625
 10
186.154296875
 20
-101.259765625
 10
186.154296875
 20
-101.259765625
 10
186.154296875
 20
-101.259765625
 10
186.154296875
 20
-128.3115234375
 10
186.154296875
 20
-128.3115234375
 10
186.154296875
 20
-128.3115234375
 10
203.796875
 20
-128.3115234375
 10
203.796875
 20
-128.3115234375
 10
244.1796875
 20
-128.3115234375
 10
270.34716796875
 20
-131.84326171875
 10
282.3134765625
 20
-138.8984375
 10
294.26904296875
 20
-145.9541015625
 10
302.10791015625
 20
-158.7001953125
 10
305.837890625
 20
-177.1220703125
 10
309.1669921875
 20
-193.60595703125
 10
311.00390625
 20
-228.16357421875
 10
311.3564453125
 20
-280.685546875
 10
310.78662109375
 20
-280.67822265625
 10
310.216796875
 20
-280.6142578125
 10
309.64697265625
 20
-280.6142578125
 10
292.7734375
 20
-280.6142578125
 10
275.9443359375
 20
-284.52783203125
 10
260.978515625
 20
-291.9208984375
 10
253.4921875
 20
-295.62451171875
 10
246.36181640625
 20
-300.44580078125
 10
239.388671875
 20
-306.5341796875
 10
240.7646484375
 20
-296.322265625
 10
241.1806640625
 20
-284.25830078125
 10
236.236328125
 20
-274.166015625
 10
234.41796875
 20
-270.45458984375
 10
230.9990234375
 20
-268.3330078125
 10
226.8447265625
 20
-268.3330078125
 10
223.2724609375
 20
-268.3330078125
 10
219.669921875
 20
-269.94482421875
 10
217.21044921875
 20
-272.64404296875
 10
215.0361328125
 20
-275.03564453125
 10
213.994140625
 20
-278.04248046875
 10
214.2822265625
 20
-281.1015625
 10
214.740234375
 20
-285.990234375
 10
215.98046875
 20
-290.60107421875
 10
217.1806640625
 20
-295.0625
 10
218.49609375
 20
-299.9736328125
 10
219.7412109375
 20
-304.60693359375
 10
219.98828125
 20
-309.48828125
 10
220.18701171875
 20
-313.42431640625
 10
219.4599609375
 20
-317.42822265625
 10
218.6953125
 20
-321.66455078125
 10
218.177734375
 20
-324.50634765625
 10
217.6455078125
 20
-327.4228515625
 10
217.4013671875
 20
-330.39208984375
 10
213.1767578125
 20
-335.80517578125
 10
209.0751953125
 20
-341.44384765625
 10
205.08642578125
 20
-346.98486328125
 10
205.0341796875
 20
-339.6669921875
 10
203.98828125
 20
-333.21875
 10
203.33984375
 20
-329.90478515625
 10
202.439453125
 20
-325.32373046875
 10
198.76220703125
 20
-322.36962890625
 10
193.96728515625
 20
-322.36962890625
 10
190.154296875
 20
-322.36962890625
 10
186.37939453125
 20
-324.28125
 10
184.34765625
 20
-327.2353515625
 10
182.54052734375
 20
-329.87451171875
 10
182.2109375
 20
-333.0537109375
 10
183.41796875
 20
-336.1953125
 10
185.689453125
 20
-342.06591796875
 10
187.59033203125
 20
-347.41943359375
 10
187.84912109375
 20
-353.462890625
 10
187.93896484375
 20
-355.7197265625
 10
187.837890625
 20
-358.02880859375
 10
187.72900390625
 20
-360.4658203125
 10
187.5869140625
 20
-363.697265625
 10
187.4365234375
 20
-367.03369140625
 10
187.7666015625
 20
-370.392578125
 10
184.5576171875
 20
-374.43408203125
 10
181.509765625
 20
-378.025390625
 10
178.521484375
 20
-381.27197265625
 10
178.57421875
 20
-373.33935546875
 10
176.4638671875
 20
-365.51171875
 10
172.43359375
 20
-359.78369140625
 10
170.4091796875
 20
-356.88916015625
 10
166.4619140625
 20
-355.5546875
 10
163.2978515625
 20
-356.84423828125
 10
161.95166015625
 20
-357.38427734375
 10
161.08203125
 20
-358.09619140625
 10
160.4296875
 20
-358.70361328125
 10
158.3154296875
 20
-360.63818359375
 10
157.5693359375
 20
-364.14697265625
 10
158.6865234375
 20
-366.84619140625
 10
158.6865234375
 20
-366.84619140625
 10
158.8662109375
 20
-367.28125
 10
158.8662109375
 20
-367.28125
 10
161.0478515625
 20
-372.59716796875
 10
162.93359375
 20
-377.193359375
 10
162.85888671875
 20
-382.6591796875
 10
162.78759765625
 20
-388.3349609375
 10
160.654296875
 20
-393.6884765625
 10
158.5029296875
 20
-398.92919921875
 10
157.1455078125
 20
-399.85888671875
 10
155.7734375
 20
-400.76611328125
 10
154.3564453125
 20
-401.62109375
 10
144.4365234375
 20
-407.5966796875
 10
132.35791015625
 20
-411.0234375
 10
121.2314453125
 20
-411.0234375
 10
110.08203125
 20
-411.0234375
 10
90.3330078125
 20
-407.5966796875
 10
83.375
 20
-384.638671875
 10
79.2060546875
 20
-370.90283203125
 10
84.20703125
 20
-355.5322265625
 10
95.2587890625
 20
-348.07958984375
 10
102.01806640625
 20
-343.5283203125
 10
109.5498046875
 20
-343.10107421875
 10
115.6376953125
 20
-346.95458984375
 10
118.83935546875
 20
-349.02392578125
 10
121.2802734375
 20
-351.74560546875
 10
123.14697265625
 20
-355.37451171875
 10
123.33056640625
 20
-355.7119140625
 10
123.5029296875
 20
-356.04931640625
 10
123.65673828125
 20
-356.38671875
 10
118.1796875
 20
-356.3720703125
 10
112.7998046875
 20
-358.8759765625
 10
109.55712890625
 20
-363.1123046875
 10
106.2802734375
 20
-367.40869140625
 10
105.388671875
 20
-373.12939453125
 10
107.052734375
 20
-379.23291015625
 10
109.13720703125
 20
-386.88818359375
 10
115.5927734375
 20
-391.83642578125
 10
123.4990234375
 20
-391.83642578125
 10
126.30712890625
 20
-391.83642578125
 10
129.19384765625
 20
-391.19189453125
 10
131.8369140625
 20
-389.96923828125
 10
143.724609375
 20
-384.48876953125
 10
147.1396484375
 20
-370.36279296875
 10
146.4541015625
 20
-359.93310546875
 10
145.0888671875
 20
-338.94677734375
 10
127.4541015625
 20
-321.8671875
 10
107.142578125
 20
-321.8671875
 10
104.8037109375
 20
-321.8671875
 10
102.46044921875
 20
-322.099609375
 10
100.173828125
 20
-322.55712890625
 10
78.70361328125
 20
-326.83837890625
 10
61.4287109375
 20
-349.1513671875
 10
60.8515625
 20
-373.3544921875
 10
60.2666015625
 20
-397.54248046875
 10
75.412109375
 20
-420.34326171875
 10
97.6884765625
 20
-428.80029296875
 10
101.654296875
 20
-430.3076171875
 10
105.80859375
 20
-431.39501953125
 10
110.07421875
 20
-432.06201171875
 10
110.07421875
 20
-432.06201171875
 10
110.07421875
 20
-433.02197265625
 10
110.07421875
 20
-433.02197265625
 10
110.07421875
 20
-433.02197265625
 10
914.140625
 20
-433.02197265625
 10
914.140625
 20
-433.02197265625
 97
        0
 92
        1
 93
        1
 72
     4
 94
        3
 73
     0
 74
     1
 95
       23
 96
       19
 40
0.0
 40
0.0
 40
0.0
 40
0.0
 40
1.0
 40
1.0
 40
1.0
 40
2.0
 40
2.0
 40
2.0
 40
3.0
 40
3.0
 40
3.0
 40
4.0
 40
4.0
 40
4.0
 40
5.0
 40
5.0
 40
5.0
 40
6.0
 40
6.0
 40
6.0
 40
6.0
 10
726.6513671875
 20
-379.41259765625
 10
735.4990234375
 20
-387.3828125
 10
740.78515625
 20
-396.46240234375
 10
743.5888671875
 20
-408.57177734375
 10
739.158203125
 20
-411.05322265625
 10
734.6962890625
 20
-413.25732421875
 10
730.767578125
 20
-415.1396484375
 10
729.658203125
 20
-415.39453125
 10
728.5556640625
 20
-415.63427734375
 10
727.4462890625
 20
-415.86669921875
 10
727.4462890625
 20
-415.86669921875
 10
722.962890625
 20
-415.86669921875
 10
722.962890625
 20
-415.86669921875
 10
720.4736328125
 20
-398.39697265625
 10
714.392578125
 20
-381.43701171875
 10
705.173828125
 20
-366.12646484375
 10
713.560546875
 20
-369.59814453125
 10
720.6455078125
 20
-373.99169921875
 10
726.6513671875
 20
-379.41259765625
 97
        0
 92
        1
 93
        1
 72
     4
 94
        3
 73
     0
 74
     1
 95
       20
 96
       16
 40
0.0
 40
0.0
 40
0.0
 40
0.0
 40
1.0
 40
1.0
 40
1.0
 40
2.0
 40
2.0
 40
2.0
 40
3.0
 40
3.0
 40
3.0
 40
4.0
 40
4.0
 40
4.0
 40
5.0
 40
5.0
 40
5.0
 40
5.0
 10
627.201171875
 20
-320.9072265625
 10
638.02734375
 20
-324.01904296875
 10
651.103515625
 20
-331.869140625
 10
663.546875
 20
-342.568359375
 10
660.9111328125
 20
-342.23876953125
 10
658.2939453125
 20
-341.93115234375
 10
655.71484375
 20
-341.62353515625
 10
652.033203125
 20
-341.18896484375
 10
648.3779296875
 20
-340.75390625
 10
644.7607421875
 20
-340.28173828125
 10
617.3525390625
 20
-336.71240234375
 10
592.5908203125
 20
-330.21240234375
 10
570.994140625
 20
-320.92236328125
 10
590.4091796875
 20
-316.3037109375
 10
611.001953125
 20
-316.2587890625
 10
627.201171875
 20
-320.9072265625
 97
        0
 92
        1
 93
        1
 72
     4
 94
        3
 73
     0
 74
     1
 95
       35
 96
       31
 40
0.0
 40
0.0
 40
0.0
 40
0.0
 40
1.0
 40
1.0
 40
1.0
 40
2.0
 40
2.0
 40
2.0
 40
3.0
 40
3.0
 40
3.0
 40
4.0
 40
4.0
 40
4.0
 40
5.0
 40
5.0
 40
5.0
 40
6.0
 40
6.0
 40
6.0
 40
7.0
 40
7.0
 40
7.0
 40
8.0
 40
8.0
 40
8.0
 40
9.0
 40
9.0
 40
9.0
 40
10.0
 40
10.0
 40
10.0
 40
10.0
 10
543.4951171875
 20
-330.99169921875
 10
546.63671875
 20
-332.34130859375
 10
549.890625
 20
-333.63134765625
 10
553.1826171875
 20
-334.83837890625
 10
583.173828125
 20
-345.79248046875
 10
614.056640625
 20
-349.84912109375
 10
643.9208984375
 20
-353.77001953125
 10
653.798828125
 20
-355.0673828125
 10
664.0146484375
 20
-356.40966796875
 10
674.1220703125
 20
-357.98388671875
 10
676.109375
 20
-358.298828125
 10
678.087890625
 20
-358.62890625
 10
680.064453125
 20
-358.99609375
 10
697.095703125
 20
-378.587890625
 10
706.400390625
 20
-399.0341796875
 10
706.0400390625
 20
-415.86669921875
 10
706.0400390625
 20
-415.86669921875
 10
570.3671875
 20
-415.86669921875
 10
570.3671875
 20
-415.86669921875
 10
571.728515625
 20
-413.947265625
 10
572.9052734375
 20
-411.89306640625
 10
573.8916015625
 20
-409.72607421875
 10
583.7958984375
 20
-387.9150390625
 10
571.7919921875
 20
-362.57275390625
 10
554.45703125
 20
-350.666015625
 10
546.974609375
 20
-345.5302734375
 10
538.7080078125
 20
-341.81103515625
 10
529.79296875
 20
-339.56201171875
 10
533.8984375
 20
-336.4501953125
 10
538.490234375
 20
-333.57861328125
 10
543.4951171875
 20
-330.99169921875
 97
        0
 92
        1
 93
        1
 72
     4
 94
        3
 73
     0
 74
     1
 95
       23
 96
       19
 40
0.0
 40
0.0
 40
0.0
 40
0.0
 40
1.0
 40
1.0
 40
1.0
 40
2.0
 40
2.0
 40
2.0
 40
3.0
 40
3.0
 40
3.0
 40
4.0
 40
4.0
 40
4.0
 40
5.0
 40
5.0
 40
5.0
 40
6.0
 40
6.0
 40
6.0
 40
6.0
 10
514.0888671875
 20
-356.24462890625
 10
529.1708984375
 20
-356.89697265625
 10
540.7998046875
 20
-361.23046875
 10
548.6796875
 20
-369.14794921875
 10
555.8369140625
 20
-376.33837890625
 10
559.896484375
 20
-387.15771484375
 10
558.775390625
 20
-396.07275390625
 10
557.958984375
 20
-402.60302734375
 10
554.615234375
 20
-407.65673828125
 10
548.8486328125
 20
-411.0908203125
 10
544.8974609375
 20
-413.44482421875
 10
540.6728515625
 20
-414.63720703125
 10
536.2900390625
 20
-414.63720703125
 10
523.048828125
 20
-414.63720703125
 10
510.3212890625
 20
-403.63037109375
 10
507.318359375
 20
-389.58740234375
 10
504.349609375
 20
-375.71630859375
 10
509.091796875
 20
-364.0498046875
 10
514.0888671875
 20
-356.24462890625
 97
        0
 92
        1
 93
        1
 72
     4
 94
        3
 73
     0
 74
     1
 95
       20
 96
       16
 40
0.0
 40
0.0
 40
0.0
 40
0.0
 40
1.0
 40
1.0
 40
1.0
 40
2.0
 40
2.0
 40
2.0
 40
3.0
 40
3.0
 40
3.0
 40
4.0
 40
4.0
 40
4.0
 40
5.0
 40
5.0
 40
5.0
 40
5.0
 10
492.84765625
 20
-357.5341796875
 10
491.7080078125
 20
-360.28564453125
 10
490.767578125
 20
-363.09716796875
 10
490.0361328125
 20
-365.93896484375
 10
485.451171875
 20
-383.79150390625
 10
489.447265625
 20
-402.74560546875
 10
499.9970703125
 20
-415.86669921875
 10
499.9970703125
 20
-415.86669921875
 10
440.490234375
 20
-415.86669921875
 10
440.490234375
 20
-415.86669921875
 10
439.6435546875
 20
-404.18505859375
 10
436.62890625
 20
-391.6640625
 10
431.5087890625
 20
-378.52783203125
 10
449.166015625
 20
-369.82275390625
 10
469.875
 20
-360.9755859375
 10
492.84765625
 20
-357.5341796875
 97
        0
 92
        1
 93
        1
 72
     4
 94
        3
 73
     0
 74
     1
 95
       44
 96
       40
 40
0.0
 40
0.0
 40
0.0
 40
0.0
 40
1.0
 40
1.0
 40
1.0
 40
2.0
 40
2.0
 40
2.0
 40
3.0
 40
3.0
 40
3.0
 40
4.0
 40
4.0
 40
4.0
 40
5.0
 40
5.0
 40
5.0
 40
6.0
 40
6.0
 40
6.0
 40
7.0
 40
7.0
 40
7.0
 40
8.0
 40
8.0
 40
8.0
 40
9.0
 40
9.0
 40
9.0
 40
10.0
 40
10.0
 40
10.0
 40
11.0
 40
11.0
 40
11.0
 40
12.0
 40
12.0
 40
12.0
 40
13.0
 40
13.0
 40
13.0
 40
13.0
 10
168.9169921875
 20
-415.86669921875
 10
170.4541015625
 20
-414.77197265625
 10
171.97265625
 20
-413.63232421875
 10
173.46484375
 20
-412.45556640625
 10
190.630859375
 20
-398.83935546875
 10
202.99462890625
 20
-380.66455078125
 10
214.95361328125
 20
-363.08984375
 10
220.58447265625
 20
-354.8125
 10
226.40625
 20
-346.25732421875
 10
232.6298828125
 20
-338.33984375
 10
253.1025390625
 20
-312.27734375
 10
279.5693359375
 20
-298.44384765625
 10
309.50830078125
 20
-298.3388671875
 10
310.1494140625
 20
-298.3388671875
 10
310.78271484375
 20
-298.38037109375
 10
311.419921875
 20
-298.3916015625
 10
311.423828125
 20
-298.9501953125
 10
311.423828125
 20
-299.478515625
 10
311.423828125
 20
-300.041015625
 10
311.423828125
 20
-300.041015625
 10
311.423828125
 20
-329.0087890625
 10
311.423828125
 20
-329.0087890625
 10
306.29541015625
 20
-320.52099609375
 10
297.96875
 20
-314.60546875
 10
287.921875
 20
-312.52490234375
 10
285.03515625
 20
-311.92529296875
 10
282.0810546875
 20
-311.61767578125
 10
279.14208984375
 20
-311.61767578125
 10
258.4482421875
 20
-311.61767578125
 10
237.89306640625
 20
-327.32568359375
 10
230.26416015625
 20
-348.9716796875
 10
222.04296875
 20
-372.31982421875
 10
228.6142578125
 20
-398.30712890625
 10
246.61669921875
 20
-413.63232421875
 10
247.52392578125
 20
-414.3974609375
 10
248.45361328125
 20
-415.14697265625
 10
249.40625
 20
-415.86669921875
 10
249.40625
 20
-415.86669921875
 10
168.9169921875
 20
-415.86669921875
 10
168.9169921875
 20
-415.86669921875
 97
        0
 92
        1
 93
        1
 72
     4
 94
        3
 73
     0
 74
     1
 95
       41
 96
       37
 40
0.0
 40
0.0
 40
0.0
 40
0.0
 40
1.0
 40
1.0
 40
1.0
 40
2.0
 40
2.0
 40
2.0
 40
3.0
 40
3.0
 40
3.0
 40
4.0
 40
4.0
 40
4.0
 40
5.0
 40
5.0
 40
5.0
 40
6.0
 40
6.0
 40
6.0
 40
7.0
 40
7.0
 40
7.0
 40
8.0
 40
8.0
 40
8.0
 40
9.0
 40
9.0
 40
9.0
 40
10.0
 40
10.0
 40
10.0
 40
11.0
 40
11.0
 40
11.0
 40
12.0
 40
12.0
 40
12.0
 40
12.0
 10
269.7626953125
 20
-400.1513671875
 10
254.4072265625
 20
-391.65673828125
 10
247.9287109375
 20
-374.029296875
 10
254.009765625
 20
-357.279296875
 10
257.27099609375
 20
-348.28173828125
 10
263.4716796875
 20
-341.72119140625
 10
271.4716796875
 20
-338.79736328125
 10
277.3916015625
 20
-336.63037109375
 10
281.7626953125
 20
-336.37548828125
 10
285.0732421875
 20
-337.9873046875
 10
287.49462890625
 20
-339.16455078125
 10
290.42626953125
 20
-342.26123046875
 10
290.9365234375
 20
-345.2001953125
 10
291.19140625
 20
-346.669921875
 10
290.7939453125
 20
-347.876953125
 10
289.68408203125
 20
-349.0166015625
 10
285.3203125
 20
-353.47021484375
 10
284.0908203125
 20
-359.0634765625
 10
286.3173828125
 20
-364.36474609375
 10
288.6494140625
 20
-369.91259765625
 10
294.3291015625
 20
-373.78955078125
 10
300.125
 20
-373.78955078125
 10
304.6533203125
 20
-373.78955078125
 10
308.57470703125
 20
-371.47216796875
 10
311.1650390625
 20
-367.28125
 10
311.2587890625
 20
-367.12353515625
 10
311.330078125
 20
-366.95849609375
 10
311.423828125
 20
-366.80126953125
 10
311.423828125
 20
-366.80126953125
 10
311.423828125
 20
-406.62939453125
 10
311.423828125
 20
-406.62939453125
 10
307.60009765625
 20
-407.0908203125
 10
303.802734375
 20
-407.3642578125
 10
300.0419921875
 20
-407.3642578125
 10
288.6083984375
 20
-407.3642578125
 10
278.42236328125
 20
-404.94287109375
 10
269.7626953125
 20
-400.1513671875
 97
        0
 75
     2
 76
     1
 98
        0
  0
ENDBLK
  5
3F
330
3C
100
AcDbEntity
  8
0
100
AcDbBlockEnd
  0
ENDSEC
  0
SECTION
  2
ENTITIES
  0
INSERT
  5
3D
330
1F
100
AcDbEntity
  8
Layer 1
100
AcDbBlockReference
  2
block 2
 10
0.0
 20
0.0
 30
0.0
  0
ENDSEC
  0
SECTION
  2
OBJECTS
  0
DICTIONARY
  5
C
330
0
100
AcDbDictionary
281
     1
  3
ACAD_GROUP
350
D
  3
ACAD_LAYOUT
350
1A
  3
ACAD_MLINESTYLE
350
17
  3
ACAD_PLOTSETTINGS
350
19
  3
ACAD_PLOTSTYLENAME
350
E
  3
ACAD_TABLESTYLE
350
5F
  3
ACAD_VISUALSTYLE
350
2A
  0
DICTIONARY
  5
D
102
{ACAD_REACTORS
330
C
102
}
330
C
100
AcDbDictionary
281
     1
  0
DICTIONARY
  5
1A
102
{ACAD_REACTORS
330
C
102
}
330
C
100
AcDbDictionary
281
     1
  3
Layout1
350
1E
  3
Layout2
350
26
  3
Model
350
22
  0
DICTIONARY
  5
17
102
{ACAD_REACTORS
330
C
102
}
330
C
100
AcDbDictionary
281
     1
  3
Standard
350
18
  0
DICTIONARY
  5
19
102
{ACAD_REACTORS
330
C
102
}
330
C
100
AcDbDictionary
281
     1
  0
ACDBDICTIONARYWDFLT
  5
E
102
{ACAD_REACTORS
330
C
102
}
330
C
100
AcDbDictionary
281
     1
  3
Normal
350
F
100
AcDbDictionaryWithDefault
340
F
  0
DICTIONARY
  5
5F
102
{ACAD_REACTORS
330
C
102
}
330
C
100
AcDbDictionary
281
     1
  0
DICTIONARY
  5
2A
102
{ACAD_REACTORS
330
C
102
}
330
C
100
AcDbDictionary
281
     1
  3
2dWireframe
350
2F
  3
3D Hidden
350
31
  3
3dWireframe
350
30
  3
Basic
350
32
  3
Brighten
350
36
  3
ColorChange
350
3A
  3
Conceptual
350
34
  3
Dim
350
35
  3
Facepattern
350
39
  3
Flat
350
2B
  3
FlatWithEdges
350
2C
  3
Gouraud
350
2D
  3
GouraudWithEdges
350
2E
  3
Linepattern
350
38
  3
Realistic
350
33
  3
Thicken
350
37
  0
LAYOUT
  5
1E
102
{ACAD_REACTORS
330
1A
102
}
330
1A
100
AcDbPlotSettings
  1

  2
none_device
  4

  6

 40
0.0
 41
0.0
 42
0.0
 43
0.0
 44
0.0
 45
0.0
 46
0.0
 47
0.0
 48
0.0
 49
0.0
140
0.0
141
0.0
142
1.0
143
1.0
 70
   688
 72
     0
 73
     0
 74
     5
  7

 75
    16
147
1.0
148
0.0
149
0.0
100
AcDbLayout
  1
Layout1
 70
     1
 71
     1
 10
0.0
 20
0.0
 11
12.0
 21
9.0
 12
0.0
 22
0.0
 32
0.0
 14
1.000000000000000E+20
 24
1.000000000000000E+20
 34
1.000000000000000E+20
 15
-1.000000000000000E+20
 25
-1.000000000000000E+20
 35
-1.000000000000000E+20
146
0.0
 13
0.0
 23
0.0
 33
0.0
 16
1.0
 26
0.0
 36
0.0
 17
0.0
 27
1.0
 37
0.0
 76
     0
330
1B
  0
LAYOUT
  5
26
102
{ACAD_REACTORS
330
1A
102
}
330
1A
100
AcDbPlotSettings
  1

  2
none_device
  4

  6

 40
0.0
 41
0.0
 42
0.0
 43
0.0
 44
0.0
 45
0.0
 46
0.0
 47
0.0
 48
0.0
 49
0.0
140
0.0
141
0.0
142
1.0
143
1.0
 70
   688
 72
     0
 73
     0
 74
     5
  7

 75
    16
147
1.0
148
0.0
149
0.0
100
AcDbLayout
  1
Layout2
 70
     1
 71
     2
 10
0.0
 20
0.0
 11
0.0
 21
0.0
 12
0.0
 22
0.0
 32
0.0
 14
0.0
 24
0.0
 34
0.0
 15
0.0
 25
0.0
 35
0.0
146
0.0
 13
0.0
 23
0.0
 33
0.0
 16
1.0
 26
0.0
 36
0.0
 17
0.0
 27
1.0
 37
0.0
 76
     0
330
23
  0
LAYOUT
  5
22
102
{ACAD_REACTORS
330
1A
102
}
330
1A
100
AcDbPlotSettings
  1

  2
none_device
  4

  6

 40
0.0
 41
0.0
 42
0.0
 43
0.0
 44
0.0
 45
0.0
 46
0.0
 47
0.0
 48
0.0
 49
0.0
140
0.0
141
0.0
142
1.0
143
1.0
 70
  1712
 72
     0
 73
     0
 74
     0
  7

 75
     0
147
1.0
148
0.0
149
0.0
100
AcDbLayout
  1
Model
 70
     1
 71
     0
 10
0.0
 20
0.0
 11
12.0
 21
9.0
 12
0.0
 22
0.0
 32
0.0
 14
1.000000000000000E+20
 24
1.000000000000000E+20
 34
1.000000000000000E+20
 15
-1.000000000000000E+20
 25
-1.000000000000000E+20
 35
-1.000000000000000E+20
146
0.0
 13
0.0
 23
0.0
 33
0.0
 16
1.0
 26
0.0
 36
0.0
 17
0.0
 27
1.0
 37
0.0
 76
     0
330
1F
331
29
  0
MLINESTYLE
  5
18
102
{ACAD_REACTORS
330
17
102
}
330
17
100
AcDbMlineStyle
  2
Standard
 70
     0
  3

 62
   256
 51
90.0
 52
90.0
 71
     2
 49
0.5
 62
   256
  6
BYLAYER
 49
-0.5
 62
   256
  6
BYLAYER
  0
ACDBPLACEHOLDER
  5
F
102
{ACAD_REACTORS
330
E
102
}
330
E
  0
VISUALSTYLE
  5
2F
102
{ACAD_REACTORS
330
2A
102
}
330
2A
100
AcDbVisualStyle
  2
2dWireframe
 70
     4
 71
     0
 72
     2
 73
     0
 90
        0
 40
-0.6
 41
-30.0
 62
     5
 63
     7
 74
     1
 91
        4
 64
     7
 65
   257
 75
     1
175
     1
 42
1.0
 92
        0
 66
   257
 43
1.0
 76
     1
 77
     6
 78
     2
 67
     7
 79
     5
170
     0
171
     0
290
     0
174
     0
 93
        1
 44
0.0
173
     0
291
     0
 45
0.0
1001
ACAD
1000
AcDbSavedByObjectVersion
1070
     0
  0
VISUALSTYLE
  5
31
102
{ACAD_REACTORS
330
2A
102
}
330
2A
100
AcDbVisualStyle
  2
3D Hidden
 70
     6
 71
     1
 72
     2
 73
     2
 90
        0
 40
-0.6
 41
-30.0
 62
     5
 63
     7
 74
     2
 91
        2
 64
     7
 65
   257
 75
     2
175
     1
 42
40.0
 92
        0
 66
   257
 43
1.0
 76
     1
 77
     6
 78
     2
 67
     7
 79
     3
170
     0
171
     0
290
     0
174
     0
 93
        1
 44
0.0
173
     0
291
     0
 45
0.0
1001
ACAD
1000
AcDbSavedByObjectVersion
1070
     0
  0
VISUALSTYLE
  5
30
102
{ACAD_REACTORS
330
2A
102
}
330
2A
100
AcDbVisualStyle
  2
3dWireframe
 70
     5
 71
     0
 72
     2
 73
     0
 90
        0
 40
-0.6
 41
-30.0
 62
     5
 63
     7
 74
     1
 91
        4
 64
     7
 65
   257
 75
     1
175
     1
 42
1.0
 92
        0
 66
   257
 43
1.0
 76
     1
 77
     6
 78
     2
 67
     7
 79
     5
170
     0
171
     0
290
     0
174
     0
 93
        1
 44
0.0
173
     0
291
     0
 45
0.0
1001
ACAD
1000
AcDbSavedByObjectVersion
1070
     0
  0
VISUALSTYLE
  5
32
102
{ACAD_REACTORS
330
2A
102
}
330
2A
100
AcDbVisualStyle
  2
Basic
 70
     7
 71
     1
 72
     0
 73
     1
 90
        0
 40
-0.6
 41
-30.0
 62
     5
 63
     7
 74
     0
 91
        4
 64
     7
 65
   257
 75
     1
175
     1
 42
1.0
 92
        8
 66
     7
 43
1.0
 76
     1
 77
     6
 78
     2
 67
     7
 79
     5
170
     0
171
     0
290
     0
174
     0
 93
        1
 44
0.0
173
     0
291
     1
 45
0.0
1001
ACAD
1000
AcDbSavedByObjectVersion
1070
     0
  0
VISUALSTYLE
  5
36
102
{ACAD_REACTORS
330
2A
102
}
330
2A
100
AcDbVisualStyle
  2
Brighten
 70
    12
 71
     2
 72
     2
 73
     0
 90
        0
 40
-0.6
 41
-30.0
 62
     5
 63
     7
 74
     1
 91
        4
 64
     7
 65
   257
 75
     1
175
     1
 42
1.0
 92
        8
 66
     7
 43
1.0
 76
     1
 77
     6
 78
     2
 67
     7
 79
     5
170
     0
171
     0
290
     0
174
     0
 93
        1
 44
50.0
173
     0
291
     1
 45
0.0
1001
ACAD
1000
AcDbSavedByObjectVersion
1070
     0
  0
VISUALSTYLE
  5
3A
102
{ACAD_REACTORS
330
2A
102
}
330
2A
100
AcDbVisualStyle
  2
ColorChange
 70
    16
 71
     2
 72
     2
 73
     3
 90
        0
 40
-0.6
 41
-30.0
 62
     5
 63
     8
 74
     1
 91
        4
 64
     7
 65
   257
 75
     1
175
     1
 42
1.0
 92
        8
 66
     8
 43
1.0
 76
     1
 77
     6
 78
     2
 67
     7
 79
     5
170
     0
171
     0
290
     0
174
     0
 93
        1
 44
0.0
173
     0
291
     1
 45
0.0
1001
ACAD
1000
AcDbSavedByObjectVersion
1070
     0
  0
VISUALSTYLE
  5
34
102
{ACAD_REACTORS
330
2A
102
}
330
2A
100
AcDbVisualStyle
  2
Conceptual
 70
     9
 71
     3
 72
     2
 73
     0
 90
        0
 40
-0.6
 41
-30.0
 62
     5
 63
     7
 74
     2
 91
        2
 64
     7
 65
   257
 75
     1
175
     1
 42
40.0
 92
        8
 66
     7
 43
1.0
 76
     1
 77
     6
 78
     2
 67
     7
 79
     3
170
     0
171
     0
290
     0
174
     0
 93
        1
 44
0.0
173
     0
291
     0
 45
0.0
1001
ACAD
1000
AcDbSavedByObjectVersion
1070
     0
  0
VISUALSTYLE
  5
35
102
{ACAD_REACTORS
330
2A
102
}
330
2A
100
AcDbVisualStyle
  2
Dim
 70
    11
 71
     2
 72
     2
 73
     0
 90
        0
 40
-0.6
 41
-30.0
 62
     5
 63
     7
 74
     1
 91
        4
 64
     7
 65
   257
 75
     1
175
     1
 42
1.0
 92
        8
 66
     7
 43
1.0
 76
     1
 77
     6
 78
     2
 67
     7
 79
     5
170
     0
171
     0
290
     0
174
     0
 93
        1
 44
-50.0
173
     0
291
     1
 45
0.0
1001
ACAD
1000
AcDbSavedByObjectVersion
1070
     0
  0
VISUALSTYLE
  5
39
102
{ACAD_REACTORS
330
2A
102
}
330
2A
100
AcDbVisualStyle
  2
Facepattern
 70
    15
 71
     2
 72
     2
 73
     0
 90
        0
 40
-0.6
 41
-30.0
 62
     5
 63
     7
 74
     1
 91
        4
 64
     7
 65
   257
 75
     1
175
     1
 42
1.0
 92
        8
 66
     7
 43
1.0
 76
     1
 77
     6
 78
     2
 67
     7
 79
     5
170
     0
171
     0
290
     0
174
     0
 93
        1
 44
0.0
173
     0
291
     1
 45
0.0
1001
ACAD
1000
AcDbSavedByObjectVersion
1070
     0
  0
VISUALSTYLE
  5
2B
102
{ACAD_REACTORS
330
2A
102
}
330
2A
100
AcDbVisualStyle
  2
Flat
 70
     0
 71
     2
 72
     1
 73
     1
 90
        2
 40
-0.6
 41
30.0
 62
     5
 63
     7
 74
     0
 91
        4
 64
     7
 65
   257
 75
     1
175
     1
 42
1.0
 92
        8
 66
     7
 43
1.0
 76
     1
 77
     6
 78
     2
 67
     7
 79
     5
170
     0
171
     0
290
     0
174
     0
 93
       13
 44
0.0
173
     0
291
     1
 45
0.0
1001
ACAD
1000
AcDbSavedByObjectVersion
1070
     0
  0
VISUALSTYLE
  5
2C
102
{ACAD_REACTORS
330
2A
102
}
330
2A
100
AcDbVisualStyle
  2
FlatWithEdges
 70
     1
 71
     2
 72
     1
 73
     1
 90
        2
 40
-0.6
 41
30.0
 62
     5
 63
     7
 74
     1
 91
        4
 64
     7
 65
   257
 75
     1
175
     1
 42
1.0
 92
        0
 66
   257
 43
1.0
 76
     1
 77
     6
 78
     2
 67
     7
 79
     5
170
     0
171
     0
290
     0
174
     0
 93
       13
 44
0.0
173
     0
291
     1
 45
0.0
1001
ACAD
1000
AcDbSavedByObjectVersion
1070
     0
  0
VISUALSTYLE
  5
2D
102
{ACAD_REACTORS
330
2A
102
}
330
2A
100
AcDbVisualStyle
  2
Gouraud
 70
     2
 71
     2
 72
     2
 73
     1
 90
        2
 40
-0.6
 41
30.0
 62
     5
 63
     7
 74
     0
 91
        4
 64
     7
 65
   257
 75
     1
175
     1
 42
1.0
 92
        0
 66
     7
 43
1.0
 76
     1
 77
     6
 78
     2
 67
     7
 79
     5
170
     0
171
     0
290
     0
174
     0
 93
       13
 44
0.0
173
     0
291
     1
 45
0.0
1001
ACAD
1000
AcDbSavedByObjectVersion
1070
     0
  0
VISUALSTYLE
  5
2E
102
{ACAD_REACTORS
330
2A
102
}
330
2A
100
AcDbVisualStyle
  2
GouraudWithEdges
 70
     3
 71
     2
 72
     2
 73
     1
 90
        2
 40
-0.6
 41
30.0
 62
     5
 63
     7
 74
     1
 91
        4
 64
     7
 65
   257
 75
     1
175
     1
 42
1.0
 92
        0
 66
   257
 43
1.0
 76
     1
 77
     6
 78
     2
 67
     7
 79
     5
170
     0
171
     0
290
     0
174
     0
 93
       13
 44
0.0
173
     0
291
     1
 45
0.0
1001
ACAD
1000
AcDbSavedByObjectVersion
1070
     0
  0
VISUALSTYLE
  5
38
102
{ACAD_REACTORS
330
2A
102
}
330
2A
100
AcDbVisualStyle
  2
Linepattern
 70
    14
 71
     2
 72
     2
 73
     0
 90
        0
 40
-0.6
 41
-30.0
 62
     5
 63
     7
 74
     1
 91
        4
 64
     7
 65
   257
 75
     7
175
     7
 42
1.0
 92
        8
 66
     7
 43
1.0
 76
     1
 77
     6
 78
     2
 67
     7
 79
     5
170
     0
171
     0
290
     0
174
     0
 93
        1
 44
0.0
173
     0
291
     1
 45
0.0
1001
ACAD
1000
AcDbSavedByObjectVersion
1070
     0
  0
VISUALSTYLE
  5
33
102
{ACAD_REACTORS
330
2A
102
}
330
2A
100
AcDbVisualStyle
  2
Realistic
 70
     8
 71
     2
 72
     2
 73
     0
 90
        0
 40
-0.6
 41
-30.0
 62
     5
 63
     7
 74
     1
 91
        0
 64
     7
 65
   257
 75
     1
175
     1
 42
1.0
 92
        8
 66
     8
 43
1.0
 76
     1
 77
     6
 78
     2
 67
     7
 79
     5
170
     0
171
     0
290
     0
174
     0
 93
       13
 44
0.0
173
     0
291
     0
 45
0.0
1001
ACAD
1000
AcDbSavedByObjectVersion
1070
     0
  0
VISUALSTYLE
  5
37
102
{ACAD_REACTORS
330
2A
102
}
330
2A
100
AcDbVisualStyle
  2
Thicken
 70
    13
 71
     2
 72
     2
 73
     0
 90
        0
 40
-0.6
 41
-30.0
 62
     5
 63
     7
 74
     1
 91
        4
 64
     7
 65
   257
 75
     1
175
     1
 42
1.0
 92
       12
 66
     7
 43
1.0
 76
     1
 77
     6
 78
     2
 67
     7
 79
     5
170
     0
171
     0
290
     0
174
     0
 93
        1
 44
0.0
173
     0
291
     1
 45
0.0
1001
ACAD
1000
AcDbSavedByObjectVersion
1070
     0
  0
ENDSEC
  0
EOF
