999
dxflib 2.2.0.0
  0
SECTION
  2
HEADER
  9
$ACADVER
  1
AC1015
  9
$HANDSEED
  5
FFFF
  9
$INSUNITS
 70
4
  9
$DIMEXE
 40
1.25
  9
$TEXTSTYLE
  7
Standard
  9
$LIMMIN
 10
0.0
 20
0.0
  0
ENDSEC
  0
SECTION
  2
TABLES
  0
TABLE
  2
VPORT
  5
8
100
AcDbSymbolTable
 70
1
  0
VPORT
  5
30
100
AcDbSymbolTableRecord
100
AcDbViewportTableRecord
  2
*Active
 70
0
 10
0.0
 20
0.0
 11
1.0
 21
1.0
 12
286.30555555555549
 22
148.5
 13
0.0
 23
0.0
 14
10.0
 24
10.0
 15
10.0
 25
10.0
 16
0.0
 26
0.0
 36
1.0
 17
0.0
 27
0.0
 37
0.0
 40
297.0
 41
1.92798353909465
 42
50.0
 43
0.0
 44
0.0
 50
0.0
 51
0.0
 71
0
 72
100
 73
1
 74
3
 75
1
 76
1
 77
0
 78
0
281
0
 65
1
110
0.0
120
0.0
130
0.0
111
1.0
121
0.0
131
0.0
112
0.0
122
1.0
132
0.0
 79
0
146
0.0
  0
ENDTAB
  0
TABLE
  2
LTYPE
  5
5
100
AcDbSymbolTable
 70
25
  0
LTYPE
  5
14
100
AcDbSymbolTableRecord
100
AcDbLinetypeTableRecord
  2
BYBLOCK
 70
0
  3

 72
65
 73
0
 40
0.0
  0
LTYPE
  5
15
100
AcDbSymbolTableRecord
100
AcDbLinetypeTableRecord
  2
BYLAYER
 70
0
  3

 72
65
 73
0
 40
0.0
  0
LTYPE
  5
16
100
AcDbSymbolTableRecord
100
AcDbLinetypeTableRecord
  2
CONTINUOUS
 70
0
  3
Solid line
 72
65
 73
0
 40
0.0
  0
LTYPE
  5
31
100
AcDbSymbolTableRecord
100
AcDbLinetypeTableRecord
  2
ACAD_ISO02W100
 70
0
  3
ISO Dashed __ __ __ __ __ __ __ __ __ __ _
 72
65
 73
2
 40
15.0
 49
12.0
 74
0
 49
-3.0
 74
0
  0
LTYPE
  5
32
100
AcDbSymbolTableRecord
100
AcDbLinetypeTableRecord
  2
ACAD_ISO03W100
 70
0
  3
ISO Dashed with Distance __    __    __    _
 72
65
 73
2
 40
30.0
 49
12.0
 74
0
 49
-18.0
 74
0
  0
LTYPE
  5
33
100
AcDbSymbolTableRecord
100
AcDbLinetypeTableRecord
  2
ACAD_ISO04W100
 70
0
  3
ISO Long Dashed Dotted ____ . ____ . __
 72
65
 73
4
 40
30.0
 49
24.0
 74
0
 49
-3.0
 74
0
 49
0.0
 74
0
 49
-3.0
 74
0
  0
LTYPE
  5
34
100
AcDbSymbolTableRecord
100
AcDbLinetypeTableRecord
  2
ACAD_ISO05W100
 70
0
  3
ISO Long Dashed Double Dotted ____ .. __
 72
65
 73
6
 40
33.0
 49
24.0
 74
0
 49
-3.0
 74
0
 49
0.0
 74
0
 49
-3.0
 74
0
 49
0.0
 74
0
 49
-3.0
 74
0
  0
LTYPE
  5
35
100
AcDbSymbolTableRecord
100
AcDbLinetypeTableRecord
  2
BORDER
 70
0
  3
Border __ __ . __ __ . __ __ . __ __ . __ __ .
 72
65
 73
6
 40
44.450000000000003
 49
12.699999999999999
 74
0
 49
-6.3499999999999996
 74
0
 49
12.699999999999999
 74
0
 49
-6.3499999999999996
 74
0
 49
0.0
 74
0
 49
-6.3499999999999996
 74
0
  0
LTYPE
  5
36
100
AcDbSymbolTableRecord
100
AcDbLinetypeTableRecord
  2
BORDER2
 70
0
  3
Border (.5x) __.__.__.__.__.__.__.__.__.__.__.
 72
65
 73
6
 40
22.225000000000001
 49
6.3499999999999996
 74
0
 49
-3.1749999999999998
 74
0
 49
6.3499999999999996
 74
0
 49
-3.1749999999999998
 74
0
 49
0.0
 74
0
 49
-3.1749999999999998
 74
0
  0
LTYPE
  5
37
100
AcDbSymbolTableRecord
100
AcDbLinetypeTableRecord
  2
BORDERX2
 70
0
  3
Border (2x) ____  ____  .  ____  ____  .  ___
 72
65
 73
6
 40
88.900000000000006
 49
25.399999999999999
 74
0
 49
-12.699999999999999
 74
0
 49
25.399999999999999
 74
0
 49
-12.699999999999999
 74
0
 49
0.0
 74
0
 49
-12.699999999999999
 74
0
  0
LTYPE
  5
38
100
AcDbSymbolTableRecord
100
AcDbLinetypeTableRecord
  2
CENTER
 70
0
  3
Center ____ _ ____ _ ____ _ ____ _ ____ _ ____
 72
65
 73
4
 40
50.799999999999997
 49
31.75
 74
0
 49
-6.3499999999999996
 74
0
 49
6.3499999999999996
 74
0
 49
-6.3499999999999996
 74
0
  0
LTYPE
  5
39
100
AcDbSymbolTableRecord
100
AcDbLinetypeTableRecord
  2
CENTER2
 70
0
  3
Center (.5x) ___ _ ___ _ ___ _ ___ _ ___ _ ___
 72
65
 73
4
 40
28.574999999999999
 49
19.050000000000001
 74
0
 49
-3.1749999999999998
 74
0
 49
3.1749999999999998
 74
0
 49
-3.1749999999999998
 74
0
  0
LTYPE
  5
3A
100
AcDbSymbolTableRecord
100
AcDbLinetypeTableRecord
  2
CENTERX2
 70
0
  3
Center (2x) ________  __  ________  __  _____
 72
65
 73
4
 40
101.59999999999999
 49
63.5
 74
0
 49
-12.699999999999999
 74
0
 49
12.699999999999999
 74
0
 49
-12.699999999999999
 74
0
  0
LTYPE
  5
3B
100
AcDbSymbolTableRecord
100
AcDbLinetypeTableRecord
  2
DASHDOT
 70
0
  3
Dash dot __ . __ . __ . __ . __ . __ . __ . __
 72
65
 73
4
 40
25.399999999999999
 49
12.699999999999999
 74
0
 49
-6.3499999999999996
 74
0
 49
0.0
 74
0
 49
-6.3499999999999996
 74
0
  0
LTYPE
  5
3C
100
AcDbSymbolTableRecord
100
AcDbLinetypeTableRecord
  2
DASHDOT2
 70
0
  3
Dash dot (.5x) _._._._._._._._._._._._._._._.
 72
65
 73
4
 40
12.699999999999999
 49
6.3499999999999996
 74
0
 49
-3.1749999999999998
 74
0
 49
0.0
 74
0
 49
-3.1749999999999998
 74
0
  0
LTYPE
  5
3D
100
AcDbSymbolTableRecord
100
AcDbLinetypeTableRecord
  2
DASHDOTX2
 70
0
  3
Dash dot (2x) ____  .  ____  .  ____  .  ___
 72
65
 73
4
 40
50.799999999999997
 49
25.399999999999999
 74
0
 49
-12.699999999999999
 74
0
 49
0.0
 74
0
 49
-12.699999999999999
 74
0
  0
LTYPE
  5
3E
100
AcDbSymbolTableRecord
100
AcDbLinetypeTableRecord
  2
DASHED
 70
0
  3
Dashed __ __ __ __ __ __ __ __ __ __ __ __ __ _
 72
65
 73
2
 40
19.050000000000001
 49
12.699999999999999
 74
0
 49
-6.3499999999999996
 74
0
  0
LTYPE
  5
3F
100
AcDbSymbolTableRecord
100
AcDbLinetypeTableRecord
  2
DASHED2
 70
0
  3
Dashed (.5x) _ _ _ _ _ _ _ _ _ _ _ _ _ _ _ _ _
 72
65
 73
2
 40
9.5250000000000004
 49
6.3499999999999996
 74
0
 49
-3.1749999999999998
 74
0
  0
LTYPE
  5
40
100
AcDbSymbolTableRecord
100
AcDbLinetypeTableRecord
  2
DASHEDX2
 70
0
  3
Dashed (2x) ____  ____  ____  ____  ____  ___
 72
65
 73
2
 40
38.100000000000001
 49
25.399999999999999
 74
0
 49
-12.699999999999999
 74
0
  0
LTYPE
  5
41
100
AcDbSymbolTableRecord
100
AcDbLinetypeTableRecord
  2
DIVIDE
 70
0
  3
Divide ____ . . ____ . . ____ . . ____ . . ____
 72
65
 73
6
 40
31.75
 49
12.699999999999999
 74
0
 49
-6.3499999999999996
 74
0
 49
0.0
 74
0
 49
-6.3499999999999996
 74
0
 49
0.0
 74
0
 49
-6.3499999999999996
 74
0
  0
LTYPE
  5
42
100
AcDbSymbolTableRecord
100
AcDbLinetypeTableRecord
  2
DIVIDE2
 70
0
  3
Divide (.5x) __..__..__..__..__..__..__..__.._
 72
65
 73
6
 40
15.875
 49
6.3499999999999996
 74
0
 49
-3.1749999999999998
 74
0
 49
0.0
 74
0
 49
-3.1749999999999998
 74
0
 49
0.0
 74
0
 49
-3.1749999999999998
 74
0
  0
LTYPE
  5
43
100
AcDbSymbolTableRecord
100
AcDbLinetypeTableRecord
  2
DIVIDEX2
 70
0
  3
Divide (2x) ________  .  .  ________  .  .  _
 72
65
 73
6
 40
63.5
 49
25.399999999999999
 74
0
 49
-12.699999999999999
 74
0
 49
0.0
 74
0
 49
-12.699999999999999
 74
0
 49
0.0
 74
0
 49
-12.699999999999999
 74
0
  0
LTYPE
  5
44
100
AcDbSymbolTableRecord
100
AcDbLinetypeTableRecord
  2
DOT
 70
0
  3
Dot . . . . . . . . . . . . . . . . . . . . . .
 72
65
 73
2
 40
6.3499999999999996
 49
0.0
 74
0
 49
-6.3499999999999996
 74
0
  0
LTYPE
  5
45
100
AcDbSymbolTableRecord
100
AcDbLinetypeTableRecord
  2
DOT2
 70
0
  3
Dot (.5x) .....................................
 72
65
 73
2
 40
3.1749999999999998
 49
0.0
 74
0
 49
-3.1749999999999998
 74
0
  0
LTYPE
  5
46
100
AcDbSymbolTableRecord
100
AcDbLinetypeTableRecord
  2
DOTX2
 70
0
  3
Dot (2x) .  .  .  .  .  .  .  .  .  .  .  .  .
 72
65
 73
2
 40
12.699999999999999
 49
0.0
 74
0
 49
-12.699999999999999
 74
0
  0
ENDTAB
  0
TABLE
  2
LAYER
  5
2
100
AcDbSymbolTable
 70
3
  0
LAYER
  5
10
100
AcDbSymbolTableRecord
100
AcDbLayerTableRecord
  2
0
 70
0
 62
250
  6
CONTINUOUS
370
100
390
F
  0
LAYER
  5
47
100
AcDbSymbolTableRecord
100
AcDbLayerTableRecord
  2
color#00000000
 70
0
 62
7
  6
CONTINUOUS
370
100
390
F
  0
LAYER
  5
48
100
AcDbSymbolTableRecord
100
AcDbLayerTableRecord
  2
color#ffffffff
 70
0
 62
7
  6
CONTINUOUS
370
100
390
F
  0
ENDTAB
  0
TABLE
  2
STYLE
  5
3
100
AcDbSymbolTable
 70
1
  0
STYLE
  5
11
100
AcDbSymbolTableRecord
100
AcDbTextStyleTableRecord
  2
Standard
 70
0
 40
0.0
 41
0.75
 50
0.0
 71
0
 42
2.5
  3
txt
  4

  0
ENDTAB
  0
TABLE
  2
VIEW
  5
6
100
AcDbSymbolTable
 70
0
  0
ENDTAB
  0
TABLE
  2
UCS
  5
7
100
AcDbSymbolTable
 70
0
  0
ENDTAB
  0
TABLE
  2
APPID
  5
9
100
AcDbSymbolTable
 70
1
  0
APPID
  5
12
100
AcDbSymbolTableRecord
100
AcDbRegAppTableRecord
  2
ACAD
 70
0
  0
ENDTAB
  0
TABLE
  2
DIMSTYLE
  5
A
100
AcDbSymbolTable
 70
1
100
AcDbDimStyleTable
 71
0
  0
DIMSTYLE
105
27
100
AcDbSymbolTableRecord
100
AcDbDimStyleTableRecord
  2
Standard
 41
1.0
 42
1.0
 43
3.75
 44
1.0
 70
0
 73
0
 74
0
 77
1
 78
8
140
1.0
141
2.5
143
0.03937007874016
147
1.0
171
3
172
1
271
2
272
2
274
3
278
44
283
0
284
8
340
11
  0
ENDTAB
  0
TABLE
  2
BLOCK_RECORD
  5
1
100
AcDbSymbolTable
 70
1
  0
BLOCK_RECORD
  5
1F
100
AcDbSymbolTableRecord
100
AcDbBlockTableRecord
  2
*Model_Space
340
22
  0
BLOCK_RECORD
  5
1B
100
AcDbSymbolTableRecord
100
AcDbBlockTableRecord
  2
*Paper_Space
340
1E
  0
BLOCK_RECORD
  5
23
100
AcDbSymbolTableRecord
100
AcDbBlockTableRecord
  2
*Paper_Space0
340
26
  0
ENDTAB
  0
ENDSEC
  0
SECTION
  2
BLOCKS
  0
BLOCK
  5
20
100
AcDbEntity
  8
0
100
AcDbBlockBegin
  2
*Model_Space
 70
0
 10
0.0
 20
0.0
 30
0.0
  3
*Model_Space
  1

  0
ENDBLK
  5
21
100
AcDbEntity
  8
0
100
AcDbBlockEnd
  0
BLOCK
  5
1C
100
AcDbEntity
 67
1
  8
0
100
AcDbBlockBegin
  2
*Paper_Space
 70
0
 10
0.0
 20
0.0
 30
0.0
  3
*Paper_Space
  1

  0
ENDBLK
  5
1D
100
AcDbEntity
 67
1
  8
0
100
AcDbBlockEnd
  0
BLOCK
  5
24
100
AcDbEntity
  8
0
100
AcDbBlockBegin
  2
*Paper_Space0
 70
0
 10
0.0
 20
0.0
 30
0.0
  3
*Paper_Space0
  1

  0
ENDBLK
  5
25
100
AcDbEntity
  8
0
100
AcDbBlockEnd
  0
ENDSEC
  0
SECTION
  2
ENTITIES
  0
LINE
  5
49
100
AcDbEntity
100
AcDbLine
  8
color#ffffffff
 62
256
370
-1
  6
BYLAYER
 10
2.137098922675007
 20
2.3410880875040494
 30
0.0
 11
2.4346616501601215
 21
2.3629349344656623
 31
0.0
  0
LINE
  5
4A
100
AcDbEntity
100
AcDbLine
  8
color#ffffffff
 62
256
370
-1
  6
BYLAYER
 10
2.4346616501601215
 20
2.3629349344656623
 30
0.0
 11
2.6335839488806148
 21
2.3671653012084004
 31
0.0
  0
LINE
  5
4B
100
AcDbEntity
100
AcDbLine
  8
color#ffffffff
 62
256
370
-1
  6
BYLAYER
 10
2.6335839488806148
 20
2.3671653012084004
 30
0.0
 11
2.7992432515851178
 21
2.3629552608279667
 31
0.0
  0
LINE
  5
4C
100
AcDbEntity
100
AcDbLine
  8
color#ffffffff
 62
256
370
-1
  6
BYLAYER
 10
2.7992432515851178
 20
2.3629552608279667
 30
0.0
 11
2.9314813748579178
 21
2.3538270006574655
 31
0.0
  0
LINE
  5
4D
100
AcDbEntity
100
AcDbLine
  8
color#ffffffff
 62
256
370
-1
  6
BYLAYER
 10
2.9314813748579178
 20
2.3538270006574655
 30
0.0
 11
3.0303895624162882
 21
2.3432953628663022
 31
0.0
  0
LINE
  5
4E
100
AcDbEntity
100
AcDbLine
  8
color#ffffffff
 62
256
370
-1
  6
BYLAYER
 10
3.0303895624162882
 20
2.3432953628663022
 30
0.0
 11
3.0961632914772621
 21
2.3344031162582368
 31
0.0
  0
LINE
  5
4F
100
AcDbEntity
100
AcDbLine
  8
color#ffffffff
 62
256
370
-1
  6
BYLAYER
 10
3.0961632914772621
 20
2.3344031162582368
 30
0.0
 11
3.3363450455398231
 21
2.2748617320372926
 31
0.0
  0
LINE
  5
50
100
AcDbEntity
100
AcDbLine
  8
color#ffffffff
 62
256
370
-1
  6
BYLAYER
 10
3.3363450455398231
 20
2.2748617320372926
 30
0.0
 11
3.4194099741096835
 21
2.2375354272044956
 31
0.0
  0
LINE
  5
51
100
AcDbEntity
100
AcDbLine
  8
color#ffffffff
 62
256
370
-1
  6
BYLAYER
 10
3.4194099741096835
 20
2.2375354272044956
 30
0.0
 11
3.453381348001936
 21
2.2179304211313968
 31
0.0
  0
LINE
  5
52
100
AcDbEntity
100
AcDbLine
  8
color#ffffffff
 62
256
370
-1
  6
BYLAYER
 10
3.453381348001936
 20
2.2179304211313968
 30
0.0
 11
3.5156095714800597
 21
2.1634001228189268
 31
0.0
  0
LINE
  5
53
100
AcDbEntity
100
AcDbLine
  8
color#ffffffff
 62
256
370
-1
  6
BYLAYER
 10
3.5156095714800597
 20
2.1634001228189268
 30
0.0
 11
3.5383650555938089
 21
2.1290045212141453
 31
0.0
  0
LINE
  5
54
100
AcDbEntity
100
AcDbLine
  8
color#ffffffff
 62
256
370
-1
  6
BYLAYER
 10
3.5383650555938089
 20
2.1290045212141453
 30
0.0
 11
3.5504422658484032
 21
2.0972190261417598
 31
0.0
  0
LINE
  5
55
100
AcDbEntity
100
AcDbLine
  8
color#ffffffff
 62
256
370
-1
  6
BYLAYER
 10
3.5504422658484032
 20
2.0972190261417598
 30
0.0
 11
3.5544747805624102
 21
2.069963992134269
 31
0.0
  0
LINE
  5
56
100
AcDbEntity
100
AcDbLine
  8
color#ffffffff
 62
256
370
-1
  6
BYLAYER
 10
3.5544747805624102
 20
2.069963992134269
 30
0.0
 11
3.5543402912553708
 21
2.05578068331282
 31
0.0
  0
LINE
  5
57
100
AcDbEntity
100
AcDbLine
  8
color#ffffffff
 62
256
370
-1
  6
BYLAYER
 10
3.5543402912553708
 20
2.05578068331282
 30
0.0
 11
3.5526915697180357
 21
2.0315791469883409
 31
0.0
  0
LINE
  5
58
100
AcDbEntity
100
AcDbLine
  8
color#ffffffff
 62
256
370
-1
  6
BYLAYER
 10
3.5526915697180357
 20
2.0315791469883409
 30
0.0
 11
3.5456353241947371
 21
2.0007602487508125
 31
0.0
  0
LINE
  5
59
100
AcDbEntity
100
AcDbLine
  8
color#ffffffff
 62
256
370
-1
  6
BYLAYER
 10
3.5456353241947371
 20
2.0007602487508125
 30
0.0
 11
3.5263927304002531
 21
1.9575975366400433
 31
0.0
  0
LINE
  5
5A
100
AcDbEntity
100
AcDbLine
  8
color#ffffffff
 62
256
370
-1
  6
BYLAYER
 10
3.5263927304002531
 20
1.9575975366400433
 30
0.0
 11
3.4448371243621363
 21
1.8599996130936307
 31
0.0
  0
LINE
  5
5B
100
AcDbEntity
100
AcDbLine
  8
color#ffffffff
 62
256
370
-1
  6
BYLAYER
 10
3.4448371243621363
 20
1.8599996130936307
 30
0.0
 11
3.3409971184407627
 21
1.7803878257979133
 31
0.0
  0
LINE
  5
5C
100
AcDbEntity
100
AcDbLine
  8
color#ffffffff
 62
256
370
-1
  6
BYLAYER
 10
3.3409971184407627
 20
1.7803878257979133
 30
0.0
 11
3.0417362409341342
 21
1.6120358082997406
 31
0.0
  0
LINE
  5
5D
100
AcDbEntity
100
AcDbLine
  8
color#ffffffff
 62
256
370
-1
  6
BYLAYER
 10
3.0417362409341342
 20
1.6120358082997406
 30
0.0
 11
3.0504269667924655
 21
1.6233305782729899
 31
0.0
  0
LINE
  5
5E
100
AcDbEntity
100
AcDbLine
  8
color#ffffffff
 62
256
370
-1
  6
BYLAYER
 10
3.0504269667924655
 20
1.6233305782729899
 30
0.0
 11
3.060442101281303
 21
1.6412659929145827
 31
0.0
  0
LINE
  5
5F
100
AcDbEntity
100
AcDbLine
  8
color#ffffffff
 62
256
370
-1
  6
BYLAYER
 10
3.060442101281303
 20
1.6412659929145827
 30
0.0
 11
3.0690256912325662
 21
1.6667129168061119
 31
0.0
  0
LINE
  5
60
100
AcDbEntity
100
AcDbLine
  8
color#ffffffff
 62
256
370
-1
  6
BYLAYER
 10
3.0690256912325662
 20
1.6667129168061119
 30
0.0
 11
3.0748748399102479
 21
1.8037171921494641
 31
0.0
  0
LINE
  5
61
100
AcDbEntity
100
AcDbLine
  8
color#ffffffff
 62
256
370
-1
  6
BYLAYER
 10
3.0748748399102479
 20
1.8037171921494641
 30
0.0
 11
2.9444906749519966
 21
1.8038528756478256
 31
0.0
  0
LINE
  5
62
100
AcDbEntity
100
AcDbLine
  8
color#ffffffff
 62
256
370
-1
  6
BYLAYER
 10
2.9444906749519966
 20
1.8038528756478256
 30
0.0
 11
2.9444268694882205
 21
1.7502577248239233
 31
0.0
  0
LINE
  5
63
100
AcDbEntity
100
AcDbLine
  8
color#ffffffff
 62
256
370
-1
  6
BYLAYER
 10
2.9444268694882205
 20
1.7502577248239233
 30
0.0
 11
2.981866184740849
 21
1.7493463006907883
 31
0.0
  0
LINE
  5
64
100
AcDbEntity
100
AcDbLine
  8
color#ffffffff
 62
256
370
-1
  6
BYLAYER
 10
2.981866184740849
 20
1.7493463006907883
 30
0.0
 11
2.9668236081912838
 21
1.6611337493200908
 31
0.0
  0
LINE
  5
65
100
AcDbEntity
100
AcDbLine
  8
color#ffffffff
 62
256
370
-1
  6
BYLAYER
 10
2.9668236081912838
 20
1.6611337493200908
 30
0.0
 11
2.9322357441441529
 21
1.6579355203075954
 31
0.0
  0
LINE
  5
66
100
AcDbEntity
100
AcDbLine
  8
color#ffffffff
 62
256
370
-1
  6
BYLAYER
 10
2.9322357441441529
 20
1.6579355203075954
 30
0.0
 11
2.911934339521574
 21
1.6718503764550821
 31
0.0
  0
LINE
  5
67
100
AcDbEntity
100
AcDbLine
  8
color#ffffffff
 62
256
370
-1
  6
BYLAYER
 10
2.911934339521574
 20
1.6718503764550821
 30
0.0
 11
2.9064149638082575
 21
1.6881681110667404
 31
0.0
  0
LINE
  5
68
100
AcDbEntity
100
AcDbLine
  8
color#ffffffff
 62
256
370
-1
  6
BYLAYER
 10
2.9064149638082575
 20
1.6881681110667404
 30
0.0
 11
2.906596586196033
 21
1.6947777218083979
 31
0.0
  0
LINE
  5
69
100
AcDbEntity
100
AcDbLine
  8
color#ffffffff
 62
256
370
-1
  6
BYLAYER
 10
2.906596586196033
 20
1.6947777218083979
 30
0.0
 11
2.9158225448300583
 21
1.9051861351670405
 31
0.0
  0
LINE
  5
6A
100
AcDbEntity
100
AcDbLine
  8
color#ffffffff
 62
256
370
-1
  6
BYLAYER
 10
2.9158225448300583
 20
1.9051861351670405
 30
0.0
 11
2.9568704791782228
 21
1.9049848069726787
 31
0.0
  0
LINE
  5
6B
100
AcDbEntity
100
AcDbLine
  8
color#ffffffff
 62
256
370
-1
  6
BYLAYER
 10
2.9568704791782228
 20
1.9049848069726787
 30
0.0
 11
2.9681190518062381
 21
1.9007975375390171
 31
0.0
  0
LINE
  5
6C
100
AcDbEntity
100
AcDbLine
  8
color#ffffffff
 62
256
370
-1
  6
BYLAYER
 10
2.9681190518062381
 20
1.9007975375390171
 30
0.0
 11
2.9811246894852341
 21
1.8471940026694413
 31
0.0
  0
LINE
  5
6D
100
AcDbEntity
100
AcDbLine
  8
color#ffffffff
 62
256
370
-1
  6
BYLAYER
 10
2.9811246894852341
 20
1.8471940026694413
 30
0.0
 11
3.0745784126030991
 21
1.8474398829382177
 31
0.0
  0
LINE
  5
6E
100
AcDbEntity
100
AcDbLine
  8
color#ffffffff
 62
256
370
-1
  6
BYLAYER
 10
3.0745784126030991
 20
1.8474398829382177
 30
0.0
 11
3.0583087497533956
 21
1.924758678845591
 31
0.0
  0
LINE
  5
6F
100
AcDbEntity
100
AcDbLine
  8
color#ffffffff
 62
256
370
-1
  6
BYLAYER
 10
3.0583087497533956
 20
1.924758678845591
 30
0.0
 11
3.0411615123377516
 21
1.9459129213002297
 31
0.0
  0
LINE
  5
70
100
AcDbEntity
100
AcDbLine
  8
color#ffffffff
 62
256
370
-1
  6
BYLAYER
 10
3.0411615123377516
 20
1.9459129213002297
 30
0.0
 11
3.0254112795965011
 21
1.9562067509100229
 31
0.0
  0
LINE
  5
71
100
AcDbEntity
100
AcDbLine
  8
color#ffffffff
 62
256
370
-1
  6
BYLAYER
 10
3.0254112795965011
 20
1.9562067509100229
 30
0.0
 11
3.0161054818167687
 21
1.9599401911830385
 31
0.0
  0
LINE
  5
72
100
AcDbEntity
100
AcDbLine
  8
color#ffffffff
 62
256
370
-1
  6
BYLAYER
 10
3.0161054818167687
 20
1.9599401911830385
 30
0.0
 11
2.9217133336311565
 21
1.9711612936294469
 31
0.0
  0
LINE
  5
73
100
AcDbEntity
100
AcDbLine
  8
color#ffffffff
 62
256
370
-1
  6
BYLAYER
 10
2.9217133336311565
 20
1.9711612936294469
 30
0.0
 11
2.8757829122552341
 21
1.9596824844066445
 31
0.0
  0
LINE
  5
74
100
AcDbEntity
100
AcDbLine
  8
color#ffffffff
 62
256
370
-1
  6
BYLAYER
 10
2.8757829122552341
 20
1.9596824844066445
 30
0.0
 11
2.8499914531252077
 21
1.9449808756089544
 31
0.0
  0
LINE
  5
75
100
AcDbEntity
100
AcDbLine
  8
color#ffffffff
 62
256
370
-1
  6
BYLAYER
 10
2.8499914531252077
 20
1.9449808756089544
 30
0.0
 11
2.8410633031846544
 21
1.9370611891787799
 31
0.0
  0
LINE
  5
76
100
AcDbEntity
100
AcDbLine
  8
color#ffffffff
 62
256
370
-1
  6
BYLAYER
 10
2.8410633031846544
 20
1.9370611891787799
 30
0.0
 11
2.8307052049017547
 21
1.9238078130783538
 31
0.0
  0
LINE
  5
77
100
AcDbEntity
100
AcDbLine
  8
color#ffffffff
 62
256
370
-1
  6
BYLAYER
 10
2.8307052049017547
 20
1.9238078130783538
 30
0.0
 11
2.8217123052641804
 21
1.9040182773475527
 31
0.0
  0
LINE
  5
78
100
AcDbEntity
100
AcDbLine
  8
color#ffffffff
 62
256
370
-1
  6
BYLAYER
 10
2.8217123052641804
 20
1.9040182773475527
 30
0.0
 11
2.8160545919024482
 21
1.7970718265260739
 31
0.0
  0
LINE
  5
79
100
AcDbEntity
100
AcDbLine
  8
color#ffffffff
 62
256
370
-1
  6
BYLAYER
 10
2.8160545919024482
 20
1.7970718265260739
 30
0.0
 11
2.8158418043693052
 21
1.7917003660304553
 31
0.0
  0
LINE
  5
7A
100
AcDbEntity
100
AcDbLine
  8
color#ffffffff
 62
256
370
-1
  6
BYLAYER
 10
2.8158418043693052
 20
1.7917003660304553
 30
0.0
 11
2.8254242532397189
 21
1.6473211733649131
 31
0.0
  0
LINE
  5
7B
100
AcDbEntity
100
AcDbLine
  8
color#ffffffff
 62
256
370
-1
  6
BYLAYER
 10
2.8254242532397189
 20
1.6473211733649131
 30
0.0
 11
2.8297798809124792
 21
1.6373100671715126
 31
0.0
  0
LINE
  5
7C
100
AcDbEntity
100
AcDbLine
  8
color#ffffffff
 62
256
370
-1
  6
BYLAYER
 10
2.8297798809124792
 20
1.6373100671715126
 30
0.0
 11
2.8374976667063465
 21
1.6266314324671707
 31
0.0
  0
LINE
  5
7D
100
AcDbEntity
100
AcDbLine
  8
color#ffffffff
 62
256
370
-1
  6
BYLAYER
 10
2.8374976667063465
 20
1.6266314324671707
 30
0.0
 11
2.8462458253835514
 21
1.6175966651062557
 31
0.0
  0
LINE
  5
7E
100
AcDbEntity
100
AcDbLine
  8
color#ffffffff
 62
256
370
-1
  6
BYLAYER
 10
2.8462458253835514
 20
1.6175966651062557
 30
0.0
 11
2.8610493741608924
 21
1.6068552346619416
 31
0.0
  0
LINE
  5
7F
100
AcDbEntity
100
AcDbLine
  8
color#ffffffff
 62
256
370
-1
  6
BYLAYER
 10
2.8610493741608924
 20
1.6068552346619416
 30
0.0
 11
2.8833243538048698
 21
1.5971283322382159
 31
0.0
  0
LINE
  5
80
100
AcDbEntity
100
AcDbLine
  8
color#ffffffff
 62
256
370
-1
  6
BYLAYER
 10
2.8833243538048698
 20
1.5971283322382159
 30
0.0
 11
2.9395752123764334
 21
1.5896023537255941
 31
0.0
  0
LINE
  5
81
100
AcDbEntity
100
AcDbLine
  8
color#ffffffff
 62
256
370
-1
  6
BYLAYER
 10
2.9395752123764334
 20
1.5896023537255941
 30
0.0
 11
2.9958093630064853
 21
1.5927423049412452
 31
0.0
  0
LINE
  5
82
100
AcDbEntity
100
AcDbLine
  8
color#ffffffff
 62
256
370
-1
  6
BYLAYER
 10
2.9958093630064853
 20
1.5927423049412452
 30
0.0
 11
2.9473451398029997
 21
1.5726290641731329
 31
0.0
  0
LINE
  5
83
100
AcDbEntity
100
AcDbLine
  8
color#ffffffff
 62
256
370
-1
  6
BYLAYER
 10
2.9473451398029997
 20
1.5726290641731329
 30
0.0
 11
2.8986515580271908
 21
1.5531568314445425
 31
0.0
  0
LINE
  5
84
100
AcDbEntity
100
AcDbLine
  8
color#ffffffff
 62
256
370
-1
  6
BYLAYER
 10
2.8986515580271908
 20
1.5531568314445425
 30
0.0
 11
2.8497365931430414
 21
1.5343130209406921
 31
0.0
  0
LINE
  5
85
100
AcDbEntity
100
AcDbLine
  8
color#ffffffff
 62
256
370
-1
  6
BYLAYER
 10
2.8497365931430414
 20
1.5343130209406921
 30
0.0
 11
2.8006082206145333
 21
1.5160850468467986
 31
0.0
  0
LINE
  5
86
100
AcDbEntity
100
AcDbLine
  8
color#ffffffff
 62
256
370
-1
  6
BYLAYER
 10
2.8006082206145333
 20
1.5160850468467986
 30
0.0
 11
2.7512744159056499
 21
1.4984603233480795
 31
0.0
  0
LINE
  5
87
100
AcDbEntity
100
AcDbLine
  8
color#ffffffff
 62
256
370
-1
  6
BYLAYER
 10
2.7512744159056499
 20
1.4984603233480795
 30
0.0
 11
2.6520224118026809
 21
1.4649702848770387
 31
0.0
  0
LINE
  5
88
100
AcDbEntity
100
AcDbLine
  8
color#ffffffff
 62
256
370
-1
  6
BYLAYER
 10
2.6520224118026809
 20
1.4649702848770387
 30
0.0
 11
2.5520443845459932
 21
1.4337422190093081
 31
0.0
  0
LINE
  5
89
100
AcDbEntity
100
AcDbLine
  8
color#ffffffff
 62
256
370
-1
  6
BYLAYER
 10
2.5520443845459932
 20
1.4337422190093081
 30
0.0
 11
2.4514041378474425
 21
1.4046754392266334
 31
0.0
  0
LINE
  5
8A
100
AcDbEntity
100
AcDbLine
  8
color#ffffffff
 62
256
370
-1
  6
BYLAYER
 10
2.4514041378474425
 20
1.4046754392266334
 30
0.0
 11
2.3501654754188857
 21
1.3776692590107535
 31
0.0
  0
LINE
  5
8B
100
AcDbEntity
100
AcDbLine
  8
color#ffffffff
 62
256
370
-1
  6
BYLAYER
 10
2.3501654754188857
 20
1.3776692590107535
 30
0.0
 11
2.2483922009721811
 21
1.3526229918434121
 31
0.0
  0
LINE
  5
8C
100
AcDbEntity
100
AcDbLine
  8
color#ffffffff
 62
256
370
-1
  6
BYLAYER
 10
2.2483922009721811
 20
1.3526229918434121
 30
0.0
 11
2.1461481182191848
 21
1.3294359512063494
 31
0.0
  0
LINE
  5
8D
100
AcDbEntity
100
AcDbLine
  8
color#ffffffff
 62
256
370
-1
  6
BYLAYER
 10
2.1461481182191848
 20
1.3294359512063494
 30
0.0
 11
1.9920387991350803
 21
1.2979211882363388
 31
0.0
  0
LINE
  5
8E
100
AcDbEntity
100
AcDbLine
  8
color#ffffffff
 62
256
370
-1
  6
BYLAYER
 10
1.9920387991350803
 20
1.2979211882363388
 30
0.0
 11
1.8372290572410159
 21
1.2700233232942546
 31
0.0
  0
LINE
  5
8F
100
AcDbEntity
100
AcDbLine
  8
color#ffffffff
 62
256
370
-1
  6
BYLAYER
 10
1.8372290572410159
 20
1.2700233232942546
 30
0.0
 11
1.6300987097748245
 21
1.2378651178361868
 31
0.0
  0
LINE
  5
90
100
AcDbEntity
100
AcDbLine
  8
color#ffffffff
 62
256
370
-1
  6
BYLAYER
 10
1.6300987097748245
 20
1.2378651178361868
 30
0.0
 11
1.5263696551330759
 21
1.223719019497377
 31
0.0
  0
LINE
  5
91
100
AcDbEntity
100
AcDbLine
  8
color#ffffffff
 62
256
370
-1
  6
BYLAYER
 10
1.5263696551330759
 20
1.223719019497377
 30
0.0
 11
1.2637743335691498
 21
1.1986070315427932
 31
0.0
  0
LINE
  5
92
100
AcDbEntity
100
AcDbLine
  8
color#ffffffff
 62
256
370
-1
  6
BYLAYER
 10
1.2637743335691498
 20
1.1986070315427932
 30
0.0
 11
1.075421675409489
 21
1.1886885473384763
 31
0.0
  0
LINE
  5
93
100
AcDbEntity
100
AcDbLine
  8
color#ffffffff
 62
256
370
-1
  6
BYLAYER
 10
1.075421675409489
 20
1.1886885473384763
 30
0.0
 11
0.9246190358052231
 21
1.1866802840296533
 31
0.0
  0
LINE
  5
94
100
AcDbEntity
100
AcDbLine
  8
color#ffffffff
 62
256
370
-1
  6
BYLAYER
 10
0.9246190358052231
 20
1.1866802840296533
 30
0.0
 11
0.8115999823100685
 21
1.1891191842159499
 31
0.0
  0
LINE
  5
95
100
AcDbEntity
100
AcDbLine
  8
color#ffffffff
 62
256
370
-1
  6
BYLAYER
 10
0.8115999823100685
 20
1.1891191842159499
 30
0.0
 11
0.6987614552094451
 21
1.1952881385719212
 31
0.0
  0
LINE
  5
96
100
AcDbEntity
100
AcDbLine
  8
color#ffffffff
 62
256
370
-1
  6
BYLAYER
 10
0.6987614552094451
 20
1.1952881385719212
 30
0.0
 11
0.6236847059338295
 21
1.2016279346292298
 31
0.0
  0
LINE
  5
97
100
AcDbEntity
100
AcDbLine
  8
color#ffffffff
 62
256
370
-1
  6
BYLAYER
 10
0.6236847059338295
 20
1.2016279346292298
 30
0.0
 11
0.5487611551364299
 21
1.2098578937949875
 31
0.0
  0
LINE
  5
98
100
AcDbEntity
100
AcDbLine
  8
color#ffffffff
 62
256
370
-1
  6
BYLAYER
 10
0.5487611551364299
 20
1.2098578937949875
 30
0.0
 11
0.4740199886272825
 21
1.2200709605712998
 31
0.0
  0
LINE
  5
99
100
AcDbEntity
100
AcDbLine
  8
color#ffffffff
 62
256
370
-1
  6
BYLAYER
 10
0.4740199886272825
 20
1.2200709605712998
 30
0.0
 11
0.4367269200464394
 21
1.2259502044703217
 31
0.0
  0
LINE
  5
9A
100
AcDbEntity
100
AcDbLine
  8
color#ffffffff
 62
256
370
-1
  6
BYLAYER
 10
0.4367269200464394
 20
1.2259502044703217
 30
0.0
 11
0.2045094947938831
 21
1.2850911960748828
 31
0.0
  0
LINE
  5
9B
100
AcDbEntity
100
AcDbLine
  8
color#ffffffff
 62
256
370
-1
  6
BYLAYER
 10
0.2045094947938831
 20
1.2850911960748828
 30
0.0
 11
0.1360686633039029
 21
1.3169092990147375
 31
0.0
  0
LINE
  5
9C
100
AcDbEntity
100
AcDbLine
  8
color#ffffffff
 62
256
370
-1
  6
BYLAYER
 10
0.1360686633039029
 20
1.3169092990147375
 30
0.0
 11
0.093031010956026
 21
1.3435106761985027
 31
0.0
  0
LINE
  5
9D
100
AcDbEntity
100
AcDbLine
  8
color#ffffffff
 62
256
370
-1
  6
BYLAYER
 10
0.093031010956026
 20
1.3435106761985027
 30
0.0
 11
0.0464810167046282
 21
1.3850040088910436
 31
0.0
  0
LINE
  5
9E
100
AcDbEntity
100
AcDbLine
  8
color#ffffffff
 62
256
370
-1
  6
BYLAYER
 10
0.0464810167046282
 20
1.3850040088910436
 30
0.0
 11
0.0197603609360243
 21
1.4254359074960898
 31
0.0
  0
LINE
  5
9F
100
AcDbEntity
100
AcDbLine
  8
color#ffffffff
 62
256
370
-1
  6
BYLAYER
 10
0.0197603609360243
 20
1.4254359074960898
 30
0.0
 11
0.0076048391764058
 21
1.457579822870281
 31
0.0
  0
LINE
  5
A0
100
AcDbEntity
100
AcDbLine
  8
color#ffffffff
 62
256
370
-1
  6
BYLAYER
 10
0.0076048391764058
 20
1.457579822870281
 30
0.0
 11
0.0024725245119853
 21
1.4916968956396515
 31
0.0
  0
LINE
  5
A1
100
AcDbEntity
100
AcDbLine
  8
color#ffffffff
 62
256
370
-1
  6
BYLAYER
 10
0.0024725245119853
 20
1.4916968956396515
 30
0.0
 11
0.0032222383794035
 21
1.5128401234150952
 31
0.0
  0
LINE
  5
A2
100
AcDbEntity
100
AcDbLine
  8
color#ffffffff
 62
256
370
-1
  6
BYLAYER
 10
0.0032222383794035
 20
1.5128401234150952
 30
0.0
 11
0.0086105895627782
 21
1.5437868585104586
 31
0.0
  0
LINE
  5
A3
100
AcDbEntity
100
AcDbLine
  8
color#ffffffff
 62
256
370
-1
  6
BYLAYER
 10
0.0086105895627782
 20
1.5437868585104586
 30
0.0
 11
0.0221520001309593
 21
1.579771473769598
 31
0.0
  0
LINE
  5
A4
100
AcDbEntity
100
AcDbLine
  8
color#ffffffff
 62
256
370
-1
  6
BYLAYER
 10
0.0221520001309593
 20
1.579771473769598
 30
0.0
 11
0.0656214217226492
 21
1.6438992753751036
 31
0.0
  0
LINE
  5
A5
100
AcDbEntity
100
AcDbLine
  8
color#ffffffff
 62
256
370
-1
  6
BYLAYER
 10
0.0656214217226492
 20
1.6438992753751036
 30
0.0
 11
0.1198870623286676
 21
1.699597422852638
 31
0.0
  0
LINE
  5
A6
100
AcDbEntity
100
AcDbLine
  8
color#ffffffff
 62
256
370
-1
  6
BYLAYER
 10
0.1198870623286676
 20
1.699597422852638
 30
0.0
 11
0.1715675739065962
 21
1.7436685066364344
 31
0.0
  0
LINE
  5
A7
100
AcDbEntity
100
AcDbLine
  8
color#ffffffff
 62
256
370
-1
  6
BYLAYER
 10
0.1715675739065962
 20
1.7436685066364344
 30
0.0
 11
0.2544108610731777
 21
1.8022215210910772
 31
0.0
  0
LINE
  5
A8
100
AcDbEntity
100
AcDbLine
  8
color#ffffffff
 62
256
370
-1
  6
BYLAYER
 10
0.2544108610731777
 20
1.8022215210910772
 30
0.0
 11
0.5382089245622965
 21
1.9540922116211386
 31
0.0
  0
LINE
  5
A9
100
AcDbEntity
100
AcDbLine
  8
color#ffffffff
 62
256
370
-1
  6
BYLAYER
 10
0.5382089245622965
 20
1.9540922116211386
 30
0.0
 11
0.5126512418072565
 21
1.9158930976815292
 31
0.0
  0
LINE
  5
AA
100
AcDbEntity
100
AcDbLine
  8
color#ffffffff
 62
256
370
-1
  6
BYLAYER
 10
0.5126512418072565
 20
1.9158930976815292
 30
0.0
 11
0.5052227890699887
 21
1.852332205401392
 31
0.0
  0
LINE
  5
AB
100
AcDbEntity
100
AcDbLine
  8
color#ffffffff
 62
256
370
-1
  6
BYLAYER
 10
0.5052227890699887
 20
1.852332205401392
 30
0.0
 11
0.5101635648264735
 21
1.8298618075336819
 31
0.0
  0
LINE
  5
AC
100
AcDbEntity
100
AcDbLine
  8
color#ffffffff
 62
256
370
-1
  6
BYLAYER
 10
0.5101635648264735
 20
1.8298618075336819
 30
0.0
 11
0.5223135004678153
 21
1.81256320204358
 31
0.0
  0
LINE
  5
AD
100
AcDbEntity
100
AcDbLine
  8
color#ffffffff
 62
256
370
-1
  6
BYLAYER
 10
0.5223135004678153
 20
1.81256320204358
 30
0.0
 11
0.5473567226092478
 21
1.7890599549550146
 31
0.0
  0
LINE
  5
AE
100
AcDbEntity
100
AcDbLine
  8
color#ffffffff
 62
256
370
-1
  6
BYLAYER
 10
0.5473567226092478
 20
1.7890599549550146
 30
0.0
 11
0.6519517091292449
 21
1.7199448419684644
 31
0.0
  0
LINE
  5
AF
100
AcDbEntity
100
AcDbLine
  8
color#ffffffff
 62
256
370
-1
  6
BYLAYER
 10
0.6519517091292449
 20
1.7199448419684644
 30
0.0
 11
0.666229309054251
 21
1.7047507806030713
 31
0.0
  0
LINE
  5
B0
100
AcDbEntity
100
AcDbLine
  8
color#ffffffff
 62
256
370
-1
  6
BYLAYER
 10
0.666229309054251
 20
1.7047507806030713
 30
0.0
 11
0.6721575169835347
 21
1.6925104135153548
 31
0.0
  0
LINE
  5
B1
100
AcDbEntity
100
AcDbLine
  8
color#ffffffff
 62
256
370
-1
  6
BYLAYER
 10
0.6721575169835347
 20
1.6925104135153548
 30
0.0
 11
0.6723744391165524
 21
1.6768054486303088
 31
0.0
  0
LINE
  5
B2
100
AcDbEntity
100
AcDbLine
  8
color#ffffffff
 62
256
370
-1
  6
BYLAYER
 10
0.6723744391165524
 20
1.6768054486303088
 30
0.0
 11
0.6620684571324529
 21
1.657902905802233
 31
0.0
  0
LINE
  5
B3
100
AcDbEntity
100
AcDbLine
  8
color#ffffffff
 62
256
370
-1
  6
BYLAYER
 10
0.6620684571324529
 20
1.657902905802233
 30
0.0
 11
0.6463266086853853
 21
1.6485757109350909
 31
0.0
  0
LINE
  5
B4
100
AcDbEntity
100
AcDbLine
  8
color#ffffffff
 62
256
370
-1
  6
BYLAYER
 10
0.6463266086853853
 20
1.6485757109350909
 30
0.0
 11
0.6337151208332092
 21
1.6478258112484581
 31
0.0
  0
LINE
  5
B5
100
AcDbEntity
100
AcDbLine
  8
color#ffffffff
 62
256
370
-1
  6
BYLAYER
 10
0.6337151208332092
 20
1.6478258112484581
 30
0.0
 11
0.6237175048637756
 21
1.6509141029300298
 31
0.0
  0
LINE
  5
B6
100
AcDbEntity
100
AcDbLine
  8
color#ffffffff
 62
256
370
-1
  6
BYLAYER
 10
0.6237175048637756
 20
1.6509141029300298
 30
0.0
 11
0.6133644206046427
 21
1.6546117260675719
 31
0.0
  0
LINE
  5
B7
100
AcDbEntity
100
AcDbLine
  8
color#ffffffff
 62
256
370
-1
  6
BYLAYER
 10
0.6133644206046427
 20
1.6546117260675719
 30
0.0
 11
0.6019666751955177
 21
1.6730268388664931
 31
0.0
  0
LINE
  5
B8
100
AcDbEntity
100
AcDbLine
  8
color#ffffffff
 62
256
370
-1
  6
BYLAYER
 10
0.6019666751955177
 20
1.6730268388664931
 30
0.0
 11
0.5964897988411116
 21
1.7152030502148188
 31
0.0
  0
LINE
  5
B9
100
AcDbEntity
100
AcDbLine
  8
color#ffffffff
 62
256
370
-1
  6
BYLAYER
 10
0.5964897988411116
 20
1.7152030502148188
 30
0.0
 11
0.4981013170100483
 21
1.7151608883758844
 31
0.0
  0
LINE
  5
BA
100
AcDbEntity
100
AcDbLine
  8
color#ffffffff
 62
256
370
-1
  6
BYLAYER
 10
0.4981013170100483
 20
1.7151608883758844
 30
0.0
 11
0.5209086588403538
 21
1.6221835440132617
 31
0.0
  0
LINE
  5
BB
100
AcDbEntity
100
AcDbLine
  8
color#ffffffff
 62
256
370
-1
  6
BYLAYER
 10
0.5209086588403538
 20
1.6221835440132617
 30
0.0
 11
0.536353449626253
 21
1.6067200479388195
 31
0.0
  0
LINE
  5
BC
100
AcDbEntity
100
AcDbLine
  8
color#ffffffff
 62
256
370
-1
  6
BYLAYER
 10
0.536353449626253
 20
1.6067200479388195
 30
0.0
 11
0.5442361880541822
 21
1.6017729678336154
 31
0.0
  0
LINE
  5
BD
100
AcDbEntity
100
AcDbLine
  8
color#ffffffff
 62
256
370
-1
  6
BYLAYER
 10
0.5442361880541822
 20
1.6017729678336154
 30
0.0
 11
0.6097526257072435
 21
1.5826030171739474
 31
0.0
  0
LINE
  5
BE
100
AcDbEntity
100
AcDbLine
  8
color#ffffffff
 62
256
370
-1
  6
BYLAYER
 10
0.6097526257072435
 20
1.5826030171739474
 30
0.0
 11
0.6783557102333286
 21
1.5857534776739537
 31
0.0
  0
LINE
  5
BF
100
AcDbEntity
100
AcDbLine
  8
color#ffffffff
 62
256
370
-1
  6
BYLAYER
 10
0.6783557102333286
 20
1.5857534776739537
 30
0.0
 11
0.7192344822254269
 21
1.600280697281991
 31
0.0
  0
LINE
  5
C0
100
AcDbEntity
100
AcDbLine
  8
color#ffffffff
 62
256
370
-1
  6
BYLAYER
 10
0.7192344822254269
 20
1.600280697281991
 30
0.0
 11
0.7327535086054399
 21
1.609421020887795
 31
0.0
  0
LINE
  5
C1
100
AcDbEntity
100
AcDbLine
  8
color#ffffffff
 62
256
370
-1
  6
BYLAYER
 10
0.7327535086054399
 20
1.609421020887795
 30
0.0
 11
0.7433806972614667
 21
1.6206063352720999
 31
0.0
  0
LINE
  5
C2
100
AcDbEntity
100
AcDbLine
  8
color#ffffffff
 62
256
370
-1
  6
BYLAYER
 10
0.7433806972614667
 20
1.6206063352720999
 30
0.0
 11
0.7554451054802225
 21
1.642824124650718
 31
0.0
  0
LINE
  5
C3
100
AcDbEntity
100
AcDbLine
  8
color#ffffffff
 62
256
370
-1
  6
BYLAYER
 10
0.7554451054802225
 20
1.642824124650718
 30
0.0
 11
0.7628180439287975
 21
1.7053987207383459
 31
0.0
  0
LINE
  5
C4
100
AcDbEntity
100
AcDbLine
  8
color#ffffffff
 62
256
370
-1
  6
BYLAYER
 10
0.7628180439287975
 20
1.7053987207383459
 30
0.0
 11
0.7594752411229566
 21
1.7361146256151865
 31
0.0
  0
LINE
  5
C5
100
AcDbEntity
100
AcDbLine
  8
color#ffffffff
 62
256
370
-1
  6
BYLAYER
 10
0.7594752411229566
 20
1.7361146256151865
 30
0.0
 11
0.7439875774684169
 21
1.7582731853689164
 31
0.0
  0
LINE
  5
C6
100
AcDbEntity
100
AcDbLine
  8
color#ffffffff
 62
256
370
-1
  6
BYLAYER
 10
0.7439875774684169
 20
1.7582731853689164
 30
0.0
 11
0.6464592876923506
 21
1.8302505016361752
 31
0.0
  0
LINE
  5
C7
100
AcDbEntity
100
AcDbLine
  8
color#ffffffff
 62
256
370
-1
  6
BYLAYER
 10
0.6464592876923506
 20
1.8302505016361752
 30
0.0
 11
0.6097336885257049
 21
1.8599136008249104
 31
0.0
  0
LINE
  5
C8
100
AcDbEntity
100
AcDbLine
  8
color#ffffffff
 62
256
370
-1
  6
BYLAYER
 10
0.6097336885257049
 20
1.8599136008249104
 30
0.0
 11
0.6000963655450022
 21
1.8696154774268845
 31
0.0
  0
LINE
  5
C9
100
AcDbEntity
100
AcDbLine
  8
color#ffffffff
 62
256
370
-1
  6
BYLAYER
 10
0.6000963655450022
 20
1.8696154774268845
 30
0.0
 11
0.6068677932484216
 21
1.9105810448849274
 31
0.0
  0
LINE
  5
CA
100
AcDbEntity
100
AcDbLine
  8
color#ffffffff
 62
256
370
-1
  6
BYLAYER
 10
0.6068677932484216
 20
1.9105810448849274
 30
0.0
 11
0.6378182949836336
 21
1.910526282004553
 31
0.0
  0
LINE
  5
CB
100
AcDbEntity
100
AcDbLine
  8
color#ffffffff
 62
256
370
-1
  6
BYLAYER
 10
0.6378182949836336
 20
1.910526282004553
 30
0.0
 11
0.6463338389090463
 21
1.9099279238362081
 31
0.0
  0
LINE
  5
CC
100
AcDbEntity
100
AcDbLine
  8
color#ffffffff
 62
256
370
-1
  6
BYLAYER
 10
0.6463338389090463
 20
1.9099279238362081
 30
0.0
 11
0.6555991899588445
 21
1.904030991062444
 31
0.0
  0
LINE
  5
CD
100
AcDbEntity
100
AcDbLine
  8
color#ffffffff
 62
256
370
-1
  6
BYLAYER
 10
0.6555991899588445
 20
1.904030991062444
 30
0.0
 11
0.6656379073293181
 21
1.8541886856548833
 31
0.0
  0
LINE
  5
CE
100
AcDbEntity
100
AcDbLine
  8
color#ffffffff
 62
256
370
-1
  6
BYLAYER
 10
0.6656379073293181
 20
1.8541886856548833
 30
0.0
 11
0.7587496626478565
 21
1.8544580519237366
 31
0.0
  0
LINE
  5
CF
100
AcDbEntity
100
AcDbLine
  8
color#ffffffff
 62
256
370
-1
  6
BYLAYER
 10
0.7587496626478565
 20
1.8544580519237366
 30
0.0
 11
0.733976298252324
 21
1.9454260016193834
 31
0.0
  0
LINE
  5
D0
100
AcDbEntity
100
AcDbLine
  8
color#ffffffff
 62
256
370
-1
  6
BYLAYER
 10
0.733976298252324
 20
1.9454260016193834
 30
0.0
 11
0.728352396285697
 21
1.9504044240574032
 31
0.0
  0
LINE
  5
D1
100
AcDbEntity
100
AcDbLine
  8
color#ffffffff
 62
256
370
-1
  6
BYLAYER
 10
0.728352396285697
 20
1.9504044240574032
 30
0.0
 11
0.6881265114029135
 21
1.9686447453324856
 31
0.0
  0
LINE
  5
D2
100
AcDbEntity
100
AcDbLine
  8
color#ffffffff
 62
256
370
-1
  6
BYLAYER
 10
0.6881265114029135
 20
1.9686447453324856
 30
0.0
 11
0.5944847521518147
 21
1.9690761910168928
 31
0.0
  0
LINE
  5
D3
100
AcDbEntity
100
AcDbLine
  8
color#ffffffff
 62
256
370
-1
  6
BYLAYER
 10
0.5944847521518147
 20
1.9690761910168928
 30
0.0
 11
0.5731105438759477
 21
1.9638958822093171
 31
0.0
  0
LINE
  5
D4
100
AcDbEntity
100
AcDbLine
  8
color#ffffffff
 62
256
370
-1
  6
BYLAYER
 10
0.5731105438759477
 20
1.9638958822093171
 30
0.0
 11
0.6409387156171382
 21
1.995580571629076
 31
0.0
  0
LINE
  5
D5
100
AcDbEntity
100
AcDbLine
  8
color#ffffffff
 62
256
370
-1
  6
BYLAYER
 10
0.6409387156171382
 20
1.995580571629076
 30
0.0
 11
0.6903990573634942
 21
2.0151558412271897
 31
0.0
  0
LINE
  5
D6
100
AcDbEntity
100
AcDbLine
  8
color#ffffffff
 62
256
370
-1
  6
BYLAYER
 10
0.6903990573634942
 20
2.0151558412271897
 30
0.0
 11
0.7400855008817403
 21
2.0340550390238783
 31
0.0
  0
LINE
  5
D7
100
AcDbEntity
100
AcDbLine
  8
color#ffffffff
 62
256
370
-1
  6
BYLAYER
 10
0.7400855008817403
 20
2.0340550390238783
 30
0.0
 11
0.7899898395427105
 21
2.0522924807960732
 31
0.0
  0
LINE
  5
D8
100
AcDbEntity
100
AcDbLine
  8
color#ffffffff
 62
256
370
-1
  6
BYLAYER
 10
0.7899898395427105
 20
2.0522924807960732
 30
0.0
 11
0.840103866717238
 21
2.0698824823207058
 31
0.0
  0
LINE
  5
D9
100
AcDbEntity
100
AcDbLine
  8
color#ffffffff
 62
256
370
-1
  6
BYLAYER
 10
0.840103866717238
 20
2.0698824823207058
 30
0.0
 11
0.8904193757761575
 21
2.0868393593747072
 31
0.0
  0
LINE
  5
DA
100
AcDbEntity
100
AcDbLine
  8
color#ffffffff
 62
256
370
-1
  6
BYLAYER
 10
0.8904193757761575
 20
2.0868393593747072
 30
0.0
 11
0.9409281600903015
 21
2.1031774277350106
 31
0.0
  0
LINE
  5
DB
100
AcDbEntity
100
AcDbLine
  8
color#ffffffff
 62
256
370
-1
  6
BYLAYER
 10
0.9409281600903015
 20
2.1031774277350106
 30
0.0
 11
1.0424927279675984
 21
2.1340544014822487
 31
0.0
  0
LINE
  5
DC
100
AcDbEntity
100
AcDbLine
  8
color#ffffffff
 62
256
370
-1
  6
BYLAYER
 10
1.0424927279675984
 20
2.1340544014822487
 30
0.0
 11
1.1447319173157984
 21
2.1626279297778721
 31
0.0
  0
LINE
  5
DD
100
AcDbEntity
100
AcDbLine
  8
color#ffffffff
 62
256
370
-1
  6
BYLAYER
 10
1.1447319173157984
 20
2.1626279297778721
 30
0.0
 11
1.2475800751015707
 21
2.1890125388373343
 31
0.0
  0
LINE
  5
DE
100
AcDbEntity
100
AcDbLine
  8
color#ffffffff
 62
256
370
-1
  6
BYLAYER
 10
1.2475800751015707
 20
2.1890125388373343
 30
0.0
 11
1.3509715482915832
 21
2.2133227548760894
 31
0.0
  0
LINE
  5
DF
100
AcDbEntity
100
AcDbLine
  8
color#ffffffff
 62
256
370
-1
  6
BYLAYER
 10
1.3509715482915832
 20
2.2133227548760894
 30
0.0
 11
1.4548406838525059
 21
2.235673104109591
 31
0.0
  0
LINE
  5
E0
100
AcDbEntity
100
AcDbLine
  8
color#ffffffff
 62
256
370
-1
  6
BYLAYER
 10
1.4548406838525059
 20
2.235673104109591
 30
0.0
 11
1.5591218287510076
 21
2.2561781127532918
 31
0.0
  0
LINE
  5
E1
100
AcDbEntity
100
AcDbLine
  8
color#ffffffff
 62
256
370
-1
  6
BYLAYER
 10
1.5591218287510076
 20
2.2561781127532918
 30
0.0
 11
1.7161724475963085
 21
2.2837261382092731
 31
0.0
  0
LINE
  5
E2
100
AcDbEntity
100
AcDbLine
  8
color#ffffffff
 62
256
370
-1
  6
BYLAYER
 10
1.7161724475963085
 20
2.2837261382092731
 30
0.0
 11
1.8737807891386749
 21
2.3077663573001295
 31
0.0
  0
LINE
  5
E3
100
AcDbEntity
100
AcDbLine
  8
color#ffffffff
 62
256
370
-1
  6
BYLAYER
 10
1.8737807891386749
 20
2.3077663573001295
 30
0.0
 11
2.0844098371406115
 21
2.3350314646656685
 31
0.0
  0
LINE
  5
E4
100
AcDbEntity
100
AcDbLine
  8
color#ffffffff
 62
256
370
-1
  6
BYLAYER
 10
2.0844098371406115
 20
2.3350314646656685
 30
0.0
 11
2.137098922675007
 21
2.3410880875040494
 31
0.0
  0
LINE
  5
E5
100
AcDbEntity
100
AcDbLine
  8
color#ffffffff
 62
256
370
-1
  6
BYLAYER
 10
0.8950359614673088
 20
1.9654083822773545
 30
0.0
 11
0.827322633903365
 21
1.5937669094541558
 31
0.0
  0
LINE
  5
E6
100
AcDbEntity
100
AcDbLine
  8
color#ffffffff
 62
256
370
-1
  6
BYLAYER
 10
0.827322633903365
 20
1.5937669094541558
 30
0.0
 11
0.9245536132130078
 21
1.5936222396121462
 31
0.0
  0
LINE
  5
E7
100
AcDbEntity
100
AcDbLine
  8
color#ffffffff
 62
256
370
-1
  6
BYLAYER
 10
0.9245536132130078
 20
1.5936222396121462
 30
0.0
 11
0.9777140277783203
 21
1.9350656466287453
 31
0.0
  0
LINE
  5
E8
100
AcDbEntity
100
AcDbLine
  8
color#ffffffff
 62
256
370
-1
  6
BYLAYER
 10
0.9777140277783203
 20
1.9350656466287453
 30
0.0
 11
1.0261942550278738
 21
1.593709529008323
 31
0.0
  0
LINE
  5
E9
100
AcDbEntity
100
AcDbLine
  8
color#ffffffff
 62
256
370
-1
  6
BYLAYER
 10
1.0261942550278738
 20
1.593709529008323
 30
0.0
 11
1.124944890328218
 21
1.5936374444617398
 31
0.0
  0
LINE
  5
EA
100
AcDbEntity
100
AcDbLine
  8
color#ffffffff
 62
256
370
-1
  6
BYLAYER
 10
1.124944890328218
 20
1.5936374444617398
 30
0.0
 11
1.0579569261860973
 21
1.9652518513918069
 31
0.0
  0
LINE
  5
EB
100
AcDbEntity
100
AcDbLine
  8
color#ffffffff
 62
256
370
-1
  6
BYLAYER
 10
1.0579569261860973
 20
1.9652518513918069
 30
0.0
 11
0.8950359614673088
 21
1.9654083822773545
 31
0.0
  0
LINE
  5
EC
100
AcDbEntity
100
AcDbLine
  8
color#ffffffff
 62
256
370
-1
  6
BYLAYER
 10
1.4497050546180368
 20
1.9651760961001143
 30
0.0
 11
1.4046828191944456
 21
1.6790039265984151
 31
0.0
  0
LINE
  5
ED
100
AcDbEntity
100
AcDbLine
  8
color#ffffffff
 62
256
370
-1
  6
BYLAYER
 10
1.4046828191944456
 20
1.6790039265984151
 30
0.0
 11
1.3535540379115449
 21
1.9649900222007548
 31
0.0
  0
LINE
  5
EE
100
AcDbEntity
100
AcDbLine
  8
color#ffffffff
 62
256
370
-1
  6
BYLAYER
 10
1.3535540379115449
 20
1.9649900222007548
 30
0.0
 11
1.204999099953066
 21
1.9652182332445602
 31
0.0
  0
LINE
  5
EF
100
AcDbEntity
100
AcDbLine
  8
color#ffffffff
 62
256
370
-1
  6
BYLAYER
 10
1.204999099953066
 20
1.9652182332445602
 30
0.0
 11
1.1975825759626479
 21
1.5937213944323472
 31
0.0
  0
LINE
  5
F0
100
AcDbEntity
100
AcDbLine
  8
color#ffffffff
 62
256
370
-1
  6
BYLAYER
 10
1.1975825759626479
 20
1.5937213944323472
 30
0.0
 11
1.2916458070602781
 21
1.5936988805162424
 31
0.0
  0
LINE
  5
F1
100
AcDbEntity
100
AcDbLine
  8
color#ffffffff
 62
256
370
-1
  6
BYLAYER
 10
1.2916458070602781
 20
1.5936988805162424
 30
0.0
 11
1.2963806594059344
 21
1.9350098067764034
 31
0.0
  0
LINE
  5
F2
100
AcDbEntity
100
AcDbLine
  8
color#ffffffff
 62
256
370
-1
  6
BYLAYER
 10
1.2963806594059344
 20
1.9350098067764034
 30
0.0
 11
1.3559252339132948
 21
1.5936973964379364
 31
0.0
  0
LINE
  5
F3
100
AcDbEntity
100
AcDbLine
  8
color#ffffffff
 62
256
370
-1
  6
BYLAYER
 10
1.3559252339132948
 20
1.5936973964379364
 30
0.0
 11
1.4495616731700414
 21
1.5936887160587068
 31
0.0
  0
LINE
  5
F4
100
AcDbEntity
100
AcDbLine
  8
color#ffffffff
 62
256
370
-1
  6
BYLAYER
 10
1.4495616731700414
 20
1.5936887160587068
 30
0.0
 11
1.5144528603864833
 21
1.9281869618440319
 31
0.0
  0
LINE
  5
F5
100
AcDbEntity
100
AcDbLine
  8
color#ffffffff
 62
256
370
-1
  6
BYLAYER
 10
1.5144528603864833
 20
1.9281869618440319
 30
0.0
 11
1.5174272732064198
 21
1.5936535001382468
 31
0.0
  0
LINE
  5
F6
100
AcDbEntity
100
AcDbLine
  8
color#ffffffff
 62
256
370
-1
  6
BYLAYER
 10
1.5174272732064198
 20
1.5936535001382468
 30
0.0
 11
1.6077903813385843
 21
1.5936714079151071
 31
0.0
  0
LINE
  5
F7
100
AcDbEntity
100
AcDbLine
  8
color#ffffffff
 62
256
370
-1
  6
BYLAYER
 10
1.6077903813385843
 20
1.5936714079151071
 30
0.0
 11
1.6004319303925238
 21
1.9651458819009504
 31
0.0
  0
LINE
  5
F8
100
AcDbEntity
100
AcDbLine
  8
color#ffffffff
 62
256
370
-1
  6
BYLAYER
 10
1.6004319303925238
 20
1.9651458819009504
 30
0.0
 11
1.4497050546180368
 21
1.9651760961001143
 31
0.0
  0
LINE
  5
F9
100
AcDbEntity
100
AcDbLine
  8
color#ffffffff
 62
256
370
-1
  6
BYLAYER
 10
1.7199850501639462
 20
1.932901435253604
 30
0.0
 11
1.7177543100752861
 21
1.9299459351900947
 31
0.0
  0
LINE
  5
FA
100
AcDbEntity
100
AcDbLine
  8
color#ffffffff
 62
256
370
-1
  6
BYLAYER
 10
1.7177543100752861
 20
1.9299459351900947
 30
0.0
 11
1.7082168691903827
 21
1.8322435033749409
 31
0.0
  0
LINE
  5
FB
100
AcDbEntity
100
AcDbLine
  8
color#ffffffff
 62
256
370
-1
  6
BYLAYER
 10
1.7082168691903827
 20
1.8322435033749409
 30
0.0
 11
1.7116837842486976
 21
1.8255171489514841
 31
0.0
  0
LINE
  5
FC
100
AcDbEntity
100
AcDbLine
  8
color#ffffffff
 62
256
370
-1
  6
BYLAYER
 10
1.7116837842486976
 20
1.8255171489514841
 30
0.0
 11
1.7197861462722452
 21
1.8132350439011351
 31
0.0
  0
LINE
  5
FD
100
AcDbEntity
100
AcDbLine
  8
color#ffffffff
 62
256
370
-1
  6
BYLAYER
 10
1.7197861462722452
 20
1.8132350439011351
 30
0.0
 11
1.7292572591212698
 21
1.8023240008380721
 31
0.0
  0
LINE
  5
FE
100
AcDbEntity
100
AcDbLine
  8
color#ffffffff
 62
256
370
-1
  6
BYLAYER
 10
1.7292572591212698
 20
1.8023240008380721
 30
0.0
 11
1.7574326538332901
 21
1.7795505626607531
 31
0.0
  0
LINE
  5
FF
100
AcDbEntity
100
AcDbLine
  8
color#ffffffff
 62
256
370
-1
  6
BYLAYER
 10
1.7574326538332901
 20
1.7795505626607531
 30
0.0
 11
1.8440710264166331
 21
1.7235190034192134
 31
0.0
  0
LINE
  5
100
100
AcDbEntity
100
AcDbLine
  8
color#ffffffff
 62
256
370
-1
  6
BYLAYER
 10
1.8440710264166331
 20
1.7235190034192134
 30
0.0
 11
1.8588121376402296
 21
1.7076727950344039
 31
0.0
  0
LINE
  5
101
100
AcDbEntity
100
AcDbLine
  8
color#ffffffff
 62
256
370
-1
  6
BYLAYER
 10
1.8588121376402296
 20
1.7076727950344039
 30
0.0
 11
1.8669905556763062
 21
1.6954545440176305
 31
0.0
  0
LINE
  5
102
100
AcDbEntity
100
AcDbLine
  8
color#ffffffff
 62
256
370
-1
  6
BYLAYER
 10
1.8669905556763062
 20
1.6954545440176305
 30
0.0
 11
1.868170946567085
 21
1.6911842237134114
 31
0.0
  0
LINE
  5
103
100
AcDbEntity
100
AcDbLine
  8
color#ffffffff
 62
256
370
-1
  6
BYLAYER
 10
1.868170946567085
 20
1.6911842237134114
 30
0.0
 11
1.8693720884513116
 21
1.6833121756512566
 31
0.0
  0
LINE
  5
104
100
AcDbEntity
100
AcDbLine
  8
color#ffffffff
 62
256
370
-1
  6
BYLAYER
 10
1.8693720884513116
 20
1.6833121756512566
 30
0.0
 11
1.8685305999248065
 21
1.6731312374796177
 31
0.0
  0
LINE
  5
105
100
AcDbEntity
100
AcDbLine
  8
color#ffffffff
 62
256
370
-1
  6
BYLAYER
 10
1.8685305999248065
 20
1.6731312374796177
 30
0.0
 11
1.8631911548575009
 21
1.6624697970608768
 31
0.0
  0
LINE
  5
106
100
AcDbEntity
100
AcDbLine
  8
color#ffffffff
 62
256
370
-1
  6
BYLAYER
 10
1.8631911548575009
 20
1.6624697970608768
 30
0.0
 11
1.8483623582388797
 21
1.6523357429387531
 31
0.0
  0
LINE
  5
107
100
AcDbEntity
100
AcDbLine
  8
color#ffffffff
 62
256
370
-1
  6
BYLAYER
 10
1.8483623582388797
 20
1.6523357429387531
 30
0.0
 11
1.8043120345127213
 21
1.6516951882345845
 31
0.0
  0
LINE
  5
108
100
AcDbEntity
100
AcDbLine
  8
color#ffffffff
 62
256
370
-1
  6
BYLAYER
 10
1.8043120345127213
 20
1.6516951882345845
 30
0.0
 11
1.7926278678364862
 21
1.717002592186776
 31
0.0
  0
LINE
  5
109
100
AcDbEntity
100
AcDbLine
  8
color#ffffffff
 62
256
370
-1
  6
BYLAYER
 10
1.7926278678364862
 20
1.717002592186776
 30
0.0
 11
1.6978390534892187
 21
1.7166125679425714
 31
0.0
  0
LINE
  5
10A
100
AcDbEntity
100
AcDbLine
  8
color#ffffffff
 62
256
370
-1
  6
BYLAYER
 10
1.6978390534892187
 20
1.7166125679425714
 30
0.0
 11
1.7170938261597106
 21
1.6271040896937268
 31
0.0
  0
LINE
  5
10B
100
AcDbEntity
100
AcDbLine
  8
color#ffffffff
 62
256
370
-1
  6
BYLAYER
 10
1.7170938261597106
 20
1.6271040896937268
 30
0.0
 11
1.7342894087858727
 21
1.6096145560233563
 31
0.0
  0
LINE
  5
10C
100
AcDbEntity
100
AcDbLine
  8
color#ffffffff
 62
256
370
-1
  6
BYLAYER
 10
1.7342894087858727
 20
1.6096145560233563
 30
0.0
 11
1.7608187506951252
 21
1.5954114569159863
 31
0.0
  0
LINE
  5
10D
100
AcDbEntity
100
AcDbLine
  8
color#ffffffff
 62
256
370
-1
  6
BYLAYER
 10
1.7608187506951252
 20
1.5954114569159863
 30
0.0
 11
1.8076059626407011
 21
1.5844020019791227
 31
0.0
  0
LINE
  5
10E
100
AcDbEntity
100
AcDbLine
  8
color#ffffffff
 62
256
370
-1
  6
BYLAYER
 10
1.8076059626407011
 20
1.5844020019791227
 30
0.0
 11
1.9032571085535268
 21
1.5961372749449976
 31
0.0
  0
LINE
  5
10F
100
AcDbEntity
100
AcDbLine
  8
color#ffffffff
 62
256
370
-1
  6
BYLAYER
 10
1.9032571085535268
 20
1.5961372749449976
 30
0.0
 11
1.9089337661916115
 21
1.5983550135646492
 31
0.0
  0
LINE
  5
110
100
AcDbEntity
100
AcDbLine
  8
color#ffffffff
 62
256
370
-1
  6
BYLAYER
 10
1.9089337661916115
 20
1.5983550135646492
 30
0.0
 11
1.919308115717141
 21
1.6038004141645008
 31
0.0
  0
LINE
  5
111
100
AcDbEntity
100
AcDbLine
  8
color#ffffffff
 62
256
370
-1
  6
BYLAYER
 10
1.919308115717141
 20
1.6038004141645008
 30
0.0
 11
1.9325108969505473
 21
1.6142355539838438
 31
0.0
  0
LINE
  5
112
100
AcDbEntity
100
AcDbLine
  8
color#ffffffff
 62
256
370
-1
  6
BYLAYER
 10
1.9325108969505473
 20
1.6142355539838438
 30
0.0
 11
1.9430250606328197
 21
1.6269787093357815
 31
0.0
  0
LINE
  5
113
100
AcDbEntity
100
AcDbLine
  8
color#ffffffff
 62
256
370
-1
  6
BYLAYER
 10
1.9430250606328197
 20
1.6269787093357815
 30
0.0
 11
1.9531375179082875
 21
1.6467578800234572
 31
0.0
  0
LINE
  5
114
100
AcDbEntity
100
AcDbLine
  8
color#ffffffff
 62
256
370
-1
  6
BYLAYER
 10
1.9531375179082875
 20
1.6467578800234572
 30
0.0
 11
1.9607037722505625
 21
1.6801675557759728
 31
0.0
  0
LINE
  5
115
100
AcDbEntity
100
AcDbLine
  8
color#ffffffff
 62
256
370
-1
  6
BYLAYER
 10
1.9607037722505625
 20
1.6801675557759728
 30
0.0
 11
1.9561938034037165
 21
1.7366609974887288
 31
0.0
  0
LINE
  5
116
100
AcDbEntity
100
AcDbLine
  8
color#ffffffff
 62
256
370
-1
  6
BYLAYER
 10
1.9561938034037165
 20
1.7366609974887288
 30
0.0
 11
1.949047625620278
 21
1.7488205614235579
 31
0.0
  0
LINE
  5
117
100
AcDbEntity
100
AcDbLine
  8
color#ffffffff
 62
256
370
-1
  6
BYLAYER
 10
1.949047625620278
 20
1.7488205614235579
 30
0.0
 11
1.9362423767179808
 21
1.7648105148023876
 31
0.0
  0
LINE
  5
118
100
AcDbEntity
100
AcDbLine
  8
color#ffffffff
 62
256
370
-1
  6
BYLAYER
 10
1.9362423767179808
 20
1.7648105148023876
 30
0.0
 11
1.9049200260753441
 21
1.7906527267668588
 31
0.0
  0
LINE
  5
119
100
AcDbEntity
100
AcDbLine
  8
color#ffffffff
 62
256
370
-1
  6
BYLAYER
 10
1.9049200260753441
 20
1.7906527267668588
 30
0.0
 11
1.8005581120618137
 21
1.8575673998491311
 31
0.0
  0
LINE
  5
11A
100
AcDbEntity
100
AcDbLine
  8
color#ffffffff
 62
256
370
-1
  6
BYLAYER
 10
1.8005581120618137
 20
1.8575673998491311
 30
0.0
 11
1.7988359335255923
 21
1.8596944608649757
 31
0.0
  0
LINE
  5
11B
100
AcDbEntity
100
AcDbLine
  8
color#ffffffff
 62
256
370
-1
  6
BYLAYER
 10
1.7988359335255923
 20
1.8596944608649757
 30
0.0
 11
1.7943830540569097
 21
1.8725363365134216
 31
0.0
  0
LINE
  5
11C
100
AcDbEntity
100
AcDbLine
  8
color#ffffffff
 62
256
370
-1
  6
BYLAYER
 10
1.7943830540569097
 20
1.8725363365134216
 30
0.0
 11
1.800869096246301
 21
1.8980057503865433
 31
0.0
  0
LINE
  5
11D
100
AcDbEntity
100
AcDbLine
  8
color#ffffffff
 62
256
370
-1
  6
BYLAYER
 10
1.800869096246301
 20
1.8980057503865433
 30
0.0
 11
1.8151171938337665
 21
1.9113042327742475
 31
0.0
  0
LINE
  5
11E
100
AcDbEntity
100
AcDbLine
  8
color#ffffffff
 62
256
370
-1
  6
BYLAYER
 10
1.8151171938337665
 20
1.9113042327742475
 30
0.0
 11
1.8254952519611294
 21
1.9131264370055849
 31
0.0
  0
LINE
  5
11F
100
AcDbEntity
100
AcDbLine
  8
color#ffffffff
 62
256
370
-1
  6
BYLAYER
 10
1.8254952519611294
 20
1.9131264370055849
 30
0.0
 11
1.8338852923815512
 21
1.9106604772671369
 31
0.0
  0
LINE
  5
120
100
AcDbEntity
100
AcDbLine
  8
color#ffffffff
 62
256
370
-1
  6
BYLAYER
 10
1.8338852923815512
 20
1.9106604772671369
 30
0.0
 11
1.8421556924831799
 21
1.9098983246586636
 31
0.0
  0
LINE
  5
121
100
AcDbEntity
100
AcDbLine
  8
color#ffffffff
 62
256
370
-1
  6
BYLAYER
 10
1.8421556924831799
 20
1.9098983246586636
 30
0.0
 11
1.8497972915508727
 21
1.9054468414456989
 31
0.0
  0
LINE
  5
122
100
AcDbEntity
100
AcDbLine
  8
color#ffffffff
 62
256
370
-1
  6
BYLAYER
 10
1.8497972915508727
 20
1.9054468414456989
 30
0.0
 11
1.8622672559265179
 21
1.8542356990387121
 31
0.0
  0
LINE
  5
123
100
AcDbEntity
100
AcDbLine
  8
color#ffffffff
 62
256
370
-1
  6
BYLAYER
 10
1.8622672559265179
 20
1.8542356990387121
 30
0.0
 11
1.9550448739579822
 21
1.8545020012862479
 31
0.0
  0
LINE
  5
124
100
AcDbEntity
100
AcDbLine
  8
color#ffffffff
 62
256
370
-1
  6
BYLAYER
 10
1.9550448739579822
 20
1.8545020012862479
 30
0.0
 11
1.9336904752044306
 21
1.9376353292998658
 31
0.0
  0
LINE
  5
125
100
AcDbEntity
100
AcDbLine
  8
color#ffffffff
 62
256
370
-1
  6
BYLAYER
 10
1.9336904752044306
 20
1.9376353292998658
 30
0.0
 11
1.9284548508029984
 21
1.9433599358214433
 31
0.0
  0
LINE
  5
126
100
AcDbEntity
100
AcDbLine
  8
color#ffffffff
 62
256
370
-1
  6
BYLAYER
 10
1.9284548508029984
 20
1.9433599358214433
 30
0.0
 11
1.8321665261684852
 21
1.971568785457104
 31
0.0
  0
LINE
  5
127
100
AcDbEntity
100
AcDbLine
  8
color#ffffffff
 62
256
370
-1
  6
BYLAYER
 10
1.8321665261684852
 20
1.971568785457104
 30
0.0
 11
1.7533960363287819
 21
1.9579412750516998
 31
0.0
  0
LINE
  5
128
100
AcDbEntity
100
AcDbLine
  8
color#ffffffff
 62
256
370
-1
  6
BYLAYER
 10
1.7533960363287819
 20
1.9579412750516998
 30
0.0
 11
1.7199850501639462
 21
1.932901435253604
 31
0.0
  0
LINE
  5
129
100
AcDbEntity
100
AcDbLine
  8
color#ffffffff
 62
256
370
-1
  6
BYLAYER
 10
2.044949301298892
 20
1.7084380818844644
 30
0.0
 11
2.0547784006303766
 21
1.6444444876992148
 31
0.0
  0
LINE
  5
12A
100
AcDbEntity
100
AcDbLine
  8
color#ffffffff
 62
256
370
-1
  6
BYLAYER
 10
2.0547784006303766
 20
1.6444444876992148
 30
0.0
 11
2.0825130173001747
 21
1.6087303665749815
 31
0.0
  0
LINE
  5
12B
100
AcDbEntity
100
AcDbLine
  8
color#ffffffff
 62
256
370
-1
  6
BYLAYER
 10
2.0825130173001747
 20
1.6087303665749815
 30
0.0
 11
2.0870805248851134
 21
1.6055801040201052
 31
0.0
  0
LINE
  5
12C
100
AcDbEntity
100
AcDbLine
  8
color#ffffffff
 62
256
370
-1
  6
BYLAYER
 10
2.0870805248851134
 20
1.6055801040201052
 30
0.0
 11
2.1216854212162004
 21
1.5899564010088523
 31
0.0
  0
LINE
  5
12D
100
AcDbEntity
100
AcDbLine
  8
color#ffffffff
 62
256
370
-1
  6
BYLAYER
 10
2.1216854212162004
 20
1.5899564010088523
 30
0.0
 11
2.2355519711678173
 21
1.5917065659306826
 31
0.0
  0
LINE
  5
12E
100
AcDbEntity
100
AcDbLine
  8
color#ffffffff
 62
256
370
-1
  6
BYLAYER
 10
2.2355519711678173
 20
1.5917065659306826
 30
0.0
 11
2.2547542170001851
 21
1.5993508548914166
 31
0.0
  0
LINE
  5
12F
100
AcDbEntity
100
AcDbLine
  8
color#ffffffff
 62
256
370
-1
  6
BYLAYER
 10
2.2547542170001851
 20
1.5993508548914166
 30
0.0
 11
2.2891890015518039
 21
1.6332128766747585
 31
0.0
  0
LINE
  5
130
100
AcDbEntity
100
AcDbLine
  8
color#ffffffff
 62
256
370
-1
  6
BYLAYER
 10
2.2891890015518039
 20
1.6332128766747585
 30
0.0
 11
2.3017000078721983
 21
1.6803026848107645
 31
0.0
  0
LINE
  5
131
100
AcDbEntity
100
AcDbLine
  8
color#ffffffff
 62
256
370
-1
  6
BYLAYER
 10
2.3017000078721983
 20
1.6803026848107645
 30
0.0
 11
2.3020201259251771
 21
1.9653308630835662
 31
0.0
  0
LINE
  5
132
100
AcDbEntity
100
AcDbLine
  8
color#ffffffff
 62
256
370
-1
  6
BYLAYER
 10
2.3020201259251771
 20
1.9653308630835662
 30
0.0
 11
2.2135797624415483
 21
1.9652938384918737
 31
0.0
  0
LINE
  5
133
100
AcDbEntity
100
AcDbLine
  8
color#ffffffff
 62
256
370
-1
  6
BYLAYER
 10
2.2135797624415483
 20
1.9652938384918737
 30
0.0
 11
2.2051349933407045
 21
1.6557478566927202
 31
0.0
  0
LINE
  5
134
100
AcDbEntity
100
AcDbLine
  8
color#ffffffff
 62
256
370
-1
  6
BYLAYER
 10
2.2051349933407045
 20
1.6557478566927202
 30
0.0
 11
2.1529308644142731
 21
1.6576566941150963
 31
0.0
  0
LINE
  5
135
100
AcDbEntity
100
AcDbLine
  8
color#ffffffff
 62
256
370
-1
  6
BYLAYER
 10
2.1529308644142731
 20
1.6576566941150963
 30
0.0
 11
2.1427394334945986
 21
1.6690527172512135
 31
0.0
  0
LINE
  5
136
100
AcDbEntity
100
AcDbLine
  8
color#ffffffff
 62
256
370
-1
  6
BYLAYER
 10
2.1427394334945986
 20
1.6690527172512135
 30
0.0
 11
2.1400364342568974
 21
1.6813598603453599
 31
0.0
  0
LINE
  5
137
100
AcDbEntity
100
AcDbLine
  8
color#ffffffff
 62
256
370
-1
  6
BYLAYER
 10
2.1400364342568974
 20
1.6813598603453599
 30
0.0
 11
2.1388911433274327
 21
1.965156784798384
 31
0.0
  0
LINE
  5
138
100
AcDbEntity
100
AcDbLine
  8
color#ffffffff
 62
256
370
-1
  6
BYLAYER
 10
2.1388911433274327
 20
1.965156784798384
 30
0.0
 11
2.0455577274496495
 21
1.9656070937919625
 31
0.0
  0
LINE
  5
139
100
AcDbEntity
100
AcDbLine
  8
color#ffffffff
 62
256
370
-1
  6
BYLAYER
 10
2.0455577274496495
 20
1.9656070937919625
 30
0.0
 11
2.044949301298892
 21
1.7084380818844644
 31
0.0
  0
LINE
  5
13A
100
AcDbEntity
100
AcDbLine
  8
color#ffffffff
 62
256
370
-1
  6
BYLAYER
 10
2.4079593649189146
 20
1.602419588876016
 30
0.0
 11
2.4982904734358069
 21
1.6024043328538906
 31
0.0
  0
LINE
  5
13B
100
AcDbEntity
100
AcDbLine
  8
color#ffffffff
 62
256
370
-1
  6
BYLAYER
 10
2.4982904734358069
 20
1.6024043328538906
 30
0.0
 11
2.4949652371439086
 21
1.8997631297765853
 31
0.0
  0
LINE
  5
13C
100
AcDbEntity
100
AcDbLine
  8
color#ffffffff
 62
256
370
-1
  6
BYLAYER
 10
2.4949652371439086
 20
1.8997631297765853
 30
0.0
 11
2.5847544616069018
 21
1.6024013274790125
 31
0.0
  0
LINE
  5
13D
100
AcDbEntity
100
AcDbLine
  8
color#ffffffff
 62
256
370
-1
  6
BYLAYER
 10
2.5847544616069018
 20
1.6024013274790125
 30
0.0
 11
2.7152958863353174
 21
1.6024048745590593
 31
0.0
  0
LINE
  5
13E
100
AcDbEntity
100
AcDbLine
  8
color#ffffffff
 62
256
370
-1
  6
BYLAYER
 10
2.7152958863353174
 20
1.6024048745590593
 30
0.0
 11
2.715283625493528
 21
1.9652106636777082
 31
0.0
  0
LINE
  5
13F
100
AcDbEntity
100
AcDbLine
  8
color#ffffffff
 62
256
370
-1
  6
BYLAYER
 10
2.715283625493528
 20
1.9652106636777082
 30
0.0
 11
2.6284591263256867
 21
1.9654624464860955
 31
0.0
  0
LINE
  5
140
100
AcDbEntity
100
AcDbLine
  8
color#ffffffff
 62
256
370
-1
  6
BYLAYER
 10
2.6284591263256867
 20
1.9654624464860955
 30
0.0
 11
2.6301522570372469
 21
1.6691117026122599
 31
0.0
  0
LINE
  5
141
100
AcDbEntity
100
AcDbLine
  8
color#ffffffff
 62
256
370
-1
  6
BYLAYER
 10
2.6301522570372469
 20
1.6691117026122599
 30
0.0
 11
2.5440967816911657
 21
1.9652299889973115
 31
0.0
  0
LINE
  5
142
100
AcDbEntity
100
AcDbLine
  8
color#ffffffff
 62
256
370
-1
  6
BYLAYER
 10
2.5440967816911657
 20
1.9652299889973115
 30
0.0
 11
2.4080304893751476
 21
1.9653212075254285
 31
0.0
  0
LINE
  5
143
100
AcDbEntity
100
AcDbLine
  8
color#ffffffff
 62
256
370
-1
  6
BYLAYER
 10
2.4080304893751476
 20
1.9653212075254285
 30
0.0
 11
2.4079593649189146
 21
1.602419588876016
 31
0.0
  0
ENDSEC
  0
SECTION
  2
OBJECTS
  0
DICTIONARY
  5
C
100
AcDbDictionary
280
0
281
1
  3
ACAD_GROUP
350
D
  3
ACAD_LAYOUT
350
1A
  3
ACAD_MLINESTYLE
350
17
  3
ACAD_PLOTSETTINGS
350
19
  3
ACAD_PLOTSTYLENAME
350
E
  3
AcDbVariableDictionary
350
144
  0
DICTIONARY
  5
D
100
AcDbDictionary
280
0
281
1
  0
ACDBDICTIONARYWDFLT
  5
E
100
AcDbDictionary
281
1
  3
Normal
350
F
100
AcDbDictionaryWithDefault
340
F
  0
ACDBPLACEHOLDER
  5
F
  0
DICTIONARY
  5
17
100
AcDbDictionary
280
0
281
1
  3
Standard
350
18
  0
MLINESTYLE
  5
18
100
AcDbMlineStyle
  2
STANDARD
 70
0
  3

 62
256
 51
90.0
 52
90.0
 71
2
 49
0.5
 62
256
  6
BYLAYER
 49
-0.5
 62
256
  6
BYLAYER
  0
DICTIONARY
  5
19
100
AcDbDictionary
280
0
281
1
  0
DICTIONARY
  5
1A
100
AcDbDictionary
281
1
  3
Layout1
350
1E
  3
Layout2
350
26
  3
Model
350
22
  0
LAYOUT
  5
1E
100
AcDbPlotSettings
  1

  2
C:\Program Files\AutoCAD 2002\plotters\DWF ePlot (optimized for plotting).pc3
  4

  6

 40
0.0
 41
0.0
 42
0.0
 43
0.0
 44
0.0
 45
0.0
 46
0.0
 47
0.0
 48
0.0
 49
0.0
140
0.0
141
0.0
142
1.0
143
1.0
 70
688
 72
0
 73
0
 74
5
  7

 75
16
147
1.0
148
0.0
149
0.0
100
AcDbLayout
  1
Layout1
 70
1
 71
1
 10
0.0
 20
0.0
 11
420.0
 21
297.0
 12
0.0
 22
0.0
 32
0.0
 14
100000000000000000000.0
 24
100000000000000000000.0
 34
100000000000000000000.0
 15
-100000000000000000000.0
 25
-100000000000000000000.0
 35
-100000000000000000000.0
146
0.0
 13
0.0
 23
0.0
 33
0.0
 16
1.0
 26
0.0
 36
0.0
 17
0.0
 27
1.0
 37
0.0
 76
0
330
1B
  0
LAYOUT
  5
22
100
AcDbPlotSettings
  1

  2
C:\Program Files\AutoCAD 2002\plotters\DWF ePlot (optimized for plotting).pc3
  4

  6

 40
0.0
 41
0.0
 42
0.0
 43
0.0
 44
0.0
 45
0.0
 46
0.0
 47
0.0
 48
0.0
 49
0.0
140
0.0
141
0.0
142
1.0
143
1.0
 70
1712
 72
0
 73
0
 74
0
  7

 75
0
147
1.0
148
0.0
149
0.0
100
AcDbLayout
  1
Model
 70
1
 71
0
 10
0.0
 20
0.0
 11
12.0
 21
9.0
 12
0.0
 22
0.0
 32
0.0
 14
0.0
 24
0.0
 34
0.0
 15
0.0
 25
0.0
 35
0.0
146
0.0
 13
0.0
 23
0.0
 33
0.0
 16
1.0
 26
0.0
 36
0.0
 17
0.0
 27
1.0
 37
0.0
 76
0
330
1F
  0
LAYOUT
  5
26
100
AcDbPlotSettings
  1

  2
C:\Program Files\AutoCAD 2002\plotters\DWF ePlot (optimized for plotting).pc3
  4

  6

 40
0.0
 41
0.0
 42
0.0
 43
0.0
 44
0.0
 45
0.0
 46
0.0
 47
0.0
 48
0.0
 49
0.0
140
0.0
141
0.0
142
1.0
143
1.0
 70
688
 72
0
 73
0
 74
5
  7

 75
16
147
1.0
148
0.0
149
0.0
100
AcDbLayout
  1
Layout2
 70
1
 71
2
 10
0.0
 20
0.0
 11
12.0
 21
9.0
 12
0.0
 22
0.0
 32
0.0
 14
0.0
 24
0.0
 34
0.0
 15
0.0
 25
0.0
 35
0.0
146
0.0
 13
0.0
 23
0.0
 33
0.0
 16
1.0
 26
0.0
 36
0.0
 17
0.0
 27
1.0
 37
0.0
 76
0
330
23
  0
DICTIONARY
  5
144
100
AcDbDictionary
281
1
  3
DIMASSOC
350
146
  3
HIDETEXT
350
145
  0
DICTIONARYVAR
  5
145
100
DictionaryVariables
280
0
  1
2
  0
DICTIONARYVAR
  5
146
100
DictionaryVariables
280
0
  1
1
  0
ENDSEC
  0
EOF
