  0
SECTION
  2
HEADER
  9
$ACADVER
  1
AC1009
  9
$DWGCODEPAGE
  3
ansi_1252
  9
$INSBASE
 10
0.0
 20
0.0
 30
0.0
  9
$EXTMIN
 10
0.3527777777777777
 20
0.3545416666666666
 30
0.0
  9
$EXTMAX
 10
182.8709462309885
 20
200.4688489617527
 30
0.0
  9
$LIMMIN
 10
0.0
 20
0.0
  9
$LIMMAX
 10
12.0
 20
9.0
  9
$ORTHOMODE
 70
     0
  9
$REGENMODE
 70
     1
  9
$FILLMODE
 70
     1
  9
$QTEXTMODE
 70
     0
  9
$MIRRTEXT
 70
     1
  9
$DRAGMODE
 70
     2
  9
$LTSCALE
 40
1.0
  9
$OSMODE
 70
    37
  9
$ATTMODE
 70
     1
  9
$TEXTSIZE
 40
0.2
  9
$TRACEWID
 40
0.05
  9
$TEXTSTYLE
  7
STANDARD
  9
$CLAYER
  8
0
  9
$CELTYPE
  6
BYLAYER
  9
$CECOLOR
 62
   256
  9
$DIMSCALE
 40
1.0
  9
$DIMASZ
 40
0.18
  9
$DIMEXO
 40
0.0625
  9
$DIMDLI
 40
0.38
  9
$DIMRND
 40
0.0
  9
$DIMDLE
 40
0.0
  9
$DIMEXE
 40
0.18
  9
$DIMTP
 40
0.0
  9
$DIMTM
 40
0.0
  9
$DIMTXT
 40
0.18
  9
$DIMCEN
 40
0.09
  9
$DIMTSZ
 40
0.0
  9
$DIMTOL
 70
     0
  9
$DIMLIM
 70
     0
  9
$DIMTIH
 70
     1
  9
$DIMTOH
 70
     1
  9
$DIMSE1
 70
     0
  9
$DIMSE2
 70
     0
  9
$DIMTAD
 70
     0
  9
$DIMZIN
 70
     0
  9
$DIMBLK
  1

  9
$DIMASO
 70
     1
  9
$DIMSHO
 70
     1
  9
$DIMPOST
  1

  9
$DIMAPOST
  1

  9
$DIMALT
 70
     0
  9
$DIMALTD
 70
     2
  9
$DIMALTF
 40
25.4
  9
$DIMLFAC
 40
1.0
  9
$DIMTOFL
 70
     0
  9
$DIMTVP
 40
0.0
  9
$DIMTIX
 70
     0
  9
$DIMSOXD
 70
     0
  9
$DIMSAH
 70
     0
  9
$DIMBLK1
  1

  9
$DIMBLK2
  1

  9
$DIMSTYLE
  2
STANDARD
  9
$DIMCLRD
 70
     0
  9
$DIMCLRE
 70
     0
  9
$DIMCLRT
 70
     0
  9
$DIMTFAC
 40
1.0
  9
$DIMGAP
 40
0.09
  9
$LUNITS
 70
     2
  9
$LUPREC
 70
     4
  9
$SKETCHINC
 40
0.1
  9
$FILLETRAD
 40
0.5
  9
$AUNITS
 70
     0
  9
$AUPREC
 70
     0
  9
$MENU
  1
.
  9
$ELEVATION
 40
0.0
  9
$PELEVATION
 40
0.0
  9
$THICKNESS
 40
0.0
  9
$LIMCHECK
 70
     0
  9
$CHAMFERA
 40
0.0
  9
$CHAMFERB
 40
0.0
  9
$SKPOLY
 70
     0
  9
$TDCREATE
 40
2454910.5
  9
$TDUPDATE
 40
2456579.782310579
  9
$TDINDWG
 40
0.0000000116
  9
$TDUSRTIMER
 40
0.0000000116
  9
$USRTIMER
 70
     1
  9
$ANGBASE
 50
0.0
  9
$ANGDIR
 70
     0
  9
$PDMODE
 70
     0
  9
$PDSIZE
 40
0.0
  9
$PLINEWID
 40
0.0
  9
$COORDS
 70
     1
  9
$SPLFRAME
 70
     0
  9
$SPLINETYPE
 70
     6
  9
$SPLINESEGS
 70
     8
  9
$ATTDIA
 70
     0
  9
$ATTREQ
 70
     1
  9
$HANDLING
 70
     1
  9
$HANDSEED
  5
54E
  9
$SURFTAB1
 70
     6
  9
$SURFTAB2
 70
     6
  9
$SURFTYPE
 70
     6
  9
$SURFU
 70
     6
  9
$SURFV
 70
     6
  9
$UCSNAME
  2

  9
$UCSORG
 10
0.0
 20
0.0
 30
0.0
  9
$UCSXDIR
 10
1.0
 20
0.0
 30
0.0
  9
$UCSYDIR
 10
0.0
 20
1.0
 30
0.0
  9
$PUCSNAME
  2

  9
$PUCSORG
 10
0.0
 20
0.0
 30
0.0
  9
$PUCSXDIR
 10
1.0
 20
0.0
 30
0.0
  9
$PUCSYDIR
 10
0.0
 20
1.0
 30
0.0
  9
$USERI1
 70
     0
  9
$USERI2
 70
     0
  9
$USERI3
 70
     0
  9
$USERI4
 70
     0
  9
$USERI5
 70
     0
  9
$USERR1
 40
0.0
  9
$USERR2
 40
0.0
  9
$USERR3
 40
0.0
  9
$USERR4
 40
0.0
  9
$USERR5
 40
0.0
  9
$WORLDVIEW
 70
     1
  9
$SHADEDGE
 70
     3
  9
$SHADEDIF
 70
    70
  9
$TILEMODE
 70
     1
  9
$MAXACTVP
 70
    64
  9
$PLIMCHECK
 70
     0
  9
$PEXTMIN
 10
1.000000000000000E+20
 20
1.000000000000000E+20
 30
1.000000000000000E+20
  9
$PEXTMAX
 10
-1.000000000000000E+20
 20
-1.000000000000000E+20
 30
-1.000000000000000E+20
  9
$PLIMMIN
 10
0.0
 20
0.0
  9
$PLIMMAX
 10
12.0
 20
9.0
  9
$UNITMODE
 70
     0
  9
$VISRETAIN
 70
     1
  9
$PLINEGEN
 70
     0
  9
$PSLTSCALE
 70
     1
  0
ENDSEC
  0
SECTION
  2
TABLES
  0
TABLE
  2
VPORT
 70
     1
  0
VPORT
  2
*ACTIVE
 70
     0
 10
0.0
 20
0.0
 11
1.0
 21
1.0
 12
10.42990654205607
 22
4.5
 13
0.0
 23
0.0
 14
0.5
 24
0.5
 15
0.5
 25
0.5
 16
0.0
 26
0.0
 36
1.0
 17
0.0
 27
0.0
 37
0.0
 40
9.0
 41
1.972972972850329
 42
50.0
 43
0.0
 44
0.0
 50
0.0
 51
0.0
 71
     0
 72
   100
 73
     1
 74
     3
 75
     0
 76
     0
 77
     0
 78
     0
  0
ENDTAB
  0
TABLE
  2
LTYPE
 70
     2
  0
LTYPE
  2
CONTINUOUS
 70
     0
  3
Solid line
 72
    65
 73
     0
 40
0.0
  0
LTYPE
  2
CONTINUOUS2
 70
     0
  3
Solid Line
 72
    65
 73
     0
 40
0.0
  0
ENDTAB
  0
TABLE
  2
LAYER
 70
     3
  0
LAYER
  2
0
 70
     0
 62
     7
  6
CONTINUOUS
  0
LAYER
  2
LAYER_1
 70
     0
 62
    18
  6
CONTINUOUS
  0
LAYER
  2
IMPORT_-_LOOM2
 70
     0
 62
    18
  6
CONTINUOUS
  0
ENDTAB
  0
TABLE
  2
STYLE
 70
     1
  0
STYLE
  2
STANDARD
 70
     0
 40
0.0
 41
1.0
 50
0.0
 71
     0
 42
0.2
  3
txt
  4

  0
ENDTAB
  0
TABLE
  2
VIEW
 70
     0
  0
ENDTAB
  0
TABLE
  2
UCS
 70
     0
  0
ENDTAB
  0
TABLE
  2
APPID
 70
     1
  0
APPID
  2
ACAD
 70
     0
  0
ENDTAB
  0
TABLE
  2
DIMSTYLE
 70
     1
  0
DIMSTYLE
  2
STANDARD
 70
     0
  3

  4

  5

  6

  7

 40
1.0
 41
0.18
 42
0.0625
 43
0.38
 44
0.18
 45
0.0
 46
0.0
 47
0.0
 48
0.0
140
0.18
141
0.09
142
0.0
143
25.4
144
1.0
145
0.0
146
1.0
147
0.09
 71
     0
 72
     0
 73
     1
 74
     1
 75
     0
 76
     0
 77
     0
 78
     0
170
     0
171
     2
172
     0
173
     0
174
     0
175
     0
176
     0
177
     0
178
     0
  0
ENDTAB
  0
ENDSEC
  0
SECTION
  2
BLOCKS
  0
BLOCK
  8
0
  2
$MODEL_SPACE
 70
     0
 10
0.0
 20
0.0
 30
0.0
  3
$MODEL_SPACE
  1

  0
ENDBLK
  5
21
  8
0
  0
BLOCK
 67
     1
  8
0
  2
$PAPER_SPACE
 70
     0
 10
0.0
 20
0.0
 30
0.0
  3
$PAPER_SPACE
  1

  0
ENDBLK
  5
1D
 67
     1
  8
0
  0
ENDSEC
  0
SECTION
  2
ENTITIES
  0
POLYLINE
  5
6C
  8
LAYER_1
 66
     1
 10
0.0
 20
0.0
 30
0.0
 70
     1
  0
VERTEX
  5
7F
  8
LAYER_1
 10
9.841606043131883
 20
30.13445512436939
 30
0.0
  0
VERTEX
  5
80
  8
LAYER_1
 10
9.841606043131865
 20
12.84481527777778
 30
0.0
  0
VERTEX
  5
81
  8
LAYER_1
 10
9.854372533474745
 20
12.5885947414822
 30
0.0
  0
VERTEX
  5
82
  8
LAYER_1
 10
9.891863096083252
 20
12.34011843532986
 30
0.0
  0
VERTEX
  5
83
  8
LAYER_1
 10
9.952864368327177
 20
12.10059868842231
 30
0.0
  0
VERTEX
  5
84
  8
LAYER_1
 10
10.03616298757631
 20
11.87124782986111
 30
0.0
  0
VERTEX
  5
85
  8
LAYER_1
 10
10.14054559120044
 20
11.65327818874783
 30
0.0
  0
VERTEX
  5
86
  8
LAYER_1
 10
10.26479881656936
 20
11.44790209418403
 30
0.0
  0
VERTEX
  5
87
  8
LAYER_1
 10
10.40770930105287
 20
11.25633187527127
 30
0.0
  0
VERTEX
  5
88
  8
LAYER_1
 10
10.56806368202075
 20
11.07977986111111
 30
0.0
  0
VERTEX
  5
89
  8
LAYER_1
 10
10.7446485968428
 20
10.91945838080512
 30
0.0
  0
VERTEX
  5
8A
  8
LAYER_1
 10
10.93625068288881
 20
10.77657976345486
 30
0.0
  0
VERTEX
  5
8B
  8
LAYER_1
 10
11.14165657752856
 20
10.65235633816189
 30
0.0
  0
VERTEX
  5
8C
  8
LAYER_1
 10
11.35965291813186
 20
10.54800043402778
 30
0.0
  0
VERTEX
  5
8D
  8
LAYER_1
 10
11.58902634206849
 20
10.46472438015408
 30
0.0
  0
VERTEX
  5
8E
  8
LAYER_1
 10
11.82856348670825
 20
10.40374050564236
 30
0.0
  0
VERTEX
  5
8F
  8
LAYER_1
 10
12.07705098942093
 20
10.36626113959418
 30
0.0
  0
VERTEX
  5
90
  8
LAYER_1
 10
12.33327548757631
 20
10.35349861111111
 30
0.0
  0
VERTEX
  5
91
  8
LAYER_1
 10
170.89044852119
 20
10.35349861111111
 30
0.0
  0
VERTEX
  5
92
  8
LAYER_1
 10
171.1466730193454
 20
10.36626113959418
 30
0.0
  0
VERTEX
  5
93
  8
LAYER_1
 10
171.395160522058
 20
10.40374050564236
 30
0.0
  0
VERTEX
  5
94
  8
LAYER_1
 10
171.6346976666978
 20
10.46472438015408
 30
0.0
  0
VERTEX
  5
95
  8
LAYER_1
 10
171.8640710906344
 20
10.54800043402778
 30
0.0
  0
VERTEX
  5
96
  8
LAYER_1
 10
172.0820674312377
 20
10.65235633816189
 30
0.0
  0
VERTEX
  5
97
  8
LAYER_1
 10
172.2874733258775
 20
10.77657976345486
 30
0.0
  0
VERTEX
  5
98
  8
LAYER_1
 10
172.4790754119235
 20
10.91945838080512
 30
0.0
  0
VERTEX
  5
99
  8
LAYER_1
 10
172.6556603267455
 20
11.07977986111111
 30
0.0
  0
VERTEX
  5
9A
  8
LAYER_1
 10
172.8160147077134
 20
11.25633187527127
 30
0.0
  0
VERTEX
  5
9B
  8
LAYER_1
 10
172.9589251921969
 20
11.44790209418403
 30
0.0
  0
VERTEX
  5
9C
  8
LAYER_1
 10
173.0831784175658
 20
11.65327818874783
 30
0.0
  0
VERTEX
  5
9D
  8
LAYER_1
 10
173.18756102119
 20
11.87124782986111
 30
0.0
  0
VERTEX
  5
9E
  8
LAYER_1
 10
173.2708596404391
 20
12.10059868842231
 30
0.0
  0
VERTEX
  5
9F
  8
LAYER_1
 10
173.331860912683
 20
12.34011843532986
 30
0.0
  0
VERTEX
  5
A0
  8
LAYER_1
 10
173.3693514752915
 20
12.5885947414822
 30
0.0
  0
VERTEX
  5
A1
  8
LAYER_1
 10
173.3821179656344
 20
12.84481527777778
 30
0.0
  0
VERTEX
  5
A2
  8
LAYER_1
 10
173.3821179656344
 20
30.13445512436939
 30
0.0
  0
VERTEX
  5
A3
  8
LAYER_1
 10
173.3821179656344
 20
174.7204306734018
 30
0.0
  0
VERTEX
  5
A4
  8
LAYER_1
 10
173.3821179656344
 20
187.9782225728638
 30
0.0
  0
VERTEX
  5
A5
  8
LAYER_1
 10
173.3693514752915
 20
188.2344470710192
 30
0.0
  0
VERTEX
  5
A6
  8
LAYER_1
 10
173.331860912683
 20
188.4829345737319
 30
0.0
  0
VERTEX
  5
A7
  8
LAYER_1
 10
173.2708596404391
 20
188.7224717183717
 30
0.0
  0
VERTEX
  5
A8
  8
LAYER_1
 10
173.18756102119
 20
188.9518451423083
 30
0.0
  0
VERTEX
  5
A9
  8
LAYER_1
 10
173.0831784175658
 20
189.1698414829116
 30
0.0
  0
VERTEX
  5
AA
  8
LAYER_1
 10
172.9589251921969
 20
189.3752473775513
 30
0.0
  0
VERTEX
  5
AB
  8
LAYER_1
 10
172.8160147077134
 20
189.5668494635974
 30
0.0
  0
VERTEX
  5
AC
  8
LAYER_1
 10
172.6556603267455
 20
189.7434343784194
 30
0.0
  0
VERTEX
  5
AD
  8
LAYER_1
 10
172.4790754119235
 20
189.9037887593873
 30
0.0
  0
VERTEX
  5
AE
  8
LAYER_1
 10
172.2874733258775
 20
190.0466992438708
 30
0.0
  0
VERTEX
  5
AF
  8
LAYER_1
 10
172.0820674312377
 20
190.1709524692397
 30
0.0
  0
VERTEX
  5
B0
  8
LAYER_1
 10
171.8640710906344
 20
190.2753350728638
 30
0.0
  0
VERTEX
  5
B1
  8
LAYER_1
 10
171.6346976666978
 20
190.358633692113
 30
0.0
  0
VERTEX
  5
B2
  8
LAYER_1
 10
171.395160522058
 20
190.4196349643569
 30
0.0
  0
VERTEX
  5
B3
  8
LAYER_1
 10
171.1466730193454
 20
190.4571255269654
 30
0.0
  0
VERTEX
  5
B4
  8
LAYER_1
 10
170.89044852119
 20
190.4698920173083
 30
0.0
  0
VERTEX
  5
B5
  8
LAYER_1
 10
12.33327548757631
 20
190.4698920173083
 30
0.0
  0
VERTEX
  5
B6
  8
LAYER_1
 10
12.07705098942093
 20
190.4571255269654
 30
0.0
  0
VERTEX
  5
B7
  8
LAYER_1
 10
11.82856348670825
 20
190.4196349643569
 30
0.0
  0
VERTEX
  5
B8
  8
LAYER_1
 10
11.58902634206849
 20
190.358633692113
 30
0.0
  0
VERTEX
  5
B9
  8
LAYER_1
 10
11.35965291813186
 20
190.2753350728638
 30
0.0
  0
VERTEX
  5
BA
  8
LAYER_1
 10
11.14165657752856
 20
190.1709524692397
 30
0.0
  0
VERTEX
  5
BB
  8
LAYER_1
 10
10.93625068288881
 20
190.0466992438708
 30
0.0
  0
VERTEX
  5
BC
  8
LAYER_1
 10
10.7446485968428
 20
189.9037887593873
 30
0.0
  0
VERTEX
  5
BD
  8
LAYER_1
 10
10.56806368202075
 20
189.7434343784194
 30
0.0
  0
VERTEX
  5
BE
  8
LAYER_1
 10
10.40770930105287
 20
189.5668494635974
 30
0.0
  0
VERTEX
  5
BF
  8
LAYER_1
 10
10.26479881656936
 20
189.3752473775513
 30
0.0
  0
VERTEX
  5
C0
  8
LAYER_1
 10
10.14054559120044
 20
189.1698414829116
 30
0.0
  0
VERTEX
  5
C1
  8
LAYER_1
 10
10.03616298757631
 20
188.9518451423083
 30
0.0
  0
VERTEX
  5
C2
  8
LAYER_1
 10
9.952864368327177
 20
188.7224717183717
 30
0.0
  0
VERTEX
  5
C3
  8
LAYER_1
 10
9.891863096083252
 20
188.4829345737319
 30
0.0
  0
VERTEX
  5
C4
  8
LAYER_1
 10
9.854372533474745
 20
188.2344470710192
 30
0.0
  0
VERTEX
  5
C5
  8
LAYER_1
 10
9.841606043131865
 20
187.9782225728638
 30
0.0
  0
VERTEX
  5
C6
  8
LAYER_1
 10
9.841606043131868
 20
174.7204306734018
 30
0.0
  0
SEQEND
  5
543
  8
LAYER_1
  0
POLYLINE
  5
6D
  8
LAYER_1
 66
     1
 10
0.0
 20
0.0
 30
0.0
 70
     1
  0
VERTEX
  5
C7
  8
LAYER_1
 10
0.3527777777777814
 20
30.14556762436939
 30
0.0
  0
VERTEX
  5
C8
  8
LAYER_1
 10
0.3527777777777777
 20
174.7315431734017
 30
0.0
  0
VERTEX
  5
C9
  8
LAYER_1
 10
0.3527777777777777
 20
197.977532295086
 30
0.0
  0
VERTEX
  5
CA
  8
LAYER_1
 10
0.3657899034288194
 20
198.2337528313816
 30
0.0
  0
VERTEX
  5
CB
  8
LAYER_1
 10
0.4039746527777777
 20
198.4822291375339
 30
0.0
  0
VERTEX
  5
CC
  8
LAYER_1
 10
0.4660545844184027
 20
198.7217488844415
 30
0.0
  0
VERTEX
  5
CD
  8
LAYER_1
 10
0.5507522569444443
 20
198.9510997430027
 30
0.0
  0
VERTEX
  5
CE
  8
LAYER_1
 10
0.6567902289496526
 20
199.169069384116
 30
0.0
  0
VERTEX
  5
CF
  8
LAYER_1
 10
0.7828910590277776
 20
199.3744454786798
 30
0.0
  0
VERTEX
  5
D0
  8
LAYER_1
 10
0.9277773057725692
 20
199.5660156975925
 30
0.0
  0
VERTEX
  5
D1
  8
LAYER_1
 10
1.090171527777777
 20
199.7425677117527
 30
0.0
  0
VERTEX
  5
D2
  8
LAYER_1
 10
1.268796283637152
 20
199.9028891920587
 30
0.0
  0
VERTEX
  5
D3
  8
LAYER_1
 10
1.462374131944444
 20
200.045767809409
 30
0.0
  0
VERTEX
  5
D4
  8
LAYER_1
 10
1.669627631293402
 20
200.1699912347019
 30
0.0
  0
VERTEX
  5
D5
  8
LAYER_1
 10
1.889279340277777
 20
200.274347138836
 30
0.0
  0
VERTEX
  5
D6
  8
LAYER_1
 10
2.120051817491319
 20
200.3576231927098
 30
0.0
  0
VERTEX
  5
D7
  8
LAYER_1
 10
2.360667621527778
 20
200.4186070672215
 30
0.0
  0
VERTEX
  5
D8
  8
LAYER_1
 10
2.609849310980902
 20
200.4560864332696
 30
0.0
  0
VERTEX
  5
D9
  8
LAYER_1
 10
2.866319444444444
 20
200.4688489617527
 30
0.0
  0
VERTEX
  5
DA
  8
LAYER_1
 10
12.85416388888889
 20
200.4688489617527
 30
0.0
  0
VERTEX
  5
DB
  8
LAYER_1
 10
13.11038442518446
 20
200.4560864332696
 30
0.0
  0
VERTEX
  5
DC
  8
LAYER_1
 10
13.3588607313368
 20
200.4186070672215
 30
0.0
  0
VERTEX
  5
DD
  8
LAYER_1
 10
13.59838047824435
 20
200.3576231927098
 30
0.0
  0
VERTEX
  5
DE
  8
LAYER_1
 10
13.82773133680555
 20
200.274347138836
 30
0.0
  0
VERTEX
  5
DF
  8
LAYER_1
 10
14.04570097791883
 20
200.1699912347019
 30
0.0
  0
VERTEX
  5
E0
  8
LAYER_1
 10
14.25107707248264
 20
200.045767809409
 30
0.0
  0
VERTEX
  5
E1
  8
LAYER_1
 10
14.4426472913954
 20
199.9028891920587
 30
0.0
  0
VERTEX
  5
E2
  8
LAYER_1
 10
14.61919930555555
 20
199.7425677117527
 30
0.0
  0
VERTEX
  5
E3
  8
LAYER_1
 10
14.77952078586154
 20
199.5660156975925
 30
0.0
  0
VERTEX
  5
E4
  8
LAYER_1
 10
14.92239940321181
 20
199.3744454786798
 30
0.0
  0
VERTEX
  5
E5
  8
LAYER_1
 10
15.04662282850477
 20
199.169069384116
 30
0.0
  0
VERTEX
  5
E6
  8
LAYER_1
 10
15.15097873263889
 20
198.9510997430027
 30
0.0
  0
VERTEX
  5
E7
  8
LAYER_1
 10
15.23425478651259
 20
198.7217488844415
 30
0.0
  0
VERTEX
  5
E8
  8
LAYER_1
 10
15.29523866102431
 20
198.4822291375339
 30
0.0
  0
VERTEX
  5
E9
  8
LAYER_1
 10
15.33271802707248
 20
198.2337528313816
 30
0.0
  0
VERTEX
  5
EA
  8
LAYER_1
 10
15.34548055555556
 20
197.977532295086
 30
0.0
  0
VERTEX
  5
EB
  8
LAYER_1
 10
15.34548055555556
 20
195.4858628506416
 30
0.0
  0
VERTEX
  5
EC
  8
LAYER_1
 10
17.85902222222222
 20
195.4858628506416
 30
0.0
  0
VERTEX
  5
ED
  8
LAYER_1
 10
17.85902222222222
 20
200.4688489617527
 30
0.0
  0
VERTEX
  5
EE
  8
LAYER_1
 10
20.35069166666666
 20
200.4688489617527
 30
0.0
  0
VERTEX
  5
EF
  8
LAYER_1
 10
20.35069166666666
 20
195.4858628506416
 30
0.0
  0
VERTEX
  5
F0
  8
LAYER_1
 10
22.86423333333333
 20
195.4858628506416
 30
0.0
  0
VERTEX
  5
F1
  8
LAYER_1
 10
22.86423333333333
 20
200.4688489617527
 30
0.0
  0
VERTEX
  5
F2
  8
LAYER_1
 10
25.35555
 20
200.4688489617527
 30
0.0
  0
VERTEX
  5
F3
  8
LAYER_1
 10
25.35555
 20
195.4858628506416
 30
0.0
  0
VERTEX
  5
F4
  8
LAYER_1
 10
27.84721944444444
 20
195.4858628506416
 30
0.0
  0
VERTEX
  5
F5
  8
LAYER_1
 10
27.84721944444444
 20
200.4688489617527
 30
0.0
  0
VERTEX
  5
F6
  8
LAYER_1
 10
30.36076111111111
 20
200.4688489617527
 30
0.0
  0
VERTEX
  5
F7
  8
LAYER_1
 10
30.36076111111111
 20
195.4858628506416
 30
0.0
  0
VERTEX
  5
F8
  8
LAYER_1
 10
32.85207777777777
 20
195.4858628506416
 30
0.0
  0
VERTEX
  5
F9
  8
LAYER_1
 10
32.85207777777777
 20
200.4688489617527
 30
0.0
  0
VERTEX
  5
FA
  8
LAYER_1
 10
35.36597222222222
 20
200.4688489617527
 30
0.0
  0
VERTEX
  5
FB
  8
LAYER_1
 10
35.36597222222222
 20
195.4858628506416
 30
0.0
  0
VERTEX
  5
FC
  8
LAYER_1
 10
37.85728888888888
 20
195.4858628506416
 30
0.0
  0
VERTEX
  5
FD
  8
LAYER_1
 10
37.85728888888888
 20
200.4688489617527
 30
0.0
  0
VERTEX
  5
FE
  8
LAYER_1
 10
40.34895833333333
 20
200.4688489617527
 30
0.0
  0
VERTEX
  5
FF
  8
LAYER_1
 10
40.34895833333333
 20
195.4858628506416
 30
0.0
  0
VERTEX
  5
100
  8
LAYER_1
 10
42.8625
 20
195.4858628506416
 30
0.0
  0
VERTEX
  5
101
  8
LAYER_1
 10
42.8625
 20
200.4688489617527
 30
0.0
  0
VERTEX
  5
102
  8
LAYER_1
 10
45.35381666666667
 20
200.4688489617527
 30
0.0
  0
VERTEX
  5
103
  8
LAYER_1
 10
45.35381666666667
 20
195.4858628506416
 30
0.0
  0
VERTEX
  5
104
  8
LAYER_1
 10
47.84513333333333
 20
195.4858628506416
 30
0.0
  0
VERTEX
  5
105
  8
LAYER_1
 10
47.84513333333333
 20
200.4688489617527
 30
0.0
  0
VERTEX
  5
106
  8
LAYER_1
 10
50.35867499999999
 20
200.4688489617527
 30
0.0
  0
VERTEX
  5
107
  8
LAYER_1
 10
50.35867499999999
 20
195.4858628506416
 30
0.0
  0
VERTEX
  5
108
  8
LAYER_1
 10
52.85034444444445
 20
195.4858628506416
 30
0.0
  0
VERTEX
  5
109
  8
LAYER_1
 10
52.85034444444445
 20
200.4688489617527
 30
0.0
  0
VERTEX
  5
10A
  8
LAYER_1
 10
55.36388611111111
 20
200.4688489617527
 30
0.0
  0
VERTEX
  5
10B
  8
LAYER_1
 10
55.36388611111111
 20
195.4858628506416
 30
0.0
  0
VERTEX
  5
10C
  8
LAYER_1
 10
57.85520277777777
 20
195.4858628506416
 30
0.0
  0
VERTEX
  5
10D
  8
LAYER_1
 10
57.85520277777777
 20
200.4688489617527
 30
0.0
  0
VERTEX
  5
10E
  8
LAYER_1
 10
60.34687222222222
 20
200.4688489617527
 30
0.0
  0
VERTEX
  5
10F
  8
LAYER_1
 10
60.34687222222222
 20
195.4858628506416
 30
0.0
  0
VERTEX
  5
110
  8
LAYER_1
 10
62.86041388888889
 20
195.4858628506416
 30
0.0
  0
VERTEX
  5
111
  8
LAYER_1
 10
62.86041388888889
 20
200.4688489617527
 30
0.0
  0
VERTEX
  5
112
  8
LAYER_1
 10
65.35173055555555
 20
200.4688489617527
 30
0.0
  0
VERTEX
  5
113
  8
LAYER_1
 10
65.35173055555555
 20
195.4858628506416
 30
0.0
  0
VERTEX
  5
114
  8
LAYER_1
 10
67.86527222222222
 20
195.4858628506416
 30
0.0
  0
VERTEX
  5
115
  8
LAYER_1
 10
67.86527222222222
 20
200.4688489617527
 30
0.0
  0
VERTEX
  5
116
  8
LAYER_1
 10
70.35694166666667
 20
200.4688489617527
 30
0.0
  0
VERTEX
  5
117
  8
LAYER_1
 10
70.35694166666667
 20
195.4858628506416
 30
0.0
  0
VERTEX
  5
118
  8
LAYER_1
 10
72.84825833333332
 20
195.4858628506416
 30
0.0
  0
VERTEX
  5
119
  8
LAYER_1
 10
72.84825833333332
 20
200.4688489617527
 30
0.0
  0
VERTEX
  5
11A
  8
LAYER_1
 10
75.36179999999999
 20
200.4688489617527
 30
0.0
  0
VERTEX
  5
11B
  8
LAYER_1
 10
75.36179999999999
 20
195.4858628506416
 30
0.0
  0
VERTEX
  5
11C
  8
LAYER_1
 10
77.85346944444444
 20
195.4858628506416
 30
0.0
  0
VERTEX
  5
11D
  8
LAYER_1
 10
77.85346944444444
 20
200.4688489617527
 30
0.0
  0
VERTEX
  5
11E
  8
LAYER_1
 10
80.3447861111111
 20
200.4688489617527
 30
0.0
  0
VERTEX
  5
11F
  8
LAYER_1
 10
80.3447861111111
 20
195.4858628506416
 30
0.0
  0
VERTEX
  5
120
  8
LAYER_1
 10
82.85832777777777
 20
195.4858628506416
 30
0.0
  0
VERTEX
  5
121
  8
LAYER_1
 10
82.85832777777777
 20
200.4688489617527
 30
0.0
  0
VERTEX
  5
122
  8
LAYER_1
 10
85.34999722222221
 20
200.4688489617527
 30
0.0
  0
VERTEX
  5
123
  8
LAYER_1
 10
85.34999722222221
 20
195.4858628506416
 30
0.0
  0
VERTEX
  5
124
  8
LAYER_1
 10
87.86353888888888
 20
195.4858628506416
 30
0.0
  0
VERTEX
  5
125
  8
LAYER_1
 10
87.86353888888888
 20
200.4688489617527
 30
0.0
  0
VERTEX
  5
126
  8
LAYER_1
 10
90.35520833333332
 20
200.4688489617527
 30
0.0
  0
VERTEX
  5
127
  8
LAYER_1
 10
90.35520833333332
 20
195.4858628506416
 30
0.0
  0
VERTEX
  5
128
  8
LAYER_1
 10
92.69539513102923
 20
195.4858628506416
 30
0.0
  0
VERTEX
  5
129
  8
LAYER_1
 10
92.86816289765534
 20
200.4688489617527
 30
0.0
  0
VERTEX
  5
12A
  8
LAYER_1
 10
95.35983234209978
 20
200.4688489617527
 30
0.0
  0
VERTEX
  5
12B
  8
LAYER_1
 10
95.35983234209978
 20
195.4858628506416
 30
0.0
  0
VERTEX
  5
12C
  8
LAYER_1
 10
97.87337400876645
 20
195.4858628506416
 30
0.0
  0
VERTEX
  5
12D
  8
LAYER_1
 10
97.87337400876645
 20
200.4688489617527
 30
0.0
  0
VERTEX
  5
12E
  8
LAYER_1
 10
100.3646906754331
 20
200.4688489617527
 30
0.0
  0
VERTEX
  5
12F
  8
LAYER_1
 10
100.3646906754331
 20
195.4858628506416
 30
0.0
  0
VERTEX
  5
130
  8
LAYER_1
 10
102.8563601198776
 20
195.4858628506416
 30
0.0
  0
VERTEX
  5
131
  8
LAYER_1
 10
102.8563601198776
 20
200.4688489289039
 30
0.0
  0
VERTEX
  5
132
  8
LAYER_1
 10
102.8398165076265
 20
200.4688489617527
 30
0.0
  0
VERTEX
  5
133
  8
LAYER_1
 10
105.3699017865442
 20
200.4688489617527
 30
0.0
  0
VERTEX
  5
134
  8
LAYER_1
 10
105.3699017865442
 20
195.4858628506416
 30
0.0
  0
VERTEX
  5
135
  8
LAYER_1
 10
107.8612184532109
 20
195.4858628506416
 30
0.0
  0
VERTEX
  5
136
  8
LAYER_1
 10
107.8612184532109
 20
200.4688489617527
 30
0.0
  0
VERTEX
  5
137
  8
LAYER_1
 10
110.3751128976553
 20
200.4688489617527
 30
0.0
  0
VERTEX
  5
138
  8
LAYER_1
 10
110.3751128976553
 20
195.4858628506416
 30
0.0
  0
VERTEX
  5
139
  8
LAYER_1
 10
112.866429564322
 20
195.4858628506416
 30
0.0
  0
VERTEX
  5
13A
  8
LAYER_1
 10
112.866429564322
 20
200.4688489617527
 30
0.0
  0
VERTEX
  5
13B
  8
LAYER_1
 10
115.3580990087664
 20
200.4688489617527
 30
0.0
  0
VERTEX
  5
13C
  8
LAYER_1
 10
115.3580990087664
 20
195.4858628506416
 30
0.0
  0
VERTEX
  5
13D
  8
LAYER_1
 10
117.8716406754331
 20
195.4858628506416
 30
0.0
  0
VERTEX
  5
13E
  8
LAYER_1
 10
117.8716406754331
 20
200.4688489617527
 30
0.0
  0
VERTEX
  5
13F
  8
LAYER_1
 10
120.3629573420998
 20
200.4688489617527
 30
0.0
  0
VERTEX
  5
140
  8
LAYER_1
 10
120.3629573420998
 20
195.4858628506416
 30
0.0
  0
VERTEX
  5
141
  8
LAYER_1
 10
122.8542740087664
 20
195.4858628506416
 30
0.0
  0
VERTEX
  5
142
  8
LAYER_1
 10
122.8542740087664
 20
200.4688489617527
 30
0.0
  0
VERTEX
  5
143
  8
LAYER_1
 10
125.3678156754331
 20
200.4688489617527
 30
0.0
  0
VERTEX
  5
144
  8
LAYER_1
 10
125.3678156754331
 20
195.4858628506416
 30
0.0
  0
VERTEX
  5
145
  8
LAYER_1
 10
127.8594851198775
 20
195.4858628506416
 30
0.0
  0
VERTEX
  5
146
  8
LAYER_1
 10
127.8594851198775
 20
200.4688489617527
 30
0.0
  0
VERTEX
  5
147
  8
LAYER_1
 10
130.3730267865442
 20
200.4688489617527
 30
0.0
  0
VERTEX
  5
148
  8
LAYER_1
 10
130.3730267865442
 20
195.4858628506416
 30
0.0
  0
VERTEX
  5
149
  8
LAYER_1
 10
132.8643434532108
 20
195.4858628506416
 30
0.0
  0
VERTEX
  5
14A
  8
LAYER_1
 10
132.8643434532108
 20
200.4688489617527
 30
0.0
  0
VERTEX
  5
14B
  8
LAYER_1
 10
135.3560128976552
 20
200.4688489617527
 30
0.0
  0
VERTEX
  5
14C
  8
LAYER_1
 10
135.3560128976552
 20
195.4858628506416
 30
0.0
  0
VERTEX
  5
14D
  8
LAYER_1
 10
137.8695545643218
 20
195.4858628506416
 30
0.0
  0
VERTEX
  5
14E
  8
LAYER_1
 10
137.8695545643218
 20
200.4688489617527
 30
0.0
  0
VERTEX
  5
14F
  8
LAYER_1
 10
140.3608712309885
 20
200.4688489617527
 30
0.0
  0
VERTEX
  5
150
  8
LAYER_1
 10
140.3608712309885
 20
195.4858628506416
 30
0.0
  0
VERTEX
  5
151
  8
LAYER_1
 10
142.8744128976552
 20
195.4858628506416
 30
0.0
  0
VERTEX
  5
152
  8
LAYER_1
 10
142.8744128976552
 20
200.4688489617527
 30
0.0
  0
VERTEX
  5
153
  8
LAYER_1
 10
145.3660823420996
 20
200.4688489617527
 30
0.0
  0
VERTEX
  5
154
  8
LAYER_1
 10
145.3660823420996
 20
195.4858628506416
 30
0.0
  0
VERTEX
  5
155
  8
LAYER_1
 10
147.8573990087663
 20
195.4858628506416
 30
0.0
  0
VERTEX
  5
156
  8
LAYER_1
 10
147.8573990087663
 20
200.4688489617527
 30
0.0
  0
VERTEX
  5
157
  8
LAYER_1
 10
150.3709406754329
 20
200.4688489617527
 30
0.0
  0
VERTEX
  5
158
  8
LAYER_1
 10
150.3709406754329
 20
195.4858628506416
 30
0.0
  0
VERTEX
  5
159
  8
LAYER_1
 10
152.8626101198774
 20
195.4858628506416
 30
0.0
  0
VERTEX
  5
15A
  8
LAYER_1
 10
152.8626101198774
 20
200.4688489617527
 30
0.0
  0
VERTEX
  5
15B
  8
LAYER_1
 10
155.353926786544
 20
200.4688489617527
 30
0.0
  0
VERTEX
  5
15C
  8
LAYER_1
 10
155.353926786544
 20
195.4858628506416
 30
0.0
  0
VERTEX
  5
15D
  8
LAYER_1
 10
157.8674684532107
 20
195.4858628506416
 30
0.0
  0
VERTEX
  5
15E
  8
LAYER_1
 10
157.8674684532107
 20
200.4688489617527
 30
0.0
  0
VERTEX
  5
15F
  8
LAYER_1
 10
160.3591378976552
 20
200.4688489617527
 30
0.0
  0
VERTEX
  5
160
  8
LAYER_1
 10
160.3591378976552
 20
195.4858628506416
 30
0.0
  0
VERTEX
  5
161
  8
LAYER_1
 10
162.8726795643218
 20
195.4858628506416
 30
0.0
  0
VERTEX
  5
162
  8
LAYER_1
 10
162.8726795643218
 20
200.4688489617527
 30
0.0
  0
VERTEX
  5
163
  8
LAYER_1
 10
165.3643490087663
 20
200.4688489617527
 30
0.0
  0
VERTEX
  5
164
  8
LAYER_1
 10
165.3643490087663
 20
195.4858628506416
 30
0.0
  0
VERTEX
  5
165
  8
LAYER_1
 10
167.8556656754329
 20
195.4858628506416
 30
0.0
  0
VERTEX
  5
166
  8
LAYER_1
 10
167.8556656754329
 20
197.977532295086
 30
0.0
  0
VERTEX
  5
167
  8
LAYER_1
 10
167.868677801084
 20
198.2337528313816
 30
0.0
  0
VERTEX
  5
168
  8
LAYER_1
 10
167.9068625504329
 20
198.4822291375339
 30
0.0
  0
VERTEX
  5
169
  8
LAYER_1
 10
167.9689424820736
 20
198.7217488844415
 30
0.0
  0
VERTEX
  5
16A
  8
LAYER_1
 10
168.0536401545996
 20
198.9510997430027
 30
0.0
  0
VERTEX
  5
16B
  8
LAYER_1
 10
168.1596781266048
 20
199.169069384116
 30
0.0
  0
VERTEX
  5
16C
  8
LAYER_1
 10
168.2857789566829
 20
199.3744454786798
 30
0.0
  0
VERTEX
  5
16D
  8
LAYER_1
 10
168.4306652034277
 20
199.5660156975925
 30
0.0
  0
VERTEX
  5
16E
  8
LAYER_1
 10
168.5930594254329
 20
199.7425677117527
 30
0.0
  0
VERTEX
  5
16F
  8
LAYER_1
 10
168.7716841812923
 20
199.9028891920587
 30
0.0
  0
VERTEX
  5
170
  8
LAYER_1
 10
168.9652620295996
 20
200.045767809409
 30
0.0
  0
VERTEX
  5
171
  8
LAYER_1
 10
169.1725155289486
 20
200.1699912347019
 30
0.0
  0
VERTEX
  5
172
  8
LAYER_1
 10
169.3921672379329
 20
200.274347138836
 30
0.0
  0
VERTEX
  5
173
  8
LAYER_1
 10
169.6229397151465
 20
200.3576231927098
 30
0.0
  0
VERTEX
  5
174
  8
LAYER_1
 10
169.8635555191829
 20
200.4186070672215
 30
0.0
  0
VERTEX
  5
175
  8
LAYER_1
 10
170.112737208636
 20
200.4560864332696
 30
0.0
  0
VERTEX
  5
176
  8
LAYER_1
 10
170.3692073420996
 20
200.4688489617527
 30
0.0
  0
VERTEX
  5
177
  8
LAYER_1
 10
180.3574045643218
 20
200.4688489617527
 30
0.0
  0
VERTEX
  5
178
  8
LAYER_1
 10
180.6138746977854
 20
200.4560864332696
 30
0.0
  0
VERTEX
  5
179
  8
LAYER_1
 10
180.8630563872385
 20
200.4186070672215
 30
0.0
  0
VERTEX
  5
17A
  8
LAYER_1
 10
181.1036721912749
 20
200.3576231927098
 30
0.0
  0
VERTEX
  5
17B
  8
LAYER_1
 10
181.3344446684885
 20
200.274347138836
 30
0.0
  0
VERTEX
  5
17C
  8
LAYER_1
 10
181.5540963774728
 20
200.1699912347019
 30
0.0
  0
VERTEX
  5
17D
  8
LAYER_1
 10
181.7613498768218
 20
200.045767809409
 30
0.0
  0
VERTEX
  5
17E
  8
LAYER_1
 10
181.9549277251291
 20
199.9028891920587
 30
0.0
  0
VERTEX
  5
17F
  8
LAYER_1
 10
182.1335524809885
 20
199.7425677117527
 30
0.0
  0
VERTEX
  5
180
  8
LAYER_1
 10
182.2959467029937
 20
199.5660156975925
 30
0.0
  0
VERTEX
  5
181
  8
LAYER_1
 10
182.4408329497385
 20
199.3744454786798
 30
0.0
  0
VERTEX
  5
182
  8
LAYER_1
 10
182.5669337798166
 20
199.169069384116
 30
0.0
  0
VERTEX
  5
183
  8
LAYER_1
 10
182.6729717518218
 20
198.9510997430027
 30
0.0
  0
VERTEX
  5
184
  8
LAYER_1
 10
182.7576694243479
 20
198.7217488844415
 30
0.0
  0
VERTEX
  5
185
  8
LAYER_1
 10
182.8197493559885
 20
198.4822291375339
 30
0.0
  0
VERTEX
  5
186
  8
LAYER_1
 10
182.8579341053374
 20
198.2337528313816
 30
0.0
  0
VERTEX
  5
187
  8
LAYER_1
 10
182.8709462309885
 20
197.977532295086
 30
0.0
  0
VERTEX
  5
188
  8
LAYER_1
 10
182.8709462309885
 20
174.7315431734017
 30
0.0
  0
VERTEX
  5
189
  8
LAYER_1
 10
182.8709462309885
 20
30.14556762436939
 30
0.0
  0
VERTEX
  5
18A
  8
LAYER_1
 10
182.8709462309885
 20
30.14556762436939
 30
0.0
  0
VERTEX
  5
18B
  8
LAYER_1
 10
182.8709462309885
 20
2.868083333333333
 30
0.0
  0
VERTEX
  5
18C
  8
LAYER_1
 10
182.8579341053374
 20
2.611613199869792
 30
0.0
  0
VERTEX
  5
18D
  8
LAYER_1
 10
182.8197493559885
 20
2.362431510416667
 30
0.0
  0
VERTEX
  5
18E
  8
LAYER_1
 10
182.7576694243479
 20
2.121815706380208
 30
0.0
  0
VERTEX
  5
18F
  8
LAYER_1
 10
182.6729717518218
 20
1.891043229166666
 30
0.0
  0
VERTEX
  5
190
  8
LAYER_1
 10
182.5669337798166
 20
1.671391520182291
 30
0.0
  0
VERTEX
  5
191
  8
LAYER_1
 10
182.4408329497385
 20
1.464138020833333
 30
0.0
  0
VERTEX
  5
192
  8
LAYER_1
 10
182.2959467029937
 20
1.270560172526042
 30
0.0
  0
VERTEX
  5
193
  8
LAYER_1
 10
182.1335524809885
 20
1.091935416666666
 30
0.0
  0
VERTEX
  5
194
  8
LAYER_1
 10
181.9549277251291
 20
0.929541194661458
 30
0.0
  0
VERTEX
  5
195
  8
LAYER_1
 10
181.7613498768218
 20
0.7846549479166665
 30
0.0
  0
VERTEX
  5
196
  8
LAYER_1
 10
181.5540963774728
 20
0.6585541178385415
 30
0.0
  0
VERTEX
  5
197
  8
LAYER_1
 10
181.3344446684885
 20
0.5525161458333332
 30
0.0
  0
VERTEX
  5
198
  8
LAYER_1
 10
181.1036721912749
 20
0.4678184733072916
 30
0.0
  0
VERTEX
  5
199
  8
LAYER_1
 10
180.8630563872385
 20
0.4057385416666666
 30
0.0
  0
VERTEX
  5
19A
  8
LAYER_1
 10
180.6138746977854
 20
0.3675537923177082
 30
0.0
  0
VERTEX
  5
19B
  8
LAYER_1
 10
180.3574045643218
 20
0.3545416666666666
 30
0.0
  0
VERTEX
  5
19C
  8
LAYER_1
 10
170.3692073420996
 20
0.3545416666666666
 30
0.0
  0
VERTEX
  5
19D
  8
LAYER_1
 10
170.112737208636
 20
0.3675537923177082
 30
0.0
  0
VERTEX
  5
19E
  8
LAYER_1
 10
169.8635555191829
 20
0.4057385416666666
 30
0.0
  0
VERTEX
  5
19F
  8
LAYER_1
 10
169.6229397151465
 20
0.4678184733072916
 30
0.0
  0
VERTEX
  5
1A0
  8
LAYER_1
 10
169.3921672379329
 20
0.5525161458333332
 30
0.0
  0
VERTEX
  5
1A1
  8
LAYER_1
 10
169.1725155289486
 20
0.6585541178385415
 30
0.0
  0
VERTEX
  5
1A2
  8
LAYER_1
 10
168.9652620295996
 20
0.7846549479166665
 30
0.0
  0
VERTEX
  5
1A3
  8
LAYER_1
 10
168.7716841812923
 20
0.929541194661458
 30
0.0
  0
VERTEX
  5
1A4
  8
LAYER_1
 10
168.5930594254329
 20
1.091935416666666
 30
0.0
  0
VERTEX
  5
1A5
  8
LAYER_1
 10
168.4306652034277
 20
1.270560172526042
 30
0.0
  0
VERTEX
  5
1A6
  8
LAYER_1
 10
168.2857789566829
 20
1.464138020833333
 30
0.0
  0
VERTEX
  5
1A7
  8
LAYER_1
 10
168.1596781266048
 20
1.671391520182291
 30
0.0
  0
VERTEX
  5
1A8
  8
LAYER_1
 10
168.0536401545996
 20
1.891043229166666
 30
0.0
  0
VERTEX
  5
1A9
  8
LAYER_1
 10
167.9689424820736
 20
2.121815706380208
 30
0.0
  0
VERTEX
  5
1AA
  8
LAYER_1
 10
167.9068625504329
 20
2.362431510416667
 30
0.0
  0
VERTEX
  5
1AB
  8
LAYER_1
 10
167.868677801084
 20
2.611613199869792
 30
0.0
  0
VERTEX
  5
1AC
  8
LAYER_1
 10
167.8556656754329
 20
2.868083333333333
 30
0.0
  0
VERTEX
  5
1AD
  8
LAYER_1
 10
167.8556656754329
 20
5.3594
 30
0.0
  0
VERTEX
  5
1AE
  8
LAYER_1
 10
165.3643490087663
 20
5.3594
 30
0.0
  0
VERTEX
  5
1AF
  8
LAYER_1
 10
165.3643490087663
 20
0.3764138888888888
 30
0.0
  0
VERTEX
  5
1B0
  8
LAYER_1
 10
162.8726795643218
 20
0.3764138888888888
 30
0.0
  0
VERTEX
  5
1B1
  8
LAYER_1
 10
162.8726795643218
 20
5.3594
 30
0.0
  0
VERTEX
  5
1B2
  8
LAYER_1
 10
160.3591378976552
 20
5.3594
 30
0.0
  0
VERTEX
  5
1B3
  8
LAYER_1
 10
160.3591378976552
 20
0.3764138888888888
 30
0.0
  0
VERTEX
  5
1B4
  8
LAYER_1
 10
157.8674684532107
 20
0.3764138888888888
 30
0.0
  0
VERTEX
  5
1B5
  8
LAYER_1
 10
157.8674684532107
 20
5.3594
 30
0.0
  0
VERTEX
  5
1B6
  8
LAYER_1
 10
155.353926786544
 20
5.3594
 30
0.0
  0
VERTEX
  5
1B7
  8
LAYER_1
 10
155.353926786544
 20
0.3764138888888888
 30
0.0
  0
VERTEX
  5
1B8
  8
LAYER_1
 10
152.8626101198774
 20
0.3764138888888888
 30
0.0
  0
VERTEX
  5
1B9
  8
LAYER_1
 10
152.8626101198774
 20
5.3594
 30
0.0
  0
VERTEX
  5
1BA
  8
LAYER_1
 10
150.3709406754329
 20
5.3594
 30
0.0
  0
VERTEX
  5
1BB
  8
LAYER_1
 10
150.3709406754329
 20
0.3764138888888888
 30
0.0
  0
VERTEX
  5
1BC
  8
LAYER_1
 10
147.8573990087663
 20
0.3764138888888888
 30
0.0
  0
VERTEX
  5
1BD
  8
LAYER_1
 10
147.8573990087663
 20
5.3594
 30
0.0
  0
VERTEX
  5
1BE
  8
LAYER_1
 10
145.3660823420996
 20
5.3594
 30
0.0
  0
VERTEX
  5
1BF
  8
LAYER_1
 10
145.3660823420996
 20
0.3764138888888888
 30
0.0
  0
VERTEX
  5
1C0
  8
LAYER_1
 10
142.8744128976552
 20
0.3764138888888888
 30
0.0
  0
VERTEX
  5
1C1
  8
LAYER_1
 10
142.8744128976552
 20
5.3594
 30
0.0
  0
VERTEX
  5
1C2
  8
LAYER_1
 10
140.3608712309885
 20
5.3594
 30
0.0
  0
VERTEX
  5
1C3
  8
LAYER_1
 10
140.3608712309885
 20
0.3764138888888888
 30
0.0
  0
VERTEX
  5
1C4
  8
LAYER_1
 10
137.8695545643218
 20
0.3764138888888888
 30
0.0
  0
VERTEX
  5
1C5
  8
LAYER_1
 10
137.8695545643218
 20
5.3594
 30
0.0
  0
VERTEX
  5
1C6
  8
LAYER_1
 10
135.3560128976552
 20
5.3594
 30
0.0
  0
VERTEX
  5
1C7
  8
LAYER_1
 10
135.3560128976552
 20
0.3764138888888888
 30
0.0
  0
VERTEX
  5
1C8
  8
LAYER_1
 10
132.8643434532108
 20
0.3764138888888888
 30
0.0
  0
VERTEX
  5
1C9
  8
LAYER_1
 10
132.8643434532108
 20
5.3594
 30
0.0
  0
VERTEX
  5
1CA
  8
LAYER_1
 10
130.3730267865442
 20
5.3594
 30
0.0
  0
VERTEX
  5
1CB
  8
LAYER_1
 10
130.3730267865442
 20
0.3764138888888888
 30
0.0
  0
VERTEX
  5
1CC
  8
LAYER_1
 10
127.8594851198775
 20
0.3764138888888888
 30
0.0
  0
VERTEX
  5
1CD
  8
LAYER_1
 10
127.8594851198775
 20
5.3594
 30
0.0
  0
VERTEX
  5
1CE
  8
LAYER_1
 10
125.3678156754331
 20
5.3594
 30
0.0
  0
VERTEX
  5
1CF
  8
LAYER_1
 10
125.3678156754331
 20
0.3764138888888888
 30
0.0
  0
VERTEX
  5
1D0
  8
LAYER_1
 10
122.8542740087664
 20
0.3764138888888888
 30
0.0
  0
VERTEX
  5
1D1
  8
LAYER_1
 10
122.8542740087664
 20
5.3594
 30
0.0
  0
VERTEX
  5
1D2
  8
LAYER_1
 10
120.3629573420998
 20
5.3594
 30
0.0
  0
VERTEX
  5
1D3
  8
LAYER_1
 10
120.3629573420998
 20
0.3764138888888888
 30
0.0
  0
VERTEX
  5
1D4
  8
LAYER_1
 10
117.8716406754331
 20
0.3764138888888888
 30
0.0
  0
VERTEX
  5
1D5
  8
LAYER_1
 10
117.8716406754331
 20
5.3594
 30
0.0
  0
VERTEX
  5
1D6
  8
LAYER_1
 10
115.3580990087664
 20
5.3594
 30
0.0
  0
VERTEX
  5
1D7
  8
LAYER_1
 10
115.3580990087664
 20
0.3764138888888888
 30
0.0
  0
VERTEX
  5
1D8
  8
LAYER_1
 10
112.866429564322
 20
0.3764138888888888
 30
0.0
  0
VERTEX
  5
1D9
  8
LAYER_1
 10
112.866429564322
 20
5.3594
 30
0.0
  0
VERTEX
  5
1DA
  8
LAYER_1
 10
110.3751128976553
 20
5.3594
 30
0.0
  0
VERTEX
  5
1DB
  8
LAYER_1
 10
110.3751128976553
 20
0.3764138888888888
 30
0.0
  0
VERTEX
  5
1DC
  8
LAYER_1
 10
107.8612184532109
 20
0.3764138888888888
 30
0.0
  0
VERTEX
  5
1DD
  8
LAYER_1
 10
107.8612184532109
 20
5.3594
 30
0.0
  0
VERTEX
  5
1DE
  8
LAYER_1
 10
105.3699017865442
 20
5.3594
 30
0.0
  0
VERTEX
  5
1DF
  8
LAYER_1
 10
105.3699017865442
 20
0.3764138888888888
 30
0.0
  0
VERTEX
  5
1E0
  8
LAYER_1
 10
102.8563601198776
 20
0.3764138888888888
 30
0.0
  0
VERTEX
  5
1E1
  8
LAYER_1
 10
102.8563601198776
 20
5.3594
 30
0.0
  0
VERTEX
  5
1E2
  8
LAYER_1
 10
100.3646906754331
 20
5.3594
 30
0.0
  0
VERTEX
  5
1E3
  8
LAYER_1
 10
100.3646906754331
 20
0.3545416666666666
 30
0.0
  0
VERTEX
  5
1E4
  8
LAYER_1
 10
97.87337400876645
 20
0.3545416666666666
 30
0.0
  0
VERTEX
  5
1E5
  8
LAYER_1
 10
97.87337400876645
 20
5.3594
 30
0.0
  0
VERTEX
  5
1E6
  8
LAYER_1
 10
95.35983234209978
 20
5.3594
 30
0.0
  0
VERTEX
  5
1E7
  8
LAYER_1
 10
95.35983234209978
 20
0.3764138888888888
 30
0.0
  0
VERTEX
  5
1E8
  8
LAYER_1
 10
92.86816289765534
 20
0.3764138888888888
 30
0.0
  0
VERTEX
  5
1E9
  8
LAYER_1
 10
92.86816289765534
 20
5.3594
 30
0.0
  0
VERTEX
  5
1EA
  8
LAYER_1
 10
90.35520833333332
 20
5.3594
 30
0.0
  0
VERTEX
  5
1EB
  8
LAYER_1
 10
90.35520833333332
 20
0.3764138888888888
 30
0.0
  0
VERTEX
  5
1EC
  8
LAYER_1
 10
87.86353888888888
 20
0.3764138888888888
 30
0.0
  0
VERTEX
  5
1ED
  8
LAYER_1
 10
87.86353888888888
 20
5.3594
 30
0.0
  0
VERTEX
  5
1EE
  8
LAYER_1
 10
85.34999722222221
 20
5.3594
 30
0.0
  0
VERTEX
  5
1EF
  8
LAYER_1
 10
85.34999722222221
 20
0.3764138888888888
 30
0.0
  0
VERTEX
  5
1F0
  8
LAYER_1
 10
82.85832777777777
 20
0.3764138888888888
 30
0.0
  0
VERTEX
  5
1F1
  8
LAYER_1
 10
82.85832777777777
 20
5.3594
 30
0.0
  0
VERTEX
  5
1F2
  8
LAYER_1
 10
80.3447861111111
 20
5.3594
 30
0.0
  0
VERTEX
  5
1F3
  8
LAYER_1
 10
80.3447861111111
 20
0.3764138888888888
 30
0.0
  0
VERTEX
  5
1F4
  8
LAYER_1
 10
77.85346944444444
 20
0.3764138888888888
 30
0.0
  0
VERTEX
  5
1F5
  8
LAYER_1
 10
77.85346944444444
 20
5.3594
 30
0.0
  0
VERTEX
  5
1F6
  8
LAYER_1
 10
75.36179999999999
 20
5.3594
 30
0.0
  0
VERTEX
  5
1F7
  8
LAYER_1
 10
75.36179999999999
 20
0.3764138888888888
 30
0.0
  0
VERTEX
  5
1F8
  8
LAYER_1
 10
72.84825833333332
 20
0.3764138888888888
 30
0.0
  0
VERTEX
  5
1F9
  8
LAYER_1
 10
72.84825833333332
 20
5.3594
 30
0.0
  0
VERTEX
  5
1FA
  8
LAYER_1
 10
70.35694166666667
 20
5.3594
 30
0.0
  0
VERTEX
  5
1FB
  8
LAYER_1
 10
70.35694166666667
 20
0.3764138888888888
 30
0.0
  0
VERTEX
  5
1FC
  8
LAYER_1
 10
67.86527222222222
 20
0.3764138888888888
 30
0.0
  0
VERTEX
  5
1FD
  8
LAYER_1
 10
67.86527222222222
 20
5.3594
 30
0.0
  0
VERTEX
  5
1FE
  8
LAYER_1
 10
65.35173055555555
 20
5.3594
 30
0.0
  0
VERTEX
  5
1FF
  8
LAYER_1
 10
65.35173055555555
 20
0.3764138888888888
 30
0.0
  0
VERTEX
  5
200
  8
LAYER_1
 10
62.86041388888889
 20
0.3764138888888888
 30
0.0
  0
VERTEX
  5
201
  8
LAYER_1
 10
62.86041388888889
 20
5.3594
 30
0.0
  0
VERTEX
  5
202
  8
LAYER_1
 10
60.34687222222222
 20
5.3594
 30
0.0
  0
VERTEX
  5
203
  8
LAYER_1
 10
60.34687222222222
 20
0.3764138888888888
 30
0.0
  0
VERTEX
  5
204
  8
LAYER_1
 10
57.85520277777777
 20
0.3764138888888888
 30
0.0
  0
VERTEX
  5
205
  8
LAYER_1
 10
57.85520277777777
 20
5.3594
 30
0.0
  0
VERTEX
  5
206
  8
LAYER_1
 10
55.36388611111111
 20
5.3594
 30
0.0
  0
VERTEX
  5
207
  8
LAYER_1
 10
55.36388611111111
 20
0.3764138888888888
 30
0.0
  0
VERTEX
  5
208
  8
LAYER_1
 10
52.85034444444445
 20
0.3764138888888888
 30
0.0
  0
VERTEX
  5
209
  8
LAYER_1
 10
52.85034444444445
 20
5.3594
 30
0.0
  0
VERTEX
  5
20A
  8
LAYER_1
 10
50.35867499999999
 20
5.3594
 30
0.0
  0
VERTEX
  5
20B
  8
LAYER_1
 10
50.35867499999999
 20
0.3764138888888888
 30
0.0
  0
VERTEX
  5
20C
  8
LAYER_1
 10
47.84513333333333
 20
0.3764138888888888
 30
0.0
  0
VERTEX
  5
20D
  8
LAYER_1
 10
47.84513333333333
 20
5.3594
 30
0.0
  0
VERTEX
  5
20E
  8
LAYER_1
 10
45.35381666666667
 20
5.3594
 30
0.0
  0
VERTEX
  5
20F
  8
LAYER_1
 10
45.35381666666667
 20
0.3764138888888888
 30
0.0
  0
VERTEX
  5
210
  8
LAYER_1
 10
42.8625
 20
0.3764138888888888
 30
0.0
  0
VERTEX
  5
211
  8
LAYER_1
 10
42.8625
 20
5.3594
 30
0.0
  0
VERTEX
  5
212
  8
LAYER_1
 10
40.34895833333333
 20
5.3594
 30
0.0
  0
VERTEX
  5
213
  8
LAYER_1
 10
40.34895833333333
 20
0.3764138888888888
 30
0.0
  0
VERTEX
  5
214
  8
LAYER_1
 10
37.85728888888888
 20
0.3764138888888888
 30
0.0
  0
VERTEX
  5
215
  8
LAYER_1
 10
37.85728888888888
 20
5.3594
 30
0.0
  0
VERTEX
  5
216
  8
LAYER_1
 10
35.36597222222222
 20
5.3594
 30
0.0
  0
VERTEX
  5
217
  8
LAYER_1
 10
35.36597222222222
 20
0.3764138888888888
 30
0.0
  0
VERTEX
  5
218
  8
LAYER_1
 10
32.85207777777777
 20
0.3764138888888888
 30
0.0
  0
VERTEX
  5
219
  8
LAYER_1
 10
32.85207777777777
 20
5.3594
 30
0.0
  0
VERTEX
  5
21A
  8
LAYER_1
 10
30.36076111111111
 20
5.3594
 30
0.0
  0
VERTEX
  5
21B
  8
LAYER_1
 10
30.36076111111111
 20
0.3764138888888888
 30
0.0
  0
VERTEX
  5
21C
  8
LAYER_1
 10
27.84721944444444
 20
0.3764138888888888
 30
0.0
  0
VERTEX
  5
21D
  8
LAYER_1
 10
27.84721944444444
 20
5.3594
 30
0.0
  0
VERTEX
  5
21E
  8
LAYER_1
 10
25.35555
 20
5.3594
 30
0.0
  0
VERTEX
  5
21F
  8
LAYER_1
 10
25.35555
 20
0.3545416666666666
 30
0.0
  0
VERTEX
  5
220
  8
LAYER_1
 10
22.86423333333333
 20
0.3545416666666666
 30
0.0
  0
VERTEX
  5
221
  8
LAYER_1
 10
22.86423333333333
 20
5.3594
 30
0.0
  0
VERTEX
  5
222
  8
LAYER_1
 10
20.35069166666666
 20
5.3594
 30
0.0
  0
VERTEX
  5
223
  8
LAYER_1
 10
20.35069166666666
 20
0.3764138888888888
 30
0.0
  0
VERTEX
  5
224
  8
LAYER_1
 10
17.85902222222222
 20
0.3764138888888888
 30
0.0
  0
VERTEX
  5
225
  8
LAYER_1
 10
17.85902222222222
 20
5.3594
 30
0.0
  0
VERTEX
  5
226
  8
LAYER_1
 10
15.34548055555556
 20
5.3594
 30
0.0
  0
VERTEX
  5
227
  8
LAYER_1
 10
15.34548055555556
 20
2.868083333333333
 30
0.0
  0
VERTEX
  5
228
  8
LAYER_1
 10
15.33271802707248
 20
2.611613199869792
 30
0.0
  0
VERTEX
  5
229
  8
LAYER_1
 10
15.29523866102431
 20
2.362431510416667
 30
0.0
  0
VERTEX
  5
22A
  8
LAYER_1
 10
15.23425478651259
 20
2.121815706380208
 30
0.0
  0
VERTEX
  5
22B
  8
LAYER_1
 10
15.15097873263889
 20
1.891043229166666
 30
0.0
  0
VERTEX
  5
22C
  8
LAYER_1
 10
15.04662282850477
 20
1.671391520182291
 30
0.0
  0
VERTEX
  5
22D
  8
LAYER_1
 10
14.92239940321181
 20
1.464138020833333
 30
0.0
  0
VERTEX
  5
22E
  8
LAYER_1
 10
14.77952078586154
 20
1.270560172526042
 30
0.0
  0
VERTEX
  5
22F
  8
LAYER_1
 10
14.61919930555555
 20
1.091935416666666
 30
0.0
  0
VERTEX
  5
230
  8
LAYER_1
 10
14.4426472913954
 20
0.929541194661458
 30
0.0
  0
VERTEX
  5
231
  8
LAYER_1
 10
14.25107707248264
 20
0.7846549479166665
 30
0.0
  0
VERTEX
  5
232
  8
LAYER_1
 10
14.04570097791883
 20
0.6585541178385415
 30
0.0
  0
VERTEX
  5
233
  8
LAYER_1
 10
13.82773133680555
 20
0.5525161458333332
 30
0.0
  0
VERTEX
  5
234
  8
LAYER_1
 10
13.59838047824435
 20
0.4678184733072916
 30
0.0
  0
VERTEX
  5
235
  8
LAYER_1
 10
13.3588607313368
 20
0.4057385416666666
 30
0.0
  0
VERTEX
  5
236
  8
LAYER_1
 10
13.11038442518446
 20
0.3675537923177082
 30
0.0
  0
VERTEX
  5
237
  8
LAYER_1
 10
12.85416388888889
 20
0.3545416666666666
 30
0.0
  0
VERTEX
  5
238
  8
LAYER_1
 10
2.866319444444444
 20
0.3545416666666666
 30
0.0
  0
VERTEX
  5
239
  8
LAYER_1
 10
2.609849310980902
 20
0.3675537923177082
 30
0.0
  0
VERTEX
  5
23A
  8
LAYER_1
 10
2.360667621527778
 20
0.4057385416666666
 30
0.0
  0
VERTEX
  5
23B
  8
LAYER_1
 10
2.120051817491319
 20
0.4678184733072916
 30
0.0
  0
VERTEX
  5
23C
  8
LAYER_1
 10
1.889279340277777
 20
0.5525161458333332
 30
0.0
  0
VERTEX
  5
23D
  8
LAYER_1
 10
1.669627631293402
 20
0.6585541178385415
 30
0.0
  0
VERTEX
  5
23E
  8
LAYER_1
 10
1.462374131944444
 20
0.7846549479166665
 30
0.0
  0
VERTEX
  5
23F
  8
LAYER_1
 10
1.268796283637152
 20
0.929541194661458
 30
0.0
  0
VERTEX
  5
240
  8
LAYER_1
 10
1.090171527777777
 20
1.091935416666666
 30
0.0
  0
VERTEX
  5
241
  8
LAYER_1
 10
0.9277773057725692
 20
1.270560172526042
 30
0.0
  0
VERTEX
  5
242
  8
LAYER_1
 10
0.7828910590277776
 20
1.464138020833333
 30
0.0
  0
VERTEX
  5
243
  8
LAYER_1
 10
0.6567902289496526
 20
1.671391520182291
 30
0.0
  0
VERTEX
  5
244
  8
LAYER_1
 10
0.5507522569444443
 20
1.891043229166666
 30
0.0
  0
VERTEX
  5
245
  8
LAYER_1
 10
0.4660545844184027
 20
2.121815706380208
 30
0.0
  0
VERTEX
  5
246
  8
LAYER_1
 10
0.4039746527777777
 20
2.362431510416667
 30
0.0
  0
VERTEX
  5
247
  8
LAYER_1
 10
0.3657899034288194
 20
2.611613199869792
 30
0.0
  0
VERTEX
  5
248
  8
LAYER_1
 10
0.3527777777777777
 20
2.868083333333333
 30
0.0
  0
SEQEND
  5
544
  8
LAYER_1
  0
POLYLINE
  5
6F
  8
IMPORT_-_LOOM2
 66
     1
 10
0.0
 20
0.0
 30
0.0
 70
     1
  0
VERTEX
  5
249
  8
IMPORT_-_LOOM2
 10
92.92600590741847
 20
131.9192704257963
 30
0.0
  0
VERTEX
  5
24A
  8
IMPORT_-_LOOM2
 10
91.42325254867883
 20
131.9143721745444
 30
0.0
  0
VERTEX
  5
24B
  8
IMPORT_-_LOOM2
 10
90.23242439775282
 20
131.902757431392
 30
0.0
  0
VERTEX
  5
24C
  8
IMPORT_-_LOOM2
 10
88.805906097613
 20
131.8801505618105
 30
0.0
  0
VERTEX
  5
24D
  8
IMPORT_-_LOOM2
 10
87.18665577212708
 20
131.8428902797417
 30
0.0
  0
VERTEX
  5
24E
  8
IMPORT_-_LOOM2
 10
85.41763154516278
 20
131.787315299127
 30
0.0
  0
VERTEX
  5
24F
  8
IMPORT_-_LOOM2
 10
83.5417915405878
 20
131.7097643339079
 30
0.0
  0
VERTEX
  5
250
  8
IMPORT_-_LOOM2
 10
81.60209388226988
 20
131.6065760980262
 30
0.0
  0
VERTEX
  5
251
  8
IMPORT_-_LOOM2
 10
80.62172284666599
 20
131.5442238516935
 30
0.0
  0
VERTEX
  5
252
  8
IMPORT_-_LOOM2
 10
79.64149669407675
 20
131.4740893054232
 30
0.0
  0
VERTEX
  5
253
  8
IMPORT_-_LOOM2
 10
78.66678518998563
 20
131.395714798458
 30
0.0
  0
VERTEX
  5
254
  8
IMPORT_-_LOOM2
 10
77.70295809987613
 20
131.3086426700406
 30
0.0
  0
VERTEX
  5
255
  8
IMPORT_-_LOOM2
 10
76.75538518923167
 20
131.2124152594137
 30
0.0
  0
VERTEX
  5
256
  8
IMPORT_-_LOOM2
 10
75.82943622353574
 20
131.1065749058199
 30
0.0
  0
VERTEX
  5
257
  8
IMPORT_-_LOOM2
 10
74.93048096827178
 20
130.990663948502
 30
0.0
  0
VERTEX
  5
258
  8
IMPORT_-_LOOM2
 10
74.0638891889233
 20
130.8642247267026
 30
0.0
  0
VERTEX
  5
259
  8
IMPORT_-_LOOM2
 10
73.23503065097373
 20
130.7267995796645
 30
0.0
  0
VERTEX
  5
25A
  8
IMPORT_-_LOOM2
 10
72.44927511990653
 20
130.5779308466304
 30
0.0
  0
VERTEX
  5
25B
  8
IMPORT_-_LOOM2
 10
71.71199236120518
 20
130.4171608668429
 30
0.0
  0
VERTEX
  5
25C
  8
IMPORT_-_LOOM2
 10
71.02855214035316
 20
130.2440319795447
 30
0.0
  0
VERTEX
  5
25D
  8
IMPORT_-_LOOM2
 10
70.70870103333422
 20
130.1526899265925
 30
0.0
  0
VERTEX
  5
25E
  8
IMPORT_-_LOOM2
 10
70.4043242228339
 20
130.0580865239786
 30
0.0
  0
VERTEX
  5
25F
  8
IMPORT_-_LOOM2
 10
70.11609292953767
 20
129.9601645641084
 30
0.0
  0
VERTEX
  5
260
  8
IMPORT_-_LOOM2
 10
69.8446783741309
 20
129.8588668393872
 30
0.0
  0
VERTEX
  5
261
  8
IMPORT_-_LOOM2
 10
69.59075177729906
 20
129.7541361422203
 30
0.0
  0
VERTEX
  5
262
  8
IMPORT_-_LOOM2
 10
69.35498435972758
 20
129.6459152650132
 30
0.0
  0
VERTEX
  5
263
  8
IMPORT_-_LOOM2
 10
69.13804734210191
 20
129.534147000171
 30
0.0
  0
VERTEX
  5
264
  8
IMPORT_-_LOOM2
 10
68.94061194510746
 20
129.4187741400993
 30
0.0
  0
VERTEX
  5
265
  8
IMPORT_-_LOOM2
 10
68.94061194510746
 20
126.918983412045
 30
0.0
  0
VERTEX
  5
266
  8
IMPORT_-_LOOM2
 10
69.13804734210191
 20
126.8036136202705
 30
0.0
  0
VERTEX
  5
267
  8
IMPORT_-_LOOM2
 10
69.35498435972758
 20
126.6918544311286
 30
0.0
  0
VERTEX
  5
268
  8
IMPORT_-_LOOM2
 10
69.59075177729906
 20
126.5836484432376
 30
0.0
  0
VERTEX
  5
269
  8
IMPORT_-_LOOM2
 10
69.8446783741309
 20
126.4789382552155
 30
0.0
  0
VERTEX
  5
26A
  8
IMPORT_-_LOOM2
 10
70.11609292953767
 20
126.3776664656804
 30
0.0
  0
VERTEX
  5
26B
  8
IMPORT_-_LOOM2
 10
70.4043242228339
 20
126.2797756732507
 30
0.0
  0
VERTEX
  5
26C
  8
IMPORT_-_LOOM2
 10
71.02855214035316
 20
126.0939074741793
 30
0.0
  0
VERTEX
  5
26D
  8
IMPORT_-_LOOM2
 10
71.71199236120518
 20
125.9208744469466
 30
0.0
  0
VERTEX
  5
26E
  8
IMPORT_-_LOOM2
 10
72.44927511990653
 20
125.7602173804977
 30
0.0
  0
VERTEX
  5
26F
  8
IMPORT_-_LOOM2
 10
73.23503065097373
 20
125.6114770637777
 30
0.0
  0
VERTEX
  5
270
  8
IMPORT_-_LOOM2
 10
74.0638891889233
 20
125.4741942857317
 30
0.0
  0
VERTEX
  5
271
  8
IMPORT_-_LOOM2
 10
74.93048096827178
 20
125.3479098353049
 30
0.0
  0
VERTEX
  5
272
  8
IMPORT_-_LOOM2
 10
75.82943622353574
 20
125.2321645014424
 30
0.0
  0
VERTEX
  5
273
  8
IMPORT_-_LOOM2
 10
76.75538518923167
 20
125.1264990730894
 30
0.0
  0
VERTEX
  5
274
  8
IMPORT_-_LOOM2
 10
77.70295809987613
 20
125.030454339191
 30
0.0
  0
VERTEX
  5
275
  8
IMPORT_-_LOOM2
 10
78.66678518998563
 20
124.9435710886924
 30
0.0
  0
VERTEX
  5
276
  8
IMPORT_-_LOOM2
 10
79.64149669407675
 20
124.8653901105386
 30
0.0
  0
VERTEX
  5
277
  8
IMPORT_-_LOOM2
 10
80.62172284666599
 20
124.7954521936748
 30
0.0
  0
VERTEX
  5
278
  8
IMPORT_-_LOOM2
 10
81.60209388226988
 20
124.7332981270462
 30
0.0
  0
VERTEX
  5
279
  8
IMPORT_-_LOOM2
 10
83.5417915405878
 20
124.630504700275
 30
0.0
  0
VERTEX
  5
27A
  8
IMPORT_-_LOOM2
 10
85.41763154516278
 20
124.5533361417862
 30
0.0
  0
VERTEX
  5
27B
  8
IMPORT_-_LOOM2
 10
87.18665577212708
 20
124.4981187631408
 30
0.0
  0
VERTEX
  5
27C
  8
IMPORT_-_LOOM2
 10
88.805906097613
 20
124.4611788758999
 30
0.0
  0
VERTEX
  5
27D
  8
IMPORT_-_LOOM2
 10
91.42325254867883
 20
124.4274368218763
 30
0.0
  0
VERTEX
  5
27E
  8
IMPORT_-_LOOM2
 10
92.92600590741847
 20
124.4227204722042
 30
0.0
  0
VERTEX
  5
27F
  8
IMPORT_-_LOOM2
 10
164.9194365767113
 20
124.4227204722042
 30
0.0
  0
VERTEX
  5
280
  8
IMPORT_-_LOOM2
 10
165.3297386604562
 20
124.4354830384406
 30
0.0
  0
VERTEX
  5
281
  8
IMPORT_-_LOOM2
 10
165.7283806583877
 20
124.4729625153582
 30
0.0
  0
VERTEX
  5
282
  8
IMPORT_-_LOOM2
 10
166.1133189139454
 20
124.5339465702691
 30
0.0
  0
VERTEX
  5
283
  8
IMPORT_-_LOOM2
 10
166.4825097705687
 20
124.6172228704854
 30
0.0
  0
VERTEX
  5
284
  8
IMPORT_-_LOOM2
 10
166.8339095716969
 20
124.7215790833194
 30
0.0
  0
VERTEX
  5
285
  8
IMPORT_-_LOOM2
 10
167.1654746607694
 20
124.8458028760832
 30
0.0
  0
VERTEX
  5
286
  8
IMPORT_-_LOOM2
 10
167.4751613812258
 20
124.9886819160891
 30
0.0
  0
VERTEX
  5
287
  8
IMPORT_-_LOOM2
 10
167.7609260765054
 20
125.1490038706492
 30
0.0
  0
VERTEX
  5
288
  8
IMPORT_-_LOOM2
 10
168.0207250900476
 20
125.3255564070758
 30
0.0
  0
VERTEX
  5
289
  8
IMPORT_-_LOOM2
 10
168.2525147652918
 20
125.517127192681
 30
0.0
  0
VERTEX
  5
28A
  8
IMPORT_-_LOOM2
 10
168.357267458377
 20
125.6181655749606
 30
0.0
  0
VERTEX
  5
28B
  8
IMPORT_-_LOOM2
 10
168.4542514456775
 20
125.722503894777
 30
0.0
  0
VERTEX
  5
28C
  8
IMPORT_-_LOOM2
 10
168.5432112701232
 20
125.8299906105441
 30
0.0
  0
VERTEX
  5
28D
  8
IMPORT_-_LOOM2
 10
168.6238914746441
 20
125.9404741806761
 30
0.0
  0
VERTEX
  5
28E
  8
IMPORT_-_LOOM2
 10
168.69603660217
 20
126.0538030635868
 30
0.0
  0
VERTEX
  5
28F
  8
IMPORT_-_LOOM2
 10
168.7593911956309
 20
126.1698257176903
 30
0.0
  0
VERTEX
  5
290
  8
IMPORT_-_LOOM2
 10
168.8136997979568
 20
126.2883906014007
 30
0.0
  0
VERTEX
  5
291
  8
IMPORT_-_LOOM2
 10
168.8587069520775
 20
126.4093461731319
 30
0.0
  0
VERTEX
  5
292
  8
IMPORT_-_LOOM2
 10
168.894157200923
 20
126.5325408912981
 30
0.0
  0
VERTEX
  5
293
  8
IMPORT_-_LOOM2
 10
168.9197950874232
 20
126.6578232143132
 30
0.0
  0
VERTEX
  5
294
  8
IMPORT_-_LOOM2
 10
168.9353651545081
 20
126.7850416005912
 30
0.0
  0
VERTEX
  5
295
  8
IMPORT_-_LOOM2
 10
168.9406119451075
 20
126.9140445085462
 30
0.0
  0
VERTEX
  5
296
  8
IMPORT_-_LOOM2
 10
168.9406119451075
 20
129.4275936106329
 30
0.0
  0
VERTEX
  5
297
  8
IMPORT_-_LOOM2
 10
168.9353651545081
 20
129.5565975305877
 30
0.0
  0
VERTEX
  5
298
  8
IMPORT_-_LOOM2
 10
168.9197950874232
 20
129.6838188667375
 30
0.0
  0
VERTEX
  5
299
  8
IMPORT_-_LOOM2
 10
168.894157200923
 20
129.8091059483048
 30
0.0
  0
VERTEX
  5
29A
  8
IMPORT_-_LOOM2
 10
168.8587069520775
 20
129.9323071045122
 30
0.0
  0
VERTEX
  5
29B
  8
IMPORT_-_LOOM2
 10
168.8136997979568
 20
130.0532706645822
 30
0.0
  0
VERTEX
  5
29C
  8
IMPORT_-_LOOM2
 10
168.7593911956309
 20
130.1718449577375
 30
0.0
  0
VERTEX
  5
29D
  8
IMPORT_-_LOOM2
 10
168.69603660217
 20
130.2878783132005
 30
0.0
  0
VERTEX
  5
29E
  8
IMPORT_-_LOOM2
 10
168.6238914746441
 20
130.4012190601939
 30
0.0
  0
VERTEX
  5
29F
  8
IMPORT_-_LOOM2
 10
168.5432112701232
 20
130.5117155279401
 30
0.0
  0
VERTEX
  5
2A0
  8
IMPORT_-_LOOM2
 10
168.4542514456775
 20
130.6192160456619
 30
0.0
  0
VERTEX
  5
2A1
  8
IMPORT_-_LOOM2
 10
168.357267458377
 20
130.7235689425817
 30
0.0
  0
VERTEX
  5
2A2
  8
IMPORT_-_LOOM2
 10
168.2525147652918
 20
130.824622547922
 30
0.0
  0
VERTEX
  5
2A3
  8
IMPORT_-_LOOM2
 10
168.0207250900476
 20
131.0162252007548
 30
0.0
  0
VERTEX
  5
2A4
  8
IMPORT_-_LOOM2
 10
167.7609260765054
 20
131.1928106379406
 30
0.0
  0
VERTEX
  5
2A5
  8
IMPORT_-_LOOM2
 10
167.4751613812258
 20
131.3531654932599
 30
0.0
  0
VERTEX
  5
2A6
  8
IMPORT_-_LOOM2
 10
167.1654746607694
 20
131.4960764004933
 30
0.0
  0
VERTEX
  5
2A7
  8
IMPORT_-_LOOM2
 10
166.8339095716969
 20
131.6203299934213
 30
0.0
  0
VERTEX
  5
2A8
  8
IMPORT_-_LOOM2
 10
166.4825097705687
 20
131.7247129058243
 30
0.0
  0
VERTEX
  5
2A9
  8
IMPORT_-_LOOM2
 10
166.1133189139454
 20
131.8080117714828
 30
0.0
  0
VERTEX
  5
2AA
  8
IMPORT_-_LOOM2
 10
165.7283806583877
 20
131.8690132241773
 30
0.0
  0
VERTEX
  5
2AB
  8
IMPORT_-_LOOM2
 10
165.3297386604562
 20
131.9065038976883
 30
0.0
  0
VERTEX
  5
2AC
  8
IMPORT_-_LOOM2
 10
164.9194365767113
 20
131.9192704257963
 30
0.0
  0
SEQEND
  5
545
  8
IMPORT_-_LOOM2
  0
POLYLINE
  5
70
  8
IMPORT_-_LOOM2
 66
     1
 10
0.0
 20
0.0
 30
0.0
 70
     1
  0
VERTEX
  5
2AD
  8
IMPORT_-_LOOM2
 10
148.9402733198133
 20
129.4275936106329
 30
0.0
  0
VERTEX
  5
2AE
  8
IMPORT_-_LOOM2
 10
160.9332524887139
 20
129.4275936106329
 30
0.0
  0
VERTEX
  5
2AF
  8
IMPORT_-_LOOM2
 10
161.3431616039778
 20
129.4210895094973
 30
0.0
  0
VERTEX
  5
2B0
  8
IMPORT_-_LOOM2
 10
161.7406930388107
 20
129.4020026766415
 30
0.0
  0
VERTEX
  5
2B1
  8
IMPORT_-_LOOM2
 10
162.1239056501691
 20
129.3709713178924
 30
0.0
  0
VERTEX
  5
2B2
  8
IMPORT_-_LOOM2
 10
162.490858295009
 20
129.3286336390764
 30
0.0
  0
VERTEX
  5
2B3
  8
IMPORT_-_LOOM2
 10
162.8396098302867
 20
129.2756278460205
 30
0.0
  0
VERTEX
  5
2B4
  8
IMPORT_-_LOOM2
 10
163.1682191129584
 20
129.2125921445513
 30
0.0
  0
VERTEX
  5
2B5
  8
IMPORT_-_LOOM2
 10
163.4747449999803
 20
129.1401647404954
 30
0.0
  0
VERTEX
  5
2B6
  8
IMPORT_-_LOOM2
 10
163.7572463483086
 20
129.0589838396795
 30
0.0
  0
VERTEX
  5
2B7
  8
IMPORT_-_LOOM2
 10
164.0137820148995
 20
128.9696876479305
 30
0.0
  0
VERTEX
  5
2B8
  8
IMPORT_-_LOOM2
 10
164.2424108567093
 20
128.872914371075
 30
0.0
  0
VERTEX
  5
2B9
  8
IMPORT_-_LOOM2
 10
164.4411917306942
 20
128.7693022149397
 30
0.0
  0
VERTEX
  5
2BA
  8
IMPORT_-_LOOM2
 10
164.6081834938103
 20
128.6594893853512
 30
0.0
  0
VERTEX
  5
2BB
  8
IMPORT_-_LOOM2
 10
164.7414450030138
 20
128.5441140881363
 30
0.0
  0
VERTEX
  5
2BC
  8
IMPORT_-_LOOM2
 10
164.7948203051972
 20
128.4845399534898
 30
0.0
  0
VERTEX
  5
2BD
  8
IMPORT_-_LOOM2
 10
164.839035115261
 20
128.4238145291217
 30
0.0
  0
VERTEX
  5
2BE
  8
IMPORT_-_LOOM2
 10
164.8738467903248
 20
128.3620175907604
 30
0.0
  0
VERTEX
  5
2BF
  8
IMPORT_-_LOOM2
 10
164.8990126875081
 20
128.2992289141341
 30
0.0
  0
VERTEX
  5
2C0
  8
IMPORT_-_LOOM2
 10
164.9142901639304
 20
128.2355282749713
 30
0.0
  0
VERTEX
  5
2C1
  8
IMPORT_-_LOOM2
 10
164.9194365767113
 20
128.1709954490002
 30
0.0
  0
VERTEX
  5
2C2
  8
IMPORT_-_LOOM2
 10
164.9142901639304
 20
128.1064616110294
 30
0.0
  0
VERTEX
  5
2C3
  8
IMPORT_-_LOOM2
 10
164.8990126875081
 20
128.0427580219948
 30
0.0
  0
VERTEX
  5
2C4
  8
IMPORT_-_LOOM2
 10
164.8738467903248
 20
127.9799645868163
 30
0.0
  0
VERTEX
  5
2C5
  8
IMPORT_-_LOOM2
 10
164.839035115261
 20
127.9181612104138
 30
0.0
  0
VERTEX
  5
2C6
  8
IMPORT_-_LOOM2
 10
164.7948203051972
 20
127.8574277977069
 30
0.0
  0
VERTEX
  5
2C7
  8
IMPORT_-_LOOM2
 10
164.7414450030138
 20
127.7978442536155
 30
0.0
  0
VERTEX
  5
2C8
  8
IMPORT_-_LOOM2
 10
164.6081834938103
 20
127.6824463909584
 30
0.0
  0
VERTEX
  5
2C9
  8
IMPORT_-_LOOM2
 10
164.4411917306942
 20
127.572606861801
 30
0.0
  0
VERTEX
  5
2CA
  8
IMPORT_-_LOOM2
 10
164.2424108567093
 20
127.4689649055015
 30
0.0
  0
VERTEX
  5
2CB
  8
IMPORT_-_LOOM2
 10
164.0137820148995
 20
127.3721597614184
 30
0.0
  0
VERTEX
  5
2CC
  8
IMPORT_-_LOOM2
 10
163.7572463483086
 20
127.2828306689102
 30
0.0
  0
VERTEX
  5
2CD
  8
IMPORT_-_LOOM2
 10
163.4747449999803
 20
127.2016168673352
 30
0.0
  0
VERTEX
  5
2CE
  8
IMPORT_-_LOOM2
 10
163.1682191129584
 20
127.1291575960518
 30
0.0
  0
VERTEX
  5
2CF
  8
IMPORT_-_LOOM2
 10
162.8396098302867
 20
127.0660920944184
 30
0.0
  0
VERTEX
  5
2D0
  8
IMPORT_-_LOOM2
 10
162.490858295009
 20
127.0130596017935
 30
0.0
  0
VERTEX
  5
2D1
  8
IMPORT_-_LOOM2
 10
162.1239056501691
 20
126.9706993575354
 30
0.0
  0
VERTEX
  5
2D2
  8
IMPORT_-_LOOM2
 10
161.7406930388107
 20
126.9396506010025
 30
0.0
  0
VERTEX
  5
2D3
  8
IMPORT_-_LOOM2
 10
161.3431616039778
 20
126.9205525715533
 30
0.0
  0
VERTEX
  5
2D4
  8
IMPORT_-_LOOM2
 10
160.9332524887139
 20
126.9140445085462
 30
0.0
  0
VERTEX
  5
2D5
  8
IMPORT_-_LOOM2
 10
148.9402733198133
 20
126.9140445085462
 30
0.0
  0
VERTEX
  5
2D6
  8
IMPORT_-_LOOM2
 10
148.5299712360684
 20
126.9205525715533
 30
0.0
  0
VERTEX
  5
2D7
  8
IMPORT_-_LOOM2
 10
148.1313292381369
 20
126.9396506010025
 30
0.0
  0
VERTEX
  5
2D8
  8
IMPORT_-_LOOM2
 10
147.7463909825792
 20
126.9706993575354
 30
0.0
  0
VERTEX
  5
2D9
  8
IMPORT_-_LOOM2
 10
147.3772001259559
 20
127.0130596017935
 30
0.0
  0
VERTEX
  5
2DA
  8
IMPORT_-_LOOM2
 10
147.0258003248277
 20
127.0660920944184
 30
0.0
  0
VERTEX
  5
2DB
  8
IMPORT_-_LOOM2
 10
146.6942352357552
 20
127.1291575960518
 30
0.0
  0
VERTEX
  5
2DC
  8
IMPORT_-_LOOM2
 10
146.3845485152988
 20
127.2016168673352
 30
0.0
  0
VERTEX
  5
2DD
  8
IMPORT_-_LOOM2
 10
146.0987838200193
 20
127.2828306689102
 30
0.0
  0
VERTEX
  5
2DE
  8
IMPORT_-_LOOM2
 10
145.838984806477
 20
127.3721597614184
 30
0.0
  0
VERTEX
  5
2DF
  8
IMPORT_-_LOOM2
 10
145.6071951312328
 20
127.4689649055015
 30
0.0
  0
VERTEX
  5
2E0
  8
IMPORT_-_LOOM2
 10
145.4054584508471
 20
127.572606861801
 30
0.0
  0
VERTEX
  5
2E1
  8
IMPORT_-_LOOM2
 10
145.2358184218805
 20
127.6824463909584
 30
0.0
  0
VERTEX
  5
2E2
  8
IMPORT_-_LOOM2
 10
145.1003187008937
 20
127.7978442536155
 30
0.0
  0
VERTEX
  5
2E3
  8
IMPORT_-_LOOM2
 10
145.0460100985678
 20
127.8574277977069
 30
0.0
  0
VERTEX
  5
2E4
  8
IMPORT_-_LOOM2
 10
145.0010029444471
 20
127.9181612104138
 30
0.0
  0
VERTEX
  5
2E5
  8
IMPORT_-_LOOM2
 10
144.9655526956016
 20
127.9799645868163
 30
0.0
  0
VERTEX
  5
2E6
  8
IMPORT_-_LOOM2
 10
144.9399148091014
 20
128.0427580219948
 30
0.0
  0
VERTEX
  5
2E7
  8
IMPORT_-_LOOM2
 10
144.9243447420166
 20
128.1064616110294
 30
0.0
  0
VERTEX
  5
2E8
  8
IMPORT_-_LOOM2
 10
144.9190979514171
 20
128.1709954490002
 30
0.0
  0
VERTEX
  5
2E9
  8
IMPORT_-_LOOM2
 10
144.9243447420166
 20
128.2355282749713
 30
0.0
  0
VERTEX
  5
2EA
  8
IMPORT_-_LOOM2
 10
144.9399148091014
 20
128.2992289141341
 30
0.0
  0
VERTEX
  5
2EB
  8
IMPORT_-_LOOM2
 10
144.9655526956016
 20
128.3620175907604
 30
0.0
  0
VERTEX
  5
2EC
  8
IMPORT_-_LOOM2
 10
145.0010029444471
 20
128.4238145291217
 30
0.0
  0
VERTEX
  5
2ED
  8
IMPORT_-_LOOM2
 10
145.0460100985678
 20
128.4845399534898
 30
0.0
  0
VERTEX
  5
2EE
  8
IMPORT_-_LOOM2
 10
145.1003187008937
 20
128.5441140881363
 30
0.0
  0
VERTEX
  5
2EF
  8
IMPORT_-_LOOM2
 10
145.2358184218805
 20
128.6594893853512
 30
0.0
  0
VERTEX
  5
2F0
  8
IMPORT_-_LOOM2
 10
145.4054584508471
 20
128.7693022149397
 30
0.0
  0
VERTEX
  5
2F1
  8
IMPORT_-_LOOM2
 10
145.6071951312328
 20
128.872914371075
 30
0.0
  0
VERTEX
  5
2F2
  8
IMPORT_-_LOOM2
 10
145.838984806477
 20
128.9696876479305
 30
0.0
  0
VERTEX
  5
2F3
  8
IMPORT_-_LOOM2
 10
146.0987838200193
 20
129.0589838396795
 30
0.0
  0
VERTEX
  5
2F4
  8
IMPORT_-_LOOM2
 10
146.3845485152988
 20
129.1401647404954
 30
0.0
  0
VERTEX
  5
2F5
  8
IMPORT_-_LOOM2
 10
146.6942352357552
 20
129.2125921445513
 30
0.0
  0
VERTEX
  5
2F6
  8
IMPORT_-_LOOM2
 10
147.0258003248277
 20
129.2756278460205
 30
0.0
  0
VERTEX
  5
2F7
  8
IMPORT_-_LOOM2
 10
147.3772001259559
 20
129.3286336390764
 30
0.0
  0
VERTEX
  5
2F8
  8
IMPORT_-_LOOM2
 10
147.7463909825792
 20
129.3709713178924
 30
0.0
  0
VERTEX
  5
2F9
  8
IMPORT_-_LOOM2
 10
148.1313292381369
 20
129.4020026766415
 30
0.0
  0
VERTEX
  5
2FA
  8
IMPORT_-_LOOM2
 10
148.5299712360684
 20
129.4210895094973
 30
0.0
  0
SEQEND
  5
546
  8
IMPORT_-_LOOM2
  0
POLYLINE
  5
71
  8
IMPORT_-_LOOM2
 66
     1
 10
0.0
 20
0.0
 30
0.0
 70
     1
  0
VERTEX
  5
2FB
  8
IMPORT_-_LOOM2
 10
92.92600590741847
 20
146.6129932771049
 30
0.0
  0
VERTEX
  5
2FC
  8
IMPORT_-_LOOM2
 10
91.42325254867883
 20
146.608095025853
 30
0.0
  0
VERTEX
  5
2FD
  8
IMPORT_-_LOOM2
 10
90.23242439775282
 20
146.5964802827006
 30
0.0
  0
VERTEX
  5
2FE
  8
IMPORT_-_LOOM2
 10
88.805906097613
 20
146.5738734131191
 30
0.0
  0
VERTEX
  5
2FF
  8
IMPORT_-_LOOM2
 10
87.18665577212708
 20
146.5366131310503
 30
0.0
  0
VERTEX
  5
300
  8
IMPORT_-_LOOM2
 10
85.41763154516278
 20
146.4810381504356
 30
0.0
  0
VERTEX
  5
301
  8
IMPORT_-_LOOM2
 10
83.5417915405878
 20
146.4034871852165
 30
0.0
  0
VERTEX
  5
302
  8
IMPORT_-_LOOM2
 10
81.60209388226988
 20
146.3002989493348
 30
0.0
  0
VERTEX
  5
303
  8
IMPORT_-_LOOM2
 10
80.62172284666599
 20
146.2379467030021
 30
0.0
  0
VERTEX
  5
304
  8
IMPORT_-_LOOM2
 10
79.64149669407675
 20
146.1678121567318
 30
0.0
  0
VERTEX
  5
305
  8
IMPORT_-_LOOM2
 10
78.66678518998563
 20
146.0894376497666
 30
0.0
  0
VERTEX
  5
306
  8
IMPORT_-_LOOM2
 10
77.70295809987613
 20
146.0023655213492
 30
0.0
  0
VERTEX
  5
307
  8
IMPORT_-_LOOM2
 10
76.75538518923167
 20
145.9061381107223
 30
0.0
  0
VERTEX
  5
308
  8
IMPORT_-_LOOM2
 10
75.82943622353574
 20
145.8002977571285
 30
0.0
  0
VERTEX
  5
309
  8
IMPORT_-_LOOM2
 10
74.93048096827178
 20
145.6843867998106
 30
0.0
  0
VERTEX
  5
30A
  8
IMPORT_-_LOOM2
 10
74.0638891889233
 20
145.5579475780112
 30
0.0
  0
VERTEX
  5
30B
  8
IMPORT_-_LOOM2
 10
73.23503065097373
 20
145.4205224309732
 30
0.0
  0
VERTEX
  5
30C
  8
IMPORT_-_LOOM2
 10
72.44927511990653
 20
145.271653697939
 30
0.0
  0
VERTEX
  5
30D
  8
IMPORT_-_LOOM2
 10
71.71199236120518
 20
145.1108837181515
 30
0.0
  0
VERTEX
  5
30E
  8
IMPORT_-_LOOM2
 10
71.02855214035316
 20
144.9377548308534
 30
0.0
  0
VERTEX
  5
30F
  8
IMPORT_-_LOOM2
 10
70.70870103333422
 20
144.8464127779011
 30
0.0
  0
VERTEX
  5
310
  8
IMPORT_-_LOOM2
 10
70.4043242228339
 20
144.7518093752872
 30
0.0
  0
VERTEX
  5
311
  8
IMPORT_-_LOOM2
 10
70.11609292953767
 20
144.653887415417
 30
0.0
  0
VERTEX
  5
312
  8
IMPORT_-_LOOM2
 10
69.8446783741309
 20
144.5525896906958
 30
0.0
  0
VERTEX
  5
313
  8
IMPORT_-_LOOM2
 10
69.59075177729906
 20
144.447858993529
 30
0.0
  0
VERTEX
  5
314
  8
IMPORT_-_LOOM2
 10
69.35498435972758
 20
144.3396381163218
 30
0.0
  0
VERTEX
  5
315
  8
IMPORT_-_LOOM2
 10
69.13804734210191
 20
144.2278698514797
 30
0.0
  0
VERTEX
  5
316
  8
IMPORT_-_LOOM2
 10
68.94061194510746
 20
144.1124969914079
 30
0.0
  0
VERTEX
  5
317
  8
IMPORT_-_LOOM2
 10
68.94061194510746
 20
141.6127062633537
 30
0.0
  0
VERTEX
  5
318
  8
IMPORT_-_LOOM2
 10
69.13804734210191
 20
141.4973364715791
 30
0.0
  0
VERTEX
  5
319
  8
IMPORT_-_LOOM2
 10
69.35498435972758
 20
141.3855772824373
 30
0.0
  0
VERTEX
  5
31A
  8
IMPORT_-_LOOM2
 10
69.59075177729906
 20
141.2773712945462
 30
0.0
  0
VERTEX
  5
31B
  8
IMPORT_-_LOOM2
 10
69.8446783741309
 20
141.1726611065241
 30
0.0
  0
VERTEX
  5
31C
  8
IMPORT_-_LOOM2
 10
70.11609292953767
 20
141.0713893169891
 30
0.0
  0
VERTEX
  5
31D
  8
IMPORT_-_LOOM2
 10
70.4043242228339
 20
140.9734985245593
 30
0.0
  0
VERTEX
  5
31E
  8
IMPORT_-_LOOM2
 10
71.02855214035316
 20
140.787630325488
 30
0.0
  0
VERTEX
  5
31F
  8
IMPORT_-_LOOM2
 10
71.71199236120518
 20
140.6145972982553
 30
0.0
  0
VERTEX
  5
320
  8
IMPORT_-_LOOM2
 10
72.44927511990653
 20
140.4539402318063
 30
0.0
  0
VERTEX
  5
321
  8
IMPORT_-_LOOM2
 10
73.23503065097373
 20
140.3051999150863
 30
0.0
  0
VERTEX
  5
322
  8
IMPORT_-_LOOM2
 10
74.0638891889233
 20
140.1679171370403
 30
0.0
  0
VERTEX
  5
323
  8
IMPORT_-_LOOM2
 10
74.93048096827178
 20
140.0416326866135
 30
0.0
  0
VERTEX
  5
324
  8
IMPORT_-_LOOM2
 10
75.82943622353574
 20
139.9258873527511
 30
0.0
  0
VERTEX
  5
325
  8
IMPORT_-_LOOM2
 10
76.75538518923167
 20
139.8202219243981
 30
0.0
  0
VERTEX
  5
326
  8
IMPORT_-_LOOM2
 10
77.70295809987613
 20
139.7241771904997
 30
0.0
  0
VERTEX
  5
327
  8
IMPORT_-_LOOM2
 10
78.66678518998563
 20
139.637293940001
 30
0.0
  0
VERTEX
  5
328
  8
IMPORT_-_LOOM2
 10
79.64149669407675
 20
139.5591129618472
 30
0.0
  0
VERTEX
  5
329
  8
IMPORT_-_LOOM2
 10
80.62172284666599
 20
139.4891750449835
 30
0.0
  0
VERTEX
  5
32A
  8
IMPORT_-_LOOM2
 10
81.60209388226988
 20
139.4270209783548
 30
0.0
  0
VERTEX
  5
32B
  8
IMPORT_-_LOOM2
 10
83.5417915405878
 20
139.3242275515837
 30
0.0
  0
VERTEX
  5
32C
  8
IMPORT_-_LOOM2
 10
85.41763154516278
 20
139.2470589930948
 30
0.0
  0
VERTEX
  5
32D
  8
IMPORT_-_LOOM2
 10
87.18665577212708
 20
139.1918416144494
 30
0.0
  0
VERTEX
  5
32E
  8
IMPORT_-_LOOM2
 10
88.805906097613
 20
139.1549017272085
 30
0.0
  0
VERTEX
  5
32F
  8
IMPORT_-_LOOM2
 10
91.42325254867883
 20
139.1211596731849
 30
0.0
  0
VERTEX
  5
330
  8
IMPORT_-_LOOM2
 10
92.92600590741847
 20
139.1164433235128
 30
0.0
  0
VERTEX
  5
331
  8
IMPORT_-_LOOM2
 10
164.9194365767113
 20
139.1164433235128
 30
0.0
  0
VERTEX
  5
332
  8
IMPORT_-_LOOM2
 10
165.3297386604562
 20
139.1292058897493
 30
0.0
  0
VERTEX
  5
333
  8
IMPORT_-_LOOM2
 10
165.7283806583877
 20
139.1666853666669
 30
0.0
  0
VERTEX
  5
334
  8
IMPORT_-_LOOM2
 10
166.1133189139454
 20
139.2276694215777
 30
0.0
  0
VERTEX
  5
335
  8
IMPORT_-_LOOM2
 10
166.4825097705687
 20
139.310945721794
 30
0.0
  0
VERTEX
  5
336
  8
IMPORT_-_LOOM2
 10
166.8339095716969
 20
139.415301934628
 30
0.0
  0
VERTEX
  5
337
  8
IMPORT_-_LOOM2
 10
167.1654746607694
 20
139.5395257273918
 30
0.0
  0
VERTEX
  5
338
  8
IMPORT_-_LOOM2
 10
167.4751613812258
 20
139.6824047673977
 30
0.0
  0
VERTEX
  5
339
  8
IMPORT_-_LOOM2
 10
167.7609260765054
 20
139.8427267219579
 30
0.0
  0
VERTEX
  5
33A
  8
IMPORT_-_LOOM2
 10
168.0207250900476
 20
140.0192792583844
 30
0.0
  0
VERTEX
  5
33B
  8
IMPORT_-_LOOM2
 10
168.2525147652918
 20
140.2108500439896
 30
0.0
  0
VERTEX
  5
33C
  8
IMPORT_-_LOOM2
 10
168.357267458377
 20
140.3118884262693
 30
0.0
  0
VERTEX
  5
33D
  8
IMPORT_-_LOOM2
 10
168.4542514456775
 20
140.4162267460857
 30
0.0
  0
VERTEX
  5
33E
  8
IMPORT_-_LOOM2
 10
168.5432112701232
 20
140.5237134618528
 30
0.0
  0
VERTEX
  5
33F
  8
IMPORT_-_LOOM2
 10
168.6238914746441
 20
140.6341970319847
 30
0.0
  0
VERTEX
  5
340
  8
IMPORT_-_LOOM2
 10
168.69603660217
 20
140.7475259148954
 30
0.0
  0
VERTEX
  5
341
  8
IMPORT_-_LOOM2
 10
168.7593911956309
 20
140.8635485689989
 30
0.0
  0
VERTEX
  5
342
  8
IMPORT_-_LOOM2
 10
168.8136997979568
 20
140.9821134527093
 30
0.0
  0
VERTEX
  5
343
  8
IMPORT_-_LOOM2
 10
168.8587069520775
 20
141.1030690244406
 30
0.0
  0
VERTEX
  5
344
  8
IMPORT_-_LOOM2
 10
168.894157200923
 20
141.2262637426067
 30
0.0
  0
VERTEX
  5
345
  8
IMPORT_-_LOOM2
 10
168.9197950874232
 20
141.3515460656218
 30
0.0
  0
VERTEX
  5
346
  8
IMPORT_-_LOOM2
 10
168.9353651545081
 20
141.4787644518998
 30
0.0
  0
VERTEX
  5
347
  8
IMPORT_-_LOOM2
 10
168.9406119451075
 20
141.6077673598548
 30
0.0
  0
VERTEX
  5
348
  8
IMPORT_-_LOOM2
 10
168.9406119451075
 20
144.1213164619416
 30
0.0
  0
VERTEX
  5
349
  8
IMPORT_-_LOOM2
 10
168.9353651545081
 20
144.2503203818964
 30
0.0
  0
VERTEX
  5
34A
  8
IMPORT_-_LOOM2
 10
168.9197950874232
 20
144.3775417180461
 30
0.0
  0
VERTEX
  5
34B
  8
IMPORT_-_LOOM2
 10
168.894157200923
 20
144.5028287996134
 30
0.0
  0
VERTEX
  5
34C
  8
IMPORT_-_LOOM2
 10
168.8587069520775
 20
144.6260299558208
 30
0.0
  0
VERTEX
  5
34D
  8
IMPORT_-_LOOM2
 10
168.8136997979568
 20
144.7469935158908
 30
0.0
  0
VERTEX
  5
34E
  8
IMPORT_-_LOOM2
 10
168.7593911956309
 20
144.8655678090461
 30
0.0
  0
VERTEX
  5
34F
  8
IMPORT_-_LOOM2
 10
168.69603660217
 20
144.9816011645091
 30
0.0
  0
VERTEX
  5
350
  8
IMPORT_-_LOOM2
 10
168.6238914746441
 20
145.0949419115025
 30
0.0
  0
VERTEX
  5
351
  8
IMPORT_-_LOOM2
 10
168.5432112701232
 20
145.2054383792488
 30
0.0
  0
VERTEX
  5
352
  8
IMPORT_-_LOOM2
 10
168.4542514456775
 20
145.3129388969705
 30
0.0
  0
VERTEX
  5
353
  8
IMPORT_-_LOOM2
 10
168.357267458377
 20
145.4172917938903
 30
0.0
  0
VERTEX
  5
354
  8
IMPORT_-_LOOM2
 10
168.2525147652918
 20
145.5183453992307
 30
0.0
  0
VERTEX
  5
355
  8
IMPORT_-_LOOM2
 10
168.0207250900476
 20
145.7099480520634
 30
0.0
  0
VERTEX
  5
356
  8
IMPORT_-_LOOM2
 10
167.7609260765054
 20
145.8865334892491
 30
0.0
  0
VERTEX
  5
357
  8
IMPORT_-_LOOM2
 10
167.4751613812258
 20
146.0468883445685
 30
0.0
  0
VERTEX
  5
358
  8
IMPORT_-_LOOM2
 10
167.1654746607694
 20
146.1897992518019
 30
0.0
  0
VERTEX
  5
359
  8
IMPORT_-_LOOM2
 10
166.8339095716969
 20
146.3140528447298
 30
0.0
  0
VERTEX
  5
35A
  8
IMPORT_-_LOOM2
 10
166.4825097705687
 20
146.4184357571328
 30
0.0
  0
VERTEX
  5
35B
  8
IMPORT_-_LOOM2
 10
166.1133189139454
 20
146.5017346227914
 30
0.0
  0
VERTEX
  5
35C
  8
IMPORT_-_LOOM2
 10
165.7283806583877
 20
146.5627360754859
 30
0.0
  0
VERTEX
  5
35D
  8
IMPORT_-_LOOM2
 10
165.3297386604562
 20
146.6002267489969
 30
0.0
  0
VERTEX
  5
35E
  8
IMPORT_-_LOOM2
 10
164.9194365767113
 20
146.6129932771049
 30
0.0
  0
SEQEND
  5
547
  8
IMPORT_-_LOOM2
  0
POLYLINE
  5
72
  8
IMPORT_-_LOOM2
 66
     1
 10
0.0
 20
0.0
 30
0.0
 70
     1
  0
VERTEX
  5
35F
  8
IMPORT_-_LOOM2
 10
148.9402733198133
 20
144.1213164619416
 30
0.0
  0
VERTEX
  5
360
  8
IMPORT_-_LOOM2
 10
160.9332524887139
 20
144.1213164619416
 30
0.0
  0
VERTEX
  5
361
  8
IMPORT_-_LOOM2
 10
161.3431616039778
 20
144.114812360806
 30
0.0
  0
VERTEX
  5
362
  8
IMPORT_-_LOOM2
 10
161.7406930388107
 20
144.0957255279502
 30
0.0
  0
VERTEX
  5
363
  8
IMPORT_-_LOOM2
 10
162.1239056501691
 20
144.064694169201
 30
0.0
  0
VERTEX
  5
364
  8
IMPORT_-_LOOM2
 10
162.490858295009
 20
144.0223564903851
 30
0.0
  0
VERTEX
  5
365
  8
IMPORT_-_LOOM2
 10
162.8396098302867
 20
143.9693506973292
 30
0.0
  0
VERTEX
  5
366
  8
IMPORT_-_LOOM2
 10
163.1682191129584
 20
143.9063149958599
 30
0.0
  0
VERTEX
  5
367
  8
IMPORT_-_LOOM2
 10
163.4747449999803
 20
143.833887591804
 30
0.0
  0
VERTEX
  5
368
  8
IMPORT_-_LOOM2
 10
163.7572463483086
 20
143.7527066909882
 30
0.0
  0
VERTEX
  5
369
  8
IMPORT_-_LOOM2
 10
164.0137820148995
 20
143.6634104992392
 30
0.0
  0
VERTEX
  5
36A
  8
IMPORT_-_LOOM2
 10
164.2424108567093
 20
143.5666372223836
 30
0.0
  0
VERTEX
  5
36B
  8
IMPORT_-_LOOM2
 10
164.4411917306942
 20
143.4630250662483
 30
0.0
  0
VERTEX
  5
36C
  8
IMPORT_-_LOOM2
 10
164.6081834938103
 20
143.3532122366598
 30
0.0
  0
VERTEX
  5
36D
  8
IMPORT_-_LOOM2
 10
164.7414450030138
 20
143.2378369394449
 30
0.0
  0
VERTEX
  5
36E
  8
IMPORT_-_LOOM2
 10
164.7948203051972
 20
143.1782628047985
 30
0.0
  0
VERTEX
  5
36F
  8
IMPORT_-_LOOM2
 10
164.839035115261
 20
143.1175373804303
 30
0.0
  0
VERTEX
  5
370
  8
IMPORT_-_LOOM2
 10
164.8738467903248
 20
143.055740442069
 30
0.0
  0
VERTEX
  5
371
  8
IMPORT_-_LOOM2
 10
164.8990126875081
 20
142.9929517654428
 30
0.0
  0
VERTEX
  5
372
  8
IMPORT_-_LOOM2
 10
164.9142901639304
 20
142.9292511262799
 30
0.0
  0
VERTEX
  5
373
  8
IMPORT_-_LOOM2
 10
164.9194365767113
 20
142.8647183003089
 30
0.0
  0
VERTEX
  5
374
  8
IMPORT_-_LOOM2
 10
164.9142901639304
 20
142.800184462338
 30
0.0
  0
VERTEX
  5
375
  8
IMPORT_-_LOOM2
 10
164.8990126875081
 20
142.7364808733034
 30
0.0
  0
VERTEX
  5
376
  8
IMPORT_-_LOOM2
 10
164.8738467903248
 20
142.6736874381249
 30
0.0
  0
VERTEX
  5
377
  8
IMPORT_-_LOOM2
 10
164.839035115261
 20
142.6118840617224
 30
0.0
  0
VERTEX
  5
378
  8
IMPORT_-_LOOM2
 10
164.7948203051972
 20
142.5511506490155
 30
0.0
  0
VERTEX
  5
379
  8
IMPORT_-_LOOM2
 10
164.7414450030138
 20
142.4915671049241
 30
0.0
  0
VERTEX
  5
37A
  8
IMPORT_-_LOOM2
 10
164.6081834938103
 20
142.3761692422671
 30
0.0
  0
VERTEX
  5
37B
  8
IMPORT_-_LOOM2
 10
164.4411917306942
 20
142.2663297131096
 30
0.0
  0
VERTEX
  5
37C
  8
IMPORT_-_LOOM2
 10
164.2424108567093
 20
142.1626877568102
 30
0.0
  0
VERTEX
  5
37D
  8
IMPORT_-_LOOM2
 10
164.0137820148995
 20
142.0658826127271
 30
0.0
  0
VERTEX
  5
37E
  8
IMPORT_-_LOOM2
 10
163.7572463483086
 20
141.9765535202189
 30
0.0
  0
VERTEX
  5
37F
  8
IMPORT_-_LOOM2
 10
163.4747449999803
 20
141.8953397186438
 30
0.0
  0
VERTEX
  5
380
  8
IMPORT_-_LOOM2
 10
163.1682191129584
 20
141.8228804473604
 30
0.0
  0
VERTEX
  5
381
  8
IMPORT_-_LOOM2
 10
162.8396098302867
 20
141.759814945727
 30
0.0
  0
VERTEX
  5
382
  8
IMPORT_-_LOOM2
 10
162.490858295009
 20
141.7067824531021
 30
0.0
  0
VERTEX
  5
383
  8
IMPORT_-_LOOM2
 10
162.1239056501691
 20
141.664422208844
 30
0.0
  0
VERTEX
  5
384
  8
IMPORT_-_LOOM2
 10
161.7406930388107
 20
141.6333734523112
 30
0.0
  0
VERTEX
  5
385
  8
IMPORT_-_LOOM2
 10
161.3431616039778
 20
141.614275422862
 30
0.0
  0
VERTEX
  5
386
  8
IMPORT_-_LOOM2
 10
160.9332524887139
 20
141.6077673598548
 30
0.0
  0
VERTEX
  5
387
  8
IMPORT_-_LOOM2
 10
148.9402733198133
 20
141.6077673598548
 30
0.0
  0
VERTEX
  5
388
  8
IMPORT_-_LOOM2
 10
148.5299712360684
 20
141.614275422862
 30
0.0
  0
VERTEX
  5
389
  8
IMPORT_-_LOOM2
 10
148.1313292381369
 20
141.6333734523112
 30
0.0
  0
VERTEX
  5
38A
  8
IMPORT_-_LOOM2
 10
147.7463909825792
 20
141.664422208844
 30
0.0
  0
VERTEX
  5
38B
  8
IMPORT_-_LOOM2
 10
147.3772001259559
 20
141.7067824531021
 30
0.0
  0
VERTEX
  5
38C
  8
IMPORT_-_LOOM2
 10
147.0258003248277
 20
141.759814945727
 30
0.0
  0
VERTEX
  5
38D
  8
IMPORT_-_LOOM2
 10
146.6942352357552
 20
141.8228804473604
 30
0.0
  0
VERTEX
  5
38E
  8
IMPORT_-_LOOM2
 10
146.3845485152988
 20
141.8953397186438
 30
0.0
  0
VERTEX
  5
38F
  8
IMPORT_-_LOOM2
 10
146.0987838200193
 20
141.9765535202189
 30
0.0
  0
VERTEX
  5
390
  8
IMPORT_-_LOOM2
 10
145.838984806477
 20
142.0658826127271
 30
0.0
  0
VERTEX
  5
391
  8
IMPORT_-_LOOM2
 10
145.6071951312328
 20
142.1626877568102
 30
0.0
  0
VERTEX
  5
392
  8
IMPORT_-_LOOM2
 10
145.4054584508471
 20
142.2663297131096
 30
0.0
  0
VERTEX
  5
393
  8
IMPORT_-_LOOM2
 10
145.2358184218805
 20
142.3761692422671
 30
0.0
  0
VERTEX
  5
394
  8
IMPORT_-_LOOM2
 10
145.1003187008937
 20
142.4915671049241
 30
0.0
  0
VERTEX
  5
395
  8
IMPORT_-_LOOM2
 10
145.0460100985678
 20
142.5511506490155
 30
0.0
  0
VERTEX
  5
396
  8
IMPORT_-_LOOM2
 10
145.0010029444471
 20
142.6118840617224
 30
0.0
  0
VERTEX
  5
397
  8
IMPORT_-_LOOM2
 10
144.9655526956016
 20
142.6736874381249
 30
0.0
  0
VERTEX
  5
398
  8
IMPORT_-_LOOM2
 10
144.9399148091014
 20
142.7364808733034
 30
0.0
  0
VERTEX
  5
399
  8
IMPORT_-_LOOM2
 10
144.9243447420166
 20
142.800184462338
 30
0.0
  0
VERTEX
  5
39A
  8
IMPORT_-_LOOM2
 10
144.9190979514171
 20
142.8647183003089
 30
0.0
  0
VERTEX
  5
39B
  8
IMPORT_-_LOOM2
 10
144.9243447420166
 20
142.9292511262799
 30
0.0
  0
VERTEX
  5
39C
  8
IMPORT_-_LOOM2
 10
144.9399148091014
 20
142.9929517654428
 30
0.0
  0
VERTEX
  5
39D
  8
IMPORT_-_LOOM2
 10
144.9655526956016
 20
143.055740442069
 30
0.0
  0
VERTEX
  5
39E
  8
IMPORT_-_LOOM2
 10
145.0010029444471
 20
143.1175373804303
 30
0.0
  0
VERTEX
  5
39F
  8
IMPORT_-_LOOM2
 10
145.0460100985678
 20
143.1782628047985
 30
0.0
  0
VERTEX
  5
3A0
  8
IMPORT_-_LOOM2
 10
145.1003187008937
 20
143.2378369394449
 30
0.0
  0
VERTEX
  5
3A1
  8
IMPORT_-_LOOM2
 10
145.2358184218805
 20
143.3532122366598
 30
0.0
  0
VERTEX
  5
3A2
  8
IMPORT_-_LOOM2
 10
145.4054584508471
 20
143.4630250662483
 30
0.0
  0
VERTEX
  5
3A3
  8
IMPORT_-_LOOM2
 10
145.6071951312328
 20
143.5666372223836
 30
0.0
  0
VERTEX
  5
3A4
  8
IMPORT_-_LOOM2
 10
145.838984806477
 20
143.6634104992392
 30
0.0
  0
VERTEX
  5
3A5
  8
IMPORT_-_LOOM2
 10
146.0987838200193
 20
143.7527066909882
 30
0.0
  0
VERTEX
  5
3A6
  8
IMPORT_-_LOOM2
 10
146.3845485152988
 20
143.833887591804
 30
0.0
  0
VERTEX
  5
3A7
  8
IMPORT_-_LOOM2
 10
146.6942352357552
 20
143.9063149958599
 30
0.0
  0
VERTEX
  5
3A8
  8
IMPORT_-_LOOM2
 10
147.0258003248277
 20
143.9693506973292
 30
0.0
  0
VERTEX
  5
3A9
  8
IMPORT_-_LOOM2
 10
147.3772001259559
 20
144.0223564903851
 30
0.0
  0
VERTEX
  5
3AA
  8
IMPORT_-_LOOM2
 10
147.7463909825792
 20
144.064694169201
 30
0.0
  0
VERTEX
  5
3AB
  8
IMPORT_-_LOOM2
 10
148.1313292381369
 20
144.0957255279502
 30
0.0
  0
VERTEX
  5
3AC
  8
IMPORT_-_LOOM2
 10
148.5299712360684
 20
144.114812360806
 30
0.0
  0
SEQEND
  5
548
  8
IMPORT_-_LOOM2
  0
POLYLINE
  5
73
  8
IMPORT_-_LOOM2
 66
     1
 10
0.0
 20
0.0
 30
0.0
 70
     1
  0
VERTEX
  5
3AD
  8
IMPORT_-_LOOM2
 10
92.92600590741847
 20
119.576543230697
 30
0.0
  0
VERTEX
  5
3AE
  8
IMPORT_-_LOOM2
 10
91.42325254867883
 20
119.5716449794452
 30
0.0
  0
VERTEX
  5
3AF
  8
IMPORT_-_LOOM2
 10
90.23242439775282
 20
119.5600302362927
 30
0.0
  0
VERTEX
  5
3B0
  8
IMPORT_-_LOOM2
 10
88.805906097613
 20
119.5374233667113
 30
0.0
  0
VERTEX
  5
3B1
  8
IMPORT_-_LOOM2
 10
87.18665577212708
 20
119.5001630846424
 30
0.0
  0
VERTEX
  5
3B2
  8
IMPORT_-_LOOM2
 10
85.41763154516278
 20
119.4445881040277
 30
0.0
  0
VERTEX
  5
3B3
  8
IMPORT_-_LOOM2
 10
83.5417915405878
 20
119.3670371388087
 30
0.0
  0
VERTEX
  5
3B4
  8
IMPORT_-_LOOM2
 10
81.60209388226988
 20
119.2638489029269
 30
0.0
  0
VERTEX
  5
3B5
  8
IMPORT_-_LOOM2
 10
80.62172284666599
 20
119.2014966565942
 30
0.0
  0
VERTEX
  5
3B6
  8
IMPORT_-_LOOM2
 10
79.64149669407675
 20
119.1313621103239
 30
0.0
  0
VERTEX
  5
3B7
  8
IMPORT_-_LOOM2
 10
78.66678518998563
 20
119.0529876033587
 30
0.0
  0
VERTEX
  5
3B8
  8
IMPORT_-_LOOM2
 10
77.70295809987613
 20
118.9659154749413
 30
0.0
  0
VERTEX
  5
3B9
  8
IMPORT_-_LOOM2
 10
76.75538518923167
 20
118.8696880643144
 30
0.0
  0
VERTEX
  5
3BA
  8
IMPORT_-_LOOM2
 10
75.82943622353574
 20
118.7638477107206
 30
0.0
  0
VERTEX
  5
3BB
  8
IMPORT_-_LOOM2
 10
74.93048096827178
 20
118.6479367534027
 30
0.0
  0
VERTEX
  5
3BC
  8
IMPORT_-_LOOM2
 10
74.0638891889233
 20
118.5214975316033
 30
0.0
  0
VERTEX
  5
3BD
  8
IMPORT_-_LOOM2
 10
73.23503065097373
 20
118.3840723845653
 30
0.0
  0
VERTEX
  5
3BE
  8
IMPORT_-_LOOM2
 10
72.44927511990653
 20
118.2352036515311
 30
0.0
  0
VERTEX
  5
3BF
  8
IMPORT_-_LOOM2
 10
71.71199236120518
 20
118.0744336717436
 30
0.0
  0
VERTEX
  5
3C0
  8
IMPORT_-_LOOM2
 10
71.02855214035316
 20
117.9013047844454
 30
0.0
  0
VERTEX
  5
3C1
  8
IMPORT_-_LOOM2
 10
70.70870103333422
 20
117.8099627314932
 30
0.0
  0
VERTEX
  5
3C2
  8
IMPORT_-_LOOM2
 10
70.4043242228339
 20
117.7153593288793
 30
0.0
  0
VERTEX
  5
3C3
  8
IMPORT_-_LOOM2
 10
70.11609292953767
 20
117.6174373690091
 30
0.0
  0
VERTEX
  5
3C4
  8
IMPORT_-_LOOM2
 10
69.8446783741309
 20
117.5161396442879
 30
0.0
  0
VERTEX
  5
3C5
  8
IMPORT_-_LOOM2
 10
69.59075177729906
 20
117.4114089471211
 30
0.0
  0
VERTEX
  5
3C6
  8
IMPORT_-_LOOM2
 10
69.35498435972758
 20
117.3031880699139
 30
0.0
  0
VERTEX
  5
3C7
  8
IMPORT_-_LOOM2
 10
69.13804734210191
 20
117.1914198050718
 30
0.0
  0
VERTEX
  5
3C8
  8
IMPORT_-_LOOM2
 10
68.94061194510746
 20
117.076046945
 30
0.0
  0
VERTEX
  5
3C9
  8
IMPORT_-_LOOM2
 10
68.94061194510746
 20
114.5762562169457
 30
0.0
  0
VERTEX
  5
3CA
  8
IMPORT_-_LOOM2
 10
69.13804734210191
 20
114.4608864251712
 30
0.0
  0
VERTEX
  5
3CB
  8
IMPORT_-_LOOM2
 10
69.35498435972758
 20
114.3491272360294
 30
0.0
  0
VERTEX
  5
3CC
  8
IMPORT_-_LOOM2
 10
69.59075177729906
 20
114.2409212481383
 30
0.0
  0
VERTEX
  5
3CD
  8
IMPORT_-_LOOM2
 10
69.8446783741309
 20
114.1362110601162
 30
0.0
  0
VERTEX
  5
3CE
  8
IMPORT_-_LOOM2
 10
70.11609292953767
 20
114.0349392705812
 30
0.0
  0
VERTEX
  5
3CF
  8
IMPORT_-_LOOM2
 10
70.4043242228339
 20
113.9370484781514
 30
0.0
  0
VERTEX
  5
3D0
  8
IMPORT_-_LOOM2
 10
71.02855214035316
 20
113.7511802790801
 30
0.0
  0
VERTEX
  5
3D1
  8
IMPORT_-_LOOM2
 10
71.71199236120518
 20
113.5781472518474
 30
0.0
  0
VERTEX
  5
3D2
  8
IMPORT_-_LOOM2
 10
72.44927511990653
 20
113.4174901853984
 30
0.0
  0
VERTEX
  5
3D3
  8
IMPORT_-_LOOM2
 10
73.23503065097373
 20
113.2687498686784
 30
0.0
  0
VERTEX
  5
3D4
  8
IMPORT_-_LOOM2
 10
74.0638891889233
 20
113.1314670906324
 30
0.0
  0
VERTEX
  5
3D5
  8
IMPORT_-_LOOM2
 10
74.93048096827178
 20
113.0051826402056
 30
0.0
  0
VERTEX
  5
3D6
  8
IMPORT_-_LOOM2
 10
75.82943622353574
 20
112.8894373063432
 30
0.0
  0
VERTEX
  5
3D7
  8
IMPORT_-_LOOM2
 10
76.75538518923167
 20
112.7837718779901
 30
0.0
  0
VERTEX
  5
3D8
  8
IMPORT_-_LOOM2
 10
77.70295809987613
 20
112.6877271440918
 30
0.0
  0
VERTEX
  5
3D9
  8
IMPORT_-_LOOM2
 10
78.66678518998563
 20
112.6008438935931
 30
0.0
  0
VERTEX
  5
3DA
  8
IMPORT_-_LOOM2
 10
79.64149669407675
 20
112.5226629154393
 30
0.0
  0
VERTEX
  5
3DB
  8
IMPORT_-_LOOM2
 10
80.62172284666599
 20
112.4527249985756
 30
0.0
  0
VERTEX
  5
3DC
  8
IMPORT_-_LOOM2
 10
81.60209388226988
 20
112.390570931947
 30
0.0
  0
VERTEX
  5
3DD
  8
IMPORT_-_LOOM2
 10
83.5417915405878
 20
112.2877775051758
 30
0.0
  0
VERTEX
  5
3DE
  8
IMPORT_-_LOOM2
 10
85.41763154516278
 20
112.2106089466869
 30
0.0
  0
VERTEX
  5
3DF
  8
IMPORT_-_LOOM2
 10
87.18665577212708
 20
112.1553915680415
 30
0.0
  0
VERTEX
  5
3E0
  8
IMPORT_-_LOOM2
 10
88.805906097613
 20
112.1184516808006
 30
0.0
  0
VERTEX
  5
3E1
  8
IMPORT_-_LOOM2
 10
91.42325254867883
 20
112.084709626777
 30
0.0
  0
VERTEX
  5
3E2
  8
IMPORT_-_LOOM2
 10
92.92600590741847
 20
112.0799932771049
 30
0.0
  0
VERTEX
  5
3E3
  8
IMPORT_-_LOOM2
 10
164.9194365767113
 20
112.0799932771049
 30
0.0
  0
VERTEX
  5
3E4
  8
IMPORT_-_LOOM2
 10
165.3297386604562
 20
112.0927558433414
 30
0.0
  0
VERTEX
  5
3E5
  8
IMPORT_-_LOOM2
 10
165.7283806583877
 20
112.130235320259
 30
0.0
  0
VERTEX
  5
3E6
  8
IMPORT_-_LOOM2
 10
166.1133189139454
 20
112.1912193751698
 30
0.0
  0
VERTEX
  5
3E7
  8
IMPORT_-_LOOM2
 10
166.4825097705687
 20
112.2744956753861
 30
0.0
  0
VERTEX
  5
3E8
  8
IMPORT_-_LOOM2
 10
166.8339095716969
 20
112.3788518882201
 30
0.0
  0
VERTEX
  5
3E9
  8
IMPORT_-_LOOM2
 10
167.1654746607694
 20
112.503075680984
 30
0.0
  0
VERTEX
  5
3EA
  8
IMPORT_-_LOOM2
 10
167.4751613812258
 20
112.6459547209898
 30
0.0
  0
VERTEX
  5
3EB
  8
IMPORT_-_LOOM2
 10
167.7609260765054
 20
112.80627667555
 30
0.0
  0
VERTEX
  5
3EC
  8
IMPORT_-_LOOM2
 10
168.0207250900476
 20
112.9828292119765
 30
0.0
  0
VERTEX
  5
3ED
  8
IMPORT_-_LOOM2
 10
168.2525147652918
 20
113.1743999975817
 30
0.0
  0
VERTEX
  5
3EE
  8
IMPORT_-_LOOM2
 10
168.357267458377
 20
113.2754383798614
 30
0.0
  0
VERTEX
  5
3EF
  8
IMPORT_-_LOOM2
 10
168.4542514456775
 20
113.3797766996778
 30
0.0
  0
VERTEX
  5
3F0
  8
IMPORT_-_LOOM2
 10
168.5432112701232
 20
113.4872634154449
 30
0.0
  0
VERTEX
  5
3F1
  8
IMPORT_-_LOOM2
 10
168.6238914746441
 20
113.5977469855768
 30
0.0
  0
VERTEX
  5
3F2
  8
IMPORT_-_LOOM2
 10
168.69603660217
 20
113.7110758684875
 30
0.0
  0
VERTEX
  5
3F3
  8
IMPORT_-_LOOM2
 10
168.7593911956309
 20
113.827098522591
 30
0.0
  0
VERTEX
  5
3F4
  8
IMPORT_-_LOOM2
 10
168.8136997979568
 20
113.9456634063014
 30
0.0
  0
VERTEX
  5
3F5
  8
IMPORT_-_LOOM2
 10
168.8587069520775
 20
114.0666189780327
 30
0.0
  0
VERTEX
  5
3F6
  8
IMPORT_-_LOOM2
 10
168.894157200923
 20
114.1898136961988
 30
0.0
  0
VERTEX
  5
3F7
  8
IMPORT_-_LOOM2
 10
168.9197950874232
 20
114.3150960192139
 30
0.0
  0
VERTEX
  5
3F8
  8
IMPORT_-_LOOM2
 10
168.9353651545081
 20
114.4423144054919
 30
0.0
  0
VERTEX
  5
3F9
  8
IMPORT_-_LOOM2
 10
168.9406119451075
 20
114.5713173134469
 30
0.0
  0
VERTEX
  5
3FA
  8
IMPORT_-_LOOM2
 10
168.9406119451075
 20
117.0848664155337
 30
0.0
  0
VERTEX
  5
3FB
  8
IMPORT_-_LOOM2
 10
168.9353651545081
 20
117.2138703354885
 30
0.0
  0
VERTEX
  5
3FC
  8
IMPORT_-_LOOM2
 10
168.9197950874232
 20
117.3410916716382
 30
0.0
  0
VERTEX
  5
3FD
  8
IMPORT_-_LOOM2
 10
168.894157200923
 20
117.4663787532055
 30
0.0
  0
VERTEX
  5
3FE
  8
IMPORT_-_LOOM2
 10
168.8587069520775
 20
117.5895799094129
 30
0.0
  0
VERTEX
  5
3FF
  8
IMPORT_-_LOOM2
 10
168.8136997979568
 20
117.7105434694829
 30
0.0
  0
VERTEX
  5
400
  8
IMPORT_-_LOOM2
 10
168.7593911956309
 20
117.8291177626382
 30
0.0
  0
VERTEX
  5
401
  8
IMPORT_-_LOOM2
 10
168.69603660217
 20
117.9451511181012
 30
0.0
  0
VERTEX
  5
402
  8
IMPORT_-_LOOM2
 10
168.6238914746441
 20
118.0584918650946
 30
0.0
  0
VERTEX
  5
403
  8
IMPORT_-_LOOM2
 10
168.5432112701232
 20
118.1689883328409
 30
0.0
  0
VERTEX
  5
404
  8
IMPORT_-_LOOM2
 10
168.4542514456775
 20
118.2764888505627
 30
0.0
  0
VERTEX
  5
405
  8
IMPORT_-_LOOM2
 10
168.357267458377
 20
118.3808417474824
 30
0.0
  0
VERTEX
  5
406
  8
IMPORT_-_LOOM2
 10
168.2525147652918
 20
118.4818953528228
 30
0.0
  0
VERTEX
  5
407
  8
IMPORT_-_LOOM2
 10
168.0207250900476
 20
118.6734980056555
 30
0.0
  0
VERTEX
  5
408
  8
IMPORT_-_LOOM2
 10
167.7609260765054
 20
118.8500834428413
 30
0.0
  0
VERTEX
  5
409
  8
IMPORT_-_LOOM2
 10
167.4751613812258
 20
119.0104382981606
 30
0.0
  0
VERTEX
  5
40A
  8
IMPORT_-_LOOM2
 10
167.1654746607694
 20
119.1533492053941
 30
0.0
  0
VERTEX
  5
40B
  8
IMPORT_-_LOOM2
 10
166.8339095716969
 20
119.277602798322
 30
0.0
  0
VERTEX
  5
40C
  8
IMPORT_-_LOOM2
 10
166.4825097705687
 20
119.381985710725
 30
0.0
  0
VERTEX
  5
40D
  8
IMPORT_-_LOOM2
 10
166.1133189139454
 20
119.4652845763835
 30
0.0
  0
VERTEX
  5
40E
  8
IMPORT_-_LOOM2
 10
165.7283806583877
 20
119.526286029078
 30
0.0
  0
VERTEX
  5
40F
  8
IMPORT_-_LOOM2
 10
165.3297386604562
 20
119.563776702589
 30
0.0
  0
VERTEX
  5
410
  8
IMPORT_-_LOOM2
 10
164.9194365767113
 20
119.576543230697
 30
0.0
  0
SEQEND
  5
549
  8
IMPORT_-_LOOM2
  0
POLYLINE
  5
74
  8
IMPORT_-_LOOM2
 66
     1
 10
0.0
 20
0.0
 30
0.0
 70
     1
  0
VERTEX
  5
411
  8
IMPORT_-_LOOM2
 10
148.9402733198133
 20
117.0848664155337
 30
0.0
  0
VERTEX
  5
412
  8
IMPORT_-_LOOM2
 10
160.9332524887139
 20
117.0848664155337
 30
0.0
  0
VERTEX
  5
413
  8
IMPORT_-_LOOM2
 10
161.3431616039778
 20
117.078362314398
 30
0.0
  0
VERTEX
  5
414
  8
IMPORT_-_LOOM2
 10
161.7406930388107
 20
117.0592754815423
 30
0.0
  0
VERTEX
  5
415
  8
IMPORT_-_LOOM2
 10
162.1239056501691
 20
117.0282441227931
 30
0.0
  0
VERTEX
  5
416
  8
IMPORT_-_LOOM2
 10
162.490858295009
 20
116.9859064439772
 30
0.0
  0
VERTEX
  5
417
  8
IMPORT_-_LOOM2
 10
162.8396098302867
 20
116.9329006509212
 30
0.0
  0
VERTEX
  5
418
  8
IMPORT_-_LOOM2
 10
163.1682191129584
 20
116.869864949452
 30
0.0
  0
VERTEX
  5
419
  8
IMPORT_-_LOOM2
 10
163.4747449999803
 20
116.7974375453961
 30
0.0
  0
VERTEX
  5
41A
  8
IMPORT_-_LOOM2
 10
163.7572463483086
 20
116.7162566445803
 30
0.0
  0
VERTEX
  5
41B
  8
IMPORT_-_LOOM2
 10
164.0137820148995
 20
116.6269604528313
 30
0.0
  0
VERTEX
  5
41C
  8
IMPORT_-_LOOM2
 10
164.2424108567093
 20
116.5301871759757
 30
0.0
  0
VERTEX
  5
41D
  8
IMPORT_-_LOOM2
 10
164.4411917306942
 20
116.4265750198404
 30
0.0
  0
VERTEX
  5
41E
  8
IMPORT_-_LOOM2
 10
164.6081834938103
 20
116.3167621902519
 30
0.0
  0
VERTEX
  5
41F
  8
IMPORT_-_LOOM2
 10
164.7414450030138
 20
116.201386893037
 30
0.0
  0
VERTEX
  5
420
  8
IMPORT_-_LOOM2
 10
164.7948203051972
 20
116.1418127583905
 30
0.0
  0
VERTEX
  5
421
  8
IMPORT_-_LOOM2
 10
164.839035115261
 20
116.0810873340225
 30
0.0
  0
VERTEX
  5
422
  8
IMPORT_-_LOOM2
 10
164.8738467903248
 20
116.0192903956611
 30
0.0
  0
VERTEX
  5
423
  8
IMPORT_-_LOOM2
 10
164.8990126875081
 20
115.9565017190349
 30
0.0
  0
VERTEX
  5
424
  8
IMPORT_-_LOOM2
 10
164.9142901639304
 20
115.892801079872
 30
0.0
  0
VERTEX
  5
425
  8
IMPORT_-_LOOM2
 10
164.9194365767113
 20
115.828268253901
 30
0.0
  0
VERTEX
  5
426
  8
IMPORT_-_LOOM2
 10
164.9142901639304
 20
115.7637344159301
 30
0.0
  0
VERTEX
  5
427
  8
IMPORT_-_LOOM2
 10
164.8990126875081
 20
115.7000308268956
 30
0.0
  0
VERTEX
  5
428
  8
IMPORT_-_LOOM2
 10
164.8738467903248
 20
115.6372373917171
 30
0.0
  0
VERTEX
  5
429
  8
IMPORT_-_LOOM2
 10
164.839035115261
 20
115.5754340153145
 30
0.0
  0
VERTEX
  5
42A
  8
IMPORT_-_LOOM2
 10
164.7948203051972
 20
115.5147006026076
 30
0.0
  0
VERTEX
  5
42B
  8
IMPORT_-_LOOM2
 10
164.7414450030138
 20
115.4551170585162
 30
0.0
  0
VERTEX
  5
42C
  8
IMPORT_-_LOOM2
 10
164.6081834938103
 20
115.3397191958592
 30
0.0
  0
VERTEX
  5
42D
  8
IMPORT_-_LOOM2
 10
164.4411917306942
 20
115.2298796667017
 30
0.0
  0
VERTEX
  5
42E
  8
IMPORT_-_LOOM2
 10
164.2424108567093
 20
115.1262377104022
 30
0.0
  0
VERTEX
  5
42F
  8
IMPORT_-_LOOM2
 10
164.0137820148995
 20
115.0294325663192
 30
0.0
  0
VERTEX
  5
430
  8
IMPORT_-_LOOM2
 10
163.7572463483086
 20
114.940103473811
 30
0.0
  0
VERTEX
  5
431
  8
IMPORT_-_LOOM2
 10
163.4747449999803
 20
114.8588896722359
 30
0.0
  0
VERTEX
  5
432
  8
IMPORT_-_LOOM2
 10
163.1682191129584
 20
114.7864304009525
 30
0.0
  0
VERTEX
  5
433
  8
IMPORT_-_LOOM2
 10
162.8396098302867
 20
114.7233648993192
 30
0.0
  0
VERTEX
  5
434
  8
IMPORT_-_LOOM2
 10
162.490858295009
 20
114.6703324066942
 30
0.0
  0
VERTEX
  5
435
  8
IMPORT_-_LOOM2
 10
162.1239056501691
 20
114.6279721624361
 30
0.0
  0
VERTEX
  5
436
  8
IMPORT_-_LOOM2
 10
161.7406930388107
 20
114.5969234059033
 30
0.0
  0
VERTEX
  5
437
  8
IMPORT_-_LOOM2
 10
161.3431616039778
 20
114.5778253764541
 30
0.0
  0
VERTEX
  5
438
  8
IMPORT_-_LOOM2
 10
160.9332524887139
 20
114.5713173134469
 30
0.0
  0
VERTEX
  5
439
  8
IMPORT_-_LOOM2
 10
148.9402733198133
 20
114.5713173134469
 30
0.0
  0
VERTEX
  5
43A
  8
IMPORT_-_LOOM2
 10
148.5299712360684
 20
114.5778253764541
 30
0.0
  0
VERTEX
  5
43B
  8
IMPORT_-_LOOM2
 10
148.1313292381369
 20
114.5969234059033
 30
0.0
  0
VERTEX
  5
43C
  8
IMPORT_-_LOOM2
 10
147.7463909825792
 20
114.6279721624361
 30
0.0
  0
VERTEX
  5
43D
  8
IMPORT_-_LOOM2
 10
147.3772001259559
 20
114.6703324066942
 30
0.0
  0
VERTEX
  5
43E
  8
IMPORT_-_LOOM2
 10
147.0258003248277
 20
114.7233648993192
 30
0.0
  0
VERTEX
  5
43F
  8
IMPORT_-_LOOM2
 10
146.6942352357552
 20
114.7864304009525
 30
0.0
  0
VERTEX
  5
440
  8
IMPORT_-_LOOM2
 10
146.3845485152988
 20
114.8588896722359
 30
0.0
  0
VERTEX
  5
441
  8
IMPORT_-_LOOM2
 10
146.0987838200193
 20
114.940103473811
 30
0.0
  0
VERTEX
  5
442
  8
IMPORT_-_LOOM2
 10
145.838984806477
 20
115.0294325663192
 30
0.0
  0
VERTEX
  5
443
  8
IMPORT_-_LOOM2
 10
145.6071951312328
 20
115.1262377104022
 30
0.0
  0
VERTEX
  5
444
  8
IMPORT_-_LOOM2
 10
145.4054584508471
 20
115.2298796667017
 30
0.0
  0
VERTEX
  5
445
  8
IMPORT_-_LOOM2
 10
145.2358184218805
 20
115.3397191958592
 30
0.0
  0
VERTEX
  5
446
  8
IMPORT_-_LOOM2
 10
145.1003187008937
 20
115.4551170585162
 30
0.0
  0
VERTEX
  5
447
  8
IMPORT_-_LOOM2
 10
145.0460100985678
 20
115.5147006026076
 30
0.0
  0
VERTEX
  5
448
  8
IMPORT_-_LOOM2
 10
145.0010029444471
 20
115.5754340153145
 30
0.0
  0
VERTEX
  5
449
  8
IMPORT_-_LOOM2
 10
144.9655526956016
 20
115.6372373917171
 30
0.0
  0
VERTEX
  5
44A
  8
IMPORT_-_LOOM2
 10
144.9399148091014
 20
115.7000308268956
 30
0.0
  0
VERTEX
  5
44B
  8
IMPORT_-_LOOM2
 10
144.9243447420166
 20
115.7637344159301
 30
0.0
  0
VERTEX
  5
44C
  8
IMPORT_-_LOOM2
 10
144.9190979514171
 20
115.828268253901
 30
0.0
  0
VERTEX
  5
44D
  8
IMPORT_-_LOOM2
 10
144.9243447420166
 20
115.892801079872
 30
0.0
  0
VERTEX
  5
44E
  8
IMPORT_-_LOOM2
 10
144.9399148091014
 20
115.9565017190349
 30
0.0
  0
VERTEX
  5
44F
  8
IMPORT_-_LOOM2
 10
144.9655526956016
 20
116.0192903956611
 30
0.0
  0
VERTEX
  5
450
  8
IMPORT_-_LOOM2
 10
145.0010029444471
 20
116.0810873340225
 30
0.0
  0
VERTEX
  5
451
  8
IMPORT_-_LOOM2
 10
145.0460100985678
 20
116.1418127583905
 30
0.0
  0
VERTEX
  5
452
  8
IMPORT_-_LOOM2
 10
145.1003187008937
 20
116.201386893037
 30
0.0
  0
VERTEX
  5
453
  8
IMPORT_-_LOOM2
 10
145.2358184218805
 20
116.3167621902519
 30
0.0
  0
VERTEX
  5
454
  8
IMPORT_-_LOOM2
 10
145.4054584508471
 20
116.4265750198404
 30
0.0
  0
VERTEX
  5
455
  8
IMPORT_-_LOOM2
 10
145.6071951312328
 20
116.5301871759757
 30
0.0
  0
VERTEX
  5
456
  8
IMPORT_-_LOOM2
 10
145.838984806477
 20
116.6269604528313
 30
0.0
  0
VERTEX
  5
457
  8
IMPORT_-_LOOM2
 10
146.0987838200193
 20
116.7162566445803
 30
0.0
  0
VERTEX
  5
458
  8
IMPORT_-_LOOM2
 10
146.3845485152988
 20
116.7974375453961
 30
0.0
  0
VERTEX
  5
459
  8
IMPORT_-_LOOM2
 10
146.6942352357552
 20
116.869864949452
 30
0.0
  0
VERTEX
  5
45A
  8
IMPORT_-_LOOM2
 10
147.0258003248277
 20
116.9329006509212
 30
0.0
  0
VERTEX
  5
45B
  8
IMPORT_-_LOOM2
 10
147.3772001259559
 20
116.9859064439772
 30
0.0
  0
VERTEX
  5
45C
  8
IMPORT_-_LOOM2
 10
147.7463909825792
 20
117.0282441227931
 30
0.0
  0
VERTEX
  5
45D
  8
IMPORT_-_LOOM2
 10
148.1313292381369
 20
117.0592754815423
 30
0.0
  0
VERTEX
  5
45E
  8
IMPORT_-_LOOM2
 10
148.5299712360684
 20
117.078362314398
 30
0.0
  0
SEQEND
  5
54A
  8
IMPORT_-_LOOM2
  0
POLYLINE
  5
75
  8
IMPORT_-_LOOM2
 66
     1
 10
0.0
 20
0.0
 30
0.0
 70
     1
  0
VERTEX
  5
45F
  8
IMPORT_-_LOOM2
 10
166.6243251359387
 20
180.196744530645
 30
0.0
  0
VERTEX
  5
460
  8
IMPORT_-_LOOM2
 10
169.1159945803832
 20
180.196744530645
 30
0.0
  0
VERTEX
  5
461
  8
IMPORT_-_LOOM2
 10
169.1159945803832
 20
177.7054278639783
 30
0.0
  0
VERTEX
  5
462
  8
IMPORT_-_LOOM2
 10
169.1159945803832
 20
175.1918861973116
 30
0.0
  0
VERTEX
  5
463
  8
IMPORT_-_LOOM2
 10
169.1159945803832
 20
162.6901473084228
 30
0.0
  0
VERTEX
  5
464
  8
IMPORT_-_LOOM2
 10
169.0055751359388
 20
162.6901473084228
 30
0.0
  0
VERTEX
  5
465
  8
IMPORT_-_LOOM2
 10
168.96255280504
 20
162.4270412535657
 30
0.0
  0
VERTEX
  5
466
  8
IMPORT_-_LOOM2
 10
168.9115672651162
 20
162.1658783617539
 30
0.0
  0
VERTEX
  5
467
  8
IMPORT_-_LOOM2
 10
168.8527121797009
 20
161.9067290421264
 30
0.0
  0
VERTEX
  5
468
  8
IMPORT_-_LOOM2
 10
168.7860812123276
 20
161.6496637038221
 30
0.0
  0
VERTEX
  5
469
  8
IMPORT_-_LOOM2
 10
168.7117680265299
 20
161.39475275598
 30
0.0
  0
VERTEX
  5
46A
  8
IMPORT_-_LOOM2
 10
168.6298662858411
 20
161.1420666077391
 30
0.0
  0
VERTEX
  5
46B
  8
IMPORT_-_LOOM2
 10
168.5404696537949
 20
160.8916756682385
 30
0.0
  0
VERTEX
  5
46C
  8
IMPORT_-_LOOM2
 10
168.4436717939249
 20
160.6436503466172
 30
0.0
  0
VERTEX
  5
46D
  8
IMPORT_-_LOOM2
 10
168.3395663697644
 20
160.398061052014
 30
0.0
  0
VERTEX
  5
46E
  8
IMPORT_-_LOOM2
 10
168.2282470448472
 20
160.1549781935681
 30
0.0
  0
VERTEX
  5
46F
  8
IMPORT_-_LOOM2
 10
167.9843413468762
 20
159.676613421704
 30
0.0
  0
VERTEX
  5
470
  8
IMPORT_-_LOOM2
 10
167.7127040082804
 20
159.2091193041367
 30
0.0
  0
VERTEX
  5
471
  8
IMPORT_-_LOOM2
 10
167.4140843373277
 20
158.7530591139783
 30
0.0
  0
VERTEX
  5
472
  8
IMPORT_-_LOOM2
 10
167.0892316422864
 20
158.3089961243407
 30
0.0
  0
VERTEX
  5
473
  8
IMPORT_-_LOOM2
 10
166.7388952314249
 20
157.877493608336
 30
0.0
  0
VERTEX
  5
474
  8
IMPORT_-_LOOM2
 10
166.3638244130113
 20
157.459114839076
 30
0.0
  0
VERTEX
  5
475
  8
IMPORT_-_LOOM2
 10
165.9647684953138
 20
157.0544230896728
 30
0.0
  0
VERTEX
  5
476
  8
IMPORT_-_LOOM2
 10
165.5424767866007
 20
156.6639816332383
 30
0.0
  0
VERTEX
  5
477
  8
IMPORT_-_LOOM2
 10
165.0976985951402
 20
156.2883537428846
 30
0.0
  0
VERTEX
  5
478
  8
IMPORT_-_LOOM2
 10
164.6311832292005
 20
155.9281026917236
 30
0.0
  0
VERTEX
  5
479
  8
IMPORT_-_LOOM2
 10
164.1436799970499
 20
155.5837917528672
 30
0.0
  0
VERTEX
  5
47A
  8
IMPORT_-_LOOM2
 10
163.6359382069566
 20
155.2559841994275
 30
0.0
  0
VERTEX
  5
47B
  8
IMPORT_-_LOOM2
 10
163.1087071671888
 20
154.9452433045165
 30
0.0
  0
VERTEX
  5
47C
  8
IMPORT_-_LOOM2
 10
162.5627361860147
 20
154.6521323412461
 30
0.0
  0
VERTEX
  5
47D
  8
IMPORT_-_LOOM2
 10
161.9987745717026
 20
154.3772145827283
 30
0.0
  0
VERTEX
  5
47E
  8
IMPORT_-_LOOM2
 10
161.4175716325208
 20
154.1210533020751
 30
0.0
  0
VERTEX
  5
47F
  8
IMPORT_-_LOOM2
 10
160.8198766767374
 20
153.8842117723984
 30
0.0
  0
VERTEX
  5
480
  8
IMPORT_-_LOOM2
 10
160.2064390126206
 20
153.6672532668103
 30
0.0
  0
VERTEX
  5
481
  8
IMPORT_-_LOOM2
 10
159.5780079484387
 20
153.4707410584228
 30
0.0
  0
VERTEX
  5
482
  8
IMPORT_-_LOOM2
 10
158.93533279246
 20
153.2952384203477
 30
0.0
  0
VERTEX
  5
483
  8
IMPORT_-_LOOM2
 10
158.2791628529527
 20
153.1413086256971
 30
0.0
  0
VERTEX
  5
484
  8
IMPORT_-_LOOM2
 10
157.6102474381848
 20
153.0095149475829
 30
0.0
  0
VERTEX
  5
485
  8
IMPORT_-_LOOM2
 10
156.9293358564249
 20
152.9004206591172
 30
0.0
  0
VERTEX
  5
486
  8
IMPORT_-_LOOM2
 10
156.2371774159409
 20
152.8145890334119
 30
0.0
  0
VERTEX
  5
487
  8
IMPORT_-_LOOM2
 10
155.5345214250012
 20
152.752583343579
 30
0.0
  0
VERTEX
  5
488
  8
IMPORT_-_LOOM2
 10
154.822117191874
 20
152.7149668627305
 30
0.0
  0
VERTEX
  5
489
  8
IMPORT_-_LOOM2
 10
154.1007140248276
 20
152.7023028639783
 30
0.0
  0
VERTEX
  5
48A
  8
IMPORT_-_LOOM2
 10
107.3199750891624
 20
152.7019385123697
 30
0.0
  0
VERTEX
  5
48B
  8
IMPORT_-_LOOM2
 10
78.2199750891624
 20
152.7019385123697
 30
0.0
  0
VERTEX
  5
48C
  8
IMPORT_-_LOOM2
 10
65.85448078233539
 20
152.7020355466778
 30
0.0
  0
VERTEX
  5
48D
  8
IMPORT_-_LOOM2
 10
69.14842788822287
 20
152.7020485757516
 30
0.0
  0
VERTEX
  5
48E
  8
IMPORT_-_LOOM2
 10
49.13011673004453
 20
152.7020485757516
 30
0.0
  0
VERTEX
  5
48F
  8
IMPORT_-_LOOM2
 10
49.13011673004445
 20
152.7020681434866
 30
0.0
  0
VERTEX
  5
490
  8
IMPORT_-_LOOM2
 10
49.13011650818113
 20
152.7020681434881
 30
0.0
  0
VERTEX
  5
491
  8
IMPORT_-_LOOM2
 10
49.13011650818113
 20
152.7020877100655
 30
0.0
  0
VERTEX
  5
492
  8
IMPORT_-_LOOM2
 10
26.61831753740585
 20
152.7023028639783
 30
0.0
  0
VERTEX
  5
493
  8
IMPORT_-_LOOM2
 10
25.89688233097138
 20
152.7149658614996
 30
0.0
  0
VERTEX
  5
494
  8
IMPORT_-_LOOM2
 10
25.18444812551348
 20
152.7525794678466
 30
0.0
  0
VERTEX
  5
495
  8
IMPORT_-_LOOM2
 10
24.48176422930037
 20
152.8145806036939
 30
0.0
  0
VERTEX
  5
496
  8
IMPORT_-_LOOM2
 10
23.78957995060029
 20
152.9004061897161
 30
0.0
  0
VERTEX
  5
497
  8
IMPORT_-_LOOM2
 10
23.10864459768145
 20
153.009493146588
 30
0.0
  0
VERTEX
  5
498
  8
IMPORT_-_LOOM2
 10
22.43970747881209
 20
153.1412783949842
 30
0.0
  0
VERTEX
  5
499
  8
IMPORT_-_LOOM2
 10
21.78351790226044
 20
153.2951988555792
 30
0.0
  0
VERTEX
  5
49A
  8
IMPORT_-_LOOM2
 10
21.14082517629473
 20
153.4706914490478
 30
0.0
  0
VERTEX
  5
49B
  8
IMPORT_-_LOOM2
 10
20.51237860918318
 20
153.6671930960645
 30
0.0
  0
VERTEX
  5
49C
  8
IMPORT_-_LOOM2
 10
19.89892750919403
 20
153.884140717304
 30
0.0
  0
VERTEX
  5
49D
  8
IMPORT_-_LOOM2
 10
19.30122118459551
 20
154.1209712334411
 30
0.0
  0
VERTEX
  5
49E
  8
IMPORT_-_LOOM2
 10
18.72000894365584
 20
154.3771215651502
 30
0.0
  0
VERTEX
  5
49F
  8
IMPORT_-_LOOM2
 10
18.15604009464326
 20
154.652028633106
 30
0.0
  0
VERTEX
  5
4A0
  8
IMPORT_-_LOOM2
 10
17.61006394582598
 20
154.9451293579833
 30
0.0
  0
VERTEX
  5
4A1
  8
IMPORT_-_LOOM2
 10
17.08282980547224
 20
155.2558606604566
 30
0.0
  0
VERTEX
  5
4A2
  8
IMPORT_-_LOOM2
 10
16.57508698185028
 20
155.5836594612005
 30
0.0
  0
VERTEX
  5
4A3
  8
IMPORT_-_LOOM2
 10
16.08758478322832
 20
155.9279626808898
 30
0.0
  0
VERTEX
  5
4A4
  8
IMPORT_-_LOOM2
 10
15.62107251787459
 20
156.288207240199
 30
0.0
  0
VERTEX
  5
4A5
  8
IMPORT_-_LOOM2
 10
15.17629949405731
 20
156.6638300598028
 30
0.0
  0
VERTEX
  5
4A6
  8
IMPORT_-_LOOM2
 10
14.75401502004473
 20
157.0542680603758
 30
0.0
  0
VERTEX
  5
4A7
  8
IMPORT_-_LOOM2
 10
14.35496840410506
 20
157.4589581625928
 30
0.0
  0
VERTEX
  5
4A8
  8
IMPORT_-_LOOM2
 10
13.97990895450653
 20
157.8773372871283
 30
0.0
  0
VERTEX
  5
4A9
  8
IMPORT_-_LOOM2
 10
13.62958597951738
 20
158.3088423546569
 30
0.0
  0
VERTEX
  5
4AA
  8
IMPORT_-_LOOM2
 10
13.30474878740584
 20
158.7529102858533
 30
0.0
  0
VERTEX
  5
4AB
  8
IMPORT_-_LOOM2
 10
13.00614668644013
 20
159.2089780013922
 30
0.0
  0
VERTEX
  5
4AC
  8
IMPORT_-_LOOM2
 10
12.73452898488847
 20
159.6764824219482
 30
0.0
  0
VERTEX
  5
4AD
  8
IMPORT_-_LOOM2
 10
12.49064499101912
 20
160.1548604681959
 30
0.0
  0
VERTEX
  5
4AE
  8
IMPORT_-_LOOM2
 10
12.37933729329912
 20
160.3979511386649
 30
0.0
  0
VERTEX
  5
4AF
  8
IMPORT_-_LOOM2
 10
12.27524401310028
 20
160.6435490608099
 30
0.0
  0
VERTEX
  5
4B0
  8
IMPORT_-_LOOM2
 10
12.17845881395613
 20
160.8915838497152
 30
0.0
  0
VERTEX
  5
4B1
  8
IMPORT_-_LOOM2
 10
12.08907535940019
 20
161.141985120465
 30
0.0
  0
VERTEX
  5
4B2
  8
IMPORT_-_LOOM2
 10
12.007187312966
 20
161.3946824881438
 30
0.0
  0
VERTEX
  5
4B3
  8
IMPORT_-_LOOM2
 10
11.93288833818709
 20
161.6496055678357
 30
0.0
  0
VERTEX
  5
4B4
  8
IMPORT_-_LOOM2
 10
11.86627209859697
 20
161.9066839746253
 30
0.0
  0
VERTEX
  5
4B5
  8
IMPORT_-_LOOM2
 10
11.80743225772919
 20
162.1658473235968
 30
0.0
  0
VERTEX
  5
4B6
  8
IMPORT_-_LOOM2
 10
11.75646247911726
 20
162.4270252298345
 30
0.0
  0
VERTEX
  5
4B7
  8
IMPORT_-_LOOM2
 10
11.71345642629472
 20
162.6901473084228
 30
0.0
  0
VERTEX
  5
4B8
  8
IMPORT_-_LOOM2
 10
11.62526198185028
 20
162.6901473084228
 30
0.0
  0
VERTEX
  5
4B9
  8
IMPORT_-_LOOM2
 10
11.62526198185028
 20
175.1918861973116
 30
0.0
  0
VERTEX
  5
4BA
  8
IMPORT_-_LOOM2
 10
11.62526198185028
 20
177.7054278639783
 30
0.0
  0
VERTEX
  5
4BB
  8
IMPORT_-_LOOM2
 10
11.62526198185028
 20
180.196744530645
 30
0.0
  0
VERTEX
  5
4BC
  8
IMPORT_-_LOOM2
 10
14.13880364851695
 20
180.196744530645
 30
0.0
  0
VERTEX
  5
4BD
  8
IMPORT_-_LOOM2
 10
14.13880364851695
 20
185.1797306417561
 30
0.0
  0
VERTEX
  5
4BE
  8
IMPORT_-_LOOM2
 10
16.63047309296142
 20
185.1797306417561
 30
0.0
  0
VERTEX
  5
4BF
  8
IMPORT_-_LOOM2
 10
16.63047309296142
 20
180.196744530645
 30
0.0
  0
VERTEX
  5
4C0
  8
IMPORT_-_LOOM2
 10
19.14401475962807
 20
180.196744530645
 30
0.0
  0
VERTEX
  5
4C1
  8
IMPORT_-_LOOM2
 10
19.14401475962807
 20
185.1797306417561
 30
0.0
  0
VERTEX
  5
4C2
  8
IMPORT_-_LOOM2
 10
21.63533142629472
 20
185.1797306417561
 30
0.0
  0
VERTEX
  5
4C3
  8
IMPORT_-_LOOM2
 10
21.63533142629472
 20
180.196744530645
 30
0.0
  0
VERTEX
  5
4C4
  8
IMPORT_-_LOOM2
 10
24.12700087073917
 20
180.196744530645
 30
0.0
  0
VERTEX
  5
4C5
  8
IMPORT_-_LOOM2
 10
24.12700087073917
 20
185.1797306417561
 30
0.0
  0
VERTEX
  5
4C6
  8
IMPORT_-_LOOM2
 10
26.64054253740584
 20
185.1797306417561
 30
0.0
  0
VERTEX
  5
4C7
  8
IMPORT_-_LOOM2
 10
26.64054253740584
 20
180.196744530645
 30
0.0
  0
VERTEX
  5
4C8
  8
IMPORT_-_LOOM2
 10
29.13185920407252
 20
180.196744530645
 30
0.0
  0
VERTEX
  5
4C9
  8
IMPORT_-_LOOM2
 10
29.13185920407252
 20
185.1797306417561
 30
0.0
  0
VERTEX
  5
4CA
  8
IMPORT_-_LOOM2
 10
31.64540087073916
 20
185.1797306417561
 30
0.0
  0
VERTEX
  5
4CB
  8
IMPORT_-_LOOM2
 10
31.64540087073916
 20
180.196744530645
 30
0.0
  0
VERTEX
  5
4CC
  8
IMPORT_-_LOOM2
 10
34.1370703151836
 20
180.196744530645
 30
0.0
  0
VERTEX
  5
4CD
  8
IMPORT_-_LOOM2
 10
34.1370703151836
 20
185.1797306417561
 30
0.0
  0
VERTEX
  5
4CE
  8
IMPORT_-_LOOM2
 10
36.62838698185028
 20
185.1797306417561
 30
0.0
  0
VERTEX
  5
4CF
  8
IMPORT_-_LOOM2
 10
36.62838698185028
 20
180.196744530645
 30
0.0
  0
VERTEX
  5
4D0
  8
IMPORT_-_LOOM2
 10
39.14192864851695
 20
180.196744530645
 30
0.0
  0
VERTEX
  5
4D1
  8
IMPORT_-_LOOM2
 10
39.14192864851695
 20
185.1797306417561
 30
0.0
  0
VERTEX
  5
4D2
  8
IMPORT_-_LOOM2
 10
41.6335980929614
 20
185.1797306417561
 30
0.0
  0
VERTEX
  5
4D3
  8
IMPORT_-_LOOM2
 10
41.6335980929614
 20
180.196744530645
 30
0.0
  0
VERTEX
  5
4D4
  8
IMPORT_-_LOOM2
 10
44.12491475962805
 20
180.196744530645
 30
0.0
  0
VERTEX
  5
4D5
  8
IMPORT_-_LOOM2
 10
44.12491475962805
 20
185.1797306417561
 30
0.0
  0
VERTEX
  5
4D6
  8
IMPORT_-_LOOM2
 10
46.63845642629472
 20
185.1797306417561
 30
0.0
  0
VERTEX
  5
4D7
  8
IMPORT_-_LOOM2
 10
46.63845642629472
 20
180.196744530645
 30
0.0
  0
VERTEX
  5
4D8
  8
IMPORT_-_LOOM2
 10
49.13011661911283
 20
180.196744530645
 30
0.0
  0
VERTEX
  5
4D9
  8
IMPORT_-_LOOM2
 10
49.13011650818113
 20
185.1797306417561
 30
0.0
  0
VERTEX
  5
4DA
  8
IMPORT_-_LOOM2
 10
51.62178595262559
 20
185.1797306417561
 30
0.0
  0
VERTEX
  5
4DB
  8
IMPORT_-_LOOM2
 10
51.62178595262559
 20
180.196744530645
 30
0.0
  0
VERTEX
  5
4DC
  8
IMPORT_-_LOOM2
 10
54.13496256301215
 20
180.1967445306452
 30
0.0
  0
VERTEX
  5
4DD
  8
IMPORT_-_LOOM2
 10
54.13496245208046
 20
185.1797306417561
 30
0.0
  0
VERTEX
  5
4DE
  8
IMPORT_-_LOOM2
 10
56.62663189652491
 20
185.1797306417561
 30
0.0
  0
VERTEX
  5
4DF
  8
IMPORT_-_LOOM2
 10
56.62663189652491
 20
180.196744530645
 30
0.0
  0
VERTEX
  5
4E0
  8
IMPORT_-_LOOM2
 10
59.13916893243061
 20
180.1967445306452
 30
0.0
  0
VERTEX
  5
4E1
  8
IMPORT_-_LOOM2
 10
59.13916882149891
 20
185.1797306417561
 30
0.0
  0
VERTEX
  5
4E2
  8
IMPORT_-_LOOM2
 10
61.63083826594337
 20
185.1797306417561
 30
0.0
  0
VERTEX
  5
4E3
  8
IMPORT_-_LOOM2
 10
61.63083826594337
 20
180.196744530645
 30
0.0
  0
VERTEX
  5
4E4
  8
IMPORT_-_LOOM2
 10
64.14360520394666
 20
180.1967445306452
 30
0.0
  0
VERTEX
  5
4E5
  8
IMPORT_-_LOOM2
 10
64.14360509301497
 20
185.1797306417561
 30
0.0
  0
VERTEX
  5
4E6
  8
IMPORT_-_LOOM2
 10
66.63527453745944
 20
185.1797306417561
 30
0.0
  0
VERTEX
  5
4E7
  8
IMPORT_-_LOOM2
 10
66.63527453745944
 20
180.196744530645
 30
0.0
  0
VERTEX
  5
4E8
  8
IMPORT_-_LOOM2
 10
66.63569659927668
 20
180.1967445306452
 30
0.0
  0
VERTEX
  5
4E9
  8
IMPORT_-_LOOM2
 10
67.89224386063661
 20
180.1967445306451
 30
0.0
  0
VERTEX
  5
4EA
  8
IMPORT_-_LOOM2
 10
69.14846139756612
 20
180.1967445306452
 30
0.0
  0
VERTEX
  5
4EB
  8
IMPORT_-_LOOM2
 10
69.14846139756612
 20
185.1797306417561
 30
0.0
  0
VERTEX
  5
4EC
  8
IMPORT_-_LOOM2
 10
71.64013084201055
 20
185.1797306417561
 30
0.0
  0
VERTEX
  5
4ED
  8
IMPORT_-_LOOM2
 10
71.64013084201055
 20
180.196744530645
 30
0.0
  0
VERTEX
  5
4EE
  8
IMPORT_-_LOOM2
 10
74.13144750867725
 20
180.196744530645
 30
0.0
  0
VERTEX
  5
4EF
  8
IMPORT_-_LOOM2
 10
74.13144750867725
 20
185.1797306417561
 30
0.0
  0
VERTEX
  5
4F0
  8
IMPORT_-_LOOM2
 10
76.6449891753439
 20
185.1797306417561
 30
0.0
  0
VERTEX
  5
4F1
  8
IMPORT_-_LOOM2
 10
76.6449891753439
 20
180.196744530645
 30
0.0
  0
VERTEX
  5
4F2
  8
IMPORT_-_LOOM2
 10
79.13665861978838
 20
180.196744530645
 30
0.0
  0
VERTEX
  5
4F3
  8
IMPORT_-_LOOM2
 10
79.13665861978838
 20
185.1797306417561
 30
0.0
  0
VERTEX
  5
4F4
  8
IMPORT_-_LOOM2
 10
81.62797528645503
 20
185.1797306417561
 30
0.0
  0
VERTEX
  5
4F5
  8
IMPORT_-_LOOM2
 10
81.62797528645503
 20
180.196744530645
 30
0.0
  0
VERTEX
  5
4F6
  8
IMPORT_-_LOOM2
 10
84.14151695312167
 20
180.196744530645
 30
0.0
  0
VERTEX
  5
4F7
  8
IMPORT_-_LOOM2
 10
84.14151695312167
 20
185.1797306417561
 30
0.0
  0
VERTEX
  5
4F8
  8
IMPORT_-_LOOM2
 10
86.63318639756615
 20
185.1797306417561
 30
0.0
  0
VERTEX
  5
4F9
  8
IMPORT_-_LOOM2
 10
86.63318639756615
 20
180.196744530645
 30
0.0
  0
VERTEX
  5
4FA
  8
IMPORT_-_LOOM2
 10
89.14672806423279
 20
180.196744530645
 30
0.0
  0
VERTEX
  5
4FB
  8
IMPORT_-_LOOM2
 10
89.14672806423279
 20
185.1797306417561
 30
0.0
  0
VERTEX
  5
4FC
  8
IMPORT_-_LOOM2
 10
91.63804473089944
 20
185.1797306417561
 30
0.0
  0
VERTEX
  5
4FD
  8
IMPORT_-_LOOM2
 10
91.63804473089944
 20
180.196744530645
 30
0.0
  0
VERTEX
  5
4FE
  8
IMPORT_-_LOOM2
 10
94.12849180260584
 20
180.196744530645
 30
0.0
  0
VERTEX
  5
4FF
  8
IMPORT_-_LOOM2
 10
94.12849180260584
 20
185.1797306417561
 30
0.0
  0
VERTEX
  5
500
  8
IMPORT_-_LOOM2
 10
96.62016124705032
 20
185.1797306417561
 30
0.0
  0
VERTEX
  5
501
  8
IMPORT_-_LOOM2
 10
96.62016124705032
 20
180.196744530645
 30
0.0
  0
VERTEX
  5
502
  8
IMPORT_-_LOOM2
 10
99.13370291371696
 20
180.196744530645
 30
0.0
  0
VERTEX
  5
503
  8
IMPORT_-_LOOM2
 10
99.13370291371696
 20
185.1797306417561
 30
0.0
  0
VERTEX
  5
504
  8
IMPORT_-_LOOM2
 10
101.6250195803836
 20
185.1797306417561
 30
0.0
  0
VERTEX
  5
505
  8
IMPORT_-_LOOM2
 10
101.6250195803836
 20
180.196744530645
 30
0.0
  0
VERTEX
  5
506
  8
IMPORT_-_LOOM2
 10
104.1166890248281
 20
180.196744530645
 30
0.0
  0
VERTEX
  5
507
  8
IMPORT_-_LOOM2
 10
104.1166890248281
 20
185.1797306417561
 30
0.0
  0
VERTEX
  5
508
  8
IMPORT_-_LOOM2
 10
106.6302306914947
 20
185.1797306417561
 30
0.0
  0
VERTEX
  5
509
  8
IMPORT_-_LOOM2
 10
106.6302306914947
 20
180.196744530645
 30
0.0
  0
VERTEX
  5
50A
  8
IMPORT_-_LOOM2
 10
109.1215473581614
 20
180.196744530645
 30
0.0
  0
VERTEX
  5
50B
  8
IMPORT_-_LOOM2
 10
109.1215473581614
 20
185.1797306417561
 30
0.0
  0
VERTEX
  5
50C
  8
IMPORT_-_LOOM2
 10
111.6350890248281
 20
185.1797306417561
 30
0.0
  0
VERTEX
  5
50D
  8
IMPORT_-_LOOM2
 10
111.6350890248281
 20
180.196744530645
 30
0.0
  0
VERTEX
  5
50E
  8
IMPORT_-_LOOM2
 10
114.1267584692725
 20
180.196744530645
 30
0.0
  0
VERTEX
  5
50F
  8
IMPORT_-_LOOM2
 10
114.1267584692725
 20
185.1797306417561
 30
0.0
  0
VERTEX
  5
510
  8
IMPORT_-_LOOM2
 10
116.6180751359392
 20
185.1797306417561
 30
0.0
  0
VERTEX
  5
511
  8
IMPORT_-_LOOM2
 10
116.6180751359392
 20
180.196744530645
 30
0.0
  0
VERTEX
  5
512
  8
IMPORT_-_LOOM2
 10
119.1316168026058
 20
180.196744530645
 30
0.0
  0
VERTEX
  5
513
  8
IMPORT_-_LOOM2
 10
119.1316168026058
 20
185.1797306417561
 30
0.0
  0
VERTEX
  5
514
  8
IMPORT_-_LOOM2
 10
121.6232862470503
 20
185.1797306417561
 30
0.0
  0
VERTEX
  5
515
  8
IMPORT_-_LOOM2
 10
121.6232862470503
 20
180.196744530645
 30
0.0
  0
VERTEX
  5
516
  8
IMPORT_-_LOOM2
 10
124.114602913717
 20
180.196744530645
 30
0.0
  0
VERTEX
  5
517
  8
IMPORT_-_LOOM2
 10
124.114602913717
 20
185.1797306417561
 30
0.0
  0
VERTEX
  5
518
  8
IMPORT_-_LOOM2
 10
126.6281445803836
 20
185.1797306417561
 30
0.0
  0
VERTEX
  5
519
  8
IMPORT_-_LOOM2
 10
126.6281445803836
 20
180.196744530645
 30
0.0
  0
VERTEX
  5
51A
  8
IMPORT_-_LOOM2
 10
129.1198140248281
 20
180.196744530645
 30
0.0
  0
VERTEX
  5
51B
  8
IMPORT_-_LOOM2
 10
129.1198140248281
 20
185.1797306417561
 30
0.0
  0
VERTEX
  5
51C
  8
IMPORT_-_LOOM2
 10
131.6333556914944
 20
185.1797306417561
 30
0.0
  0
VERTEX
  5
51D
  8
IMPORT_-_LOOM2
 10
131.6333556914944
 20
180.196744530645
 30
0.0
  0
VERTEX
  5
51E
  8
IMPORT_-_LOOM2
 10
134.124672358161
 20
180.196744530645
 30
0.0
  0
VERTEX
  5
51F
  8
IMPORT_-_LOOM2
 10
134.124672358161
 20
185.1797306417561
 30
0.0
  0
VERTEX
  5
520
  8
IMPORT_-_LOOM2
 10
136.6163418026054
 20
185.1797306417561
 30
0.0
  0
VERTEX
  5
521
  8
IMPORT_-_LOOM2
 10
136.6163418026054
 20
180.196744530645
 30
0.0
  0
VERTEX
  5
522
  8
IMPORT_-_LOOM2
 10
139.1298834692721
 20
180.196744530645
 30
0.0
  0
VERTEX
  5
523
  8
IMPORT_-_LOOM2
 10
139.1298834692721
 20
185.1797306417561
 30
0.0
  0
VERTEX
  5
524
  8
IMPORT_-_LOOM2
 10
141.6212001359387
 20
185.1797306417561
 30
0.0
  0
VERTEX
  5
525
  8
IMPORT_-_LOOM2
 10
141.6212001359387
 20
180.196744530645
 30
0.0
  0
VERTEX
  5
526
  8
IMPORT_-_LOOM2
 10
144.1347418026054
 20
180.196744530645
 30
0.0
  0
VERTEX
  5
527
  8
IMPORT_-_LOOM2
 10
144.1347418026054
 20
185.1797306417561
 30
0.0
  0
VERTEX
  5
528
  8
IMPORT_-_LOOM2
 10
146.6264112470498
 20
185.1797306417561
 30
0.0
  0
VERTEX
  5
529
  8
IMPORT_-_LOOM2
 10
146.6264112470498
 20
180.196744530645
 30
0.0
  0
VERTEX
  5
52A
  8
IMPORT_-_LOOM2
 10
149.1177279137165
 20
180.196744530645
 30
0.0
  0
VERTEX
  5
52B
  8
IMPORT_-_LOOM2
 10
149.1177279137165
 20
185.1797306417561
 30
0.0
  0
VERTEX
  5
52C
  8
IMPORT_-_LOOM2
 10
151.6312695803832
 20
185.1797306417561
 30
0.0
  0
VERTEX
  5
52D
  8
IMPORT_-_LOOM2
 10
151.6312695803832
 20
180.196744530645
 30
0.0
  0
VERTEX
  5
52E
  8
IMPORT_-_LOOM2
 10
154.1229390248277
 20
180.196744530645
 30
0.0
  0
VERTEX
  5
52F
  8
IMPORT_-_LOOM2
 10
154.1229390248277
 20
185.1797306417561
 30
0.0
  0
VERTEX
  5
530
  8
IMPORT_-_LOOM2
 10
156.6142556914943
 20
185.1797306417561
 30
0.0
  0
VERTEX
  5
531
  8
IMPORT_-_LOOM2
 10
156.6142556914943
 20
180.196744530645
 30
0.0
  0
VERTEX
  5
532
  8
IMPORT_-_LOOM2
 10
159.127797358161
 20
180.196744530645
 30
0.0
  0
VERTEX
  5
533
  8
IMPORT_-_LOOM2
 10
159.127797358161
 20
185.1797306417561
 30
0.0
  0
VERTEX
  5
534
  8
IMPORT_-_LOOM2
 10
161.6194668026054
 20
185.1797306417561
 30
0.0
  0
VERTEX
  5
535
  8
IMPORT_-_LOOM2
 10
161.6194668026054
 20
180.196744530645
 30
0.0
  0
VERTEX
  5
536
  8
IMPORT_-_LOOM2
 10
164.1330084692721
 20
180.196744530645
 30
0.0
  0
VERTEX
  5
537
  8
IMPORT_-_LOOM2
 10
164.1330084692721
 20
185.1797306417561
 30
0.0
  0
VERTEX
  5
538
  8
IMPORT_-_LOOM2
 10
166.6243251359387
 20
185.1797306417561
 30
0.0
  0
SEQEND
  5
54B
  8
IMPORT_-_LOOM2
  0
POLYLINE
  5
76
  8
IMPORT_-_LOOM2
 66
     1
 10
0.0
 20
0.0
 30
0.0
 70
     1
  0
VERTEX
  5
539
  8
IMPORT_-_LOOM2
 10
5.012982487929676
 20
103.4116953142097
 30
0.0
 42
0.4142135623730951
  0
VERTEX
  5
53A
  8
IMPORT_-_LOOM2
 10
2.012982487929677
 20
100.4116953142097
 30
0.0
 42
0.4142135623730951
  0
VERTEX
  5
53B
  8
IMPORT_-_LOOM2
 10
5.012982487929676
 20
97.41169531420968
 30
0.0
 42
0.4142135623730951
  0
VERTEX
  5
53C
  8
IMPORT_-_LOOM2
 10
8.01298248792968
 20
100.4116953142097
 30
0.0
 42
0.4142135623730951
  0
SEQEND
  5
54C
  8
IMPORT_-_LOOM2
  0
POLYLINE
  5
77
  8
IMPORT_-_LOOM2
 66
     1
 10
0.0
 20
0.0
 30
0.0
 70
     1
  0
VERTEX
  5
53D
  8
IMPORT_-_LOOM2
 10
178.0882884216122
 20
103.4116953142097
 30
0.0
 42
0.4142135623730951
  0
VERTEX
  5
53E
  8
IMPORT_-_LOOM2
 10
175.0882884216122
 20
100.4116953142097
 30
0.0
 42
0.4142135623730951
  0
VERTEX
  5
53F
  8
IMPORT_-_LOOM2
 10
178.0882884216122
 20
97.41169531420968
 30
0.0
 42
0.4142135623730951
  0
VERTEX
  5
540
  8
IMPORT_-_LOOM2
 10
181.0882884216122
 20
100.4116953142097
 30
0.0
 42
0.4142135623730951
  0
SEQEND
  5
54D
  8
IMPORT_-_LOOM2
  0
ENDSEC
  0
EOF
