  0
SECTION
  2
HEADER
  9
$ACADVER
  1
AC1018
  9
$ACADMAINTVER
 70
     0
  9
$DWGCODEPAGE
  3
ANSI_1256
  9
$INSBASE
 10
0.0
 20
0.0
 30
0.0
  9
$EXTMIN
 10
0.0
 20
0.0
 30
0.0
  9
$EXTMAX
 10
47.7144
 20
66.9186
 30
0.0
  9
$LIMMIN
 10
0.0
 20
0.0
  9
$LIMMAX
 10
12.0
 20
9.0
  9
$ORTHOMODE
 70
     0
  9
$REGENMODE
 70
     1
  9
$FILLMODE
 70
     1
  9
$QTEXTMODE
 70
     0
  9
$MIRRTEXT
 70
     1
  9
$LTSCALE
 40
1.0
  9
$ATTMODE
 70
     1
  9
$TEXTSIZE
 40
0.2
  9
$TRACEWID
 40
0.05
  9
$TEXTSTYLE
  7
Standard
  9
$CLAYER
  8
0
  9
$CELTYPE
  6
ByBlock
  9
$CECOLOR
 62
   256
  9
$CELTSCALE
 40
1.0
  9
$DISPSILH
 70
     0
  9
$DIMSCALE
 40
1.0
  9
$DIMASZ
 40
0.18
  9
$DIMEXO
 40
0.0625
  9
$DIMDLI
 40
0.38
  9
$DIMRND
 40
0.0
  9
$DIMDLE
 40
0.0
  9
$DIMEXE
 40
0.18
  9
$DIMTP
 40
0.0
  9
$DIMTM
 40
0.0
  9
$DIMTXT
 40
0.18
  9
$DIMCEN
 40
0.09
  9
$DIMTSZ
 40
0.0
  9
$DIMTOL
 70
     0
  9
$DIMLIM
 70
     0
  9
$DIMTIH
 70
     1
  9
$DIMTOH
 70
     1
  9
$DIMSE1
 70
     0
  9
$DIMSE2
 70
     0
  9
$DIMTAD
 70
     0
  9
$DIMZIN
 70
     0
  9
$DIMBLK
  1

  9
$DIMASO
 70
     1
  9
$DIMSHO
 70
     1
  9
$DIMPOST
  1

  9
$DIMAPOST
  1

  9
$DIMALT
 70
     0
  9
$DIMALTD
 70
     2
  9
$DIMALTF
 40
25.4
  9
$DIMLFAC
 40
1.0
  9
$DIMTOFL
 70
     0
  9
$DIMTVP
 40
0.0
  9
$DIMTIX
 70
     0
  9
$DIMSOXD
 70
     0
  9
$DIMSAH
 70
     0
  9
$DIMBLK1
  1

  9
$DIMBLK2
  1

  9
$DIMSTYLE
  2
Standard
  9
$DIMCLRD
 70
     0
  9
$DIMCLRE
 70
     0
  9
$DIMCLRT
 70
     0
  9
$DIMTFAC
 40
1.0
  9
$DIMGAP
 40
0.09
  9
$DIMJUST
 70
     0
  9
$DIMSD1
 70
     0
  9
$DIMSD2
 70
     0
  9
$DIMTOLJ
 70
     1
  9
$DIMTZIN
 70
     0
  9
$DIMALTZ
 70
     0
  9
$DIMALTTZ
 70
     0
  9
$DIMUPT
 70
     0
  9
$DIMDEC
 70
     4
  9
$DIMTDEC
 70
     4
  9
$DIMALTU
 70
     2
  9
$DIMALTTD
 70
     2
  9
$DIMTXSTY
  7
Standard
  9
$DIMAUNIT
 70
     0
  9
$DIMADEC
 70
     0
  9
$DIMALTRND
 40
0.0
  9
$DIMAZIN
 70
     0
  9
$DIMDSEP
 70
    46
  9
$DIMATFIT
 70
     3
  9
$DIMFRAC
 70
     0
  9
$DIMLDRBLK
  1

  9
$DIMLUNIT
 70
     2
  9
$DIMLWD
 70
    -2
  9
$DIMLWE
 70
    -2
  9
$DIMTMOVE
 70
     2
  9
$LUNITS
 70
     2
  9
$LUPREC
 70
     4
  9
$SKETCHINC
 40
0.1
  9
$FILLETRAD
 40
0.5
  9
$AUNITS
 70
     0
  9
$AUPREC
 70
     0
  9
$MENU
  1
.
  9
$ELEVATION
 40
0.0
  9
$PELEVATION
 40
0.0
  9
$THICKNESS
 40
0.0
  9
$LIMCHECK
 70
     0
  9
$CHAMFERA
 40
0.0
  9
$CHAMFERB
 40
0.0
  9
$CHAMFERC
 40
0.0
  9
$CHAMFERD
 40
0.0
  9
$SKPOLY
 70
     0
  9
$TDCREATE
 40
2457950.870669109
  9
$TDUCREATE
 40
2457950.745669109
  9
$TDUPDATE
 40
2457950.870669965
  9
$TDUUPDATE
 40
2457950.745669965
  9
$TDINDWG
 40
0.0000000116
  9
$TDUSRTIMER
 40
0.0000000116
  9
$USRTIMER
 70
     1
  9
$ANGBASE
 50
0.0
  9
$ANGDIR
 70
     0
  9
$PDMODE
 70
     0
  9
$PDSIZE
 40
0.0
  9
$PLINEWID
 40
0.0
  9
$SPLFRAME
 70
     0
  9
$SPLINETYPE
 70
     6
  9
$SPLINESEGS
 70
     8
  9
$HANDSEED
  5
D38
  9
$SURFTAB1
 70
     6
  9
$SURFTAB2
 70
     6
  9
$SURFTYPE
 70
     6
  9
$SURFU
 70
     6
  9
$SURFV
 70
     6
  9
$UCSBASE
  2

  9
$UCSNAME
  2

  9
$UCSORG
 10
0.0
 20
0.0
 30
0.0
  9
$UCSXDIR
 10
1.0
 20
0.0
 30
0.0
  9
$UCSYDIR
 10
0.0
 20
1.0
 30
0.0
  9
$UCSORTHOREF
  2

  9
$UCSORTHOVIEW
 70
     0
  9
$UCSORGTOP
 10
0.0
 20
0.0
 30
0.0
  9
$UCSORGBOTTOM
 10
0.0
 20
0.0
 30
0.0
  9
$UCSORGLEFT
 10
0.0
 20
0.0
 30
0.0
  9
$UCSORGRIGHT
 10
0.0
 20
0.0
 30
0.0
  9
$UCSORGFRONT
 10
0.0
 20
0.0
 30
0.0
  9
$UCSORGBACK
 10
0.0
 20
0.0
 30
0.0
  9
$PUCSBASE
  2

  9
$PUCSNAME
  2

  9
$PUCSORG
 10
0.0
 20
0.0
 30
0.0
  9
$PUCSXDIR
 10
1.0
 20
0.0
 30
0.0
  9
$PUCSYDIR
 10
0.0
 20
1.0
 30
0.0
  9
$PUCSORTHOREF
  2

  9
$PUCSORTHOVIEW
 70
     0
  9
$PUCSORGTOP
 10
0.0
 20
0.0
 30
0.0
  9
$PUCSORGBOTTOM
 10
0.0
 20
0.0
 30
0.0
  9
$PUCSORGLEFT
 10
0.0
 20
0.0
 30
0.0
  9
$PUCSORGRIGHT
 10
0.0
 20
0.0
 30
0.0
  9
$PUCSORGFRONT
 10
0.0
 20
0.0
 30
0.0
  9
$PUCSORGBACK
 10
0.0
 20
0.0
 30
0.0
  9
$USERI1
 70
     0
  9
$USERI2
 70
     0
  9
$USERI3
 70
     0
  9
$USERI4
 70
     0
  9
$USERI5
 70
     0
  9
$USERR1
 40
0.0
  9
$USERR2
 40
0.0
  9
$USERR3
 40
0.0
  9
$USERR4
 40
0.0
  9
$USERR5
 40
0.0
  9
$WORLDVIEW
 70
     1
  9
$SHADEDGE
 70
     3
  9
$SHADEDIF
 70
    70
  9
$TILEMODE
 70
     1
  9
$MAXACTVP
 70
    64
  9
$PINSBASE
 10
0.0
 20
0.0
 30
0.0
  9
$PLIMCHECK
 70
     0
  9
$PEXTMIN
 10
1.000000000000000E+20
 20
1.000000000000000E+20
 30
1.000000000000000E+20
  9
$PEXTMAX
 10
-1.000000000000000E+20
 20
-1.000000000000000E+20
 30
-1.000000000000000E+20
  9
$PLIMMIN
 10
0.0
 20
0.0
  9
$PLIMMAX
 10
12.0
 20
9.0
  9
$UNITMODE
 70
     0
  9
$VISRETAIN
 70
     1
  9
$PLINEGEN
 70
     0
  9
$PSLTSCALE
 70
     1
  9
$TREEDEPTH
 70
  3020
  9
$CMLSTYLE
  2
Standard
  9
$CMLJUST
 70
     0
  9
$CMLSCALE
 40
1.0
  9
$PROXYGRAPHICS
 70
     1
  9
$MEASUREMENT
 70
     0
  9
$CELWEIGHT
370
    -1
  9
$ENDCAPS
280
     0
  9
$JOINSTYLE
280
     0
  9
$LWDISPLAY
290
     0
  9
$INSUNITS
 70
     0
  9
$HYPERLINKBASE
  1

  9
$STYLESHEET
  1

  9
$XEDIT
290
     1
  9
$CEPSNTYPE
380
     0
  9
$PSTYLEMODE
290
     1
  9
$FINGERPRINTGUID
  2
{E7B0EB32-31A2-42EA-B286-7C71268C5797}
  9
$VERSIONGUID
  2
{FAEB1C32-E019-11D5-929B-00C0DF256EC4}
  9
$EXTNAMES
290
     1
  9
$PSVPSCALE
 40
0.0
  9
$OLESTARTUP
290
     0
  9
$SORTENTS
280
   127
  9
$INDEXCTL
280
     0
  9
$HIDETEXT
280
     1
  9
$XCLIPFRAME
290
     0
  9
$HALOGAP
280
     0
  9
$OBSCOLOR
 70
   257
  9
$OBSLTYPE
280
     0
  9
$INTERSECTIONDISPLAY
280
     0
  9
$INTERSECTIONCOLOR
 70
   257
  9
$DIMASSOC
280
     2
  9
$PROJECTNAME
  1

  0
ENDSEC
  0
SECTION
  2
CLASSES
  0
CLASS
  1
ACDBDICTIONARYWDFLT
  2
AcDbDictionaryWithDefault
  3
ObjectDBX Classes
 90
        0
 91
        4
280
     0
281
     0
  0
CLASS
  1
SCALE
  2
AcDbScale
  3
ObjectDBX Classes
 90
     1153
 91
        4
280
     0
281
     0
  0
CLASS
  1
VISUALSTYLE
  2
AcDbVisualStyle
  3
ObjectDBX Classes
 90
     4095
 91
        4
280
     0
281
     0
  0
CLASS
  1
MATERIAL
  2
AcDbMaterial
  3
ObjectDBX Classes
 90
     1153
 91
        4
280
     0
281
     0
  0
CLASS
  1
TABLESTYLE
  2
AcDbTableStyle
  3
ObjectDBX Classes
 90
     4095
 91
        4
280
     0
281
     0
  0
CLASS
  1
MLEADERSTYLE
  2
AcDbMLeaderStyle
  3
ACDB_MLEADERSTYLE_CLASS
 90
     4095
 91
        4
280
     0
281
     0
  0
CLASS
  1
DICTIONARYVAR
  2
AcDbDictionaryVar
  3
ObjectDBX Classes
 90
        0
 91
        4
280
     0
281
     0
  0
CLASS
  1
CELLSTYLEMAP
  2
AcDbCellStyleMap
  3
ObjectDBX Classes
 90
     1152
 91
        4
280
     0
281
     0
  0
ENDSEC
  0
SECTION
  2
TABLES
  0
TABLE
  2
VPORT
  5
8
102
{ACAD_XDICTIONARY
360
CF1
102
}
330
0
100
AcDbSymbolTable
 70
     1
  0
VPORT
  5
21
330
8
100
AcDbSymbolTableRecord
100
AcDbViewportTableRecord
  2
*Active
 70
     0
 10
0.0
 20
0.0
 11
1.0
 21
1.0
 12
10.42990654205607
 22
4.5
 13
0.0
 23
0.0
 14
0.5
 24
0.5
 15
0.5
 25
0.5
 16
0.0
 26
0.0
 36
1.0
 17
0.0
 27
0.0
 37
0.0
 40
9.0
 41
1.972972972850329
 42
50.0
 43
0.0
 44
0.0
 50
0.0
 51
0.0
 71
     0
 72
   100
 73
     1
 74
     3
 75
     0
 76
     0
 77
     0
 78
     0
281
     0
 65
     1
110
0.0
120
0.0
130
0.0
111
1.0
121
0.0
131
0.0
112
0.0
122
1.0
132
0.0
 79
     0
146
0.0
  0
ENDTAB
  0
TABLE
  2
LTYPE
  5
5
330
0
100
AcDbSymbolTable
 70
     1
  0
LTYPE
  5
14
330
5
100
AcDbSymbolTableRecord
100
AcDbLinetypeTableRecord
  2
ByBlock
 70
     0
  3

 72
    65
 73
     0
 40
0.0
  0
LTYPE
  5
15
330
5
100
AcDbSymbolTableRecord
100
AcDbLinetypeTableRecord
  2
ByLayer
 70
     0
  3

 72
    65
 73
     0
 40
0.0
  0
LTYPE
  5
16
330
5
100
AcDbSymbolTableRecord
100
AcDbLinetypeTableRecord
  2
Continuous
 70
     0
  3
Solid line
 72
    65
 73
     0
 40
0.0
  0
ENDTAB
  0
TABLE
  2
LAYER
  5
2
330
0
100
AcDbSymbolTable
 70
     1
  0
LAYER
  5
10
330
2
100
AcDbSymbolTableRecord
100
AcDbLayerTableRecord
  2
0
 70
     0
 62
     7
  6
Continuous
370
    -3
390
F
  0
ENDTAB
  0
TABLE
  2
STYLE
  5
3
330
0
100
AcDbSymbolTable
 70
     1
  0
STYLE
  5
11
330
3
100
AcDbSymbolTableRecord
100
AcDbTextStyleTableRecord
  2
Standard
 70
     0
 40
0.0
 41
1.0
 50
0.0
 71
     0
 42
0.2
  3
txt
  4

  0
ENDTAB
  0
TABLE
  2
VIEW
  5
6
330
0
100
AcDbSymbolTable
 70
     0
  0
ENDTAB
  0
TABLE
  2
UCS
  5
7
330
0
100
AcDbSymbolTable
 70
     0
  0
ENDTAB
  0
TABLE
  2
APPID
  5
9
330
0
100
AcDbSymbolTable
 70
     2
  0
APPID
  5
12
330
9
100
AcDbSymbolTableRecord
100
AcDbRegAppTableRecord
  2
ACAD
 70
     0
  0
APPID
  5
D2F
330
9
100
AcDbSymbolTableRecord
100
AcDbRegAppTableRecord
  2
ACAD_MLEADERVER
 70
     0
  0
ENDTAB
  0
TABLE
  2
DIMSTYLE
  5
A
330
0
100
AcDbSymbolTable
 70
     1
100
AcDbDimStyleTable
  0
DIMSTYLE
105
20
330
A
100
AcDbSymbolTableRecord
100
AcDbDimStyleTableRecord
  2
Standard
 70
     0
178
     0
340
11
  0
ENDTAB
  0
TABLE
  2
BLOCK_RECORD
  5
1
330
0
100
AcDbSymbolTable
 70
     0
  0
BLOCK_RECORD
  5
1D
330
1
100
AcDbSymbolTableRecord
100
AcDbBlockTableRecord
  2
*Model_Space
340
1E
  0
BLOCK_RECORD
  5
1B
330
1
100
AcDbSymbolTableRecord
100
AcDbBlockTableRecord
  2
*Paper_Space
340
1C
  0
ENDTAB
  0
ENDSEC
  0
SECTION
  2
BLOCKS
  0
BLOCK
  5
CCC
330
1D
100
AcDbEntity
  8
0
100
AcDbBlockBegin
  2
*Model_Space
 70
     0
 10
0.0
 20
0.0
 30
0.0
  3
*Model_Space
  1

  0
ENDBLK
  5
CCD
330
1D
100
AcDbEntity
  8
0
100
AcDbBlockEnd
  0
BLOCK
  5
CCE
330
1B
100
AcDbEntity
 67
     1
  8
0
100
AcDbBlockBegin
  2
*Paper_Space
 70
     0
 10
0.0
 20
0.0
 30
0.0
  3
*Paper_Space
  1

  0
ENDBLK
  5
CCF
330
1B
100
AcDbEntity
 67
     1
  8
0
100
AcDbBlockEnd
  0
ENDSEC
  0
SECTION
  2
ENTITIES
  0
LWPOLYLINE
  5
22
330
1D
100
AcDbEntity
  8
0
100
AcDbPolyline
 90
      190
 70
     1
 43
0.0
 10
12.22047
 20
58.542374
 42
0.085093
 10
12.16973
 20
58.533137
 42
0.006521
 10
12.039452
 20
58.483672
 42
0.008801
 10
11.884976
 20
58.419537
 42
0.006594
 10
11.7171
 20
58.343698
 42
0.024505
 10
11.534289
 20
58.247009
 42
0.016308
 10
11.334424
 20
58.119434
 42
0.016435
 10
11.148153
 20
57.982592
 42
0.030636
 10
11.008374
 20
57.858075
 42
0.031866
 10
10.883119
 20
57.71472
 42
0.01572
 10
10.741904
 20
57.518152
 42
0.015531
 10
10.607624
 20
57.304195
 42
0.021865
 10
10.502476
 20
57.105
 42
0.023047
 10
10.396582
 20
56.851632
 42
0.033975
 10
10.329539
 20
56.620115
 42
0.032885
 10
10.293106
 20
56.376077
 42
0.01985
 10
10.280602
 20
56.083818
 42
0.019415
 10
10.291613
 20
55.776075
 42
0.040346
 10
10.328726
 20
55.538925
 42
0.040165
 10
10.40357
 20
55.310146
 42
0.019073
 10
10.534203
 20
55.028732
 42
0.025281
 10
10.671722
 20
54.790374
 42
0.0285
 10
10.827656
 20
54.576878
 42
0.029242
 10
11.002905
 20
54.387352
 42
0.02972
 10
11.198167
 20
54.220661
 42
0.018736
 10
11.378983
 20
54.094357
 42
0.014543
 10
11.584493
 20
53.970277
 42
0.014777
 10
11.78319
 20
53.865683
 42
0.034068
 10
11.939455
 20
53.802018
 42
-0.018603
 10
12.086281
 20
53.747425
 42
-0.070837
 10
12.170199
 20
53.697735
 42
-0.175798
 10
12.198751
 20
53.650819
 42
-0.251102
 10
12.184941
 20
53.605101
 42
0.081408
 10
12.151494
 20
53.558541
 42
0.037627
 10
12.123398
 20
53.489258
 42
0.035981
 10
12.104227
 20
53.410276
 42
0.041571
 10
12.0978
 20
53.33311
 42
-0.093369
 10
12.082211
 20
53.250355
 42
-0.053886
 10
12.035252
 20
53.16017
 42
-0.05007
 10
11.964889
 20
53.074532
 42
-0.050771
 10
11.879211
 20
53.005035
 42
0.058698
 10
11.784007
 20
52.925283
 42
0.02604
 10
11.677758
 20
52.800202
 42
0.025339
 10
11.577764
 20
52.654488
 42
0.03115
 10
11.500369
 20
52.508855
 42
0.045787
 10
11.418409
 20
52.273186
 42
0.034087
 10
11.370427
 20
52.00186
 42
0.021087
 10
11.345792
 20
51.621742
 42
0.005236
 10
11.338258
 20
50.997978
 10
11.3364
 20
49.840056
 10
11.01915
 20
49.540129
 10
10.7019
 20
49.240203
 10
11.229474
 20
48.711973
 10
11.757048
 20
48.183744
 10
12.183738
 20
48.604018
 42
0.007465
 10
12.421664
 20
48.84547
 42
0.062581
 10
12.512704
 20
48.968228
 42
0.191177
 10
12.52398
 20
49.051041
 42
0.176023
 10
12.475952
 20
49.122625
 42
-0.042624
 10
12.423468
 20
49.168339
 42
-0.121951
 10
12.399334
 20
49.209878
 42
-0.193497
 10
12.40291
 20
49.246015
 42
-0.134886
 10
12.431137
 20
49.276371
 42
0.23378
 10
12.471415
 20
49.340914
 42
0.007762
 10
12.497234
 20
49.65099
 42
0.011754
 10
12.515231
 20
50.05935
 42
0.005134
 10
12.5208
 20
50.601677
 42
-0.001842
 10
12.523921
 20
51.449052
 42
-0.036168
 10
12.54467
 20
51.708933
 42
-0.181137
 10
12.60317
 20
51.813427
 42
-0.21396
 10
12.71115
 20
51.844534
 42
-0.19389
 10
12.820754
 20
51.78118
 42
-0.127621
 10
12.87953
 20
51.64587
 42
-0.032596
 10
12.906088
 20
51.354029
 42
-0.002024
 10
12.924796
 20
50.485429
 10
12.948093
 20
49.153357
 10
12.311446
 20
48.545916
 42
0.007304
 10
12.067488
 20
48.306245
 42
0.01088
 10
11.861815
 20
48.088936
 42
0.006178
 10
11.696648
 20
47.90205
 42
0.179757
 10
11.6748
 20
47.843242
 42
0.162084
 10
11.693071
 20
47.788361
 42
0.013114
 10
11.788605
 20
47.667521
 42
0.016591
 10
11.913819
 20
47.527148
 42
0.011967
 10
12.06222
 20
47.378774
 10
12.449641
 20
47.009539
 10
13.546729
 20
48.106627
 10
14.643818
 20
49.203716
 10
14.386009
 20
49.473488
 10
14.1282
 20
49.74326
 10
14.127728
 20
50.86498
 42
0.00755
 10
14.120678
 20
51.319246
 42
0.008434
 10
14.099894
 20
51.7566
 42
0.007874
 10
14.070076
 20
52.128073
 42
0.043541
 10
14.033638
 20
52.3251
 42
0.047299
 10
13.9719
 20
52.486943
 42
0.032142
 10
13.873318
 20
52.657843
 42
0.030304
 10
13.745819
 20
52.826233
 42
0.028933
 10
13.597033
 20
52.98075
 42
-0.007414
 10
13.46925
 20
53.10251
 42
-0.014096
 10
13.370744
 20
53.204808
 42
-0.011681
 10
13.301832
 20
53.284183
 42
-0.634777
 10
13.30833
 20
53.298
 42
0.380137
 10
13.323941
 20
53.311873
 42
0.057302
 10
13.324088
 20
53.357385
 42
0.040824
 10
13.311352
 20
53.422614
 42
0.022226
 10
13.28575
 20
53.500162
 42
-0.060947
 10
13.256592
 20
53.618502
 42
-0.208997
 10
13.278894
 20
53.692632
 42
-0.113037
 10
13.361132
 20
53.754039
 42
-0.012865
 10
13.576946
 20
53.842887
 42
0.032923
 10
13.744246
 20
53.919742
 42
0.016583
 10
13.944795
 20
54.037143
 42
0.016393
 10
14.144838
 20
54.172701
 42
0.023365
 10
14.31235
 20
54.3068
 42
0.027789
 10
14.46747
 20
54.459443
 42
0.018032
 10
14.629962
 20
54.651648
 42
0.018138
 10
14.77548
 20
54.851442
 42
0.03252
 10
14.877734
 20
55.026682
 42
0.031439
 10
14.956858
 20
55.213658
 42
0.017502
 10
15.030581
 20
55.449914
 42
0.017402
 10
15.088686
 20
55.695125
 42
0.026866
 10
15.119969
 20
55.910638
 42
0.023456
 10
15.130387
 20
56.149824
 42
0.022904
 10
15.118524
 20
56.390854
 42
0.023031
 10
15.084795
 20
56.62843
 42
0.024402
 10
15.02979
 20
56.857282
 42
0.028973
 10
14.958509
 20
57.057133
 42
0.019039
 10
14.854742
 20
57.278348
 42
0.01917
 10
14.736848
 20
57.486656
 42
0.034634
 10
14.622583
 20
57.645839
 42
0.025618
 10
14.490623
 20
57.789474
 42
0.014677
 10
14.317937
 20
57.949437
 42
0.014635
 10
14.134405
 20
58.100464
 42
0.02353
 10
13.968613
 20
58.216889
 42
0.017772
 10
13.810566
 20
58.309413
 42
0.019415
 10
13.650868
 20
58.387597
 42
0.019265
 10
13.509894
 20
58.443564
 42
0.085053
 10
13.422144
 20
58.4586
 42
0.187017
 10
13.374132
 20
58.439991
 42
0.381925
 10
13.37034
 20
58.402808
 42
0.069604
 10
13.43926
 20
58.331307
 42
0.009469
 10
13.605609
 20
58.205934
 42
-0.034494
 10
13.752433
 20
58.083297
 42
-0.022294
 10
13.9053
 20
57.922906
 42
-0.022411
 10
14.041318
 20
57.751919
 42
-0.038875
 10
14.136036
 20
57.597241
 42
-0.028024
 10
14.224938
 20
57.395847
 42
-0.049311
 10
14.271872
 20
57.220221
 42
-0.04571
 10
14.285453
 20
57.029883
 42
-0.020684
 10
14.270077
 20
56.780113
 42
-0.02517
 10
14.23442
 20
56.549148
 42
-0.039784
 10
14.178488
 20
56.356831
 42
-0.042938
 10
14.096613
 20
56.186631
 42
-0.036573
 10
13.982874
 20
56.022961
 42
-0.027773
 10
13.869818
 20
55.898134
 42
-0.018549
 10
13.727678
 20
55.76777
 42
-0.018702
 10
13.579983
 20
55.651305
 42
-0.034526
 10
13.4506
 20
55.569956
 42
-0.042694
 10
13.306405
 20
55.507809
 42
-0.0252
 10
13.125623
 20
55.457541
 42
-0.024593
 10
12.932852
 20
55.424125
 42
-0.030626
 10
12.7514
 20
55.413
 42
-0.031651
 10
12.564404
 20
55.424849
 42
-0.024988
 10
12.36475
 20
55.460464
 42
-0.025284
 10
12.172965
 20
55.515001
 42
-0.03605
 10
12.009924
 20
55.583871
 42
-0.041981
 10
11.865539
 20
55.673522
 42
-0.024546
 10
11.708219
 20
55.803008
 42
-0.024422
 10
11.562475
 20
55.949094
 42
-0.037715
 10
11.453177
 20
56.089923
 42
-0.034951
 10
11.365102
 20
56.245646
 42
-0.022333
 10
11.284058
 20
56.437229
 42
-0.022426
 10
11.221164
 20
56.633104
 42
-0.038421
 10
11.188933
 20
56.801561
 42
-0.031698
 10
11.179151
 20
57.001571
 42
-0.043461
 10
11.197377
 20
57.18074
 42
-0.041109
 10
11.247469
 20
57.361447
 42
-0.024568
 10
11.334711
 20
57.56681
 42
-0.034285
 10
11.429253
 20
57.732168
 42
-0.022997
 10
11.558282
 20
57.907687
 42
-0.023199
 10
11.699668
 20
58.06686
 42
-0.041692
 10
11.83151
 20
58.181283
 42
0.001794
 10
11.95555
 20
58.272682
 42
0.002073
 10
12.07306
 20
58.36068
 42
0.001852
 10
12.172003
 20
58.435994
 42
0.012187
 10
12.22047
 20
58.475083
 42
0.033722
 10
12.250575
 20
58.504303
 42
0.185301
 10
12.25854
 20
58.525057
 42
0.327942
 10
12.248896
 20
58.53818
 42
0.07854
  0
LWPOLYLINE
  5
E2
330
1D
100
AcDbEntity
  8
0
100
AcDbPolyline
 90
       26
 70
     1
 43
0.0
 10
15.951714
 20
47.901686
 10
14.965667
 20
48.874114
 10
14.737284
 20
48.649634
 42
0.004298
 10
14.629581
 20
48.541937
 42
0.002028
 10
14.492313
 20
48.401159
 42
0.002009
 10
14.349786
 20
48.252605
 42
0.002834
 10
14.224051
 20
48.118987
 10
13.939203
 20
47.812819
 10
14.349201
 20
47.430951
 42
0.011917
 10
14.555309
 20
47.247959
 42
0.047733
 10
14.693725
 20
47.151869
 42
0.093426
 10
14.793304
 20
47.118302
 42
0.210932
 10
14.868286
 20
47.139617
 42
-0.098091
 10
14.929067
 20
47.172599
 42
-0.132455
 10
14.991282
 20
47.174978
 42
-0.094698
 10
15.061485
 20
47.144133
 42
-0.033201
 10
15.14827
 20
47.075493
 42
-0.132299
 10
15.22136
 20
46.962003
 42
-0.218443
 10
15.207839
 20
46.850844
 42
-0.054865
 10
15.079079
 20
46.685207
 42
-0.003096
 10
14.623061
 20
46.221094
 10
13.926955
 20
45.521354
 10
14.324836
 20
45.117785
 10
14.722718
 20
44.714216
 10
15.830239
 20
45.821737
 10
16.937761
 20
46.929259
  0
LWPOLYLINE
  5
FE
330
1D
100
AcDbEntity
  8
0
100
AcDbPolyline
 90
       40
 70
     1
 43
0.0
 10
10.38308
 20
48.793835
 42
0.23291
 10
10.315505
 20
48.776569
 42
0.004541
 10
10.037689
 20
48.53443
 42
0.009908
 10
9.715769
 20
48.237053
 42
0.006359
 10
9.353577
 20
47.879953
 10
8.428254
 20
46.944138
 10
8.951594
 20
46.420798
 10
9.474933
 20
45.897459
 10
9.870515
 20
46.293041
 42
0.010611
 10
10.072656
 20
46.503949
 42
0.055173
 10
10.167836
 20
46.633748
 42
0.123408
 10
10.194568
 20
46.727803
 42
0.183019
 10
10.167047
 20
46.80797
 42
-0.077798
 10
10.127185
 20
46.874857
 42
-0.161812
 10
10.123507
 20
46.934767
 42
-0.114723
 10
10.157573
 20
46.998947
 42
-0.029712
 10
10.240086
 20
47.083055
 42
-0.119364
 10
10.362012
 20
47.149341
 42
-0.202658
 10
10.475189
 20
47.133444
 42
-0.057268
 10
10.636166
 20
47.010086
 42
-0.003548
 10
11.066509
 20
46.588297
 42
0.003438
 10
11.3208
 20
46.33895
 42
0.005422
 10
11.542767
 20
46.128883
 42
0.001658
 10
11.73701
 20
45.950199
 42
0.18724
 10
11.768959
 20
45.9378
 42
0.174641
 10
11.799363
 20
45.948754
 42
0.005005
 10
11.9063
 20
46.039118
 42
0.009576
 10
12.030613
 20
46.150538
 42
0.006378
 10
12.168937
 20
46.282712
 42
0.008533
 10
12.303752
 20
46.419453
 42
0.012431
 10
12.41744
 20
46.544871
 42
0.007976
 10
12.50723
 20
46.652436
 42
0.171559
 10
12.5208
 20
46.690822
 42
0.190767
 10
12.504072
 20
46.733069
 42
0.001223
 10
12.222124
 20
47.031831
 42
0.004662
 10
11.893797
 20
47.371635
 42
0.00293
 10
11.50403
 20
47.76296
 42
0.003767
 10
11.106824
 20
48.151213
 42
0.005726
 10
10.755334
 20
48.481967
 42
0.002359
 10
10.450859
 20
48.759335
 42
0.132419
  0
LWPOLYLINE
  5
128
330
1D
100
AcDbEntity
  8
0
100
AcDbPolyline
 90
       24
 70
     1
 43
0.0
 10
13.814419
 20
47.73501
 10
13.570169
 20
47.96712
 10
13.214684
 20
47.604908
 42
0.010732
 10
13.078509
 20
47.460064
 42
0.015008
 10
12.963624
 20
47.324518
 42
0.011295
 10
12.875207
 20
47.208328
 42
0.158275
 10
12.8592
 20
47.159029
 42
0.177187
 10
12.878394
 20
47.106567
 42
0.00533
 10
13.03297
 20
46.927501
 42
0.009966
 10
13.22407
 20
46.719351
 42
0.006649
 10
13.450758
 20
46.488337
 10
14.042316
 20
45.901312
 10
14.423658
 20
46.27557
 42
0.008184
 10
14.569772
 20
46.423742
 42
0.011986
 10
14.692981
 20
46.559204
 42
0.007468
 10
14.790698
 20
46.675416
 42
0.172744
 10
14.805
 20
46.715576
 42
0.173513
 10
14.79072
 20
46.755486
 42
0.007888
 10
14.695383
 20
46.867992
 42
0.012391
 10
14.574813
 20
46.999102
 42
0.008485
 10
14.431834
 20
47.142112
 42
0.000475
 10
14.271078
 20
47.297241
 42
0.000373
 10
14.096538
 20
47.465101
 42
0.000377
 10
13.934019
 20
47.620931
 42
0.000929
  0
LWPOLYLINE
  5
142
330
1D
100
AcDbEntity
  8
0
100
AcDbPolyline
 90
       30
 70
     1
 43
0.0
 10
10.663048
 20
46.7838
 42
0.189313
 10
10.631628
 20
46.771461
 42
0.00058
 10
10.30936
 20
46.471506
 42
0.003171
 10
9.946068
 20
46.128246
 42
0.001964
 10
9.52349
 20
45.720673
 10
8.429854
 20
44.657546
 10
9.417629
 20
43.669771
 10
10.405404
 20
42.681996
 10
10.932149
 20
43.208741
 10
11.458893
 20
43.735485
 10
11.083932
 20
44.117543
 42
0.01265
 10
10.932859
 20
44.26388
 42
0.017265
 10
10.789084
 20
44.387371
 42
0.014144
 10
10.665229
 20
44.480909
 42
0.155883
 10
10.606736
 20
44.4996
 42
0.087802
 10
10.565212
 20
44.492252
 42
0.06964
 10
10.524932
 20
44.4708
 42
0.069421
 10
10.491972
 20
44.439028
 42
0.086058
 10
10.471819
 20
44.401556
 42
-0.212961
 10
10.444341
 20
44.371548
 42
-0.17246
 10
10.400364
 20
44.368545
 42
-0.082931
 10
10.336727
 20
44.398415
 42
-0.025943
 10
10.252956
 20
44.462925
 10
10.066775
 20
44.622338
 10
10.76233
 20
45.321525
 10
11.457885
 20
46.020712
 10
11.083428
 20
46.402256
 42
0.005724
 10
10.936598
 20
46.548479
 42
0.008717
 10
10.805478
 20
46.671721
 42
0.004117
 10
10.692254
 20
46.772798
 42
0.182109
  0
LWPOLYLINE
  5
162
330
1D
100
AcDbEntity
  8
0
100
AcDbPolyline
 90
       20
 70
     1
 43
0.0
 10
12.938616
 20
46.7838
 42
0.182411
 10
12.902802
 20
46.770285
 42
0.002423
 10
12.722476
 20
46.610023
 42
0.006557
 10
12.515119
 20
46.418964
 42
0.004215
 10
12.27943
 20
46.192219
 42
0.005019
 10
12.047662
 20
45.960854
 42
0.007722
 10
11.852265
 20
45.755594
 42
0.003281
 10
11.690279
 20
45.577756
 42
0.183134
 10
11.674306
 20
45.536569
 42
0.186083
 10
11.688882
 20
45.497873
 42
0.007529
 10
11.791962
 20
45.385719
 42
0.012307
 10
11.921637
 20
45.255403
 42
0.008316
 10
12.07553
 20
45.113006
 10
12.477248
 20
44.753513
 10
13.110252
 20
45.386516
 10
13.743255
 20
46.01952
 10
13.368213
 20
46.40166
 42
0.006784
 10
13.220542
 20
46.548097
 42
0.010159
 10
13.087314
 20
46.671546
 42
0.005499
 10
12.972703
 20
46.771261
 42
0.178099
  0
LWPOLYLINE
  5
178
330
1D
100
AcDbEntity
  8
0
100
AcDbPolyline
 90
      598
 70
     1
 43
0.0
 10
29.051461
 20
46.358127
 42
0.107313
 10
28.999005
 20
46.348302
 42
0.016359
 10
28.901761
 20
46.303508
 42
0.017669
 10
28.788898
 20
46.241893
 42
0.014487
 10
28.672774
 20
46.168437
 42
0.030018
 10
28.54948
 20
46.074121
 42
0.018094
 10
28.41467
 20
45.94873
 42
0.018094
 10
28.289279
 20
45.81392
 42
0.030018
 10
28.194963
 20
45.690626
 42
0.0392
 10
28.106197
 20
45.533646
 42
0.043941
 10
28.046936
 20
45.370512
 42
0.040135
 10
28.013528
 20
45.187334
 42
0.025047
 10
28.0026
 20
44.969323
 42
0.026486
 10
28.0147
 20
44.74107
 42
0.043886
 10
28.051787
 20
44.55194
 42
0.044723
 10
28.120691
 20
44.374678
 42
0.028792
 10
28.229872
 20
44.182962
 42
0.034148
 10
28.338929
 20
44.037562
 42
0.024548
 10
28.478943
 20
43.890509
 42
0.024935
 10
28.626752
 20
43.763214
 42
0.047987
 10
28.758622
 20
43.679578
 42
0.000193
 10
28.8761
 20
43.620063
 42
0.000283
 10
28.979476
 20
43.567815
 42
0.000132
 10
29.067596
 20
43.52337
 42
0.005245
 10
29.087112
 20
43.513788
 42
-0.38035
 10
29.092662
 20
43.500586
 42
-0.020136
 10
29.074788
 20
43.454388
 42
-0.023344
 10
29.046272
 20
43.396267
 42
-0.013863
 10
29.007226
 20
43.329707
 42
0.048563
 10
28.959925
 20
43.234522
 42
0.086317
 10
28.943272
 20
43.148828
 42
0.078155
 10
28.95589
 20
43.056802
 42
0.033831
 10
28.999551
 20
42.940768
 42
-0.027782
 10
29.032145
 20
42.857222
 42
-0.053353
 10
29.047106
 20
42.786969
 42
-0.088004
 10
29.043688
 20
42.739798
 42
-0.343335
 10
29.022108
 20
42.723
 42
0.0291
 10
28.968568
 20
42.719881
 42
0.001149
 10
28.773568
 20
42.696632
 42
0.00203
 10
28.542777
 20
42.667626
 42
0.001433
 10
28.283672
 20
42.633237
 42
0.008178
 10
27.980505
 20
42.587054
 42
0.004587
 10
27.613593
 20
42.521536
 42
0.004576
 10
27.244065
 20
42.448539
 42
0.007441
 10
26.931849
 20
42.379028
 42
0.01252
 10
26.62346
 20
42.297326
 42
0.007784
 10
26.265826
 20
42.186856
 42
0.007808
 10
25.916176
 20
42.06679
 42
0.013985
 10
25.633545
 20
41.955749
 42
0.006112
 10
25.365786
 20
41.837921
 42
0.004139
 10
25.063467
 20
41.697418
 42
0.00417
 10
24.773591
 20
41.556794
 42
0.008311
 10
24.546996
 20
41.439794
 42
0.0137
 10
24.317112
 20
41.307973
 42
0.005682
 10
24.013517
 20
41.117883
 42
0.005616
 10
23.692606
 20
40.90671
 42
0.007215
 10
23.402547
 20
40.704987
 42
0.017247
 10
23.098201
 20
40.470441
 42
0.008694
 10
22.730139
 20
40.155059
 42
0.008623
 10
22.360695
 20
39.815614
 42
0.012669
 10
22.048947
 20
39.503686
 42
0.010637
 10
21.755136
 20
39.180937
 42
0.007653
 10
21.440489
 20
38.808826
 42
0.007734
 10
21.15191
 20
38.445431
 42
0.016534
 10
20.942951
 20
38.154345
 42
0.0083
 10
20.762341
 20
37.874388
 42
0.005615
 10
20.565412
 20
37.549641
 42
0.005658
 10
20.38213
 20
37.231432
 42
0.011232
 10
20.245462
 20
36.974459
 42
0.010736
 10
20.120503
 20
36.712341
 42
0.005472
 10
19.974243
 20
36.378065
 42
0.005433
 10
19.830901
 20
36.029976
 42
0.00811
 10
19.713866
 20
35.722362
 42
0.012708
 10
19.604977
 20
35.395875
 42
0.006778
 10
19.486139
 20
34.987139
 42
0.006743
 10
19.375998
 20
34.566171
 42
0.010436
 10
19.293422
 20
34.199562
 42
0.015102
 10
19.222803
 20
33.789333
 42
0.010583
 10
19.167083
 20
33.323729
 42
0.010251
 10
19.12926
 20
32.836295
 42
0.011031
 10
19.112625
 20
32.3595
 42
0.006897
 10
19.113112
 20
31.862451
 42
0.018219
 10
19.131322
 20
31.507154
 42
0.025262
 10
19.167784
 20
31.244913
 42
0.056149
 10
19.227462
 20
31.052569
 42
-0.018884
 10
19.293776
 20
30.884231
 42
-0.081778
 10
19.31234
 20
30.778812
 42
-0.105525
 10
19.293795
 20
30.686932
 42
-0.042678
 10
19.232783
 20
30.573838
 42
0.074871
 10
19.183955
 20
30.467534
 42
0.02447
 10
19.144154
 20
30.299202
 42
0.023142
 10
19.116751
 20
30.100394
 42
0.020798
 10
19.106542
 20
29.892669
 42
0.023343
 10
19.11484
 20
29.680863
 42
0.018396
 10
19.142918
 20
29.45304
 42
0.018754
 10
19.184824
 20
29.242989
 42
0.043021
 10
19.235593
 20
29.09
 42
0.045037
 10
19.31192
 20
28.949086
 42
0.020125
 10
19.435717
 20
28.778102
 42
0.01973
 10
19.582071
 20
28.606574
 42
0.025274
 10
19.730429
 20
28.461433
 42
-0.003631
 10
19.899207
 20
28.310038
 42
-0.061702
 10
19.947723
 20
28.253493
 42
-0.774112
 10
19.937571
 20
28.242186
 42
-0.018846
 10
19.8387
 20
28.298276
 42
-0.01681
 10
19.733776
 20
28.368125
 42
-0.014514
 10
19.62839
 20
28.448238
 42
-0.014751
 10
19.53707
 20
28.526494
 42
-0.040515
 10
19.47915
 20
28.588443
 42
0.035348
 10
19.414692
 20
28.658827
 42
0.226498
 10
19.36996
 20
28.673313
 42
0.176433
 10
19.3234
 20
28.648979
 42
0.020514
 10
19.2465
 20
28.55748
 42
0.086649
 10
19.191196
 20
28.452544
 42
0.034538
 10
19.151909
 20
28.294146
 42
0.028117
 10
19.127688
 20
28.089582
 42
0.015611
 10
19.120045
 20
27.83838
 42
0.016787
 10
19.12915
 20
27.573602
 42
0.029733
 10
19.156899
 20
27.356966
 42
0.036037
 10
19.203971
 20
27.179222
 42
0.053763
 10
19.272157
 20
27.033762
 42
-0.014263
 10
19.362064
 20
26.875731
 42
-0.123074
 10
19.381492
 20
26.797628
 42
-0.165969
 10
19.358452
 20
26.730373
 42
-0.031613
 10
19.271712
 20
26.631912
 42
0.081997
 10
19.200199
 20
26.532115
 42
0.057485
 10
19.153565
 20
26.401653
 42
0.04112
 10
19.127519
 20
26.224847
 42
0.016018
 10
19.1196
 20
25.977707
 42
0.015723
 10
19.126196
 20
25.76801
 42
0.014455
 10
19.145975
 20
25.553146
 42
0.014629
 10
19.174761
 20
25.362638
 42
0.04536
 10
19.209389
 20
25.237457
 42
0.041316
 10
19.262528
 20
25.125492
 42
0.016841
 10
19.352045
 20
24.982515
 42
0.016528
 10
19.459074
 20
24.834518
 42
0.02027
 10
19.568939
 20
24.704003
 42
-0.001031
 10
19.722218
 20
24.535517
 42
-0.089111
 10
19.740349
 20
24.506493
 42
-0.785396
 10
19.73384
 20
24.501848
 42
-0.002268
 10
19.60493
 20
24.614053
 42
0.027971
 10
19.504656
 20
24.692654
 42
0.054475
 10
19.415547
 20
24.741342
 42
0.078942
 10
19.344627
 20
24.758222
 42
0.23147
 10
19.299226
 20
24.74015
 42
0.063433
 10
19.265465
 20
24.69188
 42
0.0135
 10
19.22018
 20
24.599705
 42
0.013916
 10
19.173235
 20
24.489232
 42
0.012836
 10
19.131146
 20
24.373326
 42
0.050579
 10
19.093808
 20
24.207584
 42
0.010013
 10
19.063243
 20
23.904423
 42
0.010512
 10
19.042059
 20
23.548401
 42
0.009603
 10
19.035
 20
23.180888
 42
-0.005518
 10
19.029476
 20
22.680347
 42
-0.031242
 10
19.006961
 20
22.41464
 42
-0.062403
 10
18.961212
 20
22.250387
 42
-0.110179
 10
18.880289
 20
22.136012
 42
-0.027337
 10
18.814146
 20
22.082426
 42
-0.028427
 10
18.743383
 20
22.037129
 42
-0.029622
 10
18.678042
 20
22.005296
 42
-0.098848
 10
18.631481
 20
21.996
 42
0.06914
 10
18.592103
 20
21.990529
 42
0.052576
 10
18.551617
 20
21.974303
 42
0.053407
 10
18.516147
 20
21.950402
 42
0.079559
 10
18.491736
 20
21.922137
 42
0.395099
 10
18.499446
 20
21.883897
 42
0.025698
 10
18.603676
 20
21.8174
 42
0.026396
 10
18.751968
 20
21.74324
 42
0.015327
 10
18.936914
 20
21.669308
 42
-0.028641
 10
19.149784
 20
21.57757
 42
-0.018999
 10
19.383009
 20
21.449502
 42
-0.019142
 10
19.601013
 20
21.307158
 42
-0.034539
 10
19.766045
 20
21.172122
 42
-0.010177
 10
19.905845
 20
21.035151
 42
-0.008958
 10
20.046149
 20
20.886749
 42
-0.009037
 10
20.167889
 20
20.748327
 42
-0.026675
 10
20.244528
 20
20.647504
 42
0.021791
 10
20.301254
 20
20.571346
 42
0.037373
 10
20.35569
 20
20.513897
 42
0.045902
 10
20.401183
 20
20.479609
 42
0.347988
 10
20.426104
 20
20.482504
 42
0.191277
 10
20.443084
 20
20.521851
 42
0.000654
 10
20.457965
 20
21.051021
 42
0.003384
 10
20.470028
 20
21.65296
 42
0.0021
 10
20.476438
 20
22.35975
 42
-0.001547
 10
20.485512
 20
23.499425
 42
-0.019783
 10
20.507125
 20
23.926042
 42
-0.062498
 10
20.552032
 20
24.131669
 42
-0.317835
 10
20.642445
 20
24.1956
 42
-0.068578
 10
20.712262
 20
24.185979
 42
-0.039004
 10
20.792427
 20
24.156548
 42
-0.038139
 10
20.870022
 20
24.113545
 42
-0.050817
 10
20.932457
 20
24.062657
 42
-0.152512
 10
21.004395
 20
23.925385
 42
-0.027297
 10
21.041018
 20
23.634951
 42
-0.015275
 10
21.060731
 20
23.146188
 42
-0.002441
 10
21.0654
 20
22.189546
 10
21.0654
 20
20.449378
 10
21.417879
 20
20.849816
 42
-0.016186
 10
21.575026
 20
21.017102
 42
-0.012646
 10
21.755874
 20
21.188638
 42
-0.012837
 10
21.932547
 20
21.339886
 42
-0.030233
 10
22.073529
 20
21.440939
 42
-0.018128
 10
22.212637
 20
21.521549
 42
-0.011331
 10
22.380836
 20
21.606204
 42
-0.011368
 10
22.550576
 20
21.682186
 42
-0.020241
 10
22.69395
 20
21.735773
 42
0.019275
 10
22.815492
 20
21.780933
 42
0.028352
 10
22.918008
 20
21.830577
 42
0.027471
 10
22.993653
 20
21.878278
 42
0.242935
 10
23.0112
 20
21.91226
 42
0.174732
 10
22.999888
 20
21.943642
 42
0.056494
 10
22.963742
 20
21.978411
 42
0.048372
 10
22.911474
 20
22.010923
 42
0.03813
 10
22.84964
 20
22.035875
 42
-0.045515
 10
22.779522
 20
22.06538
 42
-0.027374
 10
22.70223
 20
22.112133
 42
-0.02727
 10
22.629867
 20
22.167517
 42
-0.042317
 10
22.57469
 20
22.223469
 42
-0.121888
 10
22.522174
 20
22.331837
 42
-0.017054
 10
22.478594
 20
22.578932
 42
-0.016047
 10
22.442125
 20
22.914107
 42
-0.00748
 10
22.415331
 20
23.350463
 42
0.007047
 10
22.38612
 20
23.833
 42
0.020084
 10
22.347601
 20
24.167296
 42
0.02845
 10
22.296765
 20
24.403752
 42
0.078005
 10
22.226647
 20
24.558951
 42
-0.035164
 10
22.149122
 20
24.697632
 42
-0.120279
 10
22.12874
 20
24.798159
 42
-0.084627
 10
22.153563
 20
24.915646
 42
-0.012239
 10
22.249608
 20
25.141832
 42
0.028949
 10
22.31305
 20
25.306305
 42
0.019866
 10
22.366511
 20
25.499066
 42
0.020077
 10
22.403255
 20
25.689443
 42
0.037914
 10
22.414923
 20
25.8453
 42
0.034821
 10
22.404043
 20
25.99899
 42
0.019877
 10
22.370697
 20
26.182195
 42
0.01978
 10
22.322262
 20
26.364747
 42
0.030822
 10
22.264872
 20
26.516976
 42
-0.016206
 10
22.178876
 20
26.726338
 42
-0.090457
 10
22.157612
 20
26.845283
 42
-0.097163
 10
22.180567
 20
26.960158
 42
-0.020135
 10
22.26709
 20
27.148214
 42
0.030255
 10
22.325271
 20
27.281716
 42
0.021802
 10
22.374376
 20
27.436666
 42
0.022134
 10
22.408216
 20
27.588679
 42
0.043722
 10
22.419
 20
27.711764
 42
0.028098
 10
22.412116
 20
27.834163
 42
0.015124
 10
22.39063
 20
27.98381
 42
0.015019
 10
22.359429
 20
28.135476
 42
0.022775
 10
22.32242
 20
28.264926
 42
0.021005
 10
22.276061
 20
28.38588
 42
0.017012
 10
22.216601
 20
28.511515
 42
0.017339
 10
22.15372
 20
28.623739
 42
0.041927
 10
22.097808
 20
28.70055
 42
-0.032693
 10
22.054759
 20
28.757455
 42
-0.080555
 10
22.03339
 20
28.80511
 42
-0.184732
 10
22.036554
 20
28.835253
 42
-0.282384
 10
22.058302
 20
28.8486
 42
0.220454
 10
22.1006
 20
28.868202
 42
0.029811
 10
22.160799
 20
28.948508
 42
0.029797
 10
22.224336
 20
29.058436
 42
0.020976
 10
22.282914
 20
29.188712
 42
0.027933
 10
22.335068
 20
29.34362
 42
0.017815
 10
22.379025
 20
29.528616
 42
0.017896
 10
22.409244
 20
29.713679
 42
0.03153
 10
22.419
 20
29.868229
 42
0.030034
 10
22.409864
 20
30.02019
 42
0.018602
 10
22.381841
 20
30.196869
 42
0.018641
 10
22.341003
 20
30.369895
 42
0.031692
 10
22.292501
 20
30.51039
 42
0.040118
 10
22.221555
 20
30.648015
 42
0.01907
 10
22.10985
 20
30.813307
 42
0.018763
 10
21.979242
 20
30.978178
 42
0.025261
 10
21.848351
 20
31.116448
 42
-0.006101
 10
21.735629
 20
31.226739
 42
-0.026969
 10
21.673712
 20
31.295901
 42
-0.581637
 10
21.677989
 20
31.30669
 42
-0.189734
 10
21.6999
 20
31.30144
 42
-0.009236
 10
21.777375
 20
31.245108
 42
-0.004919
 10
21.87123
 20
31.172717
 42
-0.004894
 10
21.965692
 20
31.096857
 42
-0.007591
 10
22.045552
 20
31.029374
 42
0.023247
 10
22.159541
 20
30.939013
 42
0.302817
 10
22.210948
 20
30.937176
 42
0.178123
 10
22.250205
 20
30.987147
 42
0.008452
 10
22.313557
 20
31.194559
 42
0.032157
 10
22.352522
 20
31.372784
 42
0.007223
 10
22.394825
 20
31.680749
 42
0.007462
 10
22.433282
 20
32.038326
 42
0.007162
 10
22.461651
 20
32.4018
 42
-0.008552
 10
22.492651
 20
32.785245
 42
-0.006555
 10
22.539178
 20
33.203121
 42
-0.006633
 10
22.59305
 20
33.593122
 42
-0.015579
 10
22.646174
 20
33.8823
 42
-0.023024
 10
22.720843
 20
34.164259
 42
-0.010138
 10
22.844157
 20
34.529997
 42
-0.010009
 10
22.990813
 20
34.913233
 42
-0.013243
 10
23.140438
 20
35.255626
 42
-0.013247
 10
23.308374
 20
35.590396
 42
-0.009888
 10
23.510447
 20
35.950609
 42
-0.010012
 10
23.714511
 20
36.282676
 42
-0.022345
 10
23.88569
 20
36.524626
 42
-0.010697
 10
24.060514
 20
36.740015
 42
-0.006709
 10
24.273664
 20
36.984701
 42
-0.006733
 10
24.49009
 20
37.220064
 42
-0.012207
 10
24.67428
 20
37.405738
 42
-0.016581
 10
24.872948
 20
37.584188
 42
-0.008227
 10
25.135865
 20
37.79777
 42
-0.008156
 10
25.415954
 20
38.010457
 42
-0.011845
 10
25.670423
 20
38.188106
 42
-0.017578
 10
25.944133
 20
38.356153
 42
-0.010122
 10
26.284531
 20
38.540009
 42
-0.010106
 10
26.634275
 20
38.711018
 42
-0.016625
 10
26.937374
 20
38.839636
 42
-0.007082
 10
27.218192
 20
38.943387
 42
-0.007279
 10
27.499294
 20
39.038161
 42
-0.007083
 10
27.745309
 20
39.113309
 42
-0.030365
 10
27.894801
 20
39.146988
 10
28.1718
 20
39.191939
 10
28.1718
 20
37.580134
 10
28.1718
 20
35.968329
 10
28.993254
 20
35.157482
 10
29.814709
 20
34.346635
 10
30.220612
 20
34.746435
 10
30.626515
 20
35.146234
 10
29.991357
 20
35.785139
 10
29.3562
 20
36.424043
 10
29.3562
 20
38.553329
 42
0.003155
 10
29.350783
 20
39.411777
 42
0.006041
 10
29.333761
 20
40.100649
 42
0.001891
 10
29.310513
 20
40.673395
 42
0.24813
 10
29.276012
 20
40.732173
 42
0.145983
 10
29.21552
 20
40.748502
 42
0.006003
 10
28.98821
 20
40.7398
 42
0.010009
 10
28.716206
 20
40.72065
 42
0.00689
 10
28.408862
 20
40.688544
 42
0.017979
 10
28.043158
 20
40.631843
 42
0.0094
 10
27.592211
 20
40.5364
 42
0.009326
 10
27.131776
 20
40.420779
 42
0.013844
 10
26.7336
 20
40.300933
 42
0.010609
 10
26.353236
 20
40.16584
 42
0.008212
 10
25.944705
 20
40.003184
 42
0.008315
 10
25.568266
 20
39.838692
 42
0.019713
 10
25.2954
 20
39.700765
 42
0.011362
 10
25.042341
 20
39.552439
 42
0.005904
 10
24.733074
 20
39.356517
 42
0.005867
 10
24.420064
 20
39.14774
 42
0.008893
 10
24.1533
 20
38.9582
 42
0.014927
 10
23.890182
 20
38.751712
 42
0.008784
 10
23.587657
 20
38.490206
 42
0.008782
 10
23.294263
 20
38.218012
 42
0.014818
 10
23.059308
 20
37.978439
 42
0.011446
 10
22.843173
 20
37.733567
 42
0.007803
 10
22.608313
 20
37.445881
 42
0.007866
 10
22.390364
 20
37.161144
 42
0.015674
 10
22.22865
 20
36.9279
 42
0.010487
 10
22.085422
 20
36.696326
 42
0.006492
 10
21.926474
 20
36.418689
 42
0.006511
 10
21.776573
 20
36.140305
 42
0.011648
 10
21.661776
 20
35.907216
 42
0.017794
 10
21.557767
 20
35.660353
 42
0.008522
 10
21.441047
 20
35.336707
 42
0.008437
 10
21.330541
 20
34.994332
 42
0.011912
 10
21.244583
 20
34.685559
 42
0.017434
 10
21.158435
 20
34.2869
 42
0.019485
 10
21.103987
 20
33.897693
 42
0.016704
 10
21.074671
 20
33.458312
 42
0.008305
 10
21.0654
 20
32.900212
 42
-0.004425
 10
21.061663
 20
32.477982
 42
-0.006173
 10
21.050316
 20
32.100431
 42
-0.0039
 10
21.034431
 20
31.784227
 42
-0.077257
 10
21.014049
 20
31.689619
 42
-0.088164
 10
20.983224
 20
31.638461
 42
-0.066494
 10
20.933781
 20
31.595109
 42
-0.065708
 10
20.874008
 20
31.565805
 42
-0.081329
 10
20.812908
 20
31.5558
 42
-0.072276
 10
20.747675
 20
31.565279
 42
-0.044596
 10
20.675476
 20
31.593927
 42
-0.043805
 10
20.60766
 20
31.635919
 42
-0.059092
 10
20.555398
 20
31.685594
 42
-0.129267
 10
20.50576
 20
31.792244
 42
-0.031322
 10
20.483083
 20
31.987057
 42
-0.02144
 10
20.480067
 20
32.277441
 42
-0.006332
 10
20.500151
 20
32.721944
 42
-0.012281
 10
20.53289
 20
33.118478
 42
-0.008734
 10
20.588229
 20
33.561009
 42
-0.008825
 10
20.655907
 20
33.981665
 42
-0.01851
 10
20.726305
 20
34.3053
 42
-0.006322
 10
20.805448
 20
34.598268
 42
-0.004725
 10
20.899799
 20
34.919195
 42
-0.004777
 10
20.994442
 20
35.21988
 42
-0.010855
 10
21.07303
 20
35.444756
 42
-0.011912
 10
21.157689
 20
35.655653
 42
-0.006608
 10
21.270439
 20
35.908966
 42
-0.006587
 10
21.391453
 20
36.162608
 42
-0.010562
 10
21.502065
 20
36.375356
 42
-0.0076
 10
21.624326
 20
36.590996
 42
-0.004016
 10
21.782193
 20
36.854949
 42
-0.003995
 10
21.948099
 20
37.122517
 42
-0.006162
 10
22.096214
 20
37.3509
 42
-0.025714
 10
22.281448
 20
37.600163
 42
-0.008587
 10
22.576866
 20
37.945479
 42
-0.00852
 10
22.917635
 20
38.317269
 42
-0.00962
 10
23.257617
 20
38.6622
 42
-0.011662
 10
23.673477
 20
39.049662
 42
-0.014949
 10
24.074635
 20
39.385395
 42
-0.015901
 10
24.472534
 20
39.678659
 42
-0.01716
 10
24.878481
 20
39.938304
 42
-0.010164
 10
25.2272
 20
40.135377
 42
-0.007795
 10
25.615758
 20
40.33691
 42
-0.00789
 10
25.98537
 20
40.514135
 42
-0.018472
 10
26.2683
 20
40.631886
 42
-0.007889
 10
26.535006
 20
40.72673
 42
-0.005025
 10
26.848074
 20
40.829032
 42
-0.005048
 10
27.157237
 20
40.92321
 42
-0.009345
 10
27.4104
 20
40.992432
 42
-0.015494
 10
27.676775
 20
41.051225
 42
-0.006899
 10
28.030931
 20
41.11291
 42
-0.006821
 10
28.407828
 20
41.167948
 42
-0.009169
 10
28.750648
 20
41.206861
 42
-0.013974
 10
29.133574
 20
41.232457
 42
-0.011088
 10
29.548143
 20
41.239348
 42
-0.011023
 10
29.965781
 20
41.227818
 42
-0.013199
 10
30.358048
 20
41.197933
 42
-0.013488
 10
30.726034
 20
41.150044
 42
-0.008188
 10
31.158453
 20
41.074588
 42
-0.008202
 10
31.585326
 20
40.985592
 42
-0.014309
 10
31.93548
 20
40.895976
 42
-0.015239
 10
32.280648
 20
40.785544
 42
-0.008614
 10
32.692209
 20
40.631876
 42
-0.008593
 10
33.102279
 20
40.462469
 42
-0.013954
 10
33.44381
 20
40.302994
 42
-0.012926
 10
33.774317
 20
40.126447
 42
-0.008208
 10
34.150259
 20
39.904722
 42
-0.008244
 10
34.512345
 20
39.674787
 42
-0.015096
 10
34.79843
 20
39.47379
 42
-0.013061
 10
35.071403
 20
39.258074
 42
-0.007319
 10
35.392345
 20
38.982482
 42
-0.007298
 10
35.708695
 20
38.694347
 42
-0.011793
 10
35.968349
 20
38.43905
 42
-0.016259
 10
36.21753
 20
38.16492
 42
-0.009201
 10
36.502183
 20
37.817801
 42
-0.009178
 10
36.776578
 20
37.456916
 42
-0.014895
 10
36.994709
 20
37.1394
 42
-0.011854
 10
37.191199
 20
36.817799
 42
-0.00819
 10
37.398843
 20
36.445151
 42
-0.008263
 10
37.586761
 20
36.080155
 42
-0.016723
 10
37.720156
 20
35.7858
 42
-0.010165
 10
37.833931
 20
35.493951
 42
-0.005886
 10
37.959382
 20
35.138874
 42
-0.00588
 10
38.076879
 20
34.779615
 42
-0.009834
 10
38.166157
 20
34.4745
 42
-0.022998
 10
38.262786
 20
34.040357
 42
-0.021043
 10
38.322605
 20
33.586114
 42
-0.013558
 10
38.360191
 20
32.978132
 42
-0.003425
 10
38.387713
 20
31.987676
 10
38.425602
 20
30.177651
 10
33.584985
 20
25.336485
 42
0.001119
 10
31.734053
 20
23.47704
 42
0.001875
 10
30.187821
 20
21.904981
 42
0.000147
 10
28.811881
 20
20.494695
 42
0.48918
 10
28.817634
 20
20.453003
 42
0.114593
 10
28.874607
 20
20.435656
 42
0.002963
 10
29.142742
 20
20.419158
 42
0.006129
 10
29.45959
 20
20.405441
 42
0.004131
 10
29.8215
 20
20.397208
 10
30.7521
 20
20.383729
 10
35.354711
 20
24.990599
 10
39.957323
 20
29.597469
 10
39.908508
 20
31.570684
 42
0.004029
 10
39.878552
 20
32.483891
 42
0.007522
 10
39.83722
 20
33.222588
 42
0.009086
 10
39.785065
 20
33.806318
 42
0.023999
 10
39.720202
 20
34.2207
 42
0.010326
 10
39.648745
 20
34.534483
 42
0.005396
 10
39.547493
 20
34.922351
 42
0.005364
 10
39.435029
 20
35.318117
 42
0.008177
 10
39.328137
 20
35.6589
 42
0.012504
 10
39.206666
 20
35.996582
 42
0.007987
 10
39.049492
 20
36.383023
 42
0.008024
 10
38.883197
 20
36.757105
 42
0.014797
 10
38.734238
 20
37.0548
 42
0.00694
 10
38.576957
 20
37.337693
 42
0.004349
 10
38.385507
 20
37.664449
 42
0.004364
 10
38.191344
 20
37.982978
 42
0.007944
 10
38.026377
 20
38.2392
 42
0.018622
 10
37.839521
 20
38.498099
 42
0.008087
 10
37.573028
 20
38.82861
 42
0.007989
 10
37.278093
 20
39.17124
 42
0.010528
 10
36.99777
 20
39.473501
 42
0.011905
 10
36.694576
 20
39.772345
 42
0.007631
 10
36.329251
 20
40.105317
 42
0.007668
 10
35.961284
 20
40.420641
 42
0.014211
 10
35.651676
 20
40.663293
 42
0.01282
 10
35.335218
 20
40.884797
 42
0.007581
 10
34.947045
 20
41.133544
 42
0.007582
 10
34.551784
 20
41.370241
 42
0.0129
 10
34.213476
 20
41.554446
 42
0.0108
 10
33.875422
 20
41.718248
 42
0.007223
 10
33.482029
 20
41.891648
 42
0.007274
 10
33.095709
 20
42.04872
 42
0.014182
 10
32.7825
 20
42.160663
 42
0.007967
 10
32.480246
 20
42.253818
 42
0.00528
 10
32.130551
 20
42.351529
 42
0.005314
 10
31.788769
 20
42.439267
 42
0.010295
 10
31.5135
 20
42.500841
 42
0.007324
 10
31.243882
 20
42.55125
 42
0.004351
 10
30.9213
 20
42.603798
 42
0.004354
 10
30.598669
 20
42.650603
 42
0.007491
 10
30.3291
 20
42.683211
 42
-0.007683
 10
30.108904
 20
42.709932
 42
-0.016937
 10
29.941923
 20
42.738595
 42
-0.02777
 10
29.842928
 20
42.764866
 42
-0.714804
 10
29.84265
 20
42.78378
 42
0.154884
 10
29.883222
 20
42.814727
 42
0.058991
 10
29.917336
 20
42.878073
 42
0.051123
 10
29.940584
 20
42.960789
 42
0.042986
 10
29.9484
 20
43.05153
 42
0.038677
 10
29.941014
 20
43.146866
 42
0.035004
 10
29.918993
 20
43.243255
 42
0.036791
 10
29.886741
 20
43.326867
 42
0.08614
 10
29.84829
 20
43.38147
 42
-0.028135
 10
29.81255
 20
43.421475
 42
-0.048924
 10
29.788356
 20
43.4588
 42
-0.069472
 10
29.777965
 20
43.488305
 42
-0.314561
 10
29.78484
 20
43.50414
 42
-0.015136
 10
29.809679
 20
43.518408
 42
-0.00099
 10
29.882841
 20
43.55735
 42
-0.001438
 10
29.970282
 20
43.603349
 42
-0.001072
 10
30.06698
 20
43.6536
 42
0.042618
 10
30.17881
 20
43.72407
 42
0.018896
 10
30.313978
 20
43.834559
 42
0.018542
 10
30.449166
 20
43.963084
 42
0.023782
 10
30.56311
 20
44.091431
 42
0.03386
 10
30.674819
 20
44.251
 42
0.035901
 10
30.761546
 20
44.421184
 42
0.036199
 10
30.822458
 20
44.600672
 42
0.035656
 10
30.857224
 20
44.787979
 42
0.028843
 10
30.866605
 20
44.959718
 42
0.02395
 10
30.857276
 20
45.142512
 42
0.024687
 10
30.831674
 20
45.313945
 42
0.044656
 10
30.791553
 20
45.449948
 42
0.025093
 10
30.736931
 20
45.570223
 42
0.016357
 10
30.662582
 20
45.703398
 42
0.01646
 10
30.581325
 20
45.828839
 42
0.029959
 10
30.505758
 20
45.924688
 42
0.028857
 10
30.420723
 20
46.009753
 42
0.017075
 10
30.310343
 20
46.101548
 42
0.017055
 10
30.193527
 20
46.185913
 42
0.027942
 10
30.088588
 20
46.248176
 42
0.019467
 10
29.993408
 20
46.293067
 42
0.028697
 10
29.906454
 20
46.324256
 42
0.027984
 10
29.835959
 20
46.340841
 42
0.244851
 10
29.806298
 20
46.331498
 42
0.348518
 10
29.803436
 20
46.306652
 42
0.048139
 10
29.837246
 20
46.262381
 42
0.038366
 10
29.894415
 20
46.209582
 42
0.02224
 10
29.970321
 20
46.154873
 42
-0.041906
 10
30.056262
 20
46.087649
 42
-0.026944
 10
30.144349
 20
45.996689
 42
-0.027043
 10
30.221467
 20
45.897613
 42
-0.044983
 10
30.273761
 20
45.805733
 42
-0.026194
 10
30.311154
 20
45.71078
 42
-0.019469
 10
30.342719
 20
45.602575
 42
-0.019795
 10
30.36452
 20
45.497889
 42
-0.041458
 10
30.3714
 20
45.415055
 42
-0.066741
 10
30.35977
 20
45.328315
 42
-0.023676
 10
30.321029
 20
45.208982
 42
-0.023005
 10
30.265559
 20
45.080392
 42
-0.025085
 10
30.199925
 20
44.961219
 42
-0.045353
 10
30.115114
 20
44.848306
 42
-0.032685
 10
30.001989
 20
44.738484
 42
-0.033238
 10
29.879524
 20
44.647533
 42
-0.059297
 10
29.766897
 20
44.592588
 42
-0.037366
 10
29.650467
 20
44.561524
 42
-0.026718
 10
29.51678
 20
44.543691
 42
-0.027136
 10
29.386822
 20
44.540451
 42
-0.050884
 10
29.282722
 20
44.554168
 42
-0.034427
 10
29.185831
 20
44.584301
 42
-0.022424
 10
29.078576
 20
44.63158
 42
-0.022557
 10
28.977616
 20
44.687409
 42
-0.039418
 10
28.900374
 20
44.743613
 42
-0.045593
 10
28.831136
 20
44.814753
 42
-0.021404
 10
28.754613
 20
44.917979
 42
-0.021003
 10
28.683106
 20
45.033799
 42
-0.027656
 10
28.628464
 20
45.145258
 42
-0.036638
 10
28.582795
 20
45.279781
 42
-0.046068
 10
28.561583
 20
45.409606
 42
-0.046938
 10
28.564682
 20
45.53911
 42
-0.040415
 10
28.591545
 20
45.672651
 42
-0.049587
 10
28.63755
 20
45.788373
 42
-0.027318
 10
28.714892
 20
45.919738
 42
-0.026973
 10
28.808747
 20
46.045621
 42
-0.038708
 10
28.905755
 20
46.14527
 42
0.01881
 10
28.991111
 20
46.226244
 42
0.043491
 10
29.047121
 20
46.294497
 42
0.09752
 10
29.066324
 20
46.339186
 42
0.468811
  0
LWPOLYLINE
  5
3D0
330
1D
100
AcDbEntity
  8
0
100
AcDbPolyline
 90
       16
 70
     1
 43
0.0
 10
21.1923
 20
31.553209
 42
-0.067616
 10
21.233529
 20
31.547608
 42
-0.024967
 10
21.289326
 20
31.529119
 42
-0.024204
 10
21.349004
 20
31.50259
 42
-0.026766
 10
21.4038
 20
31.4712
 42
-0.027796
 10
21.4473
 20
31.439529
 42
-0.102785
 10
21.468572
 20
31.413281
 42
-0.335455
 10
21.46575
 20
31.396953
 42
-0.190341
 10
21.4461
 20
31.389191
 42
-0.067616
 10
21.404871
 20
31.394792
 42
-0.024967
 10
21.349074
 20
31.413281
 42
-0.024204
 10
21.289396
 20
31.43981
 42
-0.026766
 10
21.2346
 20
31.4712
 42
-0.027796
 10
21.1911
 20
31.502871
 42
-0.102785
 10
21.169828
 20
31.529119
 42
-0.335455
 10
21.17265
 20
31.545447
 42
-0.190341
  0
LWPOLYLINE
  5
3E2
330
1D
100
AcDbEntity
  8
0
100
AcDbPolyline
 90
       16
 70
     1
 43
0.0
 10
19.707883
 20
30.397401
 42
0.021693
 10
19.805797
 20
30.320221
 42
0.015229
 10
19.92215
 20
30.241691
 42
0.015402
 10
20.038368
 20
30.173216
 42
0.030815
 10
20.1348
 20
30.127814
 42
-0.010378
 10
20.231985
 20
30.086819
 42
-0.136644
 10
20.261753
 20
30.062173
 42
-0.538395
 10
20.25502
 20
30.045322
 42
-0.041772
 10
20.197008
 20
30.038362
 42
-0.12043
 10
20.121446
 20
30.053979
 42
-0.029943
 10
20.010018
 20
30.115342
 42
-0.02887
 10
19.887337
 20
30.203104
 42
-0.025473
 10
19.770091
 20
30.30795
 42
-0.003032
 10
19.669829
 20
30.408458
 42
-0.042639
 10
19.637298
 20
30.447643
 42
-0.863674
 10
19.641904
 20
30.451966
 42
-0.009963
  0
LWPOLYLINE
  5
3F4
330
1D
100
AcDbEntity
  8
0
100
AcDbPolyline
 90
       20
 70
     1
 43
0.0
 10
20.630997
 20
30.033
 42
-0.061811
 10
20.704688
 20
30.023855
 42
-0.039109
 10
20.786852
 20
29.99616
 42
-0.038854
 10
20.864565
 20
29.955608
 42
-0.056754
 10
20.924926
 20
29.907588
 42
-0.075557
 10
20.970113
 20
29.846205
 42
-0.056302
 10
21.000667
 20
29.767723
 42
-0.056037
 10
21.013054
 20
29.683958
 42
-0.072788
 10
21.004511
 20
29.606936
 42
-0.069689
 10
20.970494
 20
29.525326
 42
-0.132477
 10
20.919944
 20
29.475986
 42
-0.113457
 10
20.845556
 20
29.454279
 42
-0.043389
 10
20.737093
 20
29.457398
 42
-0.053375
 10
20.622188
 20
29.483349
 42
-0.138908
 10
20.553082
 20
29.531117
 42
-0.116768
 10
20.512334
 20
29.613893
 42
-0.032221
 10
20.48899
 20
29.75805
 42
-0.022099
 10
20.481382
 20
29.904416
 42
-0.121718
 10
20.499599
 20
29.980669
 42
-0.199297
 10
20.54606
 20
30.019851
 42
-0.076944
  0
LWPOLYLINE
  5
40A
330
1D
100
AcDbEntity
  8
0
100
AcDbPolyline
 90
       20
 70
     1
 43
0.0
 10
21.15
 20
29.437172
 42
-0.082765
 10
21.216543
 20
29.427689
 42
-0.02054
 10
21.32039
 20
29.390043
 42
-0.02044
 10
21.437275
 20
29.336475
 42
-0.019234
 10
21.55185
 20
29.272527
 42
-0.013332
 10
21.657189
 20
29.204383
 42
-0.019349
 10
21.746033
 20
29.138298
 42
-0.015342
 10
21.813989
 20
29.080015
 42
-0.210842
 10
21.8268
 20
29.050985
 42
-0.351657
 10
21.81701
 20
29.038787
 42
-0.138892
 10
21.794025
 20
29.040117
 42
-0.062627
 10
21.758096
 20
29.05787
 42
-0.027182
 10
21.715225
 20
29.089682
 42
0.037825
 10
21.653304
 20
29.133618
 42
0.010847
 10
21.551157
 20
29.192077
 42
0.01085
 10
21.432689
 20
29.253213
 42
0.011334
 10
21.313375
 20
29.308229
 42
-0.015341
 10
21.209749
 20
29.357021
 42
-0.049393
 10
21.145645
 20
29.39806
 42
-0.244973
 10
21.13471
 20
29.422404
 42
-0.390419
  0
LWPOLYLINE
  5
420
330
1D
100
AcDbEntity
  8
0
100
AcDbPolyline
 90
       28
 70
     1
 43
0.0
 10
20.499912
 20
28.080521
 42
-0.04789
 10
20.57053
 20
28.076828
 42
-0.025434
 10
20.656469
 20
28.059512
 42
-0.025072
 10
20.743278
 20
28.032677
 42
-0.035378
 10
20.817162
 20
27.999623
 42
-0.082326
 10
20.88152
 20
27.950119
 42
-0.061569
 10
20.93417
 20
27.877582
 42
-0.059706
 10
20.968967
 20
27.791859
 42
-0.066681
 10
20.9808
 20
27.703523
 42
-0.046819
 10
20.970992
 20
27.599013
 42
-0.149009
 10
20.938776
 20
27.53758
 42
-0.150814
 10
20.878052
 20
27.504987
 42
-0.048345
 10
20.775001
 20
27.495
 42
-0.061213
 10
20.684395
 20
27.506134
 42
-0.083095
 10
20.608954
 20
27.538955
 42
-0.089213
 10
20.552136
 20
27.592326
 42
-0.083036
 10
20.51574
 20
27.663443
 42
-0.035641
 10
20.498847
 20
27.733667
 42
-0.035977
 10
20.492167
 20
27.805357
 42
-0.038387
 10
20.495683
 20
27.868345
 42
-0.105661
 10
20.510566
 20
27.910017
 42
0.129736
 10
20.520647
 20
27.943127
 42
0.121719
 10
20.513451
 20
27.977784
 42
0.105979
 10
20.489526
 20
28.008729
 42
0.079731
 10
20.452577
 20
28.030995
 42
-0.060473
 10
20.420704
 20
28.048575
 42
-0.455221
 10
20.419317
 20
28.063681
 42
-0.171076
 10
20.442713
 20
28.07554
 42
-0.021708
  0
LWPOLYLINE
  5
43E
330
1D
100
AcDbEntity
  8
0
100
AcDbPolyline
 90
       16
 70
     1
 43
0.0
 10
21.1923
 20
27.492409
 42
-0.067616
 10
21.233529
 20
27.486808
 42
-0.024967
 10
21.289326
 20
27.468319
 42
-0.024204
 10
21.349004
 20
27.44179
 42
-0.026766
 10
21.4038
 20
27.4104
 42
-0.027796
 10
21.4473
 20
27.378729
 42
-0.102785
 10
21.468572
 20
27.352481
 42
-0.335455
 10
21.46575
 20
27.336153
 42
-0.190341
 10
21.4461
 20
27.328391
 42
-0.067616
 10
21.404871
 20
27.333992
 42
-0.024967
 10
21.349074
 20
27.352481
 42
-0.024204
 10
21.289396
 20
27.37901
 42
-0.026766
 10
21.2346
 20
27.4104
 42
-0.027796
 10
21.1911
 20
27.442071
 42
-0.102785
 10
21.169828
 20
27.468319
 42
-0.335455
 10
21.17265
 20
27.484647
 42
-0.190341
  0
LWPOLYLINE
  5
450
330
1D
100
AcDbEntity
  8
0
100
AcDbPolyline
 90
       10
 70
     1
 43
0.0
 10
21.755064
 20
27.189936
 42
-0.017685
 10
21.838476
 20
27.125793
 42
-0.030003
 10
21.902839
 20
27.065724
 42
-0.031591
 10
21.944664
 20
27.01574
 42
-0.365674
 10
21.943064
 20
26.9921
 42
-0.337379
 10
21.918495
 20
26.988353
 42
-0.030193
 10
21.862157
 20
27.023659
 42
-0.029656
 10
21.793392
 20
27.079207
 42
-0.018032
 10
21.7187
 20
27.152336
 10
21.5307
 20
27.350173
  0
LWPOLYLINE
  5
45C
330
1D
100
AcDbEntity
  8
0
100
AcDbPolyline
 90
       16
 70
     1
 43
0.0
 10
19.69065
 20
26.491884
 42
-0.008995
 10
19.796012
 20
26.415137
 42
-0.013507
 10
19.884833
 20
26.344107
 42
-0.008328
 10
19.955466
 20
26.282381
 42
-0.212078
 10
19.9656
 20
26.259563
 42
-0.435488
 10
19.955209
 20
26.249895
 42
-0.050333
 10
19.920066
 20
26.256023
 42
-0.035825
 10
19.870075
 20
26.273981
 42
-0.01873
 10
19.810592
 20
26.303005
 42
-0.03358
 10
19.742546
 20
26.345527
 42
-0.018976
 10
19.665885
 20
26.405469
 42
-0.018876
 10
19.592834
 20
26.472078
 42
-0.029298
 10
19.535642
 20
26.535326
 42
-0.041965
 10
19.497766
 20
26.591565
 42
-0.666975
 10
19.508078
 20
26.604645
 42
-0.078584
 10
19.561316
 20
26.580223
 42
-0.006155
  0
LWPOLYLINE
  5
46E
330
1D
100
AcDbEntity
  8
0
100
AcDbPolyline
 90
       24
 70
     1
 43
0.0
 10
20.698499
 20
26.0568
 42
-0.065716
 10
20.776673
 20
26.046481
 42
-0.054355
 10
20.855024
 20
26.015993
 42
-0.056342
 10
20.921827
 20
25.971047
 42
-0.089178
 10
20.965534
 20
25.917884
 42
-0.058901
 10
20.99231
 20
25.853211
 42
-0.03796
 10
21.008364
 20
25.773602
 42
-0.037865
 10
21.01223
 20
25.692131
 42
-0.056936
 10
21.002171
 20
25.621784
 42
-0.08287
 10
20.975266
 20
25.561722
 42
-0.073467
 10
20.929379
 20
25.510773
 42
-0.075559
 10
20.872105
 20
25.476431
 42
-0.097632
 10
20.812092
 20
25.4646
 42
-0.063014
 10
20.748377
 20
25.472662
 42
-0.044246
 10
20.680147
 20
25.496809
 42
-0.044547
 10
20.617877
 20
25.532267
 42
-0.067957
 10
20.572117
 20
25.574249
 42
-0.072126
 10
20.538228
 20
25.629682
 42
-0.03763
 10
20.511974
 20
25.706458
 42
-0.036461
 10
20.496485
 20
25.790915
 42
-0.045952
 10
20.495162
 20
25.870349
 42
-0.063303
 10
20.512624
 20
25.955781
 42
-0.125816
 10
20.550141
 20
26.013248
 42
-0.124678
 10
20.610904
 20
26.045973
 42
-0.061565
  0
LWPOLYLINE
  5
488
330
1D
100
AcDbEntity
  8
0
100
AcDbPolyline
 90
       20
 70
     1
 43
0.0
 10
21.15
 20
25.460972
 42
-0.082765
 10
21.216543
 20
25.451489
 42
-0.02054
 10
21.32039
 20
25.413843
 42
-0.02044
 10
21.437275
 20
25.360275
 42
-0.019234
 10
21.55185
 20
25.296327
 42
-0.013332
 10
21.657189
 20
25.228183
 42
-0.019349
 10
21.746033
 20
25.162098
 42
-0.015342
 10
21.813989
 20
25.103815
 42
-0.210842
 10
21.8268
 20
25.074785
 42
-0.351657
 10
21.81701
 20
25.062587
 42
-0.138892
 10
21.794025
 20
25.063917
 42
-0.062627
 10
21.758096
 20
25.08167
 42
-0.027182
 10
21.715225
 20
25.113482
 42
0.037825
 10
21.653304
 20
25.157418
 42
0.010847
 10
21.551157
 20
25.215877
 42
0.01085
 10
21.432689
 20
25.277013
 42
0.011334
 10
21.313375
 20
25.332029
 42
-0.015341
 10
21.209749
 20
25.380821
 42
-0.049393
 10
21.145645
 20
25.42186
 42
-0.244973
 10
21.13471
 20
25.446204
 42
-0.390419
  0
LWPOLYLINE
  5
49E
330
1D
100
AcDbEntity
  8
0
100
AcDbPolyline
 90
       26
 70
     1
 43
0.0
 10
11.448556
 20
45.534452
 42
0.066138
 10
11.341157
 20
45.607263
 42
0.217309
 10
11.257604
 20
45.610249
 42
0.09341
 10
11.156651
 20
45.544322
 42
0.007493
 10
10.929544
 20
45.31975
 42
0.01076
 10
10.793729
 20
45.175273
 42
0.01504
 10
10.679147
 20
45.040037
 42
0.011337
 10
10.590989
 20
44.924107
 42
0.15817
 10
10.575
 20
44.874829
 42
0.177187
 10
10.594194
 20
44.822367
 42
0.00533
 10
10.74877
 20
44.643301
 42
0.009966
 10
10.93987
 20
44.435151
 42
0.006649
 10
11.166558
 20
44.204137
 10
11.758116
 20
43.617112
 10
12.139458
 20
43.99137
 42
0.006964
 10
12.285588
 20
44.138836
 42
0.010398
 10
12.408781
 20
44.272108
 42
0.005744
 10
12.508044
 20
44.3867
 42
0.177415
 10
12.5208
 20
44.421517
 42
0.179271
 10
12.507598
 20
44.457156
 42
0.00415
 10
12.38747
 20
44.594717
 42
0.008709
 10
12.240858
 20
44.75414
 42
0.005731
 10
12.066912
 20
44.932653
 42
0.001819
 10
11.88108
 20
45.117691
 42
0.001947
 10
11.698041
 20
45.297221
 42
0.001845
 10
11.539558
 20
45.450326
 42
0.009149
  0
LWPOLYLINE
  5
4BA
330
1D
100
AcDbEntity
  8
0
100
AcDbPolyline
 90
       38
 70
     1
 43
0.0
 10
14.07638
 20
45.198093
 10
13.572295
 20
45.685087
 10
13.215748
 20
45.321791
 42
0.010573
 10
13.079163
 20
45.176605
 42
0.014825
 10
12.963936
 20
45.04093
 42
0.011058
 10
12.875115
 20
44.924653
 42
0.158868
 10
12.8592
 20
44.875828
 42
0.187521
 10
12.880425
 20
44.821225
 42
0.001859
 10
13.169815
 20
44.507575
 42
0.005759
 10
13.511296
 20
44.1486
 42
0.003664
 10
13.916613
 20
43.738287
 10
14.974026
 20
42.683412
 10
15.904713
 20
43.611213
 42
0.004394
 10
16.261348
 20
43.973046
 42
0.00684
 10
16.561658
 20
44.291748
 42
0.002566
 10
16.813125
 20
44.568877
 42
0.188613
 10
16.834201
 20
44.625057
 42
0.160316
 10
16.815911
 20
44.678131
 42
0.007185
 10
16.695005
 20
44.832586
 42
0.011457
 10
16.542564
 20
45.013041
 42
0.007887
 10
16.362026
 20
45.210712
 10
15.89105
 20
45.710324
 10
15.496995
 20
45.316269
 42
0.009615
 10
15.278444
 20
45.089146
 42
0.065537
 10
15.188771
 20
44.962485
 42
0.145529
 10
15.169131
 20
44.863638
 42
0.116867
 10
15.203967
 20
44.760445
 42
-0.047293
 10
15.249471
 20
44.669455
 42
-0.169516
 10
15.251608
 20
44.60545
 42
-0.142721
 10
15.213011
 20
44.547302
 42
-0.030319
 10
15.114553
 20
44.473894
 42
-0.03121
 10
14.999825
 20
44.408564
 42
-0.153484
 10
14.927059
 20
44.397519
 42
-0.140568
 10
14.857538
 20
44.429676
 42
-0.024713
 10
14.752288
 20
44.530106
 42
0.006579
 10
14.655129
 20
44.62979
 42
0.001391
 10
14.482863
 20
44.800987
 42
0.001456
 10
14.281968
 20
44.998374
 42
0.001381
  0
LWPOLYLINE
  5
4E2
330
1D
100
AcDbEntity
  8
0
100
AcDbPolyline
 90
       22
 70
     1
 43
0.0
 10
12.947336
 20
44.497725
 42
0.176525
 10
12.916412
 20
44.485002
 42
0.001044
 10
12.68509
 20
44.272989
 42
0.004173
 10
12.422238
 20
44.026982
 42
0.002623
 10
12.11895
 20
43.735298
 10
11.3364
 20
42.974746
 10
11.3364
 20
40.883194
 10
11.3364
 20
38.791641
 10
10.362539
 20
37.815237
 10
9.388678
 20
36.838832
 10
9.794899
 20
36.43872
 10
10.201119
 20
36.038608
 10
11.351281
 20
37.202354
 10
12.501443
 20
38.3661
 10
12.499948
 20
40.425562
 10
12.498453
 20
42.485024
 10
13.120146
 20
43.110894
 10
13.741839
 20
43.736764
 10
13.367505
 20
44.118182
 42
0.005946
 10
13.220726
 20
44.264223
 42
0.009087
 10
13.089668
 20
44.387008
 42
0.004306
 10
12.976522
 20
44.487458
 42
0.19188
  0
LWPOLYLINE
  5
4FA
330
1D
100
AcDbEntity
  8
0
100
AcDbPolyline
 90
       32
 70
     1
 43
0.0
 10
13.606279
 20
43.3998
 42
0.188174
 10
13.583753
 20
43.391011
 42
0.00212
 10
13.462534
 20
43.278483
 42
0.006179
 10
13.323557
 20
43.145108
 42
0.003945
 10
13.165157
 20
42.986807
 42
0.014078
 10
13.001791
 20
42.81133
 42
0.033192
 10
12.892894
 20
42.669607
 42
0.045677
 10
12.835902
 20
42.564662
 42
0.371683
 10
12.851087
 20
42.516514
 42
-0.243725
 10
12.89617
 20
42.441149
 42
-0.00446
 10
12.921133
 20
41.961928
 42
-0.00806
 10
12.938654
 20
41.313264
 42
-0.002722
 10
12.9438
 20
40.367913
 10
12.9438
 20
38.276612
 10
13.474826
 20
37.750306
 42
0.006352
 10
13.683561
 20
37.548619
 42
0.009552
 10
13.871103
 20
37.378602
 42
0.004957
 10
14.032505
 20
37.2406
 42
0.176162
 10
14.078158
 20
37.224
 42
0.167459
 10
14.121881
 20
37.239066
 42
0.008594
 10
14.239879
 20
37.334656
 42
0.012901
 10
14.377585
 20
37.456375
 42
0.008936
 10
14.527163
 20
37.6007
 10
14.903863
 20
37.9774
 10
14.514655
 20
38.393495
 10
14.125446
 20
38.809591
 10
14.118691
 20
40.834784
 10
14.111937
 20
42.859977
 10
13.876278
 20
43.129888
 42
0.00674
 10
13.78348
 20
43.233326
 42
0.010213
 10
13.699756
 20
43.320513
 42
0.005301
 10
13.627424
 20
43.391305
 42
0.193366
  0
LWPOLYLINE
  5
51C
330
1D
100
AcDbEntity
  8
0
100
AcDbPolyline
 90
      174
 70
     1
 43
0.0
 10
30.355331
 20
40.723843
 42
0.014446
 10
30.167732
 20
40.739277
 42
0.021324
 10
30.002566
 20
40.74102
 42
0.017524
 10
29.870538
 20
40.732143
 42
0.232837
 10
29.830395
 20
40.706993
 42
0.132484
 10
29.812506
 20
40.647075
 42
0.000642
 10
29.796158
 20
40.00413
 42
0.002889
 10
29.78269
 20
39.270595
 42
0.001817
 10
29.77502
 20
38.413255
 10
29.76321
 20
36.190009
 10
30.084475
 20
35.861004
 42
0.011087
 10
30.213122
 20
35.734973
 42
0.015521
 10
30.333885
 20
35.628645
 42
0.011796
 10
30.437595
 20
35.546938
 42
0.162327
 10
30.482395
 20
35.532
 42
0.130294
 10
30.523811
 20
35.542979
 42
0.02076
 10
30.595523
 20
35.587915
 42
0.021795
 10
30.677361
 20
35.649468
 42
0.017554
 10
30.759864
 20
35.72235
 42
0.098718
 10
30.876882
 20
35.887888
 42
0.0771
 10
30.934597
 20
36.100853
 42
0.025632
 10
30.957294
 20
36.481873
 42
0.001838
 10
30.962138
 20
37.54125
 42
-0.001921
 10
30.965098
 20
38.165716
 42
-0.003204
 10
30.972979
 20
38.691413
 42
-0.000413
 10
30.983315
 20
39.156438
 42
-0.407478
 10
30.996989
 20
39.1698
 42
-0.069379
 10
31.021933
 20
39.166322
 42
-0.000727
 10
31.190933
 20
39.117995
 42
-0.002309
 10
31.385642
 20
39.061035
 42
-0.001497
 10
31.610339
 20
38.993441
 42
-0.016193
 10
31.87177
 20
38.9046
 42
-0.009418
 10
32.179725
 20
38.782026
 42
-0.009409
 10
32.483984
 20
38.647444
 42
-0.015664
 10
32.734262
 20
38.52138
 42
-0.01214
 10
32.977109
 20
38.381625
 42
-0.007314
 10
33.258443
 20
38.204808
 42
-0.007323
 10
33.533073
 20
38.020775
 42
-0.012706
 10
33.754845
 20
37.858927
 42
-0.014754
 10
33.971269
 20
37.681987
 42
-0.007764
 10
34.230041
 20
37.450223
 42
-0.007717
 10
34.487937
 20
37.204439
 42
-0.011777
 10
34.703238
 20
36.982605
 42
-0.01361
 10
34.905645
 20
36.75168
 42
-0.00922
 10
35.124035
 20
36.478293
 42
-0.009294
 10
35.325374
 20
36.206172
 42
-0.018293
 10
35.473247
 20
35.981367
 42
-0.015423
 10
35.606175
 20
35.746159
 42
-0.007697
 10
35.760507
 20
35.440948
 42
-0.007633
 10
35.910751
 20
35.119733
 42
-0.01115
 10
36.032354
 20
34.832068
 42
-0.016665
 10
36.141505
 20
34.527688
 42
-0.009525
 10
36.253897
 20
34.153706
 42
-0.009506
 10
36.35274
 20
33.772779
 42
-0.015556
 10
36.420213
 20
33.446236
 42
-0.015255
 10
36.468952
 20
33.105655
 42
-0.007973
 10
36.509897
 20
32.679062
 42
-0.007922
 10
36.538004
 20
32.239802
 42
-0.012014
 10
36.5472
 20
31.857159
 10
36.5472
 20
30.996282
 10
30.5406
 20
24.995727
 42
0.000505
 10
28.237484
 20
22.690278
 42
0.000835
 10
26.298439
 20
20.738834
 42
0.00004
 10
24.552571
 20
18.975641
 42
0.197609
 10
24.534
 20
18.930486
 42
0.411293
 10
24.560317
 20
18.903905
 42
0.000091
 10
26.509674
 20
18.884802
 42
0.001503
 10
28.680726
 20
18.870448
 42
0.000901
 10
31.2597
 20
18.8658
 10
37.9854
 20
18.8658
 10
37.9854
 20
19.705757
 42
-0.007067
 10
37.991429
 20
20.132294
 42
-0.026891
 10
38.013245
 20
20.39763
 42
-0.044024
 10
38.0528
 20
20.571416
 42
-0.118959
 10
38.118343
 20
20.678657
 42
-0.02687
 10
38.175009
 20
20.729539
 42
-0.029203
 10
38.23531
 20
20.772548
 42
-0.03046
 10
38.290803
 20
20.802883
 42
-0.110284
 10
38.329843
 20
20.8116
 42
-0.390505
 10
38.36245
 20
20.781551
 42
-0.004434
 10
38.385897
 20
20.459834
 42
-0.010313
 10
38.402938
 20
20.066152
 42
-0.005659
 10
38.4084
 20
19.583599
 10
38.4084
 20
18.355598
 10
33.60735
 20
18.359844
 10
28.8063
 20
18.364091
 10
28.1295
 20
17.663195
 10
27.4527
 20
16.9623
 10
33.5862
 20
16.940414
 42
0.000622
 10
35.945329
 20
16.934931
 42
0.001011
 10
37.949048
 20
16.936819
 42
0.000115
 10
39.737487
 20
16.94253
 42
0.090582
 10
39.82545
 20
16.958909
 42
0.296107
 10
39.883216
 20
17.038092
 42
0.00483
 10
39.909007
 20
17.612773
 42
0.007274
 10
39.926641
 20
18.466963
 42
0.001524
 10
39.9312
 20
19.962945
 42
0.001749
 10
39.926391
 20
21.338001
 42
0.006054
 10
39.90939
 20
22.227962
 42
0.002421
 10
39.885825
 20
22.881345
 42
0.402286
 10
39.83868
 20
22.9266
 42
0.14177
 10
39.800386
 20
22.91552
 42
0.071627
 10
39.76184
 20
22.882632
 42
0.062092
 10
39.728865
 20
22.834167
 42
0.054459
 10
39.707018
 20
22.776923
 42
-0.094819
 10
39.673794
 20
22.70723
 42
-0.030325
 10
39.600007
 20
22.618653
 42
-0.029023
 10
39.503977
 20
22.527823
 42
-0.028661
 10
39.397688
 20
22.448315
 42
-0.0503
 10
39.240545
 20
22.365619
 42
-0.032975
 10
39.046046
 20
22.3016
 42
-0.02758
 10
38.809207
 20
22.254352
 42
-0.016277
 10
38.522419
 20
22.222907
 42
0.019037
 10
38.22864
 20
22.189054
 42
0.024173
 10
37.961131
 20
22.134511
 42
0.025849
 10
37.71613
 20
22.058413
 42
0.029053
 10
37.489954
 20
21.959859
 42
0.028188
 10
37.279576
 20
21.837896
 42
0.040334
 10
37.109585
 20
21.705319
 42
0.041606
 10
36.966961
 20
21.550567
 42
0.032858
 10
36.839131
 20
21.362018
 42
0.025016
 10
36.750241
 20
21.191305
 42
0.018139
 10
36.667996
 20
20.99335
 42
0.0184
 10
36.603511
 20
20.799218
 42
0.037662
 10
36.570307
 20
20.642375
 10
36.524922
 20
20.304
 10
32.200311
 20
20.30442
 10
27.8757
 20
20.304839
 10
30.033
 20
22.460039
 42
-0.003085
 10
30.886539
 20
23.30229
 42
-0.005454
 10
31.602627
 20
23.985168
 42
-0.00138
 10
32.22178
 20
24.559656
 42
-0.279663
 10
32.300444
 20
24.575589
 42
0.050293
 10
32.339457
 20
24.565833
 42
0.191141
 10
32.363436
 20
24.571528
 42
0.29128
 10
32.370868
 20
24.589455
 42
0.095215
 10
32.360214
 20
24.617444
 42
-0.341816
 10
32.36655
 20
24.677476
 42
-0.000536
 10
33.16182
 20
25.505939
 42
-0.003601
 10
34.07068
 20
26.437185
 42
-0.002177
 10
35.159823
 20
27.527654
 10
38.009805
 20
30.356357
 10
37.9596
 20
31.907829
 42
0.005477
 10
37.927169
 20
32.656319
 42
0.010195
 10
37.88188
 20
33.261904
 42
0.012464
 10
37.821714
 20
33.761044
 42
0.020575
 10
37.743164
 20
34.1784
 42
0.01366
 10
37.658706
 20
34.50307
 42
0.008043
 10
37.541007
 20
34.88641
 42
0.008042
 10
37.410983
 20
35.265935
 42
0.013606
 10
37.288404
 20
35.578848
 42
0.013075
 10
37.150394
 20
35.882397
 42
0.008042
 10
36.972928
 20
36.232673
 42
0.008061
 10
36.78611
 20
36.573703
 42
0.014264
 10
36.619609
 20
36.847848
 42
0.014055
 10
36.437861
 20
37.112123
 42
0.007945
 10
36.203665
 20
37.422484
 42
0.007925
 10
35.957363
 20
37.728203
 42
0.012893
 10
35.737621
 20
37.978842
 42
0.012337
 10
35.502641
 20
38.221042
 42
0.00713
 10
35.208836
 20
38.501185
 42
0.007122
 10
34.905823
 20
38.77405
 42
0.011858
 10
34.642047
 20
38.994042
 42
0.018505
 10
34.357239
 20
39.203632
 42
0.009572
 10
33.987037
 20
39.445261
 42
0.009503
 10
33.596537
 20
39.679403
 42
0.014224
 10
33.246147
 20
39.867499
 42
0.015775
 10
32.876195
 20
40.038366
 42
0.01059
 10
32.443623
 20
40.211114
 42
0.010652
 10
32.010605
 20
40.363055
 42
0.017907
 10
31.6404
 20
40.469651
 42
0.006705
 10
31.297412
 20
40.550369
 42
0.00561
 10
30.931385
 20
40.627048
 42
0.005666
 10
30.595113
 20
40.689613
 42
0.015413
  0
LWPOLYLINE
  5
5CC
330
1D
100
AcDbEntity
  8
0
100
AcDbPolyline
 90
       40
 70
     1
 43
0.0
 10
16.552284
 20
38.517453
 42
0.005891
 10
16.227137
 20
38.520587
 42
0.008512
 10
15.939756
 20
38.515079
 42
0.004979
 10
15.699299
 20
38.503974
 42
0.125132
 10
15.63685
 20
38.484309
 42
0.05067
 10
15.581164
 20
38.441509
 42
0.001211
 10
15.343682
 20
38.216256
 42
0.002645
 10
15.067039
 20
37.949777
 42
0.001792
 10
14.754568
 20
37.643394
 10
13.954706
 20
36.853472
 10
14.356222
 20
36.445826
 10
14.757738
 20
36.03818
 10
15.438786
 20
36.71569
 42
-0.00999
 10
15.710333
 20
36.975241
 42
-0.014169
 10
15.962747
 20
37.194181
 42
-0.01017
 10
16.179045
 20
37.36408
 42
-0.162787
 10
16.266117
 20
37.3932
 42
-0.103694
 10
16.330163
 20
37.379773
 42
-0.136126
 10
16.376268
 20
37.342193
 42
-0.106642
 10
16.403619
 20
37.278187
 42
-0.047876
 10
16.4124
 20
37.186693
 42
-0.041107
 10
16.405544
 20
37.103445
 42
-0.043433
 10
16.385166
 20
37.024015
 42
-0.047591
 10
16.355296
 20
36.959411
 42
-0.122873
 10
16.319687
 20
36.922886
 42
0.37153
 10
16.304492
 20
36.87475
 42
0.045763
 10
16.361377
 20
36.769911
 42
0.033228
 10
16.470142
 20
36.628323
 42
0.01409
 10
16.633343
 20
36.453013
 10
17.039712
 20
36.04044
 10
17.318256
 20
36.310416
 10
17.5968
 20
36.580391
 10
17.5968
 20
37.536696
 42
0.005439
 10
17.591768
 20
37.999288
 42
0.022004
 10
17.573238
 20
38.280664
 42
0.031507
 10
17.542987
 20
38.454033
 42
0.338014
 10
17.49105
 20
38.496303
 42
0.002077
 10
17.418089
 20
38.498278
 42
0.000097
 10
17.171666
 20
38.503878
 42
0.000161
 10
16.879093
 20
38.510376
 42
0.000115
  0
LWPOLYLINE
  5
5F6
330
1D
100
AcDbEntity
  8
0
100
AcDbPolyline
 90
       34
 70
     1
 43
0.0
 10
8.880757
 20
38.493
 10
7.878355
 20
38.493
 10
7.851928
 20
37.54125
 10
7.8255
 20
36.5895
 10
8.6292
 20
35.765451
 42
0.004906
 10
8.94335
 20
35.449608
 42
0.00757
 10
9.221664
 20
35.183419
 42
0.003137
 10
9.463002
 20
34.962294
 42
0.185457
 10
9.5175
 20
34.941238
 42
0.164377
 10
9.567417
 20
34.957996
 42
0.010882
 10
9.68771
 20
35.05359
 42
0.014809
 10
9.827927
 20
35.177284
 42
0.01048
 10
9.978137
 20
35.323946
 10
10.354174
 20
35.706819
 10
9.660887
 20
36.403727
 42
-0.009764
 10
9.395287
 20
36.681351
 42
-0.0139
 10
9.171253
 20
36.938888
 42
-0.009833
 10
8.996982
 20
37.159547
 42
-0.163641
 10
8.9676
 20
37.246917
 42
-0.086254
 10
8.977308
 20
37.302775
 42
-0.093991
 10
9.005214
 20
37.350229
 42
-0.100276
 10
9.046802
 20
37.381969
 42
-0.113484
 10
9.095648
 20
37.3932
 42
-0.059934
 10
9.156605
 20
37.385867
 42
-0.025415
 10
9.235614
 20
37.362267
 42
-0.024702
 10
9.318362
 20
37.328206
 42
-0.029602
 10
9.392316
 20
37.287895
 42
0.104561
 10
9.499287
 20
37.248862
 42
0.156995
 10
9.59644
 20
37.265532
 42
0.070321
 10
9.717922
 20
37.352588
 42
0.009348
 10
9.942798
 20
37.575448
 10
10.324661
 20
37.968305
 10
10.10391
 20
38.230652
 10
9.883159
 20
38.493
  0
LWPOLYLINE
  5
61A
330
1D
100
AcDbEntity
  8
0
100
AcDbPolyline
 90
       22
 70
     1
 43
0.0
 10
12.712231
 20
37.814495
 42
0.167763
 10
12.671229
 20
37.799116
 42
0.004531
 10
12.522159
 20
37.67347
 42
0.008939
 10
12.348975
 20
37.519332
 42
0.005949
 10
12.155796
 20
37.336804
 10
11.663892
 20
36.860819
 10
12.028896
 20
36.488426
 42
0.016203
 10
12.208697
 20
36.316498
 42
0.044961
 10
12.348777
 20
36.212039
 42
0.068236
 10
12.463879
 20
36.161377
 42
0.134292
 10
12.5631
 20
36.160247
 42
-0.179333
 10
12.67878
 20
36.148723
 42
-0.045702
 10
12.842573
 20
36.049308
 42
-0.02834
 10
13.06955
 20
35.860625
 42
-0.007536
 10
13.4091
 20
35.534478
 10
14.0859
 20
34.864494
 10
14.493098
 20
35.284725
 10
14.900297
 20
35.704956
 10
13.838529
 20
36.760578
 42
0.002918
 10
13.426854
 20
37.16512
 42
0.004653
 10
13.0697
 20
37.50561
 42
0.001196
 10
12.755552
 20
37.798164
 42
0.195911
  0
LWPOLYLINE
  5
632
330
1D
100
AcDbEntity
  8
0
100
AcDbPolyline
 90
       28
 70
     1
 43
0.0
 10
11.3364
 20
36.96054
 42
0.137522
 10
11.309382
 20
36.946789
 42
0.003026
 10
11.200908
 20
36.8457
 42
0.006656
 10
11.0754
 20
36.724113
 42
0.00442
 10
10.93455
 20
36.581481
 42
0.008721
 10
10.796796
 20
36.434448
 42
0.012584
 10
10.680618
 20
36.299343
 42
0.008316
 10
10.58928
 20
36.18368
 42
0.164405
 10
10.575
 20
36.141424
 42
0.191222
 10
10.593351
 20
36.095194
 42
0.001359
 10
10.887245
 20
35.78504
 42
0.004928
 10
11.230494
 20
35.431803
 42
0.003105
 10
11.637961
 20
35.025739
 10
12.700923
 20
33.979515
 10
13.223232
 20
34.501824
 10
13.745541
 20
35.024133
 10
13.349959
 20
35.419715
 42
0.010568
 10
13.13864
 20
35.622284
 42
0.055418
 10
13.008998
 20
35.717287
 42
0.124362
 10
12.915025
 20
35.743723
 42
0.18184
 10
12.834636
 20
35.71592
 42
-0.260782
 10
12.741481
 20
35.698726
 42
-0.07623
 10
12.607493
 20
35.768455
 42
-0.033918
 10
12.403591
 20
35.940137
 42
-0.005954
 10
12.046798
 20
36.292773
 42
0.003548
 10
11.787628
 20
36.5514
 42
0.005695
 10
11.562528
 20
36.767874
 42
0.00155
 10
11.364909
 20
36.952483
 42
0.24094
  0
LWPOLYLINE
  5
650
330
1D
100
AcDbEntity
  8
0
100
AcDbPolyline
 90
       48
 70
     1
 43
0.0
 10
15.884892
 20
36.9702
 42
0.188918
 10
15.865549
 20
36.962621
 42
0.002042
 10
15.759504
 20
36.863642
 42
0.006066
 10
15.638004
 20
36.746493
 42
0.003868
 10
15.499414
 20
36.607448
 42
0.010697
 10
15.363036
 20
36.462408
 42
0.014968
 10
15.247979
 20
36.326721
 42
0.011243
 10
15.1594
 20
36.210416
 42
0.158406
 10
15.1434
 20
36.16118
 42
0.17882
 10
15.162901
 20
36.108397
 42
0.004716
 10
15.329784
 20
35.917057
 42
0.009337
 10
15.534746
 20
35.69498
 42
0.006183
 10
15.7779
 20
35.4474
 42
-0.011071
 10
16.020955
 20
35.195033
 42
-0.015461
 10
16.226016
 20
34.958163
 42
-0.011785
 10
16.383493
 20
34.754859
 42
-0.160222
 10
16.4124
 20
34.666967
 42
-0.091534
 10
16.401344
 20
34.607081
 42
-0.107224
 10
16.369802
 20
34.558807
 42
-0.106374
 10
16.320862
 20
34.527681
 42
-0.08886
 10
16.26012
 20
34.5168
 42
-0.045589
 10
16.195919
 20
34.522666
 42
-0.036902
 10
16.128964
 20
34.540191
 42
-0.038214
 10
16.06921
 20
34.56589
 42
-0.074692
 10
16.02747
 20
34.596429
 42
0.295988
 10
15.970061
 20
34.608379
 42
0.046867
 10
15.862017
 20
34.554311
 42
0.034946
 10
15.719837
 20
34.451185
 42
0.015147
 10
15.54525
 20
34.295676
 42
0.006635
 10
15.391255
 20
34.145984
 42
0.009994
 10
15.261443
 20
34.01112
 42
0.005253
 10
15.156216
 20
33.894904
 42
0.183341
 10
15.1434
 20
33.861126
 42
0.155733
 10
15.153625
 20
33.829095
 42
0.011114
 10
15.210178
 20
33.753169
 42
0.014795
 10
15.283646
 20
33.664517
 42
0.010596
 10
15.370728
 20
33.569679
 42
0.054079
 10
15.536757
 20
33.430186
 42
0.100243
 10
15.698865
 20
33.363383
 42
0.043997
 10
15.95074
 20
33.337314
 42
0.003799
 10
16.597428
 20
33.3324
 10
17.5968
 20
33.3324
 10
17.5968
 20
34.330402
 10
17.5968
 20
35.328403
 10
16.755577
 20
36.149302
 42
0.001639
 10
16.430943
 20
36.464022
 42
0.00266
 10
16.152809
 20
36.729061
 42
0.000408
 10
15.905154
 20
36.962173
 42
0.190854
  0
LWPOLYLINE
  5
682
330
1D
100
AcDbEntity
  8
0
100
AcDbPolyline
 90
       38
 70
     1
 43
0.0
 10
27.811146
 20
35.681332
 10
27.279849
 20
36.207907
 10
26.329925
 20
35.25528
 42
0.004147
 10
25.965826
 20
34.884037
 42
0.006467
 10
25.65904
 20
34.557651
 42
0.002337
 10
25.401244
 20
34.273522
 42
0.185115
 10
25.38
 20
34.218107
 42
0.187214
 10
25.401636
 20
34.162347
 42
0.001941
 10
25.690304
 20
33.848837
 42
0.005888
 10
26.031446
 20
33.489784
 42
0.00375
 10
26.436355
 20
33.079742
 10
27.49271
 20
32.025924
 10
27.874555
 20
32.400676
 42
0.009573
 10
28.020845
 20
32.549853
 42
0.013715
 10
28.144233
 20
32.687992
 42
0.009519
 10
28.240522
 20
32.806436
 42
0.167426
 10
28.2564
 20
32.852525
 42
0.176221
 10
28.238457
 20
32.901854
 42
0.004149
 10
28.076228
 20
33.092124
 42
0.008658
 10
27.878105
 20
33.312786
 42
0.005707
 10
27.64305
 20
33.559916
 42
-0.004205
 10
27.409195
 20
33.804311
 42
-0.006828
 10
27.215144
 20
34.016279
 42
-0.001987
 10
27.051435
 20
34.201559
 42
-0.298163
 10
27.047649
 20
34.228397
 42
-0.012344
 10
27.058969
 20
34.251012
 42
-0.001722
 10
27.083712
 20
34.297155
 42
-0.001969
 10
27.113414
 20
34.351578
 42
-0.00167
 10
27.145211
 20
34.408845
 42
-0.039226
 10
27.193902
 20
34.481783
 42
-0.199445
 10
27.235631
 20
34.505127
 42
-0.174954
 10
27.285159
 20
34.493526
 42
-0.029069
 10
27.365259
 20
34.434557
 42
0.135161
 10
27.458612
 20
34.392417
 42
0.164091
 10
27.552749
 20
34.408571
 42
0.064474
 10
27.68014
 20
34.500287
 42
0.008158
 10
27.924068
 20
34.736383
 10
28.342443
 20
35.154758
  0
LWPOLYLINE
  5
6AA
330
1D
100
AcDbEntity
  8
0
100
AcDbPolyline
 90
       28
 70
     1
 43
0.0
 10
32.843116
 20
35.217632
 10
31.847183
 20
36.21097
 10
30.754838
 20
35.108495
 10
29.662494
 20
34.006019
 10
30.034561
 20
33.626909
 42
0.011808
 10
30.183974
 20
33.481692
 42
0.016331
 10
30.325127
 20
33.359163
 42
0.012885
 10
30.446485
 20
33.265664
 42
0.158991
 10
30.501244
 20
33.2478
 42
0.179058
 10
30.560267
 20
33.269637
 42
0.005537
 10
30.758102
 20
33.443081
 42
0.010215
 10
30.988027
 20
33.657836
 42
0.00682
 10
31.242791
 20
33.912585
 42
-0.003934
 10
31.647789
 20
34.32226
 42
-0.050467
 10
31.814917
 20
34.458081
 42
-0.185854
 10
31.924252
 20
34.481849
 42
-0.172114
 10
32.025605
 20
34.427222
 42
-0.045467
 10
32.08631
 20
34.346483
 42
-0.100016
 10
32.112995
 20
34.274377
 42
-0.106279
 10
32.1088
 20
34.200441
 42
-0.055797
 10
32.074491
 20
34.114524
 42
0.128085
 10
32.049765
 20
34.01198
 42
0.124199
 10
32.077724
 20
33.909079
 42
0.059603
 10
32.174162
 20
33.777227
 42
0.010603
 10
32.387671
 20
33.557817
 10
32.787844
 20
33.163661
 10
33.313447
 20
33.693977
 10
33.839049
 20
34.224293
  0
LWPOLYLINE
  5
6C8
330
1D
100
AcDbEntity
  8
0
100
AcDbPolyline
 90
       38
 70
     1
 43
0.0
 10
8.36655
 20
35.7858
 42
0.179459
 10
8.332399
 20
35.773135
 42
0.010254
 10
8.24748
 20
35.697019
 42
0.014613
 10
8.148862
 20
35.59936
 42
0.010132
 10
8.042964
 20
35.483567
 10
7.7776
 20
35.181335
 10
7.80155
 20
34.278017
 10
7.8255
 20
33.3747
 10
8.7984
 20
33.35135
 10
9.7713
 20
33.328001
 10
10.615949
 20
34.176438
 10
11.460599
 20
35.024875
 10
11.060536
 20
35.424937
 10
10.660474
 20
35.825
 10
10.002515
 20
35.1709
 42
-0.010023
 10
9.707523
 20
34.889167
 42
-0.021116
 10
9.465413
 20
34.685182
 42
-0.023854
 10
9.272856
 20
34.550539
 42
-0.141563
 10
9.156078
 20
34.5168
 42
-0.057397
 10
9.070384
 20
34.52667
 42
-0.126218
 10
9.01231
 20
34.556937
 42
-0.137247
 10
8.978924
 20
34.609431
 42
-0.073549
 10
8.9676
 20
34.686
 42
-0.048028
 10
8.973834
 20
34.750754
 42
-0.068025
 10
8.992451
 20
34.805498
 42
-0.088204
 10
9.019893
 20
34.842385
 42
-0.191087
 10
9.0522
 20
34.8552
 42
0.120457
 10
9.084467
 20
34.863088
 42
0.100711
 10
9.111949
 20
34.885323
 42
0.091805
 10
9.130407
 20
34.91858
 42
0.081076
 10
9.1368
 20
34.957748
 42
0.149576
 10
9.118918
 20
35.016187
 42
0.014804
 10
9.032221
 20
35.136731
 42
0.01763
 10
8.91714
 20
35.27663
 42
0.013101
 10
8.780786
 20
35.423048
 42
0.007622
 10
8.640146
 20
35.562046
 42
0.011263
 10
8.512248
 20
35.679242
 42
0.006662
 10
8.402433
 20
35.772852
 42
0.174898
  0
LWPOLYLINE
  5
6F0
330
1D
100
AcDbEntity
  8
0
100
AcDbPolyline
 90
      106
 70
     1
 43
0.0
 10
15.23036
 20
35.7858
 42
0.193248
 10
15.198367
 20
35.772955
 42
0.000572
 10
14.868225
 20
35.456188
 42
0.003175
 10
14.496254
 20
35.093894
 42
0.001965
 10
14.063575
 20
34.663716
 10
12.9438
 20
33.541632
 10
12.9438
 20
32.728275
 42
-0.00778
 10
12.937781
 20
32.341462
 42
-0.023856
 10
12.917146
 20
32.080213
 42
-0.03319
 10
12.882831
 20
31.904519
 42
-0.155955
 10
12.828125
 20
31.818916
 42
-0.058393
 10
12.766758
 20
31.779054
 42
-0.149034
 10
12.714973
 20
31.770509
 42
-0.139064
 10
12.664893
 20
31.7922
 42
-0.048287
 10
12.608507
 20
31.848156
 42
-0.125183
 10
12.563545
 20
31.942764
 42
-0.020466
 10
12.532238
 20
32.144905
 42
-0.018942
 10
12.512041
 20
32.414242
 42
-0.009743
 10
12.506126
 20
32.752516
 10
12.507688
 20
33.531634
 10
11.953956
 20
34.105199
 10
11.400225
 20
34.678765
 10
11.120811
 20
34.465646
 42
0.020143
 10
11.003716
 20
34.368632
 42
0.015203
 10
10.882909
 20
34.253219
 42
0.015437
 10
10.775899
 20
34.137649
 42
0.034025
 10
10.703302
 20
34.041766
 42
0.05351
 10
10.633164
 20
33.904752
 42
0.193061
 10
10.634629
 20
33.808552
 42
0.091904
 10
10.706444
 20
33.698925
 42
0.007321
 10
10.950803
 20
33.450864
 10
11.3364
 20
33.070722
 10
11.3364
 20
32.263908
 42
0.005584
 10
11.3423
 20
31.735629
 42
0.059315
 10
11.372448
 20
31.522961
 42
0.104063
 10
11.449378
 20
31.370266
 42
0.031502
 10
11.624717
 20
31.177099
 10
11.913035
 20
30.897105
 10
11.624717
 20
30.617657
 10
11.3364
 20
30.338209
 10
11.3364
 20
29.104161
 10
11.3364
 20
27.870113
 10
10.4058
 20
26.948926
 42
0.004827
 10
10.049129
 20
26.588979
 42
0.007452
 10
9.748564
 20
26.270373
 42
0.003058
 10
9.498689
 20
25.994089
 42
0.184329
 10
9.4752
 20
25.932539
 42
0.151347
 10
9.491759
 20
25.879086
 42
0.01624
 10
9.56944
 20
25.773281
 42
0.018806
 10
9.673148
 20
25.650998
 42
0.014077
 10
9.796017
 20
25.524069
 42
0.011895
 10
9.924896
 20
25.404077
 42
0.016309
 10
10.046756
 20
25.302823
 42
0.013034
 10
10.151416
 20
25.22577
 42
0.153324
 10
10.199088
 20
25.2108
 42
0.188043
 10
10.253577
 20
25.232044
 42
0.001709
 10
10.579887
 20
25.534155
 42
0.005518
 10
10.952879
 20
25.889634
 42
0.003501
 10
11.379921
 20
26.311582
 10
12.4785
 20
27.412364
 10
12.506404
 20
28.616402
 42
-0.006498
 10
12.523596
 20
29.091539
 42
-0.009951
 10
12.552033
 20
29.502635
 42
-0.006091
 10
12.586372
 20
29.840967
 42
-0.14587
 10
12.623379
 20
29.927763
 42
-0.05966
 10
12.672248
 20
29.974108
 42
-0.147167
 10
12.718248
 20
29.990768
 42
-0.137982
 10
12.767791
 20
29.979742
 42
-0.049916
 10
12.828125
 20
29.939084
 42
-0.175608
 10
12.886333
 20
29.839829
 42
-0.024094
 10
12.919039
 20
29.59822
 42
-0.017326
 10
12.938517
 20
29.221976
 42
-0.004268
 10
12.9438
 20
28.603147
 10
12.9438
 20
27.363212
 10
13.474826
 20
26.836906
 42
0.005957
 10
13.683238
 20
26.635212
 42
0.009016
 10
13.869776
 20
26.465202
 42
0.004444
 10
14.030551
 20
26.326409
 42
0.177651
 10
14.073641
 20
26.3106
 42
0.174274
 10
14.114021
 20
26.325115
 42
0.00934
 10
14.218979
 20
26.415118
 42
0.01371
 10
14.341173
 20
26.530087
 42
0.009491
 10
14.473215
 20
26.666407
 42
0.012002
 10
14.600295
 20
26.809421
 42
0.01629
 10
14.707538
 20
26.944816
 42
0.013208
 10
14.78889
 20
27.06099
 42
0.14717
 10
14.805
 20
27.114538
 42
0.155387
 10
14.788252
 20
27.167128
 42
0.014601
 10
14.705595
 20
27.276808
 42
0.017616
 10
14.596213
 20
27.404003
 42
0.012958
 10
14.4666
 20
27.5373
 10
14.1282
 20
27.867739
 10
14.1282
 20
29.102974
 10
14.1282
 20
30.338209
 10
13.839685
 20
30.617849
 10
13.55117
 20
30.897488
 10
13.829795
 20
31.142124
 10
14.10842
 20
31.38676
 10
14.121238
 20
32.25383
 10
14.134056
 20
33.1209
 10
15.080411
 20
34.071561
 10
16.026767
 20
35.022221
 10
15.652069
 20
35.404011
 42
0.005856
 10
15.505069
 20
35.550326
 42
0.008899
 10
15.373629
 20
35.673649
 42
0.004282
 10
15.260192
 20
35.774595
 42
0.181616
  0
LWPOLYLINE
  5
75C
330
1D
100
AcDbEntity
  8
0
100
AcDbPolyline
 90
       16
 70
     1
 43
0.0
 10
12.129741
 20
30.7098
 42
-0.184603
 10
12.147702
 20
30.702935
 42
-0.013803
 10
12.186407
 20
30.66631
 42
-0.017649
 10
12.230987
 20
30.618466
 42
-0.012436
 10
12.277791
 20
30.56175
 42
-0.001576
 10
12.352246
 20
30.466194
 42
-0.377591
 10
12.3516
 20
30.456
 42
-0.377591
 10
12.341406
 20
30.455354
 42
-0.001576
 10
12.24585
 20
30.529809
 42
-0.012436
 10
12.189134
 20
30.576613
 42
-0.017649
 10
12.14129
 20
30.621193
 42
-0.013803
 10
12.104665
 20
30.659898
 42
-0.184603
 10
12.0978
 20
30.677859
 42
-0.099038
 10
12.100238
 20
30.690049
 42
-0.097945
 10
12.107183
 20
30.700417
 42
-0.097945
 10
12.117551
 20
30.707362
 42
-0.099038
  0
LWPOLYLINE
  5
76E
330
1D
100
AcDbEntity
  8
0
100
AcDbPolyline
 90
       14
 70
     1
 43
0.0
 10
29.058536
 20
34.854291
 10
28.633972
 20
35.279314
 10
28.003867
 20
34.644975
 10
27.373761
 20
34.010636
 10
27.748095
 20
33.629218
 42
0.009134
 10
27.89685
 20
33.483086
 42
0.013177
 10
28.034045
 20
33.359842
 42
0.008864
 10
28.151675
 20
33.263191
 42
0.169103
 10
28.195881
 20
33.2478
 42
0.17648
 10
28.242926
 20
33.264939
 42
0.004074
 10
28.426028
 20
33.421328
 42
0.008576
 10
28.63832
 20
33.612145
 42
0.005647
 10
28.876216
 20
33.838534
 10
29.4831
 20
34.429268
  0
LWPOLYLINE
  5
77E
330
1D
100
AcDbEntity
  8
0
100
AcDbPolyline
 90
       20
 70
     1
 43
0.0
 10
29.354782
 20
34.0938
 42
0.179998
 10
29.324571
 20
34.08256
 42
0.004833
 10
29.216336
 20
33.987242
 42
0.009485
 10
29.09072
 20
33.870062
 42
0.006284
 10
28.950814
 20
33.731048
 42
0.01068
 10
28.81457
 20
33.58616
 42
0.015058
 10
28.699939
 20
33.450943
 42
0.011179
 10
28.61175
 20
33.33511
 42
0.164399
 10
28.596705
 20
33.286898
 42
0.172394
 10
28.61625
 20
33.235723
 42
0.004944
 10
28.771922
 20
33.056851
 42
0.009471
 10
28.963552
 20
32.849071
 42
0.006313
 10
29.190511
 20
32.618062
 10
29.782411
 20
32.030623
 10
30.204403
 20
32.44627
 10
30.626396
 20
32.861917
 10
30.014565
 20
33.477859
 42
0.003664
 10
29.776581
 20
33.713956
 42
0.005761
 10
29.568374
 20
33.912867
 42
0.001856
 10
29.386434
 20
34.081457
 42
0.188077
  0
LWPOLYLINE
  5
794
330
1D
100
AcDbEntity
  8
0
100
AcDbPolyline
 90
       46
 70
     1
 43
0.0
 10
31.638085
 20
34.0938
 42
0.18044
 10
31.608381
 20
34.08272
 42
0.004681
 10
31.500272
 20
33.987242
 42
0.009326
 10
31.374856
 20
33.870063
 42
0.006167
 10
31.235014
 20
33.731048
 42
0.008224
 10
31.098608
 20
33.587409
 42
0.011982
 10
30.983579
 20
33.456036
 42
0.007576
 10
30.892551
 20
33.34348
 42
0.167773
 10
30.879
 20
33.304233
 42
0.19052
 10
30.895331
 20
33.262929
 42
0.0028
 10
31.078889
 20
33.069281
 42
0.007189
 10
31.298659
 20
32.846516
 42
0.004629
 10
31.559472
 20
32.594357
 42
-0.003223
 10
32.00904
 20
32.162144
 42
-0.059324
 10
32.133259
 20
32.008572
 42
-0.226007
 10
32.146046
 20
31.899838
 42
-0.114983
 10
32.071685
 20
31.780285
 42
-0.025956
 10
31.975585
 20
31.693676
 42
-0.125648
 10
31.909393
 20
31.66319
 42
-0.165586
 10
31.846712
 20
31.672443
 42
-0.054545
 10
31.767907
 20
31.724496
 42
0.130868
 10
31.679458
 20
31.765325
 42
0.160766
 10
31.589944
 20
31.752108
 42
0.068035
 10
31.471035
 20
31.670539
 42
0.009727
 10
31.255694
 20
31.467269
 42
0.011657
 10
31.111401
 20
31.318895
 42
0.016161
 10
30.989654
 20
31.17891
 42
0.012659
 10
30.896623
 20
31.058592
 42
0.159552
 10
30.879
 20
31.004772
 42
0.165082
 10
30.897316
 20
30.950807
 42
0.012083
 10
30.997043
 20
30.827127
 42
0.015823
 10
31.126913
 20
30.683287
 42
0.011288
 10
31.28085
 20
30.530339
 42
0.004863
 10
31.443131
 20
30.379197
 42
0.005885
 10
31.598408
 20
30.240689
 42
0.00504
 10
31.731465
 20
30.127123
 42
0.039732
 10
31.797599
 20
30.080206
 42
0.296508
 10
31.889424
 20
30.083779
 42
0.018968
 10
32.113096
 20
30.254993
 42
0.017777
 10
32.424464
 20
30.531858
 42
0.005405
 10
32.876351
 20
30.972824
 10
33.840204
 20
31.933943
 10
32.762673
 20
33.013872
 42
0.002044
 10
32.346187
 20
33.427885
 42
0.003298
 10
31.987843
 20
33.776571
 42
0.000617
 10
31.670064
 20
34.080978
 42
0.193013
  0
LWPOLYLINE
  5
7C4
330
1D
100
AcDbEntity
  8
0
100
AcDbPolyline
 90
       50
 70
     1
 43
0.0
 10
26.353546
 20
32.9094
 42
0.166529
 10
26.299121
 20
32.890756
 42
0.009565
 10
26.159639
 20
32.778149
 42
0.013735
 10
25.996929
 20
32.633768
 42
0.009599
 10
25.82126
 20
32.46259
 42
0.008689
 10
25.652198
 20
32.285344
 42
0.012573
 10
25.50962
 20
32.122536
 42
0.008245
 10
25.397389
 20
31.983072
 42
0.166803
 10
25.38
 20
31.932397
 42
0.185368
 10
25.400912
 20
31.877928
 42
0.002481
 10
25.647557
 20
31.606781
 42
0.006678
 10
25.941721
 20
31.295061
 42
0.004291
 10
26.290831
 20
30.941007
 42
0.004422
 10
26.645959
 20
30.593188
 42
0.006896
 10
26.958552
 20
30.300593
 42
0.002565
 10
27.230407
 20
30.055613
 42
0.193282
 10
27.284881
 20
30.035947
 42
0.177826
 10
27.339875
 20
30.058383
 42
0.001807
 10
27.654068
 20
30.346977
 42
0.005566
 10
28.013768
 20
30.687284
 42
0.00355
 10
28.424826
 20
31.090633
 10
29.481551
 20
32.142373
 10
29.105161
 20
32.525886
 42
0.011584
 10
28.954145
 20
32.672793
 42
0.016078
 10
28.811758
 20
32.796743
 42
0.01255
 10
28.689393
 20
32.891521
 42
0.159824
 10
28.634889
 20
32.9094
 42
0.178035
 10
28.57658
 20
32.887958
 42
0.005905
 10
28.387211
 20
32.723016
 42
0.010573
 10
28.166971
 20
32.518037
 42
0.007089
 10
27.923564
 20
32.2749
 42
-0.004871
 10
27.68226
 20
32.031715
 42
-0.007523
 10
27.468577
 20
31.826784
 42
-0.003091
 10
27.283226
 20
31.656429
 42
-0.186385
 10
27.24172
 20
31.6404
 42
-0.128085
 10
27.209991
 20
31.648663
 42
-0.033128
 10
27.165299
 20
31.677677
 42
-0.031484
 10
27.11705
 20
31.718729
 42
-0.027544
 10
27.072
 20
31.7673
 42
-0.046725
 10
27.02399
 20
31.837576
 42
-0.130446
 10
27.009538
 20
31.895002
 42
-0.127224
 10
27.02532
 20
31.952932
 42
-0.043441
 10
27.075324
 20
32.025106
 42
0.142039
 10
27.112645
 20
32.110848
 42
0.151995
 10
27.096904
 20
32.200747
 42
0.065204
 10
27.01351
 20
32.321284
 42
0.01014
 10
26.814269
 20
32.532706
 42
0.011437
 10
26.666024
 20
32.677002
 42
0.015911
 10
26.526431
 20
32.798746
 42
0.012328
 10
26.406501
 20
32.891966
 42
0.160375
  0
LWPOLYLINE
  5
7F8
330
1D
100
AcDbEntity
  8
0
100
AcDbPolyline
 90
       14
 70
     1
 43
0.0
 10
30.967136
 20
32.906666
 42
0.167116
 10
30.936496
 20
32.894045
 42
0.001554
 10
30.750766
 20
32.72949
 42
0.005025
 10
30.538327
 20
32.536223
 42
0.003202
 10
30.294921
 20
32.307352
 10
29.668543
 20
31.710771
 10
30.084986
 20
31.294329
 10
30.501428
 20
30.877886
 10
31.131533
 20
31.512225
 10
31.761639
 20
32.146564
 10
31.387305
 20
32.527982
 42
0.006052
 10
31.240525
 20
32.673962
 42
0.009263
 10
31.109468
 20
32.796555
 42
0.0044
 10
30.996341
 20
32.896722
 42
0.196337
  0
LWPOLYLINE
  5
808
330
1D
100
AcDbEntity
  8
0
100
AcDbPolyline
 90
       56
 70
     1
 43
0.0
 10
29.355087
 20
31.809426
 42
0.183104
 10
29.327092
 20
31.798946
 42
0.003355
 10
29.206806
 20
31.691928
 42
0.007815
 10
29.067865
 20
31.562638
 42
0.005084
 10
28.911263
 20
31.409189
 10
28.510852
 20
31.008779
 10
29.201743
 20
30.31428
 42
-0.005093
 10
29.583774
 20
29.92235
 42
-0.037311
 10
29.749964
 20
29.720099
 42
-0.099021
 10
29.807737
 20
29.589274
 42
-0.231818
 10
29.783259
 20
29.48799
 42
-0.042723
 10
29.733561
 20
29.437564
 42
-0.039654
 10
29.674821
 20
29.394913
 42
-0.042111
 10
29.616209
 20
29.36554
 42
-0.095389
 10
29.5677
 20
29.3562
 42
-0.092812
 10
29.519459
 20
29.365233
 42
-0.042584
 10
29.461772
 20
29.393477
 42
-0.040219
 10
29.404345
 20
29.434545
 42
-0.044245
 10
29.3562
 20
29.4831
 42
-0.046725
 10
29.30819
 20
29.553376
 42
-0.130446
 10
29.293738
 20
29.610802
 42
-0.127224
 10
29.30952
 20
29.668732
 42
-0.043441
 10
29.359524
 20
29.740906
 42
0.142039
 10
29.396845
 20
29.826648
 42
0.151995
 10
29.381104
 20
29.916547
 42
0.065204
 10
29.29771
 20
30.037084
 42
0.01014
 10
29.098469
 20
30.248506
 42
0.0089
 10
28.951691
 20
30.39283
 42
0.012887
 10
28.816611
 20
30.514546
 42
0.008517
 10
28.700787
 20
30.610255
 42
0.17
 10
28.658102
 20
30.6252
 42
0.17536
 10
28.61415
 20
30.609296
 42
0.005998
 10
28.472592
 20
30.488512
 42
0.010617
 10
28.307827
 20
30.338186
 42
0.007139
 10
28.125816
 20
30.15988
 42
0.006497
 10
27.948921
 20
29.976869
 42
0.009748
 10
27.7998
 20
29.81221
 42
0.005148
 10
27.679002
 20
29.670565
 42
0.175735
 10
27.6642
 20
29.62975
 42
0.189239
 10
27.681143
 20
29.586586
 42
0.001436
 10
27.944176
 20
29.304796
 42
0.005052
 10
28.251957
 20
28.983528
 42
0.003189
 10
28.617311
 20
28.614533
 10
29.570422
 20
27.664126
 10
30.498438
 20
28.591095
 42
0.003246
 10
30.856408
 20
28.953333
 42
0.004886
 10
31.163319
 20
29.274176
 42
0.002077
 10
31.42136
 20
29.55156
 42
0.106242
 10
31.458692
 20
29.614777
 42
0.263765
 10
31.44598
 20
29.679466
 42
0.003678
 10
31.174135
 20
29.991189
 42
0.009144
 10
30.843434
 20
30.351325
 42
0.005756
 10
30.444715
 20
30.760371
 42
0.001934
 10
30.040495
 20
31.162498
 42
0.003126
 10
29.693073
 20
31.501194
 42
0.000557
 10
29.38464
 20
31.797481
 42
0.192369
  0
LWPOLYLINE
  5
842
330
1D
100
AcDbEntity
  8
0
100
AcDbPolyline
 90
       44
 70
     1
 43
0.0
 10
8.829097
 20
27.6642
 42
0.006711
 10
8.461426
 20
27.659265
 42
0.010445
 10
8.144837
 20
27.644142
 42
0.004972
 10
7.879941
 20
27.623287
 42
0.236442
 10
7.835584
 20
27.595916
 42
0.095569
 10
7.82139
 20
27.55855
 42
0.030813
 10
7.814808
 20
27.499408
 42
0.029449
 10
7.815465
 20
27.431203
 42
0.029094
 10
7.824118
 20
27.363266
 42
-0.032726
 10
7.836498
 20
27.260107
 42
-0.003558
 10
7.847727
 20
27.020813
 42
-0.004348
 10
7.8566
 20
26.735396
 42
-0.003496
 10
7.861327
 20
26.428281
 10
7.8678
 20
25.657662
 10
8.683431
 20
24.842031
 42
0.002126
 10
8.998787
 20
24.529344
 42
0.003425
 10
9.270353
 20
24.265992
 42
0.000666
 10
9.510959
 20
24.036453
 42
0.192457
 10
9.53611
 20
24.0264
 42
0.184307
 10
9.560245
 20
24.03561
 42
0.002676
 10
9.675962
 20
24.140087
 42
0.006939
 10
9.809162
 20
24.265081
 42
0.004473
 10
9.960176
 20
24.413418
 10
10.347194
 20
24.800436
 10
9.657397
 20
25.493835
 42
-0.009813
 10
9.393135
 20
25.770115
 42
-0.013958
 10
9.170228
 20
26.026519
 42
-0.009906
 10
8.996925
 20
26.246212
 42
-0.163455
 10
8.9676
 20
26.333517
 42
-0.089354
 10
8.977661
 20
26.389367
 42
-0.095131
 10
9.006511
 20
26.436829
 42
-0.099855
 10
9.049527
 20
26.468583
 42
-0.109647
 10
9.100062
 20
26.4798
 42
-0.0472
 10
9.161837
 20
26.473955
 42
-0.022965
 10
9.238982
 20
26.455519
 42
-0.022546
 10
9.318142
 20
26.428795
 42
-0.030191
 10
9.386972
 20
26.397142
 42
0.140431
 10
9.484531
 20
26.376107
 42
0.11271
 10
9.587835
 20
26.407064
 42
0.056137
 10
9.721686
 20
26.504201
 42
0.011367
 10
9.934259
 20
26.707322
 10
10.327097
 20
27.10016
 10
10.053753
 20
27.38218
 10
9.780409
 20
27.6642
  0
LWPOLYLINE
  5
870
330
1D
100
AcDbEntity
  8
0
100
AcDbPolyline
 90
       28
 70
     1
 43
0.0
 10
16.622992
 20
27.645631
 10
15.691484
 20
27.669363
 10
14.825853
 20
26.801917
 10
13.960223
 20
25.934471
 10
14.35898
 20
25.529625
 10
14.757738
 20
25.12478
 10
15.438786
 20
25.80229
 42
-0.00999
 10
15.710333
 20
26.061841
 42
-0.014169
 10
15.962747
 20
26.280781
 42
-0.01017
 10
16.179045
 20
26.45068
 42
-0.162787
 10
16.266117
 20
26.4798
 42
-0.101697
 10
16.329075
 20
26.466861
 42
-0.13093
 10
16.37535
 20
26.430517
 42
-0.107654
 10
16.403254
 20
26.369699
 42
-0.053973
 10
16.4124
 20
26.28522
 42
-0.03839
 10
16.406197
 20
26.204557
 42
-0.034898
 10
16.387704
 20
26.123102
 42
-0.036695
 10
16.360622
 20
26.052522
 42
-0.086631
 10
16.328329
 20
26.006569
 42
0.292431
 10
16.315066
 20
25.946242
 42
0.058547
 10
16.367312
 20
25.843275
 42
0.037864
 10
16.475843
 20
25.704071
 42
0.013769
 10
16.649328
 20
25.523518
 10
17.054398
 20
25.124539
 10
17.328502
 20
25.407342
 10
17.602606
 20
25.690145
 10
17.578553
 20
26.656023
 10
17.5545
 20
27.6219
  0
LWPOLYLINE
  5
88E
330
1D
100
AcDbEntity
  8
0
100
AcDbPolyline
 90
       28
 70
     1
 43
0.0
 10
12.7746
 20
26.895559
 42
0.225282
 10
12.689243
 20
26.898754
 42
0.057004
 10
12.565457
 20
26.827938
 42
0.035152
 10
12.397944
 20
26.685754
 42
0.010543
 10
12.163515
 20
26.446703
 10
11.67933
 20
25.931689
 10
12.036615
 20
25.567471
 42
0.015462
 10
12.222792
 20
25.389065
 42
0.052426
 10
12.358714
 20
25.290295
 42
0.084153
 10
12.473038
 20
25.247818
 42
0.108749
 10
12.584635
 20
25.251035
 42
-0.151224
 10
12.710997
 20
25.244115
 42
-0.06954
 10
12.85766
 20
25.16518
 42
-0.035784
 10
13.058643
 20
24.994468
 42
-0.007296
 10
13.387286
 20
24.662608
 42
0.004284
 10
13.625885
 20
24.418754
 42
0.006684
 10
13.835941
 20
24.213286
 42
0.002444
 10
14.01886
 20
24.040784
 42
0.190043
 10
14.055337
 20
24.0264
 42
0.177914
 10
14.09049
 20
24.039317
 42
0.005363
 10
14.210135
 20
24.143203
 42
0.010014
 10
14.349193
 20
24.271653
 42
0.006679
 10
14.503481
 20
24.424026
 10
14.895491
 20
24.821653
 10
13.898495
 20
25.825527
 42
0.002855
 10
13.507283
 20
26.214964
 42
0.004141
 10
13.157091
 20
26.553947
 42
0.00215
 10
12.857118
 20
26.837095
 42
0.068024
  0
LWPOLYLINE
  5
8AC
330
1D
100
AcDbEntity
  8
0
100
AcDbPolyline
 90
       32
 70
     1
 43
0.0
 10
11.331097
 20
26.0568
 42
0.181909
 10
11.303096
 20
26.046264
 42
0.004184
 10
11.195395
 20
25.950242
 42
0.008791
 10
11.070642
 20
25.833068
 42
0.005777
 10
10.931014
 20
25.694048
 42
0.008216
 10
10.794608
 20
25.550413
 42
0.011972
 10
10.679579
 20
25.419055
 42
0.007564
 10
10.588541
 20
25.30651
 42
0.167804
 10
10.575
 20
25.267297
 42
0.192444
 10
10.592098
 20
25.224519
 42
0.001144
 10
10.890911
 20
24.911866
 42
0.004519
 10
11.238179
 20
24.556657
 42
0.002834
 10
11.650442
 20
24.147188
 10
12.725884
 20
23.091076
 10
13.234489
 20
23.599681
 10
13.743093
 20
24.108285
 10
13.368132
 20
24.490343
 42
0.01351
 10
13.216547
 20
24.636671
 42
0.018191
 10
13.071213
 20
24.760171
 42
0.015412
 10
12.94571
 20
24.853061
 42
0.152756
 10
12.883886
 20
24.8724
 42
0.093977
 10
12.84217
 20
24.864489
 42
0.096611
 10
12.806703
 20
24.841885
 42
0.099042
 10
12.782963
 20
24.808156
 42
0.104341
 10
12.7746
 20
24.768518
 42
-0.625061
 10
12.746814
 20
24.754975
 42
-0.009648
 10
12.569058
 20
24.899625
 42
-0.013096
 10
12.343396
 20
25.100988
 42
-0.007012
 10
12.074883
 20
25.360718
 42
0.002946
 10
11.803477
 20
25.627551
 42
0.004683
 10
11.567763
 20
25.852326
 42
0.001242
 10
11.360612
 20
26.045228
 42
0.189033
  0
LWPOLYLINE
  5
8CE
330
1D
100
AcDbEntity
  8
0
100
AcDbPolyline
 90
       46
 70
     1
 43
0.0
 10
15.902042
 20
26.0568
 42
0.183619
 10
15.87179
 20
26.045303
 42
0.004858
 10
15.763637
 20
25.94732
 42
0.009573
 10
15.638221
 20
25.826928
 42
0.00633
 10
15.498605
 20
25.684101
 42
0.007562
 10
15.362503
 20
25.536902
 42
0.011099
 10
15.247741
 20
25.403094
 42
0.006668
 10
15.156284
 20
25.288455
 42
0.166528
 10
15.1434
 20
25.250844
 42
0.18362
 10
15.158419
 20
25.211327
 42
0.002637
 10
15.329784
 20
25.020478
 42
0.006875
 10
15.534708
 20
24.80081
 42
0.00443
 10
15.7779
 20
24.551659
 42
-0.01126
 10
16.02095
 20
24.295752
 42
-0.015644
 10
16.226016
 20
24.055151
 42
-0.012078
 10
16.383116
 20
23.848663
 42
-0.157851
 10
16.4124
 20
23.758216
 42
-0.086028
 10
16.401554
 20
23.695648
 42
-0.108896
 10
16.370446
 20
23.646052
 42
-0.109966
 10
16.321646
 20
23.614454
 42
-0.089123
 10
16.26012
 20
23.6034
 42
-0.048697
 10
16.195529
 20
23.609706
 42
-0.037764
 10
16.127403
 20
23.62857
 42
-0.038836
 10
16.065984
 20
23.656237
 42
-0.071248
 10
16.022156
 20
23.689084
 42
0.268066
 10
15.960613
 20
23.70556
 42
0.06542
 10
15.859742
 20
23.663755
 42
0.040608
 10
15.721984
 20
23.568553
 42
0.01421
 10
15.539936
 20
23.410709
 42
0.008487
 10
15.387998
 20
23.266387
 42
0.01247
 10
15.259882
 20
23.134048
 42
0.007827
 10
15.158355
 20
23.020278
 42
0.180146
 10
15.1434
 20
22.980117
 42
0.154658
 10
15.155527
 20
22.94185
 42
0.013693
 10
15.216866
 20
22.859662
 42
0.016874
 10
15.297703
 20
22.764132
 42
0.012344
 10
15.393498
 20
22.663487
 10
15.643595
 20
22.413389
 10
16.599048
 20
22.437345
 10
17.5545
 20
22.4613
 10
17.578577
 20
23.429748
 10
17.602654
 20
24.398197
 10
16.776464
 20
25.227498
 42
0.002731
 10
16.45627
 20
25.545407
 42
0.004359
 10
16.178799
 20
25.813193
 42
0.001073
 10
15.934419
 20
26.043969
 42
0.190928
  0
LWPOLYLINE
  5
8FE
330
1D
100
AcDbEntity
  8
0
100
AcDbPolyline
 90
       34
 70
     1
 43
0.0
 10
8.374381
 20
24.8724
 42
0.172823
 10
8.343832
 20
24.861516
 42
0.008033
 10
8.258482
 20
24.78954
 42
0.012509
 10
8.159003
 20
24.6984
 42
0.008582
 10
8.050591
 20
24.590323
 10
7.777191
 20
24.308245
 10
7.801346
 20
23.384773
 10
7.8255
 20
22.4613
 10
8.7984
 20
22.43795
 10
9.7713
 20
22.414601
 10
10.615949
 20
23.263038
 10
11.460599
 20
24.111475
 10
11.062819
 20
24.509255
 10
10.665039
 20
24.907035
 10
9.995235
 20
24.255217
 42
-0.010526
 10
9.70807
 20
23.9873
 42
-0.018693
 10
9.459018
 20
23.780782
 42
-0.018304
 10
9.255547
 20
23.636038
 42
-0.146462
 10
9.146515
 20
23.6034
 42
-0.063911
 10
9.069878
 20
23.613236
 42
-0.11294
 10
9.013599
 20
23.642551
 42
-0.126024
 10
8.979555
 20
23.690754
 42
-0.091301
 10
8.9676
 20
23.75568
 42
-0.056547
 10
8.975062
 20
23.821448
 42
-0.038837
 10
8.997524
 20
23.893152
 42
-0.039114
 10
9.030451
 20
23.95971
 42
-0.06203
 10
9.06947
 20
24.00983
 42
0.206763
 10
9.097478
 20
24.080441
 42
0.121211
 10
9.072691
 20
24.169518
 42
0.054473
 10
8.982909
 20
24.294883
 42
0.011425
 10
8.798056
 20
24.49205
 42
0.006298
 10
8.651356
 20
24.637808
 42
0.009504
 10
8.519622
 20
24.760672
 42
0.004851
 10
8.406121
 20
24.860595
 42
0.179945
  0
LWPOLYLINE
  5
922
330
1D
100
AcDbEntity
  8
0
100
AcDbPolyline
 90
       36
 70
     1
 43
0.0
 10
15.23036
 20
24.8724
 42
0.193248
 10
15.198367
 20
24.859555
 42
0.000572
 10
14.868225
 20
24.542788
 42
0.003175
 10
14.496254
 20
24.180494
 42
0.001965
 10
14.063575
 20
23.750316
 10
12.9438
 20
22.628232
 10
12.9438
 20
18.378216
 42
0.000937
 10
12.946855
 20
16.748545
 42
0.001564
 10
12.95629
 20
15.376642
 42
0.000099
 10
12.968851
 20
14.145489
 42
0.411171
 10
12.98632
 20
14.1282
 42
0.189092
 10
13.012642
 20
14.138524
 42
0.005295
 10
13.102827
 20
14.223919
 42
0.010135
 10
13.207333
 20
14.329179
 42
0.006707
 10
13.323229
 20
14.454053
 42
-0.027601
 10
13.462189
 20
14.591767
 42
-0.017748
 10
13.637196
 20
14.736271
 42
-0.01784
 10
13.819097
 20
14.86587
 42
-0.031725
 10
13.978658
 20
14.957217
 42
-0.006018
 10
14.128947
 20
15.028793
 42
-0.005894
 10
14.281951
 20
15.09724
 42
-0.005817
 10
14.41758
 20
15.154141
 42
-0.022092
 10
14.50415
 20
15.184902
 42
0.050981
 10
14.584948
 20
15.218979
 42
0.401585
 10
14.596103
 20
15.254281
 42
0.134121
 10
14.555002
 20
15.300736
 42
0.008359
 10
14.3984
 20
15.399595
 10
14.1282
 20
15.563913
 10
14.1282
 20
18.884383
 10
14.1282
 20
22.204852
 10
15.077484
 20
23.156837
 10
16.026767
 20
24.108821
 10
15.652069
 20
24.490611
 42
0.005856
 10
15.505069
 20
24.636926
 42
0.008899
 10
15.373629
 20
24.760249
 42
0.004282
 10
15.260192
 20
24.861195
 42
0.181616
  0
LWPOLYLINE
  5
948
330
1D
100
AcDbEntity
  8
0
100
AcDbPolyline
 90
      154
 70
     1
 43
0.0
 10
11.920669
 20
23.223064
 10
11.362839
 20
23.775345
 10
10.968919
 20
23.40851
 42
0.01098
 10
10.818015
 20
23.261663
 42
0.01551
 10
10.690714
 20
23.123928
 42
0.011601
 10
10.592584
 20
23.005473
 42
0.168731
 10
10.575
 20
22.954849
 42
0.169272
 10
10.59246
 20
22.904753
 42
0.012537
 10
10.686831
 20
22.791753
 42
0.016292
 10
10.809864
 20
22.660598
 42
0.011601
 10
10.9557
 20
22.521555
 10
11.3364
 20
22.175087
 10
11.3364
 20
17.726529
 10
11.3364
 20
13.27797
 10
11.585876
 20
13.228075
 42
-0.040723
 10
11.69146
 20
13.197851
 42
-0.03011
 10
11.802422
 20
13.148246
 42
-0.030718
 10
11.902174
 20
13.088178
 42
-0.058015
 10
11.972726
 20
13.026382
 42
-0.037596
 10
12.046593
 20
12.931285
 42
-0.147634
 10
12.067742
 20
12.860954
 42
-0.11269
 10
12.049175
 20
12.780011
 42
-0.01766
 10
11.972314
 20
12.634242
 42
-0.010427
 10
11.899632
 20
12.513374
 42
-0.003518
 10
11.788833
 20
12.340244
 42
-0.003497
 10
11.663597
 20
12.150472
 42
-0.004005
 10
11.541186
 20
11.9709
 42
0.021564
 10
11.419722
 20
11.77854
 42
0.014551
 10
11.297317
 20
11.549602
 42
0.014675
 10
11.191707
 20
11.320864
 42
0.028075
 10
11.122922
 20
11.130695
 42
0.014841
 10
11.075128
 20
10.951932
 42
0.012431
 10
11.034834
 20
10.759788
 42
0.012616
 10
11.006799
 20
10.582246
 42
0.033313
 10
10.998472
 20
10.453895
 42
0.024674
 10
11.004687
 20
10.332513
 42
0.012431
 10
11.023862
 20
10.180348
 42
0.012314
 10
11.051529
 20
10.023726
 42
0.017869
 10
11.084243
 20
9.887209
 42
0.0379
 10
11.135051
 20
9.746582
 42
0.018596
 10
11.219565
 20
9.575851
 42
0.018333
 10
11.321014
 20
9.404086
 42
0.02534
 10
11.425129
 20
9.258504
 42
0.02215
 10
11.545676
 20
9.119889
 42
0.014065
 10
11.697423
 20
8.968994
 42
0.014126
 10
11.855043
 20
8.829012
 42
0.025281
 10
11.99318
 20
8.724565
 42
0.040075
 10
12.185314
 20
8.615388
 42
0.048721
 10
12.380465
 20
8.546516
 42
0.035899
 10
12.628516
 20
8.503902
 42
0.011483
 10
13.00182
 20
8.4757
 42
0.010188
 10
13.393357
 20
8.463142
 42
0.038214
 10
13.638596
 20
8.479032
 42
0.051797
 10
13.838566
 20
8.528943
 42
0.031869
 10
14.061147
 20
8.626164
 42
0.021134
 10
14.220864
 20
8.717145
 42
0.013012
 10
14.401147
 20
8.836833
 42
0.013042
 10
14.573554
 20
8.964712
 42
0.022693
 10
14.708635
 20
9.080734
 42
0.032135
 10
14.829154
 20
9.209707
 42
0.019072
 10
14.956393
 20
9.377381
 42
0.019043
 10
15.070998
 20
9.555037
 42
0.030935
 10
15.152785
 20
9.714864
 42
0.036237
 10
15.225544
 20
9.921408
 42
0.028441
 10
15.274912
 20
10.15373
 42
0.024131
 10
15.303393
 20
10.425909
 42
0.014003
 10
15.3126
 20
10.754584
 42
0.012791
 10
15.303828
 20
11.097408
 42
0.029208
 10
15.27555
 20
11.354479
 42
0.036871
 10
15.223465
 20
11.565788
 42
0.039111
 10
15.14164
 20
11.76285
 42
0.013648
 10
15.04831
 20
11.934081
 42
0.004203
 10
14.89845
 20
12.187095
 42
0.004201
 10
14.72596
 20
12.467458
 42
0.004599
 10
14.55383
 20
12.736509
 42
-0.005576
 10
14.390377
 20
12.9931
 42
-0.006885
 10
14.24404
 20
13.235974
 42
-0.005769
 10
14.126542
 20
13.44264
 42
-0.049565
 10
14.084589
 20
13.540129
 42
0.040701
 10
14.05872
 20
13.603298
 42
0.050508
 10
14.024411
 20
13.65671
 42
0.05903
 10
13.987298
 20
13.693497
 42
0.167297
 10
13.953299
 20
13.7052
 42
0.282348
 10
13.922841
 20
13.686511
 42
0.050143
 10
13.897577
 20
13.621345
 42
0.041315
 10
13.88012
 20
13.529124
 42
0.026129
 10
13.8744
 20
13.419736
 42
-0.033583
 10
13.865282
 20
13.284139
 42
-0.015435
 10
13.836157
 20
13.109386
 42
-0.015208
 10
13.79407
 20
12.926705
 42
-0.020336
 10
13.74421
 20
12.764086
 42
-0.019051
 10
13.678943
 20
12.598896
 42
-0.011412
 10
13.589573
 20
12.407674
 42
-0.011419
 10
13.491794
 20
12.221159
 42
-0.019442
 10
13.400608
 20
12.070604
 10
13.187197
 20
11.747308
 10
13.540554
 20
11.363961
 42
-0.014308
 10
13.752123
 20
11.120831
 42
-0.080366
 10
13.838528
 20
10.972376
 42
-0.09135
 10
13.868313
 20
10.812788
 42
-0.021269
 10
13.85731
 20
10.53926
 42
-0.027218
 10
13.831236
 20
10.350356
 42
-0.024988
 10
13.784298
 20
10.159831
 42
-0.026125
 10
13.723953
 20
9.991252
 42
-0.057895
 10
13.657205
 20
9.872382
 42
-0.047435
 10
13.570558
 20
9.77401
 42
-0.022562
 10
13.442324
 20
9.664063
 42
-0.02213
 10
13.296844
 20
9.560334
 42
-0.029214
 10
13.1553
 20
9.479903
 42
-0.025045
 10
12.968493
 20
9.399099
 42
-0.055619
 10
12.818328
 20
9.361228
 42
-0.058841
 10
12.668864
 20
9.358481
 42
-0.031152
 10
12.485665
 20
9.388318
 42
-0.047199
 10
12.334516
 20
9.438083
 42
-0.029156
 10
12.167635
 20
9.522997
 42
-0.028501
 10
12.005903
 20
9.630344
 42
-0.035625
 10
11.86979
 20
9.74833
 42
-0.03329
 10
11.750603
 20
9.88454
 42
-0.032908
 10
11.650045
 20
10.035871
 42
-0.034771
 10
11.576097
 20
10.188491
 42
-0.055257
 10
11.537242
 20
10.328191
 42
-0.038904
 10
11.525689
 20
10.466881
 42
-0.019832
 10
11.531693
 20
10.641737
 42
-0.019578
 10
11.552234
 20
10.822526
 42
-0.027695
 10
11.585627
 20
10.981017
 42
-0.036704
 10
11.64087
 20
11.13899
 42
-0.021684
 10
11.728384
 20
11.318711
 42
-0.021624
 10
11.831896
 20
11.491494
 42
-0.034399
 10
11.936389
 20
11.628445
 42
-0.034655
 10
12.055621
 20
11.746629
 42
-0.024834
 10
12.203705
 20
11.862044
 42
-0.025219
 10
12.356503
 20
11.958257
 42
-0.048227
 10
12.489063
 20
12.016686
 42
-0.028094
 10
12.618427
 20
12.05146
 42
-0.022649
 10
12.760532
 20
12.074559
 42
-0.023202
 10
12.894015
 20
12.083844
 42
-0.053034
 10
12.994454
 20
12.075497
 42
0.036077
 10
13.077127
 20
12.0658
 42
0.04515
 10
13.154247
 20
12.069319
 42
0.051738
 10
13.215573
 20
12.084276
 42
0.170272
 10
13.247491
 20
12.110082
 42
0.243933
 10
13.250747
 20
12.153393
 42
0.037312
 10
13.209657
 20
12.232695
 42
0.034629
 10
13.142539
 20
12.326339
 42
0.023577
 10
13.054308
 20
12.423307
 42
0.015817
 10
12.953541
 20
12.517893
 42
0.016542
 10
12.848452
 20
12.60446
 42
0.016431
 10
12.753045
 20
12.67302
 42
0.067301
 10
12.689187
 20
12.70433
 42
-0.308817
 10
12.611896
 20
12.805939
 42
-0.0044
 10
12.577792
 20
13.609087
 42
-0.005575
 10
12.548634
 20
14.905608
 42
-0.000703
 10
12.5208
 20
17.70855
 10
12.4785
 20
22.670783
  0
LWPOLYLINE
  5
9E4
330
1D
100
AcDbEntity
  8
0
100
AcDbPolyline
 90
      152
 70
     1
 43
0.0
 10
21.59151
 20
20.302224
 42
0.154663
 10
21.552499
 20
20.335904
 42
0.365941
 10
21.518382
 20
20.325488
 42
0.087646
 10
21.48771
 20
20.252541
 42
0.012121
 10
21.455087
 20
20.090724
 42
-0.009753
 10
21.423615
 20
19.930708
 42
-0.004526
 10
21.37683
 20
19.724167
 42
-0.004482
 10
21.323769
 20
19.508066
 42
-0.006229
 10
21.27211
 20
19.315576
 42
-0.025694
 10
21.208978
 20
19.12885
 42
-0.019279
 10
21.12129
 20
18.930341
 42
-0.019612
 10
21.02398
 20
18.749532
 42
-0.041663
 10
20.932196
 20
18.619937
 10
20.715848
 20
18.362822
 10
21.002916
 20
18.110773
 42
-0.03954
 10
21.121931
 20
17.988336
 42
-0.027664
 10
21.236427
 20
17.833547
 42
-0.027892
 10
21.331584
 20
17.669561
 42
-0.044761
 10
21.391617
 20
17.519503
 42
-0.029701
 10
21.426342
 20
17.372331
 42
-0.02375
 10
21.446633
 20
17.210635
 42
-0.024341
 10
21.450989
 20
17.058782
 42
-0.054389
 10
21.436188
 20
16.94439
 42
-0.032985
 10
21.40265
 20
16.837221
 42
-0.017438
 10
21.34785
 20
16.709077
 42
-0.017278
 10
21.282393
 20
16.581335
 42
-0.025511
 10
21.215593
 20
16.474573
 42
-0.036224
 10
21.13533
 20
16.37583
 42
-0.02291
 10
21.028738
 20
16.272461
 42
-0.022981
 10
20.914048
 20
16.180041
 42
-0.038789
 10
20.809132
 20
16.115023
 42
-0.03699
 10
20.696285
 20
16.066873
 42
-0.022649
 10
20.557327
 20
16.026302
 42
-0.022651
 10
20.415301
 20
15.998474
 42
-0.037064
 10
20.293058
 20
15.9894
 42
-0.027989
 10
20.169638
 20
15.996314
 42
-0.016621
 10
20.023831
 20
16.01763
 42
-0.016608
 10
19.879393
 20
16.04866
 42
-0.027372
 10
19.760106
 20
16.085502
 42
-0.046175
 10
19.64603
 20
16.140127
 42
-0.025489
 10
19.517467
 20
16.226174
 42
-0.02521
 10
19.394996
 20
16.327502
 42
-0.036731
 10
19.298934
 20
16.429434
 42
-0.047386
 10
19.215968
 20
16.553985
 42
-0.029864
 10
19.142551
 20
16.71272
 42
-0.029189
 10
19.086414
 20
16.884917
 42
-0.03615
 10
19.055483
 20
17.050646
 42
-0.034459
 10
19.046513
 20
17.25745
 42
-0.047586
 10
19.068861
 20
17.441797
 42
-0.041186
 10
19.12899
 20
17.637515
 42
-0.018657
 10
19.23785
 20
17.882795
 42
-0.024062
 10
19.340715
 20
18.069695
 42
-0.021927
 10
19.464079
 20
18.251929
 42
-0.022519
 10
19.588827
 20
18.404947
 42
-0.063554
 10
19.692802
 20
18.495199
 42
-0.056555
 10
19.811849
 20
18.556412
 42
-0.0256
 10
19.979047
 20
18.61011
 42
-0.024694
 10
20.165481
 20
18.649883
 42
-0.028457
 10
20.3463
 20
18.668741
 42
0.000607
 10
20.51029
 20
18.676656
 42
0.000925
 10
20.652662
 20
18.683966
 42
0.000322
 10
20.775575
 20
18.690583
 42
0.024453
 10
20.795233
 20
18.692622
 42
0.4931
 10
20.80067
 20
18.702519
 42
0.008138
 10
20.770444
 20
18.768401
 42
0.013859
 10
20.728854
 20
18.849444
 42
0.007927
 10
20.674428
 20
18.945007
 42
0.041553
 10
20.604618
 20
19.043495
 42
0.036188
 10
20.516409
 20
19.134095
 42
0.037886
 10
20.424018
 20
19.204432
 42
0.082448
 10
20.342549
 20
19.239882
 42
-0.090028
 10
20.251078
 20
19.281332
 42
-0.108651
 10
20.186973
 20
19.350242
 42
-0.075437
 10
20.142791
 20
19.46014
 42
-0.024588
 10
20.110971
 20
19.632557
 42
0.034938
 10
20.081707
 20
19.774601
 42
0.034282
 10
20.032819
 20
19.91212
 42
0.036426
 10
19.972623
 20
20.026925
 42
0.091899
 10
19.909317
 20
20.096392
 42
0.018486
 10
19.84482
 20
20.141617
 42
0.020585
 10
19.779382
 20
20.180256
 42
0.020422
 10
19.721347
 20
20.20839
 42
0.093183
 10
19.684949
 20
20.216709
 42
0.283971
 10
19.662913
 20
20.204253
 42
0.10378
 10
19.65201
 20
20.168517
 42
0.064314
 10
19.654143
 20
20.114063
 42
0.034946
 10
19.669922
 20
20.048872
 42
-0.07513
 10
19.68375
 20
19.961716
 42
-0.026861
 10
19.677904
 20
19.835634
 42
-0.025936
 10
19.656512
 20
19.695892
 42
-0.027823
 10
19.621093
 20
19.562422
 42
-0.025936
 10
19.565287
 20
19.417201
 42
-0.013048
 10
19.480765
 20
19.239897
 42
-0.01292
 10
19.383624
 20
19.060709
 42
-0.018683
 10
19.287951
 20
18.9081
 42
0.011782
 10
19.183821
 20
18.746983
 42
0.005959
 10
19.059908
 20
18.539462
 42
0.005915
 10
18.936977
 20
18.322015
 42
0.008766
 10
18.834881
 20
18.128362
 42
0.024232
 10
18.722884
 20
17.877026
 42
0.040159
 10
18.656433
 20
17.654721
 42
0.036392
 10
18.622551
 20
17.409755
 42
0.016173
 10
18.612
 20
17.083648
 42
0.016494
 10
18.620869
 20
16.814868
 42
0.020766
 10
18.647583
 20
16.56731
 42
0.023011
 10
18.68932
 20
16.356033
 42
0.050547
 10
18.744511
 20
16.201024
 42
0.03407
 10
18.816526
 20
16.072634
 42
0.015621
 10
18.92664
 20
15.915264
 42
0.015387
 10
19.053329
 20
15.756187
 42
0.020524
 10
19.178443
 20
15.620357
 42
0.036687
 10
19.325995
 20
15.493003
 42
0.02287
 10
19.515538
 20
15.365274
 42
0.022766
 10
19.717866
 20
15.254287
 42
0.033893
 10
19.904703
 20
15.177827
 42
0.026385
 10
20.1317
 20
15.115511
 42
0.030027
 10
20.354426
 20
15.080679
 42
0.028162
 10
20.591532
 20
15.071479
 42
0.018899
 10
20.862418
 20
15.086479
 42
0.024368
 10
21.106642
 20
15.121353
 42
0.0197
 10
21.364557
 20
15.181731
 42
0.020045
 10
21.610315
 20
15.260303
 42
0.029884
 10
21.817301
 20
15.350087
 42
0.027207
 10
21.994194
 20
15.452175
 42
0.020604
 10
22.176764
 20
15.582245
 42
0.020988
 10
22.338403
 20
15.719
 42
0.044683
 10
22.4484
 20
15.840117
 42
0.034278
 10
22.537355
 20
15.976045
 42
0.016939
 10
22.632146
 20
16.159427
 42
0.016725
 10
22.718026
 20
16.357149
 42
0.023441
 10
22.780303
 20
16.5393
 10
22.903115
 20
16.9623
 10
24.01265
 20
16.9623
 10
25.122186
 20
16.9623
 10
25.800993
 20
17.637115
 42
0.00352
 10
26.061191
 20
17.899451
 42
0.005548
 10
26.2804
 20
18.12863
 42
0.001725
 10
26.466657
 20
18.329114
 42
0.188479
 10
26.4798
 20
18.362743
 42
0.384908
 10
26.461538
 20
18.382951
 42
0.006517
 10
26.299628
 20
18.397244
 42
0.012908
 10
26.101626
 20
18.406993
 42
0.007769
 10
25.86645
 20
18.408839
 42
-0.002967
 10
25.545881
 20
18.408277
 42
-0.00088
 10
25.055558
 20
18.411189
 42
-0.000883
 10
24.504539
 20
18.416405
 42
-0.000952
 10
23.967266
 20
18.423462
 10
22.681433
 20
18.4428
 10
22.174976
 20
19.30995
 42
0.000313
 10
21.975371
 20
19.651222
 42
0.000424
 10
21.79467
 20
19.95913
 42
0.000281
 10
21.642564
 20
20.217476
 42
0.004758
  0
LWPOLYLINE
  5
A7E
330
1D
100
AcDbEntity
  8
0
100
AcDbPolyline
 90
      278
 70
     1
 43
0.0
 10
28.014307
 20
18.7812
 10
27.010815
 20
18.7812
 10
23.832259
 20
15.561576
 42
0.002033
 10
22.620513
 20
14.324149
 42
0.00344
 10
21.616808
 20
13.27647
 42
0.00052
 10
20.743187
 20
12.349993
 42
0.533541
 10
20.753802
 20
12.303666
 42
0.090593
 10
20.836641
 20
12.288195
 42
0.000162
 10
22.253443
 20
12.283076
 42
0.001205
 10
23.846252
 20
12.281678
 42
0.000745
 10
25.7184
 20
12.287339
 10
30.5829
 20
12.3093
 10
30.60721
 20
13.19456
 42
-0.007781
 10
30.623926
 20
13.58294
 42
-0.018541
 10
30.651508
 20
13.870416
 42
-0.018631
 10
30.686963
 20
14.076975
 42
-0.202046
 10
30.73411
 20
14.145014
 42
-0.038112
 10
30.781113
 20
14.170081
 42
-0.026208
 10
30.837628
 20
14.191439
 42
-0.026503
 10
30.894534
 20
14.206329
 42
-0.047708
 10
30.94245
 20
14.211505
 42
-0.36456
 10
30.995841
 20
14.167714
 42
-0.023893
 10
31.025185
 20
13.954747
 42
-0.018146
 10
31.043373
 20
13.610979
 42
-0.004143
 10
31.0482
 20
13.0284
 10
31.0482
 20
11.844
 10
25.221802
 20
11.844
 10
19.395405
 20
11.844
 10
19.35379
 20
12.20355
 42
0.028903
 10
19.324912
 20
12.368789
 42
0.015239
 10
19.271088
 20
12.570076
 42
0.015113
 10
19.203249
 20
12.773438
 42
0.022504
 10
19.130691
 20
12.946397
 42
0.018494
 10
19.042796
 20
13.115563
 42
0.011475
 10
18.927887
 20
13.307643
 42
0.011508
 10
18.805582
 20
13.492264
 42
0.02032
 10
18.695141
 20
13.637922
 42
0.017676
 10
18.573459
 20
13.775345
 42
0.009827
 10
18.416113
 20
13.934487
 42
0.009792
 10
18.250331
 20
14.089498
 42
0.015601
 10
18.102031
 20
14.214677
 10
17.762987
 20
14.483204
 10
17.678599
 20
14.242252
 42
-0.067404
 10
17.623946
 20
14.135054
 42
-0.030469
 10
17.526188
 20
14.0109
 42
-0.029481
 10
17.4054
 20
13.890468
 42
-0.03556
 10
17.278255
 20
13.793029
 42
0.006025
 10
17.133609
 20
13.69516
 42
0.003298
 10
16.958589
 20
13.571921
 42
0.003287
 10
16.782462
 20
13.444402
 42
0.005234
 10
16.63371
 20
13.332788
 42
0.035234
 10
16.496484
 20
13.211306
 42
0.023156
 10
16.355817
 20
13.053944
 42
0.023312
 10
16.232543
 20
12.887163
 42
0.040911
 10
16.149118
 20
12.73736
 42
0.028633
 10
16.089218
 20
12.58251
 42
0.019563
 10
16.038396
 20
12.400801
 42
0.019763
 10
16.00309
 20
12.221181
 42
0.037206
 10
15.991258
 20
12.073933
 42
0.032804
 10
15.999948
 20
11.928731
 42
0.018924
 10
16.028409
 20
11.755901
 42
0.018855
 10
16.070289
 20
11.583837
 42
0.029838
 10
16.120338
 20
11.440587
 42
0.023209
 10
16.184058
 20
11.306001
 42
0.016291
 10
16.267542
 20
11.160591
 42
0.016479
 10
16.356796
 20
11.026334
 42
0.032754
 10
16.437588
 20
10.927471
 42
0.031978
 10
16.530106
 20
10.840199
 42
0.016411
 10
16.65615
 20
10.742483
 42
0.016242
 10
16.793015
 20
10.650015
 42
0.023519
 10
16.92
 20
10.578205
 42
0.022231
 10
17.056577
 20
10.516692
 42
0.013435
 10
17.223179
 20
10.455526
 42
0.013448
 10
17.392246
 20
10.40358
 42
0.022911
 10
17.536298
 20
10.370552
 10
17.856496
 20
10.312427
 10
17.67984
 20
9.99811
 42
-0.034617
 10
17.591342
 20
9.863399
 42
-0.021658
 10
17.470641
 20
9.718268
 42
-0.021709
 10
17.338669
 20
9.584991
 42
-0.03656
 10
17.215744
 20
9.486837
 42
-0.030909
 10
17.079761
 20
9.405522
 42
-0.017858
 10
16.907359
 20
9.324059
 42
-0.017801
 10
16.727836
 20
9.254406
 42
-0.028382
 10
16.56956
 20
9.209276
 42
-0.031647
 10
16.400034
 20
9.18231
 42
-0.016041
 10
16.184271
 20
9.168832
 42
-0.015868
 10
15.959855
 20
9.169152
 42
-0.022789
 10
15.761708
 20
9.184784
 42
0.013165
 10
15.5895
 20
9.201709
 42
0.022233
 10
15.444525
 20
9.205651
 42
0.018471
 10
15.333216
 20
9.19961
 42
0.387762
 10
15.3126
 20
9.177024
 42
0.140755
 10
15.321852
 20
9.14481
 42
0.029841
 10
15.35609
 20
9.096752
 42
0.029028
 10
15.403974
 20
9.043962
 42
0.024032
 10
15.46065
 20
8.993447
 42
0.032372
 10
15.544539
 20
8.934162
 42
0.008022
 10
15.689467
 20
8.848379
 42
0.008171
 10
15.858898
 20
8.755365
 42
0.00811
 10
16.0317
 20
8.667697
 42
0.026695
 10
16.268665
 20
8.567538
 42
0.036609
 10
16.491463
 20
8.505076
 42
0.032965
 10
16.738224
 20
8.47175
 42
0.016739
 10
17.051439
 20
8.460826
 42
0.016439
 10
17.36803
 20
8.470799
 42
0.034541
 10
17.611829
 20
8.503522
 42
0.038569
 10
17.831235
 20
8.566512
 42
0.026413
 10
18.069058
 20
8.669733
 42
0.033251
 10
18.2646
 20
8.783984
 42
0.026712
 10
18.458807
 20
8.931214
 42
0.026325
 10
18.639395
 20
9.101048
 42
0.029386
 10
18.794185
 20
9.283083
 42
0.016666
 10
18.918655
 20
9.460189
 42
0.013342
 10
19.041048
 20
9.658661
 42
0.013555
 10
19.144466
 20
9.848507
 42
0.033019
 10
19.207327
 20
9.994864
 10
19.31622
 20
10.303029
 10
21.81936
 20
10.343012
 42
-0.001978
 10
23.172382
 20
10.359272
 42
-0.000494
 10
25.382705
 20
10.374907
 42
-0.000505
 10
27.911142
 20
10.387742
 42
-0.000508
 10
30.43485
 20
10.395443
 10
36.5472
 20
10.40789
 10
36.5472
 20
10.073952
 42
0.020186
 10
36.552978
 20
9.930887
 42
0.016002
 10
36.570387
 20
9.777124
 42
0.016287
 10
36.595785
 20
9.635379
 42
0.03838
 10
36.626133
 20
9.532406
 42
0.043277
 10
36.674794
 20
9.431623
 42
0.014897
 10
36.761701
 20
9.294869
 42
0.014677
 10
36.86698
 20
9.149029
 42
0.016482
 10
36.9768
 20
9.015308
 42
0.028579
 10
37.102349
 20
8.887805
 42
0.020883
 10
37.255124
 20
8.760627
 42
0.021219
 10
37.410542
 20
8.651996
 42
0.042981
 10
37.542699
 20
8.58291
 42
0.033927
 10
37.681275
 20
8.535761
 42
0.018605
 10
37.856213
 20
8.496105
 42
0.01847
 10
38.037602
 20
8.468917
 42
0.027968
 10
38.1969
 20
8.46
 42
0.02788
 10
38.355567
 20
8.468854
 42
0.018793
 10
38.534977
 20
8.495799
 42
0.018962
 10
38.707084
 20
8.535113
 42
0.035323
 10
38.842218
 20
8.581869
 42
0.028254
 10
38.968274
 20
8.644358
 42
0.016594
 10
39.111813
 20
8.732341
 42
0.016568
 10
39.249912
 20
8.830143
 42
0.027017
 10
39.359377
 20
8.922977
 42
0.023237
 10
39.457356
 20
9.02464
 42
0.015559
 10
39.560106
 20
9.149296
 42
0.015686
 10
39.6523
 20
9.276576
 42
0.029574
 10
39.717092
 20
9.385558
 42
0.099748
 10
39.786421
 20
9.628105
 42
0.010778
 10
39.820395
 20
10.213005
 42
0.007448
 10
39.840929
 20
11.164923
 42
0.001251
 10
39.848534
 20
12.988682
 42
0.00123
 10
39.847509
 20
14.280003
 42
0.002012
 10
39.839543
 20
15.374475
 42
0.00023
 10
39.82807
 20
16.349802
 42
0.195737
 10
39.81006
 20
16.39254
 42
0.292292
 10
39.7887
 20
16.397242
 42
0.113144
 10
39.762153
 20
16.379947
 42
0.066209
 10
39.73393
 20
16.341709
 42
0.034313
 10
39.708867
 20
16.287775
 42
-0.121205
 10
39.660139
 20
16.217705
 42
-0.025154
 10
39.541826
 20
16.123658
 42
-0.02505
 10
39.389736
 20
16.025907
 42
-0.021345
 10
39.220425
 20
15.938093
 42
-0.017002
 10
39.039347
 20
15.861154
 42
-0.016586
 10
38.851971
 20
15.796007
 42
-0.016734
 10
38.683832
 20
15.749839
 42
-0.057741
 10
38.571805
 20
15.736426
 42
0.037306
 10
38.459201
 20
15.727582
 42
0.011106
 10
38.289223
 20
15.697499
 42
0.011074
 10
38.099185
 20
15.655097
 42
0.011751
 10
37.914963
 20
15.605068
 42
0.030016
 10
37.72477
 20
15.535925
 42
0.020178
 10
37.516439
 20
15.435534
 42
0.020357
 10
37.321974
 20
15.321564
 42
0.037446
 10
37.175524
 20
15.211228
 42
0.028234
 10
37.047466
 20
15.085308
 42
0.01724
 10
36.910386
 20
14.923509
 42
0.01726
 10
36.785248
 20
14.753272
 42
0.029151
 10
36.694053
 20
14.60151
 42
0.042948
 10
36.601378
 20
14.380439
 42
0.036641
 10
36.541806
 20
14.134732
 42
0.024801
 10
36.503894
 20
13.806584
 42
0.007413
 10
36.478407
 20
13.30335
 10
36.444339
 20
12.3516
 10
37.426369
 20
12.3516
 10
38.4084
 20
12.3516
 10
38.4084
 20
11.164545
 42
-0.003556
 10
38.403771
 20
10.513659
 42
-0.023122
 10
38.383981
 20
10.186742
 42
-0.047304
 10
38.346361
 20
10.002327
 42
-0.231143
 10
38.275813
 20
9.926611
 42
-0.06328
 10
38.219453
 20
9.912818
 42
-0.058439
 10
38.159849
 20
9.913004
 42
-0.062405
 10
38.106103
 20
9.926414
 42
-0.104437
 10
38.067226
 20
9.951734
 42
-0.169009
 10
38.036553
 20
10.015143
 42
-0.006754
 10
38.010012
 20
10.273975
 42
-0.011233
 10
37.98931
 20
10.58617
 42
-0.007644
 10
37.979181
 20
10.942
 10
37.967136
 20
11.856265
 10
36.622563
 20
11.828982
 10
35.277989
 20
11.8017
 10
35.26676
 20
12.6477
 42
-0.001217
 10
35.26273
 20
13.019472
 42
-0.000856
 10
35.259931
 20
13.437785
 42
-0.000864
 10
35.25863
 20
13.838124
 42
-0.001812
 10
35.259283
 20
14.14935
 42
0.006447
 10
35.25748
 20
14.400749
 42
0.010724
 10
35.248689
 20
14.612403
 42
0.004543
 10
35.235989
 20
14.788367
 42
0.390645
 10
35.217949
 20
14.805
 42
0.176603
 10
35.188038
 20
14.794095
 42
0.002263
 10
35.032514
 20
14.662105
 42
0.006251
 10
34.853662
 20
14.505
 42
0.004019
 10
34.649997
 20
14.31855
 42
-0.018458
 10
34.404438
 20
14.106449
 42
-0.019834
 10
34.149566
 20
13.918325
 42
-0.021253
 10
33.903953
 20
13.766491
 42
-0.037225
 10
33.687466
 20
13.665426
 42
0.005425
 10
33.518915
 20
13.59943
 42
0.008735
 10
33.376952
 20
13.539153
 42
0.003227
 10
33.257736
 20
13.485134
 42
0.292676
 10
33.2478
 20
13.469614
 42
0.199885
 10
33.255282
 20
13.451647
 42
0.004655
 10
33.322354
 20
13.386303
 42
0.009605
 10
33.404332
 20
13.310872
 42
0.006278
 10
33.5016
 20
13.226918
 42
-0.039766
 10
33.646946
 20
13.083421
 42
-0.103295
 10
33.717946
 20
12.955426
 42
-0.065663
 10
33.748456
 20
12.777104
 42
-0.009498
 10
33.755597
 20
12.40753
 10
33.755794
 20
11.8017
 10
33.121097
 20
11.829534
 10
32.4864
 20
11.857367
 10
32.485462
 20
14.113734
 10
32.484524
 20
16.3701
 10
32.27011
 20
16.098063
 42
-0.043236
 10
32.162722
 20
15.98369
 42
-0.033282
 10
32.027815
 20
15.878135
 42
-0.033613
 10
31.882088
 20
15.792714
 42
-0.048058
 10
31.742298
 20
15.738985
 42
-0.020545
 10
31.599521
 20
15.705581
 42
-0.012541
 10
31.428701
 20
15.677373
 42
-0.012563
 10
31.257751
 20
15.657896
 42
-0.021709
 10
31.114824
 20
15.651472
 42
0.038281
 10
30.962746
 20
15.639582
 42
0.01587
 10
30.759974
 20
15.601364
 42
0.015592
 10
30.544274
 20
15.54647
 42
0.019412
 10
30.347868
 20
15.481556
 42
0.025156
 10
30.158536
 20
15.399643
 42
0.020358
 10
29.96415
 20
15.293617
 42
0.020815
 10
29.792612
 20
15.180821
 42
0.048881
 10
29.677552
 20
15.079706
 42
0.02072
 10
29.585075
 20
14.972267
 42
0.013445
 10
29.486867
 20
14.841016
 42
0.013523
 10
29.397739
 20
14.70745
 42
0.024862
 10
29.333747
 20
14.5935
 42
0.019479
 10
29.281036
 20
14.476415
 42
0.01163
 10
29.227106
 20
14.333487
 42
0.011635
 10
29.179949
 20
14.188413
 42
0.019727
 10
29.148167
 20
14.06475
 10
29.088956
 20
13.7898
 10
26.621675
 20
13.7898
 10
24.154394
 20
13.7898
 10
26.586097
 20
16.222588
 42
0.001211
 10
27.51842
 20
17.159855
 42
0.00198
 10
28.303487
 20
17.959225
 42
0.000224
 10
29.000175
 20
18.674888
 42
0.195307
 10
29.0178
 20
18.718288
 42
0.391615
 10
28.994342
 20
18.743645
 42
0.003789
 10
28.723024
 20
18.76272
 42
0.009776
 10
28.399083
 20
18.776677
 42
0.005877
  0
LWPOLYLINE
  5
B96
330
1D
100
AcDbEntity
  8
0
100
AcDbPolyline
 90
       20
 70
     1
 43
0.0
 10
38.329843
 20
14.2128
 42
-0.238188
 10
38.359964
 20
14.197588
 42
-0.070073
 10
38.385324
 20
14.150672
 42
-0.053641
 10
38.402668
 20
14.082306
 42
-0.035334
 10
38.4084
 20
14.0013
 42
-0.045527
 10
38.398608
 20
13.893984
 42
-0.152009
 10
38.3661
 20
13.8321
 42
-0.152009
 10
38.304216
 20
13.799592
 42
-0.045527
 10
38.1969
 20
13.7898
 42
-0.035334
 10
38.115894
 20
13.795532
 42
-0.053641
 10
38.047528
 20
13.812876
 42
-0.070073
 10
38.000612
 20
13.838236
 42
-0.238188
 10
37.9854
 20
13.868357
 42
-0.110284
 10
37.994117
 20
13.907397
 42
-0.03046
 10
38.024452
 20
13.96289
 42
-0.029203
 10
38.067461
 20
14.023191
 42
-0.02687
 10
38.118343
 20
14.079857
 42
-0.02687
 10
38.175009
 20
14.130739
 42
-0.029203
 10
38.23531
 20
14.173748
 42
-0.03046
 10
38.290803
 20
14.204083
 42
-0.110284
  0
LWPOLYLINE
  5
BAC
330
1D
100
AcDbEntity
  8
0
100
AcDbPolyline
 90
       20
 70
     1
 43
0.0
 10
17.688782
 20
12.3516
 42
-0.15734
 10
17.721988
 20
12.340886
 42
-0.042877
 10
17.764316
 20
12.304507
 42
-0.038929
 10
17.807762
 20
12.252646
 42
-0.032039
 10
17.845846
 20
12.191283
 42
-0.049387
 10
17.879946
 20
12.108959
 42
-0.114334
 10
17.884354
 20
12.042605
 42
-0.120931
 10
17.859197
 20
11.98344
 42
-0.058902
 10
17.802276
 20
11.923601
 42
-0.050043
 10
17.72949
 20
11.874579
 42
-0.151643
 10
17.671524
 20
11.863327
 42
-0.134091
 10
17.612917
 20
11.886454
 42
-0.035753
 10
17.536371
 20
11.952771
 42
-0.035379
 10
17.469538
 20
12.029797
 42
-0.136041
 10
17.446618
 20
12.08828
 42
-0.152177
 10
17.458326
 20
12.146358
 42
-0.047974
 10
17.508676
 20
12.220454
 42
-0.029422
 10
17.555581
 20
12.270647
 42
-0.032773
 10
17.606479
 20
12.313076
 42
-0.034748
 10
17.654087
 20
12.342917
 42
-0.123228
  0
LWPOLYLINE
  5
BC2
330
1D
100
AcDbEntity
  8
0
100
AcDbPolyline
 90
       36
 70
     1
 43
0.0
 10
20.392489
 20
17.8506
 42
0.058148
 10
20.286754
 20
17.838262
 42
0.032402
 10
20.162601
 20
17.800249
 42
0.031872
 10
20.040341
 20
17.744826
 42
0.044324
 10
19.93971
 20
17.679193
 42
0.031192
 10
19.852371
 20
17.601208
 42
0.026411
 10
19.770119
 20
17.508693
 42
0.027255
 10
19.704095
 20
17.4161
 42
0.064491
 10
19.668378
 20
17.339465
 42
0.071485
 10
19.654346
 20
17.254989
 42
0.027962
 10
19.658378
 20
17.136566
 42
0.026984
 10
19.677155
 20
17.006979
 42
0.03024
 10
19.709354
 20
16.885113
 42
0.045339
 10
19.765048
 20
16.756757
 42
0.053013
 10
19.840652
 20
16.647641
 42
0.055812
 10
19.933657
 20
16.561443
 42
0.060881
 10
20.04087
 20
16.500865
 42
0.043864
 10
20.147624
 20
16.467253
 42
0.030577
 10
20.272454
 20
16.447592
 42
0.030962
 10
20.395498
 20
16.443508
 42
0.054349
 10
20.496267
 20
16.457432
 42
0.040607
 10
20.589509
 20
16.489065
 42
0.028027
 10
20.689238
 20
16.53901
 42
0.028353
 10
20.780315
 20
16.598292
 42
0.050424
 10
20.846669
 20
16.65821
 42
0.051381
 10
20.900984
 20
16.732253
 42
0.025331
 10
20.954902
 20
16.83593
 42
0.024831
 10
21.000469
 20
16.950258
 42
0.033067
 10
21.029591
 20
17.058203
 42
0.051493
 10
21.042722
 20
17.196746
 42
0.079068
 10
21.022825
 20
17.315358
 42
0.066806
 10
20.96369
 20
17.43549
 42
0.027173
 10
20.853875
 20
17.581401
 42
0.032675
 10
20.738826
 20
17.701282
 42
0.053168
 10
20.625317
 20
17.784811
 42
0.061888
 10
20.510702
 20
17.833885
 42
0.070348
  0
LWPOLYLINE
  5
BE8
330
1D
100
AcDbEntity
  8
0
100
AcDbPolyline
 90
       40
 70
     1
 43
0.0
 10
35.963526
 20
16.407038
 42
0.048722
 10
35.93364
 20
16.400902
 42
0.006712
 10
35.873164
 20
16.381311
 42
0.007649
 10
35.801999
 20
16.355977
 42
0.006406
 10
35.727282
 20
16.326988
 42
0.056366
 10
35.646206
 20
16.283165
 42
0.029052
 10
35.555408
 20
16.211786
 42
0.02846
 10
35.469475
 20
16.126567
 42
0.038176
 10
35.402555
 20
16.039689
 42
0.046701
 10
35.345082
 20
15.931078
 42
0.052955
 10
35.311674
 20
15.818121
 42
0.05294
 10
35.302732
 20
15.700639
 42
0.046632
 10
35.317818
 20
15.578611
 42
0.038937
 10
35.349614
 20
15.473611
 42
0.029041
 10
35.400072
 20
15.363573
 42
0.029652
 10
35.460213
 20
15.264882
 42
0.057226
 10
35.521196
 20
15.195477
 42
0.052411
 10
35.597132
 20
15.140014
 42
0.025217
 10
35.704431
 20
15.08474
 42
0.024681
 10
35.823261
 20
15.037841
 42
0.032302
 10
35.936012
 20
15.007608
 42
0.046047
 10
36.085685
 20
14.991778
 42
0.096572
 10
36.200369
 20
15.012554
 42
0.079574
 10
36.312511
 20
15.078346
 42
0.024008
 10
36.459211
 20
15.211595
 42
0.03018
 10
36.557638
 20
15.32268
 42
0.031153
 10
36.640851
 20
15.44368
 42
0.032792
 10
36.699086
 20
15.557033
 42
0.102614
 10
36.7164
 20
15.640512
 42
0.041835
 10
36.709626
 20
15.721331
 42
0.019751
 10
36.688123
 20
15.823854
 42
0.019417
 10
36.657003
 20
15.930051
 42
0.025914
 10
36.620139
 20
16.023508
 42
0.068745
 10
36.56476
 20
16.110904
 42
0.040374
 10
36.477318
 20
16.198806
 42
0.039585
 10
36.37371
 20
16.274061
 42
0.053458
 10
36.269115
 20
16.323589
 42
0.007457
 10
36.167834
 20
16.35721
 42
0.009757
 10
36.074258
 20
16.384737
 42
0.007614
 10
35.995603
 20
16.404933
 42
0.085517
  0
LWPOLYLINE
  5
C12
330
1D
100
AcDbEntity
  8
0
100
AcDbPolyline
 90
       32
 70
     1
 43
0.0
 10
12.69
 20
11.3364
 42
0.05569
 10
12.566363
 20
11.322586
 42
0.048581
 10
12.442701
 20
11.281659
 42
0.047034
 10
12.325456
 20
11.215969
 42
0.045205
 10
12.220855
 20
11.128745
 42
0.044961
 10
12.127766
 20
11.01722
 42
0.055087
 10
12.063245
 20
10.897875
 42
0.05436
 10
12.02576
 20
10.765996
 42
0.042105
 10
12.0132
 20
10.617106
 42
0.042091
 10
12.026236
 20
10.462527
 42
0.063152
 10
12.065475
 20
10.333117
 42
0.061975
 10
12.13644
 20
10.215882
 42
0.038836
 10
12.245377
 20
10.097947
 42
0.032479
 10
12.377266
 20
9.990753
 42
0.077619
 10
12.489846
 20
9.934608
 42
0.080444
 10
12.611659
 20
9.916554
 42
0.036885
 10
12.772091
 20
9.930569
 42
0.047233
 10
12.896613
 20
9.963065
 42
0.036944
 10
13.024033
 20
10.020506
 42
0.037947
 10
13.13642
 20
10.093056
 42
0.066538
 10
13.214833
 20
10.170933
 42
0.055468
 10
13.271785
 20
10.264849
 42
0.031521
 10
13.320055
 20
10.38883
 42
0.031103
 10
13.353366
 20
10.521455
 42
0.044314
 10
13.364919
 20
10.642295
 42
0.049185
 10
13.352567
 20
10.776851
 42
0.052636
 10
13.314166
 20
10.903221
 42
0.051714
 10
13.249469
 20
11.020663
 42
0.044665
 10
13.159145
 20
11.128745
 42
0.045205
 10
13.054544
 20
11.215969
 42
0.047034
 10
12.937299
 20
11.281659
 42
0.048581
 10
12.813637
 20
11.322586
 42
0.05569
  0
LWPOLYLINE
  5
C34
330
1D
100
AcDbEntity
  8
0
100
AcDbPolyline
 90
       36
 70
     1
 43
0.0
 10
32.804338
 20
9.8136
 42
0.038349
 10
32.648696
 20
9.801645
 42
0.070277
 10
32.527156
 20
9.764893
 42
0.073045
 10
32.423642
 20
9.697104
 42
0.044692
 10
32.32334
 20
9.590691
 42
0.043916
 10
32.256203
 20
9.487936
 42
0.031814
 10
32.199506
 20
9.363445
 42
0.032377
 10
32.160611
 20
9.237271
 42
0.05864
 10
32.148
 20
9.130109
 42
0.064291
 10
32.161735
 20
9.023735
 42
0.036007
 10
32.203915
 20
8.900103
 42
0.035284
 10
32.265478
 20
8.779303
 42
0.047735
 10
32.33835
 20
8.680865
 42
0.036233
 10
32.423672
 20
8.598837
 42
0.033062
 10
32.522487
 20
8.527216
 42
0.034678
 10
32.619592
 20
8.475203
 42
0.084596
 10
32.6979
 20
8.454905
 42
0.010632
 10
32.773457
 20
8.450095
 42
0.006916
 10
32.860887
 20
8.447604
 42
0.006955
 10
32.94631
 20
8.447541
 42
0.013134
 10
33.01515
 20
8.450258
 42
0.078815
 10
33.083874
 20
8.465844
 42
0.033323
 10
33.169413
 20
8.506841
 42
0.031928
 10
33.256736
 20
8.563727
 42
0.036058
 10
33.3324
 20
8.6292
 42
0.062548
 10
33.405125
 20
8.722815
 42
0.051252
 10
33.458336
 20
8.837893
 42
0.046696
 10
33.49077
 20
8.971953
 42
0.036028
 10
33.5016
 20
9.122053
 42
0.035869
 10
33.490203
 20
9.280722
 42
0.056245
 10
33.455634
 20
9.412909
 42
0.060791
 10
33.395042
 20
9.52662
 42
0.051442
 10
33.305797
 20
9.629653
 42
0.052536
 10
33.202266
 20
9.70823
 42
0.048201
 10
33.081671
 20
9.766173
 42
0.046381
 10
32.947661
 20
9.801663
 42
0.041571
  0
LWPOLYLINE
  5
C5A
330
1D
100
AcDbEntity
  8
0
100
AcDbPolyline
 90
       36
 70
     1
 43
0.0
 10
34.672947
 20
9.811719
 42
0.058104
 10
34.583031
 20
9.80037
 42
0.031226
 10
34.476227
 20
9.766855
 42
0.030635
 10
34.370199
 20
9.718517
 42
0.041761
 10
34.281933
 20
9.661633
 42
0.066696
 10
34.203337
 20
9.582446
 42
0.038757
 10
34.130819
 20
9.469554
 42
0.037517
 10
34.073535
 20
9.340764
 42
0.045692
 10
34.040615
 20
9.213009
 42
0.036194
 10
34.026134
 20
9.049852
 42
0.075937
 10
34.043283
 20
8.923993
 42
0.073632
 10
34.097707
 20
8.806566
 42
0.032353
 10
34.201068
 20
8.669375
 42
0.037056
 10
34.317714
 20
8.552507
 42
0.067313
 10
34.430583
 20
8.478905
 42
0.069319
 10
34.556608
 20
8.439228
 42
0.041672
 10
34.713129
 20
8.42616
 42
0.041689
 10
34.844193
 20
8.437107
 42
0.036605
 10
34.977644
 20
8.469741
 42
0.038218
 10
35.096949
 20
8.518701
 42
0.06754
 10
35.184597
 20
8.578752
 42
0.051084
 10
35.253084
 20
8.654797
 42
0.029959
 10
35.319366
 20
8.757939
 42
0.029709
 10
35.373865
 20
8.870223
 42
0.044096
 10
35.406609
 20
8.974471
 42
0.027867
 10
35.423492
 20
9.078763
 42
0.023099
 10
35.430077
 20
9.191063
 42
0.023713
 10
35.426443
 20
9.29476
 42
0.05628
 10
35.411513
 20
9.370394
 42
0.085481
 10
35.375885
 20
9.439186
 42
0.032696
 10
35.305056
 20
9.520961
 42
0.031207
 10
35.214853
 20
9.601562
 42
0.033333
 10
35.117206
 20
9.668395
 42
0.030855
 10
35.008542
 20
9.723849
 42
0.024533
 10
34.885307
 20
9.770394
 42
0.025148
 10
34.766436
 20
9.802243
 42
0.055301
  0
LWPOLYLINE
  5
C80
330
1D
100
AcDbEntity
  8
0
100
AcDbPolyline
 90
       40
 70
     1
 43
0.0
 10
23.8572
 20
8.799637
 42
0.154446
 10
23.829063
 20
8.814766
 42
0.030346
 10
23.77141
 20
8.822081
 42
0.029576
 10
23.700528
 20
8.822534
 42
0.02368
 10
23.62455
 20
8.814903
 42
0.038297
 10
23.55168
 20
8.798302
 42
0.052923
 10
23.490115
 20
8.771814
 42
0.065294
 10
23.447782
 20
8.740133
 42
0.202174
 10
23.4342
 20
8.707916
 42
-0.177093
 10
23.423216
 20
8.677876
 42
-0.092489
 10
23.391953
 20
8.652323
 42
-0.072605
 10
23.345405
 20
8.635023
 42
-0.052767
 10
23.29038
 20
8.6292
 42
0.038138
 10
23.231245
 20
8.624683
 42
0.201203
 10
23.204091
 20
8.60805
 42
0.291521
 10
23.20261
 20
8.581998
 42
0.068826
 10
23.23017
 20
8.54559
 42
0.160504
 10
23.297613
 20
8.511577
 42
0.00875
 10
23.53642
 20
8.480037
 42
0.012882
 10
23.826832
 20
8.4544
 42
0.008996
 10
24.155314
 20
8.43984
 42
0.004277
 10
24.655175
 20
8.430967
 42
0.04098
 10
24.867526
 20
8.446435
 42
0.122379
 10
24.974498
 20
8.491432
 42
0.186729
 10
25.027357
 20
8.575769
 42
0.035839
 10
25.03515
 20
8.640937
 42
0.160707
 10
25.024988
 20
8.677465
 42
0.290928
 10
25.000038
 20
8.688445
 42
0.100817
 10
24.961427
 20
8.674236
 42
-0.096237
 10
24.916936
 20
8.657404
 42
-0.067807
 10
24.863342
 20
8.655559
 42
-0.065387
 10
24.809164
 20
8.668336
 42
-0.075392
 10
24.762944
 20
8.694353
 42
0.107378
 10
24.699991
 20
8.724704
 42
0.02246
 10
24.579045
 20
8.748015
 42
0.022594
 10
24.43343
 20
8.76267
 42
0.019684
 10
24.2802
 20
8.765086
 42
-0.010877
 10
24.131281
 20
8.764811
 42
-0.0154
 10
23.998905
 20
8.771529
 42
-0.01144
 10
23.89077
 20
8.782857
 42
-0.169741
  0
ENDSEC
  0
SECTION
  2
OBJECTS
  0
DICTIONARY
  5
C
330
0
100
AcDbDictionary
281
     1
  3
ACAD_DETAILVIEWSTYLE
350
D36
  3
ACAD_GROUP
350
D
  3
ACAD_LAYOUT
350
1A
  3
ACAD_MATERIAL
350
CE9
  3
ACAD_MLEADERSTYLE
350
CEF
  3
ACAD_MLINESTYLE
350
17
  3
ACAD_PLOTSETTINGS
350
19
  3
ACAD_PLOTSTYLENAME
350
E
  3
ACAD_SCALELIST
350
CAA
  3
ACAD_SECTIONVIEWSTYLE
350
D37
  3
ACAD_TABLESTYLE
350
CED
  3
ACAD_VISUALSTYLE
350
CD0
  3
ACDB_RECOMPOSE_DATA
350
D32
  3
AcDbVariableDictionary
350
CF3
  0
DICTIONARY
  5
CF1
330
8
100
AcDbDictionary
280
     1
281
     1
  3
ACAD_XREC_ROUNDTRIP
360
CF2
  0
DICTIONARY
  5
D36
102
{ACAD_REACTORS
330
C
102
}
330
C
100
AcDbDictionary
281
     1
  0
DICTIONARY
  5
D
102
{ACAD_REACTORS
330
C
102
}
330
C
100
AcDbDictionary
281
     1
  0
DICTIONARY
  5
1A
102
{ACAD_REACTORS
330
C
102
}
330
C
100
AcDbDictionary
281
     1
  3
Layout1
350
1C
  3
Model
350
1E
  0
DICTIONARY
  5
CE9
102
{ACAD_REACTORS
330
C
102
}
330
C
100
AcDbDictionary
281
     1
  3
ByBlock
350
CEB
  3
ByLayer
350
CEA
  3
Global
350
CEC
  0
DICTIONARY
  5
CEF
102
{ACAD_REACTORS
330
C
102
}
330
C
100
AcDbDictionary
281
     1
  3
Standard
350
CF0
  0
DICTIONARY
  5
17
102
{ACAD_REACTORS
330
C
102
}
330
C
100
AcDbDictionary
281
     1
  3
Standard
350
18
  0
DICTIONARY
  5
19
102
{ACAD_REACTORS
330
C
102
}
330
C
100
AcDbDictionary
281
     1
  0
ACDBDICTIONARYWDFLT
  5
E
102
{ACAD_REACTORS
330
C
102
}
330
C
100
AcDbDictionary
281
     1
  3
Normal
350
F
100
AcDbDictionaryWithDefault
340
F
  0
DICTIONARY
  5
CAA
102
{ACAD_REACTORS
330
C
102
}
330
C
100
AcDbDictionary
281
     1
  3
A0
350
CAB
  3
A1
350
CAC
  3
A2
350
CAD
  3
A3
350
CAE
  3
A4
350
CAF
  3
A5
350
CB0
  3
A6
350
CB1
  3
A7
350
CB2
  3
A8
350
CB3
  3
A9
350
CB4
  3
B0
350
CB5
  3
B1
350
CB6
  3
B2
350
CB7
  3
B3
350
CB8
  3
B4
350
CB9
  3
B5
350
CBA
  3
B6
350
CBB
  3
B7
350
CBC
  3
B8
350
CBD
  3
B9
350
CBE
  3
C0
350
CBF
  3
C1
350
CC0
  3
C2
350
CC1
  3
C3
350
CC2
  3
C4
350
CC3
  3
C5
350
CC4
  3
C6
350
CC5
  3
C7
350
CC6
  3
C8
350
CC7
  3
C9
350
CC8
  3
D0
350
CC9
  3
D1
350
CCA
  3
D2
350
CCB
  0
DICTIONARY
  5
D37
102
{ACAD_REACTORS
330
C
102
}
330
C
100
AcDbDictionary
281
     1
  0
DICTIONARY
  5
CED
102
{ACAD_REACTORS
330
C
102
}
330
C
100
AcDbDictionary
281
     1
  3
Standard
350
CEE
  0
DICTIONARY
  5
CD0
102
{ACAD_REACTORS
330
C
102
}
330
C
100
AcDbDictionary
281
     1
  3
2dWireframe
350
CD5
  3
Basic
350
CD8
  3
Brighten
350
CDC
  3
ColorChange
350
CE0
  3
Conceptual
350
CDA
  3
Dim
350
CDB
  3
EdgeColorOff
350
CE3
  3
Facepattern
350
CDF
  3
Flat
350
CD1
  3
FlatWithEdges
350
CD2
  3
Gouraud
350
CD3
  3
GouraudWithEdges
350
CD4
  3
Hidden
350
CD7
  3
JitterOff
350
CE1
  3
Linepattern
350
CDE
  3
OverhangOff
350
CE2
  3
Realistic
350
CD9
  3
Shaded
350
CE8
  3
Shaded with edges
350
CE7
  3
Shades of Gray
350
CE4
  3
Sketchy
350
CE5
  3
Thicken
350
CDD
  3
Wireframe
350
CD6
  3
X-Ray
350
CE6
  0
XRECORD
  5
D32
102
{ACAD_REACTORS
330
C
102
}
330
C
100
AcDbXrecord
280
     1
 90
        1
330
CEE
  0
DICTIONARY
  5
CF3
102
{ACAD_REACTORS
330
C
102
}
330
C
100
AcDbDictionary
281
     1
  3
CANNOSCALE
350
CF4
  3
CMLEADERSTYLE
350
D34
  3
CTABLESTYLE
350
D33
  3
MSLTSCALE
350
D35
  3
XCLIPFRAME
350
CF5
  0
XRECORD
  5
CF2
102
{ACAD_REACTORS
330
CF1
102
}
330
CF1
100
AcDbXrecord
280
     1
102
VTR_0.000_0.000_1.000_1.000_VISUALSTYLE
340
CD5
102
VTR_0.000_0.000_1.000_1.000_GRIDDISPLAY
 70
     3
102
VTR_0.000_0.000_1.000_1.000_GRIDMAJOR
 70
     5
102
VTR_0.000_0.000_1.000_1.000_DEFAULTLIGHTING
280
     1
102
VTR_0.000_0.000_1.000_1.000_DEFAULTLIGHTINGTYPE
 70
     1
102
VTR_0.000_0.000_1.000_1.000_BRIGHTNESS
141
0.0
102
VTR_0.000_0.000_1.000_1.000_CONTRAST
142
0.0
  0
LAYOUT
  5
1C
102
{ACAD_REACTORS
330
1A
102
}
330
1A
100
AcDbPlotSettings
  1

  2
none_device
  4

  6

 40
0.0
 41
0.0
 42
0.0
 43
0.0
 44
0.0
 45
0.0
 46
0.0
 47
0.0
 48
0.0
 49
0.0
140
0.0
141
0.0
142
1.0
143
1.0
 70
   688
 72
     0
 73
     0
 74
     5
  7

 75
    16
 76
     0
 77
     2
 78
   300
147
1.0
148
0.0
149
0.0
100
AcDbLayout
  1
Layout1
 70
     1
 71
     1
 10
0.0
 20
0.0
 11
12.0
 21
9.0
 12
0.0
 22
0.0
 32
0.0
 14
1.000000000000000E+20
 24
1.000000000000000E+20
 34
1.000000000000000E+20
 15
-1.000000000000000E+20
 25
-1.000000000000000E+20
 35
-1.000000000000000E+20
146
0.0
 13
0.0
 23
0.0
 33
0.0
 16
1.0
 26
0.0
 36
0.0
 17
0.0
 27
1.0
 37
0.0
 76
     0
330
1B
  0
LAYOUT
  5
1E
102
{ACAD_REACTORS
330
1A
102
}
330
1A
100
AcDbPlotSettings
  1

  2
none_device
  4
Letter_(8.50_x_11.00_Inches)
  6

 40
6.35
 41
6.35
 42
6.35000508
 43
6.35000508
 44
215.9
 45
279.4
 46
0.0
 47
0.0
 48
0.0
 49
0.0
140
0.0
141
0.0
142
1.0
143
1.0
 70
  1712
 72
     0
 73
     0
 74
     0
  7

 75
     0
 76
     0
 77
     2
 78
   300
147
1.0
148
0.0
149
0.0
100
AcDbLayout
  1
Model
 70
     1
 71
     0
 10
0.0
 20
0.0
 11
12.0
 21
9.0
 12
0.0
 22
0.0
 32
0.0
 14
0.0
 24
0.0
 34
0.0
 15
47.7144
 25
66.9186
 35
0.0
146
0.0
 13
0.0
 23
0.0
 33
0.0
 16
1.0
 26
0.0
 36
0.0
 17
0.0
 27
1.0
 37
0.0
 76
     0
330
1D
331
21
  0
MATERIAL
  5
CEB
102
{ACAD_REACTORS
330
CE9
102
}
102
{ACAD_XDICTIONARY
360
D28
102
}
330
CE9
100
AcDbMaterial
  1
ByBlock
  0
MATERIAL
  5
CEA
102
{ACAD_REACTORS
330
CE9
102
}
102
{ACAD_XDICTIONARY
360
D26
102
}
330
CE9
100
AcDbMaterial
  1
ByLayer
  0
MATERIAL
  5
CEC
102
{ACAD_REACTORS
330
CE9
102
}
102
{ACAD_XDICTIONARY
360
D2A
102
}
330
CE9
100
AcDbMaterial
  1
Global
  0
MLEADERSTYLE
  5
CF0
102
{ACAD_REACTORS
330
CEF
102
}
102
{ACAD_XDICTIONARY
360
D30
102
}
330
CEF
100
AcDbMLeaderStyle
170
     2
171
     1
172
     0
 90
        2
 40
0.0
 41
0.0
173
     1
 91
-1056964608
340
14
 92
       -2
290
     1
 42
0.09
291
     1
 43
0.36
  3
Standard
341
0
 44
0.18
300

342
11
174
     1
178
     6
175
     1
176
     0
 93
-1056964608
 45
0.18
292
     0
297
     0
 46
0.18
343
0
 94
-1056964608
 47
1.0
 49
1.0
140
1.0
293
     1
141
0.0
294
     1
177
     0
142
1.0
295
     0
296
     0
143
0.125
1001
ACAD_MLEADERVER
1070
     2
  0
MLINESTYLE
  5
18
102
{ACAD_REACTORS
330
17
102
}
330
17
100
AcDbMlineStyle
  2
Standard
 70
     0
  3

 62
   256
 51
90.0
 52
90.0
 71
     2
 49
0.5
 62
   256
  6
BYLAYER
 49
-0.5
 62
   256
  6
BYLAYER
  0
ACDBPLACEHOLDER
  5
F
102
{ACAD_REACTORS
330
E
102
}
330
E
  0
SCALE
  5
CAB
102
{ACAD_REACTORS
330
CAA
102
}
330
CAA
100
AcDbScale
 70
     0
300
1:1
140
1.0
141
1.0
290
     1
  0
SCALE
  5
CAC
102
{ACAD_REACTORS
330
CAA
102
}
330
CAA
100
AcDbScale
 70
     0
300
1:2
140
1.0
141
2.0
290
     0
  0
SCALE
  5
CAD
102
{ACAD_REACTORS
330
CAA
102
}
330
CAA
100
AcDbScale
 70
     0
300
1:4
140
1.0
141
4.0
290
     0
  0
SCALE
  5
CAE
102
{ACAD_REACTORS
330
CAA
102
}
330
CAA
100
AcDbScale
 70
     0
300
1:5
140
1.0
141
5.0
290
     0
  0
SCALE
  5
CAF
102
{ACAD_REACTORS
330
CAA
102
}
330
CAA
100
AcDbScale
 70
     0
300
1:8
140
1.0
141
8.0
290
     0
  0
SCALE
  5
CB0
102
{ACAD_REACTORS
330
CAA
102
}
330
CAA
100
AcDbScale
 70
     0
300
1:10
140
1.0
141
10.0
290
     0
  0
SCALE
  5
CB1
102
{ACAD_REACTORS
330
CAA
102
}
330
CAA
100
AcDbScale
 70
     0
300
1:16
140
1.0
141
16.0
290
     0
  0
SCALE
  5
CB2
102
{ACAD_REACTORS
330
CAA
102
}
330
CAA
100
AcDbScale
 70
     0
300
1:20
140
1.0
141
20.0
290
     0
  0
SCALE
  5
CB3
102
{ACAD_REACTORS
330
CAA
102
}
330
CAA
100
AcDbScale
 70
     0
300
1:30
140
1.0
141
30.0
290
     0
  0
SCALE
  5
CB4
102
{ACAD_REACTORS
330
CAA
102
}
330
CAA
100
AcDbScale
 70
     0
300
1:40
140
1.0
141
40.0
290
     0
  0
SCALE
  5
CB5
102
{ACAD_REACTORS
330
CAA
102
}
330
CAA
100
AcDbScale
 70
     0
300
1:50
140
1.0
141
50.0
290
     0
  0
SCALE
  5
CB6
102
{ACAD_REACTORS
330
CAA
102
}
330
CAA
100
AcDbScale
 70
     0
300
1:100
140
1.0
141
100.0
290
     0
  0
SCALE
  5
CB7
102
{ACAD_REACTORS
330
CAA
102
}
330
CAA
100
AcDbScale
 70
     0
300
2:1
140
2.0
141
1.0
290
     0
  0
SCALE
  5
CB8
102
{ACAD_REACTORS
330
CAA
102
}
330
CAA
100
AcDbScale
 70
     0
300
4:1
140
4.0
141
1.0
290
     0
  0
SCALE
  5
CB9
102
{ACAD_REACTORS
330
CAA
102
}
330
CAA
100
AcDbScale
 70
     0
300
8:1
140
8.0
141
1.0
290
     0
  0
SCALE
  5
CBA
102
{ACAD_REACTORS
330
CAA
102
}
330
CAA
100
AcDbScale
 70
     0
300
10:1
140
10.0
141
1.0
290
     0
  0
SCALE
  5
CBB
102
{ACAD_REACTORS
330
CAA
102
}
330
CAA
100
AcDbScale
 70
     0
300
100:1
140
100.0
141
1.0
290
     0
  0
SCALE
  5
CBC
102
{ACAD_REACTORS
330
CAA
102
}
330
CAA
100
AcDbScale
 70
     0
300
1/128\" = 1\'-0\"
140
0.0078125
141
12.0
290
     0
  0
SCALE
  5
CBD
102
{ACAD_REACTORS
330
CAA
102
}
330
CAA
100
AcDbScale
 70
     0
300
1/64\" = 1\'-0\"
140
0.015625
141
12.0
290
     0
  0
SCALE
  5
CBE
102
{ACAD_REACTORS
330
CAA
102
}
330
CAA
100
AcDbScale
 70
     0
300
1/32\" = 1\'-0\"
140
0.03125
141
12.0
290
     0
  0
SCALE
  5
CBF
102
{ACAD_REACTORS
330
CAA
102
}
330
CAA
100
AcDbScale
 70
     0
300
1/16\" = 1\'-0\"
140
0.0625
141
12.0
290
     0
  0
SCALE
  5
CC0
102
{ACAD_REACTORS
330
CAA
102
}
330
CAA
100
AcDbScale
 70
     0
300
3/32\" = 1\'-0\"
140
0.09375
141
12.0
290
     0
  0
SCALE
  5
CC1
102
{ACAD_REACTORS
330
CAA
102
}
330
CAA
100
AcDbScale
 70
     0
300
1/8\" = 1\'-0\"
140
0.125
141
12.0
290
     0
  0
SCALE
  5
CC2
102
{ACAD_REACTORS
330
CAA
102
}
330
CAA
100
AcDbScale
 70
     0
300
3/16\" = 1\'-0\"
140
0.1875
141
12.0
290
     0
  0
SCALE
  5
CC3
102
{ACAD_REACTORS
330
CAA
102
}
330
CAA
100
AcDbScale
 70
     0
300
1/4\" = 1\'-0\"
140
0.25
141
12.0
290
     0
  0
SCALE
  5
CC4
102
{ACAD_REACTORS
330
CAA
102
}
330
CAA
100
AcDbScale
 70
     0
300
3/8\" = 1\'-0\"
140
0.375
141
12.0
290
     0
  0
SCALE
  5
CC5
102
{ACAD_REACTORS
330
CAA
102
}
330
CAA
100
AcDbScale
 70
     0
300
1/2\" = 1\'-0\"
140
0.5
141
12.0
290
     0
  0
SCALE
  5
CC6
102
{ACAD_REACTORS
330
CAA
102
}
330
CAA
100
AcDbScale
 70
     0
300
3/4\" = 1\'-0\"
140
0.75
141
12.0
290
     0
  0
SCALE
  5
CC7
102
{ACAD_REACTORS
330
CAA
102
}
330
CAA
100
AcDbScale
 70
     0
300
1\" = 1\'-0\"
140
1.0
141
12.0
290
     0
  0
SCALE
  5
CC8
102
{ACAD_REACTORS
330
CAA
102
}
330
CAA
100
AcDbScale
 70
     0
300
1-1/2\" = 1\'-0\"
140
1.5
141
12.0
290
     0
  0
SCALE
  5
CC9
102
{ACAD_REACTORS
330
CAA
102
}
330
CAA
100
AcDbScale
 70
     0
300
3\" = 1\'-0\"
140
3.0
141
12.0
290
     0
  0
SCALE
  5
CCA
102
{ACAD_REACTORS
330
CAA
102
}
330
CAA
100
AcDbScale
 70
     0
300
6\" = 1\'-0\"
140
6.0
141
12.0
290
     0
  0
SCALE
  5
CCB
102
{ACAD_REACTORS
330
CAA
102
}
330
CAA
100
AcDbScale
 70
     0
300
1\'-0\" = 1\'-0\"
140
12.0
141
12.0
290
     0
  0
TABLESTYLE
  5
CEE
102
{ACAD_REACTORS
330
CED
102
}
102
{ACAD_XDICTIONARY
360
D2C
102
}
330
CED
100
AcDbTableStyle
  3
Standard
 70
     0
 71
     0
 40
0.06
 41
0.06
280
     0
281
     0
  7
Standard
140
0.18
170
     2
 62
     0
 63
   257
283
     0
274
    -2
284
     1
 64
     0
275
    -2
285
     1
 65
     0
276
    -2
286
     1
 66
     0
277
    -2
287
     1
 67
     0
278
    -2
288
     1
 68
     0
279
    -2
289
     1
 69
     0
  7
Standard
140
0.25
170
     5
 62
     0
 63
   257
283
     0
274
    -2
284
     1
 64
     0
275
    -2
285
     1
 65
     0
276
    -2
286
     1
 66
     0
277
    -2
287
     1
 67
     0
278
    -2
288
     1
 68
     0
279
    -2
289
     1
 69
     0
  7
Standard
140
0.18
170
     5
 62
     0
 63
   257
283
     0
274
    -2
284
     1
 64
     0
275
    -2
285
     1
 65
     0
276
    -2
286
     1
 66
     0
277
    -2
287
     1
 67
     0
278
    -2
288
     1
 68
     0
279
    -2
289
     1
 69
     0
  0
VISUALSTYLE
  5
CD5
102
{ACAD_REACTORS
330
CD0
102
}
102
{ACAD_XDICTIONARY
360
CFE
102
}
330
CD0
100
AcDbVisualStyle
  2
2dWireframe
 70
     4
 71
     0
 72
     2
 73
     0
 90
        0
 40
0.6
 41
30.0
 62
     5
 63
     7
421
 16777215
 74
     1
 91
        4
 64
     7
 65
   257
 75
     1
175
     1
 42
1.0
 92
        0
 66
   257
 43
1.0
 76
     1
 77
     6
 78
     2
 67
     7
 79
     5
170
     0
171
     0
290
     0
174
     0
 93
        1
 44
0.0
173
     0
291
     0
 45
0.0
1001
ACAD
1000
AcDbSavedByObjectVersion
1070
     0
  0
VISUALSTYLE
  5
CD8
102
{ACAD_REACTORS
330
CD0
102
}
102
{ACAD_XDICTIONARY
360
D04
102
}
330
CD0
100
AcDbVisualStyle
  2
Basic
 70
     7
 71
     1
 72
     0
 73
     1
 90
        0
 40
0.6
 41
30.0
 62
     5
 63
     7
421
 16777215
 74
     0
 91
        4
 64
     7
 65
   257
 75
     1
175
     1
 42
1.0
 92
        8
 66
     7
 43
1.0
 76
     1
 77
     6
 78
     2
 67
     7
 79
     5
170
     0
171
     0
290
     0
174
     0
 93
        1
 44
0.0
173
     0
291
     1
 45
0.0
1001
ACAD
1000
AcDbSavedByObjectVersion
1070
     0
  0
VISUALSTYLE
  5
CDC
102
{ACAD_REACTORS
330
CD0
102
}
102
{ACAD_XDICTIONARY
360
D0C
102
}
330
CD0
100
AcDbVisualStyle
  2
Brighten
 70
    12
 71
     2
 72
     2
 73
     0
 90
        0
 40
0.6
 41
30.0
 62
     5
 63
     7
421
 16777215
 74
     1
 91
        4
 64
     7
 65
   257
 75
     1
175
     1
 42
1.0
 92
        8
 66
     7
 43
1.0
 76
     1
 77
     6
 78
     2
 67
     7
 79
     5
170
     0
171
     0
290
     0
174
     0
 93
        1
 44
50.0
173
     0
291
     1
 45
0.0
1001
ACAD
1000
AcDbSavedByObjectVersion
1070
     0
  0
VISUALSTYLE
  5
CE0
102
{ACAD_REACTORS
330
CD0
102
}
102
{ACAD_XDICTIONARY
360
D14
102
}
330
CD0
100
AcDbVisualStyle
  2
ColorChange
 70
    16
 71
     2
 72
     2
 73
     3
 90
        0
 40
0.6
 41
30.0
 62
     5
 63
     8
421
  8421504
 74
     1
 91
        4
 64
     7
 65
   257
 75
     1
175
     1
 42
1.0
 92
        8
 66
     8
424
  8421504
 43
1.0
 76
     1
 77
     6
 78
     2
 67
     7
 79
     5
170
     0
171
     0
290
     0
174
     0
 93
        1
 44
0.0
173
     0
291
     1
 45
0.0
1001
ACAD
1000
AcDbSavedByObjectVersion
1070
     0
  0
VISUALSTYLE
  5
CDA
102
{ACAD_REACTORS
330
CD0
102
}
102
{ACAD_XDICTIONARY
360
D08
102
}
330
CD0
100
AcDbVisualStyle
  2
Conceptual
 70
     9
 71
     3
 72
     2
 73
     0
 90
        0
 40
0.6
 41
30.0
 62
     5
 63
     7
421
 16777215
 74
     2
 91
        2
 64
     7
 65
   257
 75
     1
175
     1
 42
179.0
 92
        8
 66
     7
 43
1.0
 76
     1
 77
     6
 78
     2
 67
     7
 79
     3
170
     0
171
     0
290
     0
174
     0
 93
        1
 44
0.0
173
     0
291
     0
 45
0.0
1001
ACAD
1000
AcDbSavedByObjectVersion
1070
     0
  0
VISUALSTYLE
  5
CDB
102
{ACAD_REACTORS
330
CD0
102
}
102
{ACAD_XDICTIONARY
360
D0A
102
}
330
CD0
100
AcDbVisualStyle
  2
Dim
 70
    11
 71
     2
 72
     2
 73
     0
 90
        0
 40
0.6
 41
30.0
 62
     5
 63
     7
421
 16777215
 74
     1
 91
        4
 64
     7
 65
   257
 75
     1
175
     1
 42
1.0
 92
        8
 66
     7
 43
1.0
 76
     1
 77
     6
 78
     2
 67
     7
 79
     5
170
     0
171
     0
290
     0
174
     0
 93
        1
 44
-50.0
173
     0
291
     1
 45
0.0
1001
ACAD
1000
AcDbSavedByObjectVersion
1070
     0
  0
VISUALSTYLE
  5
CE3
102
{ACAD_REACTORS
330
CD0
102
}
102
{ACAD_XDICTIONARY
360
D1A
102
}
330
CD0
100
AcDbVisualStyle
  2
EdgeColorOff
 70
    22
 71
     2
 72
     2
 73
     0
 90
        0
 40
0.6
 41
30.0
 62
     5
 63
     7
421
 16777215
 74
     1
 91
        4
 64
     7
 65
   257
 75
     1
175
     1
 42
1.0
 92
        8
 66
     7
 43
1.0
 76
     1
 77
     6
 78
     2
 67
     7
 79
     5
170
     0
171
     0
290
     0
174
     0
 93
        1
 44
0.0
173
     0
291
     1
 45
0.0
1001
ACAD
1000
AcDbSavedByObjectVersion
1070
     0
  0
VISUALSTYLE
  5
CDF
102
{ACAD_REACTORS
330
CD0
102
}
102
{ACAD_XDICTIONARY
360
D12
102
}
330
CD0
100
AcDbVisualStyle
  2
Facepattern
 70
    15
 71
     2
 72
     2
 73
     0
 90
        0
 40
0.6
 41
30.0
 62
     5
 63
     7
421
 16777215
 74
     1
 91
        4
 64
     7
 65
   257
 75
     1
175
     1
 42
1.0
 92
        8
 66
     7
 43
1.0
 76
     1
 77
     6
 78
     2
 67
     7
 79
     5
170
     0
171
     0
290
     0
174
     0
 93
        1
 44
0.0
173
     0
291
     1
 45
0.0
1001
ACAD
1000
AcDbSavedByObjectVersion
1070
     0
  0
VISUALSTYLE
  5
CD1
102
{ACAD_REACTORS
330
CD0
102
}
102
{ACAD_XDICTIONARY
360
CF6
102
}
330
CD0
100
AcDbVisualStyle
  2
Flat
 70
     0
 71
     2
 72
     1
 73
     1
 90
        2
 40
0.6
 41
30.0
 62
     5
 63
     7
421
 16777215
 74
     0
 91
        0
 64
     7
 65
   257
 75
     1
175
     1
 42
1.0
 92
        8
 66
     7
 43
1.0
 76
     1
 77
     6
 78
     2
 67
     7
 79
     5
170
     0
171
     0
290
     0
174
     0
 93
       13
 44
0.0
173
     0
291
     1
 45
0.0
1001
ACAD
1000
AcDbSavedByObjectVersion
1070
     0
  0
VISUALSTYLE
  5
CD2
102
{ACAD_REACTORS
330
CD0
102
}
102
{ACAD_XDICTIONARY
360
CF8
102
}
330
CD0
100
AcDbVisualStyle
  2
FlatWithEdges
 70
     1
 71
     2
 72
     1
 73
     1
 90
        2
 40
0.6
 41
30.0
 62
     5
 63
     7
421
 16777215
 74
     1
 91
        0
 64
     7
 65
   257
 75
     1
175
     1
 42
1.0
 92
        0
 66
   257
 43
1.0
 76
     1
 77
     6
 78
     2
 67
     7
 79
     5
170
     0
171
     0
290
     0
174
     0
 93
       13
 44
0.0
173
     0
291
     1
 45
0.0
1001
ACAD
1000
AcDbSavedByObjectVersion
1070
     0
  0
VISUALSTYLE
  5
CD3
102
{ACAD_REACTORS
330
CD0
102
}
102
{ACAD_XDICTIONARY
360
CFA
102
}
330
CD0
100
AcDbVisualStyle
  2
Gouraud
 70
     2
 71
     2
 72
     2
 73
     1
 90
        2
 40
0.6
 41
30.0
 62
     5
 63
     7
421
 16777215
 74
     0
 91
        0
 64
     7
 65
   257
 75
     1
175
     1
 42
1.0
 92
        0
 66
     7
 43
1.0
 76
     1
 77
     6
 78
     2
 67
     7
 79
     5
170
     0
171
     0
290
     0
174
     0
 93
       13
 44
0.0
173
     0
291
     1
 45
0.0
1001
ACAD
1000
AcDbSavedByObjectVersion
1070
     0
  0
VISUALSTYLE
  5
CD4
102
{ACAD_REACTORS
330
CD0
102
}
102
{ACAD_XDICTIONARY
360
CFC
102
}
330
CD0
100
AcDbVisualStyle
  2
GouraudWithEdges
 70
     3
 71
     2
 72
     2
 73
     1
 90
        2
 40
0.6
 41
30.0
 62
     5
 63
     7
421
 16777215
 74
     1
 91
        0
 64
     7
 65
   257
 75
     1
175
     1
 42
1.0
 92
        0
 66
   257
 43
1.0
 76
     1
 77
     6
 78
     2
 67
     7
 79
     5
170
     0
171
     0
290
     0
174
     0
 93
       13
 44
0.0
173
     0
291
     1
 45
0.0
1001
ACAD
1000
AcDbSavedByObjectVersion
1070
     0
  0
VISUALSTYLE
  5
CD7
102
{ACAD_REACTORS
330
CD0
102
}
102
{ACAD_XDICTIONARY
360
D02
102
}
330
CD0
100
AcDbVisualStyle
  2
Hidden
 70
     6
 71
     1
 72
     2
 73
     2
 90
        0
 40
0.6
 41
30.0
 62
     5
 63
     7
421
 16777215
 74
     2
 91
        2
 64
     7
 65
   257
 75
     2
175
     1
 42
40.0
 92
        0
 66
   257
 43
1.0
 76
     1
 77
     6
 78
     2
 67
     7
 79
     3
170
     0
171
     0
290
     0
174
     0
 93
        1
 44
0.0
173
     0
291
     0
 45
0.0
1001
ACAD
1000
AcDbSavedByObjectVersion
1070
     0
  0
VISUALSTYLE
  5
CE1
102
{ACAD_REACTORS
330
CD0
102
}
102
{ACAD_XDICTIONARY
360
D16
102
}
330
CD0
100
AcDbVisualStyle
  2
JitterOff
 70
    20
 71
     2
 72
     2
 73
     0
 90
        0
 40
0.6
 41
30.0
 62
     5
 63
     7
421
 16777215
 74
     1
 91
        4
 64
     7
 65
   257
 75
     1
175
     1
 42
1.0
 92
       10
 66
     7
 43
1.0
 76
     1
 77
     6
 78
     2
 67
     7
 79
     5
170
     0
171
     0
290
     0
174
     0
 93
        1
 44
0.0
173
     0
291
     1
 45
0.0
1001
ACAD
1000
AcDbSavedByObjectVersion
1070
     0
  0
VISUALSTYLE
  5
CDE
102
{ACAD_REACTORS
330
CD0
102
}
102
{ACAD_XDICTIONARY
360
D10
102
}
330
CD0
100
AcDbVisualStyle
  2
Linepattern
 70
    14
 71
     2
 72
     2
 73
     0
 90
        0
 40
0.6
 41
30.0
 62
     5
 63
     7
421
 16777215
 74
     1
 91
        4
 64
     7
 65
   257
 75
     7
175
     7
 42
1.0
 92
        8
 66
     7
 43
1.0
 76
     1
 77
     6
 78
     2
 67
     7
 79
     5
170
     0
171
     0
290
     0
174
     0
 93
        1
 44
0.0
173
     0
291
     1
 45
0.0
1001
ACAD
1000
AcDbSavedByObjectVersion
1070
     0
  0
VISUALSTYLE
  5
CE2
102
{ACAD_REACTORS
330
CD0
102
}
102
{ACAD_XDICTIONARY
360
D18
102
}
330
CD0
100
AcDbVisualStyle
  2
OverhangOff
 70
    21
 71
     2
 72
     2
 73
     0
 90
        0
 40
0.6
 41
30.0
 62
     5
 63
     7
421
 16777215
 74
     1
 91
        4
 64
     7
 65
   257
 75
     1
175
     1
 42
1.0
 92
        9
 66
     7
 43
1.0
 76
     1
 77
     6
 78
     2
 67
     7
 79
     5
170
     0
171
     0
290
     0
174
     0
 93
        1
 44
0.0
173
     0
291
     1
 45
0.0
1001
ACAD
1000
AcDbSavedByObjectVersion
1070
     0
  0
VISUALSTYLE
  5
CD9
102
{ACAD_REACTORS
330
CD0
102
}
102
{ACAD_XDICTIONARY
360
D06
102
}
330
CD0
100
AcDbVisualStyle
  2
Realistic
 70
     8
 71
     2
 72
     3
 73
     0
 90
        2
 40
0.6
 41
30.0
 62
     5
 63
     7
421
 16777215
 74
     0
 91
        0
 64
     7
 65
   257
 75
     1
175
     1
 42
1.0
 92
        8
 66
   257
 43
1.0
 76
     1
 77
     6
 78
     2
 67
     7
 79
     3
170
     0
171
     0
290
     0
174
     0
 93
       13
 44
0.0
173
     0
291
     0
 45
0.0
1001
ACAD
1000
AcDbSavedByObjectVersion
1070
     0
  0
VISUALSTYLE
  5
CE8
102
{ACAD_REACTORS
330
CD0
102
}
102
{ACAD_XDICTIONARY
360
D24
102
}
330
CD0
100
AcDbVisualStyle
  2
Shaded
 70
    27
 71
     2
 72
     2
 73
     1
 90
        2
 40
0.6
 41
30.0
 62
     5
 63
     7
421
 16777215
 74
     0
 91
        4
 64
     7
 65
   257
 75
     1
175
     1
 42
1.0
 92
        8
 66
   257
 43
1.0
 76
     1
 77
     6
 78
     2
 67
     8
425
  7895160
 79
     3
170
     0
171
     0
290
     0
174
     0
 93
        5
 44
0.0
173
     0
291
     0
 45
0.0
1001
ACAD
1000
AcDbSavedByObjectVersion
1070
     0
  0
VISUALSTYLE
  5
CE7
102
{ACAD_REACTORS
330
CD0
102
}
102
{ACAD_XDICTIONARY
360
D22
102
}
330
CD0
100
AcDbVisualStyle
  2
Shaded with edges
 70
    26
 71
     2
 72
     2
 73
     1
 90
        2
 40
0.6
 41
30.0
 62
     5
 63
     7
421
 16777215
 74
     1
 91
       10
 64
     7
 65
   257
 75
     2
175
     1
 42
1.0
 92
        8
 66
   257
 43
1.0
 76
     1
 77
     6
 78
     2
 67
     7
 79
     3
170
     0
171
     0
290
     0
174
     0
 93
        5
 44
0.0
173
     0
291
     0
 45
0.0
1001
ACAD
1000
AcDbSavedByObjectVersion
1070
     0
  0
VISUALSTYLE
  5
CE4
102
{ACAD_REACTORS
330
CD0
102
}
102
{ACAD_XDICTIONARY
360
D1C
102
}
330
CD0
100
AcDbVisualStyle
  2
Shades of Gray
 70
    23
 71
     2
 72
     2
 73
     3
 90
        0
 40
0.6
 41
30.0
 62
     5
 63
     7
421
 16777215
 74
     2
 91
        2
 64
     7
 65
     7
 75
     1
175
     1
 42
40.0
 92
        8
 66
     7
 43
1.0
 76
     1
 77
     6
 78
     2
 67
     7
 79
     3
170
     0
171
     0
290
     0
174
     0
 93
        1
 44
0.0
173
     0
291
     0
 45
0.0
1001
ACAD
1000
AcDbSavedByObjectVersion
1070
     0
  0
VISUALSTYLE
  5
CE5
102
{ACAD_REACTORS
330
CD0
102
}
102
{ACAD_XDICTIONARY
360
D1E
102
}
330
CD0
100
AcDbVisualStyle
  2
Sketchy
 70
    24
 71
     1
 72
     2
 73
     2
 90
        0
 40
0.6
 41
30.0
 62
     5
 63
     7
421
 16777215
 74
     2
 91
        2
 64
     7
 65
     7
 75
     1
175
     1
 42
40.0
 92
       11
 66
     7
 43
1.0
 76
     1
 77
     6
 78
     2
 67
     7
 79
     6
170
     0
171
     0
290
     0
174
     0
 93
        1
 44
0.0
173
     0
291
     0
 45
0.0
1001
ACAD
1000
AcDbSavedByObjectVersion
1070
     0
  0
VISUALSTYLE
  5
CDD
102
{ACAD_REACTORS
330
CD0
102
}
102
{ACAD_XDICTIONARY
360
D0E
102
}
330
CD0
100
AcDbVisualStyle
  2
Thicken
 70
    13
 71
     2
 72
     2
 73
     0
 90
        0
 40
0.6
 41
30.0
 62
     5
 63
     7
421
 16777215
 74
     1
 91
        4
 64
     7
 65
   257
 75
     1
175
     1
 42
1.0
 92
       12
 66
     7
 43
1.0
 76
     1
 77
     6
 78
     2
 67
     7
 79
     5
170
     0
171
     0
290
     0
174
     0
 93
        1
 44
0.0
173
     0
291
     1
 45
0.0
1001
ACAD
1000
AcDbSavedByObjectVersion
1070
     0
  0
VISUALSTYLE
  5
CD6
102
{ACAD_REACTORS
330
CD0
102
}
102
{ACAD_XDICTIONARY
360
D00
102
}
330
CD0
100
AcDbVisualStyle
  2
Wireframe
 70
     5
 71
     0
 72
     2
 73
     0
 90
        0
 40
0.6
 41
30.0
 62
     5
 63
     7
421
 16777215
 74
     1
 91
        4
 64
     7
 65
   257
 75
     1
175
     1
 42
1.0
 92
        0
 66
   257
 43
1.0
 76
     1
 77
     6
 78
     2
 67
     7
 79
     3
170
     0
171
     0
290
     0
174
     0
 93
        1
 44
0.0
173
     0
291
     0
 45
0.0
1001
ACAD
1000
AcDbSavedByObjectVersion
1070
     0
  0
VISUALSTYLE
  5
CE6
102
{ACAD_REACTORS
330
CD0
102
}
102
{ACAD_XDICTIONARY
360
D20
102
}
330
CD0
100
AcDbVisualStyle
  2
X-Ray
 70
    25
 71
     2
 72
     2
 73
     1
 90
        1
 40
0.5
 41
30.0
 62
     5
 63
     7
421
 16777215
 74
     1
 91
        0
 64
     7
 65
   257
 75
     1
175
     1
 42
1.0
 92
        8
 66
     7
 43
1.0
 76
     1
 77
     6
 78
     2
 67
     7
 79
     3
170
     0
171
     0
290
     0
174
     0
 93
       13
 44
0.0
173
     0
291
     0
 45
0.0
1001
ACAD
1000
AcDbSavedByObjectVersion
1070
     0
  0
DICTIONARYVAR
  5
CF4
102
{ACAD_REACTORS
330
CF3
102
}
330
CF3
100
DictionaryVariables
280
     0
  1
1:1
  0
DICTIONARYVAR
  5
D34
102
{ACAD_REACTORS
330
CF3
102
}
330
CF3
100
DictionaryVariables
280
     0
  1
Standard
  0
DICTIONARYVAR
  5
D33
102
{ACAD_REACTORS
330
CF3
102
}
330
CF3
100
DictionaryVariables
280
     0
  1
Standard
  0
DICTIONARYVAR
  5
D35
102
{ACAD_REACTORS
330
CF3
102
}
330
CF3
100
DictionaryVariables
280
     0
  1
0
  0
DICTIONARYVAR
  5
CF5
102
{ACAD_REACTORS
330
CF3
102
}
330
CF3
100
DictionaryVariables
280
     0
  1
2
  0
DICTIONARY
  5
D28
330
CEB
100
AcDbDictionary
280
     1
281
     1
  3
ACAD_XREC_ROUNDTRIP
360
D29
  0
DICTIONARY
  5
D26
330
CEA
100
AcDbDictionary
280
     1
281
     1
  3
ACAD_XREC_ROUNDTRIP
360
D27
  0
DICTIONARY
  5
D2A
330
CEC
100
AcDbDictionary
280
     1
281
     1
  3
ACAD_XREC_ROUNDTRIP
360
D2B
  0
DICTIONARY
  5
D30
330
CF0
100
AcDbDictionary
280
     1
281
     1
  3
ACAD_XREC_ROUNDTRIP
360
D31
  0
DICTIONARY
  5
D2C
330
CEE
100
AcDbDictionary
280
     1
281
     1
  3
ACAD_ROUNDTRIP_2008_TABLESTYLE_CELLSTYLEMAP
360
D2E
  3
ACAD_XREC_ROUNDTRIP
360
D2D
  0
DICTIONARY
  5
CFE
330
CD5
100
AcDbDictionary
280
     1
281
     1
  3
ACAD_XREC_ROUNDTRIP
360
CFF
  0
DICTIONARY
  5
D04
330
CD8
100
AcDbDictionary
280
     1
281
     1
  3
ACAD_XREC_ROUNDTRIP
360
D05
  0
DICTIONARY
  5
D0C
330
CDC
100
AcDbDictionary
280
     1
281
     1
  3
ACAD_XREC_ROUNDTRIP
360
D0D
  0
DICTIONARY
  5
D14
330
CE0
100
AcDbDictionary
280
     1
281
     1
  3
ACAD_XREC_ROUNDTRIP
360
D15
  0
DICTIONARY
  5
D08
330
CDA
100
AcDbDictionary
280
     1
281
     1
  3
ACAD_XREC_ROUNDTRIP
360
D09
  0
DICTIONARY
  5
D0A
330
CDB
100
AcDbDictionary
280
     1
281
     1
  3
ACAD_XREC_ROUNDTRIP
360
D0B
  0
DICTIONARY
  5
D1A
330
CE3
100
AcDbDictionary
280
     1
281
     1
  3
ACAD_XREC_ROUNDTRIP
360
D1B
  0
DICTIONARY
  5
D12
330
CDF
100
AcDbDictionary
280
     1
281
     1
  3
ACAD_XREC_ROUNDTRIP
360
D13
  0
DICTIONARY
  5
CF6
330
CD1
100
AcDbDictionary
280
     1
281
     1
  3
ACAD_XREC_ROUNDTRIP
360
CF7
  0
DICTIONARY
  5
CF8
330
CD2
100
AcDbDictionary
280
     1
281
     1
  3
ACAD_XREC_ROUNDTRIP
360
CF9
  0
DICTIONARY
  5
CFA
330
CD3
100
AcDbDictionary
280
     1
281
     1
  3
ACAD_XREC_ROUNDTRIP
360
CFB
  0
DICTIONARY
  5
CFC
330
CD4
100
AcDbDictionary
280
     1
281
     1
  3
ACAD_XREC_ROUNDTRIP
360
CFD
  0
DICTIONARY
  5
D02
330
CD7
100
AcDbDictionary
280
     1
281
     1
  3
ACAD_XREC_ROUNDTRIP
360
D03
  0
DICTIONARY
  5
D16
330
CE1
100
AcDbDictionary
280
     1
281
     1
  3
ACAD_XREC_ROUNDTRIP
360
D17
  0
DICTIONARY
  5
D10
330
CDE
100
AcDbDictionary
280
     1
281
     1
  3
ACAD_XREC_ROUNDTRIP
360
D11
  0
DICTIONARY
  5
D18
330
CE2
100
AcDbDictionary
280
     1
281
     1
  3
ACAD_XREC_ROUNDTRIP
360
D19
  0
DICTIONARY
  5
D06
330
CD9
100
AcDbDictionary
280
     1
281
     1
  3
ACAD_XREC_ROUNDTRIP
360
D07
  0
DICTIONARY
  5
D24
330
CE8
100
AcDbDictionary
280
     1
281
     1
  3
ACAD_XREC_ROUNDTRIP
360
D25
  0
DICTIONARY
  5
D22
330
CE7
100
AcDbDictionary
280
     1
281
     1
  3
ACAD_XREC_ROUNDTRIP
360
D23
  0
DICTIONARY
  5
D1C
330
CE4
100
AcDbDictionary
280
     1
281
     1
  3
ACAD_XREC_ROUNDTRIP
360
D1D
  0
DICTIONARY
  5
D1E
330
CE5
100
AcDbDictionary
280
     1
281
     1
  3
ACAD_XREC_ROUNDTRIP
360
D1F
  0
DICTIONARY
  5
D0E
330
CDD
100
AcDbDictionary
280
     1
281
     1
  3
ACAD_XREC_ROUNDTRIP
360
D0F
  0
DICTIONARY
  5
D00
330
CD6
100
AcDbDictionary
280
     1
281
     1
  3
ACAD_XREC_ROUNDTRIP
360
D01
  0
DICTIONARY
  5
D20
330
CE6
100
AcDbDictionary
280
     1
281
     1
  3
ACAD_XREC_ROUNDTRIP
360
D21
  0
XRECORD
  5
D29
102
{ACAD_REACTORS
330
D28
102
}
330
D28
100
AcDbXrecord
280
     1
102
MATERIAL
148
0.0
149
0.0
149
0.0
 93
        0
 94
      127
282
     0
 72
     1
 77
     1
171
     1
175
     1
179
     1
273
     0
  0
XRECORD
  5
D27
102
{ACAD_REACTORS
330
D26
102
}
330
D26
100
AcDbXrecord
280
     1
102
MATERIAL
148
0.0
149
0.0
149
0.0
 93
        0
 94
      127
282
     0
 72
     1
 77
     1
171
     1
175
     1
179
     1
273
     0
  0
XRECORD
  5
D2B
102
{ACAD_REACTORS
330
D2A
102
}
330
D2A
100
AcDbXrecord
280
     1
102
MATERIAL
148
0.0
149
0.0
149
0.0
 93
        0
 94
      127
282
     0
 72
     1
 77
     1
171
     1
175
     1
179
     1
273
     0
  0
XRECORD
  5
D31
102
{ACAD_REACTORS
330
D30
102
}
330
D30
100
AcDbXrecord
280
     1
102
ACAD_ROUNDTRIP_2010_MLEADER_STYLE
  0
CELLSTYLEMAP
  5
D2E
102
{ACAD_REACTORS
330
D2C
102
}
330
D2C
100
AcDbCellStyleMap
 90
        3
300
CELLSTYLE
  1
TABLEFORMAT_BEGIN
 90
        5
170
     1
 91
        0
 92
    32768
 62
   257
 93
        1
300
CONTENTFORMAT
  1
CONTENTFORMAT_BEGIN
 90
        0
 91
        0
 92
        4
 93
        0
300

 40
0.0
140
1.0
 94
        5
 62
     0
340
11
144
0.25
309
CONTENTFORMAT_END
171
     1
301
MARGIN
  1
CELLMARGIN_BEGIN
 40
0.06
 40
0.06
 40
0.06
 40
0.06
 40
0.06
 40
0.06
309
CELLMARGIN_END
 94
        6
 95
        1
302
GRIDFORMAT
  1
GRIDFORMAT_BEGIN
 90
        0
 91
        1
 62
     0
 92
       -2
340
14
 93
        0
 40
0.045
309
GRIDFORMAT_END
 95
        2
302
GRIDFORMAT
  1
GRIDFORMAT_BEGIN
 90
        0
 91
        1
 62
     0
 92
       -2
340
14
 93
        0
 40
0.045
309
GRIDFORMAT_END
 95
        4
302
GRIDFORMAT
  1
GRIDFORMAT_BEGIN
 90
        0
 91
        1
 62
     0
 92
       -2
340
14
 93
        0
 40
0.045
309
GRIDFORMAT_END
 95
        8
302
GRIDFORMAT
  1
GRIDFORMAT_BEGIN
 90
        0
 91
        1
 62
     0
 92
       -2
340
14
 93
        0
 40
0.045
309
GRIDFORMAT_END
 95
       16
302
GRIDFORMAT
  1
GRIDFORMAT_BEGIN
 90
        0
 91
        1
 62
     0
 92
       -2
340
14
 93
        0
 40
0.045
309
GRIDFORMAT_END
 95
       32
302
GRIDFORMAT
  1
GRIDFORMAT_BEGIN
 90
        0
 91
        1
 62
     0
 92
       -2
340
14
 93
        0
 40
0.045
309
GRIDFORMAT_END
309
TABLEFORMAT_END
  1
CELLSTYLE_BEGIN
 90
        1
 91
        1
300
_TITLE
309
CELLSTYLE_END
300
CELLSTYLE
  1
TABLEFORMAT_BEGIN
 90
        5
170
     1
 91
        0
 92
        0
 62
   257
 93
        1
300
CONTENTFORMAT
  1
CONTENTFORMAT_BEGIN
 90
        0
 91
        0
 92
        4
 93
        0
300

 40
0.0
140
1.0
 94
        5
 62
     0
340
11
144
0.18
309
CONTENTFORMAT_END
171
     1
301
MARGIN
  1
CELLMARGIN_BEGIN
 40
0.06
 40
0.06
 40
0.06
 40
0.06
 40
0.06
 40
0.06
309
CELLMARGIN_END
 94
        6
 95
        1
302
GRIDFORMAT
  1
GRIDFORMAT_BEGIN
 90
        0
 91
        1
 62
     0
 92
       -2
340
14
 93
        0
 40
0.045
309
GRIDFORMAT_END
 95
        2
302
GRIDFORMAT
  1
GRIDFORMAT_BEGIN
 90
        0
 91
        1
 62
     0
 92
       -2
340
14
 93
        0
 40
0.045
309
GRIDFORMAT_END
 95
        4
302
GRIDFORMAT
  1
GRIDFORMAT_BEGIN
 90
        0
 91
        1
 62
     0
 92
       -2
340
14
 93
        0
 40
0.045
309
GRIDFORMAT_END
 95
        8
302
GRIDFORMAT
  1
GRIDFORMAT_BEGIN
 90
        0
 91
        1
 62
     0
 92
       -2
340
14
 93
        0
 40
0.045
309
GRIDFORMAT_END
 95
       16
302
GRIDFORMAT
  1
GRIDFORMAT_BEGIN
 90
        0
 91
        1
 62
     0
 92
       -2
340
14
 93
        0
 40
0.045
309
GRIDFORMAT_END
 95
       32
302
GRIDFORMAT
  1
GRIDFORMAT_BEGIN
 90
        0
 91
        1
 62
     0
 92
       -2
340
14
 93
        0
 40
0.045
309
GRIDFORMAT_END
309
TABLEFORMAT_END
  1
CELLSTYLE_BEGIN
 90
        2
 91
        1
300
_HEADER
309
CELLSTYLE_END
300
CELLSTYLE
  1
TABLEFORMAT_BEGIN
 90
        5
170
     1
 91
        0
 92
        0
 62
   257
 93
        1
300
CONTENTFORMAT
  1
CONTENTFORMAT_BEGIN
 90
        0
 91
        0
 92
        4
 93
        0
300

 40
0.0
140
1.0
 94
        2
 62
     0
340
11
144
0.18
309
CONTENTFORMAT_END
171
     1
301
MARGIN
  1
CELLMARGIN_BEGIN
 40
0.06
 40
0.06
 40
0.06
 40
0.06
 40
0.06
 40
0.06
309
CELLMARGIN_END
 94
        6
 95
        1
302
GRIDFORMAT
  1
GRIDFORMAT_BEGIN
 90
        0
 91
        1
 62
     0
 92
       -2
340
14
 93
        0
 40
0.045
309
GRIDFORMAT_END
 95
        2
302
GRIDFORMAT
  1
GRIDFORMAT_BEGIN
 90
        0
 91
        1
 62
     0
 92
       -2
340
14
 93
        0
 40
0.045
309
GRIDFORMAT_END
 95
        4
302
GRIDFORMAT
  1
GRIDFORMAT_BEGIN
 90
        0
 91
        1
 62
     0
 92
       -2
340
14
 93
        0
 40
0.045
309
GRIDFORMAT_END
 95
        8
302
GRIDFORMAT
  1
GRIDFORMAT_BEGIN
 90
        0
 91
        1
 62
     0
 92
       -2
340
14
 93
        0
 40
0.045
309
GRIDFORMAT_END
 95
       16
302
GRIDFORMAT
  1
GRIDFORMAT_BEGIN
 90
        0
 91
        1
 62
     0
 92
       -2
340
14
 93
        0
 40
0.045
309
GRIDFORMAT_END
 95
       32
302
GRIDFORMAT
  1
GRIDFORMAT_BEGIN
 90
        0
 91
        1
 62
     0
 92
       -2
340
14
 93
        0
 40
0.045
309
GRIDFORMAT_END
309
TABLEFORMAT_END
  1
CELLSTYLE_BEGIN
 90
        3
 91
        2
300
_DATA
309
CELLSTYLE_END
  0
XRECORD
  5
D2D
102
{ACAD_REACTORS
330
D2C
102
}
330
D2C
100
AcDbXrecord
280
     1
102
ACAD_ROUNDTRIP_PRE2007_TABLESTYLE
 90
        4
 91
        0
  1

 92
        4
 93
        0
  2

 94
        4
 95
        0
  3

  0
XRECORD
  5
CFF
102
{ACAD_REACTORS
330
CFE
102
}
330
CFE
100
AcDbXrecord
280
     1
102
RTVSPropertyOp0
 70
     1
102
RTVSPropertyOp1
 70
     1
102
RTVSPropertyOp2
 70
     1
102
RTVSPropertyOp3
 70
     1
102
RTVSPropertyOp4
 70
     1
102
RTVSPropertyOp5
 70
     1
102
RTVSPropertyOp6
 70
     1
102
RTVSPropertyOp7
 70
     1
102
RTVSPropertyOp8
 70
     1
102
RTVSPropertyOp9
 70
     1
102
RTVSPropertyOp10
 70
     1
102
RTVSPropertyOp11
 70
     1
102
RTVSPropertyOp12
 70
     1
102
RTVSPropertyOp13
 70
     1
102
RTVSPropertyOp14
 70
     1
102
RTVSPropertyOp15
 70
     1
102
RTVSPropertyOp16
 70
     1
102
RTVSPropertyOp17
 70
     1
102
RTVSPropertyOp18
 70
     1
102
RTVSPropertyOp19
 70
     1
102
RTVSPropertyOp20
 70
     1
102
RTVSPropertyOp21
 70
     1
102
RTVSPropertyOp22
 70
     1
102
RTVSPropertyOp23
 70
     1
102
RTVSPropertyOp24
 70
     1
102
RTVSPropertyOp25
 70
     1
102
RTVSPropertyOp26
 70
     1
102
RTVSPropertyOp27
 70
     1
102
RTVSPropertyOp28
 70
     1
102
RTVSPropertyOp29
 70
     1
102
RTVSPropertyOp30
 70
     1
102
RTVSPropertyOp31
 70
     1
102
RTVSPropertyOp32
 70
     1
102
RTVSPropertyOp33
 70
     1
102
RTVSPropertyOp34
 70
     1
102
RTVSPropertyOp35
 70
     1
102
RTVSPropertyOp36
 70
     1
102
RTVSPropertyOp37
 70
     1
102
RTVSPropertyOp38
 70
     1
102
RTVSPropertyOp39
 70
     1
102
RTVSPropertyOp40
 70
     1
102
RTVSPropertyOp41
 70
     1
102
RTVSPropertyOp42
 70
     1
102
RTVSPropertyOp43
 70
     1
102
RTVSPropertyOp44
 70
     1
102
RTVSPropertyOp45
 70
     1
102
RTVSPropertyOp46
 70
     1
102
RTVSPropertyOp47
 70
     1
102
RTVSPropertyOp48
 70
     1
102
RTVSPropertyOp49
 70
     1
102
RTVSPropertyOp50
 70
     1
102
RTVSPropertyOp51
 70
     0
102
RTVSPropertyOp52
 70
     0
102
RTVSPropertyOp53
 70
     1
102
RTVSPropertyOp54
 70
     1
102
RTVSPropertyOp55
 70
     1
102
RTVSPropertyOp56
 70
     1
102
RTVSPropertyOp57
 70
     1
102
RTVSPost2010Prop28
280
     1
102
RTVSPost2010PropOp28
 70
     1
102
RTVSPost2010Prop29
280
     1
102
RTVSPost2010PropOp29
 70
     1
102
RTVSPost2010Prop30
280
     0
102
RTVSPost2010PropOp30
 70
     1
102
RTVSPost2010Prop31
280
     0
102
RTVSPost2010PropOp31
 70
     1
102
RTVSPost2010Prop32
280
     0
102
RTVSPost2010PropOp32
 70
     1
102
RTVSPost2010Prop33
280
     0
102
RTVSPost2010PropOp33
 70
     1
102
RTVSPost2010Prop34
280
     0
102
RTVSPost2010PropOp34
 70
     1
102
RTVSPost2010Prop35
280
     0
102
RTVSPost2010PropOp35
 70
     1
102
RTVSPost2010Prop36
280
     0
102
RTVSPost2010PropOp36
 70
     1
102
RTVSPost2010Prop37
 90
       50
102
RTVSPost2010PropOp37
 70
     1
102
RTVSPost2010Prop38
140
0.0
102
RTVSPost2010PropOp38
 70
     1
102
RTVSPost2010Prop39
140
1.0
102
RTVSPost2010PropOp39
 70
     1
102
RTVSPost2010Prop40
 90
        0
102
RTVSPost2010PropOp40
 70
     1
102
RTVSPost2010Prop41ColorIndex
 90
       18
102
RTVSPost2010Prop41ColorRGB
 90
        0
102
RTVSPost2010PropOp41
 70
     1
102
RTVSPost2010Prop42
 90
       50
102
RTVSPost2010PropOp42
 70
     1
102
RTVSPost2010Prop43
 90
        3
102
RTVSPost2010PropOp43
 70
     1
102
RTVSPost2010Prop44ColorIndex
 90
        5
102
RTVSPost2010Prop44ColorRGB
 90
      255
102
RTVSPost2010PropOp44
 70
     1
102
RTVSPost2010Prop45
280
     0
102
RTVSPost2010PropOp45
 70
     1
102
RTVSPost2010Prop46
 90
       50
102
RTVSPost2010PropOp46
 70
     1
102
RTVSPost2010Prop47
 90
       50
102
RTVSPost2010PropOp47
 70
     1
102
RTVSPost2010Prop48
 90
       50
102
RTVSPost2010PropOp48
 70
     1
102
RTVSPost2010Prop49
280
     0
102
RTVSPost2010PropOp49
 70
     1
102
RTVSPost2010Prop50
 90
       50
102
RTVSPost2010PropOp50
 70
     1
102
RTVSPost2010Prop51ColorIndex
 90
      256
102
RTVSPost2010Prop51ColorRGB
 90
-16777216
102
RTVSPost2010PropOp51
 70
     0
102
RTVSPost2010Prop52
140
1.0
102
RTVSPost2010PropOp52
 70
     0
102
RTVSPost2010Prop53
 90
        2
102
RTVSPost2010PropOp53
 70
     1
102
RTVSPost2010Prop54
  1
strokes_ogs.tif
102
RTVSPost2010PropOp54
 70
     1
102
RTVSPost2010Prop55
280
     0
102
RTVSPost2010PropOp55
 70
     1
102
RTVSPost2010Prop56
140
1.0
102
RTVSPost2010PropOp56
 70
     1
102
RTVSPost2010Prop57
140
1.0
102
RTVSPost2010PropOp57
 70
     1
  0
XRECORD
  5
D05
102
{ACAD_REACTORS
330
D04
102
}
330
D04
100
AcDbXrecord
280
     1
102
RTVSPropertyOp0
 70
     1
102
RTVSPropertyOp1
 70
     1
102
RTVSPropertyOp2
 70
     1
102
RTVSPropertyOp3
 70
     1
102
RTVSPropertyOp4
 70
     1
102
RTVSPropertyOp5
 70
     1
102
RTVSPropertyOp6
 70
     1
102
RTVSPropertyOp7
 70
     1
102
RTVSPropertyOp8
 70
     1
102
RTVSPropertyOp9
 70
     1
102
RTVSPropertyOp10
 70
     1
102
RTVSPropertyOp11
 70
     1
102
RTVSPropertyOp12
 70
     1
102
RTVSPropertyOp13
 70
     1
102
RTVSPropertyOp14
 70
     1
102
RTVSPropertyOp15
 70
     1
102
RTVSPropertyOp16
 70
     1
102
RTVSPropertyOp17
 70
     1
102
RTVSPropertyOp18
 70
     1
102
RTVSPropertyOp19
 70
     1
102
RTVSPropertyOp20
 70
     1
102
RTVSPropertyOp21
 70
     1
102
RTVSPropertyOp22
 70
     1
102
RTVSPropertyOp23
 70
     1
102
RTVSPropertyOp24
 70
     1
102
RTVSPropertyOp25
 70
     1
102
RTVSPropertyOp26
 70
     1
102
RTVSPropertyOp27
 70
     1
102
RTVSPropertyOp28
 70
     1
102
RTVSPropertyOp29
 70
     1
102
RTVSPropertyOp30
 70
     1
102
RTVSPropertyOp31
 70
     1
102
RTVSPropertyOp32
 70
     1
102
RTVSPropertyOp33
 70
     1
102
RTVSPropertyOp34
 70
     1
102
RTVSPropertyOp35
 70
     1
102
RTVSPropertyOp36
 70
     1
102
RTVSPropertyOp37
 70
     1
102
RTVSPropertyOp38
 70
     1
102
RTVSPropertyOp39
 70
     1
102
RTVSPropertyOp40
 70
     1
102
RTVSPropertyOp41
 70
     1
102
RTVSPropertyOp42
 70
     1
102
RTVSPropertyOp43
 70
     1
102
RTVSPropertyOp44
 70
     1
102
RTVSPropertyOp45
 70
     1
102
RTVSPropertyOp46
 70
     1
102
RTVSPropertyOp47
 70
     1
102
RTVSPropertyOp48
 70
     1
102
RTVSPropertyOp49
 70
     1
102
RTVSPropertyOp50
 70
     1
102
RTVSPropertyOp51
 70
     0
102
RTVSPropertyOp52
 70
     0
102
RTVSPropertyOp53
 70
     1
102
RTVSPropertyOp54
 70
     1
102
RTVSPropertyOp55
 70
     1
102
RTVSPropertyOp56
 70
     1
102
RTVSPropertyOp57
 70
     1
102
RTVSPost2010Prop28
280
     0
102
RTVSPost2010PropOp28
 70
     1
102
RTVSPost2010Prop29
280
     1
102
RTVSPost2010PropOp29
 70
     1
102
RTVSPost2010Prop30
280
     1
102
RTVSPost2010PropOp30
 70
     1
102
RTVSPost2010Prop31
280
     0
102
RTVSPost2010PropOp31
 70
     1
102
RTVSPost2010Prop32
280
     0
102
RTVSPost2010PropOp32
 70
     1
102
RTVSPost2010Prop33
280
     0
102
RTVSPost2010PropOp33
 70
     1
102
RTVSPost2010Prop34
280
     0
102
RTVSPost2010PropOp34
 70
     1
102
RTVSPost2010Prop35
280
     0
102
RTVSPost2010PropOp35
 70
     1
102
RTVSPost2010Prop36
280
     0
102
RTVSPost2010PropOp36
 70
     1
102
RTVSPost2010Prop37
 90
       50
102
RTVSPost2010PropOp37
 70
     1
102
RTVSPost2010Prop38
140
0.0
102
RTVSPost2010PropOp38
 70
     1
102
RTVSPost2010Prop39
140
1.0
102
RTVSPost2010PropOp39
 70
     1
102
RTVSPost2010Prop40
 90
        0
102
RTVSPost2010PropOp40
 70
     1
102
RTVSPost2010Prop41ColorIndex
 90
       18
102
RTVSPost2010Prop41ColorRGB
 90
        0
102
RTVSPost2010PropOp41
 70
     1
102
RTVSPost2010Prop42
 90
       50
102
RTVSPost2010PropOp42
 70
     1
102
RTVSPost2010Prop43
 90
        3
102
RTVSPost2010PropOp43
 70
     1
102
RTVSPost2010Prop44ColorIndex
 90
        5
102
RTVSPost2010Prop44ColorRGB
 90
      255
102
RTVSPost2010PropOp44
 70
     1
102
RTVSPost2010Prop45
280
     0
102
RTVSPost2010PropOp45
 70
     1
102
RTVSPost2010Prop46
 90
       50
102
RTVSPost2010PropOp46
 70
     1
102
RTVSPost2010Prop47
 90
       50
102
RTVSPost2010PropOp47
 70
     1
102
RTVSPost2010Prop48
 90
       50
102
RTVSPost2010PropOp48
 70
     1
102
RTVSPost2010Prop49
280
     0
102
RTVSPost2010PropOp49
 70
     1
102
RTVSPost2010Prop50
 90
       50
102
RTVSPost2010PropOp50
 70
     1
102
RTVSPost2010Prop51ColorIndex
 90
      256
102
RTVSPost2010Prop51ColorRGB
 90
-16777216
102
RTVSPost2010PropOp51
 70
     0
102
RTVSPost2010Prop52
140
1.0
102
RTVSPost2010PropOp52
 70
     0
102
RTVSPost2010Prop53
 90
        2
102
RTVSPost2010PropOp53
 70
     1
102
RTVSPost2010Prop54
  1
strokes_ogs.tif
102
RTVSPost2010PropOp54
 70
     1
102
RTVSPost2010Prop55
280
     0
102
RTVSPost2010PropOp55
 70
     1
102
RTVSPost2010Prop56
140
1.0
102
RTVSPost2010PropOp56
 70
     1
102
RTVSPost2010Prop57
140
1.0
102
RTVSPost2010PropOp57
 70
     1
  0
XRECORD
  5
D0D
102
{ACAD_REACTORS
330
D0C
102
}
330
D0C
100
AcDbXrecord
280
     1
102
RTVSPropertyOp0
 70
     1
102
RTVSPropertyOp1
 70
     1
102
RTVSPropertyOp2
 70
     1
102
RTVSPropertyOp3
 70
     1
102
RTVSPropertyOp4
 70
     1
102
RTVSPropertyOp5
 70
     1
102
RTVSPropertyOp6
 70
     1
102
RTVSPropertyOp7
 70
     1
102
RTVSPropertyOp8
 70
     1
102
RTVSPropertyOp9
 70
     1
102
RTVSPropertyOp10
 70
     1
102
RTVSPropertyOp11
 70
     1
102
RTVSPropertyOp12
 70
     1
102
RTVSPropertyOp13
 70
     1
102
RTVSPropertyOp14
 70
     1
102
RTVSPropertyOp15
 70
     1
102
RTVSPropertyOp16
 70
     1
102
RTVSPropertyOp17
 70
     1
102
RTVSPropertyOp18
 70
     1
102
RTVSPropertyOp19
 70
     1
102
RTVSPropertyOp20
 70
     1
102
RTVSPropertyOp21
 70
     1
102
RTVSPropertyOp22
 70
     1
102
RTVSPropertyOp23
 70
     1
102
RTVSPropertyOp24
 70
     1
102
RTVSPropertyOp25
 70
     1
102
RTVSPropertyOp26
 70
     1
102
RTVSPropertyOp27
 70
     1
102
RTVSPropertyOp28
 70
     1
102
RTVSPropertyOp29
 70
     1
102
RTVSPropertyOp30
 70
     1
102
RTVSPropertyOp31
 70
     1
102
RTVSPropertyOp32
 70
     1
102
RTVSPropertyOp33
 70
     1
102
RTVSPropertyOp34
 70
     1
102
RTVSPropertyOp35
 70
     1
102
RTVSPropertyOp36
 70
     1
102
RTVSPropertyOp37
 70
     1
102
RTVSPropertyOp38
 70
     1
102
RTVSPropertyOp39
 70
     1
102
RTVSPropertyOp40
 70
     1
102
RTVSPropertyOp41
 70
     1
102
RTVSPropertyOp42
 70
     1
102
RTVSPropertyOp43
 70
     1
102
RTVSPropertyOp44
 70
     1
102
RTVSPropertyOp45
 70
     1
102
RTVSPropertyOp46
 70
     1
102
RTVSPropertyOp47
 70
     1
102
RTVSPropertyOp48
 70
     1
102
RTVSPropertyOp49
 70
     1
102
RTVSPropertyOp50
 70
     1
102
RTVSPropertyOp51
 70
     0
102
RTVSPropertyOp52
 70
     0
102
RTVSPropertyOp53
 70
     1
102
RTVSPropertyOp54
 70
     1
102
RTVSPropertyOp55
 70
     1
102
RTVSPropertyOp56
 70
     1
102
RTVSPropertyOp57
 70
     1
102
RTVSPost2010Prop28
280
     0
102
RTVSPost2010PropOp28
 70
     1
102
RTVSPost2010Prop29
280
     1
102
RTVSPost2010PropOp29
 70
     1
102
RTVSPost2010Prop30
280
     1
102
RTVSPost2010PropOp30
 70
     1
102
RTVSPost2010Prop31
280
     0
102
RTVSPost2010PropOp31
 70
     1
102
RTVSPost2010Prop32
280
     0
102
RTVSPost2010PropOp32
 70
     1
102
RTVSPost2010Prop33
280
     0
102
RTVSPost2010PropOp33
 70
     1
102
RTVSPost2010Prop34
280
     0
102
RTVSPost2010PropOp34
 70
     1
102
RTVSPost2010Prop35
280
     0
102
RTVSPost2010PropOp35
 70
     1
102
RTVSPost2010Prop36
280
     0
102
RTVSPost2010PropOp36
 70
     1
102
RTVSPost2010Prop37
 90
       50
102
RTVSPost2010PropOp37
 70
     1
102
RTVSPost2010Prop38
140
0.0
102
RTVSPost2010PropOp38
 70
     1
102
RTVSPost2010Prop39
140
1.0
102
RTVSPost2010PropOp39
 70
     1
102
RTVSPost2010Prop40
 90
        0
102
RTVSPost2010PropOp40
 70
     1
102
RTVSPost2010Prop41ColorIndex
 90
       18
102
RTVSPost2010Prop41ColorRGB
 90
        0
102
RTVSPost2010PropOp41
 70
     1
102
RTVSPost2010Prop42
 90
       50
102
RTVSPost2010PropOp42
 70
     1
102
RTVSPost2010Prop43
 90
        3
102
RTVSPost2010PropOp43
 70
     1
102
RTVSPost2010Prop44ColorIndex
 90
        5
102
RTVSPost2010Prop44ColorRGB
 90
      255
102
RTVSPost2010PropOp44
 70
     1
102
RTVSPost2010Prop45
280
     0
102
RTVSPost2010PropOp45
 70
     1
102
RTVSPost2010Prop46
 90
       50
102
RTVSPost2010PropOp46
 70
     1
102
RTVSPost2010Prop47
 90
       50
102
RTVSPost2010PropOp47
 70
     1
102
RTVSPost2010Prop48
 90
       50
102
RTVSPost2010PropOp48
 70
     1
102
RTVSPost2010Prop49
280
     0
102
RTVSPost2010PropOp49
 70
     1
102
RTVSPost2010Prop50
 90
       50
102
RTVSPost2010PropOp50
 70
     1
102
RTVSPost2010Prop51ColorIndex
 90
      256
102
RTVSPost2010Prop51ColorRGB
 90
-16777216
102
RTVSPost2010PropOp51
 70
     0
102
RTVSPost2010Prop52
140
1.0
102
RTVSPost2010PropOp52
 70
     0
102
RTVSPost2010Prop53
 90
        2
102
RTVSPost2010PropOp53
 70
     1
102
RTVSPost2010Prop54
  1
strokes_ogs.tif
102
RTVSPost2010PropOp54
 70
     1
102
RTVSPost2010Prop55
280
     0
102
RTVSPost2010PropOp55
 70
     1
102
RTVSPost2010Prop56
140
1.0
102
RTVSPost2010PropOp56
 70
     1
102
RTVSPost2010Prop57
140
1.0
102
RTVSPost2010PropOp57
 70
     1
  0
XRECORD
  5
D15
102
{ACAD_REACTORS
330
D14
102
}
330
D14
100
AcDbXrecord
280
     1
102
RTVSPropertyOp0
 70
     1
102
RTVSPropertyOp1
 70
     1
102
RTVSPropertyOp2
 70
     1
102
RTVSPropertyOp3
 70
     1
102
RTVSPropertyOp4
 70
     1
102
RTVSPropertyOp5
 70
     1
102
RTVSPropertyOp6
 70
     1
102
RTVSPropertyOp7
 70
     1
102
RTVSPropertyOp8
 70
     1
102
RTVSPropertyOp9
 70
     1
102
RTVSPropertyOp10
 70
     1
102
RTVSPropertyOp11
 70
     1
102
RTVSPropertyOp12
 70
     1
102
RTVSPropertyOp13
 70
     1
102
RTVSPropertyOp14
 70
     1
102
RTVSPropertyOp15
 70
     1
102
RTVSPropertyOp16
 70
     1
102
RTVSPropertyOp17
 70
     1
102
RTVSPropertyOp18
 70
     1
102
RTVSPropertyOp19
 70
     1
102
RTVSPropertyOp20
 70
     1
102
RTVSPropertyOp21
 70
     1
102
RTVSPropertyOp22
 70
     1
102
RTVSPropertyOp23
 70
     1
102
RTVSPropertyOp24
 70
     1
102
RTVSPropertyOp25
 70
     1
102
RTVSPropertyOp26
 70
     1
102
RTVSPropertyOp27
 70
     1
102
RTVSPropertyOp28
 70
     1
102
RTVSPropertyOp29
 70
     1
102
RTVSPropertyOp30
 70
     1
102
RTVSPropertyOp31
 70
     1
102
RTVSPropertyOp32
 70
     1
102
RTVSPropertyOp33
 70
     1
102
RTVSPropertyOp34
 70
     1
102
RTVSPropertyOp35
 70
     1
102
RTVSPropertyOp36
 70
     1
102
RTVSPropertyOp37
 70
     1
102
RTVSPropertyOp38
 70
     1
102
RTVSPropertyOp39
 70
     1
102
RTVSPropertyOp40
 70
     1
102
RTVSPropertyOp41
 70
     1
102
RTVSPropertyOp42
 70
     1
102
RTVSPropertyOp43
 70
     1
102
RTVSPropertyOp44
 70
     1
102
RTVSPropertyOp45
 70
     1
102
RTVSPropertyOp46
 70
     1
102
RTVSPropertyOp47
 70
     1
102
RTVSPropertyOp48
 70
     1
102
RTVSPropertyOp49
 70
     1
102
RTVSPropertyOp50
 70
     1
102
RTVSPropertyOp51
 70
     0
102
RTVSPropertyOp52
 70
     0
102
RTVSPropertyOp53
 70
     1
102
RTVSPropertyOp54
 70
     1
102
RTVSPropertyOp55
 70
     1
102
RTVSPropertyOp56
 70
     1
102
RTVSPropertyOp57
 70
     1
102
RTVSPost2010Prop28
280
     0
102
RTVSPost2010PropOp28
 70
     1
102
RTVSPost2010Prop29
280
     1
102
RTVSPost2010PropOp29
 70
     1
102
RTVSPost2010Prop30
280
     1
102
RTVSPost2010PropOp30
 70
     1
102
RTVSPost2010Prop31
280
     0
102
RTVSPost2010PropOp31
 70
     1
102
RTVSPost2010Prop32
280
     0
102
RTVSPost2010PropOp32
 70
     1
102
RTVSPost2010Prop33
280
     0
102
RTVSPost2010PropOp33
 70
     1
102
RTVSPost2010Prop34
280
     0
102
RTVSPost2010PropOp34
 70
     1
102
RTVSPost2010Prop35
280
     0
102
RTVSPost2010PropOp35
 70
     1
102
RTVSPost2010Prop36
280
     0
102
RTVSPost2010PropOp36
 70
     1
102
RTVSPost2010Prop37
 90
       50
102
RTVSPost2010PropOp37
 70
     1
102
RTVSPost2010Prop38
140
0.0
102
RTVSPost2010PropOp38
 70
     1
102
RTVSPost2010Prop39
140
1.0
102
RTVSPost2010PropOp39
 70
     1
102
RTVSPost2010Prop40
 90
        0
102
RTVSPost2010PropOp40
 70
     1
102
RTVSPost2010Prop41ColorIndex
 90
       18
102
RTVSPost2010Prop41ColorRGB
 90
        0
102
RTVSPost2010PropOp41
 70
     1
102
RTVSPost2010Prop42
 90
       50
102
RTVSPost2010PropOp42
 70
     1
102
RTVSPost2010Prop43
 90
        3
102
RTVSPost2010PropOp43
 70
     1
102
RTVSPost2010Prop44ColorIndex
 90
        5
102
RTVSPost2010Prop44ColorRGB
 90
      255
102
RTVSPost2010PropOp44
 70
     1
102
RTVSPost2010Prop45
280
     0
102
RTVSPost2010PropOp45
 70
     1
102
RTVSPost2010Prop46
 90
       50
102
RTVSPost2010PropOp46
 70
     1
102
RTVSPost2010Prop47
 90
       50
102
RTVSPost2010PropOp47
 70
     1
102
RTVSPost2010Prop48
 90
       50
102
RTVSPost2010PropOp48
 70
     1
102
RTVSPost2010Prop49
280
     0
102
RTVSPost2010PropOp49
 70
     1
102
RTVSPost2010Prop50
 90
       50
102
RTVSPost2010PropOp50
 70
     1
102
RTVSPost2010Prop51ColorIndex
 90
      256
102
RTVSPost2010Prop51ColorRGB
 90
-16777216
102
RTVSPost2010PropOp51
 70
     0
102
RTVSPost2010Prop52
140
1.0
102
RTVSPost2010PropOp52
 70
     0
102
RTVSPost2010Prop53
 90
        2
102
RTVSPost2010PropOp53
 70
     1
102
RTVSPost2010Prop54
  1
strokes_ogs.tif
102
RTVSPost2010PropOp54
 70
     1
102
RTVSPost2010Prop55
280
     0
102
RTVSPost2010PropOp55
 70
     1
102
RTVSPost2010Prop56
140
1.0
102
RTVSPost2010PropOp56
 70
     1
102
RTVSPost2010Prop57
140
1.0
102
RTVSPost2010PropOp57
 70
     1
  0
XRECORD
  5
D09
102
{ACAD_REACTORS
330
D08
102
}
330
D08
100
AcDbXrecord
280
     1
102
RTVSPropertyOp0
 70
     1
102
RTVSPropertyOp1
 70
     1
102
RTVSPropertyOp2
 70
     1
102
RTVSPropertyOp3
 70
     1
102
RTVSPropertyOp4
 70
     1
102
RTVSPropertyOp5
 70
     1
102
RTVSPropertyOp6
 70
     1
102
RTVSPropertyOp7
 70
     1
102
RTVSPropertyOp8
 70
     1
102
RTVSPropertyOp9
 70
     1
102
RTVSPropertyOp10
 70
     1
102
RTVSPropertyOp11
 70
     1
102
RTVSPropertyOp12
 70
     1
102
RTVSPropertyOp13
 70
     1
102
RTVSPropertyOp14
 70
     1
102
RTVSPropertyOp15
 70
     1
102
RTVSPropertyOp16
 70
     1
102
RTVSPropertyOp17
 70
     1
102
RTVSPropertyOp18
 70
     1
102
RTVSPropertyOp19
 70
     1
102
RTVSPropertyOp20
 70
     1
102
RTVSPropertyOp21
 70
     1
102
RTVSPropertyOp22
 70
     1
102
RTVSPropertyOp23
 70
     1
102
RTVSPropertyOp24
 70
     1
102
RTVSPropertyOp25
 70
     1
102
RTVSPropertyOp26
 70
     1
102
RTVSPropertyOp27
 70
     1
102
RTVSPropertyOp28
 70
     1
102
RTVSPropertyOp29
 70
     1
102
RTVSPropertyOp30
 70
     1
102
RTVSPropertyOp31
 70
     1
102
RTVSPropertyOp32
 70
     1
102
RTVSPropertyOp33
 70
     1
102
RTVSPropertyOp34
 70
     1
102
RTVSPropertyOp35
 70
     1
102
RTVSPropertyOp36
 70
     1
102
RTVSPropertyOp37
 70
     1
102
RTVSPropertyOp38
 70
     1
102
RTVSPropertyOp39
 70
     1
102
RTVSPropertyOp40
 70
     1
102
RTVSPropertyOp41
 70
     1
102
RTVSPropertyOp42
 70
     1
102
RTVSPropertyOp43
 70
     1
102
RTVSPropertyOp44
 70
     1
102
RTVSPropertyOp45
 70
     1
102
RTVSPropertyOp46
 70
     1
102
RTVSPropertyOp47
 70
     1
102
RTVSPropertyOp48
 70
     1
102
RTVSPropertyOp49
 70
     1
102
RTVSPropertyOp50
 70
     1
102
RTVSPropertyOp51
 70
     0
102
RTVSPropertyOp52
 70
     0
102
RTVSPropertyOp53
 70
     1
102
RTVSPropertyOp54
 70
     1
102
RTVSPropertyOp55
 70
     1
102
RTVSPropertyOp56
 70
     1
102
RTVSPropertyOp57
 70
     1
102
RTVSPost2010Prop28
280
     0
102
RTVSPost2010PropOp28
 70
     1
102
RTVSPost2010Prop29
280
     1
102
RTVSPost2010PropOp29
 70
     1
102
RTVSPost2010Prop30
280
     1
102
RTVSPost2010PropOp30
 70
     1
102
RTVSPost2010Prop31
280
     0
102
RTVSPost2010PropOp31
 70
     1
102
RTVSPost2010Prop32
280
     0
102
RTVSPost2010PropOp32
 70
     1
102
RTVSPost2010Prop33
280
     0
102
RTVSPost2010PropOp33
 70
     1
102
RTVSPost2010Prop34
280
     0
102
RTVSPost2010PropOp34
 70
     1
102
RTVSPost2010Prop35
280
     0
102
RTVSPost2010PropOp35
 70
     1
102
RTVSPost2010Prop36
280
     0
102
RTVSPost2010PropOp36
 70
     1
102
RTVSPost2010Prop37
 90
       50
102
RTVSPost2010PropOp37
 70
     1
102
RTVSPost2010Prop38
140
0.0
102
RTVSPost2010PropOp38
 70
     1
102
RTVSPost2010Prop39
140
1.0
102
RTVSPost2010PropOp39
 70
     1
102
RTVSPost2010Prop40
 90
        0
102
RTVSPost2010PropOp40
 70
     1
102
RTVSPost2010Prop41ColorIndex
 90
       18
102
RTVSPost2010Prop41ColorRGB
 90
        0
102
RTVSPost2010PropOp41
 70
     1
102
RTVSPost2010Prop42
 90
       50
102
RTVSPost2010PropOp42
 70
     1
102
RTVSPost2010Prop43
 90
        3
102
RTVSPost2010PropOp43
 70
     1
102
RTVSPost2010Prop44ColorIndex
 90
        5
102
RTVSPost2010Prop44ColorRGB
 90
      255
102
RTVSPost2010PropOp44
 70
     1
102
RTVSPost2010Prop45
280
     0
102
RTVSPost2010PropOp45
 70
     1
102
RTVSPost2010Prop46
 90
       50
102
RTVSPost2010PropOp46
 70
     1
102
RTVSPost2010Prop47
 90
       50
102
RTVSPost2010PropOp47
 70
     1
102
RTVSPost2010Prop48
 90
       50
102
RTVSPost2010PropOp48
 70
     1
102
RTVSPost2010Prop49
280
     0
102
RTVSPost2010PropOp49
 70
     1
102
RTVSPost2010Prop50
 90
       50
102
RTVSPost2010PropOp50
 70
     1
102
RTVSPost2010Prop51ColorIndex
 90
      256
102
RTVSPost2010Prop51ColorRGB
 90
-16777216
102
RTVSPost2010PropOp51
 70
     0
102
RTVSPost2010Prop52
140
1.0
102
RTVSPost2010PropOp52
 70
     0
102
RTVSPost2010Prop53
 90
        2
102
RTVSPost2010PropOp53
 70
     1
102
RTVSPost2010Prop54
  1
strokes_ogs.tif
102
RTVSPost2010PropOp54
 70
     1
102
RTVSPost2010Prop55
280
     0
102
RTVSPost2010PropOp55
 70
     1
102
RTVSPost2010Prop56
140
1.0
102
RTVSPost2010PropOp56
 70
     1
102
RTVSPost2010Prop57
140
1.0
102
RTVSPost2010PropOp57
 70
     1
  0
XRECORD
  5
D0B
102
{ACAD_REACTORS
330
D0A
102
}
330
D0A
100
AcDbXrecord
280
     1
102
RTVSPropertyOp0
 70
     1
102
RTVSPropertyOp1
 70
     1
102
RTVSPropertyOp2
 70
     1
102
RTVSPropertyOp3
 70
     1
102
RTVSPropertyOp4
 70
     1
102
RTVSPropertyOp5
 70
     1
102
RTVSPropertyOp6
 70
     1
102
RTVSPropertyOp7
 70
     1
102
RTVSPropertyOp8
 70
     1
102
RTVSPropertyOp9
 70
     1
102
RTVSPropertyOp10
 70
     1
102
RTVSPropertyOp11
 70
     1
102
RTVSPropertyOp12
 70
     1
102
RTVSPropertyOp13
 70
     1
102
RTVSPropertyOp14
 70
     1
102
RTVSPropertyOp15
 70
     1
102
RTVSPropertyOp16
 70
     1
102
RTVSPropertyOp17
 70
     1
102
RTVSPropertyOp18
 70
     1
102
RTVSPropertyOp19
 70
     1
102
RTVSPropertyOp20
 70
     1
102
RTVSPropertyOp21
 70
     1
102
RTVSPropertyOp22
 70
     1
102
RTVSPropertyOp23
 70
     1
102
RTVSPropertyOp24
 70
     1
102
RTVSPropertyOp25
 70
     1
102
RTVSPropertyOp26
 70
     1
102
RTVSPropertyOp27
 70
     1
102
RTVSPropertyOp28
 70
     1
102
RTVSPropertyOp29
 70
     1
102
RTVSPropertyOp30
 70
     1
102
RTVSPropertyOp31
 70
     1
102
RTVSPropertyOp32
 70
     1
102
RTVSPropertyOp33
 70
     1
102
RTVSPropertyOp34
 70
     1
102
RTVSPropertyOp35
 70
     1
102
RTVSPropertyOp36
 70
     1
102
RTVSPropertyOp37
 70
     1
102
RTVSPropertyOp38
 70
     1
102
RTVSPropertyOp39
 70
     1
102
RTVSPropertyOp40
 70
     1
102
RTVSPropertyOp41
 70
     1
102
RTVSPropertyOp42
 70
     1
102
RTVSPropertyOp43
 70
     1
102
RTVSPropertyOp44
 70
     1
102
RTVSPropertyOp45
 70
     1
102
RTVSPropertyOp46
 70
     1
102
RTVSPropertyOp47
 70
     1
102
RTVSPropertyOp48
 70
     1
102
RTVSPropertyOp49
 70
     1
102
RTVSPropertyOp50
 70
     1
102
RTVSPropertyOp51
 70
     0
102
RTVSPropertyOp52
 70
     0
102
RTVSPropertyOp53
 70
     1
102
RTVSPropertyOp54
 70
     1
102
RTVSPropertyOp55
 70
     1
102
RTVSPropertyOp56
 70
     1
102
RTVSPropertyOp57
 70
     1
102
RTVSPost2010Prop28
280
     0
102
RTVSPost2010PropOp28
 70
     1
102
RTVSPost2010Prop29
280
     1
102
RTVSPost2010PropOp29
 70
     1
102
RTVSPost2010Prop30
280
     1
102
RTVSPost2010PropOp30
 70
     1
102
RTVSPost2010Prop31
280
     0
102
RTVSPost2010PropOp31
 70
     1
102
RTVSPost2010Prop32
280
     0
102
RTVSPost2010PropOp32
 70
     1
102
RTVSPost2010Prop33
280
     0
102
RTVSPost2010PropOp33
 70
     1
102
RTVSPost2010Prop34
280
     0
102
RTVSPost2010PropOp34
 70
     1
102
RTVSPost2010Prop35
280
     0
102
RTVSPost2010PropOp35
 70
     1
102
RTVSPost2010Prop36
280
     0
102
RTVSPost2010PropOp36
 70
     1
102
RTVSPost2010Prop37
 90
       50
102
RTVSPost2010PropOp37
 70
     1
102
RTVSPost2010Prop38
140
0.0
102
RTVSPost2010PropOp38
 70
     1
102
RTVSPost2010Prop39
140
1.0
102
RTVSPost2010PropOp39
 70
     1
102
RTVSPost2010Prop40
 90
        0
102
RTVSPost2010PropOp40
 70
     1
102
RTVSPost2010Prop41ColorIndex
 90
       18
102
RTVSPost2010Prop41ColorRGB
 90
        0
102
RTVSPost2010PropOp41
 70
     1
102
RTVSPost2010Prop42
 90
       50
102
RTVSPost2010PropOp42
 70
     1
102
RTVSPost2010Prop43
 90
        3
102
RTVSPost2010PropOp43
 70
     1
102
RTVSPost2010Prop44ColorIndex
 90
        5
102
RTVSPost2010Prop44ColorRGB
 90
      255
102
RTVSPost2010PropOp44
 70
     1
102
RTVSPost2010Prop45
280
     0
102
RTVSPost2010PropOp45
 70
     1
102
RTVSPost2010Prop46
 90
       50
102
RTVSPost2010PropOp46
 70
     1
102
RTVSPost2010Prop47
 90
       50
102
RTVSPost2010PropOp47
 70
     1
102
RTVSPost2010Prop48
 90
       50
102
RTVSPost2010PropOp48
 70
     1
102
RTVSPost2010Prop49
280
     0
102
RTVSPost2010PropOp49
 70
     1
102
RTVSPost2010Prop50
 90
       50
102
RTVSPost2010PropOp50
 70
     1
102
RTVSPost2010Prop51ColorIndex
 90
      256
102
RTVSPost2010Prop51ColorRGB
 90
-16777216
102
RTVSPost2010PropOp51
 70
     0
102
RTVSPost2010Prop52
140
1.0
102
RTVSPost2010PropOp52
 70
     0
102
RTVSPost2010Prop53
 90
        2
102
RTVSPost2010PropOp53
 70
     1
102
RTVSPost2010Prop54
  1
strokes_ogs.tif
102
RTVSPost2010PropOp54
 70
     1
102
RTVSPost2010Prop55
280
     0
102
RTVSPost2010PropOp55
 70
     1
102
RTVSPost2010Prop56
140
1.0
102
RTVSPost2010PropOp56
 70
     1
102
RTVSPost2010Prop57
140
1.0
102
RTVSPost2010PropOp57
 70
     1
  0
XRECORD
  5
D1B
102
{ACAD_REACTORS
330
D1A
102
}
330
D1A
100
AcDbXrecord
280
     1
102
RTVSPropertyOp0
 70
     0
102
RTVSPropertyOp1
 70
     0
102
RTVSPropertyOp2
 70
     0
102
RTVSPropertyOp3
 70
     0
102
RTVSPropertyOp4
 70
     0
102
RTVSPropertyOp5
 70
     0
102
RTVSPropertyOp6
 70
     0
102
RTVSPropertyOp7
 70
     0
102
RTVSPropertyOp8
 70
     0
102
RTVSPropertyOp9
 70
     0
102
RTVSPropertyOp10
 70
     0
102
RTVSPropertyOp11
 70
     0
102
RTVSPropertyOp12
 70
     0
102
RTVSPropertyOp13
 70
     0
102
RTVSPropertyOp14
 70
     2
102
RTVSPropertyOp15
 70
     0
102
RTVSPropertyOp16
 70
     0
102
RTVSPropertyOp17
 70
     0
102
RTVSPropertyOp18
 70
     0
102
RTVSPropertyOp19
 70
     0
102
RTVSPropertyOp20
 70
     0
102
RTVSPropertyOp21
 70
     0
102
RTVSPropertyOp22
 70
     0
102
RTVSPropertyOp23
 70
     0
102
RTVSPropertyOp24
 70
     0
102
RTVSPropertyOp25
 70
     0
102
RTVSPropertyOp26
 70
     0
102
RTVSPropertyOp27
 70
     0
102
RTVSPropertyOp28
 70
     0
102
RTVSPropertyOp29
 70
     0
102
RTVSPropertyOp30
 70
     0
102
RTVSPropertyOp31
 70
     0
102
RTVSPropertyOp32
 70
     0
102
RTVSPropertyOp33
 70
     0
102
RTVSPropertyOp34
 70
     0
102
RTVSPropertyOp35
 70
     0
102
RTVSPropertyOp36
 70
     0
102
RTVSPropertyOp37
 70
     0
102
RTVSPropertyOp38
 70
     0
102
RTVSPropertyOp39
 70
     0
102
RTVSPropertyOp40
 70
     0
102
RTVSPropertyOp41
 70
     0
102
RTVSPropertyOp42
 70
     0
102
RTVSPropertyOp43
 70
     0
102
RTVSPropertyOp44
 70
     0
102
RTVSPropertyOp45
 70
     0
102
RTVSPropertyOp46
 70
     0
102
RTVSPropertyOp47
 70
     0
102
RTVSPropertyOp48
 70
     0
102
RTVSPropertyOp49
 70
     0
102
RTVSPropertyOp50
 70
     0
102
RTVSPropertyOp51
 70
     0
102
RTVSPropertyOp52
 70
     0
102
RTVSPropertyOp53
 70
     0
102
RTVSPropertyOp54
 70
     0
102
RTVSPropertyOp55
 70
     0
102
RTVSPropertyOp56
 70
     0
102
RTVSPropertyOp57
 70
     0
102
RTVSPost2010Prop28
280
     0
102
RTVSPost2010PropOp28
 70
     0
102
RTVSPost2010Prop29
280
     1
102
RTVSPost2010PropOp29
 70
     0
102
RTVSPost2010Prop30
280
     1
102
RTVSPost2010PropOp30
 70
     0
102
RTVSPost2010Prop31
280
     0
102
RTVSPost2010PropOp31
 70
     0
102
RTVSPost2010Prop32
280
     0
102
RTVSPost2010PropOp32
 70
     0
102
RTVSPost2010Prop33
280
     0
102
RTVSPost2010PropOp33
 70
     0
102
RTVSPost2010Prop34
280
     0
102
RTVSPost2010PropOp34
 70
     0
102
RTVSPost2010Prop35
280
     0
102
RTVSPost2010PropOp35
 70
     0
102
RTVSPost2010Prop36
280
     0
102
RTVSPost2010PropOp36
 70
     0
102
RTVSPost2010Prop37
 90
       50
102
RTVSPost2010PropOp37
 70
     0
102
RTVSPost2010Prop38
140
0.0
102
RTVSPost2010PropOp38
 70
     0
102
RTVSPost2010Prop39
140
1.0
102
RTVSPost2010PropOp39
 70
     0
102
RTVSPost2010Prop40
 90
        0
102
RTVSPost2010PropOp40
 70
     0
102
RTVSPost2010Prop41ColorIndex
 90
       18
102
RTVSPost2010Prop41ColorRGB
 90
        0
102
RTVSPost2010PropOp41
 70
     0
102
RTVSPost2010Prop42
 90
       50
102
RTVSPost2010PropOp42
 70
     0
102
RTVSPost2010Prop43
 90
        3
102
RTVSPost2010PropOp43
 70
     0
102
RTVSPost2010Prop44ColorIndex
 90
        5
102
RTVSPost2010Prop44ColorRGB
 90
      255
102
RTVSPost2010PropOp44
 70
     0
102
RTVSPost2010Prop45
280
     0
102
RTVSPost2010PropOp45
 70
     0
102
RTVSPost2010Prop46
 90
       50
102
RTVSPost2010PropOp46
 70
     0
102
RTVSPost2010Prop47
 90
       50
102
RTVSPost2010PropOp47
 70
     0
102
RTVSPost2010Prop48
 90
       50
102
RTVSPost2010PropOp48
 70
     0
102
RTVSPost2010Prop49
280
     0
102
RTVSPost2010PropOp49
 70
     0
102
RTVSPost2010Prop50
 90
       50
102
RTVSPost2010PropOp50
 70
     0
102
RTVSPost2010Prop51ColorIndex
 90
      256
102
RTVSPost2010Prop51ColorRGB
 90
-16777216
102
RTVSPost2010PropOp51
 70
     0
102
RTVSPost2010Prop52
140
1.0
102
RTVSPost2010PropOp52
 70
     0
102
RTVSPost2010Prop53
 90
        2
102
RTVSPost2010PropOp53
 70
     0
102
RTVSPost2010Prop54
  1
strokes_ogs.tif
102
RTVSPost2010PropOp54
 70
     0
102
RTVSPost2010Prop55
280
     0
102
RTVSPost2010PropOp55
 70
     0
102
RTVSPost2010Prop56
140
1.0
102
RTVSPost2010PropOp56
 70
     0
102
RTVSPost2010Prop57
140
1.0
102
RTVSPost2010PropOp57
 70
     0
  0
XRECORD
  5
D13
102
{ACAD_REACTORS
330
D12
102
}
330
D12
100
AcDbXrecord
280
     1
102
RTVSPropertyOp0
 70
     1
102
RTVSPropertyOp1
 70
     1
102
RTVSPropertyOp2
 70
     1
102
RTVSPropertyOp3
 70
     1
102
RTVSPropertyOp4
 70
     1
102
RTVSPropertyOp5
 70
     1
102
RTVSPropertyOp6
 70
     1
102
RTVSPropertyOp7
 70
     1
102
RTVSPropertyOp8
 70
     1
102
RTVSPropertyOp9
 70
     1
102
RTVSPropertyOp10
 70
     1
102
RTVSPropertyOp11
 70
     1
102
RTVSPropertyOp12
 70
     1
102
RTVSPropertyOp13
 70
     1
102
RTVSPropertyOp14
 70
     1
102
RTVSPropertyOp15
 70
     1
102
RTVSPropertyOp16
 70
     1
102
RTVSPropertyOp17
 70
     1
102
RTVSPropertyOp18
 70
     1
102
RTVSPropertyOp19
 70
     1
102
RTVSPropertyOp20
 70
     1
102
RTVSPropertyOp21
 70
     1
102
RTVSPropertyOp22
 70
     1
102
RTVSPropertyOp23
 70
     1
102
RTVSPropertyOp24
 70
     1
102
RTVSPropertyOp25
 70
     1
102
RTVSPropertyOp26
 70
     1
102
RTVSPropertyOp27
 70
     1
102
RTVSPropertyOp28
 70
     1
102
RTVSPropertyOp29
 70
     1
102
RTVSPropertyOp30
 70
     1
102
RTVSPropertyOp31
 70
     1
102
RTVSPropertyOp32
 70
     1
102
RTVSPropertyOp33
 70
     1
102
RTVSPropertyOp34
 70
     1
102
RTVSPropertyOp35
 70
     1
102
RTVSPropertyOp36
 70
     1
102
RTVSPropertyOp37
 70
     1
102
RTVSPropertyOp38
 70
     1
102
RTVSPropertyOp39
 70
     1
102
RTVSPropertyOp40
 70
     1
102
RTVSPropertyOp41
 70
     1
102
RTVSPropertyOp42
 70
     1
102
RTVSPropertyOp43
 70
     1
102
RTVSPropertyOp44
 70
     1
102
RTVSPropertyOp45
 70
     1
102
RTVSPropertyOp46
 70
     1
102
RTVSPropertyOp47
 70
     1
102
RTVSPropertyOp48
 70
     1
102
RTVSPropertyOp49
 70
     1
102
RTVSPropertyOp50
 70
     1
102
RTVSPropertyOp51
 70
     0
102
RTVSPropertyOp52
 70
     0
102
RTVSPropertyOp53
 70
     1
102
RTVSPropertyOp54
 70
     1
102
RTVSPropertyOp55
 70
     1
102
RTVSPropertyOp56
 70
     1
102
RTVSPropertyOp57
 70
     1
102
RTVSPost2010Prop28
280
     0
102
RTVSPost2010PropOp28
 70
     1
102
RTVSPost2010Prop29
280
     1
102
RTVSPost2010PropOp29
 70
     1
102
RTVSPost2010Prop30
280
     1
102
RTVSPost2010PropOp30
 70
     1
102
RTVSPost2010Prop31
280
     0
102
RTVSPost2010PropOp31
 70
     1
102
RTVSPost2010Prop32
280
     0
102
RTVSPost2010PropOp32
 70
     1
102
RTVSPost2010Prop33
280
     0
102
RTVSPost2010PropOp33
 70
     1
102
RTVSPost2010Prop34
280
     0
102
RTVSPost2010PropOp34
 70
     1
102
RTVSPost2010Prop35
280
     0
102
RTVSPost2010PropOp35
 70
     1
102
RTVSPost2010Prop36
280
     0
102
RTVSPost2010PropOp36
 70
     1
102
RTVSPost2010Prop37
 90
       50
102
RTVSPost2010PropOp37
 70
     1
102
RTVSPost2010Prop38
140
0.0
102
RTVSPost2010PropOp38
 70
     1
102
RTVSPost2010Prop39
140
1.0
102
RTVSPost2010PropOp39
 70
     1
102
RTVSPost2010Prop40
 90
        0
102
RTVSPost2010PropOp40
 70
     1
102
RTVSPost2010Prop41ColorIndex
 90
       18
102
RTVSPost2010Prop41ColorRGB
 90
        0
102
RTVSPost2010PropOp41
 70
     1
102
RTVSPost2010Prop42
 90
       50
102
RTVSPost2010PropOp42
 70
     1
102
RTVSPost2010Prop43
 90
        3
102
RTVSPost2010PropOp43
 70
     1
102
RTVSPost2010Prop44ColorIndex
 90
        5
102
RTVSPost2010Prop44ColorRGB
 90
      255
102
RTVSPost2010PropOp44
 70
     1
102
RTVSPost2010Prop45
280
     0
102
RTVSPost2010PropOp45
 70
     1
102
RTVSPost2010Prop46
 90
       50
102
RTVSPost2010PropOp46
 70
     1
102
RTVSPost2010Prop47
 90
       50
102
RTVSPost2010PropOp47
 70
     1
102
RTVSPost2010Prop48
 90
       50
102
RTVSPost2010PropOp48
 70
     1
102
RTVSPost2010Prop49
280
     0
102
RTVSPost2010PropOp49
 70
     1
102
RTVSPost2010Prop50
 90
       50
102
RTVSPost2010PropOp50
 70
     1
102
RTVSPost2010Prop51ColorIndex
 90
      256
102
RTVSPost2010Prop51ColorRGB
 90
-16777216
102
RTVSPost2010PropOp51
 70
     0
102
RTVSPost2010Prop52
140
1.0
102
RTVSPost2010PropOp52
 70
     0
102
RTVSPost2010Prop53
 90
        2
102
RTVSPost2010PropOp53
 70
     1
102
RTVSPost2010Prop54
  1
strokes_ogs.tif
102
RTVSPost2010PropOp54
 70
     1
102
RTVSPost2010Prop55
280
     0
102
RTVSPost2010PropOp55
 70
     1
102
RTVSPost2010Prop56
140
1.0
102
RTVSPost2010PropOp56
 70
     1
102
RTVSPost2010Prop57
140
1.0
102
RTVSPost2010PropOp57
 70
     1
  0
XRECORD
  5
CF7
102
{ACAD_REACTORS
330
CF6
102
}
330
CF6
100
AcDbXrecord
280
     1
102
RTVSPropertyOp0
 70
     1
102
RTVSPropertyOp1
 70
     1
102
RTVSPropertyOp2
 70
     1
102
RTVSPropertyOp3
 70
     1
102
RTVSPropertyOp4
 70
     1
102
RTVSPropertyOp5
 70
     1
102
RTVSPropertyOp6
 70
     1
102
RTVSPropertyOp7
 70
     1
102
RTVSPropertyOp8
 70
     1
102
RTVSPropertyOp9
 70
     1
102
RTVSPropertyOp10
 70
     1
102
RTVSPropertyOp11
 70
     1
102
RTVSPropertyOp12
 70
     1
102
RTVSPropertyOp13
 70
     1
102
RTVSPropertyOp14
 70
     1
102
RTVSPropertyOp15
 70
     1
102
RTVSPropertyOp16
 70
     1
102
RTVSPropertyOp17
 70
     1
102
RTVSPropertyOp18
 70
     1
102
RTVSPropertyOp19
 70
     1
102
RTVSPropertyOp20
 70
     1
102
RTVSPropertyOp21
 70
     1
102
RTVSPropertyOp22
 70
     1
102
RTVSPropertyOp23
 70
     1
102
RTVSPropertyOp24
 70
     1
102
RTVSPropertyOp25
 70
     1
102
RTVSPropertyOp26
 70
     1
102
RTVSPropertyOp27
 70
     1
102
RTVSPropertyOp28
 70
     1
102
RTVSPropertyOp29
 70
     1
102
RTVSPropertyOp30
 70
     1
102
RTVSPropertyOp31
 70
     1
102
RTVSPropertyOp32
 70
     1
102
RTVSPropertyOp33
 70
     1
102
RTVSPropertyOp34
 70
     1
102
RTVSPropertyOp35
 70
     1
102
RTVSPropertyOp36
 70
     1
102
RTVSPropertyOp37
 70
     1
102
RTVSPropertyOp38
 70
     1
102
RTVSPropertyOp39
 70
     1
102
RTVSPropertyOp40
 70
     1
102
RTVSPropertyOp41
 70
     1
102
RTVSPropertyOp42
 70
     1
102
RTVSPropertyOp43
 70
     1
102
RTVSPropertyOp44
 70
     1
102
RTVSPropertyOp45
 70
     1
102
RTVSPropertyOp46
 70
     1
102
RTVSPropertyOp47
 70
     1
102
RTVSPropertyOp48
 70
     1
102
RTVSPropertyOp49
 70
     1
102
RTVSPropertyOp50
 70
     1
102
RTVSPropertyOp51
 70
     0
102
RTVSPropertyOp52
 70
     0
102
RTVSPropertyOp53
 70
     1
102
RTVSPropertyOp54
 70
     1
102
RTVSPropertyOp55
 70
     1
102
RTVSPropertyOp56
 70
     1
102
RTVSPropertyOp57
 70
     1
102
RTVSPost2010Prop28
280
     0
102
RTVSPost2010PropOp28
 70
     1
102
RTVSPost2010Prop29
280
     1
102
RTVSPost2010PropOp29
 70
     1
102
RTVSPost2010Prop30
280
     1
102
RTVSPost2010PropOp30
 70
     1
102
RTVSPost2010Prop31
280
     0
102
RTVSPost2010PropOp31
 70
     1
102
RTVSPost2010Prop32
280
     0
102
RTVSPost2010PropOp32
 70
     1
102
RTVSPost2010Prop33
280
     0
102
RTVSPost2010PropOp33
 70
     1
102
RTVSPost2010Prop34
280
     0
102
RTVSPost2010PropOp34
 70
     1
102
RTVSPost2010Prop35
280
     0
102
RTVSPost2010PropOp35
 70
     1
102
RTVSPost2010Prop36
280
     0
102
RTVSPost2010PropOp36
 70
     1
102
RTVSPost2010Prop37
 90
       50
102
RTVSPost2010PropOp37
 70
     1
102
RTVSPost2010Prop38
140
0.0
102
RTVSPost2010PropOp38
 70
     1
102
RTVSPost2010Prop39
140
1.0
102
RTVSPost2010PropOp39
 70
     1
102
RTVSPost2010Prop40
 90
        0
102
RTVSPost2010PropOp40
 70
     1
102
RTVSPost2010Prop41ColorIndex
 90
       18
102
RTVSPost2010Prop41ColorRGB
 90
        0
102
RTVSPost2010PropOp41
 70
     1
102
RTVSPost2010Prop42
 90
       50
102
RTVSPost2010PropOp42
 70
     1
102
RTVSPost2010Prop43
 90
        3
102
RTVSPost2010PropOp43
 70
     1
102
RTVSPost2010Prop44ColorIndex
 90
        5
102
RTVSPost2010Prop44ColorRGB
 90
      255
102
RTVSPost2010PropOp44
 70
     1
102
RTVSPost2010Prop45
280
     0
102
RTVSPost2010PropOp45
 70
     1
102
RTVSPost2010Prop46
 90
       50
102
RTVSPost2010PropOp46
 70
     1
102
RTVSPost2010Prop47
 90
       50
102
RTVSPost2010PropOp47
 70
     1
102
RTVSPost2010Prop48
 90
       50
102
RTVSPost2010PropOp48
 70
     1
102
RTVSPost2010Prop49
280
     0
102
RTVSPost2010PropOp49
 70
     1
102
RTVSPost2010Prop50
 90
       50
102
RTVSPost2010PropOp50
 70
     1
102
RTVSPost2010Prop51ColorIndex
 90
      256
102
RTVSPost2010Prop51ColorRGB
 90
-16777216
102
RTVSPost2010PropOp51
 70
     0
102
RTVSPost2010Prop52
140
1.0
102
RTVSPost2010PropOp52
 70
     0
102
RTVSPost2010Prop53
 90
        2
102
RTVSPost2010PropOp53
 70
     1
102
RTVSPost2010Prop54
  1
strokes_ogs.tif
102
RTVSPost2010PropOp54
 70
     1
102
RTVSPost2010Prop55
280
     0
102
RTVSPost2010PropOp55
 70
     1
102
RTVSPost2010Prop56
140
1.0
102
RTVSPost2010PropOp56
 70
     1
102
RTVSPost2010Prop57
140
1.0
102
RTVSPost2010PropOp57
 70
     1
  0
XRECORD
  5
CF9
102
{ACAD_REACTORS
330
CF8
102
}
330
CF8
100
AcDbXrecord
280
     1
102
RTVSPropertyOp0
 70
     1
102
RTVSPropertyOp1
 70
     1
102
RTVSPropertyOp2
 70
     1
102
RTVSPropertyOp3
 70
     1
102
RTVSPropertyOp4
 70
     1
102
RTVSPropertyOp5
 70
     1
102
RTVSPropertyOp6
 70
     1
102
RTVSPropertyOp7
 70
     1
102
RTVSPropertyOp8
 70
     1
102
RTVSPropertyOp9
 70
     1
102
RTVSPropertyOp10
 70
     1
102
RTVSPropertyOp11
 70
     1
102
RTVSPropertyOp12
 70
     1
102
RTVSPropertyOp13
 70
     1
102
RTVSPropertyOp14
 70
     1
102
RTVSPropertyOp15
 70
     1
102
RTVSPropertyOp16
 70
     1
102
RTVSPropertyOp17
 70
     1
102
RTVSPropertyOp18
 70
     1
102
RTVSPropertyOp19
 70
     1
102
RTVSPropertyOp20
 70
     1
102
RTVSPropertyOp21
 70
     1
102
RTVSPropertyOp22
 70
     1
102
RTVSPropertyOp23
 70
     1
102
RTVSPropertyOp24
 70
     1
102
RTVSPropertyOp25
 70
     1
102
RTVSPropertyOp26
 70
     1
102
RTVSPropertyOp27
 70
     1
102
RTVSPropertyOp28
 70
     1
102
RTVSPropertyOp29
 70
     1
102
RTVSPropertyOp30
 70
     1
102
RTVSPropertyOp31
 70
     1
102
RTVSPropertyOp32
 70
     1
102
RTVSPropertyOp33
 70
     1
102
RTVSPropertyOp34
 70
     1
102
RTVSPropertyOp35
 70
     1
102
RTVSPropertyOp36
 70
     1
102
RTVSPropertyOp37
 70
     1
102
RTVSPropertyOp38
 70
     1
102
RTVSPropertyOp39
 70
     1
102
RTVSPropertyOp40
 70
     1
102
RTVSPropertyOp41
 70
     1
102
RTVSPropertyOp42
 70
     1
102
RTVSPropertyOp43
 70
     1
102
RTVSPropertyOp44
 70
     1
102
RTVSPropertyOp45
 70
     1
102
RTVSPropertyOp46
 70
     1
102
RTVSPropertyOp47
 70
     1
102
RTVSPropertyOp48
 70
     1
102
RTVSPropertyOp49
 70
     1
102
RTVSPropertyOp50
 70
     1
102
RTVSPropertyOp51
 70
     0
102
RTVSPropertyOp52
 70
     0
102
RTVSPropertyOp53
 70
     1
102
RTVSPropertyOp54
 70
     1
102
RTVSPropertyOp55
 70
     1
102
RTVSPropertyOp56
 70
     1
102
RTVSPropertyOp57
 70
     1
102
RTVSPost2010Prop28
280
     0
102
RTVSPost2010PropOp28
 70
     1
102
RTVSPost2010Prop29
280
     1
102
RTVSPost2010PropOp29
 70
     1
102
RTVSPost2010Prop30
280
     1
102
RTVSPost2010PropOp30
 70
     1
102
RTVSPost2010Prop31
280
     0
102
RTVSPost2010PropOp31
 70
     1
102
RTVSPost2010Prop32
280
     0
102
RTVSPost2010PropOp32
 70
     1
102
RTVSPost2010Prop33
280
     0
102
RTVSPost2010PropOp33
 70
     1
102
RTVSPost2010Prop34
280
     0
102
RTVSPost2010PropOp34
 70
     1
102
RTVSPost2010Prop35
280
     0
102
RTVSPost2010PropOp35
 70
     1
102
RTVSPost2010Prop36
280
     0
102
RTVSPost2010PropOp36
 70
     1
102
RTVSPost2010Prop37
 90
       50
102
RTVSPost2010PropOp37
 70
     1
102
RTVSPost2010Prop38
140
0.0
102
RTVSPost2010PropOp38
 70
     1
102
RTVSPost2010Prop39
140
1.0
102
RTVSPost2010PropOp39
 70
     1
102
RTVSPost2010Prop40
 90
        0
102
RTVSPost2010PropOp40
 70
     1
102
RTVSPost2010Prop41ColorIndex
 90
       18
102
RTVSPost2010Prop41ColorRGB
 90
        0
102
RTVSPost2010PropOp41
 70
     1
102
RTVSPost2010Prop42
 90
       50
102
RTVSPost2010PropOp42
 70
     1
102
RTVSPost2010Prop43
 90
        3
102
RTVSPost2010PropOp43
 70
     1
102
RTVSPost2010Prop44ColorIndex
 90
        5
102
RTVSPost2010Prop44ColorRGB
 90
      255
102
RTVSPost2010PropOp44
 70
     1
102
RTVSPost2010Prop45
280
     0
102
RTVSPost2010PropOp45
 70
     1
102
RTVSPost2010Prop46
 90
       50
102
RTVSPost2010PropOp46
 70
     1
102
RTVSPost2010Prop47
 90
       50
102
RTVSPost2010PropOp47
 70
     1
102
RTVSPost2010Prop48
 90
       50
102
RTVSPost2010PropOp48
 70
     1
102
RTVSPost2010Prop49
280
     0
102
RTVSPost2010PropOp49
 70
     1
102
RTVSPost2010Prop50
 90
       50
102
RTVSPost2010PropOp50
 70
     1
102
RTVSPost2010Prop51ColorIndex
 90
      256
102
RTVSPost2010Prop51ColorRGB
 90
-16777216
102
RTVSPost2010PropOp51
 70
     0
102
RTVSPost2010Prop52
140
1.0
102
RTVSPost2010PropOp52
 70
     0
102
RTVSPost2010Prop53
 90
        2
102
RTVSPost2010PropOp53
 70
     1
102
RTVSPost2010Prop54
  1
strokes_ogs.tif
102
RTVSPost2010PropOp54
 70
     1
102
RTVSPost2010Prop55
280
     0
102
RTVSPost2010PropOp55
 70
     1
102
RTVSPost2010Prop56
140
1.0
102
RTVSPost2010PropOp56
 70
     1
102
RTVSPost2010Prop57
140
1.0
102
RTVSPost2010PropOp57
 70
     1
  0
XRECORD
  5
CFB
102
{ACAD_REACTORS
330
CFA
102
}
330
CFA
100
AcDbXrecord
280
     1
102
RTVSPropertyOp0
 70
     1
102
RTVSPropertyOp1
 70
     1
102
RTVSPropertyOp2
 70
     1
102
RTVSPropertyOp3
 70
     1
102
RTVSPropertyOp4
 70
     1
102
RTVSPropertyOp5
 70
     1
102
RTVSPropertyOp6
 70
     1
102
RTVSPropertyOp7
 70
     1
102
RTVSPropertyOp8
 70
     1
102
RTVSPropertyOp9
 70
     1
102
RTVSPropertyOp10
 70
     1
102
RTVSPropertyOp11
 70
     1
102
RTVSPropertyOp12
 70
     1
102
RTVSPropertyOp13
 70
     1
102
RTVSPropertyOp14
 70
     1
102
RTVSPropertyOp15
 70
     1
102
RTVSPropertyOp16
 70
     1
102
RTVSPropertyOp17
 70
     1
102
RTVSPropertyOp18
 70
     1
102
RTVSPropertyOp19
 70
     1
102
RTVSPropertyOp20
 70
     1
102
RTVSPropertyOp21
 70
     1
102
RTVSPropertyOp22
 70
     1
102
RTVSPropertyOp23
 70
     1
102
RTVSPropertyOp24
 70
     1
102
RTVSPropertyOp25
 70
     1
102
RTVSPropertyOp26
 70
     1
102
RTVSPropertyOp27
 70
     1
102
RTVSPropertyOp28
 70
     1
102
RTVSPropertyOp29
 70
     1
102
RTVSPropertyOp30
 70
     1
102
RTVSPropertyOp31
 70
     1
102
RTVSPropertyOp32
 70
     1
102
RTVSPropertyOp33
 70
     1
102
RTVSPropertyOp34
 70
     1
102
RTVSPropertyOp35
 70
     1
102
RTVSPropertyOp36
 70
     1
102
RTVSPropertyOp37
 70
     1
102
RTVSPropertyOp38
 70
     1
102
RTVSPropertyOp39
 70
     1
102
RTVSPropertyOp40
 70
     1
102
RTVSPropertyOp41
 70
     1
102
RTVSPropertyOp42
 70
     1
102
RTVSPropertyOp43
 70
     1
102
RTVSPropertyOp44
 70
     1
102
RTVSPropertyOp45
 70
     1
102
RTVSPropertyOp46
 70
     1
102
RTVSPropertyOp47
 70
     1
102
RTVSPropertyOp48
 70
     1
102
RTVSPropertyOp49
 70
     1
102
RTVSPropertyOp50
 70
     1
102
RTVSPropertyOp51
 70
     0
102
RTVSPropertyOp52
 70
     0
102
RTVSPropertyOp53
 70
     1
102
RTVSPropertyOp54
 70
     1
102
RTVSPropertyOp55
 70
     1
102
RTVSPropertyOp56
 70
     1
102
RTVSPropertyOp57
 70
     1
102
RTVSPost2010Prop28
280
     0
102
RTVSPost2010PropOp28
 70
     1
102
RTVSPost2010Prop29
280
     1
102
RTVSPost2010PropOp29
 70
     1
102
RTVSPost2010Prop30
280
     1
102
RTVSPost2010PropOp30
 70
     1
102
RTVSPost2010Prop31
280
     0
102
RTVSPost2010PropOp31
 70
     1
102
RTVSPost2010Prop32
280
     0
102
RTVSPost2010PropOp32
 70
     1
102
RTVSPost2010Prop33
280
     0
102
RTVSPost2010PropOp33
 70
     1
102
RTVSPost2010Prop34
280
     0
102
RTVSPost2010PropOp34
 70
     1
102
RTVSPost2010Prop35
280
     0
102
RTVSPost2010PropOp35
 70
     1
102
RTVSPost2010Prop36
280
     0
102
RTVSPost2010PropOp36
 70
     1
102
RTVSPost2010Prop37
 90
       50
102
RTVSPost2010PropOp37
 70
     1
102
RTVSPost2010Prop38
140
0.0
102
RTVSPost2010PropOp38
 70
     1
102
RTVSPost2010Prop39
140
1.0
102
RTVSPost2010PropOp39
 70
     1
102
RTVSPost2010Prop40
 90
        0
102
RTVSPost2010PropOp40
 70
     1
102
RTVSPost2010Prop41ColorIndex
 90
       18
102
RTVSPost2010Prop41ColorRGB
 90
        0
102
RTVSPost2010PropOp41
 70
     1
102
RTVSPost2010Prop42
 90
       50
102
RTVSPost2010PropOp42
 70
     1
102
RTVSPost2010Prop43
 90
        3
102
RTVSPost2010PropOp43
 70
     1
102
RTVSPost2010Prop44ColorIndex
 90
        5
102
RTVSPost2010Prop44ColorRGB
 90
      255
102
RTVSPost2010PropOp44
 70
     1
102
RTVSPost2010Prop45
280
     0
102
RTVSPost2010PropOp45
 70
     1
102
RTVSPost2010Prop46
 90
       50
102
RTVSPost2010PropOp46
 70
     1
102
RTVSPost2010Prop47
 90
       50
102
RTVSPost2010PropOp47
 70
     1
102
RTVSPost2010Prop48
 90
       50
102
RTVSPost2010PropOp48
 70
     1
102
RTVSPost2010Prop49
280
     0
102
RTVSPost2010PropOp49
 70
     1
102
RTVSPost2010Prop50
 90
       50
102
RTVSPost2010PropOp50
 70
     1
102
RTVSPost2010Prop51ColorIndex
 90
      256
102
RTVSPost2010Prop51ColorRGB
 90
-16777216
102
RTVSPost2010PropOp51
 70
     0
102
RTVSPost2010Prop52
140
1.0
102
RTVSPost2010PropOp52
 70
     0
102
RTVSPost2010Prop53
 90
        2
102
RTVSPost2010PropOp53
 70
     1
102
RTVSPost2010Prop54
  1
strokes_ogs.tif
102
RTVSPost2010PropOp54
 70
     1
102
RTVSPost2010Prop55
280
     0
102
RTVSPost2010PropOp55
 70
     1
102
RTVSPost2010Prop56
140
1.0
102
RTVSPost2010PropOp56
 70
     1
102
RTVSPost2010Prop57
140
1.0
102
RTVSPost2010PropOp57
 70
     1
  0
XRECORD
  5
CFD
102
{ACAD_REACTORS
330
CFC
102
}
330
CFC
100
AcDbXrecord
280
     1
102
RTVSPropertyOp0
 70
     1
102
RTVSPropertyOp1
 70
     1
102
RTVSPropertyOp2
 70
     1
102
RTVSPropertyOp3
 70
     1
102
RTVSPropertyOp4
 70
     1
102
RTVSPropertyOp5
 70
     1
102
RTVSPropertyOp6
 70
     1
102
RTVSPropertyOp7
 70
     1
102
RTVSPropertyOp8
 70
     1
102
RTVSPropertyOp9
 70
     1
102
RTVSPropertyOp10
 70
     1
102
RTVSPropertyOp11
 70
     1
102
RTVSPropertyOp12
 70
     1
102
RTVSPropertyOp13
 70
     1
102
RTVSPropertyOp14
 70
     1
102
RTVSPropertyOp15
 70
     1
102
RTVSPropertyOp16
 70
     1
102
RTVSPropertyOp17
 70
     1
102
RTVSPropertyOp18
 70
     1
102
RTVSPropertyOp19
 70
     1
102
RTVSPropertyOp20
 70
     1
102
RTVSPropertyOp21
 70
     1
102
RTVSPropertyOp22
 70
     1
102
RTVSPropertyOp23
 70
     1
102
RTVSPropertyOp24
 70
     1
102
RTVSPropertyOp25
 70
     1
102
RTVSPropertyOp26
 70
     1
102
RTVSPropertyOp27
 70
     1
102
RTVSPropertyOp28
 70
     1
102
RTVSPropertyOp29
 70
     1
102
RTVSPropertyOp30
 70
     1
102
RTVSPropertyOp31
 70
     1
102
RTVSPropertyOp32
 70
     1
102
RTVSPropertyOp33
 70
     1
102
RTVSPropertyOp34
 70
     1
102
RTVSPropertyOp35
 70
     1
102
RTVSPropertyOp36
 70
     1
102
RTVSPropertyOp37
 70
     1
102
RTVSPropertyOp38
 70
     1
102
RTVSPropertyOp39
 70
     1
102
RTVSPropertyOp40
 70
     1
102
RTVSPropertyOp41
 70
     1
102
RTVSPropertyOp42
 70
     1
102
RTVSPropertyOp43
 70
     1
102
RTVSPropertyOp44
 70
     1
102
RTVSPropertyOp45
 70
     1
102
RTVSPropertyOp46
 70
     1
102
RTVSPropertyOp47
 70
     1
102
RTVSPropertyOp48
 70
     1
102
RTVSPropertyOp49
 70
     1
102
RTVSPropertyOp50
 70
     1
102
RTVSPropertyOp51
 70
     0
102
RTVSPropertyOp52
 70
     0
102
RTVSPropertyOp53
 70
     1
102
RTVSPropertyOp54
 70
     1
102
RTVSPropertyOp55
 70
     1
102
RTVSPropertyOp56
 70
     1
102
RTVSPropertyOp57
 70
     1
102
RTVSPost2010Prop28
280
     0
102
RTVSPost2010PropOp28
 70
     1
102
RTVSPost2010Prop29
280
     1
102
RTVSPost2010PropOp29
 70
     1
102
RTVSPost2010Prop30
280
     1
102
RTVSPost2010PropOp30
 70
     1
102
RTVSPost2010Prop31
280
     0
102
RTVSPost2010PropOp31
 70
     1
102
RTVSPost2010Prop32
280
     0
102
RTVSPost2010PropOp32
 70
     1
102
RTVSPost2010Prop33
280
     0
102
RTVSPost2010PropOp33
 70
     1
102
RTVSPost2010Prop34
280
     0
102
RTVSPost2010PropOp34
 70
     1
102
RTVSPost2010Prop35
280
     0
102
RTVSPost2010PropOp35
 70
     1
102
RTVSPost2010Prop36
280
     0
102
RTVSPost2010PropOp36
 70
     1
102
RTVSPost2010Prop37
 90
       50
102
RTVSPost2010PropOp37
 70
     1
102
RTVSPost2010Prop38
140
0.0
102
RTVSPost2010PropOp38
 70
     1
102
RTVSPost2010Prop39
140
1.0
102
RTVSPost2010PropOp39
 70
     1
102
RTVSPost2010Prop40
 90
        0
102
RTVSPost2010PropOp40
 70
     1
102
RTVSPost2010Prop41ColorIndex
 90
       18
102
RTVSPost2010Prop41ColorRGB
 90
        0
102
RTVSPost2010PropOp41
 70
     1
102
RTVSPost2010Prop42
 90
       50
102
RTVSPost2010PropOp42
 70
     1
102
RTVSPost2010Prop43
 90
        3
102
RTVSPost2010PropOp43
 70
     1
102
RTVSPost2010Prop44ColorIndex
 90
        5
102
RTVSPost2010Prop44ColorRGB
 90
      255
102
RTVSPost2010PropOp44
 70
     1
102
RTVSPost2010Prop45
280
     0
102
RTVSPost2010PropOp45
 70
     1
102
RTVSPost2010Prop46
 90
       50
102
RTVSPost2010PropOp46
 70
     1
102
RTVSPost2010Prop47
 90
       50
102
RTVSPost2010PropOp47
 70
     1
102
RTVSPost2010Prop48
 90
       50
102
RTVSPost2010PropOp48
 70
     1
102
RTVSPost2010Prop49
280
     0
102
RTVSPost2010PropOp49
 70
     1
102
RTVSPost2010Prop50
 90
       50
102
RTVSPost2010PropOp50
 70
     1
102
RTVSPost2010Prop51ColorIndex
 90
      256
102
RTVSPost2010Prop51ColorRGB
 90
-16777216
102
RTVSPost2010PropOp51
 70
     0
102
RTVSPost2010Prop52
140
1.0
102
RTVSPost2010PropOp52
 70
     0
102
RTVSPost2010Prop53
 90
        2
102
RTVSPost2010PropOp53
 70
     1
102
RTVSPost2010Prop54
  1
strokes_ogs.tif
102
RTVSPost2010PropOp54
 70
     1
102
RTVSPost2010Prop55
280
     0
102
RTVSPost2010PropOp55
 70
     1
102
RTVSPost2010Prop56
140
1.0
102
RTVSPost2010PropOp56
 70
     1
102
RTVSPost2010Prop57
140
1.0
102
RTVSPost2010PropOp57
 70
     1
  0
XRECORD
  5
D03
102
{ACAD_REACTORS
330
D02
102
}
330
D02
100
AcDbXrecord
280
     1
102
RTVSPropertyOp0
 70
     1
102
RTVSPropertyOp1
 70
     1
102
RTVSPropertyOp2
 70
     1
102
RTVSPropertyOp3
 70
     1
102
RTVSPropertyOp4
 70
     1
102
RTVSPropertyOp5
 70
     1
102
RTVSPropertyOp6
 70
     1
102
RTVSPropertyOp7
 70
     1
102
RTVSPropertyOp8
 70
     1
102
RTVSPropertyOp9
 70
     1
102
RTVSPropertyOp10
 70
     1
102
RTVSPropertyOp11
 70
     1
102
RTVSPropertyOp12
 70
     1
102
RTVSPropertyOp13
 70
     1
102
RTVSPropertyOp14
 70
     1
102
RTVSPropertyOp15
 70
     1
102
RTVSPropertyOp16
 70
     1
102
RTVSPropertyOp17
 70
     1
102
RTVSPropertyOp18
 70
     1
102
RTVSPropertyOp19
 70
     1
102
RTVSPropertyOp20
 70
     1
102
RTVSPropertyOp21
 70
     1
102
RTVSPropertyOp22
 70
     1
102
RTVSPropertyOp23
 70
     1
102
RTVSPropertyOp24
 70
     1
102
RTVSPropertyOp25
 70
     1
102
RTVSPropertyOp26
 70
     1
102
RTVSPropertyOp27
 70
     1
102
RTVSPropertyOp28
 70
     1
102
RTVSPropertyOp29
 70
     1
102
RTVSPropertyOp30
 70
     1
102
RTVSPropertyOp31
 70
     1
102
RTVSPropertyOp32
 70
     1
102
RTVSPropertyOp33
 70
     1
102
RTVSPropertyOp34
 70
     1
102
RTVSPropertyOp35
 70
     1
102
RTVSPropertyOp36
 70
     1
102
RTVSPropertyOp37
 70
     1
102
RTVSPropertyOp38
 70
     1
102
RTVSPropertyOp39
 70
     1
102
RTVSPropertyOp40
 70
     1
102
RTVSPropertyOp41
 70
     1
102
RTVSPropertyOp42
 70
     1
102
RTVSPropertyOp43
 70
     1
102
RTVSPropertyOp44
 70
     1
102
RTVSPropertyOp45
 70
     1
102
RTVSPropertyOp46
 70
     1
102
RTVSPropertyOp47
 70
     1
102
RTVSPropertyOp48
 70
     1
102
RTVSPropertyOp49
 70
     1
102
RTVSPropertyOp50
 70
     1
102
RTVSPropertyOp51
 70
     0
102
RTVSPropertyOp52
 70
     0
102
RTVSPropertyOp53
 70
     1
102
RTVSPropertyOp54
 70
     1
102
RTVSPropertyOp55
 70
     1
102
RTVSPropertyOp56
 70
     1
102
RTVSPropertyOp57
 70
     1
102
RTVSPost2010Prop28
280
     0
102
RTVSPost2010PropOp28
 70
     1
102
RTVSPost2010Prop29
280
     1
102
RTVSPost2010PropOp29
 70
     1
102
RTVSPost2010Prop30
280
     1
102
RTVSPost2010PropOp30
 70
     1
102
RTVSPost2010Prop31
280
     0
102
RTVSPost2010PropOp31
 70
     1
102
RTVSPost2010Prop32
280
     0
102
RTVSPost2010PropOp32
 70
     1
102
RTVSPost2010Prop33
280
     0
102
RTVSPost2010PropOp33
 70
     1
102
RTVSPost2010Prop34
280
     0
102
RTVSPost2010PropOp34
 70
     1
102
RTVSPost2010Prop35
280
     0
102
RTVSPost2010PropOp35
 70
     1
102
RTVSPost2010Prop36
280
     0
102
RTVSPost2010PropOp36
 70
     1
102
RTVSPost2010Prop37
 90
       50
102
RTVSPost2010PropOp37
 70
     1
102
RTVSPost2010Prop38
140
0.0
102
RTVSPost2010PropOp38
 70
     1
102
RTVSPost2010Prop39
140
1.0
102
RTVSPost2010PropOp39
 70
     1
102
RTVSPost2010Prop40
 90
        0
102
RTVSPost2010PropOp40
 70
     1
102
RTVSPost2010Prop41ColorIndex
 90
       18
102
RTVSPost2010Prop41ColorRGB
 90
        0
102
RTVSPost2010PropOp41
 70
     1
102
RTVSPost2010Prop42
 90
       50
102
RTVSPost2010PropOp42
 70
     1
102
RTVSPost2010Prop43
 90
        3
102
RTVSPost2010PropOp43
 70
     1
102
RTVSPost2010Prop44ColorIndex
 90
        5
102
RTVSPost2010Prop44ColorRGB
 90
      255
102
RTVSPost2010PropOp44
 70
     1
102
RTVSPost2010Prop45
280
     0
102
RTVSPost2010PropOp45
 70
     1
102
RTVSPost2010Prop46
 90
       50
102
RTVSPost2010PropOp46
 70
     1
102
RTVSPost2010Prop47
 90
       50
102
RTVSPost2010PropOp47
 70
     1
102
RTVSPost2010Prop48
 90
       50
102
RTVSPost2010PropOp48
 70
     1
102
RTVSPost2010Prop49
280
     0
102
RTVSPost2010PropOp49
 70
     1
102
RTVSPost2010Prop50
 90
       50
102
RTVSPost2010PropOp50
 70
     1
102
RTVSPost2010Prop51ColorIndex
 90
      256
102
RTVSPost2010Prop51ColorRGB
 90
-16777216
102
RTVSPost2010PropOp51
 70
     0
102
RTVSPost2010Prop52
140
1.0
102
RTVSPost2010PropOp52
 70
     0
102
RTVSPost2010Prop53
 90
        2
102
RTVSPost2010PropOp53
 70
     1
102
RTVSPost2010Prop54
  1
strokes_ogs.tif
102
RTVSPost2010PropOp54
 70
     1
102
RTVSPost2010Prop55
280
     0
102
RTVSPost2010PropOp55
 70
     1
102
RTVSPost2010Prop56
140
1.0
102
RTVSPost2010PropOp56
 70
     1
102
RTVSPost2010Prop57
140
1.0
102
RTVSPost2010PropOp57
 70
     1
  0
XRECORD
  5
D17
102
{ACAD_REACTORS
330
D16
102
}
330
D16
100
AcDbXrecord
280
     1
102
RTVSPropertyOp0
 70
     0
102
RTVSPropertyOp1
 70
     0
102
RTVSPropertyOp2
 70
     0
102
RTVSPropertyOp3
 70
     0
102
RTVSPropertyOp4
 70
     0
102
RTVSPropertyOp5
 70
     0
102
RTVSPropertyOp6
 70
     0
102
RTVSPropertyOp7
 70
     0
102
RTVSPropertyOp8
 70
     0
102
RTVSPropertyOp9
 70
     0
102
RTVSPropertyOp10
 70
     0
102
RTVSPropertyOp11
 70
     0
102
RTVSPropertyOp12
 70
     0
102
RTVSPropertyOp13
 70
     0
102
RTVSPropertyOp14
 70
     2
102
RTVSPropertyOp15
 70
     0
102
RTVSPropertyOp16
 70
     0
102
RTVSPropertyOp17
 70
     0
102
RTVSPropertyOp18
 70
     0
102
RTVSPropertyOp19
 70
     0
102
RTVSPropertyOp20
 70
     0
102
RTVSPropertyOp21
 70
     0
102
RTVSPropertyOp22
 70
     0
102
RTVSPropertyOp23
 70
     0
102
RTVSPropertyOp24
 70
     0
102
RTVSPropertyOp25
 70
     0
102
RTVSPropertyOp26
 70
     0
102
RTVSPropertyOp27
 70
     0
102
RTVSPropertyOp28
 70
     0
102
RTVSPropertyOp29
 70
     0
102
RTVSPropertyOp30
 70
     0
102
RTVSPropertyOp31
 70
     0
102
RTVSPropertyOp32
 70
     0
102
RTVSPropertyOp33
 70
     0
102
RTVSPropertyOp34
 70
     0
102
RTVSPropertyOp35
 70
     0
102
RTVSPropertyOp36
 70
     0
102
RTVSPropertyOp37
 70
     0
102
RTVSPropertyOp38
 70
     0
102
RTVSPropertyOp39
 70
     0
102
RTVSPropertyOp40
 70
     0
102
RTVSPropertyOp41
 70
     0
102
RTVSPropertyOp42
 70
     0
102
RTVSPropertyOp43
 70
     0
102
RTVSPropertyOp44
 70
     0
102
RTVSPropertyOp45
 70
     0
102
RTVSPropertyOp46
 70
     0
102
RTVSPropertyOp47
 70
     0
102
RTVSPropertyOp48
 70
     0
102
RTVSPropertyOp49
 70
     0
102
RTVSPropertyOp50
 70
     0
102
RTVSPropertyOp51
 70
     0
102
RTVSPropertyOp52
 70
     0
102
RTVSPropertyOp53
 70
     0
102
RTVSPropertyOp54
 70
     0
102
RTVSPropertyOp55
 70
     0
102
RTVSPropertyOp56
 70
     0
102
RTVSPropertyOp57
 70
     0
102
RTVSPost2010Prop28
280
     0
102
RTVSPost2010PropOp28
 70
     0
102
RTVSPost2010Prop29
280
     1
102
RTVSPost2010PropOp29
 70
     0
102
RTVSPost2010Prop30
280
     1
102
RTVSPost2010PropOp30
 70
     0
102
RTVSPost2010Prop31
280
     0
102
RTVSPost2010PropOp31
 70
     0
102
RTVSPost2010Prop32
280
     0
102
RTVSPost2010PropOp32
 70
     0
102
RTVSPost2010Prop33
280
     0
102
RTVSPost2010PropOp33
 70
     0
102
RTVSPost2010Prop34
280
     0
102
RTVSPost2010PropOp34
 70
     0
102
RTVSPost2010Prop35
280
     0
102
RTVSPost2010PropOp35
 70
     0
102
RTVSPost2010Prop36
280
     0
102
RTVSPost2010PropOp36
 70
     0
102
RTVSPost2010Prop37
 90
       50
102
RTVSPost2010PropOp37
 70
     0
102
RTVSPost2010Prop38
140
0.0
102
RTVSPost2010PropOp38
 70
     0
102
RTVSPost2010Prop39
140
1.0
102
RTVSPost2010PropOp39
 70
     0
102
RTVSPost2010Prop40
 90
        0
102
RTVSPost2010PropOp40
 70
     0
102
RTVSPost2010Prop41ColorIndex
 90
       18
102
RTVSPost2010Prop41ColorRGB
 90
        0
102
RTVSPost2010PropOp41
 70
     0
102
RTVSPost2010Prop42
 90
       50
102
RTVSPost2010PropOp42
 70
     0
102
RTVSPost2010Prop43
 90
        3
102
RTVSPost2010PropOp43
 70
     0
102
RTVSPost2010Prop44ColorIndex
 90
        5
102
RTVSPost2010Prop44ColorRGB
 90
      255
102
RTVSPost2010PropOp44
 70
     0
102
RTVSPost2010Prop45
280
     0
102
RTVSPost2010PropOp45
 70
     0
102
RTVSPost2010Prop46
 90
       50
102
RTVSPost2010PropOp46
 70
     0
102
RTVSPost2010Prop47
 90
       50
102
RTVSPost2010PropOp47
 70
     0
102
RTVSPost2010Prop48
 90
       50
102
RTVSPost2010PropOp48
 70
     0
102
RTVSPost2010Prop49
280
     0
102
RTVSPost2010PropOp49
 70
     0
102
RTVSPost2010Prop50
 90
       50
102
RTVSPost2010PropOp50
 70
     0
102
RTVSPost2010Prop51ColorIndex
 90
      256
102
RTVSPost2010Prop51ColorRGB
 90
-16777216
102
RTVSPost2010PropOp51
 70
     0
102
RTVSPost2010Prop52
140
1.0
102
RTVSPost2010PropOp52
 70
     0
102
RTVSPost2010Prop53
 90
        2
102
RTVSPost2010PropOp53
 70
     0
102
RTVSPost2010Prop54
  1
strokes_ogs.tif
102
RTVSPost2010PropOp54
 70
     0
102
RTVSPost2010Prop55
280
     0
102
RTVSPost2010PropOp55
 70
     0
102
RTVSPost2010Prop56
140
1.0
102
RTVSPost2010PropOp56
 70
     0
102
RTVSPost2010Prop57
140
1.0
102
RTVSPost2010PropOp57
 70
     0
  0
XRECORD
  5
D11
102
{ACAD_REACTORS
330
D10
102
}
330
D10
100
AcDbXrecord
280
     1
102
RTVSPropertyOp0
 70
     1
102
RTVSPropertyOp1
 70
     1
102
RTVSPropertyOp2
 70
     1
102
RTVSPropertyOp3
 70
     1
102
RTVSPropertyOp4
 70
     1
102
RTVSPropertyOp5
 70
     1
102
RTVSPropertyOp6
 70
     1
102
RTVSPropertyOp7
 70
     1
102
RTVSPropertyOp8
 70
     1
102
RTVSPropertyOp9
 70
     1
102
RTVSPropertyOp10
 70
     1
102
RTVSPropertyOp11
 70
     1
102
RTVSPropertyOp12
 70
     1
102
RTVSPropertyOp13
 70
     1
102
RTVSPropertyOp14
 70
     1
102
RTVSPropertyOp15
 70
     1
102
RTVSPropertyOp16
 70
     1
102
RTVSPropertyOp17
 70
     1
102
RTVSPropertyOp18
 70
     1
102
RTVSPropertyOp19
 70
     1
102
RTVSPropertyOp20
 70
     1
102
RTVSPropertyOp21
 70
     1
102
RTVSPropertyOp22
 70
     1
102
RTVSPropertyOp23
 70
     1
102
RTVSPropertyOp24
 70
     1
102
RTVSPropertyOp25
 70
     1
102
RTVSPropertyOp26
 70
     1
102
RTVSPropertyOp27
 70
     1
102
RTVSPropertyOp28
 70
     1
102
RTVSPropertyOp29
 70
     1
102
RTVSPropertyOp30
 70
     1
102
RTVSPropertyOp31
 70
     1
102
RTVSPropertyOp32
 70
     1
102
RTVSPropertyOp33
 70
     1
102
RTVSPropertyOp34
 70
     1
102
RTVSPropertyOp35
 70
     1
102
RTVSPropertyOp36
 70
     1
102
RTVSPropertyOp37
 70
     1
102
RTVSPropertyOp38
 70
     1
102
RTVSPropertyOp39
 70
     1
102
RTVSPropertyOp40
 70
     1
102
RTVSPropertyOp41
 70
     1
102
RTVSPropertyOp42
 70
     1
102
RTVSPropertyOp43
 70
     1
102
RTVSPropertyOp44
 70
     1
102
RTVSPropertyOp45
 70
     1
102
RTVSPropertyOp46
 70
     1
102
RTVSPropertyOp47
 70
     1
102
RTVSPropertyOp48
 70
     1
102
RTVSPropertyOp49
 70
     1
102
RTVSPropertyOp50
 70
     1
102
RTVSPropertyOp51
 70
     0
102
RTVSPropertyOp52
 70
     0
102
RTVSPropertyOp53
 70
     1
102
RTVSPropertyOp54
 70
     1
102
RTVSPropertyOp55
 70
     1
102
RTVSPropertyOp56
 70
     1
102
RTVSPropertyOp57
 70
     1
102
RTVSPost2010Prop28
280
     0
102
RTVSPost2010PropOp28
 70
     1
102
RTVSPost2010Prop29
280
     1
102
RTVSPost2010PropOp29
 70
     1
102
RTVSPost2010Prop30
280
     1
102
RTVSPost2010PropOp30
 70
     1
102
RTVSPost2010Prop31
280
     0
102
RTVSPost2010PropOp31
 70
     1
102
RTVSPost2010Prop32
280
     0
102
RTVSPost2010PropOp32
 70
     1
102
RTVSPost2010Prop33
280
     0
102
RTVSPost2010PropOp33
 70
     1
102
RTVSPost2010Prop34
280
     0
102
RTVSPost2010PropOp34
 70
     1
102
RTVSPost2010Prop35
280
     0
102
RTVSPost2010PropOp35
 70
     1
102
RTVSPost2010Prop36
280
     0
102
RTVSPost2010PropOp36
 70
     1
102
RTVSPost2010Prop37
 90
       50
102
RTVSPost2010PropOp37
 70
     1
102
RTVSPost2010Prop38
140
0.0
102
RTVSPost2010PropOp38
 70
     1
102
RTVSPost2010Prop39
140
1.0
102
RTVSPost2010PropOp39
 70
     1
102
RTVSPost2010Prop40
 90
        0
102
RTVSPost2010PropOp40
 70
     1
102
RTVSPost2010Prop41ColorIndex
 90
       18
102
RTVSPost2010Prop41ColorRGB
 90
        0
102
RTVSPost2010PropOp41
 70
     1
102
RTVSPost2010Prop42
 90
       50
102
RTVSPost2010PropOp42
 70
     1
102
RTVSPost2010Prop43
 90
        3
102
RTVSPost2010PropOp43
 70
     1
102
RTVSPost2010Prop44ColorIndex
 90
        5
102
RTVSPost2010Prop44ColorRGB
 90
      255
102
RTVSPost2010PropOp44
 70
     1
102
RTVSPost2010Prop45
280
     0
102
RTVSPost2010PropOp45
 70
     1
102
RTVSPost2010Prop46
 90
       50
102
RTVSPost2010PropOp46
 70
     1
102
RTVSPost2010Prop47
 90
       50
102
RTVSPost2010PropOp47
 70
     1
102
RTVSPost2010Prop48
 90
       50
102
RTVSPost2010PropOp48
 70
     1
102
RTVSPost2010Prop49
280
     0
102
RTVSPost2010PropOp49
 70
     1
102
RTVSPost2010Prop50
 90
       50
102
RTVSPost2010PropOp50
 70
     1
102
RTVSPost2010Prop51ColorIndex
 90
      256
102
RTVSPost2010Prop51ColorRGB
 90
-16777216
102
RTVSPost2010PropOp51
 70
     0
102
RTVSPost2010Prop52
140
1.0
102
RTVSPost2010PropOp52
 70
     0
102
RTVSPost2010Prop53
 90
        2
102
RTVSPost2010PropOp53
 70
     1
102
RTVSPost2010Prop54
  1
strokes_ogs.tif
102
RTVSPost2010PropOp54
 70
     1
102
RTVSPost2010Prop55
280
     0
102
RTVSPost2010PropOp55
 70
     1
102
RTVSPost2010Prop56
140
1.0
102
RTVSPost2010PropOp56
 70
     1
102
RTVSPost2010Prop57
140
1.0
102
RTVSPost2010PropOp57
 70
     1
  0
XRECORD
  5
D19
102
{ACAD_REACTORS
330
D18
102
}
330
D18
100
AcDbXrecord
280
     1
102
RTVSPropertyOp0
 70
     0
102
RTVSPropertyOp1
 70
     0
102
RTVSPropertyOp2
 70
     0
102
RTVSPropertyOp3
 70
     0
102
RTVSPropertyOp4
 70
     0
102
RTVSPropertyOp5
 70
     0
102
RTVSPropertyOp6
 70
     0
102
RTVSPropertyOp7
 70
     0
102
RTVSPropertyOp8
 70
     0
102
RTVSPropertyOp9
 70
     0
102
RTVSPropertyOp10
 70
     0
102
RTVSPropertyOp11
 70
     0
102
RTVSPropertyOp12
 70
     0
102
RTVSPropertyOp13
 70
     0
102
RTVSPropertyOp14
 70
     2
102
RTVSPropertyOp15
 70
     0
102
RTVSPropertyOp16
 70
     0
102
RTVSPropertyOp17
 70
     0
102
RTVSPropertyOp18
 70
     0
102
RTVSPropertyOp19
 70
     0
102
RTVSPropertyOp20
 70
     0
102
RTVSPropertyOp21
 70
     0
102
RTVSPropertyOp22
 70
     0
102
RTVSPropertyOp23
 70
     0
102
RTVSPropertyOp24
 70
     0
102
RTVSPropertyOp25
 70
     0
102
RTVSPropertyOp26
 70
     0
102
RTVSPropertyOp27
 70
     0
102
RTVSPropertyOp28
 70
     0
102
RTVSPropertyOp29
 70
     0
102
RTVSPropertyOp30
 70
     0
102
RTVSPropertyOp31
 70
     0
102
RTVSPropertyOp32
 70
     0
102
RTVSPropertyOp33
 70
     0
102
RTVSPropertyOp34
 70
     0
102
RTVSPropertyOp35
 70
     0
102
RTVSPropertyOp36
 70
     0
102
RTVSPropertyOp37
 70
     0
102
RTVSPropertyOp38
 70
     0
102
RTVSPropertyOp39
 70
     0
102
RTVSPropertyOp40
 70
     0
102
RTVSPropertyOp41
 70
     0
102
RTVSPropertyOp42
 70
     0
102
RTVSPropertyOp43
 70
     0
102
RTVSPropertyOp44
 70
     0
102
RTVSPropertyOp45
 70
     0
102
RTVSPropertyOp46
 70
     0
102
RTVSPropertyOp47
 70
     0
102
RTVSPropertyOp48
 70
     0
102
RTVSPropertyOp49
 70
     0
102
RTVSPropertyOp50
 70
     0
102
RTVSPropertyOp51
 70
     0
102
RTVSPropertyOp52
 70
     0
102
RTVSPropertyOp53
 70
     0
102
RTVSPropertyOp54
 70
     0
102
RTVSPropertyOp55
 70
     0
102
RTVSPropertyOp56
 70
     0
102
RTVSPropertyOp57
 70
     0
102
RTVSPost2010Prop28
280
     0
102
RTVSPost2010PropOp28
 70
     0
102
RTVSPost2010Prop29
280
     1
102
RTVSPost2010PropOp29
 70
     0
102
RTVSPost2010Prop30
280
     1
102
RTVSPost2010PropOp30
 70
     0
102
RTVSPost2010Prop31
280
     0
102
RTVSPost2010PropOp31
 70
     0
102
RTVSPost2010Prop32
280
     0
102
RTVSPost2010PropOp32
 70
     0
102
RTVSPost2010Prop33
280
     0
102
RTVSPost2010PropOp33
 70
     0
102
RTVSPost2010Prop34
280
     0
102
RTVSPost2010PropOp34
 70
     0
102
RTVSPost2010Prop35
280
     0
102
RTVSPost2010PropOp35
 70
     0
102
RTVSPost2010Prop36
280
     0
102
RTVSPost2010PropOp36
 70
     0
102
RTVSPost2010Prop37
 90
       50
102
RTVSPost2010PropOp37
 70
     0
102
RTVSPost2010Prop38
140
0.0
102
RTVSPost2010PropOp38
 70
     0
102
RTVSPost2010Prop39
140
1.0
102
RTVSPost2010PropOp39
 70
     0
102
RTVSPost2010Prop40
 90
        0
102
RTVSPost2010PropOp40
 70
     0
102
RTVSPost2010Prop41ColorIndex
 90
       18
102
RTVSPost2010Prop41ColorRGB
 90
        0
102
RTVSPost2010PropOp41
 70
     0
102
RTVSPost2010Prop42
 90
       50
102
RTVSPost2010PropOp42
 70
     0
102
RTVSPost2010Prop43
 90
        3
102
RTVSPost2010PropOp43
 70
     0
102
RTVSPost2010Prop44ColorIndex
 90
        5
102
RTVSPost2010Prop44ColorRGB
 90
      255
102
RTVSPost2010PropOp44
 70
     0
102
RTVSPost2010Prop45
280
     0
102
RTVSPost2010PropOp45
 70
     0
102
RTVSPost2010Prop46
 90
       50
102
RTVSPost2010PropOp46
 70
     0
102
RTVSPost2010Prop47
 90
       50
102
RTVSPost2010PropOp47
 70
     0
102
RTVSPost2010Prop48
 90
       50
102
RTVSPost2010PropOp48
 70
     0
102
RTVSPost2010Prop49
280
     0
102
RTVSPost2010PropOp49
 70
     0
102
RTVSPost2010Prop50
 90
       50
102
RTVSPost2010PropOp50
 70
     0
102
RTVSPost2010Prop51ColorIndex
 90
      256
102
RTVSPost2010Prop51ColorRGB
 90
-16777216
102
RTVSPost2010PropOp51
 70
     0
102
RTVSPost2010Prop52
140
1.0
102
RTVSPost2010PropOp52
 70
     0
102
RTVSPost2010Prop53
 90
        2
102
RTVSPost2010PropOp53
 70
     0
102
RTVSPost2010Prop54
  1
strokes_ogs.tif
102
RTVSPost2010PropOp54
 70
     0
102
RTVSPost2010Prop55
280
     0
102
RTVSPost2010PropOp55
 70
     0
102
RTVSPost2010Prop56
140
1.0
102
RTVSPost2010PropOp56
 70
     0
102
RTVSPost2010Prop57
140
1.0
102
RTVSPost2010PropOp57
 70
     0
  0
XRECORD
  5
D07
102
{ACAD_REACTORS
330
D06
102
}
330
D06
100
AcDbXrecord
280
     1
102
RTVSPropertyOp0
 70
     1
102
RTVSPropertyOp1
 70
     1
102
RTVSPropertyOp2
 70
     1
102
RTVSPropertyOp3
 70
     1
102
RTVSPropertyOp4
 70
     1
102
RTVSPropertyOp5
 70
     1
102
RTVSPropertyOp6
 70
     1
102
RTVSPropertyOp7
 70
     1
102
RTVSPropertyOp8
 70
     1
102
RTVSPropertyOp9
 70
     1
102
RTVSPropertyOp10
 70
     1
102
RTVSPropertyOp11
 70
     1
102
RTVSPropertyOp12
 70
     1
102
RTVSPropertyOp13
 70
     1
102
RTVSPropertyOp14
 70
     1
102
RTVSPropertyOp15
 70
     1
102
RTVSPropertyOp16
 70
     1
102
RTVSPropertyOp17
 70
     1
102
RTVSPropertyOp18
 70
     1
102
RTVSPropertyOp19
 70
     1
102
RTVSPropertyOp20
 70
     1
102
RTVSPropertyOp21
 70
     1
102
RTVSPropertyOp22
 70
     1
102
RTVSPropertyOp23
 70
     1
102
RTVSPropertyOp24
 70
     1
102
RTVSPropertyOp25
 70
     1
102
RTVSPropertyOp26
 70
     1
102
RTVSPropertyOp27
 70
     1
102
RTVSPropertyOp28
 70
     1
102
RTVSPropertyOp29
 70
     1
102
RTVSPropertyOp30
 70
     1
102
RTVSPropertyOp31
 70
     1
102
RTVSPropertyOp32
 70
     1
102
RTVSPropertyOp33
 70
     1
102
RTVSPropertyOp34
 70
     1
102
RTVSPropertyOp35
 70
     1
102
RTVSPropertyOp36
 70
     1
102
RTVSPropertyOp37
 70
     1
102
RTVSPropertyOp38
 70
     1
102
RTVSPropertyOp39
 70
     1
102
RTVSPropertyOp40
 70
     1
102
RTVSPropertyOp41
 70
     1
102
RTVSPropertyOp42
 70
     1
102
RTVSPropertyOp43
 70
     1
102
RTVSPropertyOp44
 70
     1
102
RTVSPropertyOp45
 70
     1
102
RTVSPropertyOp46
 70
     1
102
RTVSPropertyOp47
 70
     1
102
RTVSPropertyOp48
 70
     1
102
RTVSPropertyOp49
 70
     1
102
RTVSPropertyOp50
 70
     1
102
RTVSPropertyOp51
 70
     0
102
RTVSPropertyOp52
 70
     0
102
RTVSPropertyOp53
 70
     1
102
RTVSPropertyOp54
 70
     1
102
RTVSPropertyOp55
 70
     1
102
RTVSPropertyOp56
 70
     1
102
RTVSPropertyOp57
 70
     1
102
RTVSPost2010Prop28
280
     0
102
RTVSPost2010PropOp28
 70
     1
102
RTVSPost2010Prop29
280
     1
102
RTVSPost2010PropOp29
 70
     1
102
RTVSPost2010Prop30
280
     1
102
RTVSPost2010PropOp30
 70
     1
102
RTVSPost2010Prop31
280
     0
102
RTVSPost2010PropOp31
 70
     1
102
RTVSPost2010Prop32
280
     0
102
RTVSPost2010PropOp32
 70
     1
102
RTVSPost2010Prop33
280
     0
102
RTVSPost2010PropOp33
 70
     1
102
RTVSPost2010Prop34
280
     0
102
RTVSPost2010PropOp34
 70
     1
102
RTVSPost2010Prop35
280
     0
102
RTVSPost2010PropOp35
 70
     1
102
RTVSPost2010Prop36
280
     0
102
RTVSPost2010PropOp36
 70
     1
102
RTVSPost2010Prop37
 90
       50
102
RTVSPost2010PropOp37
 70
     1
102
RTVSPost2010Prop38
140
0.0
102
RTVSPost2010PropOp38
 70
     1
102
RTVSPost2010Prop39
140
1.0
102
RTVSPost2010PropOp39
 70
     1
102
RTVSPost2010Prop40
 90
        0
102
RTVSPost2010PropOp40
 70
     1
102
RTVSPost2010Prop41ColorIndex
 90
       18
102
RTVSPost2010Prop41ColorRGB
 90
        0
102
RTVSPost2010PropOp41
 70
     1
102
RTVSPost2010Prop42
 90
       50
102
RTVSPost2010PropOp42
 70
     1
102
RTVSPost2010Prop43
 90
        3
102
RTVSPost2010PropOp43
 70
     1
102
RTVSPost2010Prop44ColorIndex
 90
        5
102
RTVSPost2010Prop44ColorRGB
 90
      255
102
RTVSPost2010PropOp44
 70
     1
102
RTVSPost2010Prop45
280
     0
102
RTVSPost2010PropOp45
 70
     1
102
RTVSPost2010Prop46
 90
       50
102
RTVSPost2010PropOp46
 70
     1
102
RTVSPost2010Prop47
 90
       50
102
RTVSPost2010PropOp47
 70
     1
102
RTVSPost2010Prop48
 90
       50
102
RTVSPost2010PropOp48
 70
     1
102
RTVSPost2010Prop49
280
     0
102
RTVSPost2010PropOp49
 70
     1
102
RTVSPost2010Prop50
 90
       50
102
RTVSPost2010PropOp50
 70
     1
102
RTVSPost2010Prop51ColorIndex
 90
      256
102
RTVSPost2010Prop51ColorRGB
 90
-16777216
102
RTVSPost2010PropOp51
 70
     0
102
RTVSPost2010Prop52
140
1.0
102
RTVSPost2010PropOp52
 70
     0
102
RTVSPost2010Prop53
 90
        2
102
RTVSPost2010PropOp53
 70
     1
102
RTVSPost2010Prop54
  1
strokes_ogs.tif
102
RTVSPost2010PropOp54
 70
     1
102
RTVSPost2010Prop55
280
     0
102
RTVSPost2010PropOp55
 70
     1
102
RTVSPost2010Prop56
140
1.0
102
RTVSPost2010PropOp56
 70
     1
102
RTVSPost2010Prop57
140
1.0
102
RTVSPost2010PropOp57
 70
     1
  0
XRECORD
  5
D25
102
{ACAD_REACTORS
330
D24
102
}
330
D24
100
AcDbXrecord
280
     1
102
RTVSPropertyOp0
 70
     1
102
RTVSPropertyOp1
 70
     1
102
RTVSPropertyOp2
 70
     1
102
RTVSPropertyOp3
 70
     1
102
RTVSPropertyOp4
 70
     1
102
RTVSPropertyOp5
 70
     1
102
RTVSPropertyOp6
 70
     1
102
RTVSPropertyOp7
 70
     1
102
RTVSPropertyOp8
 70
     1
102
RTVSPropertyOp9
 70
     1
102
RTVSPropertyOp10
 70
     1
102
RTVSPropertyOp11
 70
     1
102
RTVSPropertyOp12
 70
     1
102
RTVSPropertyOp13
 70
     1
102
RTVSPropertyOp14
 70
     1
102
RTVSPropertyOp15
 70
     1
102
RTVSPropertyOp16
 70
     1
102
RTVSPropertyOp17
 70
     1
102
RTVSPropertyOp18
 70
     1
102
RTVSPropertyOp19
 70
     1
102
RTVSPropertyOp20
 70
     1
102
RTVSPropertyOp21
 70
     1
102
RTVSPropertyOp22
 70
     1
102
RTVSPropertyOp23
 70
     1
102
RTVSPropertyOp24
 70
     1
102
RTVSPropertyOp25
 70
     1
102
RTVSPropertyOp26
 70
     1
102
RTVSPropertyOp27
 70
     1
102
RTVSPropertyOp28
 70
     1
102
RTVSPropertyOp29
 70
     1
102
RTVSPropertyOp30
 70
     1
102
RTVSPropertyOp31
 70
     1
102
RTVSPropertyOp32
 70
     1
102
RTVSPropertyOp33
 70
     1
102
RTVSPropertyOp34
 70
     1
102
RTVSPropertyOp35
 70
     1
102
RTVSPropertyOp36
 70
     1
102
RTVSPropertyOp37
 70
     1
102
RTVSPropertyOp38
 70
     1
102
RTVSPropertyOp39
 70
     1
102
RTVSPropertyOp40
 70
     1
102
RTVSPropertyOp41
 70
     1
102
RTVSPropertyOp42
 70
     1
102
RTVSPropertyOp43
 70
     1
102
RTVSPropertyOp44
 70
     1
102
RTVSPropertyOp45
 70
     1
102
RTVSPropertyOp46
 70
     1
102
RTVSPropertyOp47
 70
     1
102
RTVSPropertyOp48
 70
     1
102
RTVSPropertyOp49
 70
     1
102
RTVSPropertyOp50
 70
     1
102
RTVSPropertyOp51
 70
     0
102
RTVSPropertyOp52
 70
     0
102
RTVSPropertyOp53
 70
     1
102
RTVSPropertyOp54
 70
     1
102
RTVSPropertyOp55
 70
     1
102
RTVSPropertyOp56
 70
     1
102
RTVSPropertyOp57
 70
     1
102
RTVSPost2010Prop28
280
     0
102
RTVSPost2010PropOp28
 70
     1
102
RTVSPost2010Prop29
280
     1
102
RTVSPost2010PropOp29
 70
     1
102
RTVSPost2010Prop30
280
     1
102
RTVSPost2010PropOp30
 70
     1
102
RTVSPost2010Prop31
280
     0
102
RTVSPost2010PropOp31
 70
     1
102
RTVSPost2010Prop32
280
     0
102
RTVSPost2010PropOp32
 70
     1
102
RTVSPost2010Prop33
280
     0
102
RTVSPost2010PropOp33
 70
     1
102
RTVSPost2010Prop34
280
     0
102
RTVSPost2010PropOp34
 70
     1
102
RTVSPost2010Prop35
280
     0
102
RTVSPost2010PropOp35
 70
     1
102
RTVSPost2010Prop36
280
     0
102
RTVSPost2010PropOp36
 70
     1
102
RTVSPost2010Prop37
 90
       50
102
RTVSPost2010PropOp37
 70
     1
102
RTVSPost2010Prop38
140
0.0
102
RTVSPost2010PropOp38
 70
     1
102
RTVSPost2010Prop39
140
1.0
102
RTVSPost2010PropOp39
 70
     1
102
RTVSPost2010Prop40
 90
        0
102
RTVSPost2010PropOp40
 70
     1
102
RTVSPost2010Prop41ColorIndex
 90
       18
102
RTVSPost2010Prop41ColorRGB
 90
        0
102
RTVSPost2010PropOp41
 70
     1
102
RTVSPost2010Prop42
 90
       50
102
RTVSPost2010PropOp42
 70
     1
102
RTVSPost2010Prop43
 90
        3
102
RTVSPost2010PropOp43
 70
     1
102
RTVSPost2010Prop44ColorIndex
 90
        5
102
RTVSPost2010Prop44ColorRGB
 90
      255
102
RTVSPost2010PropOp44
 70
     1
102
RTVSPost2010Prop45
280
     0
102
RTVSPost2010PropOp45
 70
     1
102
RTVSPost2010Prop46
 90
       50
102
RTVSPost2010PropOp46
 70
     1
102
RTVSPost2010Prop47
 90
       50
102
RTVSPost2010PropOp47
 70
     1
102
RTVSPost2010Prop48
 90
       50
102
RTVSPost2010PropOp48
 70
     1
102
RTVSPost2010Prop49
280
     0
102
RTVSPost2010PropOp49
 70
     1
102
RTVSPost2010Prop50
 90
       50
102
RTVSPost2010PropOp50
 70
     1
102
RTVSPost2010Prop51ColorIndex
 90
      256
102
RTVSPost2010Prop51ColorRGB
 90
-16777216
102
RTVSPost2010PropOp51
 70
     0
102
RTVSPost2010Prop52
140
1.0
102
RTVSPost2010PropOp52
 70
     0
102
RTVSPost2010Prop53
 90
        2
102
RTVSPost2010PropOp53
 70
     1
102
RTVSPost2010Prop54
  1
strokes_ogs.tif
102
RTVSPost2010PropOp54
 70
     1
102
RTVSPost2010Prop55
280
     0
102
RTVSPost2010PropOp55
 70
     1
102
RTVSPost2010Prop56
140
1.0
102
RTVSPost2010PropOp56
 70
     1
102
RTVSPost2010Prop57
140
1.0
102
RTVSPost2010PropOp57
 70
     1
  0
XRECORD
  5
D23
102
{ACAD_REACTORS
330
D22
102
}
330
D22
100
AcDbXrecord
280
     1
102
RTVSPropertyOp0
 70
     1
102
RTVSPropertyOp1
 70
     1
102
RTVSPropertyOp2
 70
     1
102
RTVSPropertyOp3
 70
     1
102
RTVSPropertyOp4
 70
     1
102
RTVSPropertyOp5
 70
     1
102
RTVSPropertyOp6
 70
     1
102
RTVSPropertyOp7
 70
     1
102
RTVSPropertyOp8
 70
     1
102
RTVSPropertyOp9
 70
     1
102
RTVSPropertyOp10
 70
     1
102
RTVSPropertyOp11
 70
     1
102
RTVSPropertyOp12
 70
     1
102
RTVSPropertyOp13
 70
     1
102
RTVSPropertyOp14
 70
     1
102
RTVSPropertyOp15
 70
     1
102
RTVSPropertyOp16
 70
     1
102
RTVSPropertyOp17
 70
     1
102
RTVSPropertyOp18
 70
     1
102
RTVSPropertyOp19
 70
     1
102
RTVSPropertyOp20
 70
     1
102
RTVSPropertyOp21
 70
     1
102
RTVSPropertyOp22
 70
     1
102
RTVSPropertyOp23
 70
     1
102
RTVSPropertyOp24
 70
     1
102
RTVSPropertyOp25
 70
     1
102
RTVSPropertyOp26
 70
     1
102
RTVSPropertyOp27
 70
     1
102
RTVSPropertyOp28
 70
     1
102
RTVSPropertyOp29
 70
     1
102
RTVSPropertyOp30
 70
     1
102
RTVSPropertyOp31
 70
     1
102
RTVSPropertyOp32
 70
     1
102
RTVSPropertyOp33
 70
     1
102
RTVSPropertyOp34
 70
     1
102
RTVSPropertyOp35
 70
     1
102
RTVSPropertyOp36
 70
     1
102
RTVSPropertyOp37
 70
     1
102
RTVSPropertyOp38
 70
     1
102
RTVSPropertyOp39
 70
     1
102
RTVSPropertyOp40
 70
     1
102
RTVSPropertyOp41
 70
     1
102
RTVSPropertyOp42
 70
     1
102
RTVSPropertyOp43
 70
     1
102
RTVSPropertyOp44
 70
     1
102
RTVSPropertyOp45
 70
     1
102
RTVSPropertyOp46
 70
     1
102
RTVSPropertyOp47
 70
     1
102
RTVSPropertyOp48
 70
     1
102
RTVSPropertyOp49
 70
     1
102
RTVSPropertyOp50
 70
     1
102
RTVSPropertyOp51
 70
     0
102
RTVSPropertyOp52
 70
     0
102
RTVSPropertyOp53
 70
     1
102
RTVSPropertyOp54
 70
     1
102
RTVSPropertyOp55
 70
     1
102
RTVSPropertyOp56
 70
     1
102
RTVSPropertyOp57
 70
     1
102
RTVSPost2010Prop28
280
     0
102
RTVSPost2010PropOp28
 70
     1
102
RTVSPost2010Prop29
280
     1
102
RTVSPost2010PropOp29
 70
     1
102
RTVSPost2010Prop30
280
     1
102
RTVSPost2010PropOp30
 70
     1
102
RTVSPost2010Prop31
280
     0
102
RTVSPost2010PropOp31
 70
     1
102
RTVSPost2010Prop32
280
     0
102
RTVSPost2010PropOp32
 70
     1
102
RTVSPost2010Prop33
280
     0
102
RTVSPost2010PropOp33
 70
     1
102
RTVSPost2010Prop34
280
     0
102
RTVSPost2010PropOp34
 70
     1
102
RTVSPost2010Prop35
280
     0
102
RTVSPost2010PropOp35
 70
     1
102
RTVSPost2010Prop36
280
     0
102
RTVSPost2010PropOp36
 70
     1
102
RTVSPost2010Prop37
 90
       50
102
RTVSPost2010PropOp37
 70
     1
102
RTVSPost2010Prop38
140
0.0
102
RTVSPost2010PropOp38
 70
     1
102
RTVSPost2010Prop39
140
1.0
102
RTVSPost2010PropOp39
 70
     1
102
RTVSPost2010Prop40
 90
        0
102
RTVSPost2010PropOp40
 70
     1
102
RTVSPost2010Prop41ColorIndex
 90
       18
102
RTVSPost2010Prop41ColorRGB
 90
        0
102
RTVSPost2010PropOp41
 70
     1
102
RTVSPost2010Prop42
 90
       50
102
RTVSPost2010PropOp42
 70
     1
102
RTVSPost2010Prop43
 90
        3
102
RTVSPost2010PropOp43
 70
     1
102
RTVSPost2010Prop44ColorIndex
 90
        5
102
RTVSPost2010Prop44ColorRGB
 90
      255
102
RTVSPost2010PropOp44
 70
     1
102
RTVSPost2010Prop45
280
     0
102
RTVSPost2010PropOp45
 70
     1
102
RTVSPost2010Prop46
 90
       50
102
RTVSPost2010PropOp46
 70
     1
102
RTVSPost2010Prop47
 90
       50
102
RTVSPost2010PropOp47
 70
     1
102
RTVSPost2010Prop48
 90
       50
102
RTVSPost2010PropOp48
 70
     1
102
RTVSPost2010Prop49
280
     0
102
RTVSPost2010PropOp49
 70
     1
102
RTVSPost2010Prop50
 90
       50
102
RTVSPost2010PropOp50
 70
     1
102
RTVSPost2010Prop51ColorIndex
 90
      256
102
RTVSPost2010Prop51ColorRGB
 90
-16777216
102
RTVSPost2010PropOp51
 70
     0
102
RTVSPost2010Prop52
140
1.0
102
RTVSPost2010PropOp52
 70
     0
102
RTVSPost2010Prop53
 90
        2
102
RTVSPost2010PropOp53
 70
     1
102
RTVSPost2010Prop54
  1
strokes_ogs.tif
102
RTVSPost2010PropOp54
 70
     1
102
RTVSPost2010Prop55
280
     0
102
RTVSPost2010PropOp55
 70
     1
102
RTVSPost2010Prop56
140
1.0
102
RTVSPost2010PropOp56
 70
     1
102
RTVSPost2010Prop57
140
1.0
102
RTVSPost2010PropOp57
 70
     1
  0
XRECORD
  5
D1D
102
{ACAD_REACTORS
330
D1C
102
}
330
D1C
100
AcDbXrecord
280
     1
102
RTVSPropertyOp0
 70
     1
102
RTVSPropertyOp1
 70
     1
102
RTVSPropertyOp2
 70
     1
102
RTVSPropertyOp3
 70
     1
102
RTVSPropertyOp4
 70
     1
102
RTVSPropertyOp5
 70
     1
102
RTVSPropertyOp6
 70
     1
102
RTVSPropertyOp7
 70
     1
102
RTVSPropertyOp8
 70
     1
102
RTVSPropertyOp9
 70
     1
102
RTVSPropertyOp10
 70
     1
102
RTVSPropertyOp11
 70
     1
102
RTVSPropertyOp12
 70
     1
102
RTVSPropertyOp13
 70
     1
102
RTVSPropertyOp14
 70
     1
102
RTVSPropertyOp15
 70
     1
102
RTVSPropertyOp16
 70
     1
102
RTVSPropertyOp17
 70
     1
102
RTVSPropertyOp18
 70
     1
102
RTVSPropertyOp19
 70
     1
102
RTVSPropertyOp20
 70
     1
102
RTVSPropertyOp21
 70
     1
102
RTVSPropertyOp22
 70
     1
102
RTVSPropertyOp23
 70
     1
102
RTVSPropertyOp24
 70
     1
102
RTVSPropertyOp25
 70
     1
102
RTVSPropertyOp26
 70
     1
102
RTVSPropertyOp27
 70
     1
102
RTVSPropertyOp28
 70
     1
102
RTVSPropertyOp29
 70
     1
102
RTVSPropertyOp30
 70
     1
102
RTVSPropertyOp31
 70
     1
102
RTVSPropertyOp32
 70
     1
102
RTVSPropertyOp33
 70
     1
102
RTVSPropertyOp34
 70
     1
102
RTVSPropertyOp35
 70
     1
102
RTVSPropertyOp36
 70
     1
102
RTVSPropertyOp37
 70
     1
102
RTVSPropertyOp38
 70
     1
102
RTVSPropertyOp39
 70
     1
102
RTVSPropertyOp40
 70
     1
102
RTVSPropertyOp41
 70
     1
102
RTVSPropertyOp42
 70
     1
102
RTVSPropertyOp43
 70
     1
102
RTVSPropertyOp44
 70
     1
102
RTVSPropertyOp45
 70
     1
102
RTVSPropertyOp46
 70
     1
102
RTVSPropertyOp47
 70
     1
102
RTVSPropertyOp48
 70
     1
102
RTVSPropertyOp49
 70
     1
102
RTVSPropertyOp50
 70
     1
102
RTVSPropertyOp51
 70
     0
102
RTVSPropertyOp52
 70
     0
102
RTVSPropertyOp53
 70
     1
102
RTVSPropertyOp54
 70
     1
102
RTVSPropertyOp55
 70
     1
102
RTVSPropertyOp56
 70
     1
102
RTVSPropertyOp57
 70
     1
102
RTVSPost2010Prop28
280
     0
102
RTVSPost2010PropOp28
 70
     1
102
RTVSPost2010Prop29
280
     1
102
RTVSPost2010PropOp29
 70
     1
102
RTVSPost2010Prop30
280
     1
102
RTVSPost2010PropOp30
 70
     1
102
RTVSPost2010Prop31
280
     0
102
RTVSPost2010PropOp31
 70
     1
102
RTVSPost2010Prop32
280
     0
102
RTVSPost2010PropOp32
 70
     1
102
RTVSPost2010Prop33
280
     0
102
RTVSPost2010PropOp33
 70
     1
102
RTVSPost2010Prop34
280
     0
102
RTVSPost2010PropOp34
 70
     1
102
RTVSPost2010Prop35
280
     0
102
RTVSPost2010PropOp35
 70
     1
102
RTVSPost2010Prop36
280
     0
102
RTVSPost2010PropOp36
 70
     1
102
RTVSPost2010Prop37
 90
       50
102
RTVSPost2010PropOp37
 70
     1
102
RTVSPost2010Prop38
140
0.0
102
RTVSPost2010PropOp38
 70
     1
102
RTVSPost2010Prop39
140
1.0
102
RTVSPost2010PropOp39
 70
     1
102
RTVSPost2010Prop40
 90
        0
102
RTVSPost2010PropOp40
 70
     1
102
RTVSPost2010Prop41ColorIndex
 90
       18
102
RTVSPost2010Prop41ColorRGB
 90
        0
102
RTVSPost2010PropOp41
 70
     1
102
RTVSPost2010Prop42
 90
       50
102
RTVSPost2010PropOp42
 70
     1
102
RTVSPost2010Prop43
 90
        3
102
RTVSPost2010PropOp43
 70
     1
102
RTVSPost2010Prop44ColorIndex
 90
        5
102
RTVSPost2010Prop44ColorRGB
 90
      255
102
RTVSPost2010PropOp44
 70
     1
102
RTVSPost2010Prop45
280
     0
102
RTVSPost2010PropOp45
 70
     1
102
RTVSPost2010Prop46
 90
       50
102
RTVSPost2010PropOp46
 70
     1
102
RTVSPost2010Prop47
 90
       50
102
RTVSPost2010PropOp47
 70
     1
102
RTVSPost2010Prop48
 90
       50
102
RTVSPost2010PropOp48
 70
     1
102
RTVSPost2010Prop49
280
     0
102
RTVSPost2010PropOp49
 70
     1
102
RTVSPost2010Prop50
 90
       50
102
RTVSPost2010PropOp50
 70
     1
102
RTVSPost2010Prop51ColorIndex
 90
      256
102
RTVSPost2010Prop51ColorRGB
 90
-16777216
102
RTVSPost2010PropOp51
 70
     0
102
RTVSPost2010Prop52
140
1.0
102
RTVSPost2010PropOp52
 70
     0
102
RTVSPost2010Prop53
 90
        2
102
RTVSPost2010PropOp53
 70
     1
102
RTVSPost2010Prop54
  1
strokes_ogs.tif
102
RTVSPost2010PropOp54
 70
     1
102
RTVSPost2010Prop55
280
     0
102
RTVSPost2010PropOp55
 70
     1
102
RTVSPost2010Prop56
140
1.0
102
RTVSPost2010PropOp56
 70
     1
102
RTVSPost2010Prop57
140
1.0
102
RTVSPost2010PropOp57
 70
     1
  0
XRECORD
  5
D1F
102
{ACAD_REACTORS
330
D1E
102
}
330
D1E
100
AcDbXrecord
280
     1
102
RTVSPropertyOp0
 70
     1
102
RTVSPropertyOp1
 70
     1
102
RTVSPropertyOp2
 70
     1
102
RTVSPropertyOp3
 70
     1
102
RTVSPropertyOp4
 70
     1
102
RTVSPropertyOp5
 70
     1
102
RTVSPropertyOp6
 70
     1
102
RTVSPropertyOp7
 70
     1
102
RTVSPropertyOp8
 70
     1
102
RTVSPropertyOp9
 70
     1
102
RTVSPropertyOp10
 70
     1
102
RTVSPropertyOp11
 70
     1
102
RTVSPropertyOp12
 70
     1
102
RTVSPropertyOp13
 70
     1
102
RTVSPropertyOp14
 70
     1
102
RTVSPropertyOp15
 70
     1
102
RTVSPropertyOp16
 70
     1
102
RTVSPropertyOp17
 70
     1
102
RTVSPropertyOp18
 70
     1
102
RTVSPropertyOp19
 70
     1
102
RTVSPropertyOp20
 70
     1
102
RTVSPropertyOp21
 70
     1
102
RTVSPropertyOp22
 70
     1
102
RTVSPropertyOp23
 70
     1
102
RTVSPropertyOp24
 70
     1
102
RTVSPropertyOp25
 70
     1
102
RTVSPropertyOp26
 70
     1
102
RTVSPropertyOp27
 70
     1
102
RTVSPropertyOp28
 70
     1
102
RTVSPropertyOp29
 70
     1
102
RTVSPropertyOp30
 70
     1
102
RTVSPropertyOp31
 70
     1
102
RTVSPropertyOp32
 70
     1
102
RTVSPropertyOp33
 70
     1
102
RTVSPropertyOp34
 70
     1
102
RTVSPropertyOp35
 70
     1
102
RTVSPropertyOp36
 70
     1
102
RTVSPropertyOp37
 70
     1
102
RTVSPropertyOp38
 70
     1
102
RTVSPropertyOp39
 70
     1
102
RTVSPropertyOp40
 70
     1
102
RTVSPropertyOp41
 70
     1
102
RTVSPropertyOp42
 70
     1
102
RTVSPropertyOp43
 70
     1
102
RTVSPropertyOp44
 70
     1
102
RTVSPropertyOp45
 70
     1
102
RTVSPropertyOp46
 70
     1
102
RTVSPropertyOp47
 70
     1
102
RTVSPropertyOp48
 70
     1
102
RTVSPropertyOp49
 70
     1
102
RTVSPropertyOp50
 70
     1
102
RTVSPropertyOp51
 70
     0
102
RTVSPropertyOp52
 70
     0
102
RTVSPropertyOp53
 70
     1
102
RTVSPropertyOp54
 70
     1
102
RTVSPropertyOp55
 70
     1
102
RTVSPropertyOp56
 70
     1
102
RTVSPropertyOp57
 70
     1
102
RTVSPost2010Prop28
280
     0
102
RTVSPost2010PropOp28
 70
     1
102
RTVSPost2010Prop29
280
     1
102
RTVSPost2010PropOp29
 70
     1
102
RTVSPost2010Prop30
280
     1
102
RTVSPost2010PropOp30
 70
     1
102
RTVSPost2010Prop31
280
     0
102
RTVSPost2010PropOp31
 70
     1
102
RTVSPost2010Prop32
280
     0
102
RTVSPost2010PropOp32
 70
     1
102
RTVSPost2010Prop33
280
     0
102
RTVSPost2010PropOp33
 70
     1
102
RTVSPost2010Prop34
280
     0
102
RTVSPost2010PropOp34
 70
     1
102
RTVSPost2010Prop35
280
     0
102
RTVSPost2010PropOp35
 70
     1
102
RTVSPost2010Prop36
280
     0
102
RTVSPost2010PropOp36
 70
     1
102
RTVSPost2010Prop37
 90
       50
102
RTVSPost2010PropOp37
 70
     1
102
RTVSPost2010Prop38
140
0.0
102
RTVSPost2010PropOp38
 70
     1
102
RTVSPost2010Prop39
140
1.0
102
RTVSPost2010PropOp39
 70
     1
102
RTVSPost2010Prop40
 90
        0
102
RTVSPost2010PropOp40
 70
     1
102
RTVSPost2010Prop41ColorIndex
 90
       18
102
RTVSPost2010Prop41ColorRGB
 90
        0
102
RTVSPost2010PropOp41
 70
     1
102
RTVSPost2010Prop42
 90
       50
102
RTVSPost2010PropOp42
 70
     1
102
RTVSPost2010Prop43
 90
        3
102
RTVSPost2010PropOp43
 70
     1
102
RTVSPost2010Prop44ColorIndex
 90
        5
102
RTVSPost2010Prop44ColorRGB
 90
      255
102
RTVSPost2010PropOp44
 70
     1
102
RTVSPost2010Prop45
280
     0
102
RTVSPost2010PropOp45
 70
     1
102
RTVSPost2010Prop46
 90
       50
102
RTVSPost2010PropOp46
 70
     1
102
RTVSPost2010Prop47
 90
       50
102
RTVSPost2010PropOp47
 70
     1
102
RTVSPost2010Prop48
 90
       50
102
RTVSPost2010PropOp48
 70
     1
102
RTVSPost2010Prop49
280
     0
102
RTVSPost2010PropOp49
 70
     1
102
RTVSPost2010Prop50
 90
       50
102
RTVSPost2010PropOp50
 70
     1
102
RTVSPost2010Prop51ColorIndex
 90
      256
102
RTVSPost2010Prop51ColorRGB
 90
-16777216
102
RTVSPost2010PropOp51
 70
     0
102
RTVSPost2010Prop52
140
1.0
102
RTVSPost2010PropOp52
 70
     0
102
RTVSPost2010Prop53
 90
        2
102
RTVSPost2010PropOp53
 70
     1
102
RTVSPost2010Prop54
  1
strokes_ogs.tif
102
RTVSPost2010PropOp54
 70
     1
102
RTVSPost2010Prop55
280
     0
102
RTVSPost2010PropOp55
 70
     1
102
RTVSPost2010Prop56
140
1.0
102
RTVSPost2010PropOp56
 70
     1
102
RTVSPost2010Prop57
140
1.0
102
RTVSPost2010PropOp57
 70
     1
  0
XRECORD
  5
D0F
102
{ACAD_REACTORS
330
D0E
102
}
330
D0E
100
AcDbXrecord
280
     1
102
RTVSPropertyOp0
 70
     1
102
RTVSPropertyOp1
 70
     1
102
RTVSPropertyOp2
 70
     1
102
RTVSPropertyOp3
 70
     1
102
RTVSPropertyOp4
 70
     1
102
RTVSPropertyOp5
 70
     1
102
RTVSPropertyOp6
 70
     1
102
RTVSPropertyOp7
 70
     1
102
RTVSPropertyOp8
 70
     1
102
RTVSPropertyOp9
 70
     1
102
RTVSPropertyOp10
 70
     1
102
RTVSPropertyOp11
 70
     1
102
RTVSPropertyOp12
 70
     1
102
RTVSPropertyOp13
 70
     1
102
RTVSPropertyOp14
 70
     1
102
RTVSPropertyOp15
 70
     1
102
RTVSPropertyOp16
 70
     1
102
RTVSPropertyOp17
 70
     1
102
RTVSPropertyOp18
 70
     1
102
RTVSPropertyOp19
 70
     1
102
RTVSPropertyOp20
 70
     1
102
RTVSPropertyOp21
 70
     1
102
RTVSPropertyOp22
 70
     1
102
RTVSPropertyOp23
 70
     1
102
RTVSPropertyOp24
 70
     1
102
RTVSPropertyOp25
 70
     1
102
RTVSPropertyOp26
 70
     1
102
RTVSPropertyOp27
 70
     1
102
RTVSPropertyOp28
 70
     1
102
RTVSPropertyOp29
 70
     1
102
RTVSPropertyOp30
 70
     1
102
RTVSPropertyOp31
 70
     1
102
RTVSPropertyOp32
 70
     1
102
RTVSPropertyOp33
 70
     1
102
RTVSPropertyOp34
 70
     1
102
RTVSPropertyOp35
 70
     1
102
RTVSPropertyOp36
 70
     1
102
RTVSPropertyOp37
 70
     1
102
RTVSPropertyOp38
 70
     1
102
RTVSPropertyOp39
 70
     1
102
RTVSPropertyOp40
 70
     1
102
RTVSPropertyOp41
 70
     1
102
RTVSPropertyOp42
 70
     1
102
RTVSPropertyOp43
 70
     1
102
RTVSPropertyOp44
 70
     1
102
RTVSPropertyOp45
 70
     1
102
RTVSPropertyOp46
 70
     1
102
RTVSPropertyOp47
 70
     1
102
RTVSPropertyOp48
 70
     1
102
RTVSPropertyOp49
 70
     1
102
RTVSPropertyOp50
 70
     1
102
RTVSPropertyOp51
 70
     0
102
RTVSPropertyOp52
 70
     0
102
RTVSPropertyOp53
 70
     1
102
RTVSPropertyOp54
 70
     1
102
RTVSPropertyOp55
 70
     1
102
RTVSPropertyOp56
 70
     1
102
RTVSPropertyOp57
 70
     1
102
RTVSPost2010Prop28
280
     0
102
RTVSPost2010PropOp28
 70
     1
102
RTVSPost2010Prop29
280
     1
102
RTVSPost2010PropOp29
 70
     1
102
RTVSPost2010Prop30
280
     1
102
RTVSPost2010PropOp30
 70
     1
102
RTVSPost2010Prop31
280
     0
102
RTVSPost2010PropOp31
 70
     1
102
RTVSPost2010Prop32
280
     0
102
RTVSPost2010PropOp32
 70
     1
102
RTVSPost2010Prop33
280
     0
102
RTVSPost2010PropOp33
 70
     1
102
RTVSPost2010Prop34
280
     0
102
RTVSPost2010PropOp34
 70
     1
102
RTVSPost2010Prop35
280
     0
102
RTVSPost2010PropOp35
 70
     1
102
RTVSPost2010Prop36
280
     0
102
RTVSPost2010PropOp36
 70
     1
102
RTVSPost2010Prop37
 90
       50
102
RTVSPost2010PropOp37
 70
     1
102
RTVSPost2010Prop38
140
0.0
102
RTVSPost2010PropOp38
 70
     1
102
RTVSPost2010Prop39
140
1.0
102
RTVSPost2010PropOp39
 70
     1
102
RTVSPost2010Prop40
 90
        0
102
RTVSPost2010PropOp40
 70
     1
102
RTVSPost2010Prop41ColorIndex
 90
       18
102
RTVSPost2010Prop41ColorRGB
 90
        0
102
RTVSPost2010PropOp41
 70
     1
102
RTVSPost2010Prop42
 90
       50
102
RTVSPost2010PropOp42
 70
     1
102
RTVSPost2010Prop43
 90
        3
102
RTVSPost2010PropOp43
 70
     1
102
RTVSPost2010Prop44ColorIndex
 90
        5
102
RTVSPost2010Prop44ColorRGB
 90
      255
102
RTVSPost2010PropOp44
 70
     1
102
RTVSPost2010Prop45
280
     0
102
RTVSPost2010PropOp45
 70
     1
102
RTVSPost2010Prop46
 90
       50
102
RTVSPost2010PropOp46
 70
     1
102
RTVSPost2010Prop47
 90
       50
102
RTVSPost2010PropOp47
 70
     1
102
RTVSPost2010Prop48
 90
       50
102
RTVSPost2010PropOp48
 70
     1
102
RTVSPost2010Prop49
280
     0
102
RTVSPost2010PropOp49
 70
     1
102
RTVSPost2010Prop50
 90
       50
102
RTVSPost2010PropOp50
 70
     1
102
RTVSPost2010Prop51ColorIndex
 90
      256
102
RTVSPost2010Prop51ColorRGB
 90
-16777216
102
RTVSPost2010PropOp51
 70
     0
102
RTVSPost2010Prop52
140
1.0
102
RTVSPost2010PropOp52
 70
     0
102
RTVSPost2010Prop53
 90
        2
102
RTVSPost2010PropOp53
 70
     1
102
RTVSPost2010Prop54
  1
strokes_ogs.tif
102
RTVSPost2010PropOp54
 70
     1
102
RTVSPost2010Prop55
280
     0
102
RTVSPost2010PropOp55
 70
     1
102
RTVSPost2010Prop56
140
1.0
102
RTVSPost2010PropOp56
 70
     1
102
RTVSPost2010Prop57
140
1.0
102
RTVSPost2010PropOp57
 70
     1
  0
XRECORD
  5
D01
102
{ACAD_REACTORS
330
D00
102
}
330
D00
100
AcDbXrecord
280
     1
102
RTVSPropertyOp0
 70
     1
102
RTVSPropertyOp1
 70
     1
102
RTVSPropertyOp2
 70
     1
102
RTVSPropertyOp3
 70
     1
102
RTVSPropertyOp4
 70
     1
102
RTVSPropertyOp5
 70
     1
102
RTVSPropertyOp6
 70
     1
102
RTVSPropertyOp7
 70
     1
102
RTVSPropertyOp8
 70
     1
102
RTVSPropertyOp9
 70
     1
102
RTVSPropertyOp10
 70
     1
102
RTVSPropertyOp11
 70
     1
102
RTVSPropertyOp12
 70
     1
102
RTVSPropertyOp13
 70
     1
102
RTVSPropertyOp14
 70
     1
102
RTVSPropertyOp15
 70
     1
102
RTVSPropertyOp16
 70
     1
102
RTVSPropertyOp17
 70
     1
102
RTVSPropertyOp18
 70
     1
102
RTVSPropertyOp19
 70
     1
102
RTVSPropertyOp20
 70
     1
102
RTVSPropertyOp21
 70
     1
102
RTVSPropertyOp22
 70
     1
102
RTVSPropertyOp23
 70
     1
102
RTVSPropertyOp24
 70
     1
102
RTVSPropertyOp25
 70
     1
102
RTVSPropertyOp26
 70
     1
102
RTVSPropertyOp27
 70
     1
102
RTVSPropertyOp28
 70
     1
102
RTVSPropertyOp29
 70
     1
102
RTVSPropertyOp30
 70
     1
102
RTVSPropertyOp31
 70
     1
102
RTVSPropertyOp32
 70
     1
102
RTVSPropertyOp33
 70
     1
102
RTVSPropertyOp34
 70
     1
102
RTVSPropertyOp35
 70
     1
102
RTVSPropertyOp36
 70
     1
102
RTVSPropertyOp37
 70
     1
102
RTVSPropertyOp38
 70
     1
102
RTVSPropertyOp39
 70
     1
102
RTVSPropertyOp40
 70
     1
102
RTVSPropertyOp41
 70
     1
102
RTVSPropertyOp42
 70
     1
102
RTVSPropertyOp43
 70
     1
102
RTVSPropertyOp44
 70
     1
102
RTVSPropertyOp45
 70
     1
102
RTVSPropertyOp46
 70
     1
102
RTVSPropertyOp47
 70
     1
102
RTVSPropertyOp48
 70
     1
102
RTVSPropertyOp49
 70
     1
102
RTVSPropertyOp50
 70
     1
102
RTVSPropertyOp51
 70
     0
102
RTVSPropertyOp52
 70
     0
102
RTVSPropertyOp53
 70
     1
102
RTVSPropertyOp54
 70
     1
102
RTVSPropertyOp55
 70
     1
102
RTVSPropertyOp56
 70
     1
102
RTVSPropertyOp57
 70
     1
102
RTVSPost2010Prop28
280
     0
102
RTVSPost2010PropOp28
 70
     1
102
RTVSPost2010Prop29
280
     1
102
RTVSPost2010PropOp29
 70
     1
102
RTVSPost2010Prop30
280
     1
102
RTVSPost2010PropOp30
 70
     1
102
RTVSPost2010Prop31
280
     0
102
RTVSPost2010PropOp31
 70
     1
102
RTVSPost2010Prop32
280
     0
102
RTVSPost2010PropOp32
 70
     1
102
RTVSPost2010Prop33
280
     0
102
RTVSPost2010PropOp33
 70
     1
102
RTVSPost2010Prop34
280
     0
102
RTVSPost2010PropOp34
 70
     1
102
RTVSPost2010Prop35
280
     0
102
RTVSPost2010PropOp35
 70
     1
102
RTVSPost2010Prop36
280
     0
102
RTVSPost2010PropOp36
 70
     1
102
RTVSPost2010Prop37
 90
       50
102
RTVSPost2010PropOp37
 70
     1
102
RTVSPost2010Prop38
140
0.0
102
RTVSPost2010PropOp38
 70
     1
102
RTVSPost2010Prop39
140
1.0
102
RTVSPost2010PropOp39
 70
     1
102
RTVSPost2010Prop40
 90
        0
102
RTVSPost2010PropOp40
 70
     1
102
RTVSPost2010Prop41ColorIndex
 90
       18
102
RTVSPost2010Prop41ColorRGB
 90
        0
102
RTVSPost2010PropOp41
 70
     1
102
RTVSPost2010Prop42
 90
       50
102
RTVSPost2010PropOp42
 70
     1
102
RTVSPost2010Prop43
 90
        3
102
RTVSPost2010PropOp43
 70
     1
102
RTVSPost2010Prop44ColorIndex
 90
        5
102
RTVSPost2010Prop44ColorRGB
 90
      255
102
RTVSPost2010PropOp44
 70
     1
102
RTVSPost2010Prop45
280
     0
102
RTVSPost2010PropOp45
 70
     1
102
RTVSPost2010Prop46
 90
       50
102
RTVSPost2010PropOp46
 70
     1
102
RTVSPost2010Prop47
 90
       50
102
RTVSPost2010PropOp47
 70
     1
102
RTVSPost2010Prop48
 90
       50
102
RTVSPost2010PropOp48
 70
     1
102
RTVSPost2010Prop49
280
     0
102
RTVSPost2010PropOp49
 70
     1
102
RTVSPost2010Prop50
 90
       50
102
RTVSPost2010PropOp50
 70
     1
102
RTVSPost2010Prop51ColorIndex
 90
      256
102
RTVSPost2010Prop51ColorRGB
 90
-16777216
102
RTVSPost2010PropOp51
 70
     0
102
RTVSPost2010Prop52
140
1.0
102
RTVSPost2010PropOp52
 70
     0
102
RTVSPost2010Prop53
 90
        2
102
RTVSPost2010PropOp53
 70
     1
102
RTVSPost2010Prop54
  1
strokes_ogs.tif
102
RTVSPost2010PropOp54
 70
     1
102
RTVSPost2010Prop55
280
     0
102
RTVSPost2010PropOp55
 70
     1
102
RTVSPost2010Prop56
140
1.0
102
RTVSPost2010PropOp56
 70
     1
102
RTVSPost2010Prop57
140
1.0
102
RTVSPost2010PropOp57
 70
     1
  0
XRECORD
  5
D21
102
{ACAD_REACTORS
330
D20
102
}
330
D20
100
AcDbXrecord
280
     1
102
RTVSPropertyOp0
 70
     1
102
RTVSPropertyOp1
 70
     1
102
RTVSPropertyOp2
 70
     1
102
RTVSPropertyOp3
 70
     1
102
RTVSPropertyOp4
 70
     1
102
RTVSPropertyOp5
 70
     1
102
RTVSPropertyOp6
 70
     1
102
RTVSPropertyOp7
 70
     1
102
RTVSPropertyOp8
 70
     1
102
RTVSPropertyOp9
 70
     1
102
RTVSPropertyOp10
 70
     1
102
RTVSPropertyOp11
 70
     1
102
RTVSPropertyOp12
 70
     1
102
RTVSPropertyOp13
 70
     1
102
RTVSPropertyOp14
 70
     1
102
RTVSPropertyOp15
 70
     1
102
RTVSPropertyOp16
 70
     1
102
RTVSPropertyOp17
 70
     1
102
RTVSPropertyOp18
 70
     1
102
RTVSPropertyOp19
 70
     1
102
RTVSPropertyOp20
 70
     1
102
RTVSPropertyOp21
 70
     1
102
RTVSPropertyOp22
 70
     1
102
RTVSPropertyOp23
 70
     1
102
RTVSPropertyOp24
 70
     1
102
RTVSPropertyOp25
 70
     1
102
RTVSPropertyOp26
 70
     1
102
RTVSPropertyOp27
 70
     1
102
RTVSPropertyOp28
 70
     1
102
RTVSPropertyOp29
 70
     1
102
RTVSPropertyOp30
 70
     1
102
RTVSPropertyOp31
 70
     1
102
RTVSPropertyOp32
 70
     1
102
RTVSPropertyOp33
 70
     1
102
RTVSPropertyOp34
 70
     1
102
RTVSPropertyOp35
 70
     1
102
RTVSPropertyOp36
 70
     1
102
RTVSPropertyOp37
 70
     1
102
RTVSPropertyOp38
 70
     1
102
RTVSPropertyOp39
 70
     1
102
RTVSPropertyOp40
 70
     1
102
RTVSPropertyOp41
 70
     1
102
RTVSPropertyOp42
 70
     1
102
RTVSPropertyOp43
 70
     1
102
RTVSPropertyOp44
 70
     1
102
RTVSPropertyOp45
 70
     1
102
RTVSPropertyOp46
 70
     1
102
RTVSPropertyOp47
 70
     1
102
RTVSPropertyOp48
 70
     1
102
RTVSPropertyOp49
 70
     1
102
RTVSPropertyOp50
 70
     1
102
RTVSPropertyOp51
 70
     0
102
RTVSPropertyOp52
 70
     0
102
RTVSPropertyOp53
 70
     1
102
RTVSPropertyOp54
 70
     1
102
RTVSPropertyOp55
 70
     1
102
RTVSPropertyOp56
 70
     1
102
RTVSPropertyOp57
 70
     1
102
RTVSPost2010Prop28
280
     0
102
RTVSPost2010PropOp28
 70
     1
102
RTVSPost2010Prop29
280
     1
102
RTVSPost2010PropOp29
 70
     1
102
RTVSPost2010Prop30
280
     1
102
RTVSPost2010PropOp30
 70
     1
102
RTVSPost2010Prop31
280
     0
102
RTVSPost2010PropOp31
 70
     1
102
RTVSPost2010Prop32
280
     0
102
RTVSPost2010PropOp32
 70
     1
102
RTVSPost2010Prop33
280
     0
102
RTVSPost2010PropOp33
 70
     1
102
RTVSPost2010Prop34
280
     0
102
RTVSPost2010PropOp34
 70
     1
102
RTVSPost2010Prop35
280
     0
102
RTVSPost2010PropOp35
 70
     1
102
RTVSPost2010Prop36
280
     0
102
RTVSPost2010PropOp36
 70
     1
102
RTVSPost2010Prop37
 90
       50
102
RTVSPost2010PropOp37
 70
     1
102
RTVSPost2010Prop38
140
0.0
102
RTVSPost2010PropOp38
 70
     1
102
RTVSPost2010Prop39
140
1.0
102
RTVSPost2010PropOp39
 70
     1
102
RTVSPost2010Prop40
 90
        0
102
RTVSPost2010PropOp40
 70
     1
102
RTVSPost2010Prop41ColorIndex
 90
       18
102
RTVSPost2010Prop41ColorRGB
 90
        0
102
RTVSPost2010PropOp41
 70
     1
102
RTVSPost2010Prop42
 90
       50
102
RTVSPost2010PropOp42
 70
     1
102
RTVSPost2010Prop43
 90
        3
102
RTVSPost2010PropOp43
 70
     1
102
RTVSPost2010Prop44ColorIndex
 90
        5
102
RTVSPost2010Prop44ColorRGB
 90
      255
102
RTVSPost2010PropOp44
 70
     1
102
RTVSPost2010Prop45
280
     0
102
RTVSPost2010PropOp45
 70
     1
102
RTVSPost2010Prop46
 90
       50
102
RTVSPost2010PropOp46
 70
     1
102
RTVSPost2010Prop47
 90
       50
102
RTVSPost2010PropOp47
 70
     1
102
RTVSPost2010Prop48
 90
       50
102
RTVSPost2010PropOp48
 70
     1
102
RTVSPost2010Prop49
280
     0
102
RTVSPost2010PropOp49
 70
     1
102
RTVSPost2010Prop50
 90
       50
102
RTVSPost2010PropOp50
 70
     1
102
RTVSPost2010Prop51ColorIndex
 90
      256
102
RTVSPost2010Prop51ColorRGB
 90
-16777216
102
RTVSPost2010PropOp51
 70
     0
102
RTVSPost2010Prop52
140
1.0
102
RTVSPost2010PropOp52
 70
     0
102
RTVSPost2010Prop53
 90
        2
102
RTVSPost2010PropOp53
 70
     1
102
RTVSPost2010Prop54
  1
strokes_ogs.tif
102
RTVSPost2010PropOp54
 70
     1
102
RTVSPost2010Prop55
280
     0
102
RTVSPost2010PropOp55
 70
     1
102
RTVSPost2010Prop56
140
1.0
102
RTVSPost2010PropOp56
 70
     1
102
RTVSPost2010Prop57
140
1.0
102
RTVSPost2010PropOp57
 70
     1
  0
ENDSEC
  0
EOF
