  0
SECTION
  2
HEADER
  9
$ACADVER
  1
AC1021
  9
$ACADMAINTVER
 70
    25
  9
$DWGCODEPAGE
  3
ANSI_1252
  9
$INSBASE
 10
0.0
 20
0.0
 30
0.0
  9
$EXTMIN
 10
-12.72771653543307
 20
-15.77696850393701
 30
0.0
  9
$EXTMAX
 10
14.82989763779528
 20
0.1044251968503937
 30
0.0
  9
$LIMMIN
 10
0.0
 20
0.0
  9
$LIMMAX
 10
12.0
 20
9.0
  9
$ORTHOMODE
 70
     0
  9
$REGENMODE
 70
     1
  9
$FILLMODE
 70
     1
  9
$QTEXTMODE
 70
     0
  9
$MIRRTEXT
 70
     1
  9
$LTSCALE
 40
1.0
  9
$ATTMODE
 70
     1
  9
$TEXTSIZE
 40
0.2
  9
$TRACEWID
 40
0.05
  9
$TEXTSTYLE
  7
Standard
  9
$CLAYER
  8
0
  9
$CELTYPE
  6
ByLayer
  9
$CECOLOR
 62
   256
  9
$CELTSCALE
 40
1.0
  9
$DISPSILH
 70
     0
  9
$DIMSCALE
 40
1.0
  9
$DIMASZ
 40
0.18
  9
$DIMEXO
 40
0.0625
  9
$DIMDLI
 40
0.38
  9
$DIMRND
 40
0.0
  9
$DIMDLE
 40
0.0
  9
$DIMEXE
 40
0.18
  9
$DIMTP
 40
0.0
  9
$DIMTM
 40
0.0
  9
$DIMTXT
 40
0.18
  9
$DIMCEN
 40
0.09
  9
$DIMTSZ
 40
0.0
  9
$DIMTOL
 70
     0
  9
$DIMLIM
 70
     0
  9
$DIMTIH
 70
     1
  9
$DIMTOH
 70
     1
  9
$DIMSE1
 70
     0
  9
$DIMSE2
 70
     0
  9
$DIMTAD
 70
     0
  9
$DIMZIN
 70
     0
  9
$DIMBLK
  1

  9
$DIMASO
 70
     1
  9
$DIMSHO
 70
     1
  9
$DIMPOST
  1

  9
$DIMAPOST
  1

  9
$DIMALT
 70
     0
  9
$DIMALTD
 70
     2
  9
$DIMALTF
 40
25.4
  9
$DIMLFAC
 40
1.0
  9
$DIMTOFL
 70
     0
  9
$DIMTVP
 40
0.0
  9
$DIMTIX
 70
     0
  9
$DIMSOXD
 70
     0
  9
$DIMSAH
 70
     0
  9
$DIMBLK1
  1

  9
$DIMBLK2
  1

  9
$DIMSTYLE
  2
Standard
  9
$DIMCLRD
 70
     0
  9
$DIMCLRE
 70
     0
  9
$DIMCLRT
 70
     0
  9
$DIMTFAC
 40
1.0
  9
$DIMGAP
 40
0.09
  9
$DIMJUST
 70
     0
  9
$DIMSD1
 70
     0
  9
$DIMSD2
 70
     0
  9
$DIMTOLJ
 70
     1
  9
$DIMTZIN
 70
     0
  9
$DIMALTZ
 70
     0
  9
$DIMALTTZ
 70
     0
  9
$DIMUPT
 70
     0
  9
$DIMDEC
 70
     4
  9
$DIMTDEC
 70
     4
  9
$DIMALTU
 70
     2
  9
$DIMALTTD
 70
     2
  9
$DIMTXSTY
  7
Standard
  9
$DIMAUNIT
 70
     0
  9
$DIMADEC
 70
     0
  9
$DIMALTRND
 40
0.0
  9
$DIMAZIN
 70
     0
  9
$DIMDSEP
 70
    46
  9
$DIMATFIT
 70
     3
  9
$DIMFRAC
 70
     0
  9
$DIMLDRBLK
  1

  9
$DIMLUNIT
 70
     2
  9
$DIMLWD
 70
    -2
  9
$DIMLWE
 70
    -2
  9
$DIMTMOVE
 70
     0
  9
$DIMFXL
 40
1.0
  9
$DIMFXLON
 70
     0
  9
$DIMJOGANG
 40
0.7853981633974483
  9
$DIMTFILL
 70
     0
  9
$DIMTFILLCLR
 70
     0
  9
$DIMARCSYM
 70
     0
  9
$DIMLTYPE
  6

  9
$DIMLTEX1
  6

  9
$DIMLTEX2
  6

  9
$LUNITS
 70
     2
  9
$LUPREC
 70
     4
  9
$SKETCHINC
 40
0.1
  9
$FILLETRAD
 40
0.5
  9
$AUNITS
 70
     0
  9
$AUPREC
 70
     0
  9
$MENU
  1
.
  9
$ELEVATION
 40
0.0
  9
$PELEVATION
 40
0.0
  9
$THICKNESS
 40
0.0
  9
$LIMCHECK
 70
     0
  9
$CHAMFERA
 40
0.0
  9
$CHAMFERB
 40
0.0
  9
$CHAMFERC
 40
0.0
  9
$CHAMFERD
 40
0.0
  9
$SKPOLY
 70
     0
  9
$TDCREATE
 40
2457778.552655463
  9
$TDUCREATE
 40
2457778.760988796
  9
$TDUPDATE
 40
2457778.552655648
  9
$TDUUPDATE
 40
2457778.760988981
  9
$TDINDWG
 40
0.0000000116
  9
$TDUSRTIMER
 40
0.0000000116
  9
$USRTIMER
 70
     1
  9
$ANGBASE
 50
0.0
  9
$ANGDIR
 70
     0
  9
$PDMODE
 70
     0
  9
$PDSIZE
 40
0.0
  9
$PLINEWID
 40
0.0
  9
$SPLFRAME
 70
     0
  9
$SPLINETYPE
 70
     6
  9
$SPLINESEGS
 70
     8
  9
$HANDSEED
  5
CC
  9
$SURFTAB1
 70
     6
  9
$SURFTAB2
 70
     6
  9
$SURFTYPE
 70
     6
  9
$SURFU
 70
     6
  9
$SURFV
 70
     6
  9
$UCSBASE
  2

  9
$UCSNAME
  2

  9
$UCSORG
 10
0.0
 20
0.0
 30
0.0
  9
$UCSXDIR
 10
1.0
 20
0.0
 30
0.0
  9
$UCSYDIR
 10
0.0
 20
1.0
 30
0.0
  9
$UCSORTHOREF
  2

  9
$UCSORTHOVIEW
 70
     0
  9
$UCSORGTOP
 10
0.0
 20
0.0
 30
0.0
  9
$UCSORGBOTTOM
 10
0.0
 20
0.0
 30
0.0
  9
$UCSORGLEFT
 10
0.0
 20
0.0
 30
0.0
  9
$UCSORGRIGHT
 10
0.0
 20
0.0
 30
0.0
  9
$UCSORGFRONT
 10
0.0
 20
0.0
 30
0.0
  9
$UCSORGBACK
 10
0.0
 20
0.0
 30
0.0
  9
$PUCSBASE
  2

  9
$PUCSNAME
  2

  9
$PUCSORG
 10
0.0
 20
0.0
 30
0.0
  9
$PUCSXDIR
 10
1.0
 20
0.0
 30
0.0
  9
$PUCSYDIR
 10
0.0
 20
1.0
 30
0.0
  9
$PUCSORTHOREF
  2

  9
$PUCSORTHOVIEW
 70
     0
  9
$PUCSORGTOP
 10
0.0
 20
0.0
 30
0.0
  9
$PUCSORGBOTTOM
 10
0.0
 20
0.0
 30
0.0
  9
$PUCSORGLEFT
 10
0.0
 20
0.0
 30
0.0
  9
$PUCSORGRIGHT
 10
0.0
 20
0.0
 30
0.0
  9
$PUCSORGFRONT
 10
0.0
 20
0.0
 30
0.0
  9
$PUCSORGBACK
 10
0.0
 20
0.0
 30
0.0
  9
$USERI1
 70
     0
  9
$USERI2
 70
     0
  9
$USERI3
 70
     0
  9
$USERI4
 70
     0
  9
$USERI5
 70
     0
  9
$USERR1
 40
0.0
  9
$USERR2
 40
0.0
  9
$USERR3
 40
0.0
  9
$USERR4
 40
0.0
  9
$USERR5
 40
0.0
  9
$WORLDVIEW
 70
     1
  9
$SHADEDGE
 70
     3
  9
$SHADEDIF
 70
    70
  9
$TILEMODE
 70
     1
  9
$MAXACTVP
 70
    64
  9
$PINSBASE
 10
0.0
 20
0.0
 30
0.0
  9
$PLIMCHECK
 70
     0
  9
$PEXTMIN
 10
1.000000000000000E 20
 20
1.000000000000000E 20
 30
1.000000000000000E 20
  9
$PEXTMAX
 10
-1.000000000000000E 20
 20
-1.000000000000000E 20
 30
-1.000000000000000E 20
  9
$PLIMMIN
 10
0.0
 20
0.0
  9
$PLIMMAX
 10
12.0
 20
9.0
  9
$UNITMODE
 70
     0
  9
$VISRETAIN
 70
     1
  9
$PLINEGEN
 70
     0
  9
$PSLTSCALE
 70
     1
  9
$TREEDEPTH
 70
  3020
  9
$CMLSTYLE
  2
Standard
  9
$CMLJUST
 70
     0
  9
$CMLSCALE
 40
1.0
  9
$PROXYGRAPHICS
 70
     1
  9
$MEASUREMENT
 70
     0
  9
$CELWEIGHT
370
    -1
  9
$ENDCAPS
280
     0
  9
$JOINSTYLE
280
     0
  9
$LWDISPLAY
290
     0
  9
$INSUNITS
 70
     1
  9
$HYPERLINKBASE
  1

  9
$STYLESHEET
  1

  9
$XEDIT
290
     1
  9
$CEPSNTYPE
380
     0
  9
$PSTYLEMODE
290
     1
  9
$FINGERPRINTGUID
  2
{0D9B40B0-0B98-40B5-8AD6-9791918F9738}
  9
$VERSIONGUID
  2
{FAEB1C32-E019-11D5-929B-00C0DF256EC4}
  9
$EXTNAMES
290
     1
  9
$PSVPSCALE
 40
0.0
  9
$OLESTARTUP
290
     0
  9
$SORTENTS
280
   127
  9
$INDEXCTL
280
     0
  9
$HIDETEXT
280
     1
  9
$XCLIPFRAME
290
     0
  9
$HALOGAP
280
     0
  9
$OBSCOLOR
 70
   257
  9
$OBSLTYPE
280
     0
  9
$INTERSECTIONDISPLAY
280
     0
  9
$INTERSECTIONCOLOR
 70
   257
  9
$DIMASSOC
280
     2
  9
$PROJECTNAME
  1

  9
$CAMERADISPLAY
290
     0
  9
$LENSLENGTH
 40
50.0
  9
$CAMERAHEIGHT
 40
0.0
  9
$STEPSPERSEC
 40
2.0
  9
$STEPSIZE
 40
6.0
  9
$3DDWFPREC
 40
2.0
  9
$PSOLWIDTH
 40
0.25
  9
$PSOLHEIGHT
 40
4.0
  9
$LOFTANG1
 40
1.570796326794897
  9
$LOFTANG2
 40
1.570796326794897
  9
$LOFTMAG1
 40
0.0
  9
$LOFTMAG2
 40
0.0
  9
$LOFTPARAM
 70
     7
  9
$LOFTNORMALS
280
     1
  9
$LATITUDE
 40
37.795
  9
$LONGITUDE
 40
-122.394
  9
$NORTHDIRECTION
 40
0.0
  9
$TIMEZONE
 70
 -8000
  9
$LIGHTGLYPHDISPLAY
280
     1
  9
$TILEMODELIGHTSYNCH
280
     1
  9
$CMATERIAL
347
44
  9
$SOLIDHIST
280
     0
  9
$SHOWHIST
280
     1
  9
$DWFFRAME
280
     2
  9
$DGNFRAME
280
     2
  9
$REALWORLDSCALE
290
     1
  9
$INTERFERECOLOR
 62
   256
  9
$CSHADOW
280
     0
  9
$SHADOWPLANELOCATION
 40
0.0
  0
ENDSEC
  0
SECTION
  2
CLASSES
  0
CLASS
  1
ACDBDICTIONARYWDFLT
  2
AcDbDictionaryWithDefault
  3
ObjectDBX Classes
 90
        0
 91
        4
280
     0
281
     0
  0
CLASS
  1
VISUALSTYLE
  2
AcDbVisualStyle
  3
ObjectDBX Classes
 90
     4095
 91
        4
280
     0
281
     0
  0
CLASS
  1
MATERIAL
  2
AcDbMaterial
  3
ObjectDBX Classes
 90
     1153
 91
        4
280
     0
281
     0
  0
CLASS
  1
SCALE
  2
AcDbScale
  3
ObjectDBX Classes
 90
     1153
 91
        4
280
     0
281
     0
  0
CLASS
  1
TABLESTYLE
  2
AcDbTableStyle
  3
ObjectDBX Classes
 90
     4095
 91
        4
280
     0
281
     0
  0
CLASS
  1
MLEADERSTYLE
  2
AcDbMLeaderStyle
  3
ACDB_MLEADERSTYLE_CLASS
 90
     4095
 91
        4
280
     0
281
     0
  0
CLASS
  1
SUN
  2
AcDbSun
  3
SCENEOE
 90
     1153
 91
        4
280
     0
281
     0
  0
CLASS
  1
DICTIONARYVAR
  2
AcDbDictionaryVar
  3
ObjectDBX Classes
 90
        0
 91
        4
280
     0
281
     0
  0
CLASS
  1
CELLSTYLEMAP
  2
AcDbCellStyleMap
  3
ObjectDBX Classes
 90
     1152
 91
        4
280
     0
281
     0
  0
ENDSEC
  0
SECTION
  2
TABLES
  0
TABLE
  2
VPORT
  5
8
330
0
100
AcDbSymbolTable
 70
     1
  0
VPORT
  5
29
330
8
100
AcDbSymbolTableRecord
100
AcDbViewportTableRecord
  2
*Active
 70
     0
 10
0.0
 20
0.0
 11
1.0
 21
1.0
 12
10.42990654205607
 22
4.5
 13
0.0
 23
0.0
 14
0.5
 24
0.5
 15
0.5
 25
0.5
 16
0.0
 26
0.0
 36
1.0
 17
0.0
 27
0.0
 37
0.0
 40
9.0
 41
1.972972972850329
 42
50.0
 43
0.0
 44
0.0
 50
0.0
 51
0.0
 71
     0
 72
   100
 73
     1
 74
     3
 75
     0
 76
     0
 77
     0
 78
     0
281
     0
 65
     1
110
0.0
120
0.0
130
0.0
111
1.0
121
0.0
131
0.0
112
0.0
122
1.0
132
0.0
 79
     0
146
0.0
 60
     3
 61
     5
292
     1
282
     1
141
0.0
142
0.0
 63
   250
361
6D
  0
ENDTAB
  0
TABLE
  2
LTYPE
  5
5
330
0
100
AcDbSymbolTable
 70
     1
  0
LTYPE
  5
14
330
5
100
AcDbSymbolTableRecord
100
AcDbLinetypeTableRecord
  2
ByBlock
 70
     0
  3

 72
    65
 73
     0
 40
0.0
  0
LTYPE
  5
15
330
5
100
AcDbSymbolTableRecord
100
AcDbLinetypeTableRecord
  2
ByLayer
 70
     0
  3

 72
    65
 73
     0
 40
0.0
  0
LTYPE
  5
16
330
5
100
AcDbSymbolTableRecord
100
AcDbLinetypeTableRecord
  2
Continuous
 70
     0
  3
Solid line
 72
    65
 73
     0
 40
0.0
  0
ENDTAB
  0
TABLE
  2
LAYER
  5
2
330
0
100
AcDbSymbolTable
 70
     2
  0
LAYER
  5
10
330
2
100
AcDbSymbolTableRecord
100
AcDbLayerTableRecord
  2
0
 70
     0
 62
     7
  6
Continuous
370
    -3
390
F
347
46
  0
LAYER
  5
6F
330
2
100
AcDbSymbolTableRecord
100
AcDbLayerTableRecord
  2
Layer 1
 70
     0
 62
     7
  6
Continuous
370
    -3
390
F
347
46
  0
ENDTAB
  0
TABLE
  2
STYLE
  5
3
330
0
100
AcDbSymbolTable
 70
     1
  0
STYLE
  5
11
330
3
100
AcDbSymbolTableRecord
100
AcDbTextStyleTableRecord
  2
Standard
 70
     0
 40
0.0
 41
1.0
 50
0.0
 71
     0
 42
0.2
  3
txt
  4

  0
ENDTAB
  0
TABLE
  2
VIEW
  5
6
330
0
100
AcDbSymbolTable
 70
     0
  0
ENDTAB
  0
TABLE
  2
UCS
  5
7
330
0
100
AcDbSymbolTable
 70
     0
  0
ENDTAB
  0
TABLE
  2
APPID
  5
9
330
0
100
AcDbSymbolTable
 70
     3
  0
APPID
  5
12
330
9
100
AcDbSymbolTableRecord
100
AcDbRegAppTableRecord
  2
ACAD
 70
     0
  0
APPID
  5
6E
330
9
100
AcDbSymbolTableRecord
100
AcDbRegAppTableRecord
  2
ODA
 70
     0
  0
APPID
  5
C4
330
9
100
AcDbSymbolTableRecord
100
AcDbRegAppTableRecord
  2
ACAD_MLEADERVER
 70
     0
  0
ENDTAB
  0
TABLE
  2
DIMSTYLE
  5
A
330
0
100
AcDbSymbolTable
 70
     1
100
AcDbDimStyleTable
  0
DIMSTYLE
105
27
330
A
100
AcDbSymbolTableRecord
100
AcDbDimStyleTableRecord
  2
Standard
 70
     0
178
     0
340
11
  0
ENDTAB
  0
TABLE
  2
BLOCK_RECORD
  5
1
330
0
100
AcDbSymbolTable
 70
     1
  0
BLOCK_RECORD
  5
1F
330
1
100
AcDbSymbolTableRecord
100
AcDbBlockTableRecord
  2
*Model_Space
340
22
 70
     0
280
     1
281
     0
  0
BLOCK_RECORD
  5
1B
330
1
100
AcDbSymbolTableRecord
100
AcDbBlockTableRecord
  2
*Paper_Space
340
1E
 70
     0
280
     1
281
     0
  0
BLOCK_RECORD
  5
23
330
1
100
AcDbSymbolTableRecord
100
AcDbBlockTableRecord
  2
*Paper_Space0
340
26
 70
     0
280
     1
281
     0
  0
ENDTAB
  0
ENDSEC
  0
SECTION
  2
BLOCKS
  0
BLOCK
  5
20
330
1F
100
AcDbEntity
  8
0
100
AcDbBlockBegin
  2
*Model_Space
 70
     0
 10
0.0
 20
0.0
 30
0.0
  3
*Model_Space
  1
*Model_Space
  0
ENDBLK
  5
21
330
1F
100
AcDbEntity
  8
0
100
AcDbBlockEnd
  0
BLOCK
  5
1C
330
1B
100
AcDbEntity
 67
     1
  8
0
100
AcDbBlockBegin
  2
*Paper_Space
 70
     0
 10
0.0
 20
0.0
 30
0.0
  3
*Paper_Space
  1
*Paper_Space
  0
ENDBLK
  5
1D
330
1B
100
AcDbEntity
 67
     1
  8
0
100
AcDbBlockEnd
  0
BLOCK
  5
24
330
23
100
AcDbEntity
  8
0
100
AcDbBlockBegin
  2
*Paper_Space0
 70
     0
 10
0.0
 20
0.0
 30
0.0
  3
*Paper_Space0
  1
*Paper_Space0
  0
ENDBLK
  5
25
330
23
100
AcDbEntity
  8
0
100
AcDbBlockEnd
  0
ENDSEC
  0
SECTION
  2
ENTITIES
  0
SPLINE
  5
70
330
1F
100
AcDbEntity
  8
Layer 1
 62
   250
370
    18
100
AcDbSpline
210
0.0
220
0.0
230
1.0
 70
    11
 71
     3
 72
   452
 73
   448
 74
     0
 42
0.000000001
 43
0.0000000001
 40
0.0
 40
0.0
 40
0.0
 40
0.0
 40
0.0088495575221239
 40
0.0088495575221239
 40
0.0088495575221239
 40
0.0088495575221239
 40
0.0176991150442478
 40
0.0176991150442478
 40
0.0176991150442478
 40
0.0176991150442478
 40
0.0265486725663717
 40
0.0265486725663717
 40
0.0265486725663717
 40
0.0265486725663717
 40
0.0353982300884956
 40
0.0353982300884956
 40
0.0353982300884956
 40
0.0353982300884956
 40
0.0442477876106195
 40
0.0442477876106195
 40
0.0442477876106195
 40
0.0442477876106195
 40
0.0530973451327434
 40
0.0530973451327434
 40
0.0530973451327434
 40
0.0530973451327434
 40
0.0619469026548673
 40
0.0619469026548673
 40
0.0619469026548673
 40
0.0619469026548673
 40
0.0707964601769911
 40
0.0707964601769911
 40
0.0707964601769911
 40
0.0707964601769911
 40
0.079646017699115
 40
0.079646017699115
 40
0.079646017699115
 40
0.079646017699115
 40
0.0884955752212389
 40
0.0884955752212389
 40
0.0884955752212389
 40
0.0884955752212389
 40
0.0973451327433628
 40
0.0973451327433628
 40
0.0973451327433628
 40
0.0973451327433628
 40
0.1061946902654867
 40
0.1061946902654867
 40
0.1061946902654867
 40
0.1061946902654867
 40
0.1150442477876106
 40
0.1150442477876106
 40
0.1150442477876106
 40
0.1150442477876106
 40
0.1238938053097345
 40
0.1238938053097345
 40
0.1238938053097345
 40
0.1238938053097345
 40
0.1327433628318584
 40
0.1327433628318584
 40
0.1327433628318584
 40
0.1327433628318584
 40
0.1415929203539823
 40
0.1415929203539823
 40
0.1415929203539823
 40
0.1415929203539823
 40
0.1504424778761062
 40
0.1504424778761062
 40
0.1504424778761062
 40
0.1504424778761062
 40
0.1592920353982301
 40
0.1592920353982301
 40
0.1592920353982301
 40
0.1592920353982301
 40
0.168141592920354
 40
0.168141592920354
 40
0.168141592920354
 40
0.168141592920354
 40
0.1769911504424779
 40
0.1769911504424779
 40
0.1769911504424779
 40
0.1769911504424779
 40
0.1858407079646018
 40
0.1858407079646018
 40
0.1858407079646018
 40
0.1858407079646018
 40
0.1946902654867257
 40
0.1946902654867257
 40
0.1946902654867257
 40
0.1946902654867257
 40
0.2035398230088496
 40
0.2035398230088496
 40
0.2035398230088496
 40
0.2035398230088496
 40
0.2123893805309734
 40
0.2123893805309734
 40
0.2123893805309734
 40
0.2123893805309734
 40
0.2212389380530974
 40
0.2212389380530974
 40
0.2212389380530974
 40
0.2212389380530974
 40
0.2300884955752212
 40
0.2300884955752212
 40
0.2300884955752212
 40
0.2300884955752212
 40
0.2389380530973451
 40
0.2389380530973451
 40
0.2389380530973451
 40
0.2389380530973451
 40
0.247787610619469
 40
0.247787610619469
 40
0.247787610619469
 40
0.247787610619469
 40
0.2566371681415929
 40
0.2566371681415929
 40
0.2566371681415929
 40
0.2566371681415929
 40
0.2654867256637168
 40
0.2654867256637168
 40
0.2654867256637168
 40
0.2654867256637168
 40
0.2743362831858407
 40
0.2743362831858407
 40
0.2743362831858407
 40
0.2743362831858407
 40
0.2831858407079646
 40
0.2831858407079646
 40
0.2831858407079646
 40
0.2831858407079646
 40
0.2920353982300885
 40
0.2920353982300885
 40
0.2920353982300885
 40
0.2920353982300885
 40
0.3008849557522124
 40
0.3008849557522124
 40
0.3008849557522124
 40
0.3008849557522124
 40
0.3097345132743363
 40
0.3097345132743363
 40
0.3097345132743363
 40
0.3097345132743363
 40
0.3185840707964602
 40
0.3185840707964602
 40
0.3185840707964602
 40
0.3185840707964602
 40
0.3274336283185841
 40
0.3274336283185841
 40
0.3274336283185841
 40
0.3274336283185841
 40
0.336283185840708
 40
0.336283185840708
 40
0.336283185840708
 40
0.336283185840708
 40
0.3451327433628318
 40
0.3451327433628318
 40
0.3451327433628318
 40
0.3451327433628318
 40
0.3539823008849557
 40
0.3539823008849557
 40
0.3539823008849557
 40
0.3539823008849557
 40
0.3628318584070797
 40
0.3628318584070797
 40
0.3628318584070797
 40
0.3628318584070797
 40
0.3716814159292036
 40
0.3716814159292036
 40
0.3716814159292036
 40
0.3716814159292036
 40
0.3805309734513274
 40
0.3805309734513274
 40
0.3805309734513274
 40
0.3805309734513274
 40
0.3893805309734513
 40
0.3893805309734513
 40
0.3893805309734513
 40
0.3893805309734513
 40
0.3982300884955752
 40
0.3982300884955752
 40
0.3982300884955752
 40
0.3982300884955752
 40
0.4070796460176991
 40
0.4070796460176991
 40
0.4070796460176991
 40
0.4070796460176991
 40
0.415929203539823
 40
0.415929203539823
 40
0.415929203539823
 40
0.415929203539823
 40
0.4247787610619469
 40
0.4247787610619469
 40
0.4247787610619469
 40
0.4247787610619469
 40
0.4336283185840708
 40
0.4336283185840708
 40
0.4336283185840708
 40
0.4336283185840708
 40
0.4424778761061947
 40
0.4424778761061947
 40
0.4424778761061947
 40
0.4424778761061947
 40
0.4513274336283186
 40
0.4513274336283186
 40
0.4513274336283186
 40
0.4513274336283186
 40
0.4601769911504425
 40
0.4601769911504425
 40
0.4601769911504425
 40
0.4601769911504425
 40
0.4690265486725664
 40
0.4690265486725664
 40
0.4690265486725664
 40
0.4690265486725664
 40
0.4778761061946903
 40
0.4778761061946903
 40
0.4778761061946903
 40
0.4778761061946903
 40
0.4867256637168141
 40
0.4867256637168141
 40
0.4867256637168141
 40
0.4867256637168141
 40
0.495575221238938
 40
0.495575221238938
 40
0.495575221238938
 40
0.495575221238938
 40
0.504424778761062
 40
0.504424778761062
 40
0.504424778761062
 40
0.504424778761062
 40
0.5132743362831859
 40
0.5132743362831859
 40
0.5132743362831859
 40
0.5132743362831859
 40
0.5221238938053098
 40
0.5221238938053098
 40
0.5221238938053098
 40
0.5221238938053098
 40
0.5309734513274337
 40
0.5309734513274337
 40
0.5309734513274337
 40
0.5309734513274337
 40
0.5398230088495575
 40
0.5398230088495575
 40
0.5398230088495575
 40
0.5398230088495575
 40
0.5486725663716814
 40
0.5486725663716814
 40
0.5486725663716814
 40
0.5486725663716814
 40
0.5575221238938053
 40
0.5575221238938053
 40
0.5575221238938053
 40
0.5575221238938053
 40
0.5663716814159292
 40
0.5663716814159292
 40
0.5663716814159292
 40
0.5663716814159292
 40
0.5752212389380531
 40
0.5752212389380531
 40
0.5752212389380531
 40
0.5752212389380531
 40
0.584070796460177
 40
0.584070796460177
 40
0.584070796460177
 40
0.584070796460177
 40
0.5929203539823009
 40
0.5929203539823009
 40
0.5929203539823009
 40
0.5929203539823009
 40
0.6017699115044248
 40
0.6017699115044248
 40
0.6017699115044248
 40
0.6017699115044248
 40
0.6106194690265486
 40
0.6106194690265486
 40
0.6106194690265486
 40
0.6106194690265486
 40
0.6194690265486725
 40
0.6194690265486725
 40
0.6194690265486725
 40
0.6194690265486725
 40
0.6283185840707964
 40
0.6283185840707964
 40
0.6283185840707964
 40
0.6283185840707964
 40
0.6371681415929203
 40
0.6371681415929203
 40
0.6371681415929203
 40
0.6371681415929203
 40
0.6460176991150443
 40
0.6460176991150443
 40
0.6460176991150443
 40
0.6460176991150443
 40
0.6548672566371682
 40
0.6548672566371682
 40
0.6548672566371682
 40
0.6548672566371682
 40
0.6637168141592921
 40
0.6637168141592921
 40
0.6637168141592921
 40
0.6637168141592921
 40
0.672566371681416
 40
0.672566371681416
 40
0.672566371681416
 40
0.672566371681416
 40
0.6814159292035398
 40
0.6814159292035398
 40
0.6814159292035398
 40
0.6814159292035398
 40
0.6902654867256637
 40
0.6902654867256637
 40
0.6902654867256637
 40
0.6902654867256637
 40
0.6991150442477876
 40
0.6991150442477876
 40
0.6991150442477876
 40
0.6991150442477876
 40
0.7079646017699115
 40
0.7079646017699115
 40
0.7079646017699115
 40
0.7079646017699115
 40
0.7168141592920354
 40
0.7168141592920354
 40
0.7168141592920354
 40
0.7168141592920354
 40
0.7256637168141593
 40
0.7256637168141593
 40
0.7256637168141593
 40
0.7256637168141593
 40
0.7345132743362832
 40
0.7345132743362832
 40
0.7345132743362832
 40
0.7345132743362832
 40
0.7433628318584071
 40
0.7433628318584071
 40
0.7433628318584071
 40
0.7433628318584071
 40
0.7522123893805309
 40
0.7522123893805309
 40
0.7522123893805309
 40
0.7522123893805309
 40
0.7610619469026548
 40
0.7610619469026548
 40
0.7610619469026548
 40
0.7610619469026548
 40
0.7699115044247787
 40
0.7699115044247787
 40
0.7699115044247787
 40
0.7699115044247787
 40
0.7787610619469026
 40
0.7787610619469026
 40
0.7787610619469026
 40
0.7787610619469026
 40
0.7876106194690266
 40
0.7876106194690266
 40
0.7876106194690266
 40
0.7876106194690266
 40
0.7964601769911505
 40
0.7964601769911505
 40
0.7964601769911505
 40
0.7964601769911505
 40
0.8053097345132744
 40
0.8053097345132744
 40
0.8053097345132744
 40
0.8053097345132744
 40
0.8141592920353983
 40
0.8141592920353983
 40
0.8141592920353983
 40
0.8141592920353983
 40
0.8230088495575221
 40
0.8230088495575221
 40
0.8230088495575221
 40
0.8230088495575221
 40
0.831858407079646
 40
0.831858407079646
 40
0.831858407079646
 40
0.831858407079646
 40
0.8407079646017699
 40
0.8407079646017699
 40
0.8407079646017699
 40
0.8407079646017699
 40
0.8495575221238938
 40
0.8495575221238938
 40
0.8495575221238938
 40
0.8495575221238938
 40
0.8584070796460177
 40
0.8584070796460177
 40
0.8584070796460177
 40
0.8584070796460177
 40
0.8672566371681416
 40
0.8672566371681416
 40
0.8672566371681416
 40
0.8672566371681416
 40
0.8761061946902655
 40
0.8761061946902655
 40
0.8761061946902655
 40
0.8761061946902655
 40
0.8849557522123894
 40
0.8849557522123894
 40
0.8849557522123894
 40
0.8849557522123894
 40
0.8938053097345132
 40
0.8938053097345132
 40
0.8938053097345132
 40
0.8938053097345132
 40
0.9026548672566371
 40
0.9026548672566371
 40
0.9026548672566371
 40
0.9026548672566371
 40
0.911504424778761
 40
0.911504424778761
 40
0.911504424778761
 40
0.911504424778761
 40
0.9203539823008849
 40
0.9203539823008849
 40
0.9203539823008849
 40
0.9203539823008849
 40
0.9292035398230089
 40
0.9292035398230089
 40
0.9292035398230089
 40
0.9292035398230089
 40
0.9380530973451328
 40
0.9380530973451328
 40
0.9380530973451328
 40
0.9380530973451328
 40
0.9469026548672567
 40
0.9469026548672567
 40
0.9469026548672567
 40
0.9469026548672567
 40
0.9557522123893806
 40
0.9557522123893806
 40
0.9557522123893806
 40
0.9557522123893806
 40
0.9646017699115044
 40
0.9646017699115044
 40
0.9646017699115044
 40
0.9646017699115044
 40
0.9734513274336283
 40
0.9734513274336283
 40
0.9734513274336283
 40
0.9734513274336283
 40
0.9823008849557522
 40
0.9823008849557522
 40
0.9823008849557522
 40
0.9823008849557522
 40
1.0
 40
1.0
 40
1.0
 40
1.0
 10
4.372173228346456
 20
-0.913240157480315
 30
0.0
 10
4.695783464566929
 20
-0.6340708661417322
 30
0.0
 10
4.92355905511811
 20
-0.4340708661417323
 30
0.0
 10
5.177728346456693
 20
-0.2826811023622047
 30
0.0
 10
5.177728346456693
 20
-0.2826811023622047
 30
0.0
 10
5.431893700787402
 20
-0.1312913385826772
 30
0.0
 10
5.712448818897638
 20
-0.0285157480314961
 30
0.0
 10
6.074948818897638
 20
0.0325944881889764
 30
0.0
 10
6.074948818897638
 20
0.0325944881889764
 30
0.0
 10
6.437448818897638
 20
0.0937086614173228
 30
0.0
 10
6.881897637795276
 20
0.1131496062992126
 30
0.0
 10
7.243007874015748
 20
0.0937047244094488
 30
0.0
 10
7.243007874015748
 20
0.0937047244094488
 30
0.0
 10
7.604118110236221
 20
0.074259842519685
 30
0.0
 10
7.881897637795276
 20
0.0159291338582677
 30
0.0
 10
8.158287401574803
 20
-0.0937952755905512
 30
0.0
 10
8.158287401574803
 20
-0.0937952755905512
 30
0.0
 10
8.434673228346456
 20
-0.2035157480314961
 30
0.0
 10
8.70967716535433
 20
-0.3646299212598425
 30
0.0
 10
9.049956692913385
 20
-0.5896299212598425
 30
0.0
 10
9.049956692913385
 20
-0.5896299212598425
 30
0.0
 10
9.390232283464567
 20
-0.8146299212598426
 30
0.0
 10
9.795787401574803
 20
-1.103515748031496
 30
0.0
 10
10.22773228346457
 20
-1.296574803149606
 30
0.0
 10
10.22773228346457
 20
-1.296574803149606
 30
0.0
 10
10.65967716535433
 20
-1.489629921259843
 30
0.0
 10
11.11801181102362
 20
-1.586850393700787
 30
0.0
 10
11.48745669291339
 20
-1.659074803149606
 30
0.0
 10
11.48745669291339
 20
-1.659074803149606
 30
0.0
 10
11.85690157480315
 20
-1.731295275590551
 30
0.0
 10
12.13745669291339
 20
-1.77851968503937
 30
0.0
 10
12.66801181102362
 20
-1.795185039370079
 30
0.0
 10
12.66801181102362
 20
-1.795185039370079
 30
0.0
 10
13.19856692913386
 20
-1.811850393700787
 30
0.0
 10
13.97912598425197
 20
-1.797964566929134
 30
0.0
 10
14.40690551181102
 20
-1.846574803149606
 30
0.0
 10
14.40690551181102
 20
-1.846574803149606
 30
0.0
 10
14.83468110236221
 20
-1.895185039370079
 30
0.0
 10
14.9096811023622
 20
-2.006295275590551
 30
0.0
 10
14.74718110236221
 20
-2.179905511811024
 30
0.0
 10
14.74718110236221
 20
-2.179905511811024
 30
0.0
 10
14.58468110236221
 20
-2.353515748031496
 30
0.0
 10
14.18468110236221
 20
-2.589629921259843
 30
0.0
 10
13.74162598425197
 20
-2.739629921259843
 30
0.0
 10
13.74162598425197
 20
-2.739629921259843
 30
0.0
 10
13.29857086614173
 20
-2.889629921259842
 30
0.0
 10
12.81245669291339
 20
-2.95351968503937
 30
0.0
 10
12.35551181102362
 20
-3.013244094488189
 30
0.0
 10
12.35551181102362
 20
-3.013244094488189
 30
0.0
 10
11.89856692913386
 20
-3.072964566929134
 30
0.0
 10
11.47079133858268
 20
-3.12851968503937
 30
0.0
 10
11.05968110236221
 20
-3.118799212598425
 30
0.0
 10
11.05968110236221
 20
-3.118799212598425
 30
0.0
 10
10.64856692913386
 20
-3.109074803149606
 30
0.0
 10
10.25412204724409
 20
-3.034074803149606
 30
0.0
 10
10.02634645669291
 20
-3.029909448818898
 30
0.0
 10
10.02634645669291
 20
-3.029909448818898
 30
0.0
 10
9.798566929133859
 20
-3.025740157480315
 30
0.0
 10
9.737452755905512
 20
-3.092409448818898
 30
0.0
 10
9.568007874015748
 20
-3.289633858267717
 30
0.0
 10
9.568007874015748
 20
-3.289633858267717
 30
0.0
 10
9.398562992125985
 20
-3.486854330708661
 30
0.0
 10
9.120787401574804
 20
-3.814629921259843
 30
0.0
 10
8.62217716535433
 20
-4.188244094488189
 30
0.0
 10
8.62217716535433
 20
-4.188244094488189
 30
0.0
 10
8.123562992125985
 20
-4.561854330708662
 30
0.0
 10
7.404118110236221
 20
-4.981299212598425
 30
0.0
 10
7.022173228346457
 20
-5.257688976377953
 30
0.0
 10
7.022173228346457
 20
-5.257688976377953
 30
0.0
 10
6.640228346456693
 20
-5.53407874015748
 30
0.0
 10
6.595783464566929
 20
-5.667409448818898
 30
0.0
 10
6.583283464566929
 20
-5.754909448818897
 30
0.0
 10
6.583283464566929
 20
-5.754909448818897
 30
0.0
 10
6.570783464566929
 20
-5.842409448818898
 30
0.0
 10
6.590228346456693
 20
-5.88407874015748
 30
0.0
 10
6.78884251968504
 20
-6.072968503937008
 30
0.0
 10
6.78884251968504
 20
-6.072968503937008
 30
0.0
 10
6.987452755905512
 20
-6.261854330708662
 30
0.0
 10
7.365228346456693
 20
-6.597968503937008
 30
0.0
 10
7.609673228346456
 20
-6.8063031496063
 30
0.0
 10
7.609673228346456
 20
-6.8063031496063
 30
0.0
 10
7.854118110236221
 20
-7.014633858267716
 30
0.0
 10
7.965232283464567
 20
-7.095192913385826
 30
0.0
 10
8.043011811023622
 20
-7.121582677165354
 30
0.0
 10
8.043011811023622
 20
-7.121582677165354
 30
0.0
 10
8.120787401574804
 20
-7.147968503937008
 30
0.0
 10
8.165228346456693
 20
-7.120192913385827
 30
0.0
 10
8.21384251968504
 20
-7.099358267716536
 30
0.0
 10
8.21384251968504
 20
-7.099358267716536
 30
0.0
 10
8.262452755905512
 20
-7.078523622047245
 30
0.0
 10
8.315228346456692
 20
-7.064637795275591
 30
0.0
 10
8.36384251968504
 20
-7.081303149606299
 30
0.0
 10
8.36384251968504
 20
-7.081303149606299
 30
0.0
 10
8.412452755905512
 20
-7.097968503937008
 30
0.0
 10
8.456897637795276
 20
-7.145192913385827
 30
0.0
 10
8.515232283464567
 20
-7.145192913385827
 30
0.0
 10
8.515232283464567
 20
-7.145192913385827
 30
0.0
 10
8.573562992125984
 20
-7.145192913385827
 30
0.0
 10
8.645787401574804
 20
-7.097968503937008
 30
0.0
 10
8.754122047244094
 20
-7.066027559055118
 30
0.0
 10
8.754122047244094
 20
-7.066027559055118
 30
0.0
 10
8.862452755905512
 20
-7.034082677165355
 30
0.0
 10
9.006897637795275
 20
-7.017413385826772
 30
0.0
 10
9.108287401574803
 20
-7.018803149606299
 30
0.0
 10
9.108287401574803
 20
-7.018803149606299
 30
0.0
 10
9.20967716535433
 20
-7.020192913385827
 30
0.0
 10
9.268007874015748
 20
-7.039633858267717
 30
0.0
 10
9.319397637795275
 20
-7.035468503937008
 30
0.0
 10
9.319397637795275
 20
-7.035468503937008
 30
0.0
 10
9.370787401574804
 20
-7.031303149606299
 30
0.0
 10
9.415232283464567
 20
-7.003523622047244
 30
0.0
 10
9.462456692913387
 20
-7.011858267716535
 30
0.0
 10
9.462456692913387
 20
-7.011858267716535
 30
0.0
 10
9.509677165354331
 20
-7.020192913385827
 30
0.0
 10
9.55967716535433
 20
-7.064633858267716
 30
0.0
 10
9.616622047244094
 20
-7.135468503937008
 30
0.0
 10
9.616622047244094
 20
-7.135468503937008
 30
0.0
 10
9.673566929133859
 20
-7.206303149606299
 30
0.0
 10
9.737452755905512
 20
-7.303523622047244
 30
0.0
 10
9.736066929133859
 20
-7.349358267716536
 30
0.0
 10
9.736066929133859
 20
-7.349358267716536
 30
0.0
 10
9.73467716535433
 20
-7.395192913385827
 30
0.0
 10
9.668007874015748
 20
-7.389633858267716
 30
0.0
 10
9.641622047244095
 20
-7.402133858267717
 30
0.0
 10
9.641622047244095
 20
-7.402133858267717
 30
0.0
 10
9.615232283464566
 20
-7.414633858267717
 30
0.0
 10
9.62911811023622
 20
-7.445192913385827
 30
0.0
 10
9.640232283464567
 20
-7.468803149606299
 30
0.0
 10
9.640232283464567
 20
-7.468803149606299
 30
0.0
 10
9.65134251968504
 20
-7.492413385826771
 30
0.0
 10
9.659673228346456
 20
-7.509082677165354
 30
0.0
 10
9.595787401574803
 20
-7.506303149606299
 30
0.0
 10
9.595787401574803
 20
-7.506303149606299
 30
0.0
 10
9.531897637795275
 20
-7.503523622047244
 30
0.0
 10
9.395787401574804
 20
-7.481303149606299
 30
0.0
 10
9.28190157480315
 20
-7.4938031496063
 30
0.0
 10
9.28190157480315
 20
-7.4938031496063
 30
0.0
 10
9.168011811023622
 20
-7.506303149606299
 30
0.0
 10
9.07634251968504
 20
-7.553523622047244
 30
0.0
 10
8.877732283464567
 20
-7.593803149606299
 30
0.0
 10
8.877732283464567
 20
-7.593803149606299
 30
0.0
 10
8.679122047244094
 20
-7.634082677165354
 30
0.0
 10
8.373562992125985
 20
-7.667413385826771
 30
0.0
 10
8.179118110236221
 20
-7.67713779527559
 30
0.0
 10
8.179118110236221
 20
-7.67713779527559
 30
0.0
 10
7.984673228346456
 20
-7.686858267716535
 30
0.0
 10
7.90134251968504
 20
-7.672972440944882
 30
0.0
 10
7.737452755905512
 20
-7.58686220472441
 30
0.0
 10
7.737452755905512
 20
-7.58686220472441
 30
0.0
 10
7.573562992125984
 20
-7.500748031496063
 30
0.0
 10
7.32911811023622
 20
-7.342413385826772
 30
0.0
 10
7.047173228346456
 20
-7.175748031496063
 30
0.0
 10
7.047173228346456
 20
-7.175748031496063
 30
0.0
 10
6.765228346456693
 20
-7.00907874015748
 30
0.0
 10
6.445783464566929
 20
-6.83407874015748
 30
0.0
 10
6.247173228346456
 20
-6.72157874015748
 30
0.0
 10
6.247173228346456
 20
-6.72157874015748
 30
0.0
 10
6.04855905511811
 20
-6.60907874015748
 30
0.0
 10
5.970783464566929
 20
-6.559078740157481
 30
0.0
 10
5.926338582677166
 20
-6.5563031496063
 30
0.0
 10
5.926338582677166
 20
-6.5563031496063
 30
0.0
 10
5.881893700787401
 20
-6.553523622047244
 30
0.0
 10
5.870783464566929
 20
-6.597968503937008
 30
0.0
 10
5.798562992125984
 20
-6.700748031496063
 30
0.0
 10
5.798562992125984
 20
-6.700748031496063
 30
0.0
 10
5.726338582677165
 20
-6.803523622047244
 30
0.0
 10
5.593007874015748
 20
-6.964637795275591
 30
0.0
 10
5.512452755905512
 20
-7.077137795275591
 30
0.0
 10
5.512452755905512
 20
-7.077137795275591
 30
0.0
 10
5.431893700787402
 20
-7.189637795275591
 30
0.0
 10
5.404118110236221
 20
-7.253523622047244
 30
0.0
 10
5.359673228346456
 20
-7.300748031496063
 30
0.0
 10
5.359673228346456
 20
-7.300748031496063
 30
0.0
 10
5.315228346456693
 20
-7.347968503937008
 30
0.0
 10
5.254114173228347
 20
-7.378523622047244
 30
0.0
 10
5.033283464566929
 20
-7.507692913385827
 30
0.0
 10
5.033283464566929
 20
-7.507692913385827
 30
0.0
 10
4.812448818897638
 20
-7.636858267716535
 30
0.0
 10
4.431893700787402
 20
-7.864633858267717
 30
0.0
 10
4.152728346456693
 20
-7.992413385826771
 30
0.0
 10
4.152728346456693
 20
-7.992413385826771
 30
0.0
 10
3.87355905511811
 20
-8.120192913385827
 30
0.0
 10
3.695783464566929
 20
-8.147968503937008
 30
0.0
 10
3.544393700787402
 20
-8.1688031496063
 30
0.0
 10
3.544393700787402
 20
-8.1688031496063
 30
0.0
 10
3.393003937007874
 20
-8.18963779527559
 30
0.0
 10
3.268003937007874
 20
-8.203523622047245
 30
0.0
 10
3.199948818897638
 20
-8.179913385826772
 30
0.0
 10
3.199948818897638
 20
-8.179913385826772
 30
0.0
 10
3.131893700787402
 20
-8.1563031496063
 30
0.0
 10
3.120779527559055
 20
-8.095192913385826
 30
0.0
 10
3.093003937007874
 20
-8.067417322834645
 30
0.0
 10
3.093003937007874
 20
-8.067417322834645
 30
0.0
 10
3.065224409448819
 20
-8.03963779527559
 30
0.0
 10
3.020779527559055
 20
-8.045192913385828
 30
0.0
 10
2.962448818897638
 20
-8.034082677165355
 30
0.0
 10
2.962448818897638
 20
-8.034082677165355
 30
0.0
 10
2.904114173228347
 20
-8.022968503937008
 30
0.0
 10
2.831889763779528
 20
-7.995192913385827
 30
0.0
 10
2.79855905511811
 20
-7.971582677165355
 30
0.0
 10
2.79855905511811
 20
-7.971582677165355
 30
0.0
 10
2.765224409448819
 20
-7.947968503937008
 30
0.0
 10
2.770779527559055
 20
-7.928527559055119
 30
0.0
 10
2.759669291338583
 20
-7.911862204724409
 30
0.0
 10
2.759669291338583
 20
-7.911862204724409
 30
0.0
 10
2.74855905511811
 20
-7.895192913385827
 30
0.0
 10
2.720779527559055
 20
-7.881303149606299
 30
0.0
 10
2.701338582677165
 20
-7.860472440944882
 30
0.0
 10
2.701338582677165
 20
-7.860472440944882
 30
0.0
 10
2.681893700787402
 20
-7.839637795275591
 30
0.0
 10
2.670779527559055
 20
-7.811858267716535
 30
0.0
 10
2.68605905511811
 20
-7.778527559055118
 30
0.0
 10
2.68605905511811
 20
-7.778527559055118
 30
0.0
 10
2.701334645669291
 20
-7.745192913385827
 30
0.0
 10
2.743003937007874
 20
-7.706303149606299
 30
0.0
 10
2.788838582677165
 20
-7.675748031496063
 30
0.0
 10
2.788838582677165
 20
-7.675748031496063
 30
0.0
 10
2.834669291338582
 20
-7.645192913385827
 30
0.0
 10
2.884669291338583
 20
-7.622968503937008
 30
0.0
 10
2.955503937007874
 20
-7.617413385826771
 30
0.0
 10
2.955503937007874
 20
-7.617413385826771
 30
0.0
 10
3.026334645669291
 20
-7.611858267716536
 30
0.0
 10
3.118003937007874
 20
-7.622972440944882
 30
0.0
 10
3.166614173228346
 20
-7.613251968503937
 30
0.0
 10
3.166614173228346
 20
-7.613251968503937
 30
0.0
 10
3.215224409448819
 20
-7.603527559055118
 30
0.0
 10
3.220779527559055
 20
-7.572968503937008
 30
0.0
 10
3.23605905511811
 20
-7.557692913385827
 30
0.0
 10
3.23605905511811
 20
-7.557692913385827
 30
0.0
 10
3.251334645669291
 20
-7.542413385826771
 30
0.0
 10
3.276334645669291
 20
-7.542413385826771
 30
0.0
 10
3.358279527559055
 20
-7.542413385826771
 30
0.0
 10
3.358279527559055
 20
-7.542413385826771
 30
0.0
 10
3.440224409448819
 20
-7.542413385826771
 30
0.0
 10
3.579114173228346
 20
-7.542413385826771
 30
0.0
 10
3.745783464566929
 20
-7.499358267716535
 30
0.0
 10
3.745783464566929
 20
-7.499358267716535
 30
0.0
 10
3.912448818897638
 20
-7.456303149606299
 30
0.0
 10
4.106893700787402
 20
-7.370188976377952
 30
0.0
 10
4.249948818897638
 20
-7.28407874015748
 30
0.0
 10
4.249948818897638
 20
-7.28407874015748
 30
0.0
 10
4.393003937007874
 20
-7.197968503937008
 30
0.0
 10
4.484673228346456
 20
-7.111858267716536
 30
0.0
 10
4.511062992125984
 20
-7.075748031496063
 30
0.0
 10
4.511062992125984
 20
-7.075748031496063
 30
0.0
 10
4.537448818897638
 20
-7.03963779527559
 30
0.0
 10
4.49855905511811
 20
-7.053523622047244
 30
0.0
 10
4.394393700787401
 20
-7.092413385826772
 30
0.0
 10
4.394393700787401
 20
-7.092413385826772
 30
0.0
 10
4.290224409448819
 20
-7.131303149606299
 30
0.0
 10
4.120783464566929
 20
-7.195188976377953
 30
0.0
 10
3.955507874015748
 20
-7.261858267716535
 30
0.0
 10
3.955507874015748
 20
-7.261858267716535
 30
0.0
 10
3.790228346456693
 20
-7.328523622047245
 30
0.0
 10
3.629114173228346
 20
-7.397968503937008
 30
0.0
 10
3.499948818897638
 20
-7.435468503937008
 30
0.0
 10
3.499948818897638
 20
-7.435468503937008
 30
0.0
 10
3.370779527559055
 20
-7.472968503937008
 30
0.0
 10
3.27355905511811
 20
-7.478523622047244
 30
0.0
 10
3.18605905511811
 20
-7.468803149606299
 30
0.0
 10
3.18605905511811
 20
-7.468803149606299
 30
0.0
 10
3.09855905511811
 20
-7.45907874015748
 30
0.0
 10
3.020779527559055
 20
-7.434078740157481
 30
0.0
 10
2.97355905511811
 20
-7.408385826771654
 30
0.0
 10
2.97355905511811
 20
-7.408385826771654
 30
0.0
 10
2.926334645669291
 20
-7.382688976377953
 30
0.0
 10
2.909669291338583
 20
-7.356303149606299
 30
0.0
 10
2.890917322834646
 20
-7.338248031496063
 30
0.0
 10
2.890917322834646
 20
-7.338248031496063
 30
0.0
 10
2.872165354330709
 20
-7.320188976377953
 30
0.0
 10
2.851334645669291
 20
-7.310468503937008
 30
0.0
 10
2.809669291338583
 20
-7.302830708661418
 30
0.0
 10
2.809669291338583
 20
-7.302830708661418
 30
0.0
 10
2.768
 20
-7.295188976377953
 30
0.0
 10
2.7055
 20
-7.289633858267717
 30
0.0
 10
2.650641732283465
 20
-7.309775590551181
 30
0.0
 10
2.650641732283465
 20
-7.309775590551181
 30
0.0
 10
2.595779527559055
 20
-7.329913385826772
 30
0.0
 10
2.548555118110236
 20
-7.375744094488189
 30
0.0
 10
2.515917322834646
 20
-7.416716535433071
 30
0.0
 10
2.515917322834646
 20
-7.416716535433071
 30
0.0
 10
2.483279527559055
 20
-7.457688976377953
 30
0.0
 10
2.465220472440945
 20
-7.4938031496063
 30
0.0
 10
2.460362204724409
 20
-7.55144094488189
 30
0.0
 10
2.460362204724409
 20
-7.55144094488189
 30
0.0
 10
2.4555
 20
-7.60907874015748
 30
0.0
 10
2.463830708661417
 20
-7.688248031496063
 30
0.0
 10
2.486055118110236
 20
-7.76394094488189
 30
0.0
 10
2.486055118110236
 20
-7.76394094488189
 30
0.0
 10
2.508275590551181
 20
-7.839633858267717
 30
0.0
 10
2.544389763779527
 20
-7.911858267716536
 30
0.0
 10
2.5555
 20
-7.97157874015748
 30
0.0
 10
2.5555
 20
-7.97157874015748
 30
0.0
 10
2.566610236220472
 20
-8.031299212598425
 30
0.0
 10
2.552724409448819
 20
-8.078523622047245
 30
0.0
 10
2.536751968503937
 20
-8.100748031496064
 30
0.0
 10
2.536751968503937
 20
-8.100748031496064
 30
0.0
 10
2.520779527559055
 20
-8.122968503937008
 30
0.0
 10
2.502720472440945
 20
-8.120188976377953
 30
0.0
 10
2.511055118110236
 20
-8.135468503937007
 30
0.0
 10
2.511055118110236
 20
-8.135468503937007
 30
0.0
 10
2.519389763779528
 20
-8.150748031496063
 30
0.0
 10
2.554110236220473
 20
-8.18407874015748
 30
0.0
 10
2.547862204724409
 20
-8.208385826771654
 30
0.0
 10
2.547862204724409
 20
-8.208385826771654
 30
0.0
 10
2.541610236220472
 20
-8.232688976377952
 30
0.0
 10
2.494389763779528
 20
-8.247968503937008
 30
0.0
 10
2.458972440944882
 20
-8.24657874015748
 30
0.0
 10
2.458972440944882
 20
-8.24657874015748
 30
0.0
 10
2.423555118110236
 20
-8.245188976377953
 30
0.0
 10
2.399944881889764
 20
-8.227133858267717
 30
0.0
 10
2.344389763779528
 20
-8.145188976377952
 30
0.0
 10
2.344389763779528
 20
-8.145188976377952
 30
0.0
 10
2.288834645669291
 20
-8.063244094488189
 30
0.0
 10
2.201330708661417
 20
-7.917413385826771
 30
0.0
 10
2.1555
 20
-7.808385826771653
 30
0.0
 10
2.1555
 20
-7.808385826771653
 30
0.0
 10
2.109665354330708
 20
-7.699358267716535
 30
0.0
 10
2.105496062992126
 20
-7.627133858267716
 30
0.0
 10
2.140913385826772
 20
-7.522968503937008
 30
0.0
 10
2.140913385826772
 20
-7.522968503937008
 30
0.0
 10
2.176330708661417
 20
-7.418803149606299
 30
0.0
 10
2.251330708661417
 20
-7.282688976377953
 30
0.0
 10
2.338830708661417
 20
-7.124358267716535
 30
0.0
 10
2.338830708661417
 20
-7.124358267716535
 30
0.0
 10
2.426330708661417
 20
-6.966023622047244
 30
0.0
 10
2.526334645669291
 20
-6.785468503937008
 30
0.0
 10
2.593003937007874
 20
-6.682
 30
0.0
 10
2.593003937007874
 20
-6.682
 30
0.0
 10
2.659669291338583
 20
-6.578527559055118
 30
0.0
 10
2.693007874015748
 20
-6.552141732283465
 30
0.0
 10
2.83884251968504
 20
-6.407003937007874
 30
0.0
 10
2.83884251968504
 20
-6.407003937007874
 30
0.0
 10
2.984677165354331
 20
-6.261866141732283
 30
0.0
 10
3.243007874015748
 20
-5.997976377952756
 30
0.0
 10
3.365232283464567
 20
-5.852141732283465
 30
0.0
 10
3.365232283464567
 20
-5.852141732283465
 30
0.0
 10
3.487452755905512
 20
-5.706307086614173
 30
0.0
 10
3.473562992125984
 20
-5.678531496062992
 30
0.0
 10
3.41661811023622
 20
-5.625755905511811
 30
0.0
 10
3.41661811023622
 20
-5.625755905511811
 30
0.0
 10
3.359673228346457
 20
-5.572976377952756
 30
0.0
 10
3.259673228346457
 20
-5.495196850393701
 30
0.0
 10
3.087452755905512
 20
-5.393811023622047
 30
0.0
 10
3.087452755905512
 20
-5.393811023622047
 30
0.0
 10
2.915228346456693
 20
-5.29242125984252
 30
0.0
 10
2.670787401574803
 20
-5.167417322834646
 30
0.0
 10
2.458287401574803
 20
-5.079917322834645
 30
0.0
 10
2.458287401574803
 20
-5.079917322834645
 30
0.0
 10
2.245787401574803
 20
-4.992417322834646
 30
0.0
 10
2.065228346456693
 20
-4.942417322834646
 30
0.0
 10
1.780507874015748
 20
-4.902141732283464
 30
0.0
 10
1.780507874015748
 20
-4.902141732283464
 30
0.0
 10
1.495783464566929
 20
-4.861862204724409
 30
0.0
 10
1.106897637795276
 20
-4.831307086614173
 30
0.0
 10
0.768007874015748
 20
-4.839641732283464
 30
0.0
 10
0.768007874015748
 20
-4.839641732283464
 30
0.0
 10
0.4291181102362205
 20
-4.847972440944882
 30
0.0
 10
0.1402322834645669
 20
-4.895196850393701
 30
0.0
 10
-0.0681023622047244
 20
-4.93686220472441
 30
0.0
 10
-0.0681023622047244
 20
-4.93686220472441
 30
0.0
 10
-0.2764370078740158
 20
-4.978527559055118
 30
0.0
 10
-0.4042125984251969
 20
-5.014641732283464
 30
0.0
 10
-0.6056023622047244
 20
-5.027141732283464
 30
0.0
 10
-0.6056023622047244
 20
-5.027141732283464
 30
0.0
 10
-0.806992125984252
 20
-5.039641732283465
 30
0.0
 10
-1.081992125984252
 20
-5.028527559055118
 30
0.0
 10
-1.254212598425197
 20
-4.988251968503937
 30
0.0
 10
-1.254212598425197
 20
-4.988251968503937
 30
0.0
 10
-1.426437007874016
 20
-4.947972440944882
 30
0.0
 10
-1.49588188976378
 20
-4.878531496062992
 30
0.0
 10
-1.493102362204724
 20
-4.810476377952756
 30
0.0
 10
-1.493102362204724
 20
-4.810476377952756
 30
0.0
 10
-1.490326771653543
 20
-4.742421259842519
 30
0.0
 10
-1.415326771653543
 20
-4.675751968503937
 30
0.0
 10
-1.288937007874016
 20
-4.546586614173228
 30
0.0
 10
-1.288937007874016
 20
-4.546586614173228
 30
0.0
 10
-1.162547244094488
 20
-4.41742125984252
 30
0.0
 10
-0.9847716535433071
 20
-4.225751968503937
 30
0.0
 10
-0.8931023622047244
 20
-4.110476377952756
 30
0.0
 10
-0.8931023622047244
 20
-4.110476377952756
 30
0.0
 10
-0.8014370078740157
 20
-3.995196850393701
 30
0.0
 10
-0.7958818897637795
 20
-3.956307086614173
 30
0.0
 10
-0.7125472440944882
 20
-3.822972440944882
 30
0.0
 10
-0.7125472440944882
 20
-3.822972440944882
 30
0.0
 10
-0.6292165354330709
 20
-3.689637795275591
 30
0.0
 10
-0.4681023622047244
 20
-3.461862204724409
 30
0.0
 10
-0.3014370078740157
 20
-3.266027559055118
 30
0.0
 10
-0.3014370078740157
 20
-3.266027559055118
 30
0.0
 10
-0.1347716535433071
 20
-3.070192913385827
 30
0.0
 10
0.0374527559055118
 20
-2.906307086614173
 30
0.0
 10
0.1416181102362205
 20
-2.804917322834646
 30
0.0
 10
0.1416181102362205
 20
-2.804917322834646
 30
0.0
 10
0.2457834645669291
 20
-2.703527559055118
 30
0.0
 10
0.2818976377952756
 20
-2.664637795275591
 30
0.0
 10
0.3110629921259843
 20
-2.59936220472441
 30
0.0
 10
0.3110629921259843
 20
-2.59936220472441
 30
0.0
 10
0.3402283464566929
 20
-2.534082677165354
 30
0.0
 10
0.3624527559055118
 20
-2.442413385826772
 30
0.0
 10
0.3957874015748031
 20
-2.392413385826772
 30
0.0
 10
0.3957874015748031
 20
-2.392413385826772
 30
0.0
 10
0.4291181102362205
 20
-2.342413385826771
 30
0.0
 10
0.4735629921259842
 20
-2.334082677165354
 30
0.0
 10
0.505507874015748
 20
-2.321582677165354
 30
0.0
 10
0.505507874015748
 20
-2.321582677165354
 30
0.0
 10
0.5374527559055118
 20
-2.309082677165355
 30
0.0
 10
0.5568976377952756
 20
-2.292413385826772
 30
0.0
 10
0.5832874015748032
 20
-2.197972440944882
 30
0.0
 10
0.5832874015748032
 20
-2.197972440944882
 30
0.0
 10
0.6096771653543307
 20
-2.103527559055118
 30
0.0
 10
0.643007874015748
 20
-1.931303149606299
 30
0.0
 10
0.6707874015748031
 20
-1.829917322834646
 30
0.0
 10
0.6707874015748031
 20
-1.829917322834646
 30
0.0
 10
0.6985629921259843
 20
-1.728527559055118
 30
0.0
 10
0.7207874015748031
 20
-1.697968503937008
 30
0.0
 10
0.765232283464567
 20
-1.711858267716535
 30
0.0
 10
0.765232283464567
 20
-1.711858267716535
 30
0.0
 10
0.8096732283464567
 20
-1.725748031496063
 30
0.0
 10
0.8763425196850394
 20
-1.78407874015748
 30
0.0
 10
0.9249527559055118
 20
-1.868803149606299
 30
0.0
 10
0.9249527559055118
 20
-1.868803149606299
 30
0.0
 10
0.9735629921259843
 20
-1.953523622047244
 30
0.0
 10
1.00411811023622
 20
-2.064637795275591
 30
0.0
 10
1.065228346456693
 20
-2.117417322834646
 30
0.0
 10
1.065228346456693
 20
-2.117417322834646
 30
0.0
 10
1.126338582677165
 20
-2.170192913385827
 30
0.0
 10
1.218007874015748
 20
-2.164637795275591
 30
0.0
 10
1.369397637795276
 20
-2.17713779527559
 30
0.0
 10
1.369397637795276
 20
-2.17713779527559
 30
0.0
 10
1.520783464566929
 20
-2.189637795275591
 30
0.0
 10
1.731897637795276
 20
-2.220192913385827
 30
0.0
 10
1.883287401574803
 20
-2.241027559055118
 30
0.0
 10
1.883287401574803
 20
-2.241027559055118
 30
0.0
 10
2.034673228346457
 20
-2.261858267716535
 30
0.0
 10
2.126342519685039
 20
-2.272972440944882
 30
0.0
 10
2.256897637795276
 20
-2.252137795275591
 30
0.0
 10
2.256897637795276
 20
-2.252137795275591
 30
0.0
 10
2.387452755905512
 20
-2.231303149606299
 30
0.0
 10
2.556897637795275
 20
-2.178527559055118
 30
0.0
 10
2.722177165354331
 20
-2.116027559055118
 30
0.0
 10
2.722177165354331
 20
-2.116027559055118
 30
0.0
 10
2.887452755905512
 20
-2.053527559055118
 30
0.0
 10
3.048562992125984
 20
-1.981303149606299
 30
0.0
 10
3.33884251968504
 20
-1.766023622047244
 30
0.0
 10
3.33884251968504
 20
-1.766023622047244
 30
0.0
 10
3.629118110236221
 20
-1.550744094488189
 30
0.0
 10
4.04855905511811
 20
-1.192409448818898
 30
0.0
 10
4.372173228346456
 20
-0.913240157480315
 30
0.0
  0
SPLINE
  5
71
330
1F
100
AcDbEntity
  8
Layer 1
 62
   250
370
    18
100
AcDbSpline
210
0.0
220
0.0
230
1.0
 70
    11
 71
     3
 72
    72
 73
    68
 74
     0
 42
0.000000001
 43
0.0000000001
 40
0.0
 40
0.0
 40
0.0
 40
0.0
 40
0.0555555555555556
 40
0.0555555555555556
 40
0.0555555555555556
 40
0.0555555555555556
 40
0.1111111111111111
 40
0.1111111111111111
 40
0.1111111111111111
 40
0.1111111111111111
 40
0.1666666666666667
 40
0.1666666666666667
 40
0.1666666666666667
 40
0.1666666666666667
 40
0.2222222222222222
 40
0.2222222222222222
 40
0.2222222222222222
 40
0.2222222222222222
 40
0.2777777777777778
 40
0.2777777777777778
 40
0.2777777777777778
 40
0.2777777777777778
 40
0.3333333333333333
 40
0.3333333333333333
 40
0.3333333333333333
 40
0.3333333333333333
 40
0.3888888888888889
 40
0.3888888888888889
 40
0.3888888888888889
 40
0.3888888888888889
 40
0.4444444444444444
 40
0.4444444444444444
 40
0.4444444444444444
 40
0.4444444444444444
 40
0.5
 40
0.5
 40
0.5
 40
0.5
 40
0.5555555555555556
 40
0.5555555555555556
 40
0.5555555555555556
 40
0.5555555555555556
 40
0.6111111111111112
 40
0.6111111111111112
 40
0.6111111111111112
 40
0.6111111111111112
 40
0.6666666666666666
 40
0.6666666666666666
 40
0.6666666666666666
 40
0.6666666666666666
 40
0.7222222222222222
 40
0.7222222222222222
 40
0.7222222222222222
 40
0.7222222222222222
 40
0.7777777777777778
 40
0.7777777777777778
 40
0.7777777777777778
 40
0.7777777777777778
 40
0.8333333333333334
 40
0.8333333333333334
 40
0.8333333333333334
 40
0.8333333333333334
 40
0.8888888888888888
 40
0.8888888888888888
 40
0.8888888888888888
 40
0.8888888888888888
 40
1.0
 40
1.0
 40
1.0
 40
1.0
 10
-0.2118582677165354
 20
-3.718122047244095
 30
0.0
 10
-0.1639409448818898
 20
-3.750759842519685
 30
0.0
 10
-0.0792204724409449
 20
-3.796590551181102
 30
0.0
 10
0.0075866141732283
 20
-3.84034251968504
 30
0.0
 10
0.0075866141732283
 20
-3.84034251968504
 30
0.0
 10
0.0943937007874016
 20
-3.884094488188977
 30
0.0
 10
0.1832795275590551
 20
-3.925759842519685
 30
0.0
 10
0.2568937007874016
 20
-3.974374015748031
 30
0.0
 10
0.2568937007874016
 20
-3.974374015748031
 30
0.0
 10
0.330503937007874
 20
-4.022984251968504
 30
0.0
 10
0.3888385826771654
 20
-4.07853937007874
 30
0.0
 10
0.4985629921259843
 20
-4.146594488188977
 30
0.0
 10
0.4985629921259843
 20
-4.146594488188977
 30
0.0
 10
0.6082834645669292
 20
-4.214649606299212
 30
0.0
 10
0.7693976377952756
 20
-4.295208661417323
 30
0.0
 10
0.8825944881889763
 20
-4.353543307086614
 30
0.0
 10
0.8825944881889763
 20
-4.353543307086614
 30
0.0
 10
0.9957874015748032
 20
-4.411874015748031
 30
0.0
 10
1.061062992125984
 20
-4.447984251968504
 30
0.0
 10
1.052035433070866
 20
-4.486874015748032
 30
0.0
 10
1.052035433070866
 20
-4.486874015748032
 30
0.0
 10
1.043007874015748
 20
-4.525759842519685
 30
0.0
 10
0.9596732283464567
 20
-4.567429133858267
 30
0.0
 10
0.8388385826771654
 20
-4.606318897637795
 30
0.0
 10
0.8388385826771654
 20
-4.606318897637795
 30
0.0
 10
0.718003937007874
 20
-4.645204724409449
 30
0.0
 10
0.5596732283464567
 20
-4.681318897637795
 30
0.0
 10
0.3874527559055118
 20
-4.690346456692914
 30
0.0
 10
0.3874527559055118
 20
-4.690346456692914
 30
0.0
 10
0.2152283464566929
 20
-4.699374015748032
 30
0.0
 10
0.0291141732283465
 20
-4.681318897637795
 30
0.0
 10
-0.1035236220472441
 20
-4.67646062992126
 30
0.0
 10
-0.1035236220472441
 20
-4.67646062992126
 30
0.0
 10
-0.2361614173228346
 20
-4.671598425196851
 30
0.0
 10
-0.3153307086614173
 20
-4.679929133858268
 30
0.0
 10
-0.3736614173228346
 20
-4.69659842519685
 30
0.0
 10
-0.3736614173228346
 20
-4.69659842519685
 30
0.0
 10
-0.431996062992126
 20
-4.713263779527559
 30
0.0
 10
-0.469496062992126
 20
-4.738263779527559
 30
0.0
 10
-0.4937992125984252
 20
-4.715346456692913
 30
0.0
 10
-0.4937992125984252
 20
-4.715346456692913
 30
0.0
 10
-0.5181062992125984
 20
-4.692429133858267
 30
0.0
 10
-0.5292204724409448
 20
-4.621598425196851
 30
0.0
 10
-0.5625511811023622
 20
-4.550070866141732
 30
0.0
 10
-0.5625511811023622
 20
-4.550070866141732
 30
0.0
 10
-0.5958858267716536
 20
-4.478539370078741
 30
0.0
 10
-0.6514448818897638
 20
-4.406318897637795
 30
0.0
 10
-0.6778307086614174
 20
-4.325763779527559
 30
0.0
 10
-0.6778307086614174
 20
-4.325763779527559
 30
0.0
 10
-0.7042204724409449
 20
-4.245204724409449
 30
0.0
 10
-0.7014448818897637
 20
-4.156318897637795
 30
0.0
 10
-0.663248031496063
 20
-4.056318897637795
 30
0.0
 10
-0.663248031496063
 20
-4.056318897637795
 30
0.0
 10
-0.6250551181102362
 20
-3.956318897637795
 30
0.0
 10
-0.5514409448818898
 20
-3.845204724409449
 30
0.0
 10
-0.4806062992125984
 20
-3.757704724409449
 30
0.0
 10
-0.4806062992125984
 20
-3.757704724409449
 30
0.0
 10
-0.4097755905511811
 20
-3.670204724409449
 30
0.0
 10
-0.3417204724409449
 20
-3.606314960629921
 30
0.0
 10
-0.3090787401574803
 20
-3.591732283464567
 30
0.0
 10
-0.3090787401574803
 20
-3.591732283464567
 30
0.0
 10
-0.2764409448818897
 20
-3.577149606299213
 30
0.0
 10
-0.2792204724409449
 20
-3.611870078740158
 30
0.0
 10
-0.2750511811023622
 20
-3.638956692913386
 30
0.0
 10
-0.2750511811023622
 20
-3.638956692913386
 30
0.0
 10
-0.2708858267716536
 20
-3.66603937007874
 30
0.0
 10
-0.2597755905511811
 20
-3.68548031496063
 30
0.0
 10
-0.2118582677165354
 20
-3.718122047244095
 30
0.0
  0
SPLINE
  5
72
330
1F
100
AcDbEntity
  8
Layer 1
 62
   250
370
    18
100
AcDbSpline
210
0.0
220
0.0
230
1.0
 70
    11
 71
     3
 72
    36
 73
    32
 74
     0
 42
0.000000001
 43
0.0000000001
 40
0.0
 40
0.0
 40
0.0
 40
0.0
 40
0.1111111111111111
 40
0.1111111111111111
 40
0.1111111111111111
 40
0.1111111111111111
 40
0.2222222222222222
 40
0.2222222222222222
 40
0.2222222222222222
 40
0.2222222222222222
 40
0.3333333333333333
 40
0.3333333333333333
 40
0.3333333333333333
 40
0.3333333333333333
 40
0.4444444444444444
 40
0.4444444444444444
 40
0.4444444444444444
 40
0.4444444444444444
 40
0.5555555555555556
 40
0.5555555555555556
 40
0.5555555555555556
 40
0.5555555555555556
 40
0.6666666666666666
 40
0.6666666666666666
 40
0.6666666666666666
 40
0.6666666666666666
 40
0.7777777777777778
 40
0.7777777777777778
 40
0.7777777777777778
 40
0.7777777777777778
 40
1.0
 40
1.0
 40
1.0
 40
1.0
 10
-0.3052637795275591
 20
-3.934094488188976
 30
0.0
 10
-0.2972795275590551
 20
-3.954232283464567
 30
0.0
 10
-0.2667204724409449
 20
-3.986874015748032
 30
0.0
 10
-0.2243582677165354
 20
-4.003192913385827
 30
0.0
 10
-0.2243582677165354
 20
-4.003192913385827
 30
0.0
 10
-0.182
 20
-4.019511811023622
 30
0.0
 10
-0.1278307086614173
 20
-4.019511811023622
 30
0.0
 10
-0.1042204724409449
 20
-3.997984251968504
 30
0.0
 10
-0.1042204724409449
 20
-3.997984251968504
 30
0.0
 10
-0.0806102362204724
 20
-3.976456692913386
 30
0.0
 10
-0.0875551181102362
 20
-3.933397637795276
 30
0.0
 10
-0.1028307086614173
 20
-3.915342519685039
 30
0.0
 10
-0.1028307086614173
 20
-3.915342519685039
 30
0.0
 10
-0.1181102362204724
 20
-3.897287401574803
 30
0.0
 10
-0.1417244094488189
 20
-3.904232283464567
 30
0.0
 10
-0.1566535433070866
 20
-3.916732283464567
 30
0.0
 10
-0.1566535433070866
 20
-3.916732283464567
 30
0.0
 10
-0.1715826771653543
 20
-3.929232283464567
 30
0.0
 10
-0.1778346456692913
 20
-3.947287401574803
 30
0.0
 10
-0.1920669291338583
 20
-3.950066929133858
 30
0.0
 10
-0.1920669291338583
 20
-3.950066929133858
 30
0.0
 10
-0.2063031496062992
 20
-3.952842519685039
 30
0.0
 10
-0.2285275590551181
 20
-3.940342519685039
 30
0.0
 10
-0.2451929133858268
 20
-3.929232283464567
 30
0.0
 10
-0.2451929133858268
 20
-3.929232283464567
 30
0.0
 10
-0.2618582677165354
 20
-3.918122047244094
 30
0.0
 10
-0.2729724409448819
 20
-3.908397637795276
 30
0.0
 10
-0.2858188976377953
 20
-3.907358267716535
 30
0.0
 10
-0.2858188976377953
 20
-3.907358267716535
 30
0.0
 10
-0.2986653543307087
 20
-3.906314960629921
 30
0.0
 10
-0.313251968503937
 20
-3.913956692913386
 30
0.0
 10
-0.3052637795275591
 20
-3.934094488188976
 30
0.0
  0
SPLINE
  5
73
330
1F
100
AcDbEntity
  8
Layer 1
 62
   250
370
    18
100
AcDbSpline
210
0.0
220
0.0
230
1.0
 70
     8
 71
     3
 72
    28
 73
    24
 74
     0
 42
0.000000001
 43
0.0000000001
 40
0.0
 40
0.0
 40
0.0
 40
0.0
 40
0.1428571428571428
 40
0.1428571428571428
 40
0.1428571428571428
 40
0.1428571428571428
 40
0.2857142857142857
 40
0.2857142857142857
 40
0.2857142857142857
 40
0.2857142857142857
 40
0.4285714285714285
 40
0.4285714285714285
 40
0.4285714285714285
 40
0.4285714285714285
 40
0.5714285714285714
 40
0.5714285714285714
 40
0.5714285714285714
 40
0.5714285714285714
 40
0.7142857142857143
 40
0.7142857142857143
 40
0.7142857142857143
 40
0.7142857142857143
 40
1.0
 40
1.0
 40
1.0
 40
1.0
 10
1.051354330708661
 20
-2.569507874015748
 30
0.0
 10
1.215244094488189
 20
-2.488952755905512
 30
0.0
 10
1.379133858267717
 20
-2.408393700787402
 30
0.0
 10
1.509688976377953
 20
-2.36742125984252
 30
0.0
 10
1.509688976377953
 20
-2.36742125984252
 30
0.0
 10
1.640244094488189
 20
-2.326448818897638
 30
0.0
 10
1.737468503937008
 20
-2.325062992125984
 30
0.0
 10
1.814551181102362
 20
-2.377145669291338
 30
0.0
 10
1.814551181102362
 20
-2.377145669291338
 30
0.0
 10
1.891633858267717
 20
-2.429228346456693
 30
0.0
 10
1.94857874015748
 20
-2.534783464566929
 30
0.0
 10
1.97357874015748
 20
-2.652838582677165
 30
0.0
 10
1.97357874015748
 20
-2.652838582677165
 30
0.0
 10
1.99857874015748
 20
-2.770893700787401
 30
0.0
 10
1.991633858267716
 20
-2.901452755905512
 30
0.0
 10
1.963161417322835
 20
-3.037562992125984
 30
0.0
 10
1.963161417322835
 20
-3.037562992125984
 30
0.0
 10
1.934688976377953
 20
-3.173673228346457
 30
0.0
 10
1.884688976377953
 20
-3.315338582677165
 30
0.0
 10
1.813858267716535
 20
-3.404228346456693
 30
0.0
 10
1.813858267716535
 20
-3.404228346456693
 30
0.0
 10
1.743023622047244
 20
-3.493114173228347
 30
0.0
 10
1.651354330708661
 20
-3.529228346456693
 30
0.0
 10
1.559688976377953
 20
-3.565338582677165
 30
0.0
  0
SPLINE
  5
74
330
1F
100
AcDbEntity
  8
Layer 1
 62
   250
370
    18
100
AcDbSpline
210
0.0
220
0.0
230
1.0
 70
     8
 71
     3
 72
    60
 73
    56
 74
     0
 42
0.000000001
 43
0.0000000001
 40
0.0
 40
0.0
 40
0.0
 40
0.0
 40
0.0666666666666667
 40
0.0666666666666667
 40
0.0666666666666667
 40
0.0666666666666667
 40
0.1333333333333333
 40
0.1333333333333333
 40
0.1333333333333333
 40
0.1333333333333333
 40
0.2
 40
0.2
 40
0.2
 40
0.2
 40
0.2666666666666667
 40
0.2666666666666667
 40
0.2666666666666667
 40
0.2666666666666667
 40
0.3333333333333333
 40
0.3333333333333333
 40
0.3333333333333333
 40
0.3333333333333333
 40
0.4
 40
0.4
 40
0.4
 40
0.4
 40
0.4666666666666667
 40
0.4666666666666667
 40
0.4666666666666667
 40
0.4666666666666667
 40
0.5333333333333333
 40
0.5333333333333333
 40
0.5333333333333333
 40
0.5333333333333333
 40
0.6
 40
0.6
 40
0.6
 40
0.6
 40
0.6666666666666666
 40
0.6666666666666666
 40
0.6666666666666666
 40
0.6666666666666666
 40
0.7333333333333333
 40
0.7333333333333333
 40
0.7333333333333333
 40
0.7333333333333333
 40
0.8
 40
0.8
 40
0.8
 40
0.8
 40
0.8666666666666667
 40
0.8666666666666667
 40
0.8666666666666667
 40
0.8666666666666667
 40
1.0
 40
1.0
 40
1.0
 40
1.0
 10
1.24301968503937
 20
-3.277838582677165
 30
0.0
 10
1.241629921259843
 20
-3.180618110236221
 30
0.0
 10
1.240244094488189
 20
-3.083393700787401
 30
0.0
 10
1.249271653543307
 20
-3.007700787401575
 30
0.0
 10
1.249271653543307
 20
-3.007700787401575
 30
0.0
 10
1.258299212598425
 20
-2.932007874015748
 30
0.0
 10
1.277744094488189
 20
-2.877838582677165
 30
0.0
 10
1.332606299212598
 20
-2.857700787401575
 30
0.0
 10
1.332606299212598
 20
-2.857700787401575
 30
0.0
 10
1.387468503937008
 20
-2.837562992125984
 30
0.0
 10
1.477744094488189
 20
-2.851448818897638
 30
0.0
 10
1.533996062992126
 20
-2.881311023622047
 30
0.0
 10
1.533996062992126
 20
-2.881311023622047
 30
0.0
 10
1.590244094488189
 20
-2.911173228346457
 30
0.0
 10
1.612468503937008
 20
-2.957003937007874
 30
0.0
 10
1.63607874015748
 20
-2.971590551181102
 30
0.0
 10
1.63607874015748
 20
-2.971590551181102
 30
0.0
 10
1.659688976377953
 20
-2.986173228346457
 30
0.0
 10
1.684688976377953
 20
-2.969503937007874
 30
0.0
 10
1.688161417322835
 20
-2.939645669291338
 30
0.0
 10
1.688161417322835
 20
-2.939645669291338
 30
0.0
 10
1.691633858267717
 20
-2.909783464566929
 30
0.0
 10
1.67357874015748
 20
-2.866728346456693
 30
0.0
 10
1.631913385826772
 20
-2.827145669291339
 30
0.0
 10
1.631913385826772
 20
-2.827145669291339
 30
0.0
 10
1.590244094488189
 20
-2.787562992125984
 30
0.0
 10
1.524968503937008
 20
-2.751448818897638
 30
0.0
 10
1.485385826771654
 20
-2.727145669291339
 30
0.0
 10
1.485385826771654
 20
-2.727145669291339
 30
0.0
 10
1.445799212598425
 20
-2.702838582677165
 30
0.0
 10
1.431909448818898
 20
-2.690338582677165
 30
0.0
 10
1.446492125984252
 20
-2.666728346456693
 30
0.0
 10
1.446492125984252
 20
-2.666728346456693
 30
0.0
 10
1.461074803149606
 20
-2.64311811023622
 30
0.0
 10
1.504133858267717
 20
-2.608393700787401
 30
0.0
 10
1.561771653543307
 20
-2.591035433070866
 30
0.0
 10
1.561771653543307
 20
-2.591035433070866
 30
0.0
 10
1.619409448818898
 20
-2.573673228346457
 30
0.0
 10
1.691633858267717
 20
-2.573673228346457
 30
0.0
 10
1.73607874015748
 20
-2.61048031496063
 30
0.0
 10
1.73607874015748
 20
-2.61048031496063
 30
0.0
 10
1.78051968503937
 20
-2.647283464566929
 30
0.0
 10
1.797188976377953
 20
-2.720897637795276
 30
0.0
 10
1.79857874015748
 20
-2.820897637795276
 30
0.0
 10
1.79857874015748
 20
-2.820897637795276
 30
0.0
 10
1.799964566929134
 20
-2.920897637795276
 30
0.0
 10
1.78607874015748
 20
-3.047283464566929
 30
0.0
 10
1.744413385826772
 20
-3.145200787401575
 30
0.0
 10
1.744413385826772
 20
-3.145200787401575
 30
0.0
 10
1.702744094488189
 20
-3.243118110236221
 30
0.0
 10
1.633299212598425
 20
-3.31255905511811
 30
0.0
 10
1.565937007874016
 20
-3.357700787401575
 30
0.0
 10
1.565937007874016
 20
-3.357700787401575
 30
0.0
 10
1.498574803149606
 20
-3.402838582677165
 30
0.0
 10
1.433299212598425
 20
-3.423669291338583
 30
0.0
 10
1.36801968503937
 20
-3.444503937007874
 30
0.0
  0
SPLINE
  5
75
330
1F
100
AcDbEntity
  8
Layer 1
 62
   250
370
    18
100
AcDbSpline
210
0.0
220
0.0
230
1.0
 70
     8
 71
     3
 72
    36
 73
    32
 74
     0
 42
0.000000001
 43
0.0000000001
 40
0.0
 40
0.0
 40
0.0
 40
0.0
 40
0.1111111111111111
 40
0.1111111111111111
 40
0.1111111111111111
 40
0.1111111111111111
 40
0.2222222222222222
 40
0.2222222222222222
 40
0.2222222222222222
 40
0.2222222222222222
 40
0.3333333333333333
 40
0.3333333333333333
 40
0.3333333333333333
 40
0.3333333333333333
 40
0.4444444444444444
 40
0.4444444444444444
 40
0.4444444444444444
 40
0.4444444444444444
 40
0.5555555555555556
 40
0.5555555555555556
 40
0.5555555555555556
 40
0.5555555555555556
 40
0.6666666666666666
 40
0.6666666666666666
 40
0.6666666666666666
 40
0.6666666666666666
 40
0.7777777777777778
 40
0.7777777777777778
 40
0.7777777777777778
 40
0.7777777777777778
 40
1.0
 40
1.0
 40
1.0
 40
1.0
 10
1.772192913385827
 20
-3.877850393700788
 30
0.0
 10
1.930527559055118
 20
-3.922295275590551
 30
0.0
 10
2.088858267716535
 20
-3.966740157480315
 30
0.0
 10
2.233303149606299
 20
-4.068129921259843
 30
0.0
 10
2.233303149606299
 20
-4.068129921259843
 30
0.0
 10
2.377748031496063
 20
-4.16951968503937
 30
0.0
 10
2.508307086614173
 20
-4.327850393700787
 30
0.0
 10
2.624972440944882
 20
-4.45701968503937
 30
0.0
 10
2.624972440944882
 20
-4.45701968503937
 30
0.0
 10
2.741637795275591
 20
-4.586185039370079
 30
0.0
 10
2.844417322834646
 20
-4.686185039370079
 30
0.0
 10
3.101362204724409
 20
-4.702854330708662
 30
0.0
 10
3.101362204724409
 20
-4.702854330708662
 30
0.0
 10
3.358303149606299
 20
-4.71951968503937
 30
0.0
 10
3.769417322834645
 20
-4.652850393700787
 30
0.0
 10
4.093027559055118
 20
-4.64451968503937
 30
0.0
 10
4.093027559055118
 20
-4.64451968503937
 30
0.0
 10
4.416637795275591
 20
-4.636185039370079
 30
0.0
 10
4.652751968503937
 20
-4.686185039370079
 30
0.0
 10
4.831921259842519
 20
-4.761185039370079
 30
0.0
 10
4.831921259842519
 20
-4.761185039370079
 30
0.0
 10
5.011086614173228
 20
-4.836185039370079
 30
0.0
 10
5.133307086614173
 20
-4.936185039370079
 30
0.0
 10
5.180531496062992
 20
-5.083409448818897
 30
0.0
 10
5.180531496062992
 20
-5.083409448818897
 30
0.0
 10
5.227751968503937
 20
-5.230629921259842
 30
0.0
 10
5.199976377952756
 20
-5.425074803149606
 30
0.0
 10
5.161086614173229
 20
-5.59451968503937
 30
0.0
 10
5.161086614173229
 20
-5.59451968503937
 30
0.0
 10
5.122196850393701
 20
-5.763964566929134
 30
0.0
 10
5.072196850393701
 20
-5.908409448818897
 30
0.0
 10
5.0221968503937
 20
-6.052854330708661
 30
0.0
  0
SPLINE
  5
76
330
1F
100
AcDbEntity
  8
Layer 1
 62
   250
370
    18
100
AcDbSpline
210
0.0
220
0.0
230
1.0
 70
    11
 71
     3
 72
    44
 73
    40
 74
     0
 42
0.000000001
 43
0.0000000001
 40
0.0
 40
0.0
 40
0.0
 40
0.0
 40
0.0909090909090909
 40
0.0909090909090909
 40
0.0909090909090909
 40
0.0909090909090909
 40
0.1818181818181818
 40
0.1818181818181818
 40
0.1818181818181818
 40
0.1818181818181818
 40
0.2727272727272727
 40
0.2727272727272727
 40
0.2727272727272727
 40
0.2727272727272727
 40
0.3636363636363636
 40
0.3636363636363636
 40
0.3636363636363636
 40
0.3636363636363636
 40
0.4545454545454545
 40
0.4545454545454545
 40
0.4545454545454545
 40
0.4545454545454545
 40
0.5454545454545454
 40
0.5454545454545454
 40
0.5454545454545454
 40
0.5454545454545454
 40
0.6363636363636364
 40
0.6363636363636364
 40
0.6363636363636364
 40
0.6363636363636364
 40
0.7272727272727273
 40
0.7272727272727273
 40
0.7272727272727273
 40
0.7272727272727273
 40
0.8181818181818182
 40
0.8181818181818182
 40
0.8181818181818182
 40
0.8181818181818182
 40
1.0
 40
1.0
 40
1.0
 40
1.0
 10
3.208318897637795
 20
-6.768826771653544
 30
0.0
 10
3.324984251968504
 20
-6.709799212598425
 30
0.0
 10
3.531929133858268
 20
-6.612574803149606
 30
0.0
 10
3.706236220472441
 20
-6.511188976377952
 30
0.0
 10
3.706236220472441
 20
-6.511188976377952
 30
0.0
 10
3.88053937007874
 20
-6.409799212598426
 30
0.0
 10
4.022208661417323
 20
-6.304240157480315
 30
0.0
 10
4.14790157480315
 20
-6.22715748031496
 30
0.0
 10
4.14790157480315
 20
-6.22715748031496
 30
0.0
 10
4.273594488188976
 20
-6.150074803149606
 30
0.0
 10
4.383318897637795
 20
-6.101464566929134
 30
0.0
 10
4.438181102362205
 20
-6.11257874015748
 30
0.0
 10
4.438181102362205
 20
-6.11257874015748
 30
0.0
 10
4.493039370078741
 20
-6.123688976377953
 30
0.0
 10
4.493039370078741
 20
-6.19451968503937
 30
0.0
 10
4.429846456692913
 20
-6.288271653543307
 30
0.0
 10
4.429846456692913
 20
-6.288271653543307
 30
0.0
 10
4.366649606299212
 20
-6.38201968503937
 30
0.0
 10
4.240263779527559
 20
-6.498685039370079
 30
0.0
 10
4.066653543307087
 20
-6.615350393700788
 30
0.0
 10
4.066653543307087
 20
-6.615350393700788
 30
0.0
 10
3.89303937007874
 20
-6.732015748031496
 30
0.0
 10
3.672208661417323
 20
-6.848685039370078
 30
0.0
 10
3.495125984251969
 20
-6.905629921259843
 30
0.0
 10
3.495125984251969
 20
-6.905629921259843
 30
0.0
 10
3.31803937007874
 20
-6.962574803149606
 30
0.0
 10
3.184704724409449
 20
-6.959795275590551
 30
0.0
 10
3.09790157480315
 20
-6.950074803149606
 30
0.0
 10
3.09790157480315
 20
-6.950074803149606
 30
0.0
 10
3.011094488188976
 20
-6.940354330708661
 30
0.0
 10
2.970814960629921
 20
-6.923685039370079
 30
0.0
 10
2.968732283464567
 20
-6.909102362204725
 30
0.0
 10
2.968732283464567
 20
-6.909102362204725
 30
0.0
 10
2.966649606299212
 20
-6.89451968503937
 30
0.0
 10
3.002759842519685
 20
-6.88201968503937
 30
0.0
 10
3.034011811023622
 20
-6.865354330708661
 30
0.0
 10
3.034011811023622
 20
-6.865354330708661
 30
0.0
 10
3.065259842519685
 20
-6.848685039370078
 30
0.0
 10
3.091649606299212
 20
-6.827854330708662
 30
0.0
 10
3.208318897637795
 20
-6.768826771653544
 30
0.0
  0
SPLINE
  5
77
330
1F
100
AcDbEntity
  8
Layer 1
 62
   250
370
    18
100
AcDbSpline
210
0.0
220
0.0
230
1.0
 70
     8
 71
     3
 72
    12
 73
     8
 74
     0
 42
0.000000001
 43
0.0000000001
 40
0.0
 40
0.0
 40
0.0
 40
0.0
 40
0.3333333333333333
 40
0.3333333333333333
 40
0.3333333333333333
 40
0.3333333333333333
 40
1.0
 40
1.0
 40
1.0
 40
1.0
 10
4.947208661417323
 20
-6.236192913385826
 30
0.0
 10
4.883318897637795
 20
-6.397303149606299
 30
0.0
 10
4.819433070866141
 20
-6.558417322834646
 30
0.0
 10
4.769433070866142
 20
-6.673696850393701
 30
0.0
 10
4.769433070866142
 20
-6.673696850393701
 30
0.0
 10
4.719433070866142
 20
-6.788972440944882
 30
0.0
 10
4.683318897637795
 20
-6.858417322834645
 30
0.0
 10
4.647208661417323
 20
-6.927862204724409
 30
0.0
  0
SPLINE
  5
78
330
1F
100
AcDbEntity
  8
Layer 1
 62
   250
370
    18
100
AcDbSpline
210
0.0
220
0.0
230
1.0
 70
     8
 71
     3
 72
    12
 73
     8
 74
     0
 42
0.000000001
 43
0.0000000001
 40
0.0
 40
0.0
 40
0.0
 40
0.0
 40
0.3333333333333333
 40
0.3333333333333333
 40
0.3333333333333333
 40
0.3333333333333333
 40
1.0
 40
1.0
 40
1.0
 40
1.0
 10
6.380547244094489
 20
-5.97786220472441
 30
0.0
 10
6.297212598425197
 20
-6.083417322834646
 30
0.0
 10
6.21388188976378
 20
-6.188972440944882
 30
0.0
 10
6.15138188976378
 20
-6.26536220472441
 30
0.0
 10
6.15138188976378
 20
-6.26536220472441
 30
0.0
 10
6.08888188976378
 20
-6.341751968503937
 30
0.0
 10
6.047212598425197
 20
-6.388972440944882
 30
0.0
 10
6.005547244094489
 20
-6.436196850393701
 30
0.0
  0
SPLINE
  5
79
330
1F
100
AcDbEntity
  8
Layer 1
 62
   250
370
    18
100
AcDbSpline
210
0.0
220
0.0
230
1.0
 70
     8
 71
     3
 72
    32
 73
    28
 74
     0
 42
0.000000001
 43
0.0000000001
 40
0.0
 40
0.0
 40
0.0
 40
0.0
 40
0.125
 40
0.125
 40
0.125
 40
0.125
 40
0.25
 40
0.25
 40
0.25
 40
0.25
 40
0.375
 40
0.375
 40
0.375
 40
0.375
 40
0.5
 40
0.5
 40
0.5
 40
0.5
 40
0.625
 40
0.625
 40
0.625
 40
0.625
 40
0.75
 40
0.75
 40
0.75
 40
0.75
 40
1.0
 40
1.0
 40
1.0
 40
1.0
 10
5.222220472440945
 20
-3.902858267716535
 30
0.0
 10
5.255555118110236
 20
-3.713968503937008
 30
0.0
 10
5.288885826771653
 20
-3.525082677165354
 30
0.0
 10
5.411110236220472
 20
-3.488972440944882
 30
0.0
 10
5.411110236220472
 20
-3.488972440944882
 30
0.0
 10
5.533330708661417
 20
-3.452858267716536
 30
0.0
 10
5.744444881889764
 20
-3.569527559055118
 30
0.0
 10
5.877779527559055
 20
-3.45286220472441
 30
0.0
 10
5.877779527559055
 20
-3.45286220472441
 30
0.0
 10
6.011110236220472
 20
-3.336192913385827
 30
0.0
 10
6.066665354330708
 20
-2.986192913385827
 30
0.0
 10
6.25
 20
-2.908417322834646
 30
0.0
 10
6.25
 20
-2.908417322834646
 30
0.0
 10
6.433330708661417
 20
-2.830637795275591
 30
0.0
 10
6.744444881889764
 20
-3.02507874015748
 30
0.0
 10
6.908334645669291
 20
-3.183413385826772
 30
0.0
 10
6.908334645669291
 20
-3.183413385826772
 30
0.0
 10
7.072220472440945
 20
-3.341748031496063
 30
0.0
 10
7.088889763779528
 20
-3.463968503937008
 30
0.0
 10
7.275
 20
-3.447303149606299
 30
0.0
 10
7.275
 20
-3.447303149606299
 30
0.0
 10
7.461110236220472
 20
-3.430637795275591
 30
0.0
 10
7.816669291338583
 20
-3.27507874015748
 30
0.0
 10
8.10555905511811
 20
-3.166748031496063
 30
0.0
 10
8.10555905511811
 20
-3.166748031496063
 30
0.0
 10
8.394444881889763
 20
-3.058413385826772
 30
0.0
 10
8.616669291338583
 20
-2.997303149606299
 30
0.0
 10
8.838889763779527
 20
-2.936192913385827
 30
0.0
  0
SPLINE
  5
7A
330
1F
100
AcDbEntity
  8
Layer 1
 62
   250
370
    18
100
AcDbSpline
210
0.0
220
0.0
230
1.0
 70
     8
 71
     3
 72
   112
 73
   108
 74
     0
 42
0.000000001
 43
0.0000000001
 40
0.0
 40
0.0
 40
0.0
 40
0.0
 40
0.0357142857142857
 40
0.0357142857142857
 40
0.0357142857142857
 40
0.0357142857142857
 40
0.0714285714285714
 40
0.0714285714285714
 40
0.0714285714285714
 40
0.0714285714285714
 40
0.1071428571428571
 40
0.1071428571428571
 40
0.1071428571428571
 40
0.1071428571428571
 40
0.1428571428571428
 40
0.1428571428571428
 40
0.1428571428571428
 40
0.1428571428571428
 40
0.1785714285714286
 40
0.1785714285714286
 40
0.1785714285714286
 40
0.1785714285714286
 40
0.2142857142857143
 40
0.2142857142857143
 40
0.2142857142857143
 40
0.2142857142857143
 40
0.25
 40
0.25
 40
0.25
 40
0.25
 40
0.2857142857142857
 40
0.2857142857142857
 40
0.2857142857142857
 40
0.2857142857142857
 40
0.3214285714285715
 40
0.3214285714285715
 40
0.3214285714285715
 40
0.3214285714285715
 40
0.3571428571428572
 40
0.3571428571428572
 40
0.3571428571428572
 40
0.3571428571428572
 40
0.3928571428571428
 40
0.3928571428571428
 40
0.3928571428571428
 40
0.3928571428571428
 40
0.4285714285714285
 40
0.4285714285714285
 40
0.4285714285714285
 40
0.4285714285714285
 40
0.4642857142857143
 40
0.4642857142857143
 40
0.4642857142857143
 40
0.4642857142857143
 40
0.5
 40
0.5
 40
0.5
 40
0.5
 40
0.5357142857142857
 40
0.5357142857142857
 40
0.5357142857142857
 40
0.5357142857142857
 40
0.5714285714285714
 40
0.5714285714285714
 40
0.5714285714285714
 40
0.5714285714285714
 40
0.6071428571428571
 40
0.6071428571428571
 40
0.6071428571428571
 40
0.6071428571428571
 40
0.6428571428571429
 40
0.6428571428571429
 40
0.6428571428571429
 40
0.6428571428571429
 40
0.6785714285714286
 40
0.6785714285714286
 40
0.6785714285714286
 40
0.6785714285714286
 40
0.7142857142857143
 40
0.7142857142857143
 40
0.7142857142857143
 40
0.7142857142857143
 40
0.75
 40
0.75
 40
0.75
 40
0.75
 40
0.7857142857142857
 40
0.7857142857142857
 40
0.7857142857142857
 40
0.7857142857142857
 40
0.8214285714285714
 40
0.8214285714285714
 40
0.8214285714285714
 40
0.8214285714285714
 40
0.8571428571428571
 40
0.8571428571428571
 40
0.8571428571428571
 40
0.8571428571428571
 40
0.8928571428571429
 40
0.8928571428571429
 40
0.8928571428571429
 40
0.8928571428571429
 40
0.9285714285714286
 40
0.9285714285714286
 40
0.9285714285714286
 40
0.9285714285714286
 40
1.0
 40
1.0
 40
1.0
 40
1.0
 10
-10.44315354330709
 20
-12.08488582677165
 30
0.0
 10
-10.05704330708661
 20
-11.70988582677165
 30
0.0
 10
-9.670933070866141
 20
-11.33488582677165
 30
0.0
 10
-9.32232283464567
 20
-11.04044094488189
 30
0.0
 10
-9.32232283464567
 20
-11.04044094488189
 30
0.0
 10
-8.973712598425196
 20
-10.74599606299213
 30
0.0
 10
-8.662598425196851
 20
-10.5321062992126
 30
0.0
 10
-8.369543307086614
 20
-10.38071653543307
 30
0.0
 10
-8.369543307086614
 20
-10.38071653543307
 30
0.0
 10
-8.076488188976377
 20
-10.22932677165354
 30
0.0
 10
-7.801488188976378
 20
-10.14044094488189
 30
0.0
 10
-7.516763779527559
 20
-10.1071062992126
 30
0.0
 10
-7.516763779527559
 20
-10.1071062992126
 30
0.0
 10
-7.232043307086614
 20
-10.07377165354331
 30
0.0
 10
-6.937598425196851
 20
-10.09599606299213
 30
0.0
 10
-6.648708661417323
 20
-10.20433070866142
 30
0.0
 10
-6.648708661417323
 20
-10.20433070866142
 30
0.0
 10
-6.359818897637795
 20
-10.31266141732283
 30
0.0
 10
-6.076488188976378
 20
-10.5071062992126
 30
0.0
 10
-5.786208661417323
 20
-10.72794094488189
 30
0.0
 10
-5.786208661417323
 20
-10.72794094488189
 30
0.0
 10
-5.495933070866141
 20
-10.94877165354331
 30
0.0
 10
-5.198708661417323
 20
-11.19599606299213
 30
0.0
 10
-5.004263779527559
 20
-11.33766141732283
 30
0.0
 10
-5.004263779527559
 20
-11.33766141732283
 30
0.0
 10
-4.80982283464567
 20
-11.47932677165354
 30
0.0
 10
-4.718153543307086
 20
-11.51544094488189
 30
0.0
 10
-4.627874015748032
 20
-11.53072047244095
 30
0.0
 10
-4.627874015748032
 20
-11.53072047244095
 30
0.0
 10
-4.53759842519685
 20
-11.54599606299213
 30
0.0
 10
-4.448704724409449
 20
-11.54044488188976
 30
0.0
 10
-4.37648031496063
 20
-11.50572440944882
 30
0.0
 10
-4.37648031496063
 20
-11.50572440944882
 30
0.0
 10
-4.304259842519685
 20
-11.471
 30
0.0
 10
-4.248700787401575
 20
-11.40711417322835
 30
0.0
 10
-4.198700787401575
 20
-11.34044881889764
 30
0.0
 10
-4.198700787401575
 20
-11.34044881889764
 30
0.0
 10
-4.148700787401575
 20
-11.27377952755906
 30
0.0
 10
-4.104259842519685
 20
-11.20433464566929
 30
0.0
 10
-4.044535433070866
 20
-11.19461417322835
 30
0.0
 10
-4.044535433070866
 20
-11.19461417322835
 30
0.0
 10
-3.984814960629921
 20
-11.18488976377953
 30
0.0
 10
-3.909814960629921
 20
-11.23488976377953
 30
0.0
 10
-3.869535433070866
 20
-11.22377952755905
 30
0.0
 10
-3.869535433070866
 20
-11.22377952755905
 30
0.0
 10
-3.829259842519685
 20
-11.21266929133858
 30
0.0
 10
-3.823700787401575
 20
-11.14044488188976
 30
0.0
 10
-3.805645669291339
 20
-11.07655905511811
 30
0.0
 10
-3.805645669291339
 20
-11.07655905511811
 30
0.0
 10
-3.787590551181102
 20
-11.01266929133858
 30
0.0
 10
-3.757035433070866
 20
-10.95711023622047
 30
0.0
 10
-3.695925196850394
 20
-11.01266535433071
 30
0.0
 10
-3.695925196850394
 20
-11.01266535433071
 30
0.0
 10
-3.634814960629921
 20
-11.06822047244095
 30
0.0
 10
-3.543145669291339
 20
-11.23488976377953
 30
0.0
 10
-3.43898031496063
 20
-11.37516929133858
 30
0.0
 10
-3.43898031496063
 20
-11.37516929133858
 30
0.0
 10
-3.334814960629921
 20
-11.51544488188976
 30
0.0
 10
-3.218145669291339
 20
-11.62933464566929
 30
0.0
 10
-3.034811023622047
 20
-11.80155905511811
 30
0.0
 10
-3.034811023622047
 20
-11.80155905511811
 30
0.0
 10
-2.85148031496063
 20
-11.97377952755905
 30
0.0
 10
-2.60148031496063
 20
-12.20433464566929
 30
0.0
 10
-2.430645669291339
 20
-12.35572440944882
 30
0.0
 10
-2.430645669291339
 20
-12.35572440944882
 30
0.0
 10
-2.259814960629921
 20
-12.50711417322835
 30
0.0
 10
-2.168145669291339
 20
-12.57933464566929
 30
0.0
 10
-2.093145669291339
 20
-12.62100393700787
 30
0.0
 10
-2.093145669291339
 20
-12.62100393700787
 30
0.0
 10
-2.018145669291338
 20
-12.66266929133858
 30
0.0
 10
-1.959814960629921
 20
-12.67377952755906
 30
0.0
 10
-1.937590551181102
 20
-12.71544881889764
 30
0.0
 10
-1.937590551181102
 20
-12.71544881889764
 30
0.0
 10
-1.915370078740158
 20
-12.75711417322835
 30
0.0
 10
-1.929255905511811
 20
-12.82933464566929
 30
0.0
 10
-1.973700787401575
 20
-12.8848937007874
 30
0.0
 10
-1.973700787401575
 20
-12.8848937007874
 30
0.0
 10
-2.018145669291338
 20
-12.94044881889764
 30
0.0
 10
-2.093145669291339
 20
-12.97933464566929
 30
0.0
 10
-2.212590551181102
 20
-13.00155905511811
 30
0.0
 10
-2.212590551181102
 20
-13.00155905511811
 30
0.0
 10
-2.332035433070866
 20
-13.02377952755906
 30
0.0
 10
-2.495925196850393
 20
-13.02933858267717
 30
0.0
 10
-2.702870078740157
 20
-13.04044881889764
 30
0.0
 10
-2.702870078740157
 20
-13.04044881889764
 30
0.0
 10
-2.909814960629921
 20
-13.05155905511811
 30
0.0
 10
-3.159814960629921
 20
-13.06822834645669
 30
0.0
 10
-3.336200787401575
 20
-13.08767322834646
 30
0.0
 10
-3.336200787401575
 20
-13.08767322834646
 30
0.0
 10
-3.512590551181102
 20
-13.10711417322835
 30
0.0
 10
-3.615370078740157
 20
-13.12933858267717
 30
0.0
 10
-3.670925196850394
 20
-13.14044881889764
 30
0.0
 10
-3.670925196850394
 20
-13.14044881889764
 30
0.0
 10
-3.72648031496063
 20
-13.15155905511811
 30
0.0
 10
-3.734811023622047
 20
-13.15155905511811
 30
0.0
 10
-3.793145669291339
 20
-13.16683858267717
 30
0.0
 10
-3.793145669291339
 20
-13.16683858267717
 30
0.0
 10
-3.85148031496063
 20
-13.18211417322835
 30
0.0
 10
-3.959811023622047
 20
-13.21266929133858
 30
0.0
 10
-4.029255905511811
 20
-13.30016929133858
 30
0.0
 10
-4.029255905511811
 20
-13.30016929133858
 30
0.0
 10
-4.098700787401575
 20
-13.38766929133858
 30
0.0
 10
-4.129259842519685
 20
-13.53211417322835
 30
0.0
 10
-4.080645669291338
 20
-13.65850393700787
 30
0.0
 10
-4.080645669291338
 20
-13.65850393700787
 30
0.0
 10
-4.061389763779528
 20
-13.70856692913386
 30
0.0
 10
-4.029712598425196
 20
-13.75579921259843
 30
0.0
 10
-3.984149606299213
 20
-13.80088582677165
 30
0.0
  0
SPLINE
  5
7B
330
1F
100
AcDbEntity
  8
Layer 1
 62
   250
370
    18
100
AcDbSpline
210
0.0
220
0.0
230
1.0
 70
     8
 71
     3
 72
    56
 73
    52
 74
     0
 42
0.000000001
 43
0.0000000001
 40
0.0
 40
0.0
 40
0.0
 40
0.0
 40
0.0714285714285714
 40
0.0714285714285714
 40
0.0714285714285714
 40
0.0714285714285714
 40
0.1428571428571428
 40
0.1428571428571428
 40
0.1428571428571428
 40
0.1428571428571428
 40
0.2142857142857143
 40
0.2142857142857143
 40
0.2142857142857143
 40
0.2142857142857143
 40
0.2857142857142857
 40
0.2857142857142857
 40
0.2857142857142857
 40
0.2857142857142857
 40
0.3571428571428572
 40
0.3571428571428572
 40
0.3571428571428572
 40
0.3571428571428572
 40
0.4285714285714285
 40
0.4285714285714285
 40
0.4285714285714285
 40
0.4285714285714285
 40
0.5
 40
0.5
 40
0.5
 40
0.5
 40
0.5714285714285714
 40
0.5714285714285714
 40
0.5714285714285714
 40
0.5714285714285714
 40
0.6428571428571429
 40
0.6428571428571429
 40
0.6428571428571429
 40
0.6428571428571429
 40
0.7142857142857143
 40
0.7142857142857143
 40
0.7142857142857143
 40
0.7142857142857143
 40
0.7857142857142857
 40
0.7857142857142857
 40
0.7857142857142857
 40
0.7857142857142857
 40
0.8571428571428571
 40
0.8571428571428571
 40
0.8571428571428571
 40
0.8571428571428571
 40
1.0
 40
1.0
 40
1.0
 40
1.0
 10
-1.912736220472441
 20
-14.52772834645669
 30
0.0
 10
-1.804255905511811
 20
-14.56113385826772
 30
0.0
 10
-1.715448818897638
 20
-14.59322440944882
 30
0.0
 10
-1.645925196850394
 20
-14.63072834645669
 30
0.0
 10
-1.645925196850394
 20
-14.63072834645669
 30
0.0
 10
-1.540374015748031
 20
-14.68767322834646
 30
0.0
 10
-1.479255905511811
 20
-14.75711417322835
 30
0.0
 10
-1.522311023622047
 20
-14.81405905511811
 30
0.0
 10
-1.522311023622047
 20
-14.81405905511811
 30
0.0
 10
-1.565370078740157
 20
-14.87100393700787
 30
0.0
 10
-1.712590551181102
 20
-14.91544881889764
 30
0.0
 10
-1.883425196850394
 20
-14.8973937007874
 30
0.0
 10
-1.883425196850394
 20
-14.8973937007874
 30
0.0
 10
-2.054259842519685
 20
-14.87933858267717
 30
0.0
 10
-2.248700787401575
 20
-14.79878346456693
 30
0.0
 10
-2.40842125984252
 20
-14.75850787401575
 30
0.0
 10
-2.40842125984252
 20
-14.75850787401575
 30
0.0
 10
-2.568145669291339
 20
-14.71822834645669
 30
0.0
 10
-2.693145669291339
 20
-14.71822834645669
 30
0.0
 10
-2.944535433070866
 20
-14.71267322834646
 30
0.0
 10
-2.944535433070866
 20
-14.71267322834646
 30
0.0
 10
-3.195925196850394
 20
-14.70711811023622
 30
0.0
 10
-3.573700787401575
 20
-14.69600393700787
 30
0.0
 10
-3.82092125984252
 20
-14.67933858267716
 30
0.0
 10
-3.82092125984252
 20
-14.67933858267716
 30
0.0
 10
-4.068145669291338
 20
-14.66267322834646
 30
0.0
 10
-4.184814960629922
 20
-14.64044881889764
 30
0.0
 10
-4.347314960629921
 20
-14.52933858267717
 30
0.0
 10
-4.347314960629921
 20
-14.52933858267717
 30
0.0
 10
-4.509814960629921
 20
-14.41822834645669
 30
0.0
 10
-4.718145669291339
 20
-14.21822834645669
 30
0.0
 10
-4.848700787401575
 20
-14.09322834645669
 30
0.0
 10
-4.848700787401575
 20
-14.09322834645669
 30
0.0
 10
-4.979259842519685
 20
-13.96822834645669
 30
0.0
 10
-5.032035433070866
 20
-13.91822440944882
 30
0.0
 10
-5.13898031496063
 20
-13.90433858267717
 30
0.0
 10
-5.13898031496063
 20
-13.90433858267717
 30
0.0
 10
-5.245925196850393
 20
-13.89044881889764
 30
0.0
 10
-5.407035433070866
 20
-13.91266929133858
 30
0.0
 10
-5.547311023622047
 20
-13.94461417322835
 30
0.0
 10
-5.547311023622047
 20
-13.94461417322835
 30
0.0
 10
-5.687590551181103
 20
-13.97655905511811
 30
0.0
 10
-5.807035433070866
 20
-14.01822834645669
 30
0.0
 10
-5.950090551181102
 20
-14.08906299212599
 30
0.0
 10
-5.950090551181102
 20
-14.08906299212599
 30
0.0
 10
-6.093145669291339
 20
-14.1598937007874
 30
0.0
 10
-6.259814960629921
 20
-14.2598937007874
 30
0.0
 10
-6.434814960629922
 20
-14.40433858267717
 30
0.0
 10
-6.434814960629922
 20
-14.40433858267717
 30
0.0
 10
-6.609814960629921
 20
-14.54878346456693
 30
0.0
 10
-6.793145669291339
 20
-14.73766929133858
 30
0.0
 10
-6.97648031496063
 20
-14.92655905511811
 30
0.0
  0
SPLINE
  5
7C
330
1F
100
AcDbEntity
  8
Layer 1
 62
   250
370
    18
100
AcDbSpline
210
0.0
220
0.0
230
1.0
 70
     8
 71
     3
 72
    20
 73
    16
 74
     0
 42
0.000000001
 43
0.0000000001
 40
0.0
 40
0.0
 40
0.0
 40
0.0
 40
0.2
 40
0.2
 40
0.2
 40
0.2
 40
0.4
 40
0.4
 40
0.4
 40
0.4
 40
0.6
 40
0.6
 40
0.6
 40
0.6
 40
1.0
 40
1.0
 40
1.0
 40
1.0
 10
-3.984188976377953
 20
-13.80084645669291
 30
0.0
 10
-3.867732283464567
 20
-13.91914173228346
 30
0.0
 10
-3.751271653543307
 20
-14.03743307086614
 30
0.0
 10
-3.574988188976378
 20
-14.13338582677165
 30
0.0
 10
-3.574988188976378
 20
-14.13338582677165
 30
0.0
 10
-3.398704724409449
 20
-14.22933858267717
 30
0.0
 10
-3.162590551181102
 20
-14.30295275590551
 30
0.0
 10
-2.899393700787402
 20
-14.36614566929134
 30
0.0
 10
-2.899393700787402
 20
-14.36614566929134
 30
0.0
 10
-2.636200787401575
 20
-14.42933858267716
 30
0.0
 10
-2.345925196850394
 20
-14.48211811023622
 30
0.0
 10
-2.176964566929134
 20
-14.50731102362205
 30
0.0
 10
-2.176964566929134
 20
-14.50731102362205
 30
0.0
 10
-2.008007874015748
 20
-14.53250393700787
 30
0.0
 10
-1.960374015748032
 20
-14.53011811023622
 30
0.0
 10
-1.912736220472441
 20
-14.52772834645669
 30
0.0
  0
SPLINE
  5
7D
330
1F
100
AcDbEntity
  8
Layer 1
 62
   250
370
    18
100
AcDbSpline
210
0.0
220
0.0
230
1.0
 70
     8
 71
     3
 72
    60
 73
    56
 74
     0
 42
0.000000001
 43
0.0000000001
 40
0.0
 40
0.0
 40
0.0
 40
0.0
 40
0.0666666666666667
 40
0.0666666666666667
 40
0.0666666666666667
 40
0.0666666666666667
 40
0.1333333333333333
 40
0.1333333333333333
 40
0.1333333333333333
 40
0.1333333333333333
 40
0.2
 40
0.2
 40
0.2
 40
0.2
 40
0.2666666666666667
 40
0.2666666666666667
 40
0.2666666666666667
 40
0.2666666666666667
 40
0.3333333333333333
 40
0.3333333333333333
 40
0.3333333333333333
 40
0.3333333333333333
 40
0.4
 40
0.4
 40
0.4
 40
0.4
 40
0.4666666666666667
 40
0.4666666666666667
 40
0.4666666666666667
 40
0.4666666666666667
 40
0.5333333333333333
 40
0.5333333333333333
 40
0.5333333333333333
 40
0.5333333333333333
 40
0.6
 40
0.6
 40
0.6
 40
0.6
 40
0.6666666666666666
 40
0.6666666666666666
 40
0.6666666666666666
 40
0.6666666666666666
 40
0.7333333333333333
 40
0.7333333333333333
 40
0.7333333333333333
 40
0.7333333333333333
 40
0.8
 40
0.8
 40
0.8
 40
0.8
 40
0.8666666666666667
 40
0.8666666666666667
 40
0.8666666666666667
 40
0.8666666666666667
 40
1.0
 40
1.0
 40
1.0
 40
1.0
 10
-6.97648031496063
 20
-14.92655905511811
 30
0.0
 10
-7.03342125984252
 20
-15.06961811023622
 30
0.0
 10
-7.09036220472441
 20
-15.21267716535433
 30
0.0
 10
-7.134110236220472
 20
-15.30364960629921
 30
0.0
 10
-7.134110236220472
 20
-15.30364960629921
 30
0.0
 10
-7.177858267716536
 20
-15.39462598425197
 30
0.0
 10
-7.208413385826772
 20
-15.43351181102362
 30
0.0
 10
-7.263271653543307
 20
-15.41545669291339
 30
0.0
 10
-7.263271653543307
 20
-15.41545669291339
 30
0.0
 10
-7.318133858267717
 20
-15.39740157480315
 30
0.0
 10
-7.397303149606299
 20
-15.32240157480315
 30
0.0
 10
-7.531330708661417
 20
-15.1869842519685
 30
0.0
 10
-7.531330708661417
 20
-15.1869842519685
 30
0.0
 10
-7.665358267716536
 20
-15.05156692913386
 30
0.0
 10
-7.854248031496063
 20
-14.85573622047244
 30
0.0
 10
-7.994523622047244
 20
-14.70296062992126
 30
0.0
 10
-7.994523622047244
 20
-14.70296062992126
 30
0.0
 10
-8.134803149606299
 20
-14.5501811023622
 30
0.0
 10
-8.226468503937008
 20
-14.44045669291339
 30
0.0
 10
-8.282023622047245
 20
-14.32587401574803
 30
0.0
 10
-8.282023622047245
 20
-14.32587401574803
 30
0.0
 10
-8.33757874015748
 20
-14.21129133858268
 30
0.0
 10
-8.357023622047244
 20
-14.09184645669291
 30
0.0
 10
-8.398688976377953
 20
-14.03907086614173
 30
0.0
 10
-8.398688976377953
 20
-14.03907086614173
 30
0.0
 10
-8.440358267716535
 20
-13.98629133858268
 30
0.0
 10
-8.50424409448819
 20
-14.00017716535433
 30
0.0
 10
-8.655633858267716
 20
-14.00017716535433
 30
0.0
 10
-8.655633858267716
 20
-14.00017716535433
 30
0.0
 10
-8.807023622047245
 20
-14.00017716535433
 30
0.0
 10
-9.045913385826772
 20
-13.98629133858268
 30
0.0
 10
-9.259803149606299
 20
-13.95434645669291
 30
0.0
 10
-9.259803149606299
 20
-13.95434645669291
 30
0.0
 10
-9.473692913385827
 20
-13.92240157480315
 30
0.0
 10
-9.66257874015748
 20
-13.87240157480315
 30
0.0
 10
-9.813968503937009
 20
-13.87795669291339
 30
0.0
 10
-9.813968503937009
 20
-13.87795669291339
 30
0.0
 10
-9.965358267716535
 20
-13.88351181102362
 30
0.0
 10
-10.07924803149606
 20
-13.94462598425197
 30
0.0
 10
-10.18341338582677
 20
-14.07796062992126
 30
0.0
 10
-10.18341338582677
 20
-14.07796062992126
 30
0.0
 10
-10.28758267716535
 20
-14.21129133858268
 30
0.0
 10
-10.38202755905512
 20
-14.41684645669291
 30
0.0
 10
-10.50147244094488
 20
-14.5585157480315
 30
0.0
 10
-10.50147244094488
 20
-14.5585157480315
 30
0.0
 10
-10.62091732283465
 20
-14.7001811023622
 30
0.0
 10
-10.76535826771654
 20
-14.77795669291338
 30
0.0
 10
-10.9098031496063
 20
-14.80434645669291
 30
0.0
 10
-10.9098031496063
 20
-14.80434645669291
 30
0.0
 10
-11.05424803149606
 20
-14.83073622047244
 30
0.0
 10
-11.19869291338583
 20
-14.80573622047244
 30
0.0
 10
-11.30563779527559
 20
-14.85573622047244
 30
0.0
 10
-11.30563779527559
 20
-14.85573622047244
 30
0.0
 10
-11.41258267716535
 20
-14.90573622047244
 30
0.0
 10
-11.48202755905512
 20
-15.03073622047244
 30
0.0
 10
-11.55147244094488
 20
-15.15573622047244
 30
0.0
  0
SPLINE
  5
7E
330
1F
100
AcDbEntity
  8
Layer 1
 62
   250
370
    18
100
AcDbSpline
210
0.0
220
0.0
230
1.0
 70
     8
 71
     3
 72
    36
 73
    32
 74
     0
 42
0.000000001
 43
0.0000000001
 40
0.0
 40
0.0
 40
0.0
 40
0.0
 40
0.1111111111111111
 40
0.1111111111111111
 40
0.1111111111111111
 40
0.1111111111111111
 40
0.2222222222222222
 40
0.2222222222222222
 40
0.2222222222222222
 40
0.2222222222222222
 40
0.3333333333333333
 40
0.3333333333333333
 40
0.3333333333333333
 40
0.3333333333333333
 40
0.4444444444444444
 40
0.4444444444444444
 40
0.4444444444444444
 40
0.4444444444444444
 40
0.5555555555555556
 40
0.5555555555555556
 40
0.5555555555555556
 40
0.5555555555555556
 40
0.6666666666666666
 40
0.6666666666666666
 40
0.6666666666666666
 40
0.6666666666666666
 40
0.7777777777777778
 40
0.7777777777777778
 40
0.7777777777777778
 40
0.7777777777777778
 40
1.0
 40
1.0
 40
1.0
 40
1.0
 10
-10.44315354330709
 20
-12.08488582677165
 30
0.0
 10
-10.62092519685039
 20
-12.29738976377953
 30
0.0
 10
-10.79869291338583
 20
-12.50988976377953
 30
0.0
 10
-11.1459094488189
 20
-12.93836614173228
 30
0.0
 10
-11.1459094488189
 20
-12.93836614173228
 30
0.0
 10
-11.49312992125984
 20
-13.36683858267716
 30
0.0
 10
-12.00979921259843
 20
-14.01128346456693
 30
0.0
 10
-12.31535433070866
 20
-14.44184251968504
 30
0.0
 10
-12.31535433070866
 20
-14.44184251968504
 30
0.0
 10
-12.6209094488189
 20
-14.87239763779528
 30
0.0
 10
-12.71535433070866
 20
-15.08906299212599
 30
0.0
 10
-12.72368503937008
 20
-15.29184251968504
 30
0.0
 10
-12.72368503937008
 20
-15.29184251968504
 30
0.0
 10
-12.73201968503937
 20
-15.49462204724409
 30
0.0
 10
-12.65424409448819
 20
-15.68350787401575
 30
0.0
 10
-12.51535433070866
 20
-15.74739763779528
 30
0.0
 10
-12.51535433070866
 20
-15.74739763779528
 30
0.0
 10
-12.37646456692913
 20
-15.8112874015748
 30
0.0
 10
-12.17646456692913
 20
-15.75017322834646
 30
0.0
 10
-12.03757480314961
 20
-15.6473937007874
 30
0.0
 10
-12.03757480314961
 20
-15.6473937007874
 30
0.0
 10
-11.89868897637795
 20
-15.54461811023622
 30
0.0
 10
-11.8209094488189
 20
-15.40017716535433
 30
0.0
 10
-11.74868503937008
 20
-15.33906299212599
 30
0.0
 10
-11.74868503937008
 20
-15.33906299212599
 30
0.0
 10
-11.67646456692913
 20
-15.27795275590551
 30
0.0
 10
-11.60979921259842
 20
-15.30017716535433
 30
0.0
 10
-11.57785433070866
 20
-15.28351181102362
 30
0.0
 10
-11.57785433070866
 20
-15.28351181102362
 30
0.0
 10
-11.5459094488189
 20
-15.26684251968504
 30
0.0
 10
-11.54869291338583
 20
-15.21129133858268
 30
0.0
 10
-11.55147244094488
 20
-15.15573622047244
 30
0.0
  0
SPLINE
  5
7F
330
1F
100
AcDbEntity
  8
Layer 1
 62
   250
370
    18
100
AcDbSpline
210
0.0
220
0.0
230
1.0
 70
    11
 71
     3
 72
    44
 73
    40
 74
     0
 42
0.000000001
 43
0.0000000001
 40
0.0
 40
0.0
 40
0.0
 40
0.0
 40
0.0909090909090909
 40
0.0909090909090909
 40
0.0909090909090909
 40
0.0909090909090909
 40
0.1818181818181818
 40
0.1818181818181818
 40
0.1818181818181818
 40
0.1818181818181818
 40
0.2727272727272727
 40
0.2727272727272727
 40
0.2727272727272727
 40
0.2727272727272727
 40
0.3636363636363636
 40
0.3636363636363636
 40
0.3636363636363636
 40
0.3636363636363636
 40
0.4545454545454545
 40
0.4545454545454545
 40
0.4545454545454545
 40
0.4545454545454545
 40
0.5454545454545454
 40
0.5454545454545454
 40
0.5454545454545454
 40
0.5454545454545454
 40
0.6363636363636364
 40
0.6363636363636364
 40
0.6363636363636364
 40
0.6363636363636364
 40
0.7272727272727273
 40
0.7272727272727273
 40
0.7272727272727273
 40
0.7272727272727273
 40
0.8181818181818182
 40
0.8181818181818182
 40
0.8181818181818182
 40
0.8181818181818182
 40
1.0
 40
1.0
 40
1.0
 40
1.0
 10
-7.291732283464567
 20
-13.55087795275591
 30
0.0
 10
-7.213956692913386
 20
-13.54323622047244
 30
0.0
 10
-7.076456692913386
 20
-13.53490551181102
 30
0.0
 10
-6.968122047244094
 20
-13.53559842519685
 30
0.0
 10
-6.968122047244094
 20
-13.53559842519685
 30
0.0
 10
-6.859791338582677
 20
-13.53629133858268
 30
0.0
 10
-6.780622047244094
 20
-13.5460157480315
 30
0.0
 10
-6.762566929133858
 20
-13.56476771653543
 30
0.0
 10
-6.762566929133858
 20
-13.56476771653543
 30
0.0
 10
-6.744511811023622
 20
-13.5835157480315
 30
0.0
 10
-6.787566929133858
 20
-13.61129133858268
 30
0.0
 10
-6.839649606299212
 20
-13.67170866141732
 30
0.0
 10
-6.839649606299212
 20
-13.67170866141732
 30
0.0
 10
-6.891732283464567
 20
-13.73212598425197
 30
0.0
 10
-6.952846456692914
 20
-13.8251811023622
 30
0.0
 10
-7.002846456692914
 20
-13.93212598425197
 30
0.0
 10
-7.002846456692914
 20
-13.93212598425197
 30
0.0
 10
-7.052846456692913
 20
-14.03907086614173
 30
0.0
 10
-7.091732283464567
 20
-14.15990157480315
 30
0.0
 10
-7.117425196850394
 20
-14.21198818897638
 30
0.0
 10
-7.117425196850394
 20
-14.21198818897638
 30
0.0
 10
-7.143122047244095
 20
-14.26407086614173
 30
0.0
 10
-7.155622047244094
 20
-14.24740157480315
 30
0.0
 10
-7.181314960629921
 20
-14.19809842519685
 30
0.0
 10
-7.181314960629921
 20
-14.19809842519685
 30
0.0
 10
-7.207011811023622
 20
-14.14879133858268
 30
0.0
 10
-7.24590157480315
 20
-14.06684645669291
 30
0.0
 10
-7.291039370078741
 20
-13.96407086614173
 30
0.0
 10
-7.291039370078741
 20
-13.96407086614173
 30
0.0
 10
-7.336181102362205
 20
-13.86129133858268
 30
0.0
 10
-7.387566929133858
 20
-13.7376811023622
 30
0.0
 10
-7.407704724409449
 20
-13.66893307086614
 30
0.0
 10
-7.407704724409449
 20
-13.66893307086614
 30
0.0
 10
-7.427846456692913
 20
-13.60018110236221
 30
0.0
 10
-7.416736220472441
 20
-13.58629133858268
 30
0.0
 10
-7.402153543307087
 20
-13.57587401574803
 30
0.0
 10
-7.402153543307087
 20
-13.57587401574803
 30
0.0
 10
-7.387570866141732
 20
-13.56545669291339
 30
0.0
 10
-7.369511811023622
 20
-13.5585157480315
 30
0.0
 10
-7.291732283464567
 20
-13.55087795275591
 30
0.0
  0
SPLINE
  5
80
330
1F
100
AcDbEntity
  8
Layer 1
 62
   250
370
    18
100
AcDbSpline
210
0.0
220
0.0
230
1.0
 70
    11
 71
     3
 72
   428
 73
   424
 74
     0
 42
0.000000001
 43
0.0000000001
 40
0.0
 40
0.0
 40
0.0
 40
0.0
 40
0.0093457943925234
 40
0.0093457943925234
 40
0.0093457943925234
 40
0.0093457943925234
 40
0.0186915887850467
 40
0.0186915887850467
 40
0.0186915887850467
 40
0.0186915887850467
 40
0.0280373831775701
 40
0.0280373831775701
 40
0.0280373831775701
 40
0.0280373831775701
 40
0.0373831775700935
 40
0.0373831775700935
 40
0.0373831775700935
 40
0.0373831775700935
 40
0.0467289719626168
 40
0.0467289719626168
 40
0.0467289719626168
 40
0.0467289719626168
 40
0.0560747663551402
 40
0.0560747663551402
 40
0.0560747663551402
 40
0.0560747663551402
 40
0.0654205607476635
 40
0.0654205607476635
 40
0.0654205607476635
 40
0.0654205607476635
 40
0.0747663551401869
 40
0.0747663551401869
 40
0.0747663551401869
 40
0.0747663551401869
 40
0.0841121495327103
 40
0.0841121495327103
 40
0.0841121495327103
 40
0.0841121495327103
 40
0.0934579439252336
 40
0.0934579439252336
 40
0.0934579439252336
 40
0.0934579439252336
 40
0.102803738317757
 40
0.102803738317757
 40
0.102803738317757
 40
0.102803738317757
 40
0.1121495327102804
 40
0.1121495327102804
 40
0.1121495327102804
 40
0.1121495327102804
 40
0.1214953271028037
 40
0.1214953271028037
 40
0.1214953271028037
 40
0.1214953271028037
 40
0.1308411214953271
 40
0.1308411214953271
 40
0.1308411214953271
 40
0.1308411214953271
 40
0.1401869158878505
 40
0.1401869158878505
 40
0.1401869158878505
 40
0.1401869158878505
 40
0.1495327102803738
 40
0.1495327102803738
 40
0.1495327102803738
 40
0.1495327102803738
 40
0.1588785046728972
 40
0.1588785046728972
 40
0.1588785046728972
 40
0.1588785046728972
 40
0.1682242990654206
 40
0.1682242990654206
 40
0.1682242990654206
 40
0.1682242990654206
 40
0.1775700934579439
 40
0.1775700934579439
 40
0.1775700934579439
 40
0.1775700934579439
 40
0.1869158878504673
 40
0.1869158878504673
 40
0.1869158878504673
 40
0.1869158878504673
 40
0.1962616822429906
 40
0.1962616822429906
 40
0.1962616822429906
 40
0.1962616822429906
 40
0.205607476635514
 40
0.205607476635514
 40
0.205607476635514
 40
0.205607476635514
 40
0.2149532710280374
 40
0.2149532710280374
 40
0.2149532710280374
 40
0.2149532710280374
 40
0.2242990654205607
 40
0.2242990654205607
 40
0.2242990654205607
 40
0.2242990654205607
 40
0.2336448598130841
 40
0.2336448598130841
 40
0.2336448598130841
 40
0.2336448598130841
 40
0.2429906542056075
 40
0.2429906542056075
 40
0.2429906542056075
 40
0.2429906542056075
 40
0.2523364485981308
 40
0.2523364485981308
 40
0.2523364485981308
 40
0.2523364485981308
 40
0.2616822429906542
 40
0.2616822429906542
 40
0.2616822429906542
 40
0.2616822429906542
 40
0.2710280373831775
 40
0.2710280373831775
 40
0.2710280373831775
 40
0.2710280373831775
 40
0.2803738317757009
 40
0.2803738317757009
 40
0.2803738317757009
 40
0.2803738317757009
 40
0.2897196261682243
 40
0.2897196261682243
 40
0.2897196261682243
 40
0.2897196261682243
 40
0.2990654205607476
 40
0.2990654205607476
 40
0.2990654205607476
 40
0.2990654205607476
 40
0.308411214953271
 40
0.308411214953271
 40
0.308411214953271
 40
0.308411214953271
 40
0.3177570093457944
 40
0.3177570093457944
 40
0.3177570093457944
 40
0.3177570093457944
 40
0.3271028037383177
 40
0.3271028037383177
 40
0.3271028037383177
 40
0.3271028037383177
 40
0.3364485981308411
 40
0.3364485981308411
 40
0.3364485981308411
 40
0.3364485981308411
 40
0.3457943925233645
 40
0.3457943925233645
 40
0.3457943925233645
 40
0.3457943925233645
 40
0.3551401869158878
 40
0.3551401869158878
 40
0.3551401869158878
 40
0.3551401869158878
 40
0.3644859813084112
 40
0.3644859813084112
 40
0.3644859813084112
 40
0.3644859813084112
 40
0.3738317757009346
 40
0.3738317757009346
 40
0.3738317757009346
 40
0.3738317757009346
 40
0.3831775700934579
 40
0.3831775700934579
 40
0.3831775700934579
 40
0.3831775700934579
 40
0.3925233644859813
 40
0.3925233644859813
 40
0.3925233644859813
 40
0.3925233644859813
 40
0.4018691588785047
 40
0.4018691588785047
 40
0.4018691588785047
 40
0.4018691588785047
 40
0.411214953271028
 40
0.411214953271028
 40
0.411214953271028
 40
0.411214953271028
 40
0.4205607476635514
 40
0.4205607476635514
 40
0.4205607476635514
 40
0.4205607476635514
 40
0.4299065420560748
 40
0.4299065420560748
 40
0.4299065420560748
 40
0.4299065420560748
 40
0.4392523364485981
 40
0.4392523364485981
 40
0.4392523364485981
 40
0.4392523364485981
 40
0.4485981308411215
 40
0.4485981308411215
 40
0.4485981308411215
 40
0.4485981308411215
 40
0.4579439252336449
 40
0.4579439252336449
 40
0.4579439252336449
 40
0.4579439252336449
 40
0.4672897196261682
 40
0.4672897196261682
 40
0.4672897196261682
 40
0.4672897196261682
 40
0.4766355140186916
 40
0.4766355140186916
 40
0.4766355140186916
 40
0.4766355140186916
 40
0.485981308411215
 40
0.485981308411215
 40
0.485981308411215
 40
0.485981308411215
 40
0.4953271028037383
 40
0.4953271028037383
 40
0.4953271028037383
 40
0.4953271028037383
 40
0.5046728971962616
 40
0.5046728971962616
 40
0.5046728971962616
 40
0.5046728971962616
 40
0.514018691588785
 40
0.514018691588785
 40
0.514018691588785
 40
0.514018691588785
 40
0.5233644859813084
 40
0.5233644859813084
 40
0.5233644859813084
 40
0.5233644859813084
 40
0.5327102803738317
 40
0.5327102803738317
 40
0.5327102803738317
 40
0.5327102803738317
 40
0.5420560747663551
 40
0.5420560747663551
 40
0.5420560747663551
 40
0.5420560747663551
 40
0.5514018691588785
 40
0.5514018691588785
 40
0.5514018691588785
 40
0.5514018691588785
 40
0.5607476635514018
 40
0.5607476635514018
 40
0.5607476635514018
 40
0.5607476635514018
 40
0.5700934579439252
 40
0.5700934579439252
 40
0.5700934579439252
 40
0.5700934579439252
 40
0.5794392523364486
 40
0.5794392523364486
 40
0.5794392523364486
 40
0.5794392523364486
 40
0.5887850467289719
 40
0.5887850467289719
 40
0.5887850467289719
 40
0.5887850467289719
 40
0.5981308411214953
 40
0.5981308411214953
 40
0.5981308411214953
 40
0.5981308411214953
 40
0.6074766355140186
 40
0.6074766355140186
 40
0.6074766355140186
 40
0.6074766355140186
 40
0.616822429906542
 40
0.616822429906542
 40
0.616822429906542
 40
0.616822429906542
 40
0.6261682242990654
 40
0.6261682242990654
 40
0.6261682242990654
 40
0.6261682242990654
 40
0.6355140186915887
 40
0.6355140186915887
 40
0.6355140186915887
 40
0.6355140186915887
 40
0.6448598130841121
 40
0.6448598130841121
 40
0.6448598130841121
 40
0.6448598130841121
 40
0.6542056074766355
 40
0.6542056074766355
 40
0.6542056074766355
 40
0.6542056074766355
 40
0.6635514018691588
 40
0.6635514018691588
 40
0.6635514018691588
 40
0.6635514018691588
 40
0.6728971962616822
 40
0.6728971962616822
 40
0.6728971962616822
 40
0.6728971962616822
 40
0.6822429906542056
 40
0.6822429906542056
 40
0.6822429906542056
 40
0.6822429906542056
 40
0.6915887850467289
 40
0.6915887850467289
 40
0.6915887850467289
 40
0.6915887850467289
 40
0.7009345794392523
 40
0.7009345794392523
 40
0.7009345794392523
 40
0.7009345794392523
 40
0.7102803738317757
 40
0.7102803738317757
 40
0.7102803738317757
 40
0.7102803738317757
 40
0.719626168224299
 40
0.719626168224299
 40
0.719626168224299
 40
0.719626168224299
 40
0.7289719626168224
 40
0.7289719626168224
 40
0.7289719626168224
 40
0.7289719626168224
 40
0.7383177570093458
 40
0.7383177570093458
 40
0.7383177570093458
 40
0.7383177570093458
 40
0.7476635514018691
 40
0.7476635514018691
 40
0.7476635514018691
 40
0.7476635514018691
 40
0.7570093457943925
 40
0.7570093457943925
 40
0.7570093457943925
 40
0.7570093457943925
 40
0.7663551401869159
 40
0.7663551401869159
 40
0.7663551401869159
 40
0.7663551401869159
 40
0.7757009345794392
 40
0.7757009345794392
 40
0.7757009345794392
 40
0.7757009345794392
 40
0.7850467289719626
 40
0.7850467289719626
 40
0.7850467289719626
 40
0.7850467289719626
 40
0.794392523364486
 40
0.794392523364486
 40
0.794392523364486
 40
0.794392523364486
 40
0.8037383177570093
 40
0.8037383177570093
 40
0.8037383177570093
 40
0.8037383177570093
 40
0.8130841121495327
 40
0.8130841121495327
 40
0.8130841121495327
 40
0.8130841121495327
 40
0.822429906542056
 40
0.822429906542056
 40
0.822429906542056
 40
0.822429906542056
 40
0.8317757009345794
 40
0.8317757009345794
 40
0.8317757009345794
 40
0.8317757009345794
 40
0.8411214953271028
 40
0.8411214953271028
 40
0.8411214953271028
 40
0.8411214953271028
 40
0.8504672897196262
 40
0.8504672897196262
 40
0.8504672897196262
 40
0.8504672897196262
 40
0.8598130841121495
 40
0.8598130841121495
 40
0.8598130841121495
 40
0.8598130841121495
 40
0.8691588785046729
 40
0.8691588785046729
 40
0.8691588785046729
 40
0.8691588785046729
 40
0.8785046728971962
 40
0.8785046728971962
 40
0.8785046728971962
 40
0.8785046728971962
 40
0.8878504672897196
 40
0.8878504672897196
 40
0.8878504672897196
 40
0.8878504672897196
 40
0.897196261682243
 40
0.897196261682243
 40
0.897196261682243
 40
0.897196261682243
 40
0.9065420560747663
 40
0.9065420560747663
 40
0.9065420560747663
 40
0.9065420560747663
 40
0.9158878504672897
 40
0.9158878504672897
 40
0.9158878504672897
 40
0.9158878504672897
 40
0.9252336448598131
 40
0.9252336448598131
 40
0.9252336448598131
 40
0.9252336448598131
 40
0.9345794392523364
 40
0.9345794392523364
 40
0.9345794392523364
 40
0.9345794392523364
 40
0.9439252336448598
 40
0.9439252336448598
 40
0.9439252336448598
 40
0.9439252336448598
 40
0.9532710280373832
 40
0.9532710280373832
 40
0.9532710280373832
 40
0.9532710280373832
 40
0.9626168224299065
 40
0.9626168224299065
 40
0.9626168224299065
 40
0.9626168224299065
 40
0.9719626168224299
 40
0.9719626168224299
 40
0.9719626168224299
 40
0.9719626168224299
 40
0.9813084112149533
 40
0.9813084112149533
 40
0.9813084112149533
 40
0.9813084112149533
 40
1.0
 40
1.0
 40
1.0
 40
1.0
 10
3.737594488188976
 20
-10.93793700787402
 30
0.0
 10
3.83309842519685
 20
-10.92265354330709
 30
0.0
 10
3.980318897637795
 20
-10.89487795275591
 30
0.0
 10
4.176153543307087
 20
-10.83376771653543
 30
0.0
 10
4.176153543307087
 20
-10.83376771653543
 30
0.0
 10
4.371988188976378
 20
-10.77265354330709
 30
0.0
 10
4.616433070866142
 20
-10.67820866141732
 30
0.0
 10
4.806708661417323
 20
-10.60320866141732
 30
0.0
 10
4.806708661417323
 20
-10.60320866141732
 30
0.0
 10
4.996988188976378
 20
-10.52820866141732
 30
0.0
 10
5.133098425196851
 20
-10.47265354330709
 30
0.0
 10
5.298374015748031
 20
-10.44348818897638
 30
0.0
 10
5.298374015748031
 20
-10.44348818897638
 30
0.0
 10
5.463653543307086
 20
-10.41431889763779
 30
0.0
 10
5.65809842519685
 20
-10.41154330708661
 30
0.0
 10
5.816433070866141
 20
-10.43515354330709
 30
0.0
 10
5.816433070866141
 20
-10.43515354330709
 30
0.0
 10
5.974767716535433
 20
-10.45876377952756
 30
0.0
 10
6.096988188976378
 20
-10.50876377952756
 30
0.0
 10
6.266433070866142
 20
-10.59209842519685
 30
0.0
 10
6.266433070866142
 20
-10.59209842519685
 30
0.0
 10
6.435877952755906
 20
-10.67542913385827
 30
0.0
 10
6.652547244094488
 20
-10.79209842519685
 30
0.0
 10
6.791433070866142
 20
-10.89626377952756
 30
0.0
 10
6.791433070866142
 20
-10.89626377952756
 30
0.0
 10
6.930322834645669
 20
-11.00042913385827
 30
0.0
 10
6.991433070866142
 20
-11.09209842519685
 30
0.0
 10
7.081708661417323
 20
-11.17126377952756
 30
0.0
 10
7.081708661417323
 20
-11.17126377952756
 30
0.0
 10
7.171988188976378
 20
-11.25042913385827
 30
0.0
 10
7.291433070866142
 20
-11.31709842519685
 30
0.0
 10
7.463653543307086
 20
-11.40598818897638
 30
0.0
 10
7.463653543307086
 20
-11.40598818897638
 30
0.0
 10
7.635877952755905
 20
-11.49487401574803
 30
0.0
 10
7.860877952755906
 20
-11.60598818897638
 30
0.0
 10
8.046988188976378
 20
-11.68932283464567
 30
0.0
 10
8.046988188976378
 20
-11.68932283464567
 30
0.0
 10
8.233102362204724
 20
-11.77265354330709
 30
0.0
 10
8.38032283464567
 20
-11.8282125984252
 30
0.0
 10
8.483102362204724
 20
-11.91987795275591
 30
0.0
 10
8.483102362204724
 20
-11.91987795275591
 30
0.0
 10
8.58588188976378
 20
-12.01154330708661
 30
0.0
 10
8.644212598425197
 20
-12.13932283464567
 30
0.0
 10
8.616433070866142
 20
-12.24210236220472
 30
0.0
 10
8.616433070866142
 20
-12.24210236220472
 30
0.0
 10
8.58865748031496
 20
-12.3448779527559
 30
0.0
 10
8.474767716535434
 20
-12.42265354330709
 30
0.0
 10
8.33309842519685
 20
-12.45598818897638
 30
0.0
 10
8.33309842519685
 20
-12.45598818897638
 30
0.0
 10
8.191433070866141
 20
-12.48932283464567
 30
0.0
 10
8.021992125984251
 20
-12.47820866141732
 30
0.0
 10
7.809492125984252
 20
-12.42126771653543
 30
0.0
 10
7.809492125984252
 20
-12.42126771653543
 30
0.0
 10
7.596992125984252
 20
-12.36432283464567
 30
0.0
 10
7.341433070866142
 20
-12.26154330708661
 30
0.0
 10
7.184488188976378
 20
-12.19626771653543
 30
0.0
 10
7.184488188976378
 20
-12.19626771653543
 30
0.0
 10
7.027543307086614
 20
-12.13098818897638
 30
0.0
 10
6.969212598425197
 20
-12.1032125984252
 30
0.0
 10
6.931712598425197
 20
-12.1157125984252
 30
0.0
 10
6.931712598425197
 20
-12.1157125984252
 30
0.0
 10
6.894212598425197
 20
-12.1282125984252
 30
0.0
 10
6.877543307086614
 20
-12.18098818897638
 30
0.0
 10
6.813653543307087
 20
-12.25460236220473
 30
0.0
 10
6.813653543307087
 20
-12.25460236220473
 30
0.0
 10
6.749767716535433
 20
-12.3282125984252
 30
0.0
 10
6.638653543307087
 20
-12.42265354330709
 30
0.0
 10
6.491429133858268
 20
-12.50876771653543
 30
0.0
 10
6.491429133858268
 20
-12.50876771653543
 30
0.0
 10
6.344208661417323
 20
-12.5948779527559
 30
0.0
 10
6.160877952755905
 20
-12.67265354330709
 30
0.0
 10
6.073377952755905
 20
-12.72959842519685
 30
0.0
 10
6.073377952755905
 20
-12.72959842519685
 30
0.0
 10
5.985877952755906
 20
-12.78654330708661
 30
0.0
 10
5.994208661417323
 20
-12.82265748031496
 30
0.0
 10
6.010874015748032
 20
-12.90876771653543
 30
0.0
 10
6.010874015748032
 20
-12.90876771653543
 30
0.0
 10
6.027543307086614
 20
-12.99487795275591
 30
0.0
 10
6.052543307086614
 20
-13.13099212598425
 30
0.0
 10
6.055318897637795
 20
-13.25599212598425
 30
0.0
 10
6.055318897637795
 20
-13.25599212598425
 30
0.0
 10
6.05809842519685
 20
-13.38099212598425
 30
0.0
 10
6.038657480314961
 20
-13.49487795275591
 30
0.0
 10
6.00115748031496
 20
-13.5907125984252
 30
0.0
 10
6.00115748031496
 20
-13.5907125984252
 30
0.0
 10
5.963657480314961
 20
-13.68654724409449
 30
0.0
 10
5.90809842519685
 20
-13.76432283464567
 30
0.0
 10
5.820598425196851
 20
-13.83238188976378
 30
0.0
 10
5.820598425196851
 20
-13.83238188976378
 30
0.0
 10
5.73309842519685
 20
-13.90043700787402
 30
0.0
 10
5.613653543307087
 20
-13.95876771653543
 30
0.0
 10
5.528929133858267
 20
-13.98376771653543
 30
0.0
 10
5.528929133858267
 20
-13.98376771653543
 30
0.0
 10
5.444208661417322
 20
-14.00876771653543
 30
0.0
 10
5.394208661417323
 20
-14.00043700787402
 30
0.0
 10
5.385874015748032
 20
-13.96571653543307
 30
0.0
 10
5.385874015748032
 20
-13.96571653543307
 30
0.0
 10
5.377543307086614
 20
-13.93099212598425
 30
0.0
 10
5.410874015748031
 20
-13.86987795275591
 30
0.0
 10
5.46503937007874
 20
-13.80599212598425
 30
0.0
 10
5.46503937007874
 20
-13.80599212598425
 30
0.0
 10
5.519208661417323
 20
-13.74210236220472
 30
0.0
 10
5.594208661417323
 20
-13.67543307086614
 30
0.0
 10
5.644208661417323
 20
-13.61710236220472
 30
0.0
 10
5.644208661417323
 20
-13.61710236220472
 30
0.0
 10
5.694208661417322
 20
-13.55876771653543
 30
0.0
 10
5.719208661417323
 20
-13.50876771653543
 30
0.0
 10
5.684484251968504
 20
-13.43654724409449
 30
0.0
 10
5.684484251968504
 20
-13.43654724409449
 30
0.0
 10
5.649763779527559
 20
-13.36432283464567
 30
0.0
 10
5.555322834645669
 20
-13.26987795275591
 30
0.0
 10
5.508098425196851
 20
-13.22265748031496
 30
0.0
 10
5.508098425196851
 20
-13.22265748031496
 30
0.0
 10
5.460877952755905
 20
-13.17543307086614
 30
0.0
 10
5.460877952755905
 20
-13.17543307086614
 30
0.0
 10
5.448377952755905
 20
-13.18237795275591
 30
0.0
 10
5.448377952755905
 20
-13.18237795275591
 30
0.0
 10
5.435877952755906
 20
-13.18932283464567
 30
0.0
 10
5.410877952755905
 20
-13.2032125984252
 30
0.0
 10
5.37059842519685
 20
-13.21988188976378
 30
0.0
 10
5.37059842519685
 20
-13.21988188976378
 30
0.0
 10
5.33032283464567
 20
-13.23654724409449
 30
0.0
 10
5.274763779527559
 20
-13.25598818897638
 30
0.0
 10
5.219555118110236
 20
-13.27925196850394
 30
0.0
 10
5.219555118110236
 20
-13.27925196850394
 30
0.0
 10
5.164346456692914
 20
-13.3025157480315
 30
0.0
 10
5.109488188976378
 20
-13.32959842519685
 30
0.0
 10
5.054279527559055
 20
-13.34557086614173
 30
0.0
 10
5.054279527559055
 20
-13.34557086614173
 30
0.0
 10
4.999070866141732
 20
-13.36154330708661
 30
0.0
 10
4.943511811023622
 20
-13.36640551181102
 30
0.0
 10
4.887259842519685
 20
-13.35737795275591
 30
0.0
 10
4.887259842519685
 20
-13.35737795275591
 30
0.0
 10
4.831011811023622
 20
-13.34835039370079
 30
0.0
 10
4.774066929133858
 20
-13.32543307086614
 30
0.0
 10
4.724066929133858
 20
-13.29175196850394
 30
0.0
 10
4.724066929133858
 20
-13.29175196850394
 30
0.0
 10
4.674066929133859
 20
-13.25807086614173
 30
0.0
 10
4.631007874015748
 20
-13.21362598425197
 30
0.0
 10
4.608437007874016
 20
-13.17647244094488
 30
0.0
 10
4.608437007874016
 20
-13.17647244094488
 30
0.0
 10
4.585870078740157
 20
-13.13931889763779
 30
0.0
 10
4.583787401574803
 20
-13.10946062992126
 30
0.0
 10
4.600452755905512
 20
-13.08550393700787
 30
0.0
 10
4.600452755905512
 20
-13.08550393700787
 30
0.0
 10
4.617122047244094
 20
-13.06154330708661
 30
0.0
 10
4.65253937007874
 20
-13.04348818897638
 30
0.0
 10
4.697677165354331
 20
-13.03446062992126
 30
0.0
 10
4.697677165354331
 20
-13.03446062992126
 30
0.0
 10
4.742818897637795
 20
-13.02543307086614
 30
0.0
 10
4.79767716535433
 20
-13.02543307086614
 30
0.0
 10
4.866775590551181
 20
-13.02855905511811
 30
0.0
 10
4.866775590551181
 20
-13.02855905511811
 30
0.0
 10
4.935874015748031
 20
-13.0316811023622
 30
0.0
 10
5.019208661417323
 20
-13.03793307086614
 30
0.0
 10
5.071291338582677
 20
-13.03342125984252
 30
0.0
 10
5.071291338582677
 20
-13.03342125984252
 30
0.0
 10
5.123377952755906
 20
-13.02890551181102
 30
0.0
 10
5.144208661417323
 20
-13.01362598425197
 30
0.0
 10
5.164346456692914
 20
-12.99522440944882
 30
0.0
 10
5.164346456692914
 20
-12.99522440944882
 30
0.0
 10
5.184488188976378
 20
-12.97682283464567
 30
0.0
 10
5.203933070866142
 20
-12.95529133858268
 30
0.0
 10
5.217472440944882
 20
-12.89383464566929
 30
0.0
 10
5.217472440944882
 20
-12.89383464566929
 30
0.0
 10
5.231015748031496
 20
-12.83237401574803
 30
0.0
 10
5.238653543307087
 20
-12.73098818897638
 30
0.0
 10
5.238649606299212
 20
-12.65460236220472
 30
0.0
 10
5.238649606299212
 20
-12.65460236220472
 30
0.0
 10
5.238645669291339
 20
-12.5782125984252
 30
0.0
 10
5.231
 20
-12.52682677165354
 30
0.0
 10
5.207732283464567
 20
-12.48794094488189
 30
0.0
 10
5.207732283464567
 20
-12.48794094488189
 30
0.0
 10
5.184464566929134
 20
-12.44905118110236
 30
0.0
 10
5.145574803149606
 20
-12.42266141732283
 30
0.0
 10
5.105988188976378
 20
-12.38099606299213
 30
0.0
 10
5.105988188976378
 20
-12.38099606299213
 30
0.0
 10
5.066405511811023
 20
-12.33932677165354
 30
0.0
 10
5.026129921259843
 20
-12.28238582677165
 30
0.0
 10
4.99696062992126
 20
-12.27683070866142
 30
0.0
 10
4.99696062992126
 20
-12.27683070866142
 30
0.0
 10
4.967795275590551
 20
-12.27127559055118
 30
0.0
 10
4.949740157480315
 20
-12.3171062992126
 30
0.0
 10
4.899740157480315
 20
-12.37474803149606
 30
0.0
 10
4.899740157480315
 20
-12.37474803149606
 30
0.0
 10
4.849740157480315
 20
-12.43238582677165
 30
0.0
 10
4.767795275590551
 20
-12.50182677165354
 30
0.0
 10
4.677515748031496
 20
-12.56918897637795
 30
0.0
 10
4.677515748031496
 20
-12.56918897637795
 30
0.0
 10
4.587240157480315
 20
-12.63655118110236
 30
0.0
 10
4.488625984251969
 20
-12.70182677165354
 30
0.0
 10
4.403208661417323
 20
-12.78932677165354
 30
0.0
 10
4.403208661417323
 20
-12.78932677165354
 30
0.0
 10
4.317795275590552
 20
-12.87682677165354
 30
0.0
 10
4.245570866141732
 20
-12.98655118110236
 30
0.0
 10
4.207377952755905
 20
-13.05252362204724
 30
0.0
 10
4.207377952755905
 20
-13.05252362204724
 30
0.0
 10
4.169185039370078
 20
-13.11849212598425
 30
0.0
 10
4.165015748031496
 20
-13.14071653543307
 30
0.0
 10
4.162933070866142
 20
-13.17057874015748
 30
0.0
 10
4.162933070866142
 20
-13.17057874015748
 30
0.0
 10
4.160850393700787
 20
-13.20043700787402
 30
0.0
 10
4.160850393700787
 20
-13.23793700787402
 30
0.0
 10
4.198350393700787
 20
-13.27613385826772
 30
0.0
 10
4.198350393700787
 20
-13.27613385826772
 30
0.0
 10
4.235850393700788
 20
-13.31432677165354
 30
0.0
 10
4.310850393700788
 20
-13.35321653543307
 30
0.0
 10
4.368488188976378
 20
-13.41363385826772
 30
0.0
 10
4.368488188976378
 20
-13.41363385826772
 30
0.0
 10
4.426129921259842
 20
-13.47405118110236
 30
0.0
 10
4.466405511811024
 20
-13.55599212598425
 30
0.0
 10
4.47196062992126
 20
-13.6164094488189
 30
0.0
 10
4.47196062992126
 20
-13.6164094488189
 30
0.0
 10
4.47751968503937
 20
-13.67682677165354
 30
0.0
 10
4.448350393700787
 20
-13.71571653543307
 30
0.0
 10
4.425433070866141
 20
-13.72683070866142
 30
0.0
 10
4.425433070866141
 20
-13.72683070866142
 30
0.0
 10
4.40251968503937
 20
-13.73794094488189
 30
0.0
 10
4.385850393700787
 20
-13.72127165354331
 30
0.0
 10
4.36605905511811
 20
-13.69488582677165
 30
0.0
 10
4.36605905511811
 20
-13.69488582677165
 30
0.0
 10
4.346267716535433
 20
-13.66849606299213
 30
0.0
 10
4.323354330708661
 20
-13.63238582677165
 30
0.0
 10
4.293492125984252
 20
-13.59766535433071
 30
0.0
 10
4.293492125984252
 20
-13.59766535433071
 30
0.0
 10
4.263629921259843
 20
-13.56294094488189
 30
0.0
 10
4.226826771653544
 20
-13.52961023622047
 30
0.0
 10
4.179948818897638
 20
-13.48724803149606
 30
0.0
 10
4.179948818897638
 20
-13.48724803149606
 30
0.0
 10
4.133074803149606
 20
-13.44488582677165
 30
0.0
 10
4.076129921259843
 20
-13.39349606299213
 30
0.0
 10
4.027169291338582
 20
-13.34245669291339
 30
0.0
 10
4.027169291338582
 20
-13.34245669291339
 30
0.0
 10
3.978212598425197
 20
-13.29141338582677
 30
0.0
 10
3.937240157480315
 20
-13.24071653543307
 30
0.0
 10
3.916405511811023
 20
-13.19905118110236
 30
0.0
 10
3.916405511811023
 20
-13.19905118110236
 30
0.0
 10
3.895574803149606
 20
-13.15738582677165
 30
0.0
 10
3.894877952755905
 20
-13.12474409448819
 30
0.0
 10
3.89209842519685
 20
-13.10529921259842
 30
0.0
 10
3.89209842519685
 20
-13.10529921259842
 30
0.0
 10
3.889322834645669
 20
-13.08585433070866
 30
0.0
 10
3.884464566929134
 20
-13.0796062992126
 30
0.0
 10
3.885153543307087
 20
-13.04731496062992
 30
0.0
 10
3.885153543307087
 20
-13.04731496062992
 30
0.0
 10
3.885846456692913
 20
-13.01502362204724
 30
0.0
 10
3.892090551181102
 20
-12.95668897637795
 30
0.0
 10
3.887574803149606
 20
-12.92752362204724
 30
0.0
 10
3.887574803149606
 20
-12.92752362204724
 30
0.0
 10
3.88305905511811
 20
-12.89835826771654
 30
0.0
 10
3.867779527559055
 20
-12.89835826771654
 30
0.0
 10
3.812917322834646
 20
-12.92613779527559
 30
0.0
 10
3.812917322834646
 20
-12.92613779527559
 30
0.0
 10
3.75805905511811
 20
-12.95391338582677
 30
0.0
 10
3.663614173228346
 20
-13.00947244094488
 30
0.0
 10
3.549724409448819
 20
-13.04280708661417
 30
0.0
 10
3.549724409448819
 20
-13.04280708661417
 30
0.0
 10
3.435834645669291
 20
-13.07613779527559
 30
0.0
 10
3.3025
 20
-13.08724803149606
 30
0.0
 10
3.217775590551181
 20
-13.10044488188976
 30
0.0
 10
3.217775590551181
 20
-13.10044488188976
 30
0.0
 10
3.133055118110236
 20
-13.11363779527559
 30
0.0
 10
3.096944881889764
 20
-13.12891338582677
 30
0.0
 10
3.049027559055118
 20
-13.14835826771654
 30
0.0
 10
3.049027559055118
 20
-13.14835826771654
 30
0.0
 10
3.001110236220472
 20
-13.1678031496063
 30
0.0
 10
2.941389763779528
 20
-13.19141732283465
 30
0.0
 10
2.873330708661417
 20
-13.22058267716536
 30
0.0
 10
2.873330708661417
 20
-13.22058267716536
 30
0.0
 10
2.805275590551181
 20
-13.24974803149606
 30
0.0
 10
2.728889763779528
 20
-13.28447244094488
 30
0.0
 10
2.669165354330709
 20
-13.30044488188976
 30
0.0
 10
2.669165354330709
 20
-13.30044488188976
 30
0.0
 10
2.60944094488189
 20
-13.31641338582677
 30
0.0
 10
2.566381889763779
 20
-13.31363779527559
 30
0.0
 10
2.515685039370079
 20
-13.29488582677165
 30
0.0
 10
2.515685039370079
 20
-13.29488582677165
 30
0.0
 10
2.464988188976378
 20
-13.27613385826772
 30
0.0
 10
2.406653543307087
 20
-13.24141338582677
 30
0.0
 10
2.37609842519685
 20
-13.2053031496063
 30
0.0
 10
2.37609842519685
 20
-13.2053031496063
 30
0.0
 10
2.345543307086614
 20
-13.16918897637795
 30
0.0
 10
2.342763779527559
 20
-13.13168897637795
 30
0.0
 10
2.351098425196851
 20
-13.11398031496063
 30
0.0
 10
2.351098425196851
 20
-13.11398031496063
 30
0.0
 10
2.359433070866142
 20
-13.09627165354331
 30
0.0
 10
2.378874015748031
 20
-13.09835826771654
 30
0.0
 10
2.417763779527559
 20
-13.1014842519685
 30
0.0
 10
2.417763779527559
 20
-13.1014842519685
 30
0.0
 10
2.456653543307087
 20
-13.1046062992126
 30
0.0
 10
2.514988188976378
 20
-13.10877559055118
 30
0.0
 10
2.563251968503937
 20
-13.10912204724409
 30
0.0
 10
2.563251968503937
 20
-13.10912204724409
 30
0.0
 10
2.611515748031496
 20
-13.10946850393701
 30
0.0
 10
2.649712598425197
 20
-13.10599606299213
 30
0.0
 10
2.711862204724409
 20
-13.07301181102362
 30
0.0
 10
2.711862204724409
 20
-13.07301181102362
 30
0.0
 10
2.774015748031496
 20
-13.04002362204724
 30
0.0
 10
2.860129921259842
 20
-12.97752362204724
 30
0.0
 10
2.911165354330709
 20
-12.93933070866142
 30
0.0
 10
2.911165354330709
 20
-12.93933070866142
 30
0.0
 10
2.962200787401575
 20
-12.90113779527559
 30
0.0
 10
2.978165354330709
 20
-12.88725196850394
 30
0.0
 10
3.046909448818897
 20
-12.85114173228346
 30
0.0
 10
3.046909448818897
 20
-12.85114173228346
 30
0.0
 10
3.115653543307086
 20
-12.81503149606299
 30
0.0
 10
3.237185039370079
 20
-12.75670078740158
 30
0.0
 10
3.318086614173228
 20
-12.70843700787402
 30
0.0
 10
3.318086614173228
 20
-12.70843700787402
 30
0.0
 10
3.398992125984252
 20
-12.66017322834646
 30
0.0
 10
3.439267716535433
 20
-12.62197637795276
 30
0.0
 10
3.462531496062992
 20
-12.58100393700787
 30
0.0
 10
3.462531496062992
 20
-12.58100393700787
 30
0.0
 10
3.485799212598425
 20
-12.54003149606299
 30
0.0
 10
3.492047244094488
 20
-12.49628346456693
 30
0.0
 10
3.489964566929134
 20
-12.44211811023622
 30
0.0
 10
3.489964566929134
 20
-12.44211811023622
 30
0.0
 10
3.487881889763779
 20
-12.38794881889764
 30
0.0
 10
3.477464566929134
 20
-12.32336220472441
 30
0.0
 10
3.451074803149606
 20
-12.27544881889764
 30
0.0
 10
3.451074803149606
 20
-12.27544881889764
 30
0.0
 10
3.424685039370079
 20
-12.22753149606299
 30
0.0
 10
3.382326771653543
 20
-12.19627952755905
 30
0.0
 10
3.336488188976378
 20
-12.16086614173228
 30
0.0
 10
3.336488188976378
 20
-12.16086614173228
 30
0.0
 10
3.290653543307087
 20
-12.12544881889764
 30
0.0
 10
3.241346456692913
 20
-12.08587007874016
 30
0.0
 10
3.175716535433071
 20
-12.05149606299213
 30
0.0
 10
3.175716535433071
 20
-12.05149606299213
 30
0.0
 10
3.110090551181103
 20
-12.01712204724409
 30
0.0
 10
3.028145669291339
 20
-11.98795275590551
 30
0.0
 10
2.960783464566929
 20
-11.98239763779528
 30
0.0
 10
2.960783464566929
 20
-11.98239763779528
 30
0.0
 10
2.89342125984252
 20
-11.97684251968504
 30
0.0
 10
2.840645669291339
 20
-11.99490157480315
 30
0.0
 10
2.757311023622047
 20
-12.01920866141732
 30
0.0
 10
2.757311023622047
 20
-12.01920866141732
 30
0.0
 10
2.673976377952756
 20
-12.04351181102362
 30
0.0
 10
2.560090551181102
 20
-12.07406692913386
 30
0.0
 10
2.46842125984252
 20
-12.09837401574803
 30
0.0
 10
2.46842125984252
 20
-12.09837401574803
 30
0.0
 10
2.376755905511811
 20
-12.12267716535433
 30
0.0
 10
2.307311023622047
 20
-12.14073228346457
 30
0.0
 10
2.25105905511811
 20
-12.14490157480315
 30
0.0
 10
2.25105905511811
 20
-12.14490157480315
 30
0.0
 10
2.194811023622047
 20
-12.14906692913386
 30
0.0
 10
2.151751968503937
 20
-12.13934251968504
 30
0.0
 10
2.109389763779527
 20
-12.13795669291339
 30
0.0
 10
2.109389763779527
 20
-12.13795669291339
 30
0.0
 10
2.067031496062992
 20
-12.13656692913386
 30
0.0
 10
2.025362204724409
 20
-12.14351181102362
 30
0.0
 10
1.983696850393701
 20
-12.13865354330709
 30
0.0
 10
1.983696850393701
 20
-12.13865354330709
 30
0.0
 10
1.942031496062992
 20
-12.13379133858268
 30
0.0
 10
1.90036220472441
 20
-12.1171220472441
 30
0.0
 10
1.878141732283465
 20
-12.08309448818898
 30
0.0
 10
1.878141732283465
 20
-12.08309448818898
 30
0.0
 10
1.85592125984252
 20
-12.04906692913386
 30
0.0
 10
1.853141732283464
 20
-11.99767716535433
 30
0.0
 10
1.87605905511811
 20
-11.95531496062992
 30
0.0
 10
1.87605905511811
 20
-11.95531496062992
 30
0.0
 10
1.898976377952756
 20
-11.91295275590551
 30
0.0
 10
1.947586614173228
 20
-11.87962204724409
 30
0.0
 10
1.993417322834646
 20
-11.84003937007874
 30
0.0
 10
1.993417322834646
 20
-11.84003937007874
 30
0.0
 10
2.039251968503937
 20
-11.80045275590551
 30
0.0
 10
2.082311023622047
 20
-11.75462204724409
 30
0.0
 10
2.108696850393701
 20
-11.71503937007874
 30
0.0
 10
2.108696850393701
 20
-11.71503937007874
 30
0.0
 10
2.135086614173229
 20
-11.67545275590551
 30
0.0
 10
2.144811023622047
 20
-11.64212204724409
 30
0.0
 10
2.167031496062992
 20
-11.58795669291339
 30
0.0
 10
2.167031496062992
 20
-11.58795669291339
 30
0.0
 10
2.189251968503937
 20
-11.5337874015748
 30
0.0
 10
2.223976377952756
 20
-11.4587874015748
 30
0.0
 10
2.260086614173229
 20
-11.39351181102362
 30
0.0
 10
2.260086614173229
 20
-11.39351181102362
 30
0.0
 10
2.296196850393701
 20
-11.32823228346457
 30
0.0
 10
2.333696850393701
 20
-11.27267716535433
 30
0.0
 10
2.392724409448819
 20
-11.22267716535433
 30
0.0
 10
2.392724409448819
 20
-11.22267716535433
 30
0.0
 10
2.451751968503937
 20
-11.17267716535433
 30
0.0
 10
2.532311023622047
 20
-11.12823228346457
 30
0.0
 10
2.594811023622047
 20
-11.09906692913386
 30
0.0
 10
2.594811023622047
 20
-11.09906692913386
 30
0.0
 10
2.657311023622047
 20
-11.06989763779528
 30
0.0
 10
2.701755905511811
 20
-11.05601181102362
 30
0.0
 10
2.742728346456693
 20
-11.05114960629921
 30
0.0
 10
2.742728346456693
 20
-11.05114960629921
 30
0.0
 10
2.783700787401575
 20
-11.0462874015748
 30
0.0
 10
2.821200787401575
 20
-11.05045669291339
 30
0.0
 10
2.846200787401575
 20
-11.03795669291339
 30
0.0
 10
2.846200787401575
 20
-11.03795669291339
 30
0.0
 10
2.871200787401575
 20
-11.02545669291339
 30
0.0
 10
2.883700787401575
 20
-10.9962874015748
 30
0.0
 10
2.909393700787402
 20
-10.96017716535433
 30
0.0
 10
2.909393700787402
 20
-10.96017716535433
 30
0.0
 10
2.935090551181102
 20
-10.92406692913386
 30
0.0
 10
2.973976377952756
 20
-10.88101181102362
 30
0.0
 10
3.017724409448819
 20
-10.85323622047244
 30
0.0
 10
3.017724409448819
 20
-10.85323622047244
 30
0.0
 10
3.061476377952756
 20
-10.82545669291339
 30
0.0
 10
3.110090551181103
 20
-10.81295669291339
 30
0.0
 10
3.145503937007874
 20
-10.82129133858268
 30
0.0
 10
3.145503937007874
 20
-10.82129133858268
 30
0.0
 10
3.18092125984252
 20
-10.82962204724409
 30
0.0
 10
3.203145669291338
 20
-10.85879133858268
 30
0.0
 10
3.215645669291339
 20
-10.88518110236221
 30
0.0
 10
3.215645669291339
 20
-10.88518110236221
 30
0.0
 10
3.228145669291338
 20
-10.91156692913386
 30
0.0
 10
3.23092125984252
 20
-10.93517716535433
 30
0.0
 10
3.260086614173229
 20
-10.9469842519685
 30
0.0
 10
3.260086614173229
 20
-10.9469842519685
 30
0.0
 10
3.289255905511811
 20
-10.9587874015748
 30
0.0
 10
3.344811023622047
 20
-10.9587874015748
 30
0.0
 10
3.398283464566929
 20
-10.9587874015748
 30
0.0
 10
3.398283464566929
 20
-10.9587874015748
 30
0.0
 10
3.451755905511811
 20
-10.9587874015748
 30
0.0
 10
3.503145669291339
 20
-10.9587874015748
 30
0.0
 10
3.550728346456693
 20
-10.95739763779528
 30
0.0
 10
3.550728346456693
 20
-10.95739763779528
 30
0.0
 10
3.598314960629921
 20
-10.95600393700787
 30
0.0
 10
3.642094488188977
 20
-10.95321653543307
 30
0.0
 10
3.737594488188976
 20
-10.93793700787402
 30
0.0
  0
SPLINE
  5
81
330
1F
100
AcDbEntity
  8
Layer 1
 62
   250
370
    18
100
AcDbSpline
210
0.0
220
0.0
230
1.0
 70
     8
 71
     3
 72
    12
 73
     8
 74
     0
 42
0.000000001
 43
0.0000000001
 40
0.0
 40
0.0
 40
0.0
 40
0.0
 40
0.3333333333333333
 40
0.3333333333333333
 40
0.3333333333333333
 40
0.3333333333333333
 40
1.0
 40
1.0
 40
1.0
 40
1.0
 10
7.646181102362204
 20
-11.60462204724409
 30
0.0
 10
7.643405511811023
 20
-11.69489763779528
 30
0.0
 10
7.640625984251969
 20
-11.78517716535433
 30
0.0
 10
7.620488188976378
 20
-11.87684251968504
 30
0.0
 10
7.620488188976378
 20
-11.87684251968504
 30
0.0
 10
7.600350393700787
 20
-11.96850787401575
 30
0.0
 10
7.562850393700788
 20
-12.06156692913386
 30
0.0
 10
7.525350393700787
 20
-12.15462204724409
 30
0.0
  0
SPLINE
  5
82
330
1F
100
AcDbEntity
  8
Layer 1
 62
   250
370
    18
100
AcDbSpline
210
0.0
220
0.0
230
1.0
 70
     8
 71
     3
 72
    12
 73
     8
 74
     0
 42
0.000000001
 43
0.0000000001
 40
0.0
 40
0.0
 40
0.0
 40
0.0
 40
0.3333333333333333
 40
0.3333333333333333
 40
0.3333333333333333
 40
0.3333333333333333
 40
1.0
 40
1.0
 40
1.0
 40
1.0
 10
7.929515748031496
 20
-11.80045275590551
 30
0.0
 10
7.926740157480315
 20
-11.8837874015748
 30
0.0
 10
7.92396062992126
 20
-11.96711811023622
 30
0.0
 10
7.901740157480315
 20
-12.04698031496063
 30
0.0
 10
7.901740157480315
 20
-12.04698031496063
 30
0.0
 10
7.87951968503937
 20
-12.12684251968504
 30
0.0
 10
7.837850393700787
 20
-12.20322834645669
 30
0.0
 10
7.796185039370079
 20
-12.27961811023622
 30
0.0
  0
SPLINE
  5
83
330
1F
100
AcDbEntity
  8
Layer 1
 62
   250
370
    18
100
AcDbSpline
210
0.0
220
0.0
230
1.0
 70
     8
 71
     3
 72
    16
 73
    12
 74
     0
 42
0.000000001
 43
0.0000000001
 40
0.0
 40
0.0
 40
0.0
 40
0.0
 40
0.25
 40
0.25
 40
0.25
 40
0.25
 40
0.5
 40
0.5
 40
0.5
 40
0.5
 40
1.0
 40
1.0
 40
1.0
 40
1.0
 10
8.262850393700788
 20
-11.95462204724409
 30
0.0
 10
8.267015748031495
 20
-12.01712204724409
 30
0.0
 10
8.271185039370078
 20
-12.07962204724409
 30
0.0
 10
8.26146062992126
 20
-12.1303188976378
 30
0.0
 10
8.26146062992126
 20
-12.1303188976378
 30
0.0
 10
8.251740157480315
 20
-12.18101181102362
 30
0.0
 10
8.22812598425197
 20
-12.21989763779528
 30
0.0
 10
8.19409842519685
 20
-12.25531496062992
 30
0.0
 10
8.19409842519685
 20
-12.25531496062992
 30
0.0
 10
8.160070866141732
 20
-12.29073228346457
 30
0.0
 10
8.115629921259842
 20
-12.32267322834646
 30
0.0
 10
8.071185039370079
 20
-12.35461811023622
 30
0.0
  0
SPLINE
  5
84
330
1F
100
AcDbEntity
  8
Layer 1
 62
   250
370
    18
100
AcDbSpline
210
0.0
220
0.0
230
1.0
 70
     8
 71
     3
 72
    16
 73
    12
 74
     0
 42
0.000000001
 43
0.0000000001
 40
0.0
 40
0.0
 40
0.0
 40
0.0
 40
0.25
 40
0.25
 40
0.25
 40
0.25
 40
0.5
 40
0.5
 40
0.5
 40
0.5
 40
1.0
 40
1.0
 40
1.0
 40
1.0
 10
7.429515748031496
 20
-11.5546220472441
 30
0.0
 10
7.419795275590551
 20
-11.65045669291339
 30
0.0
 10
7.410070866141733
 20
-11.7462874015748
 30
0.0
 10
7.395488188976378
 20
-11.81990157480315
 30
0.0
 10
7.395488188976378
 20
-11.81990157480315
 30
0.0
 10
7.380905511811024
 20
-11.89351181102362
 30
0.0
 10
7.36146062992126
 20
-11.94489763779528
 30
0.0
 10
7.346181102362205
 20
-11.98239763779528
 30
0.0
 10
7.346181102362205
 20
-11.98239763779528
 30
0.0
 10
7.330905511811023
 20
-12.01989763779528
 30
0.0
 10
7.319791338582677
 20
-12.04351181102362
 30
0.0
 10
7.308681102362205
 20
-12.06712204724409
 30
0.0
  0
SPLINE
  5
85
330
1F
100
AcDbEntity
  8
Layer 1
 62
   250
370
    18
100
AcDbSpline
210
0.0
220
0.0
230
1.0
 70
     8
 71
     3
 72
    12
 73
     8
 74
     0
 42
0.000000001
 43
0.0000000001
 40
0.0
 40
0.0
 40
0.0
 40
0.0
 40
0.3333333333333333
 40
0.3333333333333333
 40
0.3333333333333333
 40
0.3333333333333333
 40
1.0
 40
1.0
 40
1.0
 40
1.0
 10
8.521173228346457
 20
-12.11712598425197
 30
0.0
 10
8.510062992125984
 20
-12.16018110236221
 30
0.0
 10
8.498952755905512
 20
-12.20324015748031
 30
0.0
 10
8.481590551181103
 20
-12.2442125984252
 30
0.0
 10
8.481590551181103
 20
-12.2442125984252
 30
0.0
 10
8.464232283464566
 20
-12.28518503937008
 30
0.0
 10
8.44061811023622
 20
-12.32407086614173
 30
0.0
 10
8.417007874015749
 20
-12.36296062992126
 30
0.0
  0
SPLINE
  5
86
330
1F
100
AcDbEntity
  8
Layer 1
 62
   250
370
    18
100
AcDbSpline
210
0.0
220
0.0
230
1.0
 70
     8
 71
     3
 72
    16
 73
    12
 74
     0
 42
0.000000001
 43
0.0000000001
 40
0.0
 40
0.0
 40
0.0
 40
0.0
 40
0.25
 40
0.25
 40
0.25
 40
0.25
 40
0.5
 40
0.5
 40
0.5
 40
0.5
 40
1.0
 40
1.0
 40
1.0
 40
1.0
 10
5.658661417322834
 20
-11.08379527559055
 30
0.0
 10
5.547551181102362
 20
-11.25601968503937
 30
0.0
 10
5.436437007874016
 20
-11.42824015748032
 30
0.0
 10
5.378102362204724
 20
-11.57685433070866
 30
0.0
 10
5.378102362204724
 20
-11.57685433070866
 30
0.0
 10
5.319771653543307
 20
-11.72546456692913
 30
0.0
 10
5.314216535433071
 20
-11.85046456692913
 30
0.0
 10
5.300283464566929
 20
-11.95185039370079
 30
0.0
 10
5.300283464566929
 20
-11.95185039370079
 30
0.0
 10
5.286350393700787
 20
-12.05323228346457
 30
0.0
 10
5.264043307086614
 20
-12.131
 30
0.0
 10
5.241732283464567
 20
-12.20876771653543
 30
0.0
  0
SPLINE
  5
87
330
1F
100
AcDbEntity
  8
Layer 1
 62
   250
370
    18
100
AcDbSpline
210
0.0
220
0.0
230
1.0
 70
     8
 71
     3
 72
    16
 73
    12
 74
     0
 42
0.000000001
 43
0.0000000001
 40
0.0
 40
0.0
 40
0.0
 40
0.0
 40
0.25
 40
0.25
 40
0.25
 40
0.25
 40
0.5
 40
0.5
 40
0.5
 40
0.5
 40
1.0
 40
1.0
 40
1.0
 40
1.0
 10
5.500326771653543
 20
-13.07129921259843
 30
0.0
 10
5.537826771653544
 20
-13.01435433070866
 30
0.0
 10
5.575326771653543
 20
-12.9574094488189
 30
0.0
 10
5.612129921259842
 20
-12.91018897637795
 30
0.0
 10
5.612129921259842
 20
-12.91018897637795
 30
0.0
 10
5.648937007874015
 20
-12.86296456692913
 30
0.0
 10
5.685047244094489
 20
-12.82546456692913
 30
0.0
 10
5.732267716535433
 20
-12.79629921259843
 30
0.0
 10
5.732267716535433
 20
-12.79629921259843
 30
0.0
 10
5.779492125984252
 20
-12.76712992125984
 30
0.0
 10
5.837826771653543
 20
-12.74629921259842
 30
0.0
 10
5.896161417322834
 20
-12.72546456692913
 30
0.0
  0
SPLINE
  5
88
330
1F
100
AcDbEntity
  8
Layer 1
 62
   250
370
    18
100
AcDbSpline
210
0.0
220
0.0
230
1.0
 70
     8
 71
     3
 72
    24
 73
    20
 74
     0
 42
0.000000001
 43
0.0000000001
 40
0.0
 40
0.0
 40
0.0
 40
0.0
 40
0.1666666666666667
 40
0.1666666666666667
 40
0.1666666666666667
 40
0.1666666666666667
 40
0.3333333333333333
 40
0.3333333333333333
 40
0.3333333333333333
 40
0.3333333333333333
 40
0.5
 40
0.5
 40
0.5
 40
0.5
 40
0.6666666666666666
 40
0.6666666666666666
 40
0.6666666666666666
 40
0.6666666666666666
 40
1.0
 40
1.0
 40
1.0
 40
1.0
 10
3.937814960629921
 20
-12.87546062992126
 30
0.0
 10
4.025314960629921
 20
-12.82546062992126
 30
0.0
 10
4.112814960629922
 20
-12.77546062992126
 30
0.0
 10
4.207259842519685
 20
-12.7192125984252
 30
0.0
 10
4.207259842519685
 20
-12.7192125984252
 30
0.0
 10
4.301704724409449
 20
-12.66296062992126
 30
0.0
 10
4.403090551181102
 20
-12.60046456692913
 30
0.0
 10
4.480173228346457
 20
-12.53727165354331
 30
0.0
 10
4.480173228346457
 20
-12.53727165354331
 30
0.0
 10
4.557259842519685
 20
-12.47407480314961
 30
0.0
 10
4.610035433070866
 20
-12.41018503937008
 30
0.0
 10
4.645452755905512
 20
-12.34004724409449
 30
0.0
 10
4.645452755905512
 20
-12.34004724409449
 30
0.0
 10
4.680870078740157
 20
-12.26990551181102
 30
0.0
 10
4.698925196850394
 20
-12.19351968503937
 30
0.0
 10
4.682255905511811
 20
-12.11435433070866
 30
0.0
 10
4.682255905511811
 20
-12.11435433070866
 30
0.0
 10
4.665590551181102
 20
-12.03518503937008
 30
0.0
 10
4.614204724409449
 20
-11.95324015748031
 30
0.0
 10
4.562814960629921
 20
-11.87129527559055
 30
0.0
  0
SPLINE
  5
89
330
1F
100
AcDbEntity
  8
Layer 1
 62
   250
370
    18
100
AcDbSpline
210
0.0
220
0.0
230
1.0
 70
     8
 71
     3
 72
    24
 73
    20
 74
     0
 42
0.000000001
 43
0.0000000001
 40
0.0
 40
0.0
 40
0.0
 40
0.0
 40
0.1666666666666667
 40
0.1666666666666667
 40
0.1666666666666667
 40
0.1666666666666667
 40
0.3333333333333333
 40
0.3333333333333333
 40
0.3333333333333333
 40
0.3333333333333333
 40
0.5
 40
0.5
 40
0.5
 40
0.5
 40
0.6666666666666666
 40
0.6666666666666666
 40
0.6666666666666666
 40
0.6666666666666666
 40
1.0
 40
1.0
 40
1.0
 40
1.0
 10
2.935708661417323
 20
-11.07963385826772
 30
0.0
 10
2.960708661417323
 20
-11.04074409448819
 30
0.0
 10
2.985712598425197
 20
-11.00185433070866
 30
0.0
 10
3.017307086614173
 20
-10.97025590551181
 30
0.0
 10
3.017307086614173
 20
-10.97025590551181
 30
0.0
 10
3.048905511811024
 20
-10.93865748031496
 30
0.0
 10
3.087102362204724
 20
-10.91435433070866
 30
0.0
 10
3.117307086614173
 20
-10.92129921259843
 30
0.0
 10
3.117307086614173
 20
-10.92129921259843
 30
0.0
 10
3.147515748031496
 20
-10.92824409448819
 30
0.0
 10
3.169740157480315
 20
-10.96643700787402
 30
0.0
 10
3.17459842519685
 20
-11.00637007874016
 30
0.0
 10
3.17459842519685
 20
-11.00637007874016
 30
0.0
 10
3.17946062992126
 20
-11.04629921259843
 30
0.0
 10
3.16696062992126
 20
-11.08796850393701
 30
0.0
 10
3.139181102362205
 20
-11.12651181102362
 30
0.0
 10
3.139181102362205
 20
-11.12651181102362
 30
0.0
 10
3.111405511811024
 20
-11.16505118110236
 30
0.0
 10
3.068350393700787
 20
-11.20046456692913
 30
0.0
 10
3.025295275590551
 20
-11.23588188976378
 30
0.0
  0
SPLINE
  5
8A
330
1F
100
AcDbEntity
  8
Layer 1
 62
   250
370
    18
100
AcDbSpline
210
0.0
220
0.0
230
1.0
 70
     8
 71
     3
 72
    20
 73
    16
 74
     0
 42
0.000000001
 43
0.0000000001
 40
0.0
 40
0.0
 40
0.0
 40
0.0
 40
0.2
 40
0.2
 40
0.2
 40
0.2
 40
0.4
 40
0.4
 40
0.4
 40
0.4
 40
0.6
 40
0.6
 40
0.6
 40
0.6
 40
1.0
 40
1.0
 40
1.0
 40
1.0
 10
3.256543307086614
 20
-11.02338188976378
 30
0.0
 10
3.25446062992126
 20
-11.06435433070866
 30
0.0
 10
3.252377952755905
 20
-11.10532677165354
 30
0.0
 10
3.251334645669291
 20
-11.14144094488189
 30
0.0
 10
3.251334645669291
 20
-11.14144094488189
 30
0.0
 10
3.250295275590551
 20
-11.17755118110236
 30
0.0
 10
3.250295275590551
 20
-11.20879921259843
 30
0.0
 10
3.235015748031496
 20
-11.23796850393701
 30
0.0
 10
3.235015748031496
 20
-11.23796850393701
 30
0.0
 10
3.219740157480315
 20
-11.26713385826772
 30
0.0
 10
3.189181102362205
 20
-11.29421653543307
 30
0.0
 10
3.154456692913386
 20
-11.31956299212598
 30
0.0
 10
3.154456692913386
 20
-11.31956299212598
 30
0.0
 10
3.119736220472441
 20
-11.3449094488189
 30
0.0
 10
3.080850393700787
 20
-11.36852362204724
 30
0.0
 10
3.04196062992126
 20
-11.39213385826772
 30
0.0
  0
SPLINE
  5
8B
330
1F
100
AcDbEntity
  8
Layer 1
 62
   250
370
    18
100
AcDbSpline
210
0.0
220
0.0
230
1.0
 70
     8
 71
     3
 72
    12
 73
     8
 74
     0
 42
0.000000001
 43
0.0000000001
 40
0.0
 40
0.0
 40
0.0
 40
0.0
 40
0.3333333333333333
 40
0.3333333333333333
 40
0.3333333333333333
 40
0.3333333333333333
 40
1.0
 40
1.0
 40
1.0
 40
1.0
 10
2.041948818897638
 20
-11.89005118110236
 30
0.0
 10
2.051673228346456
 20
-11.91574409448819
 30
0.0
 10
2.061393700787402
 20
-11.94144094488189
 30
0.0
 10
2.065909448818898
 20
-11.9706062992126
 30
0.0
 10
2.065909448818898
 20
-11.9706062992126
 30
0.0
 10
2.070425196850394
 20
-11.99977165354331
 30
0.0
 10
2.069728346456693
 20
-12.03241338582677
 30
0.0
 10
2.069035433070866
 20
-12.06505118110236
 30
0.0
  0
SPLINE
  5
8C
330
1F
100
AcDbEntity
  8
Layer 1
 62
   250
370
    18
100
AcDbSpline
210
0.0
220
0.0
230
1.0
 70
     8
 71
     3
 72
    56
 73
    52
 74
     0
 42
0.000000001
 43
0.0000000001
 40
0.0
 40
0.0
 40
0.0
 40
0.0
 40
0.0714285714285714
 40
0.0714285714285714
 40
0.0714285714285714
 40
0.0714285714285714
 40
0.1428571428571428
 40
0.1428571428571428
 40
0.1428571428571428
 40
0.1428571428571428
 40
0.2142857142857143
 40
0.2142857142857143
 40
0.2142857142857143
 40
0.2142857142857143
 40
0.2857142857142857
 40
0.2857142857142857
 40
0.2857142857142857
 40
0.2857142857142857
 40
0.3571428571428572
 40
0.3571428571428572
 40
0.3571428571428572
 40
0.3571428571428572
 40
0.4285714285714285
 40
0.4285714285714285
 40
0.4285714285714285
 40
0.4285714285714285
 40
0.5
 40
0.5
 40
0.5
 40
0.5
 40
0.5714285714285714
 40
0.5714285714285714
 40
0.5714285714285714
 40
0.5714285714285714
 40
0.6428571428571429
 40
0.6428571428571429
 40
0.6428571428571429
 40
0.6428571428571429
 40
0.7142857142857143
 40
0.7142857142857143
 40
0.7142857142857143
 40
0.7142857142857143
 40
0.7857142857142857
 40
0.7857142857142857
 40
0.7857142857142857
 40
0.7857142857142857
 40
0.8571428571428571
 40
0.8571428571428571
 40
0.8571428571428571
 40
0.8571428571428571
 40
1.0
 40
1.0
 40
1.0
 40
1.0
 10
2.427362204724409
 20
-11.53588188976378
 30
0.0
 10
2.459307086614173
 20
-11.54977165354331
 30
0.0
 10
2.491248031496063
 20
-11.56366141732283
 30
0.0
 10
2.525275590551181
 20
-11.57963385826772
 30
0.0
 10
2.525275590551181
 20
-11.57963385826772
 30
0.0
 10
2.559303149606299
 20
-11.5956062992126
 30
0.0
 10
2.595417322834646
 20
-11.61366141732283
 30
0.0
 10
2.631874015748032
 20
-11.63033070866142
 30
0.0
 10
2.631874015748032
 20
-11.63033070866142
 30
0.0
 10
2.668334645669291
 20
-11.64699606299213
 30
0.0
 10
2.70513779527559
 20
-11.66227165354331
 30
0.0
 10
2.740555118110236
 20
-11.67824409448819
 30
0.0
 10
2.740555118110236
 20
-11.67824409448819
 30
0.0
 10
2.775972440944882
 20
-11.69421653543307
 30
0.0
 10
2.810003937007874
 20
-11.71088582677165
 30
0.0
 10
2.84159842519685
 20
-11.72546850393701
 30
0.0
 10
2.84159842519685
 20
-11.72546850393701
 30
0.0
 10
2.873196850393701
 20
-11.74005118110236
 30
0.0
 10
2.902366141732283
 20
-11.75255118110236
 30
0.0
 10
2.88396062992126
 20
-11.76435826771653
 30
0.0
 10
2.88396062992126
 20
-11.76435826771653
 30
0.0
 10
2.86555905511811
 20
-11.77616141732283
 30
0.0
 10
2.799586614173228
 20
-11.78727165354331
 30
0.0
 10
2.762433070866142
 20
-11.81470472440945
 30
0.0
 10
2.762433070866142
 20
-11.81470472440945
 30
0.0
 10
2.725279527559055
 20
-11.84213385826772
 30
0.0
 10
2.716948818897638
 20
-11.88588188976378
 30
0.0
 10
2.698196850393701
 20
-11.91088582677165
 30
0.0
 10
2.698196850393701
 20
-11.91088582677165
 30
0.0
 10
2.679444881889764
 20
-11.93588582677165
 30
0.0
 10
2.650279527559055
 20
-11.94213385826772
 30
0.0
 10
2.622846456692913
 20
-11.94873228346457
 30
0.0
 10
2.622846456692913
 20
-11.94873228346457
 30
0.0
 10
2.595417322834646
 20
-11.95533070866142
 30
0.0
 10
2.569720472440945
 20
-11.96227165354331
 30
0.0
 10
2.529791338582677
 20
-11.9535905511811
 30
0.0
 10
2.529791338582677
 20
-11.9535905511811
 30
0.0
 10
2.489862204724409
 20
-11.9449094488189
 30
0.0
 10
2.435692913385827
 20
-11.9206062992126
 30
0.0
 10
2.385692913385827
 20
-11.89005118110236
 30
0.0
 10
2.385692913385827
 20
-11.89005118110236
 30
0.0
 10
2.335692913385827
 20
-11.85949212598425
 30
0.0
 10
2.289858267716535
 20
-11.82268897637795
 30
0.0
 10
2.272149606299213
 20
-11.79039763779527
 30
0.0
 10
2.272149606299213
 20
-11.79039763779527
 30
0.0
 10
2.25444094488189
 20
-11.7581062992126
 30
0.0
 10
2.264858267716535
 20
-11.73032677165354
 30
0.0
 10
2.277704724409449
 20
-11.70984251968504
 30
0.0
 10
2.277704724409449
 20
-11.70984251968504
 30
0.0
 10
2.290555118110236
 20
-11.68935433070866
 30
0.0
 10
2.305830708661417
 20
-11.67616141732283
 30
0.0
 10
2.321110236220473
 20
-11.66296456692913
 30
0.0
  0
SPLINE
  5
8D
330
1F
100
AcDbEntity
  8
Layer 1
 62
   250
370
    18
100
AcDbSpline
210
0.0
220
0.0
230
1.0
 70
    11
 71
     3
 72
    36
 73
    32
 74
     0
 42
0.000000001
 43
0.0000000001
 40
0.0
 40
0.0
 40
0.0
 40
0.0
 40
0.1111111111111111
 40
0.1111111111111111
 40
0.1111111111111111
 40
0.1111111111111111
 40
0.2222222222222222
 40
0.2222222222222222
 40
0.2222222222222222
 40
0.2222222222222222
 40
0.3333333333333333
 40
0.3333333333333333
 40
0.3333333333333333
 40
0.3333333333333333
 40
0.4444444444444444
 40
0.4444444444444444
 40
0.4444444444444444
 40
0.4444444444444444
 40
0.5555555555555556
 40
0.5555555555555556
 40
0.5555555555555556
 40
0.5555555555555556
 40
0.6666666666666666
 40
0.6666666666666666
 40
0.6666666666666666
 40
0.6666666666666666
 40
0.7777777777777778
 40
0.7777777777777778
 40
0.7777777777777778
 40
0.7777777777777778
 40
1.0
 40
1.0
 40
1.0
 40
1.0
 10
2.404606299212598
 20
-11.60168503937008
 30
0.0
 10
2.399224409448819
 20
-11.60845669291339
 30
0.0
 10
2.392976377952756
 20
-11.61956692913386
 30
0.0
 10
2.391759842519685
 20
-11.63172047244094
 30
0.0
 10
2.391759842519685
 20
-11.63172047244094
 30
0.0
 10
2.390543307086614
 20
-11.64387401574803
 30
0.0
 10
2.394366141732283
 20
-11.65706692913386
 30
0.0
 10
2.409468503937008
 20
-11.66540157480315
 30
0.0
 10
2.409468503937008
 20
-11.66540157480315
 30
0.0
 10
2.424574803149606
 20
-11.67373622047244
 30
0.0
 10
2.45096062992126
 20
-11.67720472440945
 30
0.0
 10
2.468149606299213
 20
-11.67043700787402
 30
0.0
 10
2.468149606299213
 20
-11.67043700787402
 30
0.0
 10
2.485338582677165
 20
-11.66366535433071
 30
0.0
 10
2.49332283464567
 20
-11.64664960629921
 30
0.0
 10
2.492629921259843
 20
-11.63137401574803
 30
0.0
 10
2.492629921259843
 20
-11.63137401574803
 30
0.0
 10
2.491937007874016
 20
-11.61609448818898
 30
0.0
 10
2.48255905511811
 20
-11.60255511811024
 30
0.0
 10
2.472141732283465
 20
-11.59457086614173
 30
0.0
 10
2.472141732283465
 20
-11.59457086614173
 30
0.0
 10
2.461728346456693
 20
-11.58658267716535
 30
0.0
 10
2.450267716535433
 20
-11.58414960629921
 30
0.0
 10
2.441240157480315
 20
-11.58432283464567
 30
0.0
 10
2.441240157480315
 20
-11.58432283464567
 30
0.0
 10
2.432212598425197
 20
-11.58449606299213
 30
0.0
 10
2.425618110236221
 20
-11.58727559055118
 30
0.0
 10
2.42005905511811
 20
-11.58988188976378
 30
0.0
 10
2.42005905511811
 20
-11.58988188976378
 30
0.0
 10
2.414503937007874
 20
-11.5924842519685
 30
0.0
 10
2.409992125984252
 20
-11.59491338582677
 30
0.0
 10
2.404606299212598
 20
-11.60168503937008
 30
0.0
  0
SPLINE
  5
8E
330
1F
100
AcDbEntity
  8
Layer 1
 62
   250
370
    18
100
AcDbSpline
210
0.0
220
0.0
230
1.0
 70
     8
 71
     3
 72
    20
 73
    16
 74
     0
 42
0.000000001
 43
0.0000000001
 40
0.0
 40
0.0
 40
0.0
 40
0.0
 40
0.2
 40
0.2
 40
0.2
 40
0.2
 40
0.4
 40
0.4
 40
0.4
 40
0.4
 40
0.6
 40
0.6
 40
0.6
 40
0.6
 40
1.0
 40
1.0
 40
1.0
 40
1.0
 10
2.211704724409449
 20
-11.66193307086614
 30
0.0
 10
2.237397637795276
 20
-11.61679527559055
 30
0.0
 10
2.263094488188977
 20
-11.57165354330709
 30
0.0
 10
2.290870078740157
 20
-11.51748818897638
 30
0.0
 10
2.290870078740157
 20
-11.51748818897638
 30
0.0
 10
2.318649606299213
 20
-11.46331889763779
 30
0.0
 10
2.348507874015748
 20
-11.40012598425197
 30
0.0
 10
2.391562992125984
 20
-11.34943307086614
 30
0.0
 10
2.391562992125984
 20
-11.34943307086614
 30
0.0
 10
2.434622047244094
 20
-11.29873622047244
 30
0.0
 10
2.490870078740158
 20
-11.26053937007874
 30
0.0
 10
2.537051181102362
 20
-11.23588976377953
 30
0.0
 10
2.537051181102362
 20
-11.23588976377953
 30
0.0
 10
2.583232283464567
 20
-11.21123622047244
 30
0.0
 10
2.619346456692913
 20
-11.2001220472441
 30
0.0
 10
2.655456692913386
 20
-11.18901181102362
 30
0.0
  0
ENDSEC
  0
SECTION
  2
OBJECTS
  0
DICTIONARY
  5
C
330
0
100
AcDbDictionary
281
     1
  3
ACAD_DETAILVIEWSTYLE
350
CA
  3
ACAD_GROUP
350
D
  3
ACAD_LAYOUT
350
1A
  3
ACAD_MATERIAL
350
43
  3
ACAD_MLEADERSTYLE
350
6B
  3
ACAD_MLINESTYLE
350
17
  3
ACAD_PLOTSETTINGS
350
19
  3
ACAD_PLOTSTYLENAME
350
E
  3
ACAD_SCALELIST
350
47
  3
ACAD_SECTIONVIEWSTYLE
350
CB
  3
ACAD_TABLESTYLE
350
69
  3
ACAD_VISUALSTYLE
350
2A
  3
ACDB_RECOMPOSE_DATA
350
C7
  3
AcDbVariableDictionary
350
8F
  0
SUN
  5
6D
330
29
100
AcDbSun
 90
        1
290
     0
 63
     7
421
 16777215
 40
1.0
291
     1
 91
  2455826
 92
 54000000
292
     0
 70
     2
 71
   256
280
     1
  0
DICTIONARY
  5
CA
102
{ACAD_REACTORS
330
C
102
}
330
C
100
AcDbDictionary
281
     1
  0
DICTIONARY
  5
D
102
{ACAD_REACTORS
330
C
102
}
330
C
100
AcDbDictionary
281
     1
  0
DICTIONARY
  5
1A
102
{ACAD_REACTORS
330
C
102
}
330
C
100
AcDbDictionary
281
     1
  3
Layout1
350
1E
  3
Layout2
350
26
  3
Model
350
22
  0
DICTIONARY
  5
43
102
{ACAD_REACTORS
330
C
102
}
330
C
100
AcDbDictionary
281
     1
  3
ByBlock
350
45
  3
ByLayer
350
44
  3
Global
350
46
  0
DICTIONARY
  5
6B
102
{ACAD_REACTORS
330
C
102
}
330
C
100
AcDbDictionary
281
     1
  3
Standard
350
6C
  0
DICTIONARY
  5
17
102
{ACAD_REACTORS
330
C
102
}
330
C
100
AcDbDictionary
281
     1
  3
Standard
350
18
  0
DICTIONARY
  5
19
102
{ACAD_REACTORS
330
C
102
}
330
C
100
AcDbDictionary
281
     1
  0
ACDBDICTIONARYWDFLT
  5
E
102
{ACAD_REACTORS
330
C
102
}
330
C
100
AcDbDictionary
281
     1
  3
Normal
350
F
100
AcDbDictionaryWithDefault
340
F
  0
DICTIONARY
  5
47
102
{ACAD_REACTORS
330
C
102
}
330
C
100
AcDbDictionary
281
     1
  3
A0
350
48
  3
A1
350
49
  3
A2
350
4A
  3
A3
350
4B
  3
A4
350
4C
  3
A5
350
4D
  3
A6
350
4E
  3
A7
350
4F
  3
A8
350
50
  3
A9
350
51
  3
B0
350
52
  3
B1
350
53
  3
B2
350
54
  3
B3
350
55
  3
B4
350
56
  3
B5
350
57
  3
B6
350
58
  3
B7
350
59
  3
B8
350
5A
  3
B9
350
5B
  3
C0
350
5C
  3
C1
350
5D
  3
C2
350
5E
  3
C3
350
5F
  3
C4
350
60
  3
C5
350
61
  3
C6
350
62
  3
C7
350
63
  3
C8
350
64
  3
C9
350
65
  3
D0
350
66
  3
D1
350
67
  3
D2
350
68
  0
DICTIONARY
  5
CB
102
{ACAD_REACTORS
330
C
102
}
330
C
100
AcDbDictionary
281
     1
  0
DICTIONARY
  5
69
102
{ACAD_REACTORS
330
C
102
}
330
C
100
AcDbDictionary
281
     1
  3
Standard
350
6A
  0
DICTIONARY
  5
2A
102
{ACAD_REACTORS
330
C
102
}
330
C
100
AcDbDictionary
281
     1
  3
2dWireframe
350
2F
  3
Basic
350
32
  3
Brighten
350
36
  3
ColorChange
350
3A
  3
Conceptual
350
34
  3
Dim
350
35
  3
EdgeColorOff
350
3D
  3
Facepattern
350
39
  3
Flat
350
2B
  3
FlatWithEdges
350
2C
  3
Gouraud
350
2D
  3
GouraudWithEdges
350
2E
  3
Hidden
350
31
  3
JitterOff
350
3B
  3
Linepattern
350
38
  3
OverhangOff
350
3C
  3
Realistic
350
33
  3
Shaded
350
42
  3
Shaded with edges
350
41
  3
Shades of Gray
350
3E
  3
Sketchy
350
3F
  3
Thicken
350
37
  3
Wireframe
350
30
  3
X-Ray
350
40
  0
XRECORD
  5
C7
102
{ACAD_REACTORS
330
C
102
}
330
C
100
AcDbXrecord
280
     1
 90
        1
330
6A
  0
DICTIONARY
  5
8F
102
{ACAD_REACTORS
330
C
102
}
330
C
100
AcDbDictionary
281
     1
  3
CANNOSCALE
350
90
  3
CMLEADERSTYLE
350
C9
  3
CTABLESTYLE
350
C8
  3
XCLIPFRAME
350
91
  0
LAYOUT
  5
1E
102
{ACAD_REACTORS
330
1A
102
}
330
1A
100
AcDbPlotSettings
  1

  2
none_device
  4

  6

 40
0.0
 41
0.0
 42
0.0
 43
0.0
 44
0.0
 45
0.0
 46
0.0
 47
0.0
 48
0.0
 49
0.0
140
0.0
141
0.0
142
1.0
143
1.0
 70
   688
 72
     0
 73
     0
 74
     5
  7

 75
    16
 76
     0
 77
     2
 78
   300
147
1.0
148
0.0
149
0.0
100
AcDbLayout
  1
Layout1
 70
     1
 71
     1
 10
0.0
 20
0.0
 11
12.0
 21
9.0
 12
0.0
 22
0.0
 32
0.0
 14
1.000000000000000E 20
 24
1.000000000000000E 20
 34
1.000000000000000E 20
 15
-1.000000000000000E 20
 25
-1.000000000000000E 20
 35
-1.000000000000000E 20
146
0.0
 13
0.0
 23
0.0
 33
0.0
 16
1.0
 26
0.0
 36
0.0
 17
0.0
 27
1.0
 37
0.0
 76
     0
330
1B
  0
LAYOUT
  5
26
102
{ACAD_REACTORS
330
1A
102
}
330
1A
100
AcDbPlotSettings
  1

  2
none_device
  4

  6

 40
0.0
 41
0.0
 42
0.0
 43
0.0
 44
0.0
 45
0.0
 46
0.0
 47
0.0
 48
0.0
 49
0.0
140
0.0
141
0.0
142
1.0
143
1.0
 70
   688
 72
     0
 73
     0
 74
     5
  7

 75
    16
 76
     0
 77
     2
 78
   300
147
1.0
148
0.0
149
0.0
100
AcDbLayout
  1
Layout2
 70
     1
 71
     2
 10
0.0
 20
0.0
 11
0.0
 21
0.0
 12
0.0
 22
0.0
 32
0.0
 14
0.0
 24
0.0
 34
0.0
 15
0.0
 25
0.0
 35
0.0
146
0.0
 13
0.0
 23
0.0
 33
0.0
 16
1.0
 26
0.0
 36
0.0
 17
0.0
 27
1.0
 37
0.0
 76
     0
330
23
  0
LAYOUT
  5
22
102
{ACAD_REACTORS
330
1A
102
}
330
1A
100
AcDbPlotSettings
  1

  2
none_device
  4
Letter_(8.50_x_11.00_Inches)
  6

 40
6.35
 41
6.35
 42
6.35000508
 43
6.35000508
 44
215.9
 45
279.4
 46
0.0
 47
0.0
 48
0.0
 49
0.0
140
0.0
141
0.0
142
1.0
143
1.0
 70
  1712
 72
     0
 73
     0
 74
     0
  7

 75
     0
 76
     0
 77
     2
 78
   300
147
1.0
148
0.0
149
0.0
100
AcDbLayout
  1
Model
 70
     1
 71
     0
 10
0.0
 20
0.0
 11
12.0
 21
9.0
 12
0.0
 22
0.0
 32
0.0
 14
-12.72771653543307
 24
-15.77696850393701
 34
0.0
 15
14.82989763779528
 25
0.1044251968503937
 35
0.0
146
0.0
 13
0.0
 23
0.0
 33
0.0
 16
1.0
 26
0.0
 36
0.0
 17
0.0
 27
1.0
 37
0.0
 76
     0
330
1F
331
29
  0
MATERIAL
  5
45
102
{ACAD_REACTORS
330
43
102
}
330
43
100
AcDbMaterial
  1
ByBlock
 72
     1
 94
      127
  0
MATERIAL
  5
44
102
{ACAD_REACTORS
330
43
102
}
330
43
100
AcDbMaterial
  1
ByLayer
 72
     1
 94
      127
  0
MATERIAL
  5
46
102
{ACAD_REACTORS
330
43
102
}
330
43
100
AcDbMaterial
  1
Global
 72
     1
 94
      127
  0
MLEADERSTYLE
  5
6C
102
{ACAD_REACTORS
330
6B
102
}
102
{ACAD_XDICTIONARY
360
C5
102
}
330
6B
100
AcDbMLeaderStyle
170
     2
171
     1
172
     0
 90
        2
 40
0.0
 41
0.0
173
     1
 91
-1056964608
340
14
 92
       -2
290
     1
 42
0.09
291
     1
 43
0.36
  3
Standard
341
0
 44
0.18
300

342
11
174
     1
178
     6
175
     1
176
     0
 93
-1056964608
 45
0.18
292
     0
297
     0
 46
0.18
343
0
 94
-1056964608
 47
1.0
 49
1.0
140
1.0
293
     1
141
0.0
294
     1
177
     0
142
1.0
295
     0
296
     0
143
0.125
1001
ACAD_MLEADERVER
1070
     2
  0
MLINESTYLE
  5
18
102
{ACAD_REACTORS
330
17
102
}
330
17
100
AcDbMlineStyle
  2
Standard
 70
     0
  3

 62
   256
 51
90.0
 52
90.0
 71
     2
 49
0.5
 62
   256
  6
BYLAYER
 49
-0.5
 62
   256
  6
BYLAYER
  0
ACDBPLACEHOLDER
  5
F
102
{ACAD_REACTORS
330
E
102
}
330
E
  0
SCALE
  5
48
102
{ACAD_REACTORS
330
47
102
}
330
47
100
AcDbScale
 70
     0
300
1:1
140
1.0
141
1.0
290
     1
  0
SCALE
  5
49
102
{ACAD_REACTORS
330
47
102
}
330
47
100
AcDbScale
 70
     0
300
1:2
140
1.0
141
2.0
290
     0
  0
SCALE
  5
4A
102
{ACAD_REACTORS
330
47
102
}
330
47
100
AcDbScale
 70
     0
300
1:4
140
1.0
141
4.0
290
     0
  0
SCALE
  5
4B
102
{ACAD_REACTORS
330
47
102
}
330
47
100
AcDbScale
 70
     0
300
1:5
140
1.0
141
5.0
290
     0
  0
SCALE
  5
4C
102
{ACAD_REACTORS
330
47
102
}
330
47
100
AcDbScale
 70
     0
300
1:8
140
1.0
141
8.0
290
     0
  0
SCALE
  5
4D
102
{ACAD_REACTORS
330
47
102
}
330
47
100
AcDbScale
 70
     0
300
1:10
140
1.0
141
10.0
290
     0
  0
SCALE
  5
4E
102
{ACAD_REACTORS
330
47
102
}
330
47
100
AcDbScale
 70
     0
300
1:16
140
1.0
141
16.0
290
     0
  0
SCALE
  5
4F
102
{ACAD_REACTORS
330
47
102
}
330
47
100
AcDbScale
 70
     0
300
1:20
140
1.0
141
20.0
290
     0
  0
SCALE
  5
50
102
{ACAD_REACTORS
330
47
102
}
330
47
100
AcDbScale
 70
     0
300
1:30
140
1.0
141
30.0
290
     0
  0
SCALE
  5
51
102
{ACAD_REACTORS
330
47
102
}
330
47
100
AcDbScale
 70
     0
300
1:40
140
1.0
141
40.0
290
     0
  0
SCALE
  5
52
102
{ACAD_REACTORS
330
47
102
}
330
47
100
AcDbScale
 70
     0
300
1:50
140
1.0
141
50.0
290
     0
  0
SCALE
  5
53
102
{ACAD_REACTORS
330
47
102
}
330
47
100
AcDbScale
 70
     0
300
1:100
140
1.0
141
100.0
290
     0
  0
SCALE
  5
54
102
{ACAD_REACTORS
330
47
102
}
330
47
100
AcDbScale
 70
     0
300
2:1
140
2.0
141
1.0
290
     0
  0
SCALE
  5
55
102
{ACAD_REACTORS
330
47
102
}
330
47
100
AcDbScale
 70
     0
300
4:1
140
4.0
141
1.0
290
     0
  0
SCALE
  5
56
102
{ACAD_REACTORS
330
47
102
}
330
47
100
AcDbScale
 70
     0
300
8:1
140
8.0
141
1.0
290
     0
  0
SCALE
  5
57
102
{ACAD_REACTORS
330
47
102
}
330
47
100
AcDbScale
 70
     0
300
10:1
140
10.0
141
1.0
290
     0
  0
SCALE
  5
58
102
{ACAD_REACTORS
330
47
102
}
330
47
100
AcDbScale
 70
     0
300
100:1
140
100.0
141
1.0
290
     0
  0
SCALE
  5
59
102
{ACAD_REACTORS
330
47
102
}
330
47
100
AcDbScale
 70
     0
300
1/128\" = 1\'-0\"
140
0.0078125
141
12.0
290
     0
  0
SCALE
  5
5A
102
{ACAD_REACTORS
330
47
102
}
330
47
100
AcDbScale
 70
     0
300
1/64\" = 1\'-0\"
140
0.015625
141
12.0
290
     0
  0
SCALE
  5
5B
102
{ACAD_REACTORS
330
47
102
}
330
47
100
AcDbScale
 70
     0
300
1/32\" = 1\'-0\"
140
0.03125
141
12.0
290
     0
  0
SCALE
  5
5C
102
{ACAD_REACTORS
330
47
102
}
330
47
100
AcDbScale
 70
     0
300
1/16\" = 1\'-0\"
140
0.0625
141
12.0
290
     0
  0
SCALE
  5
5D
102
{ACAD_REACTORS
330
47
102
}
330
47
100
AcDbScale
 70
     0
300
3/32\" = 1\'-0\"
140
0.09375
141
12.0
290
     0
  0
SCALE
  5
5E
102
{ACAD_REACTORS
330
47
102
}
330
47
100
AcDbScale
 70
     0
300
1/8\" = 1\'-0\"
140
0.125
141
12.0
290
     0
  0
SCALE
  5
5F
102
{ACAD_REACTORS
330
47
102
}
330
47
100
AcDbScale
 70
     0
300
3/16\" = 1\'-0\"
140
0.1875
141
12.0
290
     0
  0
SCALE
  5
60
102
{ACAD_REACTORS
330
47
102
}
330
47
100
AcDbScale
 70
     0
300
1/4\" = 1\'-0\"
140
0.25
141
12.0
290
     0
  0
SCALE
  5
61
102
{ACAD_REACTORS
330
47
102
}
330
47
100
AcDbScale
 70
     0
300
3/8\" = 1\'-0\"
140
0.375
141
12.0
290
     0
  0
SCALE
  5
62
102
{ACAD_REACTORS
330
47
102
}
330
47
100
AcDbScale
 70
     0
300
1/2\" = 1\'-0\"
140
0.5
141
12.0
290
     0
  0
SCALE
  5
63
102
{ACAD_REACTORS
330
47
102
}
330
47
100
AcDbScale
 70
     0
300
3/4\" = 1\'-0\"
140
0.75
141
12.0
290
     0
  0
SCALE
  5
64
102
{ACAD_REACTORS
330
47
102
}
330
47
100
AcDbScale
 70
     0
300
1\" = 1\'-0\"
140
1.0
141
12.0
290
     0
  0
SCALE
  5
65
102
{ACAD_REACTORS
330
47
102
}
330
47
100
AcDbScale
 70
     0
300
1-1/2\" = 1\'-0\"
140
1.5
141
12.0
290
     0
  0
SCALE
  5
66
102
{ACAD_REACTORS
330
47
102
}
330
47
100
AcDbScale
 70
     0
300
3\" = 1\'-0\"
140
3.0
141
12.0
290
     0
  0
SCALE
  5
67
102
{ACAD_REACTORS
330
47
102
}
330
47
100
AcDbScale
 70
     0
300
6\" = 1\'-0\"
140
6.0
141
12.0
290
     0
  0
SCALE
  5
68
102
{ACAD_REACTORS
330
47
102
}
330
47
100
AcDbScale
 70
     0
300
1\'-0\" = 1\'-0\"
140
12.0
141
12.0
290
     0
  0
TABLESTYLE
  5
6A
102
{ACAD_REACTORS
330
69
102
}
102
{ACAD_XDICTIONARY
360
C2
102
}
330
69
100
AcDbTableStyle
  3
Standard
 70
     0
 71
     0
 40
0.06
 41
0.06
280
     0
281
     0
  7
Standard
140
0.18
170
     2
 62
     0
 63
   257
283
     0
 90
        4
 91
        0
  1

274
    -2
284
     1
 64
     0
275
    -2
285
     1
 65
     0
276
    -2
286
     1
 66
     0
277
    -2
287
     1
 67
     0
278
    -2
288
     1
 68
     0
279
    -2
289
     1
 69
     0
  7
Standard
140
0.25
170
     5
 62
     0
 63
   257
283
     0
 90
        4
 91
        0
  1

274
    -2
284
     1
 64
     0
275
    -2
285
     1
 65
     0
276
    -2
286
     1
 66
     0
277
    -2
287
     1
 67
     0
278
    -2
288
     1
 68
     0
279
    -2
289
     1
 69
     0
  7
Standard
140
0.18
170
     5
 62
     0
 63
   257
283
     0
 90
        4
 91
        0
  1

274
    -2
284
     1
 64
     0
275
    -2
285
     1
 65
     0
276
    -2
286
     1
 66
     0
277
    -2
287
     1
 67
     0
278
    -2
288
     1
 68
     0
279
    -2
289
     1
 69
     0
  0
VISUALSTYLE
  5
2F
102
{ACAD_REACTORS
330
2A
102
}
102
{ACAD_XDICTIONARY
360
9A
102
}
330
2A
100
AcDbVisualStyle
  2
2dWireframe
 70
     4
 71
     0
 72
     2
 73
     0
 90
        0
 40
0.6
 41
30.0
 62
     5
 63
     7
421
 16777215
 74
     1
 91
        4
 64
     7
 65
   257
 75
     1
175
     1
 42
1.0
 92
        0
 66
   257
 43
1.0
 76
     1
 77
     6
 78
     2
 67
     7
 79
     5
170
     0
171
     0
290
     0
174
     0
 93
        1
 44
0.0
173
     0
291
     0
 45
0.0
  0
VISUALSTYLE
  5
32
102
{ACAD_REACTORS
330
2A
102
}
102
{ACAD_XDICTIONARY
360
A0
102
}
330
2A
100
AcDbVisualStyle
  2
Basic
 70
     7
 71
     1
 72
     0
 73
     1
 90
        0
 40
0.6
 41
30.0
 62
     5
 63
     7
421
 16777215
 74
     0
 91
        4
 64
     7
 65
   257
 75
     1
175
     1
 42
1.0
 92
        8
 66
     7
 43
1.0
 76
     1
 77
     6
 78
     2
 67
     7
 79
     5
170
     0
171
     0
290
     0
174
     0
 93
        1
 44
0.0
173
     0
291
     1
 45
0.0
  0
VISUALSTYLE
  5
36
102
{ACAD_REACTORS
330
2A
102
}
102
{ACAD_XDICTIONARY
360
A8
102
}
330
2A
100
AcDbVisualStyle
  2
Brighten
 70
    12
 71
     2
 72
     2
 73
     0
 90
        0
 40
0.6
 41
30.0
 62
     5
 63
     7
421
 16777215
 74
     1
 91
        4
 64
     7
 65
   257
 75
     1
175
     1
 42
1.0
 92
        8
 66
     7
 43
1.0
 76
     1
 77
     6
 78
     2
 67
     7
 79
     5
170
     0
171
     0
290
     0
174
     0
 93
        1
 44
50.0
173
     0
291
     1
 45
0.0
  0
VISUALSTYLE
  5
3A
102
{ACAD_REACTORS
330
2A
102
}
102
{ACAD_XDICTIONARY
360
B0
102
}
330
2A
100
AcDbVisualStyle
  2
ColorChange
 70
    16
 71
     2
 72
     2
 73
     3
 90
        0
 40
0.6
 41
30.0
 62
     5
 63
     8
421
  8421504
 74
     1
 91
        4
 64
     7
 65
   257
 75
     1
175
     1
 42
1.0
 92
        8
 66
     8
424
  8421504
 43
1.0
 76
     1
 77
     6
 78
     2
 67
     7
 79
     5
170
     0
171
     0
290
     0
174
     0
 93
        1
 44
0.0
173
     0
291
     1
 45
0.0
  0
VISUALSTYLE
  5
34
102
{ACAD_REACTORS
330
2A
102
}
102
{ACAD_XDICTIONARY
360
A4
102
}
330
2A
100
AcDbVisualStyle
  2
Conceptual
 70
     9
 71
     3
 72
     2
 73
     0
 90
        0
 40
0.6
 41
30.0
 62
     5
 63
     7
421
 16777215
 74
     2
 91
        2
 64
     7
 65
   257
 75
     1
175
     1
 42
179.0
 92
        8
 66
     7
 43
1.0
 76
     1
 77
     6
 78
     2
 67
     7
 79
     3
170
     0
171
     0
290
     0
174
     0
 93
        1
 44
0.0
173
     0
291
     0
 45
0.0
  0
VISUALSTYLE
  5
35
102
{ACAD_REACTORS
330
2A
102
}
102
{ACAD_XDICTIONARY
360
A6
102
}
330
2A
100
AcDbVisualStyle
  2
Dim
 70
    11
 71
     2
 72
     2
 73
     0
 90
        0
 40
0.6
 41
30.0
 62
     5
 63
     7
421
 16777215
 74
     1
 91
        4
 64
     7
 65
   257
 75
     1
175
     1
 42
1.0
 92
        8
 66
     7
 43
1.0
 76
     1
 77
     6
 78
     2
 67
     7
 79
     5
170
     0
171
     0
290
     0
174
     0
 93
        1
 44
-50.0
173
     0
291
     1
 45
0.0
  0
VISUALSTYLE
  5
3D
102
{ACAD_REACTORS
330
2A
102
}
102
{ACAD_XDICTIONARY
360
B6
102
}
330
2A
100
AcDbVisualStyle
  2
EdgeColorOff
 70
    22
 71
     2
 72
     2
 73
     0
 90
        0
 40
0.6
 41
30.0
 62
     5
 63
     7
421
 16777215
 74
     1
 91
        4
 64
     7
 65
   257
 75
     1
175
     1
 42
1.0
 92
        8
 66
     7
 43
1.0
 76
     1
 77
     6
 78
     2
 67
     7
 79
     5
170
     0
171
     0
290
     0
174
     0
 93
        1
 44
0.0
173
     0
291
     1
 45
0.0
  0
VISUALSTYLE
  5
39
102
{ACAD_REACTORS
330
2A
102
}
102
{ACAD_XDICTIONARY
360
AE
102
}
330
2A
100
AcDbVisualStyle
  2
Facepattern
 70
    15
 71
     2
 72
     2
 73
     0
 90
        0
 40
0.6
 41
30.0
 62
     5
 63
     7
421
 16777215
 74
     1
 91
        4
 64
     7
 65
   257
 75
     1
175
     1
 42
1.0
 92
        8
 66
     7
 43
1.0
 76
     1
 77
     6
 78
     2
 67
     7
 79
     5
170
     0
171
     0
290
     0
174
     0
 93
        1
 44
0.0
173
     0
291
     1
 45
0.0
  0
VISUALSTYLE
  5
2B
102
{ACAD_REACTORS
330
2A
102
}
102
{ACAD_XDICTIONARY
360
92
102
}
330
2A
100
AcDbVisualStyle
  2
Flat
 70
     0
 71
     2
 72
     1
 73
     1
 90
        2
 40
0.6
 41
30.0
 62
     5
 63
     7
421
 16777215
 74
     0
 91
        0
 64
     7
 65
   257
 75
     1
175
     1
 42
1.0
 92
        8
 66
     7
 43
1.0
 76
     1
 77
     6
 78
     2
 67
     7
 79
     5
170
     0
171
     0
290
     0
174
     0
 93
       13
 44
0.0
173
     0
291
     1
 45
0.0
  0
VISUALSTYLE
  5
2C
102
{ACAD_REACTORS
330
2A
102
}
102
{ACAD_XDICTIONARY
360
94
102
}
330
2A
100
AcDbVisualStyle
  2
FlatWithEdges
 70
     1
 71
     2
 72
     1
 73
     1
 90
        2
 40
0.6
 41
30.0
 62
     5
 63
     7
421
 16777215
 74
     1
 91
        0
 64
     7
 65
   257
 75
     1
175
     1
 42
1.0
 92
        0
 66
   257
 43
1.0
 76
     1
 77
     6
 78
     2
 67
     7
 79
     5
170
     0
171
     0
290
     0
174
     0
 93
       13
 44
0.0
173
     0
291
     1
 45
0.0
  0
VISUALSTYLE
  5
2D
102
{ACAD_REACTORS
330
2A
102
}
102
{ACAD_XDICTIONARY
360
96
102
}
330
2A
100
AcDbVisualStyle
  2
Gouraud
 70
     2
 71
     2
 72
     2
 73
     1
 90
        2
 40
0.6
 41
30.0
 62
     5
 63
     7
421
 16777215
 74
     0
 91
        0
 64
     7
 65
   257
 75
     1
175
     1
 42
1.0
 92
        0
 66
     7
 43
1.0
 76
     1
 77
     6
 78
     2
 67
     7
 79
     5
170
     0
171
     0
290
     0
174
     0
 93
       13
 44
0.0
173
     0
291
     1
 45
0.0
  0
VISUALSTYLE
  5
2E
102
{ACAD_REACTORS
330
2A
102
}
102
{ACAD_XDICTIONARY
360
98
102
}
330
2A
100
AcDbVisualStyle
  2
GouraudWithEdges
 70
     3
 71
     2
 72
     2
 73
     1
 90
        2
 40
0.6
 41
30.0
 62
     5
 63
     7
421
 16777215
 74
     1
 91
        0
 64
     7
 65
   257
 75
     1
175
     1
 42
1.0
 92
        0
 66
   257
 43
1.0
 76
     1
 77
     6
 78
     2
 67
     7
 79
     5
170
     0
171
     0
290
     0
174
     0
 93
       13
 44
0.0
173
     0
291
     1
 45
0.0
  0
VISUALSTYLE
  5
31
102
{ACAD_REACTORS
330
2A
102
}
102
{ACAD_XDICTIONARY
360
9E
102
}
330
2A
100
AcDbVisualStyle
  2
Hidden
 70
     6
 71
     1
 72
     2
 73
     2
 90
        0
 40
0.6
 41
30.0
 62
     5
 63
     7
421
 16777215
 74
     2
 91
        2
 64
     7
 65
   257
 75
     2
175
     1
 42
40.0
 92
        0
 66
   257
 43
1.0
 76
     1
 77
     6
 78
     2
 67
     7
 79
     3
170
     0
171
     0
290
     0
174
     0
 93
        1
 44
0.0
173
     0
291
     0
 45
0.0
  0
VISUALSTYLE
  5
3B
102
{ACAD_REACTORS
330
2A
102
}
102
{ACAD_XDICTIONARY
360
B2
102
}
330
2A
100
AcDbVisualStyle
  2
JitterOff
 70
    20
 71
     2
 72
     2
 73
     0
 90
        0
 40
0.6
 41
30.0
 62
     5
 63
     7
421
 16777215
 74
     1
 91
        4
 64
     7
 65
   257
 75
     1
175
     1
 42
1.0
 92
       10
 66
     7
 43
1.0
 76
     1
 77
     6
 78
     2
 67
     7
 79
     5
170
     0
171
     0
290
     0
174
     0
 93
        1
 44
0.0
173
     0
291
     1
 45
0.0
  0
VISUALSTYLE
  5
38
102
{ACAD_REACTORS
330
2A
102
}
102
{ACAD_XDICTIONARY
360
AC
102
}
330
2A
100
AcDbVisualStyle
  2
Linepattern
 70
    14
 71
     2
 72
     2
 73
     0
 90
        0
 40
0.6
 41
30.0
 62
     5
 63
     7
421
 16777215
 74
     1
 91
        4
 64
     7
 65
   257
 75
     7
175
     7
 42
1.0
 92
        8
 66
     7
 43
1.0
 76
     1
 77
     6
 78
     2
 67
     7
 79
     5
170
     0
171
     0
290
     0
174
     0
 93
        1
 44
0.0
173
     0
291
     1
 45
0.0
  0
VISUALSTYLE
  5
3C
102
{ACAD_REACTORS
330
2A
102
}
102
{ACAD_XDICTIONARY
360
B4
102
}
330
2A
100
AcDbVisualStyle
  2
OverhangOff
 70
    21
 71
     2
 72
     2
 73
     0
 90
        0
 40
0.6
 41
30.0
 62
     5
 63
     7
421
 16777215
 74
     1
 91
        4
 64
     7
 65
   257
 75
     1
175
     1
 42
1.0
 92
        9
 66
     7
 43
1.0
 76
     1
 77
     6
 78
     2
 67
     7
 79
     5
170
     0
171
     0
290
     0
174
     0
 93
        1
 44
0.0
173
     0
291
     1
 45
0.0
  0
VISUALSTYLE
  5
33
102
{ACAD_REACTORS
330
2A
102
}
102
{ACAD_XDICTIONARY
360
A2
102
}
330
2A
100
AcDbVisualStyle
  2
Realistic
 70
     8
 71
     2
 72
     3
 73
     0
 90
        2
 40
0.6
 41
30.0
 62
     5
 63
     7
421
 16777215
 74
     0
 91
        0
 64
     7
 65
   257
 75
     1
175
     1
 42
1.0
 92
        8
 66
   257
 43
1.0
 76
     1
 77
     6
 78
     2
 67
     7
 79
     3
170
     0
171
     0
290
     0
174
     0
 93
       13
 44
0.0
173
     0
291
     0
 45
0.0
  0
VISUALSTYLE
  5
42
102
{ACAD_REACTORS
330
2A
102
}
102
{ACAD_XDICTIONARY
360
C0
102
}
330
2A
100
AcDbVisualStyle
  2
Shaded
 70
    27
 71
     2
 72
     2
 73
     1
 90
        2
 40
0.6
 41
30.0
 62
     5
 63
     7
421
 16777215
 74
     0
 91
        4
 64
     7
 65
   257
 75
     1
175
     1
 42
1.0
 92
        8
 66
   257
 43
1.0
 76
     1
 77
     6
 78
     2
 67
     8
425
  7895160
 79
     3
170
     0
171
     0
290
     0
174
     0
 93
        5
 44
0.0
173
     0
291
     0
 45
0.0
  0
VISUALSTYLE
  5
41
102
{ACAD_REACTORS
330
2A
102
}
102
{ACAD_XDICTIONARY
360
BE
102
}
330
2A
100
AcDbVisualStyle
  2
Shaded with edges
 70
    26
 71
     2
 72
     2
 73
     1
 90
        2
 40
0.6
 41
30.0
 62
     5
 63
     7
421
 16777215
 74
     1
 91
       10
 64
     7
 65
   257
 75
     2
175
     1
 42
1.0
 92
        8
 66
   257
 43
1.0
 76
     1
 77
     6
 78
     2
 67
     7
 79
     3
170
     0
171
     0
290
     0
174
     0
 93
        5
 44
0.0
173
     0
291
     0
 45
0.0
  0
VISUALSTYLE
  5
3E
102
{ACAD_REACTORS
330
2A
102
}
102
{ACAD_XDICTIONARY
360
B8
102
}
330
2A
100
AcDbVisualStyle
  2
Shades of Gray
 70
    23
 71
     2
 72
     2
 73
     3
 90
        0
 40
0.6
 41
30.0
 62
     5
 63
     7
421
 16777215
 74
     2
 91
        2
 64
     7
 65
     7
 75
     1
175
     1
 42
40.0
 92
        8
 66
     7
 43
1.0
 76
     1
 77
     6
 78
     2
 67
     7
 79
     3
170
     0
171
     0
290
     0
174
     0
 93
        1
 44
0.0
173
     0
291
     0
 45
0.0
  0
VISUALSTYLE
  5
3F
102
{ACAD_REACTORS
330
2A
102
}
102
{ACAD_XDICTIONARY
360
BA
102
}
330
2A
100
AcDbVisualStyle
  2
Sketchy
 70
    24
 71
     1
 72
     2
 73
     2
 90
        0
 40
0.6
 41
30.0
 62
     5
 63
     7
421
 16777215
 74
     2
 91
        2
 64
     7
 65
     7
 75
     1
175
     1
 42
40.0
 92
       11
 66
     7
 43
1.0
 76
     1
 77
     6
 78
     2
 67
     7
 79
     6
170
     0
171
     0
290
     0
174
     0
 93
        1
 44
0.0
173
     0
291
     0
 45
0.0
  0
VISUALSTYLE
  5
37
102
{ACAD_REACTORS
330
2A
102
}
102
{ACAD_XDICTIONARY
360
AA
102
}
330
2A
100
AcDbVisualStyle
  2
Thicken
 70
    13
 71
     2
 72
     2
 73
     0
 90
        0
 40
0.6
 41
30.0
 62
     5
 63
     7
421
 16777215
 74
     1
 91
        4
 64
     7
 65
   257
 75
     1
175
     1
 42
1.0
 92
       12
 66
     7
 43
1.0
 76
     1
 77
     6
 78
     2
 67
     7
 79
     5
170
     0
171
     0
290
     0
174
     0
 93
        1
 44
0.0
173
     0
291
     1
 45
0.0
  0
VISUALSTYLE
  5
30
102
{ACAD_REACTORS
330
2A
102
}
102
{ACAD_XDICTIONARY
360
9C
102
}
330
2A
100
AcDbVisualStyle
  2
Wireframe
 70
     5
 71
     0
 72
     2
 73
     0
 90
        0
 40
0.6
 41
30.0
 62
     5
 63
     7
421
 16777215
 74
     1
 91
        4
 64
     7
 65
   257
 75
     1
175
     1
 42
1.0
 92
        0
 66
   257
 43
1.0
 76
     1
 77
     6
 78
     2
 67
     7
 79
     3
170
     0
171
     0
290
     0
174
     0
 93
        1
 44
0.0
173
     0
291
     0
 45
0.0
  0
VISUALSTYLE
  5
40
102
{ACAD_REACTORS
330
2A
102
}
102
{ACAD_XDICTIONARY
360
BC
102
}
330
2A
100
AcDbVisualStyle
  2
X-Ray
 70
    25
 71
     2
 72
     2
 73
     1
 90
        1
 40
0.5
 41
30.0
 62
     5
 63
     7
421
 16777215
 74
     1
 91
        0
 64
     7
 65
   257
 75
     1
175
     1
 42
1.0
 92
        8
 66
     7
 43
1.0
 76
     1
 77
     6
 78
     2
 67
     7
 79
     3
170
     0
171
     0
290
     0
174
     0
 93
       13
 44
0.0
173
     0
291
     0
 45
0.0
  0
DICTIONARYVAR
  5
90
102
{ACAD_REACTORS
330
8F
102
}
330
8F
100
DictionaryVariables
280
     0
  1
1:1
  0
DICTIONARYVAR
  5
C9
102
{ACAD_REACTORS
330
8F
102
}
330
8F
100
DictionaryVariables
280
     0
  1
Standard
  0
DICTIONARYVAR
  5
C8
102
{ACAD_REACTORS
330
8F
102
}
330
8F
100
DictionaryVariables
280
     0
  1
Standard
  0
DICTIONARYVAR
  5
91
102
{ACAD_REACTORS
330
8F
102
}
330
8F
100
DictionaryVariables
280
     0
  1
2
  0
DICTIONARY
  5
C5
330
6C
100
AcDbDictionary
280
     1
281
     1
  3
ACAD_XREC_ROUNDTRIP
360
C6
  0
DICTIONARY
  5
C2
330
6A
100
AcDbDictionary
280
     1
281
     1
  3
ACAD_ROUNDTRIP_2008_TABLESTYLE_CELLSTYLEMAP
360
C3
  0
DICTIONARY
  5
9A
330
2F
100
AcDbDictionary
280
     1
281
     1
  3
ACAD_XREC_ROUNDTRIP
360
9B
  0
DICTIONARY
  5
A0
330
32
100
AcDbDictionary
280
     1
281
     1
  3
ACAD_XREC_ROUNDTRIP
360
A1
  0
DICTIONARY
  5
A8
330
36
100
AcDbDictionary
280
     1
281
     1
  3
ACAD_XREC_ROUNDTRIP
360
A9
  0
DICTIONARY
  5
B0
330
3A
100
AcDbDictionary
280
     1
281
     1
  3
ACAD_XREC_ROUNDTRIP
360
B1
  0
DICTIONARY
  5
A4
330
34
100
AcDbDictionary
280
     1
281
     1
  3
ACAD_XREC_ROUNDTRIP
360
A5
  0
DICTIONARY
  5
A6
330
35
100
AcDbDictionary
280
     1
281
     1
  3
ACAD_XREC_ROUNDTRIP
360
A7
  0
DICTIONARY
  5
B6
330
3D
100
AcDbDictionary
280
     1
281
     1
  3
ACAD_XREC_ROUNDTRIP
360
B7
  0
DICTIONARY
  5
AE
330
39
100
AcDbDictionary
280
     1
281
     1
  3
ACAD_XREC_ROUNDTRIP
360
AF
  0
DICTIONARY
  5
92
330
2B
100
AcDbDictionary
280
     1
281
     1
  3
ACAD_XREC_ROUNDTRIP
360
93
  0
DICTIONARY
  5
94
330
2C
100
AcDbDictionary
280
     1
281
     1
  3
ACAD_XREC_ROUNDTRIP
360
95
  0
DICTIONARY
  5
96
330
2D
100
AcDbDictionary
280
     1
281
     1
  3
ACAD_XREC_ROUNDTRIP
360
97
  0
DICTIONARY
  5
98
330
2E
100
AcDbDictionary
280
     1
281
     1
  3
ACAD_XREC_ROUNDTRIP
360
99
  0
DICTIONARY
  5
9E
330
31
100
AcDbDictionary
280
     1
281
     1
  3
ACAD_XREC_ROUNDTRIP
360
9F
  0
DICTIONARY
  5
B2
330
3B
100
AcDbDictionary
280
     1
281
     1
  3
ACAD_XREC_ROUNDTRIP
360
B3
  0
DICTIONARY
  5
AC
330
38
100
AcDbDictionary
280
     1
281
     1
  3
ACAD_XREC_ROUNDTRIP
360
AD
  0
DICTIONARY
  5
B4
330
3C
100
AcDbDictionary
280
     1
281
     1
  3
ACAD_XREC_ROUNDTRIP
360
B5
  0
DICTIONARY
  5
A2
330
33
100
AcDbDictionary
280
     1
281
     1
  3
ACAD_XREC_ROUNDTRIP
360
A3
  0
DICTIONARY
  5
C0
330
42
100
AcDbDictionary
280
     1
281
     1
  3
ACAD_XREC_ROUNDTRIP
360
C1
  0
DICTIONARY
  5
BE
330
41
100
AcDbDictionary
280
     1
281
     1
  3
ACAD_XREC_ROUNDTRIP
360
BF
  0
DICTIONARY
  5
B8
330
3E
100
AcDbDictionary
280
     1
281
     1
  3
ACAD_XREC_ROUNDTRIP
360
B9
  0
DICTIONARY
  5
BA
330
3F
100
AcDbDictionary
280
     1
281
     1
  3
ACAD_XREC_ROUNDTRIP
360
BB
  0
DICTIONARY
  5
AA
330
37
100
AcDbDictionary
280
     1
281
     1
  3
ACAD_XREC_ROUNDTRIP
360
AB
  0
DICTIONARY
  5
9C
330
30
100
AcDbDictionary
280
     1
281
     1
  3
ACAD_XREC_ROUNDTRIP
360
9D
  0
DICTIONARY
  5
BC
330
40
100
AcDbDictionary
280
     1
281
     1
  3
ACAD_XREC_ROUNDTRIP
360
BD
  0
XRECORD
  5
C6
102
{ACAD_REACTORS
330
C5
102
}
330
C5
100
AcDbXrecord
280
     1
102
ACAD_ROUNDTRIP_2010_MLEADER_STYLE
  0
CELLSTYLEMAP
  5
C3
102
{ACAD_REACTORS
330
C2
102
}
330
C2
100
AcDbCellStyleMap
 90
        3
300
CELLSTYLE
  1
TABLEFORMAT_BEGIN
 90
        5
170
     1
 91
        0
 92
    32768
 62
   257
 93
        1
300
CONTENTFORMAT
  1
CONTENTFORMAT_BEGIN
 90
        0
 91
        0
 92
        4
 93
        0
300

 40
0.0
140
1.0
 94
        5
 62
     0
340
11
144
0.25
309
CONTENTFORMAT_END
171
     1
301
MARGIN
  1
CELLMARGIN_BEGIN
 40
0.06
 40
0.06
 40
0.06
 40
0.06
 40
0.06
 40
0.06
309
CELLMARGIN_END
 94
        6
 95
        1
302
GRIDFORMAT
  1
GRIDFORMAT_BEGIN
 90
        0
 91
        1
 62
     0
 92
       -2
340
14
 93
        0
 40
0.045
309
GRIDFORMAT_END
 95
        2
302
GRIDFORMAT
  1
GRIDFORMAT_BEGIN
 90
        0
 91
        1
 62
     0
 92
       -2
340
14
 93
        0
 40
0.045
309
GRIDFORMAT_END
 95
        4
302
GRIDFORMAT
  1
GRIDFORMAT_BEGIN
 90
        0
 91
        1
 62
     0
 92
       -2
340
14
 93
        0
 40
0.045
309
GRIDFORMAT_END
 95
        8
302
GRIDFORMAT
  1
GRIDFORMAT_BEGIN
 90
        0
 91
        1
 62
     0
 92
       -2
340
14
 93
        0
 40
0.045
309
GRIDFORMAT_END
 95
       16
302
GRIDFORMAT
  1
GRIDFORMAT_BEGIN
 90
        0
 91
        1
 62
     0
 92
       -2
340
14
 93
        0
 40
0.045
309
GRIDFORMAT_END
 95
       32
302
GRIDFORMAT
  1
GRIDFORMAT_BEGIN
 90
        0
 91
        1
 62
     0
 92
       -2
340
14
 93
        0
 40
0.045
309
GRIDFORMAT_END
309
TABLEFORMAT_END
  1
CELLSTYLE_BEGIN
 90
        1
 91
        1
300
_TITLE
309
CELLSTYLE_END
300
CELLSTYLE
  1
TABLEFORMAT_BEGIN
 90
        5
170
     1
 91
        0
 92
        0
 62
   257
 93
        1
300
CONTENTFORMAT
  1
CONTENTFORMAT_BEGIN
 90
        0
 91
        0
 92
        4
 93
        0
300

 40
0.0
140
1.0
 94
        5
 62
     0
340
11
144
0.18
309
CONTENTFORMAT_END
171
     1
301
MARGIN
  1
CELLMARGIN_BEGIN
 40
0.06
 40
0.06
 40
0.06
 40
0.06
 40
0.06
 40
0.06
309
CELLMARGIN_END
 94
        6
 95
        1
302
GRIDFORMAT
  1
GRIDFORMAT_BEGIN
 90
        0
 91
        1
 62
     0
 92
       -2
340
14
 93
        0
 40
0.045
309
GRIDFORMAT_END
 95
        2
302
GRIDFORMAT
  1
GRIDFORMAT_BEGIN
 90
        0
 91
        1
 62
     0
 92
       -2
340
14
 93
        0
 40
0.045
309
GRIDFORMAT_END
 95
        4
302
GRIDFORMAT
  1
GRIDFORMAT_BEGIN
 90
        0
 91
        1
 62
     0
 92
       -2
340
14
 93
        0
 40
0.045
309
GRIDFORMAT_END
 95
        8
302
GRIDFORMAT
  1
GRIDFORMAT_BEGIN
 90
        0
 91
        1
 62
     0
 92
       -2
340
14
 93
        0
 40
0.045
309
GRIDFORMAT_END
 95
       16
302
GRIDFORMAT
  1
GRIDFORMAT_BEGIN
 90
        0
 91
        1
 62
     0
 92
       -2
340
14
 93
        0
 40
0.045
309
GRIDFORMAT_END
 95
       32
302
GRIDFORMAT
  1
GRIDFORMAT_BEGIN
 90
        0
 91
        1
 62
     0
 92
       -2
340
14
 93
        0
 40
0.045
309
GRIDFORMAT_END
309
TABLEFORMAT_END
  1
CELLSTYLE_BEGIN
 90
        2
 91
        1
300
_HEADER
309
CELLSTYLE_END
300
CELLSTYLE
  1
TABLEFORMAT_BEGIN
 90
        5
170
     1
 91
        0
 92
        0
 62
   257
 93
        1
300
CONTENTFORMAT
  1
CONTENTFORMAT_BEGIN
 90
        0
 91
        0
 92
        4
 93
        0
300

 40
0.0
140
1.0
 94
        2
 62
     0
340
11
144
0.18
309
CONTENTFORMAT_END
171
     1
301
MARGIN
  1
CELLMARGIN_BEGIN
 40
0.06
 40
0.06
 40
0.06
 40
0.06
 40
0.06
 40
0.06
309
CELLMARGIN_END
 94
        6
 95
        1
302
GRIDFORMAT
  1
GRIDFORMAT_BEGIN
 90
        0
 91
        1
 62
     0
 92
       -2
340
14
 93
        0
 40
0.045
309
GRIDFORMAT_END
 95
        2
302
GRIDFORMAT
  1
GRIDFORMAT_BEGIN
 90
        0
 91
        1
 62
     0
 92
       -2
340
14
 93
        0
 40
0.045
309
GRIDFORMAT_END
 95
        4
302
GRIDFORMAT
  1
GRIDFORMAT_BEGIN
 90
        0
 91
        1
 62
     0
 92
       -2
340
14
 93
        0
 40
0.045
309
GRIDFORMAT_END
 95
        8
302
GRIDFORMAT
  1
GRIDFORMAT_BEGIN
 90
        0
 91
        1
 62
     0
 92
       -2
340
14
 93
        0
 40
0.045
309
GRIDFORMAT_END
 95
       16
302
GRIDFORMAT
  1
GRIDFORMAT_BEGIN
 90
        0
 91
        1
 62
     0
 92
       -2
340
14
 93
        0
 40
0.045
309
GRIDFORMAT_END
 95
       32
302
GRIDFORMAT
  1
GRIDFORMAT_BEGIN
 90
        0
 91
        1
 62
     0
 92
       -2
340
14
 93
        0
 40
0.045
309
GRIDFORMAT_END
309
TABLEFORMAT_END
  1
CELLSTYLE_BEGIN
 90
        3
 91
        2
300
_DATA
309
CELLSTYLE_END
  0
XRECORD
  5
9B
102
{ACAD_REACTORS
330
9A
102
}
330
9A
100
AcDbXrecord
280
     1
102
RTVSPropertyOp0
 70
     1
102
RTVSPropertyOp1
 70
     1
102
RTVSPropertyOp2
 70
     1
102
RTVSPropertyOp3
 70
     1
102
RTVSPropertyOp4
 70
     1
102
RTVSPropertyOp5
 70
     1
102
RTVSPropertyOp6
 70
     1
102
RTVSPropertyOp7
 70
     1
102
RTVSPropertyOp8
 70
     1
102
RTVSPropertyOp9
 70
     1
102
RTVSPropertyOp10
 70
     1
102
RTVSPropertyOp11
 70
     1
102
RTVSPropertyOp12
 70
     1
102
RTVSPropertyOp13
 70
     1
102
RTVSPropertyOp14
 70
     1
102
RTVSPropertyOp15
 70
     1
102
RTVSPropertyOp16
 70
     1
102
RTVSPropertyOp17
 70
     1
102
RTVSPropertyOp18
 70
     1
102
RTVSPropertyOp19
 70
     1
102
RTVSPropertyOp20
 70
     1
102
RTVSPropertyOp21
 70
     1
102
RTVSPropertyOp22
 70
     1
102
RTVSPropertyOp23
 70
     1
102
RTVSPropertyOp24
 70
     1
102
RTVSPropertyOp25
 70
     1
102
RTVSPropertyOp26
 70
     1
102
RTVSPropertyOp27
 70
     1
102
RTVSPropertyOp28
 70
     1
102
RTVSPropertyOp29
 70
     1
102
RTVSPropertyOp30
 70
     1
102
RTVSPropertyOp31
 70
     1
102
RTVSPropertyOp32
 70
     1
102
RTVSPropertyOp33
 70
     1
102
RTVSPropertyOp34
 70
     1
102
RTVSPropertyOp35
 70
     1
102
RTVSPropertyOp36
 70
     1
102
RTVSPropertyOp37
 70
     1
102
RTVSPropertyOp38
 70
     1
102
RTVSPropertyOp39
 70
     1
102
RTVSPropertyOp40
 70
     1
102
RTVSPropertyOp41
 70
     1
102
RTVSPropertyOp42
 70
     1
102
RTVSPropertyOp43
 70
     1
102
RTVSPropertyOp44
 70
     1
102
RTVSPropertyOp45
 70
     1
102
RTVSPropertyOp46
 70
     1
102
RTVSPropertyOp47
 70
     1
102
RTVSPropertyOp48
 70
     1
102
RTVSPropertyOp49
 70
     1
102
RTVSPropertyOp50
 70
     1
102
RTVSPropertyOp51
 70
     0
102
RTVSPropertyOp52
 70
     0
102
RTVSPropertyOp53
 70
     1
102
RTVSPropertyOp54
 70
     1
102
RTVSPropertyOp55
 70
     1
102
RTVSPropertyOp56
 70
     1
102
RTVSPropertyOp57
 70
     1
102
RTVSPost2010Prop28
280
     1
102
RTVSPost2010PropOp28
 70
     1
102
RTVSPost2010Prop29
280
     1
102
RTVSPost2010PropOp29
 70
     1
102
RTVSPost2010Prop30
280
     0
102
RTVSPost2010PropOp30
 70
     1
102
RTVSPost2010Prop31
280
     0
102
RTVSPost2010PropOp31
 70
     1
102
RTVSPost2010Prop32
280
     0
102
RTVSPost2010PropOp32
 70
     1
102
RTVSPost2010Prop33
280
     0
102
RTVSPost2010PropOp33
 70
     1
102
RTVSPost2010Prop34
280
     0
102
RTVSPost2010PropOp34
 70
     1
102
RTVSPost2010Prop35
280
     0
102
RTVSPost2010PropOp35
 70
     1
102
RTVSPost2010Prop36
280
     0
102
RTVSPost2010PropOp36
 70
     1
102
RTVSPost2010Prop37
 90
       50
102
RTVSPost2010PropOp37
 70
     1
102
RTVSPost2010Prop38
140
0.0
102
RTVSPost2010PropOp38
 70
     1
102
RTVSPost2010Prop39
140
1.0
102
RTVSPost2010PropOp39
 70
     1
102
RTVSPost2010Prop40
 90
        0
102
RTVSPost2010PropOp40
 70
     1
102
RTVSPost2010Prop41ColorIndex
 90
       18
102
RTVSPost2010Prop41ColorRGB
 90
        0
102
RTVSPost2010PropOp41
 70
     1
102
RTVSPost2010Prop42
 90
       50
102
RTVSPost2010PropOp42
 70
     1
102
RTVSPost2010Prop43
 90
        3
102
RTVSPost2010PropOp43
 70
     1
102
RTVSPost2010Prop44ColorIndex
 90
        5
102
RTVSPost2010Prop44ColorRGB
 90
      255
102
RTVSPost2010PropOp44
 70
     1
102
RTVSPost2010Prop45
280
     0
102
RTVSPost2010PropOp45
 70
     1
102
RTVSPost2010Prop46
 90
       50
102
RTVSPost2010PropOp46
 70
     1
102
RTVSPost2010Prop47
 90
       50
102
RTVSPost2010PropOp47
 70
     1
102
RTVSPost2010Prop48
 90
       50
102
RTVSPost2010PropOp48
 70
     1
102
RTVSPost2010Prop49
280
     0
102
RTVSPost2010PropOp49
 70
     1
102
RTVSPost2010Prop50
 90
       50
102
RTVSPost2010PropOp50
 70
     1
102
RTVSPost2010Prop51ColorIndex
 90
      256
102
RTVSPost2010Prop51ColorRGB
 90
-16777216
102
RTVSPost2010PropOp51
 70
     0
102
RTVSPost2010Prop52
140
1.0
102
RTVSPost2010PropOp52
 70
     0
102
RTVSPost2010Prop53
 90
        2
102
RTVSPost2010PropOp53
 70
     1
102
RTVSPost2010Prop54
  1
strokes_ogs.tif
102
RTVSPost2010PropOp54
 70
     1
102
RTVSPost2010Prop55
280
     0
102
RTVSPost2010PropOp55
 70
     1
102
RTVSPost2010Prop56
140
1.0
102
RTVSPost2010PropOp56
 70
     1
102
RTVSPost2010Prop57
140
1.0
102
RTVSPost2010PropOp57
 70
     1
  0
XRECORD
  5
A1
102
{ACAD_REACTORS
330
A0
102
}
330
A0
100
AcDbXrecord
280
     1
102
RTVSPropertyOp0
 70
     1
102
RTVSPropertyOp1
 70
     1
102
RTVSPropertyOp2
 70
     1
102
RTVSPropertyOp3
 70
     1
102
RTVSPropertyOp4
 70
     1
102
RTVSPropertyOp5
 70
     1
102
RTVSPropertyOp6
 70
     1
102
RTVSPropertyOp7
 70
     1
102
RTVSPropertyOp8
 70
     1
102
RTVSPropertyOp9
 70
     1
102
RTVSPropertyOp10
 70
     1
102
RTVSPropertyOp11
 70
     1
102
RTVSPropertyOp12
 70
     1
102
RTVSPropertyOp13
 70
     1
102
RTVSPropertyOp14
 70
     1
102
RTVSPropertyOp15
 70
     1
102
RTVSPropertyOp16
 70
     1
102
RTVSPropertyOp17
 70
     1
102
RTVSPropertyOp18
 70
     1
102
RTVSPropertyOp19
 70
     1
102
RTVSPropertyOp20
 70
     1
102
RTVSPropertyOp21
 70
     1
102
RTVSPropertyOp22
 70
     1
102
RTVSPropertyOp23
 70
     1
102
RTVSPropertyOp24
 70
     1
102
RTVSPropertyOp25
 70
     1
102
RTVSPropertyOp26
 70
     1
102
RTVSPropertyOp27
 70
     1
102
RTVSPropertyOp28
 70
     1
102
RTVSPropertyOp29
 70
     1
102
RTVSPropertyOp30
 70
     1
102
RTVSPropertyOp31
 70
     1
102
RTVSPropertyOp32
 70
     1
102
RTVSPropertyOp33
 70
     1
102
RTVSPropertyOp34
 70
     1
102
RTVSPropertyOp35
 70
     1
102
RTVSPropertyOp36
 70
     1
102
RTVSPropertyOp37
 70
     1
102
RTVSPropertyOp38
 70
     1
102
RTVSPropertyOp39
 70
     1
102
RTVSPropertyOp40
 70
     1
102
RTVSPropertyOp41
 70
     1
102
RTVSPropertyOp42
 70
     1
102
RTVSPropertyOp43
 70
     1
102
RTVSPropertyOp44
 70
     1
102
RTVSPropertyOp45
 70
     1
102
RTVSPropertyOp46
 70
     1
102
RTVSPropertyOp47
 70
     1
102
RTVSPropertyOp48
 70
     1
102
RTVSPropertyOp49
 70
     1
102
RTVSPropertyOp50
 70
     1
102
RTVSPropertyOp51
 70
     0
102
RTVSPropertyOp52
 70
     0
102
RTVSPropertyOp53
 70
     1
102
RTVSPropertyOp54
 70
     1
102
RTVSPropertyOp55
 70
     1
102
RTVSPropertyOp56
 70
     1
102
RTVSPropertyOp57
 70
     1
102
RTVSPost2010Prop28
280
     0
102
RTVSPost2010PropOp28
 70
     1
102
RTVSPost2010Prop29
280
     1
102
RTVSPost2010PropOp29
 70
     1
102
RTVSPost2010Prop30
280
     1
102
RTVSPost2010PropOp30
 70
     1
102
RTVSPost2010Prop31
280
     0
102
RTVSPost2010PropOp31
 70
     1
102
RTVSPost2010Prop32
280
     0
102
RTVSPost2010PropOp32
 70
     1
102
RTVSPost2010Prop33
280
     0
102
RTVSPost2010PropOp33
 70
     1
102
RTVSPost2010Prop34
280
     0
102
RTVSPost2010PropOp34
 70
     1
102
RTVSPost2010Prop35
280
     0
102
RTVSPost2010PropOp35
 70
     1
102
RTVSPost2010Prop36
280
     0
102
RTVSPost2010PropOp36
 70
     1
102
RTVSPost2010Prop37
 90
       50
102
RTVSPost2010PropOp37
 70
     1
102
RTVSPost2010Prop38
140
0.0
102
RTVSPost2010PropOp38
 70
     1
102
RTVSPost2010Prop39
140
1.0
102
RTVSPost2010PropOp39
 70
     1
102
RTVSPost2010Prop40
 90
        0
102
RTVSPost2010PropOp40
 70
     1
102
RTVSPost2010Prop41ColorIndex
 90
       18
102
RTVSPost2010Prop41ColorRGB
 90
        0
102
RTVSPost2010PropOp41
 70
     1
102
RTVSPost2010Prop42
 90
       50
102
RTVSPost2010PropOp42
 70
     1
102
RTVSPost2010Prop43
 90
        3
102
RTVSPost2010PropOp43
 70
     1
102
RTVSPost2010Prop44ColorIndex
 90
        5
102
RTVSPost2010Prop44ColorRGB
 90
      255
102
RTVSPost2010PropOp44
 70
     1
102
RTVSPost2010Prop45
280
     0
102
RTVSPost2010PropOp45
 70
     1
102
RTVSPost2010Prop46
 90
       50
102
RTVSPost2010PropOp46
 70
     1
102
RTVSPost2010Prop47
 90
       50
102
RTVSPost2010PropOp47
 70
     1
102
RTVSPost2010Prop48
 90
       50
102
RTVSPost2010PropOp48
 70
     1
102
RTVSPost2010Prop49
280
     0
102
RTVSPost2010PropOp49
 70
     1
102
RTVSPost2010Prop50
 90
       50
102
RTVSPost2010PropOp50
 70
     1
102
RTVSPost2010Prop51ColorIndex
 90
      256
102
RTVSPost2010Prop51ColorRGB
 90
-16777216
102
RTVSPost2010PropOp51
 70
     0
102
RTVSPost2010Prop52
140
1.0
102
RTVSPost2010PropOp52
 70
     0
102
RTVSPost2010Prop53
 90
        2
102
RTVSPost2010PropOp53
 70
     1
102
RTVSPost2010Prop54
  1
strokes_ogs.tif
102
RTVSPost2010PropOp54
 70
     1
102
RTVSPost2010Prop55
280
     0
102
RTVSPost2010PropOp55
 70
     1
102
RTVSPost2010Prop56
140
1.0
102
RTVSPost2010PropOp56
 70
     1
102
RTVSPost2010Prop57
140
1.0
102
RTVSPost2010PropOp57
 70
     1
  0
XRECORD
  5
A9
102
{ACAD_REACTORS
330
A8
102
}
330
A8
100
AcDbXrecord
280
     1
102
RTVSPropertyOp0
 70
     1
102
RTVSPropertyOp1
 70
     1
102
RTVSPropertyOp2
 70
     1
102
RTVSPropertyOp3
 70
     1
102
RTVSPropertyOp4
 70
     1
102
RTVSPropertyOp5
 70
     1
102
RTVSPropertyOp6
 70
     1
102
RTVSPropertyOp7
 70
     1
102
RTVSPropertyOp8
 70
     1
102
RTVSPropertyOp9
 70
     1
102
RTVSPropertyOp10
 70
     1
102
RTVSPropertyOp11
 70
     1
102
RTVSPropertyOp12
 70
     1
102
RTVSPropertyOp13
 70
     1
102
RTVSPropertyOp14
 70
     1
102
RTVSPropertyOp15
 70
     1
102
RTVSPropertyOp16
 70
     1
102
RTVSPropertyOp17
 70
     1
102
RTVSPropertyOp18
 70
     1
102
RTVSPropertyOp19
 70
     1
102
RTVSPropertyOp20
 70
     1
102
RTVSPropertyOp21
 70
     1
102
RTVSPropertyOp22
 70
     1
102
RTVSPropertyOp23
 70
     1
102
RTVSPropertyOp24
 70
     1
102
RTVSPropertyOp25
 70
     1
102
RTVSPropertyOp26
 70
     1
102
RTVSPropertyOp27
 70
     1
102
RTVSPropertyOp28
 70
     1
102
RTVSPropertyOp29
 70
     1
102
RTVSPropertyOp30
 70
     1
102
RTVSPropertyOp31
 70
     1
102
RTVSPropertyOp32
 70
     1
102
RTVSPropertyOp33
 70
     1
102
RTVSPropertyOp34
 70
     1
102
RTVSPropertyOp35
 70
     1
102
RTVSPropertyOp36
 70
     1
102
RTVSPropertyOp37
 70
     1
102
RTVSPropertyOp38
 70
     1
102
RTVSPropertyOp39
 70
     1
102
RTVSPropertyOp40
 70
     1
102
RTVSPropertyOp41
 70
     1
102
RTVSPropertyOp42
 70
     1
102
RTVSPropertyOp43
 70
     1
102
RTVSPropertyOp44
 70
     1
102
RTVSPropertyOp45
 70
     1
102
RTVSPropertyOp46
 70
     1
102
RTVSPropertyOp47
 70
     1
102
RTVSPropertyOp48
 70
     1
102
RTVSPropertyOp49
 70
     1
102
RTVSPropertyOp50
 70
     1
102
RTVSPropertyOp51
 70
     0
102
RTVSPropertyOp52
 70
     0
102
RTVSPropertyOp53
 70
     1
102
RTVSPropertyOp54
 70
     1
102
RTVSPropertyOp55
 70
     1
102
RTVSPropertyOp56
 70
     1
102
RTVSPropertyOp57
 70
     1
102
RTVSPost2010Prop28
280
     0
102
RTVSPost2010PropOp28
 70
     1
102
RTVSPost2010Prop29
280
     1
102
RTVSPost2010PropOp29
 70
     1
102
RTVSPost2010Prop30
280
     1
102
RTVSPost2010PropOp30
 70
     1
102
RTVSPost2010Prop31
280
     0
102
RTVSPost2010PropOp31
 70
     1
102
RTVSPost2010Prop32
280
     0
102
RTVSPost2010PropOp32
 70
     1
102
RTVSPost2010Prop33
280
     0
102
RTVSPost2010PropOp33
 70
     1
102
RTVSPost2010Prop34
280
     0
102
RTVSPost2010PropOp34
 70
     1
102
RTVSPost2010Prop35
280
     0
102
RTVSPost2010PropOp35
 70
     1
102
RTVSPost2010Prop36
280
     0
102
RTVSPost2010PropOp36
 70
     1
102
RTVSPost2010Prop37
 90
       50
102
RTVSPost2010PropOp37
 70
     1
102
RTVSPost2010Prop38
140
0.0
102
RTVSPost2010PropOp38
 70
     1
102
RTVSPost2010Prop39
140
1.0
102
RTVSPost2010PropOp39
 70
     1
102
RTVSPost2010Prop40
 90
        0
102
RTVSPost2010PropOp40
 70
     1
102
RTVSPost2010Prop41ColorIndex
 90
       18
102
RTVSPost2010Prop41ColorRGB
 90
        0
102
RTVSPost2010PropOp41
 70
     1
102
RTVSPost2010Prop42
 90
       50
102
RTVSPost2010PropOp42
 70
     1
102
RTVSPost2010Prop43
 90
        3
102
RTVSPost2010PropOp43
 70
     1
102
RTVSPost2010Prop44ColorIndex
 90
        5
102
RTVSPost2010Prop44ColorRGB
 90
      255
102
RTVSPost2010PropOp44
 70
     1
102
RTVSPost2010Prop45
280
     0
102
RTVSPost2010PropOp45
 70
     1
102
RTVSPost2010Prop46
 90
       50
102
RTVSPost2010PropOp46
 70
     1
102
RTVSPost2010Prop47
 90
       50
102
RTVSPost2010PropOp47
 70
     1
102
RTVSPost2010Prop48
 90
       50
102
RTVSPost2010PropOp48
 70
     1
102
RTVSPost2010Prop49
280
     0
102
RTVSPost2010PropOp49
 70
     1
102
RTVSPost2010Prop50
 90
       50
102
RTVSPost2010PropOp50
 70
     1
102
RTVSPost2010Prop51ColorIndex
 90
      256
102
RTVSPost2010Prop51ColorRGB
 90
-16777216
102
RTVSPost2010PropOp51
 70
     0
102
RTVSPost2010Prop52
140
1.0
102
RTVSPost2010PropOp52
 70
     0
102
RTVSPost2010Prop53
 90
        2
102
RTVSPost2010PropOp53
 70
     1
102
RTVSPost2010Prop54
  1
strokes_ogs.tif
102
RTVSPost2010PropOp54
 70
     1
102
RTVSPost2010Prop55
280
     0
102
RTVSPost2010PropOp55
 70
     1
102
RTVSPost2010Prop56
140
1.0
102
RTVSPost2010PropOp56
 70
     1
102
RTVSPost2010Prop57
140
1.0
102
RTVSPost2010PropOp57
 70
     1
  0
XRECORD
  5
B1
102
{ACAD_REACTORS
330
B0
102
}
330
B0
100
AcDbXrecord
280
     1
102
RTVSPropertyOp0
 70
     1
102
RTVSPropertyOp1
 70
     1
102
RTVSPropertyOp2
 70
     1
102
RTVSPropertyOp3
 70
     1
102
RTVSPropertyOp4
 70
     1
102
RTVSPropertyOp5
 70
     1
102
RTVSPropertyOp6
 70
     1
102
RTVSPropertyOp7
 70
     1
102
RTVSPropertyOp8
 70
     1
102
RTVSPropertyOp9
 70
     1
102
RTVSPropertyOp10
 70
     1
102
RTVSPropertyOp11
 70
     1
102
RTVSPropertyOp12
 70
     1
102
RTVSPropertyOp13
 70
     1
102
RTVSPropertyOp14
 70
     1
102
RTVSPropertyOp15
 70
     1
102
RTVSPropertyOp16
 70
     1
102
RTVSPropertyOp17
 70
     1
102
RTVSPropertyOp18
 70
     1
102
RTVSPropertyOp19
 70
     1
102
RTVSPropertyOp20
 70
     1
102
RTVSPropertyOp21
 70
     1
102
RTVSPropertyOp22
 70
     1
102
RTVSPropertyOp23
 70
     1
102
RTVSPropertyOp24
 70
     1
102
RTVSPropertyOp25
 70
     1
102
RTVSPropertyOp26
 70
     1
102
RTVSPropertyOp27
 70
     1
102
RTVSPropertyOp28
 70
     1
102
RTVSPropertyOp29
 70
     1
102
RTVSPropertyOp30
 70
     1
102
RTVSPropertyOp31
 70
     1
102
RTVSPropertyOp32
 70
     1
102
RTVSPropertyOp33
 70
     1
102
RTVSPropertyOp34
 70
     1
102
RTVSPropertyOp35
 70
     1
102
RTVSPropertyOp36
 70
     1
102
RTVSPropertyOp37
 70
     1
102
RTVSPropertyOp38
 70
     1
102
RTVSPropertyOp39
 70
     1
102
RTVSPropertyOp40
 70
     1
102
RTVSPropertyOp41
 70
     1
102
RTVSPropertyOp42
 70
     1
102
RTVSPropertyOp43
 70
     1
102
RTVSPropertyOp44
 70
     1
102
RTVSPropertyOp45
 70
     1
102
RTVSPropertyOp46
 70
     1
102
RTVSPropertyOp47
 70
     1
102
RTVSPropertyOp48
 70
     1
102
RTVSPropertyOp49
 70
     1
102
RTVSPropertyOp50
 70
     1
102
RTVSPropertyOp51
 70
     0
102
RTVSPropertyOp52
 70
     0
102
RTVSPropertyOp53
 70
     1
102
RTVSPropertyOp54
 70
     1
102
RTVSPropertyOp55
 70
     1
102
RTVSPropertyOp56
 70
     1
102
RTVSPropertyOp57
 70
     1
102
RTVSPost2010Prop28
280
     0
102
RTVSPost2010PropOp28
 70
     1
102
RTVSPost2010Prop29
280
     1
102
RTVSPost2010PropOp29
 70
     1
102
RTVSPost2010Prop30
280
     1
102
RTVSPost2010PropOp30
 70
     1
102
RTVSPost2010Prop31
280
     0
102
RTVSPost2010PropOp31
 70
     1
102
RTVSPost2010Prop32
280
     0
102
RTVSPost2010PropOp32
 70
     1
102
RTVSPost2010Prop33
280
     0
102
RTVSPost2010PropOp33
 70
     1
102
RTVSPost2010Prop34
280
     0
102
RTVSPost2010PropOp34
 70
     1
102
RTVSPost2010Prop35
280
     0
102
RTVSPost2010PropOp35
 70
     1
102
RTVSPost2010Prop36
280
     0
102
RTVSPost2010PropOp36
 70
     1
102
RTVSPost2010Prop37
 90
       50
102
RTVSPost2010PropOp37
 70
     1
102
RTVSPost2010Prop38
140
0.0
102
RTVSPost2010PropOp38
 70
     1
102
RTVSPost2010Prop39
140
1.0
102
RTVSPost2010PropOp39
 70
     1
102
RTVSPost2010Prop40
 90
        0
102
RTVSPost2010PropOp40
 70
     1
102
RTVSPost2010Prop41ColorIndex
 90
       18
102
RTVSPost2010Prop41ColorRGB
 90
        0
102
RTVSPost2010PropOp41
 70
     1
102
RTVSPost2010Prop42
 90
       50
102
RTVSPost2010PropOp42
 70
     1
102
RTVSPost2010Prop43
 90
        3
102
RTVSPost2010PropOp43
 70
     1
102
RTVSPost2010Prop44ColorIndex
 90
        5
102
RTVSPost2010Prop44ColorRGB
 90
      255
102
RTVSPost2010PropOp44
 70
     1
102
RTVSPost2010Prop45
280
     0
102
RTVSPost2010PropOp45
 70
     1
102
RTVSPost2010Prop46
 90
       50
102
RTVSPost2010PropOp46
 70
     1
102
RTVSPost2010Prop47
 90
       50
102
RTVSPost2010PropOp47
 70
     1
102
RTVSPost2010Prop48
 90
       50
102
RTVSPost2010PropOp48
 70
     1
102
RTVSPost2010Prop49
280
     0
102
RTVSPost2010PropOp49
 70
     1
102
RTVSPost2010Prop50
 90
       50
102
RTVSPost2010PropOp50
 70
     1
102
RTVSPost2010Prop51ColorIndex
 90
      256
102
RTVSPost2010Prop51ColorRGB
 90
-16777216
102
RTVSPost2010PropOp51
 70
     0
102
RTVSPost2010Prop52
140
1.0
102
RTVSPost2010PropOp52
 70
     0
102
RTVSPost2010Prop53
 90
        2
102
RTVSPost2010PropOp53
 70
     1
102
RTVSPost2010Prop54
  1
strokes_ogs.tif
102
RTVSPost2010PropOp54
 70
     1
102
RTVSPost2010Prop55
280
     0
102
RTVSPost2010PropOp55
 70
     1
102
RTVSPost2010Prop56
140
1.0
102
RTVSPost2010PropOp56
 70
     1
102
RTVSPost2010Prop57
140
1.0
102
RTVSPost2010PropOp57
 70
     1
  0
XRECORD
  5
A5
102
{ACAD_REACTORS
330
A4
102
}
330
A4
100
AcDbXrecord
280
     1
102
RTVSPropertyOp0
 70
     1
102
RTVSPropertyOp1
 70
     1
102
RTVSPropertyOp2
 70
     1
102
RTVSPropertyOp3
 70
     1
102
RTVSPropertyOp4
 70
     1
102
RTVSPropertyOp5
 70
     1
102
RTVSPropertyOp6
 70
     1
102
RTVSPropertyOp7
 70
     1
102
RTVSPropertyOp8
 70
     1
102
RTVSPropertyOp9
 70
     1
102
RTVSPropertyOp10
 70
     1
102
RTVSPropertyOp11
 70
     1
102
RTVSPropertyOp12
 70
     1
102
RTVSPropertyOp13
 70
     1
102
RTVSPropertyOp14
 70
     1
102
RTVSPropertyOp15
 70
     1
102
RTVSPropertyOp16
 70
     1
102
RTVSPropertyOp17
 70
     1
102
RTVSPropertyOp18
 70
     1
102
RTVSPropertyOp19
 70
     1
102
RTVSPropertyOp20
 70
     1
102
RTVSPropertyOp21
 70
     1
102
RTVSPropertyOp22
 70
     1
102
RTVSPropertyOp23
 70
     1
102
RTVSPropertyOp24
 70
     1
102
RTVSPropertyOp25
 70
     1
102
RTVSPropertyOp26
 70
     1
102
RTVSPropertyOp27
 70
     1
102
RTVSPropertyOp28
 70
     1
102
RTVSPropertyOp29
 70
     1
102
RTVSPropertyOp30
 70
     1
102
RTVSPropertyOp31
 70
     1
102
RTVSPropertyOp32
 70
     1
102
RTVSPropertyOp33
 70
     1
102
RTVSPropertyOp34
 70
     1
102
RTVSPropertyOp35
 70
     1
102
RTVSPropertyOp36
 70
     1
102
RTVSPropertyOp37
 70
     1
102
RTVSPropertyOp38
 70
     1
102
RTVSPropertyOp39
 70
     1
102
RTVSPropertyOp40
 70
     1
102
RTVSPropertyOp41
 70
     1
102
RTVSPropertyOp42
 70
     1
102
RTVSPropertyOp43
 70
     1
102
RTVSPropertyOp44
 70
     1
102
RTVSPropertyOp45
 70
     1
102
RTVSPropertyOp46
 70
     1
102
RTVSPropertyOp47
 70
     1
102
RTVSPropertyOp48
 70
     1
102
RTVSPropertyOp49
 70
     1
102
RTVSPropertyOp50
 70
     1
102
RTVSPropertyOp51
 70
     0
102
RTVSPropertyOp52
 70
     0
102
RTVSPropertyOp53
 70
     1
102
RTVSPropertyOp54
 70
     1
102
RTVSPropertyOp55
 70
     1
102
RTVSPropertyOp56
 70
     1
102
RTVSPropertyOp57
 70
     1
102
RTVSPost2010Prop28
280
     0
102
RTVSPost2010PropOp28
 70
     1
102
RTVSPost2010Prop29
280
     1
102
RTVSPost2010PropOp29
 70
     1
102
RTVSPost2010Prop30
280
     1
102
RTVSPost2010PropOp30
 70
     1
102
RTVSPost2010Prop31
280
     0
102
RTVSPost2010PropOp31
 70
     1
102
RTVSPost2010Prop32
280
     0
102
RTVSPost2010PropOp32
 70
     1
102
RTVSPost2010Prop33
280
     0
102
RTVSPost2010PropOp33
 70
     1
102
RTVSPost2010Prop34
280
     0
102
RTVSPost2010PropOp34
 70
     1
102
RTVSPost2010Prop35
280
     0
102
RTVSPost2010PropOp35
 70
     1
102
RTVSPost2010Prop36
280
     0
102
RTVSPost2010PropOp36
 70
     1
102
RTVSPost2010Prop37
 90
       50
102
RTVSPost2010PropOp37
 70
     1
102
RTVSPost2010Prop38
140
0.0
102
RTVSPost2010PropOp38
 70
     1
102
RTVSPost2010Prop39
140
1.0
102
RTVSPost2010PropOp39
 70
     1
102
RTVSPost2010Prop40
 90
        0
102
RTVSPost2010PropOp40
 70
     1
102
RTVSPost2010Prop41ColorIndex
 90
       18
102
RTVSPost2010Prop41ColorRGB
 90
        0
102
RTVSPost2010PropOp41
 70
     1
102
RTVSPost2010Prop42
 90
       50
102
RTVSPost2010PropOp42
 70
     1
102
RTVSPost2010Prop43
 90
        3
102
RTVSPost2010PropOp43
 70
     1
102
RTVSPost2010Prop44ColorIndex
 90
        5
102
RTVSPost2010Prop44ColorRGB
 90
      255
102
RTVSPost2010PropOp44
 70
     1
102
RTVSPost2010Prop45
280
     0
102
RTVSPost2010PropOp45
 70
     1
102
RTVSPost2010Prop46
 90
       50
102
RTVSPost2010PropOp46
 70
     1
102
RTVSPost2010Prop47
 90
       50
102
RTVSPost2010PropOp47
 70
     1
102
RTVSPost2010Prop48
 90
       50
102
RTVSPost2010PropOp48
 70
     1
102
RTVSPost2010Prop49
280
     0
102
RTVSPost2010PropOp49
 70
     1
102
RTVSPost2010Prop50
 90
       50
102
RTVSPost2010PropOp50
 70
     1
102
RTVSPost2010Prop51ColorIndex
 90
      256
102
RTVSPost2010Prop51ColorRGB
 90
-16777216
102
RTVSPost2010PropOp51
 70
     0
102
RTVSPost2010Prop52
140
1.0
102
RTVSPost2010PropOp52
 70
     0
102
RTVSPost2010Prop53
 90
        2
102
RTVSPost2010PropOp53
 70
     1
102
RTVSPost2010Prop54
  1
strokes_ogs.tif
102
RTVSPost2010PropOp54
 70
     1
102
RTVSPost2010Prop55
280
     0
102
RTVSPost2010PropOp55
 70
     1
102
RTVSPost2010Prop56
140
1.0
102
RTVSPost2010PropOp56
 70
     1
102
RTVSPost2010Prop57
140
1.0
102
RTVSPost2010PropOp57
 70
     1
  0
XRECORD
  5
A7
102
{ACAD_REACTORS
330
A6
102
}
330
A6
100
AcDbXrecord
280
     1
102
RTVSPropertyOp0
 70
     1
102
RTVSPropertyOp1
 70
     1
102
RTVSPropertyOp2
 70
     1
102
RTVSPropertyOp3
 70
     1
102
RTVSPropertyOp4
 70
     1
102
RTVSPropertyOp5
 70
     1
102
RTVSPropertyOp6
 70
     1
102
RTVSPropertyOp7
 70
     1
102
RTVSPropertyOp8
 70
     1
102
RTVSPropertyOp9
 70
     1
102
RTVSPropertyOp10
 70
     1
102
RTVSPropertyOp11
 70
     1
102
RTVSPropertyOp12
 70
     1
102
RTVSPropertyOp13
 70
     1
102
RTVSPropertyOp14
 70
     1
102
RTVSPropertyOp15
 70
     1
102
RTVSPropertyOp16
 70
     1
102
RTVSPropertyOp17
 70
     1
102
RTVSPropertyOp18
 70
     1
102
RTVSPropertyOp19
 70
     1
102
RTVSPropertyOp20
 70
     1
102
RTVSPropertyOp21
 70
     1
102
RTVSPropertyOp22
 70
     1
102
RTVSPropertyOp23
 70
     1
102
RTVSPropertyOp24
 70
     1
102
RTVSPropertyOp25
 70
     1
102
RTVSPropertyOp26
 70
     1
102
RTVSPropertyOp27
 70
     1
102
RTVSPropertyOp28
 70
     1
102
RTVSPropertyOp29
 70
     1
102
RTVSPropertyOp30
 70
     1
102
RTVSPropertyOp31
 70
     1
102
RTVSPropertyOp32
 70
     1
102
RTVSPropertyOp33
 70
     1
102
RTVSPropertyOp34
 70
     1
102
RTVSPropertyOp35
 70
     1
102
RTVSPropertyOp36
 70
     1
102
RTVSPropertyOp37
 70
     1
102
RTVSPropertyOp38
 70
     1
102
RTVSPropertyOp39
 70
     1
102
RTVSPropertyOp40
 70
     1
102
RTVSPropertyOp41
 70
     1
102
RTVSPropertyOp42
 70
     1
102
RTVSPropertyOp43
 70
     1
102
RTVSPropertyOp44
 70
     1
102
RTVSPropertyOp45
 70
     1
102
RTVSPropertyOp46
 70
     1
102
RTVSPropertyOp47
 70
     1
102
RTVSPropertyOp48
 70
     1
102
RTVSPropertyOp49
 70
     1
102
RTVSPropertyOp50
 70
     1
102
RTVSPropertyOp51
 70
     0
102
RTVSPropertyOp52
 70
     0
102
RTVSPropertyOp53
 70
     1
102
RTVSPropertyOp54
 70
     1
102
RTVSPropertyOp55
 70
     1
102
RTVSPropertyOp56
 70
     1
102
RTVSPropertyOp57
 70
     1
102
RTVSPost2010Prop28
280
     0
102
RTVSPost2010PropOp28
 70
     1
102
RTVSPost2010Prop29
280
     1
102
RTVSPost2010PropOp29
 70
     1
102
RTVSPost2010Prop30
280
     1
102
RTVSPost2010PropOp30
 70
     1
102
RTVSPost2010Prop31
280
     0
102
RTVSPost2010PropOp31
 70
     1
102
RTVSPost2010Prop32
280
     0
102
RTVSPost2010PropOp32
 70
     1
102
RTVSPost2010Prop33
280
     0
102
RTVSPost2010PropOp33
 70
     1
102
RTVSPost2010Prop34
280
     0
102
RTVSPost2010PropOp34
 70
     1
102
RTVSPost2010Prop35
280
     0
102
RTVSPost2010PropOp35
 70
     1
102
RTVSPost2010Prop36
280
     0
102
RTVSPost2010PropOp36
 70
     1
102
RTVSPost2010Prop37
 90
       50
102
RTVSPost2010PropOp37
 70
     1
102
RTVSPost2010Prop38
140
0.0
102
RTVSPost2010PropOp38
 70
     1
102
RTVSPost2010Prop39
140
1.0
102
RTVSPost2010PropOp39
 70
     1
102
RTVSPost2010Prop40
 90
        0
102
RTVSPost2010PropOp40
 70
     1
102
RTVSPost2010Prop41ColorIndex
 90
       18
102
RTVSPost2010Prop41ColorRGB
 90
        0
102
RTVSPost2010PropOp41
 70
     1
102
RTVSPost2010Prop42
 90
       50
102
RTVSPost2010PropOp42
 70
     1
102
RTVSPost2010Prop43
 90
        3
102
RTVSPost2010PropOp43
 70
     1
102
RTVSPost2010Prop44ColorIndex
 90
        5
102
RTVSPost2010Prop44ColorRGB
 90
      255
102
RTVSPost2010PropOp44
 70
     1
102
RTVSPost2010Prop45
280
     0
102
RTVSPost2010PropOp45
 70
     1
102
RTVSPost2010Prop46
 90
       50
102
RTVSPost2010PropOp46
 70
     1
102
RTVSPost2010Prop47
 90
       50
102
RTVSPost2010PropOp47
 70
     1
102
RTVSPost2010Prop48
 90
       50
102
RTVSPost2010PropOp48
 70
     1
102
RTVSPost2010Prop49
280
     0
102
RTVSPost2010PropOp49
 70
     1
102
RTVSPost2010Prop50
 90
       50
102
RTVSPost2010PropOp50
 70
     1
102
RTVSPost2010Prop51ColorIndex
 90
      256
102
RTVSPost2010Prop51ColorRGB
 90
-16777216
102
RTVSPost2010PropOp51
 70
     0
102
RTVSPost2010Prop52
140
1.0
102
RTVSPost2010PropOp52
 70
     0
102
RTVSPost2010Prop53
 90
        2
102
RTVSPost2010PropOp53
 70
     1
102
RTVSPost2010Prop54
  1
strokes_ogs.tif
102
RTVSPost2010PropOp54
 70
     1
102
RTVSPost2010Prop55
280
     0
102
RTVSPost2010PropOp55
 70
     1
102
RTVSPost2010Prop56
140
1.0
102
RTVSPost2010PropOp56
 70
     1
102
RTVSPost2010Prop57
140
1.0
102
RTVSPost2010PropOp57
 70
     1
  0
XRECORD
  5
B7
102
{ACAD_REACTORS
330
B6
102
}
330
B6
100
AcDbXrecord
280
     1
102
RTVSPropertyOp0
 70
     0
102
RTVSPropertyOp1
 70
     0
102
RTVSPropertyOp2
 70
     0
102
RTVSPropertyOp3
 70
     0
102
RTVSPropertyOp4
 70
     0
102
RTVSPropertyOp5
 70
     0
102
RTVSPropertyOp6
 70
     0
102
RTVSPropertyOp7
 70
     0
102
RTVSPropertyOp8
 70
     0
102
RTVSPropertyOp9
 70
     0
102
RTVSPropertyOp10
 70
     0
102
RTVSPropertyOp11
 70
     0
102
RTVSPropertyOp12
 70
     0
102
RTVSPropertyOp13
 70
     0
102
RTVSPropertyOp14
 70
     2
102
RTVSPropertyOp15
 70
     0
102
RTVSPropertyOp16
 70
     0
102
RTVSPropertyOp17
 70
     0
102
RTVSPropertyOp18
 70
     0
102
RTVSPropertyOp19
 70
     0
102
RTVSPropertyOp20
 70
     0
102
RTVSPropertyOp21
 70
     0
102
RTVSPropertyOp22
 70
     0
102
RTVSPropertyOp23
 70
     0
102
RTVSPropertyOp24
 70
     0
102
RTVSPropertyOp25
 70
     0
102
RTVSPropertyOp26
 70
     0
102
RTVSPropertyOp27
 70
     0
102
RTVSPropertyOp28
 70
     0
102
RTVSPropertyOp29
 70
     0
102
RTVSPropertyOp30
 70
     0
102
RTVSPropertyOp31
 70
     0
102
RTVSPropertyOp32
 70
     0
102
RTVSPropertyOp33
 70
     0
102
RTVSPropertyOp34
 70
     0
102
RTVSPropertyOp35
 70
     0
102
RTVSPropertyOp36
 70
     0
102
RTVSPropertyOp37
 70
     0
102
RTVSPropertyOp38
 70
     0
102
RTVSPropertyOp39
 70
     0
102
RTVSPropertyOp40
 70
     0
102
RTVSPropertyOp41
 70
     0
102
RTVSPropertyOp42
 70
     0
102
RTVSPropertyOp43
 70
     0
102
RTVSPropertyOp44
 70
     0
102
RTVSPropertyOp45
 70
     0
102
RTVSPropertyOp46
 70
     0
102
RTVSPropertyOp47
 70
     0
102
RTVSPropertyOp48
 70
     0
102
RTVSPropertyOp49
 70
     0
102
RTVSPropertyOp50
 70
     0
102
RTVSPropertyOp51
 70
     0
102
RTVSPropertyOp52
 70
     0
102
RTVSPropertyOp53
 70
     0
102
RTVSPropertyOp54
 70
     0
102
RTVSPropertyOp55
 70
     0
102
RTVSPropertyOp56
 70
     0
102
RTVSPropertyOp57
 70
     0
102
RTVSPost2010Prop28
280
     0
102
RTVSPost2010PropOp28
 70
     0
102
RTVSPost2010Prop29
280
     1
102
RTVSPost2010PropOp29
 70
     0
102
RTVSPost2010Prop30
280
     1
102
RTVSPost2010PropOp30
 70
     0
102
RTVSPost2010Prop31
280
     0
102
RTVSPost2010PropOp31
 70
     0
102
RTVSPost2010Prop32
280
     0
102
RTVSPost2010PropOp32
 70
     0
102
RTVSPost2010Prop33
280
     0
102
RTVSPost2010PropOp33
 70
     0
102
RTVSPost2010Prop34
280
     0
102
RTVSPost2010PropOp34
 70
     0
102
RTVSPost2010Prop35
280
     0
102
RTVSPost2010PropOp35
 70
     0
102
RTVSPost2010Prop36
280
     0
102
RTVSPost2010PropOp36
 70
     0
102
RTVSPost2010Prop37
 90
       50
102
RTVSPost2010PropOp37
 70
     0
102
RTVSPost2010Prop38
140
0.0
102
RTVSPost2010PropOp38
 70
     0
102
RTVSPost2010Prop39
140
1.0
102
RTVSPost2010PropOp39
 70
     0
102
RTVSPost2010Prop40
 90
        0
102
RTVSPost2010PropOp40
 70
     0
102
RTVSPost2010Prop41ColorIndex
 90
       18
102
RTVSPost2010Prop41ColorRGB
 90
        0
102
RTVSPost2010PropOp41
 70
     0
102
RTVSPost2010Prop42
 90
       50
102
RTVSPost2010PropOp42
 70
     0
102
RTVSPost2010Prop43
 90
        3
102
RTVSPost2010PropOp43
 70
     0
102
RTVSPost2010Prop44ColorIndex
 90
        5
102
RTVSPost2010Prop44ColorRGB
 90
      255
102
RTVSPost2010PropOp44
 70
     0
102
RTVSPost2010Prop45
280
     0
102
RTVSPost2010PropOp45
 70
     0
102
RTVSPost2010Prop46
 90
       50
102
RTVSPost2010PropOp46
 70
     0
102
RTVSPost2010Prop47
 90
       50
102
RTVSPost2010PropOp47
 70
     0
102
RTVSPost2010Prop48
 90
       50
102
RTVSPost2010PropOp48
 70
     0
102
RTVSPost2010Prop49
280
     0
102
RTVSPost2010PropOp49
 70
     0
102
RTVSPost2010Prop50
 90
       50
102
RTVSPost2010PropOp50
 70
     0
102
RTVSPost2010Prop51ColorIndex
 90
      256
102
RTVSPost2010Prop51ColorRGB
 90
-16777216
102
RTVSPost2010PropOp51
 70
     0
102
RTVSPost2010Prop52
140
1.0
102
RTVSPost2010PropOp52
 70
     0
102
RTVSPost2010Prop53
 90
        2
102
RTVSPost2010PropOp53
 70
     0
102
RTVSPost2010Prop54
  1
strokes_ogs.tif
102
RTVSPost2010PropOp54
 70
     0
102
RTVSPost2010Prop55
280
     0
102
RTVSPost2010PropOp55
 70
     0
102
RTVSPost2010Prop56
140
1.0
102
RTVSPost2010PropOp56
 70
     0
102
RTVSPost2010Prop57
140
1.0
102
RTVSPost2010PropOp57
 70
     0
  0
XRECORD
  5
AF
102
{ACAD_REACTORS
330
AE
102
}
330
AE
100
AcDbXrecord
280
     1
102
RTVSPropertyOp0
 70
     1
102
RTVSPropertyOp1
 70
     1
102
RTVSPropertyOp2
 70
     1
102
RTVSPropertyOp3
 70
     1
102
RTVSPropertyOp4
 70
     1
102
RTVSPropertyOp5
 70
     1
102
RTVSPropertyOp6
 70
     1
102
RTVSPropertyOp7
 70
     1
102
RTVSPropertyOp8
 70
     1
102
RTVSPropertyOp9
 70
     1
102
RTVSPropertyOp10
 70
     1
102
RTVSPropertyOp11
 70
     1
102
RTVSPropertyOp12
 70
     1
102
RTVSPropertyOp13
 70
     1
102
RTVSPropertyOp14
 70
     1
102
RTVSPropertyOp15
 70
     1
102
RTVSPropertyOp16
 70
     1
102
RTVSPropertyOp17
 70
     1
102
RTVSPropertyOp18
 70
     1
102
RTVSPropertyOp19
 70
     1
102
RTVSPropertyOp20
 70
     1
102
RTVSPropertyOp21
 70
     1
102
RTVSPropertyOp22
 70
     1
102
RTVSPropertyOp23
 70
     1
102
RTVSPropertyOp24
 70
     1
102
RTVSPropertyOp25
 70
     1
102
RTVSPropertyOp26
 70
     1
102
RTVSPropertyOp27
 70
     1
102
RTVSPropertyOp28
 70
     1
102
RTVSPropertyOp29
 70
     1
102
RTVSPropertyOp30
 70
     1
102
RTVSPropertyOp31
 70
     1
102
RTVSPropertyOp32
 70
     1
102
RTVSPropertyOp33
 70
     1
102
RTVSPropertyOp34
 70
     1
102
RTVSPropertyOp35
 70
     1
102
RTVSPropertyOp36
 70
     1
102
RTVSPropertyOp37
 70
     1
102
RTVSPropertyOp38
 70
     1
102
RTVSPropertyOp39
 70
     1
102
RTVSPropertyOp40
 70
     1
102
RTVSPropertyOp41
 70
     1
102
RTVSPropertyOp42
 70
     1
102
RTVSPropertyOp43
 70
     1
102
RTVSPropertyOp44
 70
     1
102
RTVSPropertyOp45
 70
     1
102
RTVSPropertyOp46
 70
     1
102
RTVSPropertyOp47
 70
     1
102
RTVSPropertyOp48
 70
     1
102
RTVSPropertyOp49
 70
     1
102
RTVSPropertyOp50
 70
     1
102
RTVSPropertyOp51
 70
     0
102
RTVSPropertyOp52
 70
     0
102
RTVSPropertyOp53
 70
     1
102
RTVSPropertyOp54
 70
     1
102
RTVSPropertyOp55
 70
     1
102
RTVSPropertyOp56
 70
     1
102
RTVSPropertyOp57
 70
     1
102
RTVSPost2010Prop28
280
     0
102
RTVSPost2010PropOp28
 70
     1
102
RTVSPost2010Prop29
280
     1
102
RTVSPost2010PropOp29
 70
     1
102
RTVSPost2010Prop30
280
     1
102
RTVSPost2010PropOp30
 70
     1
102
RTVSPost2010Prop31
280
     0
102
RTVSPost2010PropOp31
 70
     1
102
RTVSPost2010Prop32
280
     0
102
RTVSPost2010PropOp32
 70
     1
102
RTVSPost2010Prop33
280
     0
102
RTVSPost2010PropOp33
 70
     1
102
RTVSPost2010Prop34
280
     0
102
RTVSPost2010PropOp34
 70
     1
102
RTVSPost2010Prop35
280
     0
102
RTVSPost2010PropOp35
 70
     1
102
RTVSPost2010Prop36
280
     0
102
RTVSPost2010PropOp36
 70
     1
102
RTVSPost2010Prop37
 90
       50
102
RTVSPost2010PropOp37
 70
     1
102
RTVSPost2010Prop38
140
0.0
102
RTVSPost2010PropOp38
 70
     1
102
RTVSPost2010Prop39
140
1.0
102
RTVSPost2010PropOp39
 70
     1
102
RTVSPost2010Prop40
 90
        0
102
RTVSPost2010PropOp40
 70
     1
102
RTVSPost2010Prop41ColorIndex
 90
       18
102
RTVSPost2010Prop41ColorRGB
 90
        0
102
RTVSPost2010PropOp41
 70
     1
102
RTVSPost2010Prop42
 90
       50
102
RTVSPost2010PropOp42
 70
     1
102
RTVSPost2010Prop43
 90
        3
102
RTVSPost2010PropOp43
 70
     1
102
RTVSPost2010Prop44ColorIndex
 90
        5
102
RTVSPost2010Prop44ColorRGB
 90
      255
102
RTVSPost2010PropOp44
 70
     1
102
RTVSPost2010Prop45
280
     0
102
RTVSPost2010PropOp45
 70
     1
102
RTVSPost2010Prop46
 90
       50
102
RTVSPost2010PropOp46
 70
     1
102
RTVSPost2010Prop47
 90
       50
102
RTVSPost2010PropOp47
 70
     1
102
RTVSPost2010Prop48
 90
       50
102
RTVSPost2010PropOp48
 70
     1
102
RTVSPost2010Prop49
280
     0
102
RTVSPost2010PropOp49
 70
     1
102
RTVSPost2010Prop50
 90
       50
102
RTVSPost2010PropOp50
 70
     1
102
RTVSPost2010Prop51ColorIndex
 90
      256
102
RTVSPost2010Prop51ColorRGB
 90
-16777216
102
RTVSPost2010PropOp51
 70
     0
102
RTVSPost2010Prop52
140
1.0
102
RTVSPost2010PropOp52
 70
     0
102
RTVSPost2010Prop53
 90
        2
102
RTVSPost2010PropOp53
 70
     1
102
RTVSPost2010Prop54
  1
strokes_ogs.tif
102
RTVSPost2010PropOp54
 70
     1
102
RTVSPost2010Prop55
280
     0
102
RTVSPost2010PropOp55
 70
     1
102
RTVSPost2010Prop56
140
1.0
102
RTVSPost2010PropOp56
 70
     1
102
RTVSPost2010Prop57
140
1.0
102
RTVSPost2010PropOp57
 70
     1
  0
XRECORD
  5
93
102
{ACAD_REACTORS
330
92
102
}
330
92
100
AcDbXrecord
280
     1
102
RTVSPropertyOp0
 70
     1
102
RTVSPropertyOp1
 70
     1
102
RTVSPropertyOp2
 70
     1
102
RTVSPropertyOp3
 70
     1
102
RTVSPropertyOp4
 70
     1
102
RTVSPropertyOp5
 70
     1
102
RTVSPropertyOp6
 70
     1
102
RTVSPropertyOp7
 70
     1
102
RTVSPropertyOp8
 70
     1
102
RTVSPropertyOp9
 70
     1
102
RTVSPropertyOp10
 70
     1
102
RTVSPropertyOp11
 70
     1
102
RTVSPropertyOp12
 70
     1
102
RTVSPropertyOp13
 70
     1
102
RTVSPropertyOp14
 70
     1
102
RTVSPropertyOp15
 70
     1
102
RTVSPropertyOp16
 70
     1
102
RTVSPropertyOp17
 70
     1
102
RTVSPropertyOp18
 70
     1
102
RTVSPropertyOp19
 70
     1
102
RTVSPropertyOp20
 70
     1
102
RTVSPropertyOp21
 70
     1
102
RTVSPropertyOp22
 70
     1
102
RTVSPropertyOp23
 70
     1
102
RTVSPropertyOp24
 70
     1
102
RTVSPropertyOp25
 70
     1
102
RTVSPropertyOp26
 70
     1
102
RTVSPropertyOp27
 70
     1
102
RTVSPropertyOp28
 70
     1
102
RTVSPropertyOp29
 70
     1
102
RTVSPropertyOp30
 70
     1
102
RTVSPropertyOp31
 70
     1
102
RTVSPropertyOp32
 70
     1
102
RTVSPropertyOp33
 70
     1
102
RTVSPropertyOp34
 70
     1
102
RTVSPropertyOp35
 70
     1
102
RTVSPropertyOp36
 70
     1
102
RTVSPropertyOp37
 70
     1
102
RTVSPropertyOp38
 70
     1
102
RTVSPropertyOp39
 70
     1
102
RTVSPropertyOp40
 70
     1
102
RTVSPropertyOp41
 70
     1
102
RTVSPropertyOp42
 70
     1
102
RTVSPropertyOp43
 70
     1
102
RTVSPropertyOp44
 70
     1
102
RTVSPropertyOp45
 70
     1
102
RTVSPropertyOp46
 70
     1
102
RTVSPropertyOp47
 70
     1
102
RTVSPropertyOp48
 70
     1
102
RTVSPropertyOp49
 70
     1
102
RTVSPropertyOp50
 70
     1
102
RTVSPropertyOp51
 70
     0
102
RTVSPropertyOp52
 70
     0
102
RTVSPropertyOp53
 70
     1
102
RTVSPropertyOp54
 70
     1
102
RTVSPropertyOp55
 70
     1
102
RTVSPropertyOp56
 70
     1
102
RTVSPropertyOp57
 70
     1
102
RTVSPost2010Prop28
280
     0
102
RTVSPost2010PropOp28
 70
     1
102
RTVSPost2010Prop29
280
     1
102
RTVSPost2010PropOp29
 70
     1
102
RTVSPost2010Prop30
280
     1
102
RTVSPost2010PropOp30
 70
     1
102
RTVSPost2010Prop31
280
     0
102
RTVSPost2010PropOp31
 70
     1
102
RTVSPost2010Prop32
280
     0
102
RTVSPost2010PropOp32
 70
     1
102
RTVSPost2010Prop33
280
     0
102
RTVSPost2010PropOp33
 70
     1
102
RTVSPost2010Prop34
280
     0
102
RTVSPost2010PropOp34
 70
     1
102
RTVSPost2010Prop35
280
     0
102
RTVSPost2010PropOp35
 70
     1
102
RTVSPost2010Prop36
280
     0
102
RTVSPost2010PropOp36
 70
     1
102
RTVSPost2010Prop37
 90
       50
102
RTVSPost2010PropOp37
 70
     1
102
RTVSPost2010Prop38
140
0.0
102
RTVSPost2010PropOp38
 70
     1
102
RTVSPost2010Prop39
140
1.0
102
RTVSPost2010PropOp39
 70
     1
102
RTVSPost2010Prop40
 90
        0
102
RTVSPost2010PropOp40
 70
     1
102
RTVSPost2010Prop41ColorIndex
 90
       18
102
RTVSPost2010Prop41ColorRGB
 90
        0
102
RTVSPost2010PropOp41
 70
     1
102
RTVSPost2010Prop42
 90
       50
102
RTVSPost2010PropOp42
 70
     1
102
RTVSPost2010Prop43
 90
        3
102
RTVSPost2010PropOp43
 70
     1
102
RTVSPost2010Prop44ColorIndex
 90
        5
102
RTVSPost2010Prop44ColorRGB
 90
      255
102
RTVSPost2010PropOp44
 70
     1
102
RTVSPost2010Prop45
280
     0
102
RTVSPost2010PropOp45
 70
     1
102
RTVSPost2010Prop46
 90
       50
102
RTVSPost2010PropOp46
 70
     1
102
RTVSPost2010Prop47
 90
       50
102
RTVSPost2010PropOp47
 70
     1
102
RTVSPost2010Prop48
 90
       50
102
RTVSPost2010PropOp48
 70
     1
102
RTVSPost2010Prop49
280
     0
102
RTVSPost2010PropOp49
 70
     1
102
RTVSPost2010Prop50
 90
       50
102
RTVSPost2010PropOp50
 70
     1
102
RTVSPost2010Prop51ColorIndex
 90
      256
102
RTVSPost2010Prop51ColorRGB
 90
-16777216
102
RTVSPost2010PropOp51
 70
     0
102
RTVSPost2010Prop52
140
1.0
102
RTVSPost2010PropOp52
 70
     0
102
RTVSPost2010Prop53
 90
        2
102
RTVSPost2010PropOp53
 70
     1
102
RTVSPost2010Prop54
  1
strokes_ogs.tif
102
RTVSPost2010PropOp54
 70
     1
102
RTVSPost2010Prop55
280
     0
102
RTVSPost2010PropOp55
 70
     1
102
RTVSPost2010Prop56
140
1.0
102
RTVSPost2010PropOp56
 70
     1
102
RTVSPost2010Prop57
140
1.0
102
RTVSPost2010PropOp57
 70
     1
  0
XRECORD
  5
95
102
{ACAD_REACTORS
330
94
102
}
330
94
100
AcDbXrecord
280
     1
102
RTVSPropertyOp0
 70
     1
102
RTVSPropertyOp1
 70
     1
102
RTVSPropertyOp2
 70
     1
102
RTVSPropertyOp3
 70
     1
102
RTVSPropertyOp4
 70
     1
102
RTVSPropertyOp5
 70
     1
102
RTVSPropertyOp6
 70
     1
102
RTVSPropertyOp7
 70
     1
102
RTVSPropertyOp8
 70
     1
102
RTVSPropertyOp9
 70
     1
102
RTVSPropertyOp10
 70
     1
102
RTVSPropertyOp11
 70
     1
102
RTVSPropertyOp12
 70
     1
102
RTVSPropertyOp13
 70
     1
102
RTVSPropertyOp14
 70
     1
102
RTVSPropertyOp15
 70
     1
102
RTVSPropertyOp16
 70
     1
102
RTVSPropertyOp17
 70
     1
102
RTVSPropertyOp18
 70
     1
102
RTVSPropertyOp19
 70
     1
102
RTVSPropertyOp20
 70
     1
102
RTVSPropertyOp21
 70
     1
102
RTVSPropertyOp22
 70
     1
102
RTVSPropertyOp23
 70
     1
102
RTVSPropertyOp24
 70
     1
102
RTVSPropertyOp25
 70
     1
102
RTVSPropertyOp26
 70
     1
102
RTVSPropertyOp27
 70
     1
102
RTVSPropertyOp28
 70
     1
102
RTVSPropertyOp29
 70
     1
102
RTVSPropertyOp30
 70
     1
102
RTVSPropertyOp31
 70
     1
102
RTVSPropertyOp32
 70
     1
102
RTVSPropertyOp33
 70
     1
102
RTVSPropertyOp34
 70
     1
102
RTVSPropertyOp35
 70
     1
102
RTVSPropertyOp36
 70
     1
102
RTVSPropertyOp37
 70
     1
102
RTVSPropertyOp38
 70
     1
102
RTVSPropertyOp39
 70
     1
102
RTVSPropertyOp40
 70
     1
102
RTVSPropertyOp41
 70
     1
102
RTVSPropertyOp42
 70
     1
102
RTVSPropertyOp43
 70
     1
102
RTVSPropertyOp44
 70
     1
102
RTVSPropertyOp45
 70
     1
102
RTVSPropertyOp46
 70
     1
102
RTVSPropertyOp47
 70
     1
102
RTVSPropertyOp48
 70
     1
102
RTVSPropertyOp49
 70
     1
102
RTVSPropertyOp50
 70
     1
102
RTVSPropertyOp51
 70
     0
102
RTVSPropertyOp52
 70
     0
102
RTVSPropertyOp53
 70
     1
102
RTVSPropertyOp54
 70
     1
102
RTVSPropertyOp55
 70
     1
102
RTVSPropertyOp56
 70
     1
102
RTVSPropertyOp57
 70
     1
102
RTVSPost2010Prop28
280
     0
102
RTVSPost2010PropOp28
 70
     1
102
RTVSPost2010Prop29
280
     1
102
RTVSPost2010PropOp29
 70
     1
102
RTVSPost2010Prop30
280
     1
102
RTVSPost2010PropOp30
 70
     1
102
RTVSPost2010Prop31
280
     0
102
RTVSPost2010PropOp31
 70
     1
102
RTVSPost2010Prop32
280
     0
102
RTVSPost2010PropOp32
 70
     1
102
RTVSPost2010Prop33
280
     0
102
RTVSPost2010PropOp33
 70
     1
102
RTVSPost2010Prop34
280
     0
102
RTVSPost2010PropOp34
 70
     1
102
RTVSPost2010Prop35
280
     0
102
RTVSPost2010PropOp35
 70
     1
102
RTVSPost2010Prop36
280
     0
102
RTVSPost2010PropOp36
 70
     1
102
RTVSPost2010Prop37
 90
       50
102
RTVSPost2010PropOp37
 70
     1
102
RTVSPost2010Prop38
140
0.0
102
RTVSPost2010PropOp38
 70
     1
102
RTVSPost2010Prop39
140
1.0
102
RTVSPost2010PropOp39
 70
     1
102
RTVSPost2010Prop40
 90
        0
102
RTVSPost2010PropOp40
 70
     1
102
RTVSPost2010Prop41ColorIndex
 90
       18
102
RTVSPost2010Prop41ColorRGB
 90
        0
102
RTVSPost2010PropOp41
 70
     1
102
RTVSPost2010Prop42
 90
       50
102
RTVSPost2010PropOp42
 70
     1
102
RTVSPost2010Prop43
 90
        3
102
RTVSPost2010PropOp43
 70
     1
102
RTVSPost2010Prop44ColorIndex
 90
        5
102
RTVSPost2010Prop44ColorRGB
 90
      255
102
RTVSPost2010PropOp44
 70
     1
102
RTVSPost2010Prop45
280
     0
102
RTVSPost2010PropOp45
 70
     1
102
RTVSPost2010Prop46
 90
       50
102
RTVSPost2010PropOp46
 70
     1
102
RTVSPost2010Prop47
 90
       50
102
RTVSPost2010PropOp47
 70
     1
102
RTVSPost2010Prop48
 90
       50
102
RTVSPost2010PropOp48
 70
     1
102
RTVSPost2010Prop49
280
     0
102
RTVSPost2010PropOp49
 70
     1
102
RTVSPost2010Prop50
 90
       50
102
RTVSPost2010PropOp50
 70
     1
102
RTVSPost2010Prop51ColorIndex
 90
      256
102
RTVSPost2010Prop51ColorRGB
 90
-16777216
102
RTVSPost2010PropOp51
 70
     0
102
RTVSPost2010Prop52
140
1.0
102
RTVSPost2010PropOp52
 70
     0
102
RTVSPost2010Prop53
 90
        2
102
RTVSPost2010PropOp53
 70
     1
102
RTVSPost2010Prop54
  1
strokes_ogs.tif
102
RTVSPost2010PropOp54
 70
     1
102
RTVSPost2010Prop55
280
     0
102
RTVSPost2010PropOp55
 70
     1
102
RTVSPost2010Prop56
140
1.0
102
RTVSPost2010PropOp56
 70
     1
102
RTVSPost2010Prop57
140
1.0
102
RTVSPost2010PropOp57
 70
     1
  0
XRECORD
  5
97
102
{ACAD_REACTORS
330
96
102
}
330
96
100
AcDbXrecord
280
     1
102
RTVSPropertyOp0
 70
     1
102
RTVSPropertyOp1
 70
     1
102
RTVSPropertyOp2
 70
     1
102
RTVSPropertyOp3
 70
     1
102
RTVSPropertyOp4
 70
     1
102
RTVSPropertyOp5
 70
     1
102
RTVSPropertyOp6
 70
     1
102
RTVSPropertyOp7
 70
     1
102
RTVSPropertyOp8
 70
     1
102
RTVSPropertyOp9
 70
     1
102
RTVSPropertyOp10
 70
     1
102
RTVSPropertyOp11
 70
     1
102
RTVSPropertyOp12
 70
     1
102
RTVSPropertyOp13
 70
     1
102
RTVSPropertyOp14
 70
     1
102
RTVSPropertyOp15
 70
     1
102
RTVSPropertyOp16
 70
     1
102
RTVSPropertyOp17
 70
     1
102
RTVSPropertyOp18
 70
     1
102
RTVSPropertyOp19
 70
     1
102
RTVSPropertyOp20
 70
     1
102
RTVSPropertyOp21
 70
     1
102
RTVSPropertyOp22
 70
     1
102
RTVSPropertyOp23
 70
     1
102
RTVSPropertyOp24
 70
     1
102
RTVSPropertyOp25
 70
     1
102
RTVSPropertyOp26
 70
     1
102
RTVSPropertyOp27
 70
     1
102
RTVSPropertyOp28
 70
     1
102
RTVSPropertyOp29
 70
     1
102
RTVSPropertyOp30
 70
     1
102
RTVSPropertyOp31
 70
     1
102
RTVSPropertyOp32
 70
     1
102
RTVSPropertyOp33
 70
     1
102
RTVSPropertyOp34
 70
     1
102
RTVSPropertyOp35
 70
     1
102
RTVSPropertyOp36
 70
     1
102
RTVSPropertyOp37
 70
     1
102
RTVSPropertyOp38
 70
     1
102
RTVSPropertyOp39
 70
     1
102
RTVSPropertyOp40
 70
     1
102
RTVSPropertyOp41
 70
     1
102
RTVSPropertyOp42
 70
     1
102
RTVSPropertyOp43
 70
     1
102
RTVSPropertyOp44
 70
     1
102
RTVSPropertyOp45
 70
     1
102
RTVSPropertyOp46
 70
     1
102
RTVSPropertyOp47
 70
     1
102
RTVSPropertyOp48
 70
     1
102
RTVSPropertyOp49
 70
     1
102
RTVSPropertyOp50
 70
     1
102
RTVSPropertyOp51
 70
     0
102
RTVSPropertyOp52
 70
     0
102
RTVSPropertyOp53
 70
     1
102
RTVSPropertyOp54
 70
     1
102
RTVSPropertyOp55
 70
     1
102
RTVSPropertyOp56
 70
     1
102
RTVSPropertyOp57
 70
     1
102
RTVSPost2010Prop28
280
     0
102
RTVSPost2010PropOp28
 70
     1
102
RTVSPost2010Prop29
280
     1
102
RTVSPost2010PropOp29
 70
     1
102
RTVSPost2010Prop30
280
     1
102
RTVSPost2010PropOp30
 70
     1
102
RTVSPost2010Prop31
280
     0
102
RTVSPost2010PropOp31
 70
     1
102
RTVSPost2010Prop32
280
     0
102
RTVSPost2010PropOp32
 70
     1
102
RTVSPost2010Prop33
280
     0
102
RTVSPost2010PropOp33
 70
     1
102
RTVSPost2010Prop34
280
     0
102
RTVSPost2010PropOp34
 70
     1
102
RTVSPost2010Prop35
280
     0
102
RTVSPost2010PropOp35
 70
     1
102
RTVSPost2010Prop36
280
     0
102
RTVSPost2010PropOp36
 70
     1
102
RTVSPost2010Prop37
 90
       50
102
RTVSPost2010PropOp37
 70
     1
102
RTVSPost2010Prop38
140
0.0
102
RTVSPost2010PropOp38
 70
     1
102
RTVSPost2010Prop39
140
1.0
102
RTVSPost2010PropOp39
 70
     1
102
RTVSPost2010Prop40
 90
        0
102
RTVSPost2010PropOp40
 70
     1
102
RTVSPost2010Prop41ColorIndex
 90
       18
102
RTVSPost2010Prop41ColorRGB
 90
        0
102
RTVSPost2010PropOp41
 70
     1
102
RTVSPost2010Prop42
 90
       50
102
RTVSPost2010PropOp42
 70
     1
102
RTVSPost2010Prop43
 90
        3
102
RTVSPost2010PropOp43
 70
     1
102
RTVSPost2010Prop44ColorIndex
 90
        5
102
RTVSPost2010Prop44ColorRGB
 90
      255
102
RTVSPost2010PropOp44
 70
     1
102
RTVSPost2010Prop45
280
     0
102
RTVSPost2010PropOp45
 70
     1
102
RTVSPost2010Prop46
 90
       50
102
RTVSPost2010PropOp46
 70
     1
102
RTVSPost2010Prop47
 90
       50
102
RTVSPost2010PropOp47
 70
     1
102
RTVSPost2010Prop48
 90
       50
102
RTVSPost2010PropOp48
 70
     1
102
RTVSPost2010Prop49
280
     0
102
RTVSPost2010PropOp49
 70
     1
102
RTVSPost2010Prop50
 90
       50
102
RTVSPost2010PropOp50
 70
     1
102
RTVSPost2010Prop51ColorIndex
 90
      256
102
RTVSPost2010Prop51ColorRGB
 90
-16777216
102
RTVSPost2010PropOp51
 70
     0
102
RTVSPost2010Prop52
140
1.0
102
RTVSPost2010PropOp52
 70
     0
102
RTVSPost2010Prop53
 90
        2
102
RTVSPost2010PropOp53
 70
     1
102
RTVSPost2010Prop54
  1
strokes_ogs.tif
102
RTVSPost2010PropOp54
 70
     1
102
RTVSPost2010Prop55
280
     0
102
RTVSPost2010PropOp55
 70
     1
102
RTVSPost2010Prop56
140
1.0
102
RTVSPost2010PropOp56
 70
     1
102
RTVSPost2010Prop57
140
1.0
102
RTVSPost2010PropOp57
 70
     1
  0
XRECORD
  5
99
102
{ACAD_REACTORS
330
98
102
}
330
98
100
AcDbXrecord
280
     1
102
RTVSPropertyOp0
 70
     1
102
RTVSPropertyOp1
 70
     1
102
RTVSPropertyOp2
 70
     1
102
RTVSPropertyOp3
 70
     1
102
RTVSPropertyOp4
 70
     1
102
RTVSPropertyOp5
 70
     1
102
RTVSPropertyOp6
 70
     1
102
RTVSPropertyOp7
 70
     1
102
RTVSPropertyOp8
 70
     1
102
RTVSPropertyOp9
 70
     1
102
RTVSPropertyOp10
 70
     1
102
RTVSPropertyOp11
 70
     1
102
RTVSPropertyOp12
 70
     1
102
RTVSPropertyOp13
 70
     1
102
RTVSPropertyOp14
 70
     1
102
RTVSPropertyOp15
 70
     1
102
RTVSPropertyOp16
 70
     1
102
RTVSPropertyOp17
 70
     1
102
RTVSPropertyOp18
 70
     1
102
RTVSPropertyOp19
 70
     1
102
RTVSPropertyOp20
 70
     1
102
RTVSPropertyOp21
 70
     1
102
RTVSPropertyOp22
 70
     1
102
RTVSPropertyOp23
 70
     1
102
RTVSPropertyOp24
 70
     1
102
RTVSPropertyOp25
 70
     1
102
RTVSPropertyOp26
 70
     1
102
RTVSPropertyOp27
 70
     1
102
RTVSPropertyOp28
 70
     1
102
RTVSPropertyOp29
 70
     1
102
RTVSPropertyOp30
 70
     1
102
RTVSPropertyOp31
 70
     1
102
RTVSPropertyOp32
 70
     1
102
RTVSPropertyOp33
 70
     1
102
RTVSPropertyOp34
 70
     1
102
RTVSPropertyOp35
 70
     1
102
RTVSPropertyOp36
 70
     1
102
RTVSPropertyOp37
 70
     1
102
RTVSPropertyOp38
 70
     1
102
RTVSPropertyOp39
 70
     1
102
RTVSPropertyOp40
 70
     1
102
RTVSPropertyOp41
 70
     1
102
RTVSPropertyOp42
 70
     1
102
RTVSPropertyOp43
 70
     1
102
RTVSPropertyOp44
 70
     1
102
RTVSPropertyOp45
 70
     1
102
RTVSPropertyOp46
 70
     1
102
RTVSPropertyOp47
 70
     1
102
RTVSPropertyOp48
 70
     1
102
RTVSPropertyOp49
 70
     1
102
RTVSPropertyOp50
 70
     1
102
RTVSPropertyOp51
 70
     0
102
RTVSPropertyOp52
 70
     0
102
RTVSPropertyOp53
 70
     1
102
RTVSPropertyOp54
 70
     1
102
RTVSPropertyOp55
 70
     1
102
RTVSPropertyOp56
 70
     1
102
RTVSPropertyOp57
 70
     1
102
RTVSPost2010Prop28
280
     0
102
RTVSPost2010PropOp28
 70
     1
102
RTVSPost2010Prop29
280
     1
102
RTVSPost2010PropOp29
 70
     1
102
RTVSPost2010Prop30
280
     1
102
RTVSPost2010PropOp30
 70
     1
102
RTVSPost2010Prop31
280
     0
102
RTVSPost2010PropOp31
 70
     1
102
RTVSPost2010Prop32
280
     0
102
RTVSPost2010PropOp32
 70
     1
102
RTVSPost2010Prop33
280
     0
102
RTVSPost2010PropOp33
 70
     1
102
RTVSPost2010Prop34
280
     0
102
RTVSPost2010PropOp34
 70
     1
102
RTVSPost2010Prop35
280
     0
102
RTVSPost2010PropOp35
 70
     1
102
RTVSPost2010Prop36
280
     0
102
RTVSPost2010PropOp36
 70
     1
102
RTVSPost2010Prop37
 90
       50
102
RTVSPost2010PropOp37
 70
     1
102
RTVSPost2010Prop38
140
0.0
102
RTVSPost2010PropOp38
 70
     1
102
RTVSPost2010Prop39
140
1.0
102
RTVSPost2010PropOp39
 70
     1
102
RTVSPost2010Prop40
 90
        0
102
RTVSPost2010PropOp40
 70
     1
102
RTVSPost2010Prop41ColorIndex
 90
       18
102
RTVSPost2010Prop41ColorRGB
 90
        0
102
RTVSPost2010PropOp41
 70
     1
102
RTVSPost2010Prop42
 90
       50
102
RTVSPost2010PropOp42
 70
     1
102
RTVSPost2010Prop43
 90
        3
102
RTVSPost2010PropOp43
 70
     1
102
RTVSPost2010Prop44ColorIndex
 90
        5
102
RTVSPost2010Prop44ColorRGB
 90
      255
102
RTVSPost2010PropOp44
 70
     1
102
RTVSPost2010Prop45
280
     0
102
RTVSPost2010PropOp45
 70
     1
102
RTVSPost2010Prop46
 90
       50
102
RTVSPost2010PropOp46
 70
     1
102
RTVSPost2010Prop47
 90
       50
102
RTVSPost2010PropOp47
 70
     1
102
RTVSPost2010Prop48
 90
       50
102
RTVSPost2010PropOp48
 70
     1
102
RTVSPost2010Prop49
280
     0
102
RTVSPost2010PropOp49
 70
     1
102
RTVSPost2010Prop50
 90
       50
102
RTVSPost2010PropOp50
 70
     1
102
RTVSPost2010Prop51ColorIndex
 90
      256
102
RTVSPost2010Prop51ColorRGB
 90
-16777216
102
RTVSPost2010PropOp51
 70
     0
102
RTVSPost2010Prop52
140
1.0
102
RTVSPost2010PropOp52
 70
     0
102
RTVSPost2010Prop53
 90
        2
102
RTVSPost2010PropOp53
 70
     1
102
RTVSPost2010Prop54
  1
strokes_ogs.tif
102
RTVSPost2010PropOp54
 70
     1
102
RTVSPost2010Prop55
280
     0
102
RTVSPost2010PropOp55
 70
     1
102
RTVSPost2010Prop56
140
1.0
102
RTVSPost2010PropOp56
 70
     1
102
RTVSPost2010Prop57
140
1.0
102
RTVSPost2010PropOp57
 70
     1
  0
XRECORD
  5
9F
102
{ACAD_REACTORS
330
9E
102
}
330
9E
100
AcDbXrecord
280
     1
102
RTVSPropertyOp0
 70
     1
102
RTVSPropertyOp1
 70
     1
102
RTVSPropertyOp2
 70
     1
102
RTVSPropertyOp3
 70
     1
102
RTVSPropertyOp4
 70
     1
102
RTVSPropertyOp5
 70
     1
102
RTVSPropertyOp6
 70
     1
102
RTVSPropertyOp7
 70
     1
102
RTVSPropertyOp8
 70
     1
102
RTVSPropertyOp9
 70
     1
102
RTVSPropertyOp10
 70
     1
102
RTVSPropertyOp11
 70
     1
102
RTVSPropertyOp12
 70
     1
102
RTVSPropertyOp13
 70
     1
102
RTVSPropertyOp14
 70
     1
102
RTVSPropertyOp15
 70
     1
102
RTVSPropertyOp16
 70
     1
102
RTVSPropertyOp17
 70
     1
102
RTVSPropertyOp18
 70
     1
102
RTVSPropertyOp19
 70
     1
102
RTVSPropertyOp20
 70
     1
102
RTVSPropertyOp21
 70
     1
102
RTVSPropertyOp22
 70
     1
102
RTVSPropertyOp23
 70
     1
102
RTVSPropertyOp24
 70
     1
102
RTVSPropertyOp25
 70
     1
102
RTVSPropertyOp26
 70
     1
102
RTVSPropertyOp27
 70
     1
102
RTVSPropertyOp28
 70
     1
102
RTVSPropertyOp29
 70
     1
102
RTVSPropertyOp30
 70
     1
102
RTVSPropertyOp31
 70
     1
102
RTVSPropertyOp32
 70
     1
102
RTVSPropertyOp33
 70
     1
102
RTVSPropertyOp34
 70
     1
102
RTVSPropertyOp35
 70
     1
102
RTVSPropertyOp36
 70
     1
102
RTVSPropertyOp37
 70
     1
102
RTVSPropertyOp38
 70
     1
102
RTVSPropertyOp39
 70
     1
102
RTVSPropertyOp40
 70
     1
102
RTVSPropertyOp41
 70
     1
102
RTVSPropertyOp42
 70
     1
102
RTVSPropertyOp43
 70
     1
102
RTVSPropertyOp44
 70
     1
102
RTVSPropertyOp45
 70
     1
102
RTVSPropertyOp46
 70
     1
102
RTVSPropertyOp47
 70
     1
102
RTVSPropertyOp48
 70
     1
102
RTVSPropertyOp49
 70
     1
102
RTVSPropertyOp50
 70
     1
102
RTVSPropertyOp51
 70
     0
102
RTVSPropertyOp52
 70
     0
102
RTVSPropertyOp53
 70
     1
102
RTVSPropertyOp54
 70
     1
102
RTVSPropertyOp55
 70
     1
102
RTVSPropertyOp56
 70
     1
102
RTVSPropertyOp57
 70
     1
102
RTVSPost2010Prop28
280
     0
102
RTVSPost2010PropOp28
 70
     1
102
RTVSPost2010Prop29
280
     1
102
RTVSPost2010PropOp29
 70
     1
102
RTVSPost2010Prop30
280
     1
102
RTVSPost2010PropOp30
 70
     1
102
RTVSPost2010Prop31
280
     0
102
RTVSPost2010PropOp31
 70
     1
102
RTVSPost2010Prop32
280
     0
102
RTVSPost2010PropOp32
 70
     1
102
RTVSPost2010Prop33
280
     0
102
RTVSPost2010PropOp33
 70
     1
102
RTVSPost2010Prop34
280
     0
102
RTVSPost2010PropOp34
 70
     1
102
RTVSPost2010Prop35
280
     0
102
RTVSPost2010PropOp35
 70
     1
102
RTVSPost2010Prop36
280
     0
102
RTVSPost2010PropOp36
 70
     1
102
RTVSPost2010Prop37
 90
       50
102
RTVSPost2010PropOp37
 70
     1
102
RTVSPost2010Prop38
140
0.0
102
RTVSPost2010PropOp38
 70
     1
102
RTVSPost2010Prop39
140
1.0
102
RTVSPost2010PropOp39
 70
     1
102
RTVSPost2010Prop40
 90
        0
102
RTVSPost2010PropOp40
 70
     1
102
RTVSPost2010Prop41ColorIndex
 90
       18
102
RTVSPost2010Prop41ColorRGB
 90
        0
102
RTVSPost2010PropOp41
 70
     1
102
RTVSPost2010Prop42
 90
       50
102
RTVSPost2010PropOp42
 70
     1
102
RTVSPost2010Prop43
 90
        3
102
RTVSPost2010PropOp43
 70
     1
102
RTVSPost2010Prop44ColorIndex
 90
        5
102
RTVSPost2010Prop44ColorRGB
 90
      255
102
RTVSPost2010PropOp44
 70
     1
102
RTVSPost2010Prop45
280
     0
102
RTVSPost2010PropOp45
 70
     1
102
RTVSPost2010Prop46
 90
       50
102
RTVSPost2010PropOp46
 70
     1
102
RTVSPost2010Prop47
 90
       50
102
RTVSPost2010PropOp47
 70
     1
102
RTVSPost2010Prop48
 90
       50
102
RTVSPost2010PropOp48
 70
     1
102
RTVSPost2010Prop49
280
     0
102
RTVSPost2010PropOp49
 70
     1
102
RTVSPost2010Prop50
 90
       50
102
RTVSPost2010PropOp50
 70
     1
102
RTVSPost2010Prop51ColorIndex
 90
      256
102
RTVSPost2010Prop51ColorRGB
 90
-16777216
102
RTVSPost2010PropOp51
 70
     0
102
RTVSPost2010Prop52
140
1.0
102
RTVSPost2010PropOp52
 70
     0
102
RTVSPost2010Prop53
 90
        2
102
RTVSPost2010PropOp53
 70
     1
102
RTVSPost2010Prop54
  1
strokes_ogs.tif
102
RTVSPost2010PropOp54
 70
     1
102
RTVSPost2010Prop55
280
     0
102
RTVSPost2010PropOp55
 70
     1
102
RTVSPost2010Prop56
140
1.0
102
RTVSPost2010PropOp56
 70
     1
102
RTVSPost2010Prop57
140
1.0
102
RTVSPost2010PropOp57
 70
     1
  0
XRECORD
  5
B3
102
{ACAD_REACTORS
330
B2
102
}
330
B2
100
AcDbXrecord
280
     1
102
RTVSPropertyOp0
 70
     0
102
RTVSPropertyOp1
 70
     0
102
RTVSPropertyOp2
 70
     0
102
RTVSPropertyOp3
 70
     0
102
RTVSPropertyOp4
 70
     0
102
RTVSPropertyOp5
 70
     0
102
RTVSPropertyOp6
 70
     0
102
RTVSPropertyOp7
 70
     0
102
RTVSPropertyOp8
 70
     0
102
RTVSPropertyOp9
 70
     0
102
RTVSPropertyOp10
 70
     0
102
RTVSPropertyOp11
 70
     0
102
RTVSPropertyOp12
 70
     0
102
RTVSPropertyOp13
 70
     0
102
RTVSPropertyOp14
 70
     2
102
RTVSPropertyOp15
 70
     0
102
RTVSPropertyOp16
 70
     0
102
RTVSPropertyOp17
 70
     0
102
RTVSPropertyOp18
 70
     0
102
RTVSPropertyOp19
 70
     0
102
RTVSPropertyOp20
 70
     0
102
RTVSPropertyOp21
 70
     0
102
RTVSPropertyOp22
 70
     0
102
RTVSPropertyOp23
 70
     0
102
RTVSPropertyOp24
 70
     0
102
RTVSPropertyOp25
 70
     0
102
RTVSPropertyOp26
 70
     0
102
RTVSPropertyOp27
 70
     0
102
RTVSPropertyOp28
 70
     0
102
RTVSPropertyOp29
 70
     0
102
RTVSPropertyOp30
 70
     0
102
RTVSPropertyOp31
 70
     0
102
RTVSPropertyOp32
 70
     0
102
RTVSPropertyOp33
 70
     0
102
RTVSPropertyOp34
 70
     0
102
RTVSPropertyOp35
 70
     0
102
RTVSPropertyOp36
 70
     0
102
RTVSPropertyOp37
 70
     0
102
RTVSPropertyOp38
 70
     0
102
RTVSPropertyOp39
 70
     0
102
RTVSPropertyOp40
 70
     0
102
RTVSPropertyOp41
 70
     0
102
RTVSPropertyOp42
 70
     0
102
RTVSPropertyOp43
 70
     0
102
RTVSPropertyOp44
 70
     0
102
RTVSPropertyOp45
 70
     0
102
RTVSPropertyOp46
 70
     0
102
RTVSPropertyOp47
 70
     0
102
RTVSPropertyOp48
 70
     0
102
RTVSPropertyOp49
 70
     0
102
RTVSPropertyOp50
 70
     0
102
RTVSPropertyOp51
 70
     0
102
RTVSPropertyOp52
 70
     0
102
RTVSPropertyOp53
 70
     0
102
RTVSPropertyOp54
 70
     0
102
RTVSPropertyOp55
 70
     0
102
RTVSPropertyOp56
 70
     0
102
RTVSPropertyOp57
 70
     0
102
RTVSPost2010Prop28
280
     0
102
RTVSPost2010PropOp28
 70
     0
102
RTVSPost2010Prop29
280
     1
102
RTVSPost2010PropOp29
 70
     0
102
RTVSPost2010Prop30
280
     1
102
RTVSPost2010PropOp30
 70
     0
102
RTVSPost2010Prop31
280
     0
102
RTVSPost2010PropOp31
 70
     0
102
RTVSPost2010Prop32
280
     0
102
RTVSPost2010PropOp32
 70
     0
102
RTVSPost2010Prop33
280
     0
102
RTVSPost2010PropOp33
 70
     0
102
RTVSPost2010Prop34
280
     0
102
RTVSPost2010PropOp34
 70
     0
102
RTVSPost2010Prop35
280
     0
102
RTVSPost2010PropOp35
 70
     0
102
RTVSPost2010Prop36
280
     0
102
RTVSPost2010PropOp36
 70
     0
102
RTVSPost2010Prop37
 90
       50
102
RTVSPost2010PropOp37
 70
     0
102
RTVSPost2010Prop38
140
0.0
102
RTVSPost2010PropOp38
 70
     0
102
RTVSPost2010Prop39
140
1.0
102
RTVSPost2010PropOp39
 70
     0
102
RTVSPost2010Prop40
 90
        0
102
RTVSPost2010PropOp40
 70
     0
102
RTVSPost2010Prop41ColorIndex
 90
       18
102
RTVSPost2010Prop41ColorRGB
 90
        0
102
RTVSPost2010PropOp41
 70
     0
102
RTVSPost2010Prop42
 90
       50
102
RTVSPost2010PropOp42
 70
     0
102
RTVSPost2010Prop43
 90
        3
102
RTVSPost2010PropOp43
 70
     0
102
RTVSPost2010Prop44ColorIndex
 90
        5
102
RTVSPost2010Prop44ColorRGB
 90
      255
102
RTVSPost2010PropOp44
 70
     0
102
RTVSPost2010Prop45
280
     0
102
RTVSPost2010PropOp45
 70
     0
102
RTVSPost2010Prop46
 90
       50
102
RTVSPost2010PropOp46
 70
     0
102
RTVSPost2010Prop47
 90
       50
102
RTVSPost2010PropOp47
 70
     0
102
RTVSPost2010Prop48
 90
       50
102
RTVSPost2010PropOp48
 70
     0
102
RTVSPost2010Prop49
280
     0
102
RTVSPost2010PropOp49
 70
     0
102
RTVSPost2010Prop50
 90
       50
102
RTVSPost2010PropOp50
 70
     0
102
RTVSPost2010Prop51ColorIndex
 90
      256
102
RTVSPost2010Prop51ColorRGB
 90
-16777216
102
RTVSPost2010PropOp51
 70
     0
102
RTVSPost2010Prop52
140
1.0
102
RTVSPost2010PropOp52
 70
     0
102
RTVSPost2010Prop53
 90
        2
102
RTVSPost2010PropOp53
 70
     0
102
RTVSPost2010Prop54
  1
strokes_ogs.tif
102
RTVSPost2010PropOp54
 70
     0
102
RTVSPost2010Prop55
280
     0
102
RTVSPost2010PropOp55
 70
     0
102
RTVSPost2010Prop56
140
1.0
102
RTVSPost2010PropOp56
 70
     0
102
RTVSPost2010Prop57
140
1.0
102
RTVSPost2010PropOp57
 70
     0
  0
XRECORD
  5
AD
102
{ACAD_REACTORS
330
AC
102
}
330
AC
100
AcDbXrecord
280
     1
102
RTVSPropertyOp0
 70
     1
102
RTVSPropertyOp1
 70
     1
102
RTVSPropertyOp2
 70
     1
102
RTVSPropertyOp3
 70
     1
102
RTVSPropertyOp4
 70
     1
102
RTVSPropertyOp5
 70
     1
102
RTVSPropertyOp6
 70
     1
102
RTVSPropertyOp7
 70
     1
102
RTVSPropertyOp8
 70
     1
102
RTVSPropertyOp9
 70
     1
102
RTVSPropertyOp10
 70
     1
102
RTVSPropertyOp11
 70
     1
102
RTVSPropertyOp12
 70
     1
102
RTVSPropertyOp13
 70
     1
102
RTVSPropertyOp14
 70
     1
102
RTVSPropertyOp15
 70
     1
102
RTVSPropertyOp16
 70
     1
102
RTVSPropertyOp17
 70
     1
102
RTVSPropertyOp18
 70
     1
102
RTVSPropertyOp19
 70
     1
102
RTVSPropertyOp20
 70
     1
102
RTVSPropertyOp21
 70
     1
102
RTVSPropertyOp22
 70
     1
102
RTVSPropertyOp23
 70
     1
102
RTVSPropertyOp24
 70
     1
102
RTVSPropertyOp25
 70
     1
102
RTVSPropertyOp26
 70
     1
102
RTVSPropertyOp27
 70
     1
102
RTVSPropertyOp28
 70
     1
102
RTVSPropertyOp29
 70
     1
102
RTVSPropertyOp30
 70
     1
102
RTVSPropertyOp31
 70
     1
102
RTVSPropertyOp32
 70
     1
102
RTVSPropertyOp33
 70
     1
102
RTVSPropertyOp34
 70
     1
102
RTVSPropertyOp35
 70
     1
102
RTVSPropertyOp36
 70
     1
102
RTVSPropertyOp37
 70
     1
102
RTVSPropertyOp38
 70
     1
102
RTVSPropertyOp39
 70
     1
102
RTVSPropertyOp40
 70
     1
102
RTVSPropertyOp41
 70
     1
102
RTVSPropertyOp42
 70
     1
102
RTVSPropertyOp43
 70
     1
102
RTVSPropertyOp44
 70
     1
102
RTVSPropertyOp45
 70
     1
102
RTVSPropertyOp46
 70
     1
102
RTVSPropertyOp47
 70
     1
102
RTVSPropertyOp48
 70
     1
102
RTVSPropertyOp49
 70
     1
102
RTVSPropertyOp50
 70
     1
102
RTVSPropertyOp51
 70
     0
102
RTVSPropertyOp52
 70
     0
102
RTVSPropertyOp53
 70
     1
102
RTVSPropertyOp54
 70
     1
102
RTVSPropertyOp55
 70
     1
102
RTVSPropertyOp56
 70
     1
102
RTVSPropertyOp57
 70
     1
102
RTVSPost2010Prop28
280
     0
102
RTVSPost2010PropOp28
 70
     1
102
RTVSPost2010Prop29
280
     1
102
RTVSPost2010PropOp29
 70
     1
102
RTVSPost2010Prop30
280
     1
102
RTVSPost2010PropOp30
 70
     1
102
RTVSPost2010Prop31
280
     0
102
RTVSPost2010PropOp31
 70
     1
102
RTVSPost2010Prop32
280
     0
102
RTVSPost2010PropOp32
 70
     1
102
RTVSPost2010Prop33
280
     0
102
RTVSPost2010PropOp33
 70
     1
102
RTVSPost2010Prop34
280
     0
102
RTVSPost2010PropOp34
 70
     1
102
RTVSPost2010Prop35
280
     0
102
RTVSPost2010PropOp35
 70
     1
102
RTVSPost2010Prop36
280
     0
102
RTVSPost2010PropOp36
 70
     1
102
RTVSPost2010Prop37
 90
       50
102
RTVSPost2010PropOp37
 70
     1
102
RTVSPost2010Prop38
140
0.0
102
RTVSPost2010PropOp38
 70
     1
102
RTVSPost2010Prop39
140
1.0
102
RTVSPost2010PropOp39
 70
     1
102
RTVSPost2010Prop40
 90
        0
102
RTVSPost2010PropOp40
 70
     1
102
RTVSPost2010Prop41ColorIndex
 90
       18
102
RTVSPost2010Prop41ColorRGB
 90
        0
102
RTVSPost2010PropOp41
 70
     1
102
RTVSPost2010Prop42
 90
       50
102
RTVSPost2010PropOp42
 70
     1
102
RTVSPost2010Prop43
 90
        3
102
RTVSPost2010PropOp43
 70
     1
102
RTVSPost2010Prop44ColorIndex
 90
        5
102
RTVSPost2010Prop44ColorRGB
 90
      255
102
RTVSPost2010PropOp44
 70
     1
102
RTVSPost2010Prop45
280
     0
102
RTVSPost2010PropOp45
 70
     1
102
RTVSPost2010Prop46
 90
       50
102
RTVSPost2010PropOp46
 70
     1
102
RTVSPost2010Prop47
 90
       50
102
RTVSPost2010PropOp47
 70
     1
102
RTVSPost2010Prop48
 90
       50
102
RTVSPost2010PropOp48
 70
     1
102
RTVSPost2010Prop49
280
     0
102
RTVSPost2010PropOp49
 70
     1
102
RTVSPost2010Prop50
 90
       50
102
RTVSPost2010PropOp50
 70
     1
102
RTVSPost2010Prop51ColorIndex
 90
      256
102
RTVSPost2010Prop51ColorRGB
 90
-16777216
102
RTVSPost2010PropOp51
 70
     0
102
RTVSPost2010Prop52
140
1.0
102
RTVSPost2010PropOp52
 70
     0
102
RTVSPost2010Prop53
 90
        2
102
RTVSPost2010PropOp53
 70
     1
102
RTVSPost2010Prop54
  1
strokes_ogs.tif
102
RTVSPost2010PropOp54
 70
     1
102
RTVSPost2010Prop55
280
     0
102
RTVSPost2010PropOp55
 70
     1
102
RTVSPost2010Prop56
140
1.0
102
RTVSPost2010PropOp56
 70
     1
102
RTVSPost2010Prop57
140
1.0
102
RTVSPost2010PropOp57
 70
     1
  0
XRECORD
  5
B5
102
{ACAD_REACTORS
330
B4
102
}
330
B4
100
AcDbXrecord
280
     1
102
RTVSPropertyOp0
 70
     0
102
RTVSPropertyOp1
 70
     0
102
RTVSPropertyOp2
 70
     0
102
RTVSPropertyOp3
 70
     0
102
RTVSPropertyOp4
 70
     0
102
RTVSPropertyOp5
 70
     0
102
RTVSPropertyOp6
 70
     0
102
RTVSPropertyOp7
 70
     0
102
RTVSPropertyOp8
 70
     0
102
RTVSPropertyOp9
 70
     0
102
RTVSPropertyOp10
 70
     0
102
RTVSPropertyOp11
 70
     0
102
RTVSPropertyOp12
 70
     0
102
RTVSPropertyOp13
 70
     0
102
RTVSPropertyOp14
 70
     2
102
RTVSPropertyOp15
 70
     0
102
RTVSPropertyOp16
 70
     0
102
RTVSPropertyOp17
 70
     0
102
RTVSPropertyOp18
 70
     0
102
RTVSPropertyOp19
 70
     0
102
RTVSPropertyOp20
 70
     0
102
RTVSPropertyOp21
 70
     0
102
RTVSPropertyOp22
 70
     0
102
RTVSPropertyOp23
 70
     0
102
RTVSPropertyOp24
 70
     0
102
RTVSPropertyOp25
 70
     0
102
RTVSPropertyOp26
 70
     0
102
RTVSPropertyOp27
 70
     0
102
RTVSPropertyOp28
 70
     0
102
RTVSPropertyOp29
 70
     0
102
RTVSPropertyOp30
 70
     0
102
RTVSPropertyOp31
 70
     0
102
RTVSPropertyOp32
 70
     0
102
RTVSPropertyOp33
 70
     0
102
RTVSPropertyOp34
 70
     0
102
RTVSPropertyOp35
 70
     0
102
RTVSPropertyOp36
 70
     0
102
RTVSPropertyOp37
 70
     0
102
RTVSPropertyOp38
 70
     0
102
RTVSPropertyOp39
 70
     0
102
RTVSPropertyOp40
 70
     0
102
RTVSPropertyOp41
 70
     0
102
RTVSPropertyOp42
 70
     0
102
RTVSPropertyOp43
 70
     0
102
RTVSPropertyOp44
 70
     0
102
RTVSPropertyOp45
 70
     0
102
RTVSPropertyOp46
 70
     0
102
RTVSPropertyOp47
 70
     0
102
RTVSPropertyOp48
 70
     0
102
RTVSPropertyOp49
 70
     0
102
RTVSPropertyOp50
 70
     0
102
RTVSPropertyOp51
 70
     0
102
RTVSPropertyOp52
 70
     0
102
RTVSPropertyOp53
 70
     0
102
RTVSPropertyOp54
 70
     0
102
RTVSPropertyOp55
 70
     0
102
RTVSPropertyOp56
 70
     0
102
RTVSPropertyOp57
 70
     0
102
RTVSPost2010Prop28
280
     0
102
RTVSPost2010PropOp28
 70
     0
102
RTVSPost2010Prop29
280
     1
102
RTVSPost2010PropOp29
 70
     0
102
RTVSPost2010Prop30
280
     1
102
RTVSPost2010PropOp30
 70
     0
102
RTVSPost2010Prop31
280
     0
102
RTVSPost2010PropOp31
 70
     0
102
RTVSPost2010Prop32
280
     0
102
RTVSPost2010PropOp32
 70
     0
102
RTVSPost2010Prop33
280
     0
102
RTVSPost2010PropOp33
 70
     0
102
RTVSPost2010Prop34
280
     0
102
RTVSPost2010PropOp34
 70
     0
102
RTVSPost2010Prop35
280
     0
102
RTVSPost2010PropOp35
 70
     0
102
RTVSPost2010Prop36
280
     0
102
RTVSPost2010PropOp36
 70
     0
102
RTVSPost2010Prop37
 90
       50
102
RTVSPost2010PropOp37
 70
     0
102
RTVSPost2010Prop38
140
0.0
102
RTVSPost2010PropOp38
 70
     0
102
RTVSPost2010Prop39
140
1.0
102
RTVSPost2010PropOp39
 70
     0
102
RTVSPost2010Prop40
 90
        0
102
RTVSPost2010PropOp40
 70
     0
102
RTVSPost2010Prop41ColorIndex
 90
       18
102
RTVSPost2010Prop41ColorRGB
 90
        0
102
RTVSPost2010PropOp41
 70
     0
102
RTVSPost2010Prop42
 90
       50
102
RTVSPost2010PropOp42
 70
     0
102
RTVSPost2010Prop43
 90
        3
102
RTVSPost2010PropOp43
 70
     0
102
RTVSPost2010Prop44ColorIndex
 90
        5
102
RTVSPost2010Prop44ColorRGB
 90
      255
102
RTVSPost2010PropOp44
 70
     0
102
RTVSPost2010Prop45
280
     0
102
RTVSPost2010PropOp45
 70
     0
102
RTVSPost2010Prop46
 90
       50
102
RTVSPost2010PropOp46
 70
     0
102
RTVSPost2010Prop47
 90
       50
102
RTVSPost2010PropOp47
 70
     0
102
RTVSPost2010Prop48
 90
       50
102
RTVSPost2010PropOp48
 70
     0
102
RTVSPost2010Prop49
280
     0
102
RTVSPost2010PropOp49
 70
     0
102
RTVSPost2010Prop50
 90
       50
102
RTVSPost2010PropOp50
 70
     0
102
RTVSPost2010Prop51ColorIndex
 90
      256
102
RTVSPost2010Prop51ColorRGB
 90
-16777216
102
RTVSPost2010PropOp51
 70
     0
102
RTVSPost2010Prop52
140
1.0
102
RTVSPost2010PropOp52
 70
     0
102
RTVSPost2010Prop53
 90
        2
102
RTVSPost2010PropOp53
 70
     0
102
RTVSPost2010Prop54
  1
strokes_ogs.tif
102
RTVSPost2010PropOp54
 70
     0
102
RTVSPost2010Prop55
280
     0
102
RTVSPost2010PropOp55
 70
     0
102
RTVSPost2010Prop56
140
1.0
102
RTVSPost2010PropOp56
 70
     0
102
RTVSPost2010Prop57
140
1.0
102
RTVSPost2010PropOp57
 70
     0
  0
XRECORD
  5
A3
102
{ACAD_REACTORS
330
A2
102
}
330
A2
100
AcDbXrecord
280
     1
102
RTVSPropertyOp0
 70
     1
102
RTVSPropertyOp1
 70
     1
102
RTVSPropertyOp2
 70
     1
102
RTVSPropertyOp3
 70
     1
102
RTVSPropertyOp4
 70
     1
102
RTVSPropertyOp5
 70
     1
102
RTVSPropertyOp6
 70
     1
102
RTVSPropertyOp7
 70
     1
102
RTVSPropertyOp8
 70
     1
102
RTVSPropertyOp9
 70
     1
102
RTVSPropertyOp10
 70
     1
102
RTVSPropertyOp11
 70
     1
102
RTVSPropertyOp12
 70
     1
102
RTVSPropertyOp13
 70
     1
102
RTVSPropertyOp14
 70
     1
102
RTVSPropertyOp15
 70
     1
102
RTVSPropertyOp16
 70
     1
102
RTVSPropertyOp17
 70
     1
102
RTVSPropertyOp18
 70
     1
102
RTVSPropertyOp19
 70
     1
102
RTVSPropertyOp20
 70
     1
102
RTVSPropertyOp21
 70
     1
102
RTVSPropertyOp22
 70
     1
102
RTVSPropertyOp23
 70
     1
102
RTVSPropertyOp24
 70
     1
102
RTVSPropertyOp25
 70
     1
102
RTVSPropertyOp26
 70
     1
102
RTVSPropertyOp27
 70
     1
102
RTVSPropertyOp28
 70
     1
102
RTVSPropertyOp29
 70
     1
102
RTVSPropertyOp30
 70
     1
102
RTVSPropertyOp31
 70
     1
102
RTVSPropertyOp32
 70
     1
102
RTVSPropertyOp33
 70
     1
102
RTVSPropertyOp34
 70
     1
102
RTVSPropertyOp35
 70
     1
102
RTVSPropertyOp36
 70
     1
102
RTVSPropertyOp37
 70
     1
102
RTVSPropertyOp38
 70
     1
102
RTVSPropertyOp39
 70
     1
102
RTVSPropertyOp40
 70
     1
102
RTVSPropertyOp41
 70
     1
102
RTVSPropertyOp42
 70
     1
102
RTVSPropertyOp43
 70
     1
102
RTVSPropertyOp44
 70
     1
102
RTVSPropertyOp45
 70
     1
102
RTVSPropertyOp46
 70
     1
102
RTVSPropertyOp47
 70
     1
102
RTVSPropertyOp48
 70
     1
102
RTVSPropertyOp49
 70
     1
102
RTVSPropertyOp50
 70
     1
102
RTVSPropertyOp51
 70
     0
102
RTVSPropertyOp52
 70
     0
102
RTVSPropertyOp53
 70
     1
102
RTVSPropertyOp54
 70
     1
102
RTVSPropertyOp55
 70
     1
102
RTVSPropertyOp56
 70
     1
102
RTVSPropertyOp57
 70
     1
102
RTVSPost2010Prop28
280
     0
102
RTVSPost2010PropOp28
 70
     1
102
RTVSPost2010Prop29
280
     1
102
RTVSPost2010PropOp29
 70
     1
102
RTVSPost2010Prop30
280
     1
102
RTVSPost2010PropOp30
 70
     1
102
RTVSPost2010Prop31
280
     0
102
RTVSPost2010PropOp31
 70
     1
102
RTVSPost2010Prop32
280
     0
102
RTVSPost2010PropOp32
 70
     1
102
RTVSPost2010Prop33
280
     0
102
RTVSPost2010PropOp33
 70
     1
102
RTVSPost2010Prop34
280
     0
102
RTVSPost2010PropOp34
 70
     1
102
RTVSPost2010Prop35
280
     0
102
RTVSPost2010PropOp35
 70
     1
102
RTVSPost2010Prop36
280
     0
102
RTVSPost2010PropOp36
 70
     1
102
RTVSPost2010Prop37
 90
       50
102
RTVSPost2010PropOp37
 70
     1
102
RTVSPost2010Prop38
140
0.0
102
RTVSPost2010PropOp38
 70
     1
102
RTVSPost2010Prop39
140
1.0
102
RTVSPost2010PropOp39
 70
     1
102
RTVSPost2010Prop40
 90
        0
102
RTVSPost2010PropOp40
 70
     1
102
RTVSPost2010Prop41ColorIndex
 90
       18
102
RTVSPost2010Prop41ColorRGB
 90
        0
102
RTVSPost2010PropOp41
 70
     1
102
RTVSPost2010Prop42
 90
       50
102
RTVSPost2010PropOp42
 70
     1
102
RTVSPost2010Prop43
 90
        3
102
RTVSPost2010PropOp43
 70
     1
102
RTVSPost2010Prop44ColorIndex
 90
        5
102
RTVSPost2010Prop44ColorRGB
 90
      255
102
RTVSPost2010PropOp44
 70
     1
102
RTVSPost2010Prop45
280
     0
102
RTVSPost2010PropOp45
 70
     1
102
RTVSPost2010Prop46
 90
       50
102
RTVSPost2010PropOp46
 70
     1
102
RTVSPost2010Prop47
 90
       50
102
RTVSPost2010PropOp47
 70
     1
102
RTVSPost2010Prop48
 90
       50
102
RTVSPost2010PropOp48
 70
     1
102
RTVSPost2010Prop49
280
     0
102
RTVSPost2010PropOp49
 70
     1
102
RTVSPost2010Prop50
 90
       50
102
RTVSPost2010PropOp50
 70
     1
102
RTVSPost2010Prop51ColorIndex
 90
      256
102
RTVSPost2010Prop51ColorRGB
 90
-16777216
102
RTVSPost2010PropOp51
 70
     0
102
RTVSPost2010Prop52
140
1.0
102
RTVSPost2010PropOp52
 70
     0
102
RTVSPost2010Prop53
 90
        2
102
RTVSPost2010PropOp53
 70
     1
102
RTVSPost2010Prop54
  1
strokes_ogs.tif
102
RTVSPost2010PropOp54
 70
     1
102
RTVSPost2010Prop55
280
     0
102
RTVSPost2010PropOp55
 70
     1
102
RTVSPost2010Prop56
140
1.0
102
RTVSPost2010PropOp56
 70
     1
102
RTVSPost2010Prop57
140
1.0
102
RTVSPost2010PropOp57
 70
     1
  0
XRECORD
  5
C1
102
{ACAD_REACTORS
330
C0
102
}
330
C0
100
AcDbXrecord
280
     1
102
RTVSPropertyOp0
 70
     1
102
RTVSPropertyOp1
 70
     1
102
RTVSPropertyOp2
 70
     1
102
RTVSPropertyOp3
 70
     1
102
RTVSPropertyOp4
 70
     1
102
RTVSPropertyOp5
 70
     1
102
RTVSPropertyOp6
 70
     1
102
RTVSPropertyOp7
 70
     1
102
RTVSPropertyOp8
 70
     1
102
RTVSPropertyOp9
 70
     1
102
RTVSPropertyOp10
 70
     1
102
RTVSPropertyOp11
 70
     1
102
RTVSPropertyOp12
 70
     1
102
RTVSPropertyOp13
 70
     1
102
RTVSPropertyOp14
 70
     1
102
RTVSPropertyOp15
 70
     1
102
RTVSPropertyOp16
 70
     1
102
RTVSPropertyOp17
 70
     1
102
RTVSPropertyOp18
 70
     1
102
RTVSPropertyOp19
 70
     1
102
RTVSPropertyOp20
 70
     1
102
RTVSPropertyOp21
 70
     1
102
RTVSPropertyOp22
 70
     1
102
RTVSPropertyOp23
 70
     1
102
RTVSPropertyOp24
 70
     1
102
RTVSPropertyOp25
 70
     1
102
RTVSPropertyOp26
 70
     1
102
RTVSPropertyOp27
 70
     1
102
RTVSPropertyOp28
 70
     1
102
RTVSPropertyOp29
 70
     1
102
RTVSPropertyOp30
 70
     1
102
RTVSPropertyOp31
 70
     1
102
RTVSPropertyOp32
 70
     1
102
RTVSPropertyOp33
 70
     1
102
RTVSPropertyOp34
 70
     1
102
RTVSPropertyOp35
 70
     1
102
RTVSPropertyOp36
 70
     1
102
RTVSPropertyOp37
 70
     1
102
RTVSPropertyOp38
 70
     1
102
RTVSPropertyOp39
 70
     1
102
RTVSPropertyOp40
 70
     1
102
RTVSPropertyOp41
 70
     1
102
RTVSPropertyOp42
 70
     1
102
RTVSPropertyOp43
 70
     1
102
RTVSPropertyOp44
 70
     1
102
RTVSPropertyOp45
 70
     1
102
RTVSPropertyOp46
 70
     1
102
RTVSPropertyOp47
 70
     1
102
RTVSPropertyOp48
 70
     1
102
RTVSPropertyOp49
 70
     1
102
RTVSPropertyOp50
 70
     1
102
RTVSPropertyOp51
 70
     0
102
RTVSPropertyOp52
 70
     0
102
RTVSPropertyOp53
 70
     1
102
RTVSPropertyOp54
 70
     1
102
RTVSPropertyOp55
 70
     1
102
RTVSPropertyOp56
 70
     1
102
RTVSPropertyOp57
 70
     1
102
RTVSPost2010Prop28
280
     0
102
RTVSPost2010PropOp28
 70
     1
102
RTVSPost2010Prop29
280
     1
102
RTVSPost2010PropOp29
 70
     1
102
RTVSPost2010Prop30
280
     1
102
RTVSPost2010PropOp30
 70
     1
102
RTVSPost2010Prop31
280
     0
102
RTVSPost2010PropOp31
 70
     1
102
RTVSPost2010Prop32
280
     0
102
RTVSPost2010PropOp32
 70
     1
102
RTVSPost2010Prop33
280
     0
102
RTVSPost2010PropOp33
 70
     1
102
RTVSPost2010Prop34
280
     0
102
RTVSPost2010PropOp34
 70
     1
102
RTVSPost2010Prop35
280
     0
102
RTVSPost2010PropOp35
 70
     1
102
RTVSPost2010Prop36
280
     0
102
RTVSPost2010PropOp36
 70
     1
102
RTVSPost2010Prop37
 90
       50
102
RTVSPost2010PropOp37
 70
     1
102
RTVSPost2010Prop38
140
0.0
102
RTVSPost2010PropOp38
 70
     1
102
RTVSPost2010Prop39
140
1.0
102
RTVSPost2010PropOp39
 70
     1
102
RTVSPost2010Prop40
 90
        0
102
RTVSPost2010PropOp40
 70
     1
102
RTVSPost2010Prop41ColorIndex
 90
       18
102
RTVSPost2010Prop41ColorRGB
 90
        0
102
RTVSPost2010PropOp41
 70
     1
102
RTVSPost2010Prop42
 90
       50
102
RTVSPost2010PropOp42
 70
     1
102
RTVSPost2010Prop43
 90
        3
102
RTVSPost2010PropOp43
 70
     1
102
RTVSPost2010Prop44ColorIndex
 90
        5
102
RTVSPost2010Prop44ColorRGB
 90
      255
102
RTVSPost2010PropOp44
 70
     1
102
RTVSPost2010Prop45
280
     0
102
RTVSPost2010PropOp45
 70
     1
102
RTVSPost2010Prop46
 90
       50
102
RTVSPost2010PropOp46
 70
     1
102
RTVSPost2010Prop47
 90
       50
102
RTVSPost2010PropOp47
 70
     1
102
RTVSPost2010Prop48
 90
       50
102
RTVSPost2010PropOp48
 70
     1
102
RTVSPost2010Prop49
280
     0
102
RTVSPost2010PropOp49
 70
     1
102
RTVSPost2010Prop50
 90
       50
102
RTVSPost2010PropOp50
 70
     1
102
RTVSPost2010Prop51ColorIndex
 90
      256
102
RTVSPost2010Prop51ColorRGB
 90
-16777216
102
RTVSPost2010PropOp51
 70
     0
102
RTVSPost2010Prop52
140
1.0
102
RTVSPost2010PropOp52
 70
     0
102
RTVSPost2010Prop53
 90
        2
102
RTVSPost2010PropOp53
 70
     1
102
RTVSPost2010Prop54
  1
strokes_ogs.tif
102
RTVSPost2010PropOp54
 70
     1
102
RTVSPost2010Prop55
280
     0
102
RTVSPost2010PropOp55
 70
     1
102
RTVSPost2010Prop56
140
1.0
102
RTVSPost2010PropOp56
 70
     1
102
RTVSPost2010Prop57
140
1.0
102
RTVSPost2010PropOp57
 70
     1
  0
XRECORD
  5
BF
102
{ACAD_REACTORS
330
BE
102
}
330
BE
100
AcDbXrecord
280
     1
102
RTVSPropertyOp0
 70
     1
102
RTVSPropertyOp1
 70
     1
102
RTVSPropertyOp2
 70
     1
102
RTVSPropertyOp3
 70
     1
102
RTVSPropertyOp4
 70
     1
102
RTVSPropertyOp5
 70
     1
102
RTVSPropertyOp6
 70
     1
102
RTVSPropertyOp7
 70
     1
102
RTVSPropertyOp8
 70
     1
102
RTVSPropertyOp9
 70
     1
102
RTVSPropertyOp10
 70
     1
102
RTVSPropertyOp11
 70
     1
102
RTVSPropertyOp12
 70
     1
102
RTVSPropertyOp13
 70
     1
102
RTVSPropertyOp14
 70
     1
102
RTVSPropertyOp15
 70
     1
102
RTVSPropertyOp16
 70
     1
102
RTVSPropertyOp17
 70
     1
102
RTVSPropertyOp18
 70
     1
102
RTVSPropertyOp19
 70
     1
102
RTVSPropertyOp20
 70
     1
102
RTVSPropertyOp21
 70
     1
102
RTVSPropertyOp22
 70
     1
102
RTVSPropertyOp23
 70
     1
102
RTVSPropertyOp24
 70
     1
102
RTVSPropertyOp25
 70
     1
102
RTVSPropertyOp26
 70
     1
102
RTVSPropertyOp27
 70
     1
102
RTVSPropertyOp28
 70
     1
102
RTVSPropertyOp29
 70
     1
102
RTVSPropertyOp30
 70
     1
102
RTVSPropertyOp31
 70
     1
102
RTVSPropertyOp32
 70
     1
102
RTVSPropertyOp33
 70
     1
102
RTVSPropertyOp34
 70
     1
102
RTVSPropertyOp35
 70
     1
102
RTVSPropertyOp36
 70
     1
102
RTVSPropertyOp37
 70
     1
102
RTVSPropertyOp38
 70
     1
102
RTVSPropertyOp39
 70
     1
102
RTVSPropertyOp40
 70
     1
102
RTVSPropertyOp41
 70
     1
102
RTVSPropertyOp42
 70
     1
102
RTVSPropertyOp43
 70
     1
102
RTVSPropertyOp44
 70
     1
102
RTVSPropertyOp45
 70
     1
102
RTVSPropertyOp46
 70
     1
102
RTVSPropertyOp47
 70
     1
102
RTVSPropertyOp48
 70
     1
102
RTVSPropertyOp49
 70
     1
102
RTVSPropertyOp50
 70
     1
102
RTVSPropertyOp51
 70
     0
102
RTVSPropertyOp52
 70
     0
102
RTVSPropertyOp53
 70
     1
102
RTVSPropertyOp54
 70
     1
102
RTVSPropertyOp55
 70
     1
102
RTVSPropertyOp56
 70
     1
102
RTVSPropertyOp57
 70
     1
102
RTVSPost2010Prop28
280
     0
102
RTVSPost2010PropOp28
 70
     1
102
RTVSPost2010Prop29
280
     1
102
RTVSPost2010PropOp29
 70
     1
102
RTVSPost2010Prop30
280
     1
102
RTVSPost2010PropOp30
 70
     1
102
RTVSPost2010Prop31
280
     0
102
RTVSPost2010PropOp31
 70
     1
102
RTVSPost2010Prop32
280
     0
102
RTVSPost2010PropOp32
 70
     1
102
RTVSPost2010Prop33
280
     0
102
RTVSPost2010PropOp33
 70
     1
102
RTVSPost2010Prop34
280
     0
102
RTVSPost2010PropOp34
 70
     1
102
RTVSPost2010Prop35
280
     0
102
RTVSPost2010PropOp35
 70
     1
102
RTVSPost2010Prop36
280
     0
102
RTVSPost2010PropOp36
 70
     1
102
RTVSPost2010Prop37
 90
       50
102
RTVSPost2010PropOp37
 70
     1
102
RTVSPost2010Prop38
140
0.0
102
RTVSPost2010PropOp38
 70
     1
102
RTVSPost2010Prop39
140
1.0
102
RTVSPost2010PropOp39
 70
     1
102
RTVSPost2010Prop40
 90
        0
102
RTVSPost2010PropOp40
 70
     1
102
RTVSPost2010Prop41ColorIndex
 90
       18
102
RTVSPost2010Prop41ColorRGB
 90
        0
102
RTVSPost2010PropOp41
 70
     1
102
RTVSPost2010Prop42
 90
       50
102
RTVSPost2010PropOp42
 70
     1
102
RTVSPost2010Prop43
 90
        3
102
RTVSPost2010PropOp43
 70
     1
102
RTVSPost2010Prop44ColorIndex
 90
        5
102
RTVSPost2010Prop44ColorRGB
 90
      255
102
RTVSPost2010PropOp44
 70
     1
102
RTVSPost2010Prop45
280
     0
102
RTVSPost2010PropOp45
 70
     1
102
RTVSPost2010Prop46
 90
       50
102
RTVSPost2010PropOp46
 70
     1
102
RTVSPost2010Prop47
 90
       50
102
RTVSPost2010PropOp47
 70
     1
102
RTVSPost2010Prop48
 90
       50
102
RTVSPost2010PropOp48
 70
     1
102
RTVSPost2010Prop49
280
     0
102
RTVSPost2010PropOp49
 70
     1
102
RTVSPost2010Prop50
 90
       50
102
RTVSPost2010PropOp50
 70
     1
102
RTVSPost2010Prop51ColorIndex
 90
      256
102
RTVSPost2010Prop51ColorRGB
 90
-16777216
102
RTVSPost2010PropOp51
 70
     0
102
RTVSPost2010Prop52
140
1.0
102
RTVSPost2010PropOp52
 70
     0
102
RTVSPost2010Prop53
 90
        2
102
RTVSPost2010PropOp53
 70
     1
102
RTVSPost2010Prop54
  1
strokes_ogs.tif
102
RTVSPost2010PropOp54
 70
     1
102
RTVSPost2010Prop55
280
     0
102
RTVSPost2010PropOp55
 70
     1
102
RTVSPost2010Prop56
140
1.0
102
RTVSPost2010PropOp56
 70
     1
102
RTVSPost2010Prop57
140
1.0
102
RTVSPost2010PropOp57
 70
     1
  0
XRECORD
  5
B9
102
{ACAD_REACTORS
330
B8
102
}
330
B8
100
AcDbXrecord
280
     1
102
RTVSPropertyOp0
 70
     1
102
RTVSPropertyOp1
 70
     1
102
RTVSPropertyOp2
 70
     1
102
RTVSPropertyOp3
 70
     1
102
RTVSPropertyOp4
 70
     1
102
RTVSPropertyOp5
 70
     1
102
RTVSPropertyOp6
 70
     1
102
RTVSPropertyOp7
 70
     1
102
RTVSPropertyOp8
 70
     1
102
RTVSPropertyOp9
 70
     1
102
RTVSPropertyOp10
 70
     1
102
RTVSPropertyOp11
 70
     1
102
RTVSPropertyOp12
 70
     1
102
RTVSPropertyOp13
 70
     1
102
RTVSPropertyOp14
 70
     1
102
RTVSPropertyOp15
 70
     1
102
RTVSPropertyOp16
 70
     1
102
RTVSPropertyOp17
 70
     1
102
RTVSPropertyOp18
 70
     1
102
RTVSPropertyOp19
 70
     1
102
RTVSPropertyOp20
 70
     1
102
RTVSPropertyOp21
 70
     1
102
RTVSPropertyOp22
 70
     1
102
RTVSPropertyOp23
 70
     1
102
RTVSPropertyOp24
 70
     1
102
RTVSPropertyOp25
 70
     1
102
RTVSPropertyOp26
 70
     1
102
RTVSPropertyOp27
 70
     1
102
RTVSPropertyOp28
 70
     1
102
RTVSPropertyOp29
 70
     1
102
RTVSPropertyOp30
 70
     1
102
RTVSPropertyOp31
 70
     1
102
RTVSPropertyOp32
 70
     1
102
RTVSPropertyOp33
 70
     1
102
RTVSPropertyOp34
 70
     1
102
RTVSPropertyOp35
 70
     1
102
RTVSPropertyOp36
 70
     1
102
RTVSPropertyOp37
 70
     1
102
RTVSPropertyOp38
 70
     1
102
RTVSPropertyOp39
 70
     1
102
RTVSPropertyOp40
 70
     1
102
RTVSPropertyOp41
 70
     1
102
RTVSPropertyOp42
 70
     1
102
RTVSPropertyOp43
 70
     1
102
RTVSPropertyOp44
 70
     1
102
RTVSPropertyOp45
 70
     1
102
RTVSPropertyOp46
 70
     1
102
RTVSPropertyOp47
 70
     1
102
RTVSPropertyOp48
 70
     1
102
RTVSPropertyOp49
 70
     1
102
RTVSPropertyOp50
 70
     1
102
RTVSPropertyOp51
 70
     0
102
RTVSPropertyOp52
 70
     0
102
RTVSPropertyOp53
 70
     1
102
RTVSPropertyOp54
 70
     1
102
RTVSPropertyOp55
 70
     1
102
RTVSPropertyOp56
 70
     1
102
RTVSPropertyOp57
 70
     1
102
RTVSPost2010Prop28
280
     0
102
RTVSPost2010PropOp28
 70
     1
102
RTVSPost2010Prop29
280
     1
102
RTVSPost2010PropOp29
 70
     1
102
RTVSPost2010Prop30
280
     1
102
RTVSPost2010PropOp30
 70
     1
102
RTVSPost2010Prop31
280
     0
102
RTVSPost2010PropOp31
 70
     1
102
RTVSPost2010Prop32
280
     0
102
RTVSPost2010PropOp32
 70
     1
102
RTVSPost2010Prop33
280
     0
102
RTVSPost2010PropOp33
 70
     1
102
RTVSPost2010Prop34
280
     0
102
RTVSPost2010PropOp34
 70
     1
102
RTVSPost2010Prop35
280
     0
102
RTVSPost2010PropOp35
 70
     1
102
RTVSPost2010Prop36
280
     0
102
RTVSPost2010PropOp36
 70
     1
102
RTVSPost2010Prop37
 90
       50
102
RTVSPost2010PropOp37
 70
     1
102
RTVSPost2010Prop38
140
0.0
102
RTVSPost2010PropOp38
 70
     1
102
RTVSPost2010Prop39
140
1.0
102
RTVSPost2010PropOp39
 70
     1
102
RTVSPost2010Prop40
 90
        0
102
RTVSPost2010PropOp40
 70
     1
102
RTVSPost2010Prop41ColorIndex
 90
       18
102
RTVSPost2010Prop41ColorRGB
 90
        0
102
RTVSPost2010PropOp41
 70
     1
102
RTVSPost2010Prop42
 90
       50
102
RTVSPost2010PropOp42
 70
     1
102
RTVSPost2010Prop43
 90
        3
102
RTVSPost2010PropOp43
 70
     1
102
RTVSPost2010Prop44ColorIndex
 90
        5
102
RTVSPost2010Prop44ColorRGB
 90
      255
102
RTVSPost2010PropOp44
 70
     1
102
RTVSPost2010Prop45
280
     0
102
RTVSPost2010PropOp45
 70
     1
102
RTVSPost2010Prop46
 90
       50
102
RTVSPost2010PropOp46
 70
     1
102
RTVSPost2010Prop47
 90
       50
102
RTVSPost2010PropOp47
 70
     1
102
RTVSPost2010Prop48
 90
       50
102
RTVSPost2010PropOp48
 70
     1
102
RTVSPost2010Prop49
280
     0
102
RTVSPost2010PropOp49
 70
     1
102
RTVSPost2010Prop50
 90
       50
102
RTVSPost2010PropOp50
 70
     1
102
RTVSPost2010Prop51ColorIndex
 90
      256
102
RTVSPost2010Prop51ColorRGB
 90
-16777216
102
RTVSPost2010PropOp51
 70
     0
102
RTVSPost2010Prop52
140
1.0
102
RTVSPost2010PropOp52
 70
     0
102
RTVSPost2010Prop53
 90
        2
102
RTVSPost2010PropOp53
 70
     1
102
RTVSPost2010Prop54
  1
strokes_ogs.tif
102
RTVSPost2010PropOp54
 70
     1
102
RTVSPost2010Prop55
280
     0
102
RTVSPost2010PropOp55
 70
     1
102
RTVSPost2010Prop56
140
1.0
102
RTVSPost2010PropOp56
 70
     1
102
RTVSPost2010Prop57
140
1.0
102
RTVSPost2010PropOp57
 70
     1
  0
XRECORD
  5
BB
102
{ACAD_REACTORS
330
BA
102
}
330
BA
100
AcDbXrecord
280
     1
102
RTVSPropertyOp0
 70
     1
102
RTVSPropertyOp1
 70
     1
102
RTVSPropertyOp2
 70
     1
102
RTVSPropertyOp3
 70
     1
102
RTVSPropertyOp4
 70
     1
102
RTVSPropertyOp5
 70
     1
102
RTVSPropertyOp6
 70
     1
102
RTVSPropertyOp7
 70
     1
102
RTVSPropertyOp8
 70
     1
102
RTVSPropertyOp9
 70
     1
102
RTVSPropertyOp10
 70
     1
102
RTVSPropertyOp11
 70
     1
102
RTVSPropertyOp12
 70
     1
102
RTVSPropertyOp13
 70
     1
102
RTVSPropertyOp14
 70
     1
102
RTVSPropertyOp15
 70
     1
102
RTVSPropertyOp16
 70
     1
102
RTVSPropertyOp17
 70
     1
102
RTVSPropertyOp18
 70
     1
102
RTVSPropertyOp19
 70
     1
102
RTVSPropertyOp20
 70
     1
102
RTVSPropertyOp21
 70
     1
102
RTVSPropertyOp22
 70
     1
102
RTVSPropertyOp23
 70
     1
102
RTVSPropertyOp24
 70
     1
102
RTVSPropertyOp25
 70
     1
102
RTVSPropertyOp26
 70
     1
102
RTVSPropertyOp27
 70
     1
102
RTVSPropertyOp28
 70
     1
102
RTVSPropertyOp29
 70
     1
102
RTVSPropertyOp30
 70
     1
102
RTVSPropertyOp31
 70
     1
102
RTVSPropertyOp32
 70
     1
102
RTVSPropertyOp33
 70
     1
102
RTVSPropertyOp34
 70
     1
102
RTVSPropertyOp35
 70
     1
102
RTVSPropertyOp36
 70
     1
102
RTVSPropertyOp37
 70
     1
102
RTVSPropertyOp38
 70
     1
102
RTVSPropertyOp39
 70
     1
102
RTVSPropertyOp40
 70
     1
102
RTVSPropertyOp41
 70
     1
102
RTVSPropertyOp42
 70
     1
102
RTVSPropertyOp43
 70
     1
102
RTVSPropertyOp44
 70
     1
102
RTVSPropertyOp45
 70
     1
102
RTVSPropertyOp46
 70
     1
102
RTVSPropertyOp47
 70
     1
102
RTVSPropertyOp48
 70
     1
102
RTVSPropertyOp49
 70
     1
102
RTVSPropertyOp50
 70
     1
102
RTVSPropertyOp51
 70
     0
102
RTVSPropertyOp52
 70
     0
102
RTVSPropertyOp53
 70
     1
102
RTVSPropertyOp54
 70
     1
102
RTVSPropertyOp55
 70
     1
102
RTVSPropertyOp56
 70
     1
102
RTVSPropertyOp57
 70
     1
102
RTVSPost2010Prop28
280
     0
102
RTVSPost2010PropOp28
 70
     1
102
RTVSPost2010Prop29
280
     1
102
RTVSPost2010PropOp29
 70
     1
102
RTVSPost2010Prop30
280
     1
102
RTVSPost2010PropOp30
 70
     1
102
RTVSPost2010Prop31
280
     0
102
RTVSPost2010PropOp31
 70
     1
102
RTVSPost2010Prop32
280
     0
102
RTVSPost2010PropOp32
 70
     1
102
RTVSPost2010Prop33
280
     0
102
RTVSPost2010PropOp33
 70
     1
102
RTVSPost2010Prop34
280
     0
102
RTVSPost2010PropOp34
 70
     1
102
RTVSPost2010Prop35
280
     0
102
RTVSPost2010PropOp35
 70
     1
102
RTVSPost2010Prop36
280
     0
102
RTVSPost2010PropOp36
 70
     1
102
RTVSPost2010Prop37
 90
       50
102
RTVSPost2010PropOp37
 70
     1
102
RTVSPost2010Prop38
140
0.0
102
RTVSPost2010PropOp38
 70
     1
102
RTVSPost2010Prop39
140
1.0
102
RTVSPost2010PropOp39
 70
     1
102
RTVSPost2010Prop40
 90
        0
102
RTVSPost2010PropOp40
 70
     1
102
RTVSPost2010Prop41ColorIndex
 90
       18
102
RTVSPost2010Prop41ColorRGB
 90
        0
102
RTVSPost2010PropOp41
 70
     1
102
RTVSPost2010Prop42
 90
       50
102
RTVSPost2010PropOp42
 70
     1
102
RTVSPost2010Prop43
 90
        3
102
RTVSPost2010PropOp43
 70
     1
102
RTVSPost2010Prop44ColorIndex
 90
        5
102
RTVSPost2010Prop44ColorRGB
 90
      255
102
RTVSPost2010PropOp44
 70
     1
102
RTVSPost2010Prop45
280
     0
102
RTVSPost2010PropOp45
 70
     1
102
RTVSPost2010Prop46
 90
       50
102
RTVSPost2010PropOp46
 70
     1
102
RTVSPost2010Prop47
 90
       50
102
RTVSPost2010PropOp47
 70
     1
102
RTVSPost2010Prop48
 90
       50
102
RTVSPost2010PropOp48
 70
     1
102
RTVSPost2010Prop49
280
     0
102
RTVSPost2010PropOp49
 70
     1
102
RTVSPost2010Prop50
 90
       50
102
RTVSPost2010PropOp50
 70
     1
102
RTVSPost2010Prop51ColorIndex
 90
      256
102
RTVSPost2010Prop51ColorRGB
 90
-16777216
102
RTVSPost2010PropOp51
 70
     0
102
RTVSPost2010Prop52
140
1.0
102
RTVSPost2010PropOp52
 70
     0
102
RTVSPost2010Prop53
 90
        2
102
RTVSPost2010PropOp53
 70
     1
102
RTVSPost2010Prop54
  1
strokes_ogs.tif
102
RTVSPost2010PropOp54
 70
     1
102
RTVSPost2010Prop55
280
     0
102
RTVSPost2010PropOp55
 70
     1
102
RTVSPost2010Prop56
140
1.0
102
RTVSPost2010PropOp56
 70
     1
102
RTVSPost2010Prop57
140
1.0
102
RTVSPost2010PropOp57
 70
     1
  0
XRECORD
  5
AB
102
{ACAD_REACTORS
330
AA
102
}
330
AA
100
AcDbXrecord
280
     1
102
RTVSPropertyOp0
 70
     1
102
RTVSPropertyOp1
 70
     1
102
RTVSPropertyOp2
 70
     1
102
RTVSPropertyOp3
 70
     1
102
RTVSPropertyOp4
 70
     1
102
RTVSPropertyOp5
 70
     1
102
RTVSPropertyOp6
 70
     1
102
RTVSPropertyOp7
 70
     1
102
RTVSPropertyOp8
 70
     1
102
RTVSPropertyOp9
 70
     1
102
RTVSPropertyOp10
 70
     1
102
RTVSPropertyOp11
 70
     1
102
RTVSPropertyOp12
 70
     1
102
RTVSPropertyOp13
 70
     1
102
RTVSPropertyOp14
 70
     1
102
RTVSPropertyOp15
 70
     1
102
RTVSPropertyOp16
 70
     1
102
RTVSPropertyOp17
 70
     1
102
RTVSPropertyOp18
 70
     1
102
RTVSPropertyOp19
 70
     1
102
RTVSPropertyOp20
 70
     1
102
RTVSPropertyOp21
 70
     1
102
RTVSPropertyOp22
 70
     1
102
RTVSPropertyOp23
 70
     1
102
RTVSPropertyOp24
 70
     1
102
RTVSPropertyOp25
 70
     1
102
RTVSPropertyOp26
 70
     1
102
RTVSPropertyOp27
 70
     1
102
RTVSPropertyOp28
 70
     1
102
RTVSPropertyOp29
 70
     1
102
RTVSPropertyOp30
 70
     1
102
RTVSPropertyOp31
 70
     1
102
RTVSPropertyOp32
 70
     1
102
RTVSPropertyOp33
 70
     1
102
RTVSPropertyOp34
 70
     1
102
RTVSPropertyOp35
 70
     1
102
RTVSPropertyOp36
 70
     1
102
RTVSPropertyOp37
 70
     1
102
RTVSPropertyOp38
 70
     1
102
RTVSPropertyOp39
 70
     1
102
RTVSPropertyOp40
 70
     1
102
RTVSPropertyOp41
 70
     1
102
RTVSPropertyOp42
 70
     1
102
RTVSPropertyOp43
 70
     1
102
RTVSPropertyOp44
 70
     1
102
RTVSPropertyOp45
 70
     1
102
RTVSPropertyOp46
 70
     1
102
RTVSPropertyOp47
 70
     1
102
RTVSPropertyOp48
 70
     1
102
RTVSPropertyOp49
 70
     1
102
RTVSPropertyOp50
 70
     1
102
RTVSPropertyOp51
 70
     0
102
RTVSPropertyOp52
 70
     0
102
RTVSPropertyOp53
 70
     1
102
RTVSPropertyOp54
 70
     1
102
RTVSPropertyOp55
 70
     1
102
RTVSPropertyOp56
 70
     1
102
RTVSPropertyOp57
 70
     1
102
RTVSPost2010Prop28
280
     0
102
RTVSPost2010PropOp28
 70
     1
102
RTVSPost2010Prop29
280
     1
102
RTVSPost2010PropOp29
 70
     1
102
RTVSPost2010Prop30
280
     1
102
RTVSPost2010PropOp30
 70
     1
102
RTVSPost2010Prop31
280
     0
102
RTVSPost2010PropOp31
 70
     1
102
RTVSPost2010Prop32
280
     0
102
RTVSPost2010PropOp32
 70
     1
102
RTVSPost2010Prop33
280
     0
102
RTVSPost2010PropOp33
 70
     1
102
RTVSPost2010Prop34
280
     0
102
RTVSPost2010PropOp34
 70
     1
102
RTVSPost2010Prop35
280
     0
102
RTVSPost2010PropOp35
 70
     1
102
RTVSPost2010Prop36
280
     0
102
RTVSPost2010PropOp36
 70
     1
102
RTVSPost2010Prop37
 90
       50
102
RTVSPost2010PropOp37
 70
     1
102
RTVSPost2010Prop38
140
0.0
102
RTVSPost2010PropOp38
 70
     1
102
RTVSPost2010Prop39
140
1.0
102
RTVSPost2010PropOp39
 70
     1
102
RTVSPost2010Prop40
 90
        0
102
RTVSPost2010PropOp40
 70
     1
102
RTVSPost2010Prop41ColorIndex
 90
       18
102
RTVSPost2010Prop41ColorRGB
 90
        0
102
RTVSPost2010PropOp41
 70
     1
102
RTVSPost2010Prop42
 90
       50
102
RTVSPost2010PropOp42
 70
     1
102
RTVSPost2010Prop43
 90
        3
102
RTVSPost2010PropOp43
 70
     1
102
RTVSPost2010Prop44ColorIndex
 90
        5
102
RTVSPost2010Prop44ColorRGB
 90
      255
102
RTVSPost2010PropOp44
 70
     1
102
RTVSPost2010Prop45
280
     0
102
RTVSPost2010PropOp45
 70
     1
102
RTVSPost2010Prop46
 90
       50
102
RTVSPost2010PropOp46
 70
     1
102
RTVSPost2010Prop47
 90
       50
102
RTVSPost2010PropOp47
 70
     1
102
RTVSPost2010Prop48
 90
       50
102
RTVSPost2010PropOp48
 70
     1
102
RTVSPost2010Prop49
280
     0
102
RTVSPost2010PropOp49
 70
     1
102
RTVSPost2010Prop50
 90
       50
102
RTVSPost2010PropOp50
 70
     1
102
RTVSPost2010Prop51ColorIndex
 90
      256
102
RTVSPost2010Prop51ColorRGB
 90
-16777216
102
RTVSPost2010PropOp51
 70
     0
102
RTVSPost2010Prop52
140
1.0
102
RTVSPost2010PropOp52
 70
     0
102
RTVSPost2010Prop53
 90
        2
102
RTVSPost2010PropOp53
 70
     1
102
RTVSPost2010Prop54
  1
strokes_ogs.tif
102
RTVSPost2010PropOp54
 70
     1
102
RTVSPost2010Prop55
280
     0
102
RTVSPost2010PropOp55
 70
     1
102
RTVSPost2010Prop56
140
1.0
102
RTVSPost2010PropOp56
 70
     1
102
RTVSPost2010Prop57
140
1.0
102
RTVSPost2010PropOp57
 70
     1
  0
XRECORD
  5
9D
102
{ACAD_REACTORS
330
9C
102
}
330
9C
100
AcDbXrecord
280
     1
102
RTVSPropertyOp0
 70
     1
102
RTVSPropertyOp1
 70
     1
102
RTVSPropertyOp2
 70
     1
102
RTVSPropertyOp3
 70
     1
102
RTVSPropertyOp4
 70
     1
102
RTVSPropertyOp5
 70
     1
102
RTVSPropertyOp6
 70
     1
102
RTVSPropertyOp7
 70
     1
102
RTVSPropertyOp8
 70
     1
102
RTVSPropertyOp9
 70
     1
102
RTVSPropertyOp10
 70
     1
102
RTVSPropertyOp11
 70
     1
102
RTVSPropertyOp12
 70
     1
102
RTVSPropertyOp13
 70
     1
102
RTVSPropertyOp14
 70
     1
102
RTVSPropertyOp15
 70
     1
102
RTVSPropertyOp16
 70
     1
102
RTVSPropertyOp17
 70
     1
102
RTVSPropertyOp18
 70
     1
102
RTVSPropertyOp19
 70
     1
102
RTVSPropertyOp20
 70
     1
102
RTVSPropertyOp21
 70
     1
102
RTVSPropertyOp22
 70
     1
102
RTVSPropertyOp23
 70
     1
102
RTVSPropertyOp24
 70
     1
102
RTVSPropertyOp25
 70
     1
102
RTVSPropertyOp26
 70
     1
102
RTVSPropertyOp27
 70
     1
102
RTVSPropertyOp28
 70
     1
102
RTVSPropertyOp29
 70
     1
102
RTVSPropertyOp30
 70
     1
102
RTVSPropertyOp31
 70
     1
102
RTVSPropertyOp32
 70
     1
102
RTVSPropertyOp33
 70
     1
102
RTVSPropertyOp34
 70
     1
102
RTVSPropertyOp35
 70
     1
102
RTVSPropertyOp36
 70
     1
102
RTVSPropertyOp37
 70
     1
102
RTVSPropertyOp38
 70
     1
102
RTVSPropertyOp39
 70
     1
102
RTVSPropertyOp40
 70
     1
102
RTVSPropertyOp41
 70
     1
102
RTVSPropertyOp42
 70
     1
102
RTVSPropertyOp43
 70
     1
102
RTVSPropertyOp44
 70
     1
102
RTVSPropertyOp45
 70
     1
102
RTVSPropertyOp46
 70
     1
102
RTVSPropertyOp47
 70
     1
102
RTVSPropertyOp48
 70
     1
102
RTVSPropertyOp49
 70
     1
102
RTVSPropertyOp50
 70
     1
102
RTVSPropertyOp51
 70
     0
102
RTVSPropertyOp52
 70
     0
102
RTVSPropertyOp53
 70
     1
102
RTVSPropertyOp54
 70
     1
102
RTVSPropertyOp55
 70
     1
102
RTVSPropertyOp56
 70
     1
102
RTVSPropertyOp57
 70
     1
102
RTVSPost2010Prop28
280
     0
102
RTVSPost2010PropOp28
 70
     1
102
RTVSPost2010Prop29
280
     1
102
RTVSPost2010PropOp29
 70
     1
102
RTVSPost2010Prop30
280
     1
102
RTVSPost2010PropOp30
 70
     1
102
RTVSPost2010Prop31
280
     0
102
RTVSPost2010PropOp31
 70
     1
102
RTVSPost2010Prop32
280
     0
102
RTVSPost2010PropOp32
 70
     1
102
RTVSPost2010Prop33
280
     0
102
RTVSPost2010PropOp33
 70
     1
102
RTVSPost2010Prop34
280
     0
102
RTVSPost2010PropOp34
 70
     1
102
RTVSPost2010Prop35
280
     0
102
RTVSPost2010PropOp35
 70
     1
102
RTVSPost2010Prop36
280
     0
102
RTVSPost2010PropOp36
 70
     1
102
RTVSPost2010Prop37
 90
       50
102
RTVSPost2010PropOp37
 70
     1
102
RTVSPost2010Prop38
140
0.0
102
RTVSPost2010PropOp38
 70
     1
102
RTVSPost2010Prop39
140
1.0
102
RTVSPost2010PropOp39
 70
     1
102
RTVSPost2010Prop40
 90
        0
102
RTVSPost2010PropOp40
 70
     1
102
RTVSPost2010Prop41ColorIndex
 90
       18
102
RTVSPost2010Prop41ColorRGB
 90
        0
102
RTVSPost2010PropOp41
 70
     1
102
RTVSPost2010Prop42
 90
       50
102
RTVSPost2010PropOp42
 70
     1
102
RTVSPost2010Prop43
 90
        3
102
RTVSPost2010PropOp43
 70
     1
102
RTVSPost2010Prop44ColorIndex
 90
        5
102
RTVSPost2010Prop44ColorRGB
 90
      255
102
RTVSPost2010PropOp44
 70
     1
102
RTVSPost2010Prop45
280
     0
102
RTVSPost2010PropOp45
 70
     1
102
RTVSPost2010Prop46
 90
       50
102
RTVSPost2010PropOp46
 70
     1
102
RTVSPost2010Prop47
 90
       50
102
RTVSPost2010PropOp47
 70
     1
102
RTVSPost2010Prop48
 90
       50
102
RTVSPost2010PropOp48
 70
     1
102
RTVSPost2010Prop49
280
     0
102
RTVSPost2010PropOp49
 70
     1
102
RTVSPost2010Prop50
 90
       50
102
RTVSPost2010PropOp50
 70
     1
102
RTVSPost2010Prop51ColorIndex
 90
      256
102
RTVSPost2010Prop51ColorRGB
 90
-16777216
102
RTVSPost2010PropOp51
 70
     0
102
RTVSPost2010Prop52
140
1.0
102
RTVSPost2010PropOp52
 70
     0
102
RTVSPost2010Prop53
 90
        2
102
RTVSPost2010PropOp53
 70
     1
102
RTVSPost2010Prop54
  1
strokes_ogs.tif
102
RTVSPost2010PropOp54
 70
     1
102
RTVSPost2010Prop55
280
     0
102
RTVSPost2010PropOp55
 70
     1
102
RTVSPost2010Prop56
140
1.0
102
RTVSPost2010PropOp56
 70
     1
102
RTVSPost2010Prop57
140
1.0
102
RTVSPost2010PropOp57
 70
     1
  0
XRECORD
  5
BD
102
{ACAD_REACTORS
330
BC
102
}
330
BC
100
AcDbXrecord
280
     1
102
RTVSPropertyOp0
 70
     1
102
RTVSPropertyOp1
 70
     1
102
RTVSPropertyOp2
 70
     1
102
RTVSPropertyOp3
 70
     1
102
RTVSPropertyOp4
 70
     1
102
RTVSPropertyOp5
 70
     1
102
RTVSPropertyOp6
 70
     1
102
RTVSPropertyOp7
 70
     1
102
RTVSPropertyOp8
 70
     1
102
RTVSPropertyOp9
 70
     1
102
RTVSPropertyOp10
 70
     1
102
RTVSPropertyOp11
 70
     1
102
RTVSPropertyOp12
 70
     1
102
RTVSPropertyOp13
 70
     1
102
RTVSPropertyOp14
 70
     1
102
RTVSPropertyOp15
 70
     1
102
RTVSPropertyOp16
 70
     1
102
RTVSPropertyOp17
 70
     1
102
RTVSPropertyOp18
 70
     1
102
RTVSPropertyOp19
 70
     1
102
RTVSPropertyOp20
 70
     1
102
RTVSPropertyOp21
 70
     1
102
RTVSPropertyOp22
 70
     1
102
RTVSPropertyOp23
 70
     1
102
RTVSPropertyOp24
 70
     1
102
RTVSPropertyOp25
 70
     1
102
RTVSPropertyOp26
 70
     1
102
RTVSPropertyOp27
 70
     1
102
RTVSPropertyOp28
 70
     1
102
RTVSPropertyOp29
 70
     1
102
RTVSPropertyOp30
 70
     1
102
RTVSPropertyOp31
 70
     1
102
RTVSPropertyOp32
 70
     1
102
RTVSPropertyOp33
 70
     1
102
RTVSPropertyOp34
 70
     1
102
RTVSPropertyOp35
 70
     1
102
RTVSPropertyOp36
 70
     1
102
RTVSPropertyOp37
 70
     1
102
RTVSPropertyOp38
 70
     1
102
RTVSPropertyOp39
 70
     1
102
RTVSPropertyOp40
 70
     1
102
RTVSPropertyOp41
 70
     1
102
RTVSPropertyOp42
 70
     1
102
RTVSPropertyOp43
 70
     1
102
RTVSPropertyOp44
 70
     1
102
RTVSPropertyOp45
 70
     1
102
RTVSPropertyOp46
 70
     1
102
RTVSPropertyOp47
 70
     1
102
RTVSPropertyOp48
 70
     1
102
RTVSPropertyOp49
 70
     1
102
RTVSPropertyOp50
 70
     1
102
RTVSPropertyOp51
 70
     0
102
RTVSPropertyOp52
 70
     0
102
RTVSPropertyOp53
 70
     1
102
RTVSPropertyOp54
 70
     1
102
RTVSPropertyOp55
 70
     1
102
RTVSPropertyOp56
 70
     1
102
RTVSPropertyOp57
 70
     1
102
RTVSPost2010Prop28
280
     0
102
RTVSPost2010PropOp28
 70
     1
102
RTVSPost2010Prop29
280
     1
102
RTVSPost2010PropOp29
 70
     1
102
RTVSPost2010Prop30
280
     1
102
RTVSPost2010PropOp30
 70
     1
102
RTVSPost2010Prop31
280
     0
102
RTVSPost2010PropOp31
 70
     1
102
RTVSPost2010Prop32
280
     0
102
RTVSPost2010PropOp32
 70
     1
102
RTVSPost2010Prop33
280
     0
102
RTVSPost2010PropOp33
 70
     1
102
RTVSPost2010Prop34
280
     0
102
RTVSPost2010PropOp34
 70
     1
102
RTVSPost2010Prop35
280
     0
102
RTVSPost2010PropOp35
 70
     1
102
RTVSPost2010Prop36
280
     0
102
RTVSPost2010PropOp36
 70
     1
102
RTVSPost2010Prop37
 90
       50
102
RTVSPost2010PropOp37
 70
     1
102
RTVSPost2010Prop38
140
0.0
102
RTVSPost2010PropOp38
 70
     1
102
RTVSPost2010Prop39
140
1.0
102
RTVSPost2010PropOp39
 70
     1
102
RTVSPost2010Prop40
 90
        0
102
RTVSPost2010PropOp40
 70
     1
102
RTVSPost2010Prop41ColorIndex
 90
       18
102
RTVSPost2010Prop41ColorRGB
 90
        0
102
RTVSPost2010PropOp41
 70
     1
102
RTVSPost2010Prop42
 90
       50
102
RTVSPost2010PropOp42
 70
     1
102
RTVSPost2010Prop43
 90
        3
102
RTVSPost2010PropOp43
 70
     1
102
RTVSPost2010Prop44ColorIndex
 90
        5
102
RTVSPost2010Prop44ColorRGB
 90
      255
102
RTVSPost2010PropOp44
 70
     1
102
RTVSPost2010Prop45
280
     0
102
RTVSPost2010PropOp45
 70
     1
102
RTVSPost2010Prop46
 90
       50
102
RTVSPost2010PropOp46
 70
     1
102
RTVSPost2010Prop47
 90
       50
102
RTVSPost2010PropOp47
 70
     1
102
RTVSPost2010Prop48
 90
       50
102
RTVSPost2010PropOp48
 70
     1
102
RTVSPost2010Prop49
280
     0
102
RTVSPost2010PropOp49
 70
     1
102
RTVSPost2010Prop50
 90
       50
102
RTVSPost2010PropOp50
 70
     1
102
RTVSPost2010Prop51ColorIndex
 90
      256
102
RTVSPost2010Prop51ColorRGB
 90
-16777216
102
RTVSPost2010PropOp51
 70
     0
102
RTVSPost2010Prop52
140
1.0
102
RTVSPost2010PropOp52
 70
     0
102
RTVSPost2010Prop53
 90
        2
102
RTVSPost2010PropOp53
 70
     1
102
RTVSPost2010Prop54
  1
strokes_ogs.tif
102
RTVSPost2010PropOp54
 70
     1
102
RTVSPost2010Prop55
280
     0
102
RTVSPost2010PropOp55
 70
     1
102
RTVSPost2010Prop56
140
1.0
102
RTVSPost2010PropOp56
 70
     1
102
RTVSPost2010Prop57
140
1.0
102
RTVSPost2010PropOp57
 70
     1
  0
ENDSEC
  0
EOF
