  0
SECTION
  2
HEADER
  9
$ACADVER
  1
AC1015
  9
$ACADMAINTVER
 70
     6
  9
$DWGCODEPAGE
  3
ANSI_1252
  9
$INSBASE
 10
0.0
 20
0.0
 30
0.0
  9
$EXTMIN
 10
0.0
 20
0.0
 30
0.0
  9
$EXTMAX
 10
20.0
 20
18.0
 30
0.0
  9
$LIMMIN
 10
0.0
 20
0.0
  9
$LIMMAX
 10
20.0
 20
18.0
  9
$ORTHOMODE
 70
     0
  9
$REGENMODE
 70
     1
  9
$FILLMODE
 70
     1
  9
$QTEXTMODE
 70
     0
  9
$MIRRTEXT
 70
     1
  9
$LTSCALE
 40
1.0
  9
$ATTMODE
 70
     1
  9
$TEXTSIZE
 40
0.1388888889
  9
$TRACEWID
 40
0.05
  9
$TEXTSTYLE
  7
Standard
  9
$CLAYER
  8
0
  9
$CELTYPE
  6
ByLayer
  9
$CECOLOR
 62
   256
  9
$CELTSCALE
 40
1.0
  9
$DISPSILH
 70
     0
  9
$DIMSCALE
 40
1.0
  9
$DIMASZ
 40
0.13
  9
$DIMEXO
 40
0.05
  9
$DIMDLI
 40
0.38
  9
$DIMRND
 40
0.0
  9
$DIMDLE
 40
0.0
  9
$DIMEXE
 40
0.08
  9
$DIMTP
 40
0.0
  9
$DIMTM
 40
0.0
  9
$DIMTXT
 40
0.1388888889
  9
$DIMCEN
 40
0.09
  9
$DIMTSZ
 40
0.0
  9
$DIMTOL
 70
     0
  9
$DIMLIM
 70
     0
  9
$DIMTIH
 70
     1
  9
$DIMTOH
 70
     1
  9
$DIMSE1
 70
     0
  9
$DIMSE2
 70
     0
  9
$DIMTAD
 70
     0
  9
$DIMZIN
 70
     0
  9
$DIMBLK
  1

  9
$DIMASO
 70
     1
  9
$DIMSHO
 70
     1
  9
$DIMPOST
  1

  9
$DIMAPOST
  1

  9
$DIMALT
 70
     0
  9
$DIMALTD
 70
     2
  9
$DIMALTF
 40
25.4
  9
$DIMLFAC
 40
1.0
  9
$DIMTOFL
 70
     0
  9
$DIMTVP
 40
0.0
  9
$DIMTIX
 70
     0
  9
$DIMSOXD
 70
     0
  9
$DIMSAH
 70
     0
  9
$DIMBLK1
  1

  9
$DIMBLK2
  1

  9
$DIMSTYLE
  2
Standard
  9
$DIMCLRD
 70
     0
  9
$DIMCLRE
 70
     0
  9
$DIMCLRT
 70
     0
  9
$DIMTFAC
 40
1.0
  9
$DIMGAP
 40
0.06
  9
$DIMJUST
 70
     0
  9
$DIMSD1
 70
     0
  9
$DIMSD2
 70
     0
  9
$DIMTOLJ
 70
     1
  9
$DIMTZIN
 70
     0
  9
$DIMALTZ
 70
     0
  9
$DIMALTTZ
 70
     0
  9
$DIMUPT
 70
     0
  9
$DIMDEC
 70
     4
  9
$DIMTDEC
 70
     4
  9
$DIMALTU
 70
     2
  9
$DIMALTTD
 70
     2
  9
$DIMTXSTY
  7
Standard
  9
$DIMAUNIT
 70
     0
  9
$DIMADEC
 70
     0
  9
$DIMALTRND
 40
0.0
  9
$DIMAZIN
 70
     0
  9
$DIMDSEP
 70
    46
  9
$DIMATFIT
 70
     3
  9
$DIMFRAC
 70
     0
  9
$DIMLDRBLK
  1

  9
$DIMLUNIT
 70
     2
  9
$DIMLWD
 70
    -2
  9
$DIMLWE
 70
    -2
  9
$DIMTMOVE
 70
     0
  9
$LUNITS
 70
     2
  9
$LUPREC
 70
     2
  9
$SKETCHINC
 40
0.1
  9
$FILLETRAD
 40
0.5
  9
$AUNITS
 70
     0
  9
$AUPREC
 70
     0
  9
$MENU
  1
.
  9
$ELEVATION
 40
0.0
  9
$PELEVATION
 40
0.0
  9
$THICKNESS
 40
0.0
  9
$LIMCHECK
 70
     0
  9
$CHAMFERA
 40
0.5
  9
$CHAMFERB
 40
0.5
  9
$CHAMFERC
 40
1.0
  9
$CHAMFERD
 40
0.0
  9
$SKPOLY
 70
     0
  9
$TDCREATE
 40
2454879.557832917
  9
$TDUCREATE
 40
2454879.89116625
  9
$TDUPDATE
 40
2454879.557832928
  9
$TDUUPDATE
 40
2454879.891166261
  9
$TDINDWG
 40
0.0000000116
  9
$TDUSRTIMER
 40
0.0000000116
  9
$USRTIMER
 70
     1
  9
$ANGBASE
 50
0.0
  9
$ANGDIR
 70
     0
  9
$PDMODE
 70
     0
  9
$PDSIZE
 40
-1.0
  9
$PLINEWID
 40
0.0
  9
$SPLFRAME
 70
     0
  9
$SPLINETYPE
 70
     6
  9
$SPLINESEGS
 70
     8
  9
$HANDSEED
  5
64
  9
$SURFTAB1
 70
     6
  9
$SURFTAB2
 70
     6
  9
$SURFTYPE
 70
     6
  9
$SURFU
 70
     6
  9
$SURFV
 70
     6
  9
$UCSBASE
  2

  9
$UCSNAME
  2

  9
$UCSORG
 10
0.0
 20
0.0
 30
0.0
  9
$UCSXDIR
 10
1.0
 20
0.0
 30
0.0
  9
$UCSYDIR
 10
0.0
 20
1.0
 30
0.0
  9
$UCSORTHOREF
  2

  9
$UCSORTHOVIEW
 70
     0
  9
$UCSORGTOP
 10
0.0
 20
0.0
 30
0.0
  9
$UCSORGBOTTOM
 10
0.0
 20
0.0
 30
0.0
  9
$UCSORGLEFT
 10
0.0
 20
0.0
 30
0.0
  9
$UCSORGRIGHT
 10
0.0
 20
0.0
 30
0.0
  9
$UCSORGFRONT
 10
0.0
 20
0.0
 30
0.0
  9
$UCSORGBACK
 10
0.0
 20
0.0
 30
0.0
  9
$PUCSBASE
  2

  9
$PUCSNAME
  2

  9
$PUCSORG
 10
0.0
 20
0.0
 30
0.0
  9
$PUCSXDIR
 10
1.0
 20
0.0
 30
0.0
  9
$PUCSYDIR
 10
0.0
 20
1.0
 30
0.0
  9
$PUCSORTHOREF
  2

  9
$PUCSORTHOVIEW
 70
     0
  9
$PUCSORGTOP
 10
0.0
 20
0.0
 30
0.0
  9
$PUCSORGBOTTOM
 10
0.0
 20
0.0
 30
0.0
  9
$PUCSORGLEFT
 10
0.0
 20
0.0
 30
0.0
  9
$PUCSORGRIGHT
 10
0.0
 20
0.0
 30
0.0
  9
$PUCSORGFRONT
 10
0.0
 20
0.0
 30
0.0
  9
$PUCSORGBACK
 10
0.0
 20
0.0
 30
0.0
  9
$USERI1
 70
     0
  9
$USERI2
 70
     0
  9
$USERI3
 70
     0
  9
$USERI4
 70
     0
  9
$USERI5
 70
     0
  9
$USERR1
 40
0.0
  9
$USERR2
 40
0.0
  9
$USERR3
 40
0.0
  9
$USERR4
 40
0.0
  9
$USERR5
 40
0.0
  9
$WORLDVIEW
 70
     1
  9
$SHADEDGE
 70
     3
  9
$SHADEDIF
 70
    70
  9
$TILEMODE
 70
     1
  9
$MAXACTVP
 70
    64
  9
$PINSBASE
 10
0.0
 20
0.0
 30
0.0
  9
$PLIMCHECK
 70
     0
  9
$PEXTMIN
 10
1.0000000000E 20
 20
1.0000000000E 20
 30
1.0000000000E 20
  9
$PEXTMAX
 10
-1.0000000000E 20
 20
-1.0000000000E 20
 30
-1.0000000000E 20
  9
$PLIMMIN
 10
0.0
 20
0.0
  9
$PLIMMAX
 10
12.0
 20
9.0
  9
$UNITMODE
 70
     0
  9
$VISRETAIN
 70
     1
  9
$PLINEGEN
 70
     0
  9
$PSLTSCALE
 70
     1
  9
$TREEDEPTH
 70
  3020
  9
$CMLSTYLE
  2
Standard
  9
$CMLJUST
 70
     0
  9
$CMLSCALE
 40
1.0
  9
$PROXYGRAPHICS
 70
     1
  9
$MEASUREMENT
 70
     0
  9
$CELWEIGHT
370
    -1
  9
$ENDCAPS
280
     0
  9
$JOINSTYLE
280
     0
  9
$LWDISPLAY
290
     1
  9
$INSUNITS
 70
     1
  9
$HYPERLINKBASE
  1

  9
$STYLESHEET
  1

  9
$XEDIT
290
     1
  9
$CEPSNTYPE
380
     0
  9
$PSTYLEMODE
290
     1
  9
$FINGERPRINTGUID
  2
{3AFEF13A-EE9C-46AF-A7CB-3A3166018D39}
  9
$VERSIONGUID
  2
{FAEB1C32-E019-11D5-929B-00C0DF256EC4}
  9
$EXTNAMES
290
     1
  9
$PSVPSCALE
 40
0.0
  9
$OLESTARTUP
290
     0
  0
ENDSEC
  0
SECTION
  2
CLASSES
  0
CLASS
  1
ACDBDICTIONARYWDFLT
  2
AcDbDictionaryWithDefault
  3
ObjectDBX Classes
 90
        0
280
     0
281
     0
  0
CLASS
  1
VISUALSTYLE
  2
AcDbVisualStyle
  3
ObjectDBX Classes
 90
     4095
280
     0
281
     0
  0
CLASS
  1
ACDBPLACEHOLDER
  2
AcDbPlaceHolder
  3
ObjectDBX Classes
 90
        0
280
     0
281
     0
  0
CLASS
  1
LAYOUT
  2
AcDbLayout
  3
ObjectDBX Classes
 90
        0
280
     0
281
     0
  0
ENDSEC
  0
SECTION
  2
TABLES
  0
TABLE
  2
VPORT
  5
8
330
0
100
AcDbSymbolTable
 70
     1
  0
VPORT
  5
29
330
8
100
AcDbSymbolTableRecord
100
AcDbViewportTableRecord
  2
*Active
 70
     0
 10
0.0
 20
0.0
 11
1.0
 21
1.0
 12
10.0
 22
9.0
 13
0.0
 23
0.0
 14
0.5
 24
0.5
 15
0.5
 25
0.5
 16
0.0
 26
0.0
 36
1.0
 17
0.0
 27
0.0
 37
0.0
 40
18.0
 41
1.1111111111
 42
50.0
 43
0.0
 44
0.0
 50
0.0
 51
0.0
 71
     0
 72
  2000
 73
     1
 74
     3
 75
     0
 76
     0
 77
     0
 78
     0
281
     0
 65
     1
110
0.0
120
0.0
130
0.0
111
1.0
121
0.0
131
0.0
112
0.0
122
1.0
132
0.0
 79
     0
146
0.0
  0
ENDTAB
  0
TABLE
  2
LTYPE
  5
5
330
0
100
AcDbSymbolTable
 70
     6
  0
LTYPE
  5
14
330
5
100
AcDbSymbolTableRecord
100
AcDbLinetypeTableRecord
  2
ByBlock
 70
     0
  3

 72
    65
 73
     0
 40
0.0
  0
LTYPE
  5
15
330
5
100
AcDbSymbolTableRecord
100
AcDbLinetypeTableRecord
  2
ByLayer
 70
     0
  3

 72
    65
 73
     0
 40
0.0
  0
LTYPE
  5
16
330
5
100
AcDbSymbolTableRecord
100
AcDbLinetypeTableRecord
  2
Continuous
 70
     0
  3
Solid line
 72
    65
 73
     0
 40
0.0
  0
LTYPE
  5
3B
330
5
100
AcDbSymbolTableRecord
100
AcDbLinetypeTableRecord
  2
HIDDEN
 70
     0
  3
Hidden __ __ __ __ __ __ __ __ __ __ __ __ __ __
 72
    65
 73
     2
 40
0.075
 49
0.05
 74
     0
 49
-0.025
 74
     0
  0
LTYPE
  5
3C
330
5
100
AcDbSymbolTableRecord
100
AcDbLinetypeTableRecord
  2
PHANTOM
 70
     0
  3
Phantom ______  __  __  ______  __  __  ______
 72
    65
 73
     6
 40
0.5
 49
0.25
 74
     0
 49
-0.05
 74
     0
 49
0.05
 74
     0
 49
-0.05
 74
     0
 49
0.05
 74
     0
 49
-0.05
 74
     0
  0
LTYPE
  5
3D
330
5
100
AcDbSymbolTableRecord
100
AcDbLinetypeTableRecord
  2
CENTER
 70
     0
  3
Center ____ _ ____ _ ____ _ ____ _ ____ _ ____
 72
    65
 73
     4
 40
0.4
 49
0.25
 74
     0
 49
-0.05
 74
     0
 49
0.05
 74
     0
 49
-0.05
 74
     0
  0
LTYPE
  5
3E
330
5
100
AcDbSymbolTableRecord
100
AcDbLinetypeTableRecord
  2
CENTERX2
 70
     0
  3
Center (2x) ________  __  ________  __  _____
 72
    65
 73
     4
 40
0.8
 49
0.5
 74
     0
 49
-0.1
 74
     0
 49
0.1
 74
     0
 49
-0.1
 74
     0
  0
LTYPE
  5
3F
330
5
100
AcDbSymbolTableRecord
100
AcDbLinetypeTableRecord
  2
DOT2
 70
     0
  3
Dot (.5x) ........................................
 72
    65
 73
     2
 40
0.025
 49
0.0
 74
     0
 49
-0.025
 74
     0
  0
ENDTAB
  0
TABLE
  2
LAYER
  5
2
330
0
100
AcDbSymbolTable
 70
     2
  0
LAYER
  5
10
330
2
100
AcDbSymbolTableRecord
100
AcDbLayerTableRecord
  2
0
 70
     0
 62
     7
  6
Continuous
370
    -3
390
F
  0
LAYER
  5
40
330
2
100
AcDbSymbolTableRecord
100
AcDbLayerTableRecord
  2
FORMAT
 70
     0
 62
     7
  6
Continuous
370
    -3
390
F
  0
ENDTAB
  0
TABLE
  2
STYLE
  5
3
330
0
100
AcDbSymbolTable
 70
     1
  0
STYLE
  5
11
330
3
100
AcDbSymbolTableRecord
100
AcDbTextStyleTableRecord
  2
Standard
 70
     0
 40
0.0
 41
1.0
 50
0.0
 71
     0
 42
0.2
  3
txt
  4

  0
ENDTAB
  0
TABLE
  2
VIEW
  5
6
330
0
100
AcDbSymbolTable
 70
     0
  0
ENDTAB
  0
TABLE
  2
UCS
  5
7
330
0
100
AcDbSymbolTable
 70
     0
  0
ENDTAB
  0
TABLE
  2
APPID
  5
9
330
0
100
AcDbSymbolTable
 70
     1
  0
APPID
  5
12
330
9
100
AcDbSymbolTableRecord
100
AcDbRegAppTableRecord
  2
ACAD
 70
     0
  0
ENDTAB
  0
TABLE
  2
DIMSTYLE
  5
A
330
0
100
AcDbSymbolTable
 70
     1
100
AcDbDimStyleTable
  0
DIMSTYLE
105
27
330
A
100
AcDbSymbolTableRecord
100
AcDbDimStyleTableRecord
  2
Standard
 70
     0
340
11
  0
ENDTAB
  0
TABLE
  2
BLOCK_RECORD
  5
1
330
0
100
AcDbSymbolTable
 70
     1
  0
BLOCK_RECORD
  5
1F
330
1
100
AcDbSymbolTableRecord
100
AcDbBlockTableRecord
  2
*Model_Space
340
22
  0
BLOCK_RECORD
  5
1B
330
1
100
AcDbSymbolTableRecord
100
AcDbBlockTableRecord
  2
*Paper_Space
340
1E
  0
BLOCK_RECORD
  5
23
330
1
100
AcDbSymbolTableRecord
100
AcDbBlockTableRecord
  2
*Paper_Space0
340
26
  0
ENDTAB
  0
ENDSEC
  0
SECTION
  2
BLOCKS
  0
BLOCK
  5
20
330
1F
100
AcDbEntity
  8
0
100
AcDbBlockBegin
  2
*Model_Space
 70
     0
 10
0.0
 20
0.0
 30
0.0
  3
*Model_Space
  1

  0
ENDBLK
  5
21
330
1F
100
AcDbEntity
  8
0
100
AcDbBlockEnd
  0
BLOCK
  5
1C
330
1B
100
AcDbEntity
 67
     1
  8
0
100
AcDbBlockBegin
  2
*Paper_Space
 70
     0
 10
0.0
 20
0.0
 30
0.0
  3
*Paper_Space
  1

  0
ENDBLK
  5
1D
330
1B
100
AcDbEntity
 67
     1
  8
0
100
AcDbBlockEnd
  0
BLOCK
  5
24
330
23
100
AcDbEntity
  8
0
100
AcDbBlockBegin
  2
*Paper_Space0
 70
     0
 10
0.0
 20
0.0
 30
0.0
  3
*Paper_Space0
  1

  0
ENDBLK
  5
25
330
23
100
AcDbEntity
  8
0
100
AcDbBlockEnd
  0
ENDSEC
  0
SECTION
  2
ENTITIES
  0
SPLINE
  5
41
330
1F
100
AcDbEntity
  8
0
  6
Continuous
 62
     7
370
    15
100
AcDbSpline
210
0.0
220
0.0
230
1.0
 70
    11
 71
     3
 72
    38
 73
    34
 74
     0
 42
0.00000001
 43
0.00000001
 40
-0.0821552981852021
 40
0.0
 40
0.0
 40
0.0
 40
0.0353553009309547
 40
0.0498136267338225
 40
0.0658241125003803
 40
0.0952173292075449
 40
0.1251089171700797
 40
0.1355303586175461
 40
0.1497835385410371
 40
0.2139081533322547
 40
0.2532449947245586
 40
0.3055960367388041
 40
0.3446912666092027
 40
0.3696167104528991
 40
0.3964286651254341
 40
0.4263883433537878
 40
0.4580895448263202
 40
0.4916060080846036
 40
0.5238584098774006
 40
0.5489305711390345
 40
0.5731259262905849
 40
0.6041021543798613
 40
0.6393260329529191
 40
0.667878817218758
 40
0.6904670029756442
 40
0.7132929892772814
 40
0.7408322560253218
 40
0.7818801315099336
 40
0.8146340584561799
 40
0.8469590333722136
 40
0.8825168496121292
 40
0.9178447018147978
 40
0.9999999999999999
 40
0.9999999999999999
 40
0.9999999999999999
 40
1.035355300930955
 10
9.309126649610018
 20
2.875679125518206
 30
0.0
 10
9.206429364399389
 20
2.881956185203449
 30
0.0
 10
9.06304581686897
 20
2.893325467247511
 30
0.0
 10
8.858302881053774
 20
2.891407943786773
 30
0.0
 10
8.734605177121868
 20
2.75203391205802
 30
0.0
 10
8.583306320951268
 20
2.586475308634162
 30
0.0
 10
8.456343519467675
 20
2.456459644782563
 30
0.0
 10
8.36336290555271
 20
2.268123713673966
 30
0.0
 10
8.729826900677315
 20
2.281782548520728
 30
0.0
 10
8.99829568692116
 20
2.262204892243325
 30
0.0
 10
9.474764324135629
 20
2.233318660842369
 30
0.0
 10
9.85787990391103
 20
2.221826835045839
 30
0.0
 10
10.17884254479041
 20
2.044146239742976
 30
0.0
 10
10.31091924935747
 20
1.812256073762178
 30
0.0
 10
10.47241044178485
 20
1.613344939211802
 30
0.0
 10
10.75781470281956
 20
1.607044047078955
 30
0.0
 10
11.01979256191574
 20
1.703856584698343
 30
0.0
 10
11.24892386719782
 20
1.908930614652956
 30
0.0
 10
11.27184845083587
 20
2.199003403914276
 30
0.0
 10
11.17700259794242
 20
2.421169709310005
 30
0.0
 10
11.21020460181972
 20
2.673243857785151
 30
0.0
 10
11.42329683884695
 20
2.858066766937351
 30
0.0
 10
11.66129939164478
 20
2.98899331534765
 30
0.0
 10
11.89934585740021
 20
3.113385556389942
 30
0.0
 10
11.92925041713691
 20
3.391361860714737
 30
0.0
 10
11.68028289162703
 20
3.457263792841109
 30
0.0
 10
11.4247917541041
 20
3.444106297087663
 30
0.0
 10
11.1127676636862
 20
3.430535333264573
 30
0.0
 10
10.84704481488896
 20
3.253044697035307
 30
0.0
 10
10.61374389995638
 20
3.074688582846354
 30
0.0
 10
10.35038530264699
 20
2.909936143846938
 30
0.0
 10
9.896206154924618
 20
2.854074172668543
 30
0.0
 10
9.547764869823919
 20
2.861093089009153
 30
0.0
 10
9.309126649610018
 20
2.875679125518206
 30
0.0
  0
SPLINE
  5
42
330
1F
100
AcDbEntity
  8
0
  6
Continuous
 62
     7
370
    15
100
AcDbSpline
210
0.0
220
0.0
230
1.0
 70
    11
 71
     3
 72
    41
 73
    37
 74
     0
 42
0.00000001
 43
0.00000001
 40
-0.013967763574191
 40
0.0
 40
0.0
 40
0.0
 40
0.0718269397472143
 40
0.1371954963895465
 40
0.1842713365721043
 40
0.2287072806849551
 40
0.2405429087506226
 40
0.2466944318973829
 40
0.2586059427923701
 40
0.2749535894985917
 40
0.2865837016270691
 40
0.2945936880718374
 40
0.3041469157925679
 40
0.3740325896351617
 40
0.424982138058177
 40
0.4961718567828798
 40
0.5381375965575729
 40
0.5715538177470237
 40
0.6033969963890771
 40
0.6338719856184297
 40
0.663640454936157
 40
0.6971544932694177
 40
0.7251191667064214
 40
0.7473076751378536
 40
0.7645413421172258
 40
0.790036025774501
 40
0.8175479749933284
 40
0.8356406901308586
 40
0.8611761389718335
 40
0.8795489326322574
 40
0.8989680722858847
 40
0.9227735755492475
 40
0.95425489988855
 40
0.9730608826299028
 40
0.986032236425809
 40
1.0
 40
1.0
 40
1.0
 40
1.071826939747214
 10
11.47767948545498
 20
5.526850030425945
 30
0.0
 10
11.24565478039979
 20
5.326686101667951
 30
0.0
 10
10.89261941378267
 20
5.048476518015365
 30
0.0
 10
10.32160717958786
 20
4.646957695699346
 30
0.0
 10
9.843520521919226
 20
4.311820140291737
 30
0.0
 10
9.538822118638125
 20
4.116018760795447
 30
0.0
 10
9.301740563864115
 20
4.014122831569413
 30
0.0
 10
9.299421456126252
 20
3.882494098968513
 30
0.0
 10
9.44882650665267
 20
3.850255151236794
 30
0.0
 10
9.521400658776917
 20
3.68993608005898
 30
0.0
 10
9.478041657920413
 20
3.573887093142426
 30
0.0
 10
9.508098878650738
 20
3.429106586845084
 30
0.0
 10
9.85244193517553
 20
3.697082042557226
 30
0.0
 10
10.19364472330949
 20
3.866523110154159
 30
0.0
 10
10.82766274198765
 20
4.249044568051552
 30
0.0
 10
11.33221153461162
 20
4.568736977970941
 30
0.0
 10
11.79429603402062
 20
4.851295161094096
 30
0.0
 10
12.17478143810421
 20
4.991505017569042
 30
0.0
 10
12.53101071018361
 20
4.959955222461005
 30
0.0
 10
12.87384818115168
 20
4.963814454584042
 30
0.0
 10
13.20123227189366
 20
5.126090668024789
 30
0.0
 10
13.37284687627278
 20
5.429655875555548
 30
0.0
 10
13.57984548101994
 20
5.646263773485143
 30
0.0
 10
13.62723034566148
 20
5.954140456129347
 30
0.0
 10
13.36004802901961
 20
6.048653399473348
 30
0.0
 10
13.11222811148708
 20
5.982840340599788
 30
0.0
 10
12.85057234362012
 20
5.93471127741649
 30
0.0
 10
12.59252307818572
 20
5.927562343847804
 30
0.0
 10
12.34117674299136
 20
6.000594731782884
 30
0.0
 10
12.27027345689902
 20
6.241612723233005
 30
0.0
 10
12.03593214164604
 20
6.357624397941695
 30
0.0
 10
11.7722599851164
 20
6.218470699737874
 30
0.0
 10
11.56200350172539
 20
6.049439355511391
 30
0.0
 10
11.47179349905457
 20
5.800475567696959
 30
0.0
 10
11.6132645539251
 20
5.644823143631273
 30
0.0
 10
11.52279996859108
 20
5.565774735318183
 30
0.0
 10
11.47767948545498
 20
5.526850030425945
 30
0.0
  0
SPLINE
  5
43
330
1F
100
AcDbEntity
  8
0
  6
Continuous
 62
     7
370
    15
100
AcDbSpline
210
0.0
220
0.0
230
1.0
 70
    11
 71
     3
 72
    16
 73
    12
 74
     0
 42
0.00000001
 43
0.00000001
 40
-0.0529762806980768
 40
0.0
 40
0.0
 40
0.0
 40
0.1375038120014987
 40
0.2952005946300777
 40
0.410999522175722
 40
0.4875497895107485
 40
0.5931441555340219
 40
0.7175200075998753
 40
0.8394805646582436
 40
0.9470237193019232
 40
1.0
 40
1.0
 40
1.0
 40
1.137503812001499
 10
8.822596951950716
 20
3.893382881789816
 30
0.0
 10
8.873034374161582
 20
3.886662510110734
 30
0.0
 10
8.889801969157869
 20
3.706529926312156
 30
0.0
 10
8.900100372247676
 20
3.568462251553085
 30
0.0
 10
8.892695803408142
 20
3.404255220659881
 30
0.0
 10
8.75806126102906
 20
3.341668743674586
 30
0.0
 10
8.656793562806609
 20
3.457892335859515
 30
0.0
 10
8.649590081357566
 20
3.610924745286119
 30
0.0
 10
8.733029238929403
 20
3.732844504310212
 30
0.0
 10
8.725113217280091
 20
3.869102657163284
 30
0.0
 10
8.803164857684841
 20
3.895972048528427
 30
0.0
 10
8.822596951950716
 20
3.893382881789816
 30
0.0
  0
SPLINE
  5
44
330
1F
100
AcDbEntity
  8
0
  6
Continuous
 62
     7
370
    15
100
AcDbSpline
210
0.0
220
0.0
230
1.0
 70
    11
 71
     3
 72
    41
 73
    37
 74
     0
 42
0.00000001
 43
0.00000001
 40
-0.0218146551448329
 40
0.0
 40
0.0
 40
0.0
 40
0.0256128185160629
 40
0.0453704361118707
 40
0.0753389708831998
 40
0.1153643902001427
 40
0.1496693606592788
 40
0.1698139329427379
 40
0.2055849916533056
 40
0.2353447301091723
 40
0.2616965681441286
 40
0.290681268021402
 40
0.3378762671003377
 40
0.3671801988418126
 40
0.3847812372706668
 40
0.3997307862762452
 40
0.4198753585597043
 40
0.4567419528588193
 40
0.4800906734536278
 40
0.5030245197440463
 40
0.5202101526884625
 40
0.5470900467301092
 40
0.5765522973192231
 40
0.6139493351169791
 40
0.6496871750690641
 40
0.6839488402673528
 40
0.7161832265935621
 40
0.7574073348518757
 40
0.7898894816475713
 40
0.8506091318401979
 40
0.8967715060557017
 40
0.9191461191870162
 40
0.934622656722913
 40
0.9520712045392039
 40
0.978185344855167
 40
0.9999999999999999
 40
0.9999999999999999
 40
0.9999999999999999
 40
1.025612818516063
 10
5.646177836871861
 20
2.125709366776065
 30
0.0
 10
5.577031343404916
 20
2.144335245836892
 30
0.0
 10
5.461007414745682
 20
2.189523053512884
 30
0.0
 10
5.249194243284622
 20
2.229926708358378
 30
0.0
 10
5.012879184073655
 20
2.123626258564525
 30
0.0
 10
4.760797713495537
 20
1.980453612893085
 30
0.0
 10
4.494251652815727
 20
1.953360344395833
 30
0.0
 10
4.249366680555948
 20
1.921355898809041
 30
0.0
 10
3.994049420612143
 20
1.919325416857322
 30
0.0
 10
3.801419454305062
 20
2.104266776173239
 30
0.0
 10
3.557685816179687
 20
2.154376505205904
 30
0.0
 10
3.280303017455453
 20
2.053752668206771
 30
0.0
 10
3.070425478892028
 20
1.82952765119097
 30
0.0
 10
2.951038029626322
 20
1.607777181292187
 30
0.0
 10
2.863565632484238
 20
1.439531155387529
 30
0.0
 10
2.971469037537763
 20
1.298438840751852
 30
0.0
 10
3.187171824350885
 20
1.335355934803241
 30
0.0
 10
3.389595822190251
 20
1.233886142973691
 30
0.0
 10
3.609187424337923
 20
1.146117755934562
 30
0.0
 10
3.684545860546849
 20
0.9484912626684877
 30
0.0
 10
3.565208283441075
 20
0.7871876275436654
 30
0.0
 10
3.632776110750197
 20
0.5653572587819734
 30
0.0
 10
3.853014955264548
 20
0.3896490480687333
 30
0.0
 10
4.149998688710456
 20
0.4449972463964183
 30
0.0
 10
4.449285684240587
 20
0.5090382791360814
 30
0.0
 10
4.627612324696527
 20
0.7572113041455542
 30
0.0
 10
4.677624146712404
 20
1.062952849474726
 30
0.0
 10
4.934625703745531
 20
1.24337164713453
 30
0.0
 10
5.223727781342777
 20
1.47399995701045
 30
0.0
 10
5.58660255357527
 20
1.618876255074424
 30
0.0
 10
5.879389068784438
 20
1.846056016910882
 30
0.0
 10
6.135065558223855
 20
1.835320693967517
 30
0.0
 10
6.216750306450522
 20
2.038951517018674
 30
0.0
 10
5.99776366883732
 20
2.056981770853514
 30
0.0
 10
5.840277023026734
 20
2.085962655009062
 30
0.0
 10
5.705070492848398
 20
2.109845547328531
 30
0.0
 10
5.646177836871861
 20
2.125709366776065
 30
0.0
  0
SPLINE
  5
45
330
1F
100
AcDbEntity
  8
0
  6
Continuous
 62
     7
370
    15
100
AcDbSpline
210
0.0
220
0.0
230
1.0
 70
     8
 71
     3
 72
    57
 73
    53
 74
     0
 42
0.00000001
 43
0.00000001
 40
0.0
 40
0.0
 40
0.0
 40
0.0
 40
0.0293437553728854
 40
0.047860707022715
 40
0.069894550609894
 40
0.0857462861379386
 40
0.1103147427169751
 40
0.1361918172702823
 40
0.1564650166613092
 40
0.1878994482562424
 40
0.1964877513423443
 40
0.209696344054759
 40
0.2362344362202396
 40
0.2657681724835246
 40
0.3005931675603588
 40
0.3261620010440558
 40
0.3445940247285932
 40
0.3556206554846816
 40
0.3657680913553291
 40
0.3800100142405166
 40
0.3994091861178335
 40
0.407536702229217
 40
0.4271103530183935
 40
0.453281920987456
 40
0.4776911659751287
 40
0.4923971771905112
 40
0.5117913408911916
 40
0.5294223988009009
 40
0.5406807204480137
 40
0.5558868090740481
 40
0.5726707196096313
 40
0.5928762272237759
 40
0.6038956384173446
 40
0.636620135806739
 40
0.6662539530350154
 40
0.683885010944725
 40
0.6957269880371747
 40
0.7124420875300392
 40
0.7243430516190931
 40
0.7306207973346399
 40
0.744128532196959
 40
0.7529191117133559
 40
0.7789348402468816
 40
0.8019790665765046
 40
0.824098659636322
 40
0.8476698913288934
 40
0.8664809585039056
 40
0.8868395167876308
 40
0.9264216858656771
 40
0.9484683603110998
 40
0.9621791484321305
 40
1.0
 40
1.0
 40
1.0
 40
1.0
 10
8.735310619549242
 20
3.202097857428434
 30
0.0
 10
8.703204330659803
 20
3.18369663161977
 30
0.0
 10
8.57826611887185
 20
3.158152189140636
 30
0.0
 10
8.594010971872075
 20
3.290398893170114
 30
0.0
 10
8.583255509274666
 20
3.385736449311386
 30
0.0
 10
8.476115257593943
 20
3.420425914376081
 30
0.0
 10
8.384205170426323
 20
3.376938355083192
 30
0.0
 10
8.267949413635222
 20
3.312184828254085
 30
0.0
 10
8.310939617105365
 20
3.182412664080535
 30
0.0
 10
8.315532477143533
 20
3.085794444650349
 30
0.0
 10
8.254377589630401
 20
3.013052963882736
 30
0.0
 10
8.168836075602876
 20
3.064295895437535
 30
0.0
 10
8.194506306151293
 20
3.205029248525169
 30
0.0
 10
8.003283069412454
 20
3.197100844334376
 30
0.0
 10
7.88090761518079
 20
3.103519972043927
 30
0.0
 10
7.891036683755898
 20
2.971988629317559
 30
0.0
 10
7.913662272403844
 20
2.885383431625683
 30
0.0
 10
7.873547339480955
 20
2.828175695856719
 30
0.0
 10
7.80426230635005
 20
2.830048901382694
 30
0.0
 10
7.796016354549965
 20
2.912606944801703
 30
0.0
 10
7.774056582970846
 20
2.968114589856054
 30
0.0
 10
7.72785569633123
 20
3.034541523782991
 30
0.0
 10
7.630750961028897
 20
2.991289130011042
 30
0.0
 10
7.534507834128863
 20
2.969666948703245
 30
0.0
 10
7.425974226661499
 20
2.942604047999231
 30
0.0
 10
7.37999531559254
 20
2.855606013706954
 30
0.0
 10
7.383754798810044
 20
2.776859145747602
 30
0.0
 10
7.412174766820121
 20
2.690544372014606
 30
0.0
 10
7.328295822703941
 20
2.651524642526612
 30
0.0
 10
7.289169073931901
 20
2.732403043828016
 30
0.0
 10
7.300736065371614
 20
2.804220592674052
 30
0.0
 10
7.303556660581998
 20
2.901867826735363
 30
0.0
 10
7.19282621741287
 20
2.919010912860177
 30
0.0
 10
7.084582786690662
 20
2.905060196622849
 30
0.0
 10
6.958499139661569
 20
2.866824215424423
 30
0.0
 10
6.89923710385249
 20
2.790035364168422
 30
0.0
 10
6.8846205294263
 20
2.717880169151359
 30
0.0
 10
6.881424751737665
 20
2.657869853356717
 30
0.0
 10
6.901127806980581
 20
2.594785286266885
 30
0.0
 10
6.849985917242254
 20
2.566687936572775
 30
0.0
 10
6.804673011915277
 20
2.602174461505114
 30
0.0
 10
6.790279890681972
 20
2.676056801673314
 30
0.0
 10
6.767851725648391
 20
2.76215236132638
 30
0.0
 10
6.770802555912905
 20
2.882731580105315
 30
0.0
 10
6.658165416340337
 20
2.946108874681661
 30
0.0
 10
6.56044696266215
 20
2.904398586765737
 30
0.0
 10
6.465198808606691
 20
2.897098232881056
 30
0.0
 10
6.337102212557089
 20
2.841883289770047
 30
0.0
 10
6.362571051720534
 20
2.700787454008947
 30
0.0
 10
6.388639909605401
 20
2.549432520796088
 30
0.0
 10
6.23609247897748
 20
2.552157291521552
 30
0.0
 10
6.24672340582246
 20
2.684493566745832
 30
0.0
 10
6.258499977308918
 20
2.726338505545494
 30
0.0
  0
SPLINE
  5
46
330
1F
100
AcDbEntity
  8
0
  6
Continuous
 62
     7
370
    15
100
AcDbSpline
210
0.0
220
0.0
230
1.0
 70
     8
 71
     3
 72
    61
 73
    57
 74
     0
 42
0.00000001
 43
0.00000001
 40
0.0
 40
0.0
 40
0.0
 40
0.0
 40
0.0344117739906782
 40
0.0487312759876436
 40
0.0615751797398776
 40
0.0760051635464371
 40
0.0899505608172582
 40
0.0991654450073735
 40
0.1057633837072433
 40
0.1133594055162995
 40
0.126750164993456
 40
0.1378838299662002
 40
0.1499614429653738
 40
0.1604812600196831
 40
0.1716243935933468
 40
0.1816535469129619
 40
0.2208600503706437
 40
0.2417014081059854
 40
0.2958971383714475
 40
0.3211912744701247
 40
0.3600384841928018
 40
0.3814016341363917
 40
0.4132837579221878
 40
0.4385271702593448
 40
0.459443084537508
 40
0.4755846134673055
 40
0.492553450728671
 40
0.5197612387941299
 40
0.5372386768371749
 40
0.5746218285655905
 40
0.603356902093258
 40
0.6188193032432509
 40
0.6348460485550236
 40
0.6477163269236568
 40
0.6710005163084362
 40
0.6998242044718135
 40
0.7296298610017508
 40
0.736941486304419
 40
0.7502505492916044
 40
0.7637558252647063
 40
0.773518434384669
 40
0.795542731274563
 40
0.8125270051419983
 40
0.8213936532060688
 40
0.8470869336983274
 40
0.8609980756979754
 40
0.8716181416226852
 40
0.8901142722518308
 40
0.9059162059783482
 40
0.9204336174318656
 40
0.9269026724063233
 40
0.9397398942932348
 40
0.9521239363776872
 40
0.9639484070773883
 40
0.9720785442957427
 40
1.0
 40
1.0
 40
1.0
 40
1.0
 10
8.735310619549242
 20
3.202097857428434
 30
0.0
 10
8.851484581352203
 20
3.263878008645271
 30
0.0
 10
8.987232468487955
 20
3.403724971143334
 30
0.0
 10
9.043393165164352
 20
3.64174467349127
 30
0.0
 10
8.989007239980427
 20
3.793974244883488
 30
0.0
 10
8.980042743707713
 20
3.950945347893283
 30
0.0
 10
8.959407506410539
 20
4.091264884479378
 30
0.0
 10
9.024020322812097
 20
4.210119401062792
 30
0.0
 10
9.132795305964786
 20
4.191484316983995
 30
0.0
 10
9.161163188318941
 20
4.076779641080903
 30
0.0
 10
9.149894303385551
 20
3.962517926549406
 30
0.0
 10
9.18085868374606
 20
3.810298348440948
 30
0.0
 10
9.324656962892432
 20
3.768771255307801
 30
0.0
 10
9.352607015892819
 20
3.630113176654292
 30
0.0
 10
9.34597019881496
 20
3.511084818703945
 30
0.0
 10
9.255741927227177
 20
3.293663468839626
 30
0.0
 10
9.010974506166809
 20
3.150491166466991
 30
0.0
 10
8.67219304770542
 20
2.887405372571595
 30
0.0
 10
8.379690879354111
 20
2.626119006980313
 30
0.0
 10
8.16826383746332
 20
2.230214048568059
 30
0.0
 10
7.962832133315267
 20
1.963939198340372
 30
0.0
 10
7.640598839015068
 20
1.811648285937552
 30
0.0
 10
7.348162192813984
 20
1.760059791857067
 30
0.0
 10
7.038042462202896
 20
1.760710428733014
 30
0.0
 10
6.843582690163117
 20
1.911304335261271
 30
0.0
 10
6.641970676538811
 20
1.958008499652319
 30
0.0
 10
6.428623820927665
 20
2.041929807301914
 30
0.0
 10
6.20010515172687
 20
2.095192671284015
 30
0.0
 10
5.896922832925902
 20
2.169483656318484
 30
0.0
 10
5.590270502914962
 20
2.234529301035789
 30
0.0
 10
5.277046311171016
 20
2.307440812514003
 30
0.0
 10
5.107139856128757
 20
2.458794862098133
 30
0.0
 10
4.934991430067269
 20
2.529853500791888
 30
0.0
 10
4.907156457515615
 20
2.744036822430857
 30
0.0
 10
4.932312944400804
 20
2.984200089281581
 30
0.0
 10
4.943599039768054
 20
3.293086595547738
 30
0.0
 10
4.970012030387408
 20
3.555463903267954
 30
0.0
 10
4.881815837767791
 20
3.727458386213975
 30
0.0
 10
4.917546471464743
 20
3.880984293133176
 30
0.0
 10
5.0900753413388
 20
3.909451047596515
 30
0.0
 10
5.217966754579858
 20
3.778180296877106
 30
0.0
 10
5.25164179054568
 20
3.587616813420379
 30
0.0
 10
5.253413640303823
 20
3.407490013808869
 30
0.0
 10
5.263117512128958
 20
3.210985289012701
 30
0.0
 10
5.294745912953483
 20
3.034428509221923
 30
0.0
 10
5.287116006503137
 20
2.829205841673794
 30
0.0
 10
5.415981222213487
 20
2.715846096367681
 30
0.0
 10
5.55404272314184
 20
2.608520263732949
 30
0.0
 10
5.710409716835958
 20
2.551479924826248
 30
0.0
 10
5.905123072156137
 20
2.507763553335302
 30
0.0
 10
5.913474559397027
 20
2.660291599802322
 30
0.0
 10
5.867995951284703
 20
2.754894111909009
 30
0.0
 10
5.808489548095766
 20
2.934205480969946
 30
0.0
 10
5.970043491786851
 20
2.94551289018536
 30
0.0
 10
6.139562263297218
 20
2.968320013838466
 30
0.0
 10
6.292457417552602
 20
2.87547097376592
 30
0.0
 10
6.258499977308918
 20
2.726338505545494
 30
0.0
  0
SPLINE
  5
47
330
1F
100
AcDbEntity
  8
0
  6
Continuous
 62
     7
370
    15
100
AcDbSpline
210
0.0
220
0.0
230
1.0
 70
    11
 71
     3
 72
    18
 73
    14
 74
     0
 42
0.00000001
 43
0.00000001
 40
-0.056873406864934
 40
0.0
 40
0.0
 40
0.0
 40
0.0969331146768272
 40
0.1895132618545827
 40
0.3215323102111464
 40
0.4642916490453436
 40
0.4896111375251782
 40
0.5218389431734219
 40
0.5643224103146306
 40
0.6416401094494244
 40
0.733980514799165
 40
0.943126593135066
 40
1.0
 40
1.0
 40
1.0
 40
1.096933114676827
 10
5.378694773535843
 20
3.658786182136878
 30
0.0
 10
5.398375300315985
 20
3.682708998779583
 30
0.0
 10
5.540409841983059
 20
3.49535309172112
 30
0.0
 10
5.6629428293686
 20
3.351877829934941
 30
0.0
 10
5.678191552657142
 20
3.0730001286253
 30
0.0
 10
5.738079115007662
 20
2.866343886969319
 30
0.0
 10
5.675618399693827
 20
2.729827003934383
 30
0.0
 10
5.593681759612883
 20
2.718006731676465
 30
0.0
 10
5.509785650277577
 20
2.792199218575475
 30
0.0
 10
5.424652706904875
 20
2.914745537379805
 30
0.0
 10
5.386712981962379
 20
3.192253094606875
 30
0.0
 10
5.398425886543196
 20
3.38627234696099
 30
0.0
 10
5.367147650443647
 20
3.644749987294569
 30
0.0
 10
5.378694773535843
 20
3.658786182136878
 30
0.0
  0
SPLINE
  5
48
330
1F
100
AcDbEntity
  8
0
  6
Continuous
 62
     7
370
    15
100
AcDbSpline
210
0.0
220
0.0
230
1.0
 70
    11
 71
     3
 72
    41
 73
    37
 74
     0
 42
0.00000001
 43
0.00000001
 40
-0.0071140843159051
 40
0.0
 40
0.0
 40
0.0
 40
0.0207371757659951
 40
0.0342560159477922
 40
0.2067489042261085
 40
0.2248086548947478
 40
0.2338385302290672
 40
0.270201553530348
 40
0.2916350989340742
 40
0.2997829103407482
 40
0.3080920802118894
 40
0.3658073889176769
 40
0.4260739846378476
 40
0.4742333197542188
 40
0.4985839162879575
 40
0.5420606724450883
 40
0.5751867235333734
 40
0.59622675698542
 40
0.6064798296466736
 40
0.6347194756195025
 40
0.6577941070673088
 40
0.6916662289247771
 40
0.7233879588490474
 40
0.739201974671258
 40
0.7652059829677798
 40
0.7948295512867348
 40
0.8185431656730852
 40
0.836297609981012
 40
0.8625735122390651
 40
0.8864969857107252
 40
0.9124889773669121
 40
0.9301861420179179
 40
0.9503775570938058
 40
0.9681407972627167
 40
0.9928859156840949
 40
1.0
 40
1.0
 40
1.0
 40
1.020737175765995
 10
2.729167108900103
 20
4.533686496301181
 30
0.0
 10
2.725591123795881
 20
4.458681711894671
 30
0.0
 10
2.716200309549045
 20
4.319415899685408
 30
0.0
 10
3.385566567207334
 20
3.926186396909135
 30
0.0
 10
4.009213423100609
 20
3.800594624625098
 30
0.0
 10
4.774046619295281
 20
3.645546774129658
 30
0.0
 10
4.851382645804709
 20
3.421734140126655
 30
0.0
 10
4.805628733732568
 20
3.180723953516082
 30
0.0
 10
4.803946528103212
 20
2.966411960115678
 30
0.0
 10
4.768984264096831
 20
2.811607776149988
 30
0.0
 10
4.4659218722384
 20
2.856078828480038
 30
0.0
 10
4.09070287143422
 20
2.99790003803628
 30
0.0
 10
3.501417552092953
 20
3.126505315463157
 30
0.0
 10
3.093120933763871
 20
3.357958782535343
 30
0.0
 10
2.693508051778211
 20
3.446593810335613
 30
0.0
 10
2.333004729438374
 20
3.45960619052197
 30
0.0
 10
2.001626242435421
 20
3.352081710774793
 30
0.0
 10
1.80460862825921
 20
3.242184851228328
 30
0.0
 10
1.623131965815933
 20
3.135036006844242
 30
0.0
 10
1.3916691146087
 20
3.139069817993839
 30
0.0
 10
1.108204332209156
 20
3.244491892447667
 30
0.0
 10
0.8832602715376656
 20
3.469338914379748
 30
0.0
 10
0.71076989359713
 20
3.702520177980184
 30
0.0
 10
0.6848269291852808
 20
3.98151559053752
 30
0.0
 10
0.9208269251440541
 20
4.149927607941115
 30
0.0
 10
1.190906510951125
 20
4.207663601347685
 30
0.0
 10
1.445616050100288
 20
4.174645394302122
 30
0.0
 10
1.672134232403561
 20
4.245453759945798
 30
0.0
 10
1.890596141212725
 20
4.410616990379344
 30
0.0
 10
1.827342416757025
 20
4.715521761505276
 30
0.0
 10
2.046980266772647
 20
4.870874572001989
 30
0.0
 10
2.244349356219015
 20
4.973251981797419
 30
0.0
 10
2.453291369185949
 20
4.960500989651768
 30
0.0
 10
2.64214379305109
 20
4.839202866477958
 30
0.0
 10
2.734776323641263
 20
4.669747791271212
 30
0.0
 10
2.73039388441818
 20
4.559417597121532
 30
0.0
 10
2.729167108900103
 20
4.533686496301181
 30
0.0
  0
SPLINE
  5
49
330
1F
100
AcDbEntity
  8
0
  6
Continuous
 62
     7
370
    15
100
AcDbSpline
210
0.0
220
0.0
230
1.0
 70
     8
 71
     3
 72
    20
 73
    16
 74
     0
 42
0.00000001
 43
0.00000001
 40
0.0
 40
0.0
 40
0.0
 40
0.0
 40
0.0730793318768168
 40
0.097319445206877
 40
0.1385840667087918
 40
0.1808034038907119
 40
0.24112757189543
 40
0.3246573171950973
 40
0.4016133369744711
 40
0.4884635247332864
 40
0.5276680982436326
 40
0.5331364340223914
 40
0.5599814517754347
 40
0.6700635467350543
 40
0.8277022649234598
 40
0.8277022649234598
 40
0.8277022649234598
 40
0.8277022649234598
 10
4.280683708718873
 20
5.902325757527156
 30
0.0
 10
4.319335884981277
 20
5.830078511246418
 30
0.0
 10
4.360459671599427
 20
5.722190371611729
 30
0.0
 10
4.391467745219511
 20
5.571419967122577
 30
0.0
 10
4.557636611214618
 20
5.473480445111509
 30
0.0
 10
4.56019616419316
 20
5.712906025357938
 30
0.0
 10
4.459738724486395
 20
5.877307967001664
 30
0.0
 10
4.436011715874853
 20
6.139812143762662
 30
0.0
 10
4.300923280730881
 20
6.40481137199641
 30
0.0
 10
4.360592719905684
 20
6.619316176100525
 30
0.0
 10
4.297553684057249
 20
6.804913381140739
 30
0.0
 10
4.37825899252333
 20
6.848259606247765
 30
0.0
 10
4.432355264015505
 20
6.609887533503952
 30
0.0
 10
4.474571954670155
 20
6.364946184747906
 30
0.0
 10
4.579562822566473
 20
6.02884131946639
 30
0.0
 10
4.603395394363482
 20
5.860391129818406
 30
0.0
  0
SPLINE
  5
4A
330
1F
100
AcDbEntity
  8
0
  6
Continuous
 62
     7
370
    15
100
AcDbSpline
210
0.0
220
0.0
230
1.0
 70
     8
 71
     3
 72
    23
 73
    19
 74
     0
 42
0.00000001
 43
0.00000001
 40
0.0483863983203383
 40
0.0483863983203383
 40
0.0483863983203383
 40
0.0483863983203383
 40
0.1599389746049999
 40
0.2157724847326277
 40
0.2691137402976526
 40
0.3091647878947983
 40
0.3428424977371483
 40
0.3732562545124578
 40
0.3985620297892734
 40
0.419538534927797
 40
0.4407175858506151
 40
0.4717336537064087
 40
0.497896556543802
 40
0.5421088996061605
 40
0.5862858225562326
 40
0.6423939253736082
 40
0.7185564150889046
 40
0.778369375863256
 40
0.778369375863256
 40
0.778369375863256
 40
0.778369375863256
 10
7.258556816602508
 20
4.768172340569648
 30
0.0
 10
7.325861460483254
 20
4.645591789643607
 30
0.0
 10
7.488243561776978
 20
4.523157310942561
 30
0.0
 10
7.638227279748001
 20
4.281712537357988
 30
0.0
 10
7.607592807388858
 20
4.089302865201733
 30
0.0
 10
7.508040033185352
 20
3.956472900180499
 30
0.0
 10
7.360986881085453
 20
3.94414097159826
 30
0.0
 10
7.283578449066683
 20
4.026468084659738
 30
0.0
 10
7.211605041761194
 20
4.094743718475112
 30
0.0
 10
7.119351699247566
 20
4.081272093527888
 30
0.0
 10
7.058763081468787
 20
4.013500257837448
 30
0.0
 10
6.99044643977166
 20
3.942937185752359
 30
0.0
 10
6.866991197210591
 20
3.911155080344988
 30
0.0
 10
6.720715590932284
 20
3.925002883419536
 30
0.0
 10
6.58323842186316
 20
4.070021299292174
 30
0.0
 10
6.629835808564276
 20
4.300548314587153
 30
0.0
 10
6.72454759823291
 20
4.512286317015964
 30
0.0
 10
6.83264243830723
 20
4.641985303078729
 30
0.0
 10
6.862172045514156
 20
4.709878142347351
 30
0.0
  0
SPLINE
  5
4B
330
1F
100
AcDbEntity
  8
0
  6
Continuous
 62
     7
370
    15
100
AcDbSpline
210
0.0
220
0.0
230
1.0
 70
     8
 71
     3
 72
    16
 73
    12
 74
     0
 42
0.00000001
 43
0.00000001
 40
0.060502293044794
 40
0.060502293044794
 40
0.060502293044794
 40
0.060502293044794
 40
0.0862273387400811
 40
0.1041093787493169
 40
0.1285434856030332
 40
0.169893865617549
 40
0.207675763874561
 40
0.2658514468809471
 40
0.29870550048172
 40
0.3454338259198975
 40
0.4169919703535817
 40
0.4169919703535817
 40
0.4169919703535817
 40
0.4169919703535817
 10
6.82147397007274
 20
5.921684738325196
 30
0.0
 10
6.743632569927564
 20
5.77704137121409
 30
0.0
 10
6.73509643857005
 20
5.767343628062619
 30
0.0
 10
6.616309374150393
 20
5.674719016852927
 30
0.0
 10
6.461084739964037
 20
5.654392538249209
 30
0.0
 10
6.268919924929309
 20
5.705648225704969
 30
0.0
 10
6.032068330318991
 20
5.800495255620881
 30
0.0
 10
5.808646416534446
 20
5.898315050129319
 30
0.0
 10
5.557860364216278
 20
5.946540140396048
 30
0.0
 10
5.254962680974689
 20
5.957318602718719
 30
0.0
 10
5.109738988891066
 20
5.734368929234331
 30
0.0
 10
5.070962147638442
 20
5.610364297574077
 30
0.0
  0
SPLINE
  5
4C
330
1F
100
AcDbEntity
  8
0
  6
Continuous
 62
     7
370
    15
100
AcDbSpline
210
0.0
220
0.0
230
1.0
 70
     8
 71
     3
 72
     8
 73
     4
 74
     0
 42
0.00000001
 43
0.00000001
 40
0.0
 40
0.0
 40
0.0
 40
0.0
 40
1.0
 40
1.0
 40
1.0
 40
1.0
 10
5.070962147638442
 20
5.610364297574077
 30
0.0
 10
5.039259346158984
 20
5.519847242923549
 30
0.0
 10
5.022767095854593
 20
5.426731452357066
 30
0.0
 10
5.021485396725287
 20
5.331016925874622
 30
0.0
  0
SPLINE
  5
4D
330
1F
100
AcDbEntity
  8
0
  6
Continuous
 62
     7
370
    15
100
AcDbSpline
210
0.0
220
0.0
230
1.0
 70
     8
 71
     3
 72
    14
 73
    10
 74
     0
 42
0.00000001
 43
0.00000001
 40
0.0
 40
0.0
 40
0.0
 40
0.0
 40
0.2023691308097598
 40
0.2924529092579581
 40
0.4640228105186236
 40
0.6736482194346274
 40
0.8029034482156466
 40
0.8559567663212205
 40
1.0
 40
1.0
 40
1.0
 40
1.0
 10
7.338724915197986
 20
5.848242866254867
 30
0.0
 10
7.444548102829662
 20
5.777205278758792
 30
0.0
 10
7.630544924986084
 20
5.57543273310046
 30
0.0
 10
7.96413378038295
 20
5.707587950166823
 30
0.0
 10
8.191497450851035
 20
5.958949818463398
 30
0.0
 10
8.524992754190029
 20
6.119042795887009
 30
0.0
 10
8.824756408491881
 20
6.159079299844294
 30
0.0
 10
9.026171027235355
 20
6.01422558942017
 30
0.0
 10
9.014132692952467
 20
5.836292765991242
 30
0.0
 10
9.018655952390768
 20
5.748315369865934
 30
0.0
  0
SPLINE
  5
4E
330
1F
100
AcDbEntity
  8
0
  6
Continuous
 62
     7
370
    15
100
AcDbSpline
210
0.0
220
0.0
230
1.0
 70
     8
 71
     3
 72
     8
 73
     4
 74
     0
 42
0.00000001
 43
0.00000001
 40
0.0
 40
0.0
 40
0.0
 40
0.0
 40
1.0
 40
1.0
 40
1.0
 40
1.0
 10
6.608987915483867
 20
5.011399076935309
 30
0.0
 10
6.620673805932338
 20
4.941414800973499
 30
0.0
 10
6.573323445114331
 20
4.884834174402357
 30
0.0
 10
6.529477358171719
 20
4.838767530688214
 30
0.0
  0
SPLINE
  5
4F
330
1F
100
AcDbEntity
  8
0
  6
Continuous
 62
     7
370
    15
100
AcDbSpline
210
0.0
220
0.0
230
1.0
 70
     8
 71
     3
 72
     9
 73
     5
 74
     0
 42
0.00000001
 43
0.00000001
 40
0.8931377082389789
 40
0.8931377082389789
 40
0.8931377082389789
 40
0.8931377082389789
 40
0.9558594541349785
 40
1.0
 40
1.0
 40
1.0
 40
1.0
 10
6.608987915483867
 20
5.011399076935309
 30
0.0
 10
6.590611055402511
 20
5.116191474423718
 30
0.0
 10
6.6409370651815
 20
5.357236190566869
 30
0.0
 10
6.738714231254964
 20
5.476448340072627
 30
0.0
 10
6.850467649623053
 20
5.599248138291382
 30
0.0
  0
SPLINE
  5
50
330
1F
100
AcDbEntity
  8
0
  6
Continuous
 62
     7
370
    15
100
AcDbSpline
210
0.0
220
0.0
230
1.0
 70
     8
 71
     3
 72
    12
 73
     8
 74
     0
 42
0.00000001
 43
0.00000001
 40
0.0
 40
0.0
 40
0.0
 40
0.0
 40
0.4274372206859344
 40
0.673633520825157
 40
0.6995058089665855
 40
0.7322329549130651
 40
1.0
 40
1.0
 40
1.0
 40
1.0
 10
6.850467649623053
 20
5.599248138291382
 30
0.0
 10
6.898813123085572
 20
5.679191222342853
 30
0.0
 10
6.829884031566028
 20
5.871791161951748
 30
0.0
 10
6.97126731707665
 20
5.951535941145125
 30
0.0
 10
6.98443957635873
 20
6.037876864675949
 30
0.0
 10
6.891536339956416
 20
6.001452328314734
 30
0.0
 10
6.863044573083208
 20
5.980443008522756
 30
0.0
 10
6.82147397007274
 20
5.921684738325196
 30
0.0
  0
SPLINE
  5
51
330
1F
100
AcDbEntity
  8
0
  6
Continuous
 62
     7
370
    15
100
AcDbSpline
210
0.0
220
0.0
230
1.0
 70
     8
 71
     3
 72
    10
 73
     6
 74
     0
 42
0.00000001
 43
0.00000001
 40
0.840293302933813
 40
0.840293302933813
 40
0.840293302933813
 40
0.840293302933813
 40
0.8926802982383328
 40
0.9142125242716335
 40
0.979568795212868
 40
0.979568795212868
 40
0.979568795212868
 40
0.979568795212868
 10
6.893909606510524
 20
4.924755363986035
 30
0.0
 10
6.876164879275994
 20
5.006486482890757
 30
0.0
 10
6.909670741485913
 20
5.081039907921959
 30
0.0
 10
7.038786167221281
 20
5.232789413991411
 30
0.0
 10
7.148888352980145
 20
5.050325748785916
 30
0.0
 10
7.169264854497453
 20
4.972225386237684
 30
0.0
  0
SPLINE
  5
52
330
1F
100
AcDbEntity
  8
0
  6
Continuous
 62
     7
370
    15
100
AcDbSpline
210
0.0
220
0.0
230
1.0
 70
     8
 71
     3
 72
     8
 73
     4
 74
     0
 42
0.00000001
 43
0.00000001
 40
0.0
 40
0.0
 40
0.0
 40
0.0
 40
1.0
 40
1.0
 40
1.0
 40
1.0
 10
6.893909606510524
 20
4.924755363986035
 30
0.0
 10
6.909785757269664
 20
4.852505421747929
 30
0.0
 10
6.897114915773408
 20
4.774754974783095
 30
0.0
 10
6.862172045514156
 20
4.709878142347351
 30
0.0
  0
SPLINE
  5
53
330
1F
100
AcDbEntity
  8
0
  6
Continuous
 62
     7
370
    15
100
AcDbSpline
210
0.0
220
0.0
230
1.0
 70
     8
 71
     3
 72
    11
 73
     7
 74
     0
 42
0.00000001
 43
0.00000001
 40
0.6185459296266568
 40
0.6185459296266568
 40
0.6185459296266568
 40
0.6185459296266568
 40
0.7089759577369659
 40
0.7907471399649371
 40
0.8806675908591255
 40
0.9964352126616199
 40
0.9964352126616199
 40
0.9964352126616199
 40
0.9964352126616199
 10
7.534110120697831
 20
4.967261393349676
 30
0.0
 10
7.68558653604531
 20
4.878910477134717
 30
0.0
 10
7.974910723959225
 20
4.756865781399312
 30
0.0
 10
8.477545118607056
 20
4.713922543954131
 30
0.0
 10
8.968951918212657
 20
5.038476590938344
 30
0.0
 10
9.03142754935564
 20
5.434181956402009
 30
0.0
 10
9.018655952390768
 20
5.748315369865934
 30
0.0
  0
SPLINE
  5
54
330
1F
100
AcDbEntity
  8
0
  6
Continuous
 62
     7
370
    15
100
AcDbSpline
210
0.0
220
0.0
230
1.0
 70
     8
 71
     3
 72
    21
 73
    17
 74
     0
 42
0.00000001
 43
0.00000001
 40
0.074115839121981
 40
0.074115839121981
 40
0.074115839121981
 40
0.074115839121981
 40
0.1831368537168094
 40
0.2598188461207164
 40
0.2972813387845602
 40
0.3156236096331262
 40
0.3347985848051335
 40
0.3841546886116683
 40
0.4734575799416466
 40
0.5467486186282774
 40
0.5742979651011209
 40
0.5863961280799409
 40
0.603767262652831
 40
0.6577702600062987
 40
0.7719505058865589
 40
1.0
 40
1.0
 40
1.0
 40
1.0
 10
9.17388572116002
 20
6.180093736663407
 30
0.0
 10
9.113066841586889
 20
6.348933264538092
 30
0.0
 10
9.184570220556816
 20
6.654897254221021
 30
0.0
 10
9.054317132522293
 20
6.999217932824304
 30
0.0
 10
8.964397810219484
 20
7.189091927555763
 30
0.0
 10
9.049616308136654
 20
7.342428292020331
 30
0.0
 10
9.138237515237355
 20
7.166348879909346
 30
0.0
 10
9.223825093102464
 20
6.974733060610617
 30
0.0
 10
9.328614494271537
 20
6.616908990229478
 30
0.0
 10
9.316386566565079
 20
6.331316787753468
 30
0.0
 10
9.299967950602644
 20
6.127339411033744
 30
0.0
 10
9.40848646728654
 20
6.076166672457235
 30
0.0
 10
9.445213297930877
 20
6.250524544536984
 30
0.0
 10
9.450125815495158
 20
6.509305280449749
 30
0.0
 10
9.389706120894829
 20
7.173138183878747
 30
0.0
 10
9.411396281553865
 20
7.713873089157689
 30
0.0
 10
9.198308972730665
 20
8.042558116219341
 30
0.0
  0
SPLINE
  5
55
330
1F
100
AcDbEntity
  8
0
  6
Continuous
 62
     7
370
    15
100
AcDbSpline
210
0.0
220
0.0
230
1.0
 70
     8
 71
     3
 72
     9
 73
     5
 74
     0
 42
0.00000001
 43
0.00000001
 40
0.0
 40
0.0
 40
0.0
 40
0.0
 40
0.7305325888969211
 40
1.0
 40
1.0
 40
1.0
 40
1.0
 10
9.17388572116002
 20
6.180093736663407
 30
0.0
 10
9.204742463233234
 20
6.07473806411999
 30
0.0
 10
9.180724241294659
 20
5.908522550973516
 30
0.0
 10
9.259017755830513
 20
5.772955677245736
 30
0.0
 10
9.274749139904197
 20
5.73517959849188
 30
0.0
  0
SPLINE
  5
56
330
1F
100
AcDbEntity
  8
0
  6
Continuous
 62
     7
370
    15
100
AcDbSpline
210
0.0
220
0.0
230
1.0
 70
     8
 71
     3
 72
     9
 73
     5
 74
     0
 42
0.00000001
 43
0.00000001
 40
0.2689906995582749
 40
0.2689906995582749
 40
0.2689906995582749
 40
0.2689906995582749
 40
0.4639604977314815
 40
1.0
 40
1.0
 40
1.0
 40
1.0
 10
7.215698810910419
 20
5.886064345944235
 30
0.0
 10
7.191289511468029
 20
5.887526038427087
 30
0.0
 10
7.199577606368365
 20
5.780449973617387
 30
0.0
 10
7.244059099761015
 20
5.722123528248997
 30
0.0
 10
7.260028744199228
 20
5.655724711296962
 30
0.0
  0
SPLINE
  5
57
330
1F
100
AcDbEntity
  8
0
  6
Continuous
 62
     7
370
    15
100
AcDbSpline
210
0.0
220
0.0
230
1.0
 70
     8
 71
     3
 72
    26
 73
    22
 74
     0
 42
0.00000001
 43
0.00000001
 40
0.0
 40
0.0
 40
0.0
 40
0.0
 40
0.1473756020587305
 40
0.1999975998462633
 40
0.2481174431581358
 40
0.3251349977448126
 40
0.398760592138386
 40
0.4660831548650246
 40
0.5369584164912967
 40
0.5768375705448369
 40
0.6355609891322097
 40
0.6665659087363427
 40
0.7071108977600573
 40
0.7287384056256963
 40
0.7665668294580426
 40
0.7867116219462466
 40
0.8044917758292287
 40
0.8329107934772041
 40
0.9001136255804689
 40
0.934143514594861
 40
1.0
 40
1.0
 40
1.0
 40
1.0
 10
9.802956572566936
 20
5.019058921767526
 30
0.0
 10
9.73348647746575
 20
4.876399379266656
 30
0.0
 10
9.67900607119536
 20
4.67252224831038
 30
0.0
 10
9.55622015577915
 20
4.432029185783487
 30
0.0
 10
9.389123522080476
 20
4.324117527847945
 30
0.0
 10
9.171322522598846
 20
4.324291879582256
 30
0.0
 10
8.94317974337367
 20
4.298153377645436
 30
0.0
 10
8.717927219356643
 20
4.239174004998405
 30
0.0
 10
8.590679131850147
 20
4.076983316952031
 30
0.0
 10
8.557121991781447
 20
3.898515110162541
 30
0.0
 10
8.616396393554053
 20
3.747224447093843
 30
0.0
 10
8.515364379134583
 20
3.643477417321684
 30
0.0
 10
8.442315716279461
 20
3.558670979323765
 30
0.0
 10
8.316074652431748
 20
3.604627469270181
 30
0.0
 10
8.358583508489003
 20
3.70351324756413
 30
0.0
 10
8.36937144221842
 20
3.793042710340583
 30
0.0
 10
8.276630472341681
 20
3.823883751157581
 30
0.0
 10
8.247648956229925
 20
3.664413547519268
 30
0.0
 10
8.27352703469889
 20
3.553464693716659
 30
0.0
 10
8.265387928934663
 20
3.35013852445365
 30
0.0
 10
8.113783803007385
 20
3.3409817387994
 30
0.0
 10
8.058267491309342
 20
3.317327173599647
 30
0.0
  0
SPLINE
  5
58
330
1F
100
AcDbEntity
  8
0
  6
Continuous
 62
     7
370
    15
100
AcDbSpline
210
0.0
220
0.0
230
1.0
 70
     8
 71
     3
 72
    47
 73
    43
 74
     0
 42
0.00000001
 43
0.00000001
 40
0.0
 40
0.0
 40
0.0
 40
0.0
 40
0.0686540043209434
 40
0.0879245715032939
 40
0.1068068990717425
 40
0.1343489599157183
 40
0.1690744525273982
 40
0.178323061636525
 40
0.192093165555429
 40
0.2233198016781593
 40
0.2532434369562925
 40
0.2763581914635279
 40
0.3254173834006671
 40
0.3456242602380493
 40
0.3748887581131401
 40
0.4096502792587489
 40
0.4240941800268448
 40
0.4487594429620095
 40
0.4825594052582406
 40
0.5183111832780928
 40
0.5346142464017456
 40
0.5605208229539499
 40
0.5738638543318153
 40
0.5885112601109903
 40
0.6337393550460317
 40
0.6575953595310327
 40
0.6652464717053069
 40
0.6724564793092098
 40
0.7009552874732138
 40
0.7302767617913919
 40
0.7458886214336053
 40
0.7783435236030337
 40
0.8073754048436679
 40
0.8317841816011031
 40
0.8421640130579325
 40
0.8846816167573268
 40
0.9034586877558508
 40
0.9141217697128756
 40
0.9256225981525451
 40
0.9438985566036671
 40
0.9661471695732996
 40
1.0
 40
1.0
 40
1.0
 40
1.0
 10
5.809603545326479
 20
3.4019124299276
 30
0.0
 10
5.826996154722727
 20
3.352277216030664
 30
0.0
 10
5.793516777525529
 20
3.012487222512112
 30
0.0
 10
6.009382101237694
 20
3.055175006101627
 30
0.0
 10
6.121081279579227
 20
3.113618460155517
 30
0.0
 10
6.121690365375414
 20
3.274969782009845
 30
0.0
 10
6.043074698889113
 20
3.42673682242549
 30
0.0
 10
6.165225943396074
 20
3.483865983088161
 30
0.0
 10
6.198451475254284
 20
3.356647501855746
 30
0.0
 10
6.188201218116779
 20
3.244420475753538
 30
0.0
 10
6.19768808459814
 20
3.066702428227395
 30
0.0
 10
6.37893802551278
 20
2.987765637914253
 30
0.0
 10
6.569798002086428
 20
2.983965162735799
 30
0.0
 10
6.686451871074308
 20
3.136229346306213
 30
0.0
 10
6.681653871083252
 20
3.286654520009857
 30
0.0
 10
6.623902287702159
 20
3.457340448014412
 30
0.0
 10
6.791530239687444
 20
3.521561437847207
 30
0.0
 10
6.798367911389292
 20
3.331453438250311
 30
0.0
 10
6.763154867592434
 20
3.18194702840684
 30
0.0
 10
6.881401330675742
 20
3.03713024852743
 30
0.0
 10
7.024667864541622
 20
3.012242933459674
 30
0.0
 10
7.116034534434842
 20
3.041559336984136
 30
0.0
 10
7.227395398203043
 20
3.053129756459245
 30
0.0
 10
7.237560785362307
 20
3.209070873639075
 30
0.0
 10
7.234431303285101
 20
3.329905492279576
 30
0.0
 10
7.216322538924659
 20
3.505102598471261
 30
0.0
 10
7.29942347342885
 20
3.527673703863603
 30
0.0
 10
7.346274104306585
 20
3.45232195304149
 30
0.0
 10
7.335728474560979
 20
3.333863019551575
 30
0.0
 10
7.338787518519607
 20
3.205002069867387
 30
0.0
 10
7.389319273267728
 20
3.059194925340188
 30
0.0
 10
7.564904711818035
 20
3.082606477758013
 30
0.0
 10
7.70021168829439
 20
3.101909017485266
 30
0.0
 10
7.825324026907199
 20
3.172379235179914
 30
0.0
 10
7.804671501413172
 20
3.318558424518291
 30
0.0
 10
7.835503223452159
 20
3.43988110497367
 30
0.0
 10
7.814796032225336
 20
3.577941333238686
 30
0.0
 10
7.869604229486368
 20
3.637108827153461
 30
0.0
 10
7.96615631560316
 20
3.627744217667943
 30
0.0
 10
7.920951216183047
 20
3.505426878594856
 30
0.0
 10
7.934345933676582
 20
3.38910580534468
 30
0.0
 10
7.965171318314135
 20
3.262605369139839
 30
0.0
 10
8.058267491309342
 20
3.317327173599647
 30
0.0
  0
SPLINE
  5
59
330
1F
100
AcDbEntity
  8
0
  6
Continuous
 62
     7
370
    15
100
AcDbSpline
210
0.0
220
0.0
230
1.0
 70
     8
 71
     3
 72
    15
 73
    11
 74
     0
 42
0.00000001
 43
0.00000001
 40
0.1435359246474889
 40
0.1435359246474889
 40
0.1435359246474889
 40
0.1435359246474889
 40
0.2735277250683329
 40
0.3657352572058801
 40
0.5053396177559606
 40
0.5966110678173253
 40
0.7188460342266991
 40
0.8196767900663353
 40
0.9024675324645974
 40
1.0
 40
1.0
 40
1.0
 40
1.0
 10
4.550180008725178
 20
5.334717238181033
 30
0.0
 10
4.450372439408198
 20
5.225255450037788
 30
0.0
 10
4.222171192013146
 20
5.054030289395666
 30
0.0
 10
4.161881917906991
 20
4.608553009151387
 30
0.0
 10
4.32474181478254
 20
4.229958610292841
 30
0.0
 10
4.713490644857372
 20
4.016464972215736
 30
0.0
 10
5.097628167316411
 20
4.111000721451895
 30
0.0
 10
5.432538277865126
 20
3.931361623068677
 30
0.0
 10
5.665731080763479
 20
3.697653327629765
 30
0.0
 10
5.780538133606953
 20
3.513660999486531
 30
0.0
 10
5.809603545326479
 20
3.4019124299276
 30
0.0
  0
ARC
  5
5A
330
1F
100
AcDbEntity
  8
0
  6
Continuous
 62
     7
370
    15
100
AcDbCircle
 10
3.9093612498
 20
5.6651195636
 30
0.0
 40
0.7209815381995595
100
AcDbArc
 50
332.7246384722
 51
15.7143343329
  0
LINE
  5
5B
330
1F
100
AcDbEntity
  8
0
  6
Continuous
 62
     7
370
    15
100
AcDbLine
 10
7.2600287442
 20
5.6557247113
 30
0.0
 11
7.3932077863
 21
5.3890639496
 31
0.0
  0
SPLINE
  5
5C
330
1F
100
AcDbEntity
  8
0
  6
Continuous
 62
     7
370
    15
100
AcDbSpline
210
0.0
220
0.0
230
1.0
 70
     8
 71
     3
 72
     9
 73
     5
 74
     0
 42
0.00000001
 43
0.00000001
 40
0.0
 40
0.0
 40
0.0
 40
0.0
 40
0.3902129551428913
 40
1.0
 40
1.0
 40
1.0
 40
1.0
 10
7.534110120697831
 20
4.967261393349676
 30
0.0
 10
7.487310556750719
 20
5.003464177915524
 30
0.0
 10
7.396193931201022
 20
5.141620439333073
 30
0.0
 10
7.445781021306367
 20
5.305266182179791
 30
0.0
 10
7.393207786312294
 20
5.389063949586786
 30
0.0
  0
ARC
  5
5D
330
1F
100
AcDbEntity
  8
0
  6
Continuous
 62
     7
370
    15
100
AcDbCircle
 10
7.2274462339
 20
5.7052754476
 30
0.0
 40
0.1811701623265369
100
AcDbArc
 50
52.104596112
 51
93.7177772483
  0
SPLINE
  5
5E
330
1F
100
AcDbEntity
  8
0
  6
Continuous
 62
     7
370
    15
100
AcDbSpline
210
0.0
220
0.0
230
1.0
 70
     8
 71
     3
 72
    14
 73
    10
 74
     0
 42
0.00000001
 43
0.00000001
 40
0.4677327798282663
 40
0.4677327798282663
 40
0.4677327798282663
 40
0.4677327798282663
 40
0.5331617988676931
 40
0.5649985247860008
 40
0.606474920934234
 40
0.653928533662016
 40
0.720834164386678
 40
0.776800242457715
 40
0.8587656554908815
 40
0.8587656554908815
 40
0.8587656554908815
 40
0.8587656554908815
 10
5.021485396725283
 20
5.331016925874623
 30
0.0
 10
5.009680875132038
 20
5.209200887837788
 30
0.0
 10
4.955491056064789
 20
5.032303629643952
 30
0.0
 10
5.019804310347792
 20
4.763679229926223
 30
0.0
 10
5.230395154497979
 20
4.639700451962572
 30
0.0
 10
5.512597394084064
 20
4.577864562987108
 30
0.0
 10
5.826078934780441
 20
4.523624032408913
 30
0.0
 10
6.221757418567546
 20
4.532634898009973
 30
0.0
 10
6.432982415488101
 20
4.713294911068886
 30
0.0
 10
6.529477358171719
 20
4.838767530688214
 30
0.0
  0
SPLINE
  5
5F
330
1F
100
AcDbEntity
  8
0
  6
Continuous
 62
     7
370
    15
100
AcDbSpline
210
0.0
220
0.0
230
1.0
 70
     8
 71
     3
 72
     8
 73
     4
 74
     0
 42
0.00000001
 43
0.00000001
 40
0.0
 40
0.0
 40
0.0
 40
0.0
 40
1.0
 40
1.0
 40
1.0
 40
1.0
 10
7.169264854497453
 20
4.972225386237684
 30
0.0
 10
7.187210842814811
 20
4.900199822732547
 30
0.0
 10
7.21353047537275
 20
4.828036339095712
 30
0.0
 10
7.258556816602508
 20
4.768172340569648
 30
0.0
  0
SPLINE
  5
60
330
1F
100
AcDbEntity
  8
0
  6
Continuous
 62
     7
370
    15
100
AcDbSpline
210
0.0
220
0.0
230
1.0
 70
     8
 71
     3
 72
    18
 73
    14
 74
     0
 42
0.00000001
 43
0.00000001
 40
0.0
 40
0.0
 40
0.0
 40
0.0
 40
0.1752957332148279
 40
0.3078345410608767
 40
0.4657621792814371
 40
0.527116141687719
 40
0.598158758641754
 40
0.6497734411699156
 40
0.7040964898071114
 40
0.7631651718634949
 40
0.8642115412436021
 40
0.9117349277959719
 40
1.0
 40
1.0
 40
1.0
 40
1.0
 10
9.198308972730665
 20
8.042558116219341
 30
0.0
 10
8.99342901243458
 20
8.493543766090157
 30
0.0
 10
8.217568916880964
 20
8.94943950795859
 30
0.0
 10
6.950292470484396
 20
9.096565006296835
 30
0.0
 10
5.999630136020225
 20
9.059020918734657
 30
0.0
 10
5.198359015362661
 20
8.930239081356143
 30
0.0
 10
4.830280381249207
 20
8.53813505969789
 30
0.0
 10
4.337805414559515
 20
8.48545017631061
 30
0.0
 10
3.948931889607879
 20
8.194906436549509
 30
0.0
 10
3.817245682428743
 20
7.607176669262032
 30
0.0
 10
3.734323756759527
 20
7.035875904883297
 30
0.0
 10
3.953105666407275
 20
6.417011800520504
 30
0.0
 10
4.169295370974496
 20
6.115522808873813
 30
0.0
 10
4.280683708718873
 20
5.902325757527156
 30
0.0
  0
SPLINE
  5
61
330
1F
100
AcDbEntity
  8
0
  6
Continuous
 62
     7
370
    15
100
AcDbSpline
210
0.0
220
0.0
230
1.0
 70
     8
 71
     3
 72
    12
 73
     8
 74
     0
 42
0.00000001
 43
0.00000001
 40
0.2314543210147445
 40
0.2314543210147445
 40
0.2314543210147445
 40
0.2314543210147445
 40
0.3707021767852581
 40
0.5283613821914548
 40
0.6546758088716347
 40
0.7529999938135341
 40
1.0
 40
1.0
 40
1.0
 40
1.0
 10
9.274749139904197
 20
5.73517959849188
 30
0.0
 10
9.292389443973963
 20
5.672273517087752
 30
0.0
 10
9.406654188853935
 20
5.602087243582091
 30
0.0
 10
9.557960932193138
 20
5.496717588911345
 30
0.0
 10
9.707455469599033
 20
5.427691514701509
 30
0.0
 10
9.890239315393702
 20
5.306195991481318
 30
0.0
 10
9.832517613100427
 20
5.096628317936055
 30
0.0
 10
9.802956572566936
 20
5.019058921767526
 30
0.0
  0
ENDSEC
  0
SECTION
  2
OBJECTS
  0
DICTIONARY
  5
C
330
0
100
AcDbDictionary
281
     1
  3
ACAD_GROUP
350
D
  3
ACAD_LAYOUT
350
1A
  3
ACAD_MLEADERSTYLE
350
63
  3
ACAD_MLINESTYLE
350
17
  3
ACAD_PLOTSETTINGS
350
19
  3
ACAD_PLOTSTYLENAME
350
E
  3
ACAD_TABLESTYLE
350
62
  3
ACAD_VISUALSTYLE
350
2A
  0
DICTIONARY
  5
D
102
{ACAD_REACTORS
330
C
102
}
330
C
100
AcDbDictionary
281
     1
  0
DICTIONARY
  5
1A
102
{ACAD_REACTORS
330
C
102
}
330
C
100
AcDbDictionary
281
     1
  3
Layout1
350
1E
  3
Layout2
350
26
  3
Model
350
22
  0
DICTIONARY
  5
63
102
{ACAD_REACTORS
330
C
102
}
330
C
100
AcDbDictionary
281
     1
  0
DICTIONARY
  5
17
102
{ACAD_REACTORS
330
C
102
}
330
C
100
AcDbDictionary
281
     1
  3
Standard
350
18
  0
DICTIONARY
  5
19
102
{ACAD_REACTORS
330
C
102
}
330
C
100
AcDbDictionary
281
     1
  0
ACDBDICTIONARYWDFLT
  5
E
102
{ACAD_REACTORS
330
C
102
}
330
C
100
AcDbDictionary
281
     1
  3
Normal
350
F
100
AcDbDictionaryWithDefault
340
F
  0
DICTIONARY
  5
62
102
{ACAD_REACTORS
330
C
102
}
330
C
100
AcDbDictionary
281
     1
  0
DICTIONARY
  5
2A
102
{ACAD_REACTORS
330
C
102
}
330
C
100
AcDbDictionary
281
     1
  3
2dWireframe
350
2F
  3
3D Hidden
350
31
  3
3dWireframe
350
30
  3
Basic
350
32
  3
Brighten
350
36
  3
ColorChange
350
3A
  3
Conceptual
350
34
  3
Dim
350
35
  3
Facepattern
350
39
  3
Flat
350
2B
  3
FlatWithEdges
350
2C
  3
Gouraud
350
2D
  3
GouraudWithEdges
350
2E
  3
Linepattern
350
38
  3
Realistic
350
33
  3
Thicken
350
37
  0
LAYOUT
  5
1E
102
{ACAD_REACTORS
330
1A
102
}
330
1A
100
AcDbPlotSettings
  1

  2
none_device
  4

  6

 40
0.0
 41
0.0
 42
0.0
 43
0.0
 44
0.0
 45
0.0
 46
0.0
 47
0.0
 48
0.0
 49
0.0
140
0.0
141
0.0
142
1.0
143
1.0
 70
   688
 72
     0
 73
     0
 74
     5
  7

 75
    16
147
1.0
148
0.0
149
0.0
100
AcDbLayout
  1
Layout1
 70
     1
 71
     1
 10
0.0
 20
0.0
 11
12.0
 21
9.0
 12
0.0
 22
0.0
 32
0.0
 14
1.0000000000E 20
 24
1.0000000000E 20
 34
1.0000000000E 20
 15
-1.0000000000E 20
 25
-1.0000000000E 20
 35
-1.0000000000E 20
146
0.0
 13
0.0
 23
0.0
 33
0.0
 16
1.0
 26
0.0
 36
0.0
 17
0.0
 27
1.0
 37
0.0
 76
     0
330
1B
  0
LAYOUT
  5
26
102
{ACAD_REACTORS
330
1A
102
}
330
1A
100
AcDbPlotSettings
  1

  2
none_device
  4

  6

 40
0.0
 41
0.0
 42
0.0
 43
0.0
 44
0.0
 45
0.0
 46
0.0
 47
0.0
 48
0.0
 49
0.0
140
0.0
141
0.0
142
1.0
143
1.0
 70
   688
 72
     0
 73
     0
 74
     5
  7

 75
    16
147
1.0
148
0.0
149
0.0
100
AcDbLayout
  1
Layout2
 70
     1
 71
     2
 10
0.0
 20
0.0
 11
0.0
 21
0.0
 12
0.0
 22
0.0
 32
0.0
 14
0.0
 24
0.0
 34
0.0
 15
0.0
 25
0.0
 35
0.0
146
0.0
 13
0.0
 23
0.0
 33
0.0
 16
1.0
 26
0.0
 36
0.0
 17
0.0
 27
1.0
 37
0.0
 76
     0
330
23
  0
LAYOUT
  5
22
102
{ACAD_REACTORS
330
1A
102
}
330
1A
100
AcDbPlotSettings
  1

  2
none_device
  4

  6

 40
0.0
 41
0.0
 42
0.0
 43
0.0
 44
0.0
 45
0.0
 46
0.0
 47
0.0
 48
0.0
 49
0.0
140
0.0
141
0.0
142
1.0
143
1.0
 70
  1712
 72
     0
 73
     0
 74
     0
  7

 75
     0
147
1.0
148
0.0
149
0.0
100
AcDbLayout
  1
Model
 70
     1
 71
     0
 10
0.0
 20
0.0
 11
20.0
 21
18.0
 12
0.0
 22
0.0
 32
0.0
 14
0.0
 24
0.0
 34
0.0
 15
20.0
 25
18.0
 35
0.0
146
0.0
 13
0.0
 23
0.0
 33
0.0
 16
1.0
 26
0.0
 36
0.0
 17
0.0
 27
1.0
 37
0.0
 76
     0
330
1F
331
29
  0
MLINESTYLE
  5
18
102
{ACAD_REACTORS
330
17
102
}
330
17
100
AcDbMlineStyle
  2
Standard
 70
     0
  3

 62
   256
 51
90.0
 52
90.0
 71
     2
 49
0.5
 62
   256
  6
BYLAYER
 49
-0.5
 62
   256
  6
BYLAYER
  0
ACDBPLACEHOLDER
  5
F
102
{ACAD_REACTORS
330
E
102
}
330
E
  0
VISUALSTYLE
  5
2F
102
{ACAD_REACTORS
330
2A
102
}
330
2A
100
AcDbVisualStyle
  2
2dWireframe
 70
     4
 71
     0
 72
     2
 73
     0
 90
        0
 40
-0.6
 41
-30.0
 62
     5
 63
     7
 74
     1
 91
        4
 64
     7
 65
   257
 75
     1
175
     1
 42
1.0
 92
        0
 66
   257
 43
1.0
 76
     1
 77
     6
 78
     2
 67
     7
 79
     5
170
     0
171
     0
290
     0
174
     0
 93
        1
 44
0.0
173
     0
291
     0
 45
0.0
1001
ACAD
1000
AcDbSavedByObjectVersion
1070
     0
  0
VISUALSTYLE
  5
31
102
{ACAD_REACTORS
330
2A
102
}
330
2A
100
AcDbVisualStyle
  2
3D Hidden
 70
     6
 71
     1
 72
     2
 73
     2
 90
        0
 40
-0.6
 41
-30.0
 62
     5
 63
     7
 74
     2
 91
        2
 64
     7
 65
   257
 75
     2
175
     1
 42
40.0
 92
        0
 66
   257
 43
1.0
 76
     1
 77
     6
 78
     2
 67
     7
 79
     3
170
     0
171
     0
290
     0
174
     0
 93
        1
 44
0.0
173
     0
291
     0
 45
0.0
1001
ACAD
1000
AcDbSavedByObjectVersion
1070
     0
  0
VISUALSTYLE
  5
30
102
{ACAD_REACTORS
330
2A
102
}
330
2A
100
AcDbVisualStyle
  2
3dWireframe
 70
     5
 71
     0
 72
     2
 73
     0
 90
        0
 40
-0.6
 41
-30.0
 62
     5
 63
     7
 74
     1
 91
        4
 64
     7
 65
   257
 75
     1
175
     1
 42
1.0
 92
        0
 66
   257
 43
1.0
 76
     1
 77
     6
 78
     2
 67
     7
 79
     5
170
     0
171
     0
290
     0
174
     0
 93
        1
 44
0.0
173
     0
291
     0
 45
0.0
1001
ACAD
1000
AcDbSavedByObjectVersion
1070
     0
  0
VISUALSTYLE
  5
32
102
{ACAD_REACTORS
330
2A
102
}
330
2A
100
AcDbVisualStyle
  2
Basic
 70
     7
 71
     1
 72
     0
 73
     1
 90
        0
 40
-0.6
 41
-30.0
 62
     5
 63
     7
 74
     0
 91
        4
 64
     7
 65
   257
 75
     1
175
     1
 42
1.0
 92
        8
 66
     7
 43
1.0
 76
     1
 77
     6
 78
     2
 67
     7
 79
     5
170
     0
171
     0
290
     0
174
     0
 93
        1
 44
0.0
173
     0
291
     1
 45
0.0
1001
ACAD
1000
AcDbSavedByObjectVersion
1070
     0
  0
VISUALSTYLE
  5
36
102
{ACAD_REACTORS
330
2A
102
}
330
2A
100
AcDbVisualStyle
  2
Brighten
 70
    12
 71
     2
 72
     2
 73
     0
 90
        0
 40
-0.6
 41
-30.0
 62
     5
 63
     7
 74
     1
 91
        4
 64
     7
 65
   257
 75
     1
175
     1
 42
1.0
 92
        8
 66
     7
 43
1.0
 76
     1
 77
     6
 78
     2
 67
     7
 79
     5
170
     0
171
     0
290
     0
174
     0
 93
        1
 44
50.0
173
     0
291
     1
 45
0.0
1001
ACAD
1000
AcDbSavedByObjectVersion
1070
     0
  0
VISUALSTYLE
  5
3A
102
{ACAD_REACTORS
330
2A
102
}
330
2A
100
AcDbVisualStyle
  2
ColorChange
 70
    16
 71
     2
 72
     2
 73
     3
 90
        0
 40
-0.6
 41
-30.0
 62
     5
 63
     8
 74
     1
 91
        4
 64
     7
 65
   257
 75
     1
175
     1
 42
1.0
 92
        8
 66
     8
 43
1.0
 76
     1
 77
     6
 78
     2
 67
     7
 79
     5
170
     0
171
     0
290
     0
174
     0
 93
        1
 44
0.0
173
     0
291
     1
 45
0.0
1001
ACAD
1000
AcDbSavedByObjectVersion
1070
     0
  0
VISUALSTYLE
  5
34
102
{ACAD_REACTORS
330
2A
102
}
330
2A
100
AcDbVisualStyle
  2
Conceptual
 70
     9
 71
     3
 72
     2
 73
     0
 90
        0
 40
-0.6
 41
-30.0
 62
     5
 63
     7
 74
     2
 91
        2
 64
     7
 65
   257
 75
     1
175
     1
 42
40.0
 92
        8
 66
     7
 43
1.0
 76
     1
 77
     6
 78
     2
 67
     7
 79
     3
170
     0
171
     0
290
     0
174
     0
 93
        1
 44
0.0
173
     0
291
     0
 45
0.0
1001
ACAD
1000
AcDbSavedByObjectVersion
1070
     0
  0
VISUALSTYLE
  5
35
102
{ACAD_REACTORS
330
2A
102
}
330
2A
100
AcDbVisualStyle
  2
Dim
 70
    11
 71
     2
 72
     2
 73
     0
 90
        0
 40
-0.6
 41
-30.0
 62
     5
 63
     7
 74
     1
 91
        4
 64
     7
 65
   257
 75
     1
175
     1
 42
1.0
 92
        8
 66
     7
 43
1.0
 76
     1
 77
     6
 78
     2
 67
     7
 79
     5
170
     0
171
     0
290
     0
174
     0
 93
        1
 44
-50.0
173
     0
291
     1
 45
0.0
1001
ACAD
1000
AcDbSavedByObjectVersion
1070
     0
  0
VISUALSTYLE
  5
39
102
{ACAD_REACTORS
330
2A
102
}
330
2A
100
AcDbVisualStyle
  2
Facepattern
 70
    15
 71
     2
 72
     2
 73
     0
 90
        0
 40
-0.6
 41
-30.0
 62
     5
 63
     7
 74
     1
 91
        4
 64
     7
 65
   257
 75
     1
175
     1
 42
1.0
 92
        8
 66
     7
 43
1.0
 76
     1
 77
     6
 78
     2
 67
     7
 79
     5
170
     0
171
     0
290
     0
174
     0
 93
        1
 44
0.0
173
     0
291
     1
 45
0.0
1001
ACAD
1000
AcDbSavedByObjectVersion
1070
     0
  0
VISUALSTYLE
  5
2B
102
{ACAD_REACTORS
330
2A
102
}
330
2A
100
AcDbVisualStyle
  2
Flat
 70
     0
 71
     2
 72
     1
 73
     1
 90
        2
 40
-0.6
 41
30.0
 62
     5
 63
     7
 74
     0
 91
        4
 64
     7
 65
   257
 75
     1
175
     1
 42
1.0
 92
        8
 66
     7
 43
1.0
 76
     1
 77
     6
 78
     2
 67
     7
 79
     5
170
     0
171
     0
290
     0
174
     0
 93
       13
 44
0.0
173
     0
291
     1
 45
0.0
1001
ACAD
1000
AcDbSavedByObjectVersion
1070
     0
  0
VISUALSTYLE
  5
2C
102
{ACAD_REACTORS
330
2A
102
}
330
2A
100
AcDbVisualStyle
  2
FlatWithEdges
 70
     1
 71
     2
 72
     1
 73
     1
 90
        2
 40
-0.6
 41
30.0
 62
     5
 63
     7
 74
     1
 91
        4
 64
     7
 65
   257
 75
     1
175
     1
 42
1.0
 92
        0
 66
   257
 43
1.0
 76
     1
 77
     6
 78
     2
 67
     7
 79
     5
170
     0
171
     0
290
     0
174
     0
 93
       13
 44
0.0
173
     0
291
     1
 45
0.0
1001
ACAD
1000
AcDbSavedByObjectVersion
1070
     0
  0
VISUALSTYLE
  5
2D
102
{ACAD_REACTORS
330
2A
102
}
330
2A
100
AcDbVisualStyle
  2
Gouraud
 70
     2
 71
     2
 72
     2
 73
     1
 90
        2
 40
-0.6
 41
30.0
 62
     5
 63
     7
 74
     0
 91
        4
 64
     7
 65
   257
 75
     1
175
     1
 42
1.0
 92
        0
 66
     7
 43
1.0
 76
     1
 77
     6
 78
     2
 67
     7
 79
     5
170
     0
171
     0
290
     0
174
     0
 93
       13
 44
0.0
173
     0
291
     1
 45
0.0
1001
ACAD
1000
AcDbSavedByObjectVersion
1070
     0
  0
VISUALSTYLE
  5
2E
102
{ACAD_REACTORS
330
2A
102
}
330
2A
100
AcDbVisualStyle
  2
GouraudWithEdges
 70
     3
 71
     2
 72
     2
 73
     1
 90
        2
 40
-0.6
 41
30.0
 62
     5
 63
     7
 74
     1
 91
        4
 64
     7
 65
   257
 75
     1
175
     1
 42
1.0
 92
        0
 66
   257
 43
1.0
 76
     1
 77
     6
 78
     2
 67
     7
 79
     5
170
     0
171
     0
290
     0
174
     0
 93
       13
 44
0.0
173
     0
291
     1
 45
0.0
1001
ACAD
1000
AcDbSavedByObjectVersion
1070
     0
  0
VISUALSTYLE
  5
38
102
{ACAD_REACTORS
330
2A
102
}
330
2A
100
AcDbVisualStyle
  2
Linepattern
 70
    14
 71
     2
 72
     2
 73
     0
 90
        0
 40
-0.6
 41
-30.0
 62
     5
 63
     7
 74
     1
 91
        4
 64
     7
 65
   257
 75
     7
175
     7
 42
1.0
 92
        8
 66
     7
 43
1.0
 76
     1
 77
     6
 78
     2
 67
     7
 79
     5
170
     0
171
     0
290
     0
174
     0
 93
        1
 44
0.0
173
     0
291
     1
 45
0.0
1001
ACAD
1000
AcDbSavedByObjectVersion
1070
     0
  0
VISUALSTYLE
  5
33
102
{ACAD_REACTORS
330
2A
102
}
330
2A
100
AcDbVisualStyle
  2
Realistic
 70
     8
 71
     2
 72
     2
 73
     0
 90
        0
 40
-0.6
 41
-30.0
 62
     5
 63
     7
 74
     1
 91
        0
 64
     7
 65
   257
 75
     1
175
     1
 42
1.0
 92
        8
 66
     8
 43
1.0
 76
     1
 77
     6
 78
     2
 67
     7
 79
     5
170
     0
171
     0
290
     0
174
     0
 93
       13
 44
0.0
173
     0
291
     0
 45
0.0
1001
ACAD
1000
AcDbSavedByObjectVersion
1070
     0
  0
VISUALSTYLE
  5
37
102
{ACAD_REACTORS
330
2A
102
}
330
2A
100
AcDbVisualStyle
  2
Thicken
 70
    13
 71
     2
 72
     2
 73
     0
 90
        0
 40
-0.6
 41
-30.0
 62
     5
 63
     7
 74
     1
 91
        4
 64
     7
 65
   257
 75
     1
175
     1
 42
1.0
 92
       12
 66
     7
 43
1.0
 76
     1
 77
     6
 78
     2
 67
     7
 79
     5
170
     0
171
     0
290
     0
174
     0
 93
        1
 44
0.0
173
     0
291
     1
 45
0.0
1001
ACAD
1000
AcDbSavedByObjectVersion
1070
     0
  0
ENDSEC
  0
EOF
