  0
SECTION
  2
HEADER
  9
$ACADVER
  1
AC1009
  9
$ANGBASE
  50
0.0
  9
$ANGDIR
  70
0
  9
$ATTDIA
  70
0
  9
$ATTMODE
  70
0
  9
$ATTREQ
  70
1
  9
$AUNITS
  70
0
  9
$AUPREC
  70
2
  9
$AXISMODE
  70
0
  9
$CECOLOR
  62
256
  9
$CELTYPE
  6
BYLAYER
  9
$CLAYER
  8
0
  9
$DIMALT
  70
0
  9
$DIMALTD
  70
2
  9
$DIMALTF
  40
0.0
  9
$DIMAPOST
  1

  9
$DIMASO
  70
1
  9
$DIMASZ
  40
3.0
  9
$DIMBLK
  1

  9
$DIMBLK1
  1

  9
$DIMBLK2
  1

  9
$DIMCEN
  40
0.09
  9
$DIMCLRD
  70
256
  9
$DIMCLRE
  70
256
  9
$DIMCLRT
  70
256
  9
$DIMDLE
  40
0.0
  9
$DIMDLI
  40
7.5
  9
$DIMEXE
  40
2.0
  9
$DIMEXO
  40
1.0
  9
$DIMGAP
  40
2.0
  9
$DIMLFAC
  40
1.0
  9
$DIMLIM
  70
0
  9
$DIMPOST
  1

  9
$DIMRND
  40
2.0
  9
$DIMSAH
  70
0
  9
$DIMSCALE
  40
1.0
  9
$DIMSE1
  70
0
  9
$DIMSE2
  70
0
  9
$DIMSHO
  70
1
  9
$DIMSOXD
  70
0
  9
$DIMSTYLE
  2
*UNNAMED
  9
$DIMTAD
  70
1
  9
$DIMTFAC
  40
1.0
  9
$DIMTIH
  70
1
  9
$DIMTIX
  70
0
  9
$DIMTM
  40
0.0
  9
$DIMTOFL
  70
1
  9
$DIMTOH
  70
0
  9
$DIMTOL
  70
0
  9
$DIMTP
  40
0.0
  9
$DIMTSZ
  40
0.0
  9
$DIMTVP
  40
0.0
  9
$DIMTXT
  40
5.0
  9
$DIMZIN
  70
8
  9
$DRAGMODE
  70
0
  9
$ELEVATION
  40
0.0
  9
$EXTMAX
  10
0.0
  20
0.0
  30
0.0
  9
$EXTMIN
  10
0.0
  20
0.0
  30
0.0
  9
$FILLETRAD
  40
1.0
  9
$FILLMODE
  70
1
  9
$INSBASE
  10
0.0
  20
0.0
  30
0.0
  9
$LIMMAX
  10
420.496839
  20
339.988464
  9
$LIMMIN
  10
-19.488233
  20
0.0
  9
$LTSCALE
  40
1.0
  9
$LUNITS
  70
2
  9
$LUPREC
  70
2
  9
$MENU
  1
acad
  9
$MIRRTEXT
  70
0
  9
$ORTHOMODE
  70
0
  9
$OSMODE
  70
0
  9
$PDMODE
  70
0
  9
$PDSIZE
  40
0.0
  9
$PEXTMAX
  10
0.0
  20
0.0
  30
0.0
  9
$PEXTMIN
  10
0.0
  20
0.0
  30
0.0
  9
$PLIMCHECK
  70
0
  9
$PLIMMAX
  10
0.0
  20
0.0
  9
$PLIMMIN
  10
0.0
  20
0.0
  9
$PLINEWID
  40
0.0
  9
$PUCSXDIR
  10
1.0
  20
0.0
  30
0.0
  9
$PUCSYDIR
  10
0.0
  20
1.0
  30
0.0
  9
$QTEXTMODE
  70
0
  9
$SHADEDGE
  70
3
  9
$SHADEDIF
  70
70
  9
$SKETCHINC
  40
1.0
  9
$SPLFRAME
  70
0
  9
$SPLINESEGS
  70
20
  9
$SPLINETYPE
  70
0
  9
$SURFTAB1
  70
6
  9
$SURFTAB2
  70
6
  9
$TDINDWG
  40
0.0
  9
$TDUPDATE
  40
2449702.667959
  9
$TDUSRTIMER
  40
0.0
  9
$TEXTSIZE
  40
5.0
  9
$TEXTSTYLE
  7
STANDARD
  9
$TILEMODE
  70
0
  9
$TRACEWID
  40
1.0
  9
$UCSORG
  10
0.0
  20
0.0
  30
0.0
  9
$UCSXDIR
  10
1.0
  20
0.0
  30
0.0
  9
$UCSYDIR
  10
0.0
  20
1.0
  30
0.0
  9
$UNITMODE
  70
0
  9
$WORLDVIEW
  70
1
  9
$GRIDMODE
  70
1
  9
$PINSBASE
  10
0.0
  20
0.0
  30
0.0
  9
$PSLTSCALE
  70
1
  9
$TREEDEPTH
  70
3020
  0
ENDSEC
  0
SECTION
  2
TABLES
  0
TABLE
  2
VPORT
  70
1
  0
VPORT
  2
*ACTIVE
  70
0
  10
0.0
  20
0.0
  11
1.0
  21
1.0
  12
200.504322
  22
169.994219
  13
0.0
  23
0.0
  14
5.0
  24
5.0
  15
5.0
  25
5.0
  16
0.0
  26
0.0
  36
1.0
  17
0.0
  27
0.0
  37
0.0
  40
346.788234
  41
1.593537
  42
50.0
  43
0.0
  44
0.0
  50
0.0
  51
0.0
  71
0
  72
100
  73
1
  74
1
  75
0
  76
1
  77
0
  78
0
  0
ENDTAB
  0
TABLE
  2
LTYPE
  70
16
  0
LTYPE
  2
CONTINUOUS
  70
0
  3
CONTINUOUS
  72
65
  73
0
  40
0.0
  0
LTYPE
  2
Rand
  70
0
  3
Rand
  72
65
  73
6
  40
1.75
  49
0.5
  49
-0.25
  49
0.5
  49
-0.25
  49
0.0
  49
-0.25
  0
LTYPE
  2
Mitte
  70
0
  3
Mitte
  72
65
  73
4
  40
2.0
  49
1.25
  49
-0.25
  49
0.25
  49
-0.25
  0
LTYPE
  2
Strichpunkt
  70
0
  3
Strichpunkt
  72
65
  73
4
  40
1.0
  49
0.5
  49
-0.25
  49
0.0
  49
-0.25
  0
LTYPE
  2
Gestrichelt
  70
0
  3
Gestrichelt
  72
65
  73
2
  40
0.75
  49
0.5
  49
-0.25
  0
LTYPE
  2
Teilen
  70
0
  3
Teilen
  72
65
  73
6
  40
1.25
  49
0.5
  49
-0.25
  49
0.0
  49
-0.25
  49
0.0
  49
-0.25
  0
LTYPE
  2
Punkt
  70
0
  3
Punkt
  72
65
  73
2
  40
0.25
  49
0.0
  49
-0.25
  0
LTYPE
  2
Verdeckt
  70
0
  3
Verdeckt
  72
65
  73
2
  40
0.375
  49
0.25
  49
-0.125
  0
LTYPE
  2
BORDER
  70
0
  3
BORDER
  72
65
  73
6
  40
1.75
  49
0.5
  49
-0.25
  49
0.5
  49
-0.25
  49
0.0
  49
-0.25
  0
LTYPE
  2
CENTER
  70
0
  3
CENTER
  72
65
  73
4
  40
2.0
  49
1.25
  49
-0.25
  49
0.25
  49
-0.25
  0
LTYPE
  2
DASHDOT
  70
0
  3
DASHDOT
  72
65
  73
4
  40
1.0
  49
0.5
  49
-0.25
  49
0.0
  49
-0.25
  0
LTYPE
  2
DASHED
  70
0
  3
DASHED
  72
65
  73
2
  40
0.75
  49
0.5
  49
-0.25
  0
LTYPE
  2
DIVIDE
  70
0
  3
DIVIDE
  72
65
  73
6
  40
1.25
  49
0.5
  49
-0.25
  49
0.0
  49
-0.25
  49
0.0
  49
-0.25
  0
LTYPE
  2
DOT
  70
0
  3
DOT
  72
65
  73
2
  40
0.25
  49
0.0
  49
-0.25
  0
LTYPE
  2
HIDDEN
  70
0
  3
HIDDEN
  72
65
  73
2
  40
0.375
  49
0.25
  49
-0.125
  0
LTYPE
  2
PHANTOM
  70
0
  3
PHANTOM
  72
65
  73
6
  40
2.5
  49
1.25
  49
-0.25
  49
0.25
  49
-0.25
  49
0.25
  49
-0.25
  0
ENDTAB
  0
TABLE
  2
LAYER
  70
9
  0
LAYER
  2
0
  70
64
  6
CONTINUOUS
  62
7
  0
LAYER
  2
BLACK
  70
64
  6
CONTINUOUS
  62
7
  0
LAYER
  2
WHITE
  70
64
  6
CONTINUOUS
  62
7
  0
LAYER
  2
RED
  70
64
  6
CONTINUOUS
  62
1
  0
LAYER
  2
YELLOW
  70
64
  6
CONTINUOUS
  62
2
  0
LAYER
  2
GREEN
  70
64
  6
CONTINUOUS
  62
3
  0
LAYER
  2
CYAN
  70
64
  6
CONTINUOUS
  62
4
  0
LAYER
  2
BLUE
  70
64
  6
CONTINUOUS
  62
5
  0
LAYER
  2
MAGENTA
  70
64
  6
CONTINUOUS
  62
6
  0
ENDTAB
  0
TABLE
  2
STYLE
  70
1
  0
STYLE
  2
STANDARD
  70
0
  3
txt
  4

  40
0.0
  41
1.0
  42
0.2
  50
0.0
  71
0
  0
ENDTAB
  0
ENDSEC
  0
SECTION
  2
BLOCKS
  0
ENDSEC
  0
SECTION
  2
ENTITIES
  0
ARC
  8
WHITE
  6
CONTINUOUS
  10
56.378162
  20
106.292723
  40
0.598823
  50
87.909831
  51
180.002516
  0
LINE
  8
WHITE
  6
CONTINUOUS
  10
55.779339
  20
106.292696
  11
55.779339
  21
100.505864
  0
ARC
  8
WHITE
  6
CONTINUOUS
  10
55.179783
  20
100.505872
  40
0.599556
  50
-90.0
  51
-0.0008
  0
LINE
  8
WHITE
  6
CONTINUOUS
  10
55.179783
  20
99.906316
  11
54.881115
  21
99.906317
  0
ARC
  8
WHITE
  6
CONTINUOUS
  10
54.880006
  20
100.505872
  40
0.599556
  50
180.0
  51
270.106
  0
LINE
  8
WHITE
  6
CONTINUOUS
  10
54.28045
  20
100.505872
  11
54.279635
  21
106.292694
  0
ARC
  8
WHITE
  6
CONTINUOUS
  10
53.679784
  20
106.291586
  40
0.599853
  50
0.105827
  51
91.80317
  0
ARC
  8
WHITE
  6
CONTINUOUS
  10
55.040945
  20
53.439939
  40
53.469015
  50
91.478969
  51
178.531988
  0
ARC
  8
WHITE
  6
CONTINUOUS
  10
2.189051
  20
54.790078
  40
0.599895
  50
178.120451
  51
269.998929
  0
LINE
  8
WHITE
  6
CONTINUOUS
  10
2.189039
  20
54.190183
  11
7.964761
  21
54.190183
  0
ARC
  8
WHITE
  6
CONTINUOUS
  10
7.964761
  20
53.590627
  40
0.599556
  50
0.0
  51
90.00001
  0
LINE
  8
WHITE
  6
CONTINUOUS
  10
8.564317
  20
53.590627
  11
8.564317
  21
53.290845
  0
ARC
  8
WHITE
  6
CONTINUOUS
  10
7.964761
  20
53.290849
  40
0.599556
  50
-90.0
  51
-0.0004
  0
LINE
  8
WHITE
  6
CONTINUOUS
  10
7.964761
  20
52.691294
  11
2.189039
  21
52.691294
  0
ARC
  8
WHITE
  6
CONTINUOUS
  10
2.179592
  20
52.100696
  40
0.590674
  50
89.083595
  51
181.842589
  0
ARC
  8
WHITE
  6
CONTINUOUS
  10
55.028784
  20
53.439628
  40
53.45681
  50
-178.5444
  51
-91.4663
  0
ARC
  8
WHITE
  6
CONTINUOUS
  10
53.680555
  20
0.599895
  40
0.599895
  50
-91.879549
  51
-0.001071
  0
LINE
  8
WHITE
  6
CONTINUOUS
  10
54.28045
  20
0.599883
  11
54.28045
  21
6.375605
  0
ARC
  8
WHITE
  6
CONTINUOUS
  10
54.880005
  20
6.376716
  40
0.599556
  50
89.893798
  51
180.106202
  0
LINE
  8
WHITE
  6
CONTINUOUS
  10
54.881116
  20
6.976271
  11
55.179788
  21
6.97516
  0
ARC
  8
WHITE
  6
CONTINUOUS
  10
55.179783
  20
6.375605
  40
0.599556
  50
0.0
  51
89.9996
  0
LINE
  8
WHITE
  6
CONTINUOUS
  10
55.779339
  20
6.375605
  11
55.779339
  21
0.599883
  0
ARC
  8
WHITE
  6
CONTINUOUS
  10
56.380997
  20
0.611821
  40
0.601776
  50
-178.863325
  51
-88.214353
  0
ARC
  8
WHITE
  6
CONTINUOUS
  10
55.040604
  20
53.43993
  40
53.446877
  50
-88.542822
  51
-1.456151
  0
ARC
  8
WHITE
  6
CONTINUOUS
  10
107.87075
  20
52.091738
  40
0.599556
  50
-0.9551
  51
90.0
  0
LINE
  8
WHITE
  6
CONTINUOUS
  10
107.87075
  20
52.691294
  11
102.095029
  21
52.691295
  0
ARC
  8
WHITE
  6
CONTINUOUS
  10
102.096139
  20
53.290849
  40
0.599556
  50
180.0
  51
269.894
  0
LINE
  8
WHITE
  6
CONTINUOUS
  10
101.496583
  20
53.290849
  11
101.495461
  21
53.590627
  0
ARC
  8
WHITE
  6
CONTINUOUS
  10
102.095017
  20
53.590627
  40
0.599556
  50
90.00001
  51
180.0
  0
LINE
  8
WHITE
  6
CONTINUOUS
  10
102.095017
  20
54.190183
  11
107.973229
  21
54.190183
  0
ARC
  8
WHITE
  6
CONTINUOUS
  10
107.973229
  20
54.690183
  40
0.5
  50
-90.0
  51
0.84325
  0
ARC
  8
WHITE
  6
CONTINUOUS
  10
87.78925
  20
54.393104
  40
20.686166
  50
0.84325
  51
1.652034
  0
ARC
  8
WHITE
  6
CONTINUOUS
  10
55.028535
  20
53.448239
  40
53.460503
  50
1.652034
  51
88.529981
  0
LINE
  8
WHITE
  6
CONTINUOUS
  10
55.529888
  20
93.403111
  11
55.830431
  21
93.403111
  0
ARC
  8
WHITE
  6
CONTINUOUS
  10
55.029883
  20
53.439606
  40
39.971522
  50
89.999994
  51
448.852406
  0
ARC
  8
WHITE
  6
CONTINUOUS
  10
55.529888
  20
108.998076
  40
15.594966
  50
-91.837311
  51
-90.0
  0
LINE
  8
WHITE
  6
CONTINUOUS
  10
22.362248
  20
45.636273
  11
22.362352
  21
59.126526
  0
ARC
  8
WHITE
  6
CONTINUOUS
  10
28.607726
  20
59.126526
  40
6.245373
  50
89.99999
  51
180.0
  0
ARC
  8
WHITE
  6
CONTINUOUS
  10
28.608837
  20
64.873381
  40
0.49852
  50
-0.12775
  51
90.127625
  0
LINE
  8
WHITE
  6
CONTINUOUS
  10
29.107356
  20
64.87227
  11
29.107356
  21
58.876711
  0
ARC
  8
WHITE
  6
CONTINUOUS
  10
29.606985
  20
58.87671
  40
0.49963
  50
179.999858
  51
269.872676
  0
LINE
  8
WHITE
  6
CONTINUOUS
  10
29.605875
  20
58.377082
  11
30.106615
  21
58.377082
  0
ARC
  8
WHITE
  6
CONTINUOUS
  10
30.106614
  20
58.876713
  40
0.499631
  50
-89.999859
  51
-0.000141
  0
LINE
  8
WHITE
  6
CONTINUOUS
  10
30.606245
  20
58.876711
  11
30.606245
  21
64.87227
  0
ARC
  8
WHITE
  6
CONTINUOUS
  10
31.104763
  20
64.873381
  40
0.49852
  50
89.872125
  51
180.12775
  0
ARC
  8
WHITE
  6
CONTINUOUS
  10
31.105875
  20
59.126526
  40
6.245373
  50
0.0
  51
89.99999
  0
LINE
  8
WHITE
  6
CONTINUOUS
  10
37.351248
  20
59.126526
  11
37.351144
  21
45.636273
  0
ARC
  8
WHITE
  6
CONTINUOUS
  10
31.105771
  20
45.636273
  40
6.245373
  50
-90.00001
  51
0.0
  0
ARC
  8
WHITE
  6
CONTINUOUS
  10
31.10466
  20
39.889418
  40
0.49852
  50
179.87225
  51
270.127625
  0
LINE
  8
WHITE
  6
CONTINUOUS
  10
30.606141
  20
39.89053
  11
30.606141
  21
45.886088
  0
ARC
  8
WHITE
  6
CONTINUOUS
  10
30.106511
  20
45.886089
  40
0.49963
  50
-0.000142
  51
89.872676
  0
LINE
  8
WHITE
  6
CONTINUOUS
  10
30.107622
  20
46.385718
  11
29.606882
  21
46.385718
  0
ARC
  8
WHITE
  6
CONTINUOUS
  10
29.606883
  20
45.886087
  40
0.499631
  50
90.000141
  51
179.999859
  0
LINE
  8
WHITE
  6
CONTINUOUS
  10
29.107252
  20
45.886088
  11
29.107252
  21
39.89053
  0
ARC
  8
WHITE
  6
CONTINUOUS
  10
28.608733
  20
39.889418
  40
0.49852
  50
-90.127875
  51
0.12775
  0
ARC
  8
WHITE
  6
CONTINUOUS
  10
28.607622
  20
45.636273
  40
6.245373
  50
180.0
  51
269.99999
  0
LINE
  8
WHITE
  6
CONTINUOUS
  10
73.662834
  20
45.636273
  11
73.662938
  21
59.126526
  0
ARC
  8
WHITE
  6
CONTINUOUS
  10
79.908311
  20
59.126526
  40
6.245373
  50
89.99999
  51
180.0
  0
ARC
  8
WHITE
  6
CONTINUOUS
  10
79.909423
  20
64.873381
  40
0.49852
  50
-0.12775
  51
90.127625
  0
LINE
  8
WHITE
  6
CONTINUOUS
  10
80.407941
  20
64.87227
  11
80.407941
  21
58.876711
  0
ARC
  8
WHITE
  6
CONTINUOUS
  10
80.907571
  20
58.87671
  40
0.49963
  50
179.999858
  51
269.872676
  0
LINE
  8
WHITE
  6
CONTINUOUS
  10
80.90646
  20
58.377082
  11
81.407201
  21
58.377082
  0
ARC
  8
WHITE
  6
CONTINUOUS
  10
81.407199
  20
58.876713
  40
0.499631
  50
-89.999859
  51
-0.000141
  0
LINE
  8
WHITE
  6
CONTINUOUS
  10
81.906831
  20
58.876711
  11
81.906831
  21
64.87227
  0
ARC
  8
WHITE
  6
CONTINUOUS
  10
82.405349
  20
64.873381
  40
0.49852
  50
89.872125
  51
180.12775
  0
ARC
  8
WHITE
  6
CONTINUOUS
  10
82.40646
  20
59.126526
  40
6.245373
  50
0.0
  51
89.99999
  0
LINE
  8
WHITE
  6
CONTINUOUS
  10
88.651834
  20
59.126526
  11
88.65173
  21
45.636273
  0
ARC
  8
WHITE
  6
CONTINUOUS
  10
82.406356
  20
45.636273
  40
6.245373
  50
-90.00001
  51
0.0
  0
ARC
  8
WHITE
  6
CONTINUOUS
  10
82.405245
  20
39.889418
  40
0.49852
  50
179.87225
  51
270.127625
  0
LINE
  8
WHITE
  6
CONTINUOUS
  10
81.906727
  20
39.89053
  11
81.906727
  21
45.886088
  0
ARC
  8
WHITE
  6
CONTINUOUS
  10
81.407097
  20
45.886089
  40
0.49963
  50
-0.000142
  51
89.872676
  0
LINE
  8
WHITE
  6
CONTINUOUS
  10
81.408207
  20
46.385718
  11
80.907467
  21
46.385718
  0
ARC
  8
WHITE
  6
CONTINUOUS
  10
80.907468
  20
45.886087
  40
0.499631
  50
90.000141
  51
179.999859
  0
LINE
  8
WHITE
  6
CONTINUOUS
  10
80.407837
  20
45.886088
  11
80.407837
  21
39.89053
  0
ARC
  8
WHITE
  6
CONTINUOUS
  10
79.909319
  20
39.889418
  40
0.49852
  50
-90.127875
  51
0.12775
  0
ARC
  8
WHITE
  6
CONTINUOUS
  10
79.908207
  20
45.636273
  40
6.245373
  50
180.0
  51
269.99999
  0
LINE
  8
WHITE
  6
CONTINUOUS
  10
63.01398
  20
26.140962
  11
62.614276
  21
19.925567
  0
ARC
  8
WHITE
  6
CONTINUOUS
  10
61.116497
  20
20.024382
  40
1.501035
  50
-90.0426
  51
-3.774607
  0
LINE
  8
WHITE
  6
CONTINUOUS
  10
61.115381
  20
18.523347
  11
56.278969
  21
18.526603
  0
ARC
  8
WHITE
  6
CONTINUOUS
  10
56.27897
  20
19.026234
  40
0.499631
  50
-179.999859
  51
-90.000141
  0
LINE
  8
WHITE
  6
CONTINUOUS
  10
55.779339
  20
19.026233
  11
55.779339
  21
23.024382
  0
ARC
  8
WHITE
  6
CONTINUOUS
  10
55.280821
  20
23.025494
  40
0.49852
  50
-0.12775
  51
90.12775
  0
LINE
  8
WHITE
  6
CONTINUOUS
  10
55.279709
  20
23.524012
  11
54.78008
  21
23.524012
  0
ARC
  8
WHITE
  6
CONTINUOUS
  10
54.778968
  20
23.025494
  40
0.49852
  50
89.87225
  51
180.12775
  0
LINE
  8
WHITE
  6
CONTINUOUS
  10
54.28045
  20
23.024382
  11
54.28045
  21
19.026233
  0
ARC
  8
WHITE
  6
CONTINUOUS
  10
53.780819
  20
19.026234
  40
0.499631
  50
-89.999858
  51
-0.000141
  0
LINE
  8
WHITE
  6
CONTINUOUS
  10
53.78082
  20
18.526603
  11
48.944403
  21
18.526603
  0
ARC
  8
WHITE
  6
CONTINUOUS
  10
48.944109
  20
20.028746
  40
1.502143
  50
-176.061349
  51
-89.988783
  0
LINE
  8
WHITE
  6
CONTINUOUS
  10
47.445513
  20
19.925567
  11
46.636113
  21
32.416313
  0
ARC
  8
WHITE
  6
CONTINUOUS
  10
48.133892
  20
32.515129
  40
1.501035
  50
89.95764
  51
183.774607
  0
LINE
  8
WHITE
  6
CONTINUOUS
  10
48.135002
  20
34.016165
  11
51.682374
  21
34.016239
  0
ARC
  8
WHITE
  6
CONTINUOUS
  10
51.678209
  20
34.514742
  40
0.49852
  50
-89.521218
  51
-41.409387
  0
ARC
  8
WHITE
  6
CONTINUOUS
  10
55.028784
  20
31.51698
  40
3.997374
  50
41.83823
  51
138.1299
  0
ARC
  8
WHITE
  6
CONTINUOUS
  10
58.378751
  20
34.513395
  40
0.497157
  50
-138.40434
  51
-90.153956
  0
LINE
  8
WHITE
  6
CONTINUOUS
  10
58.377415
  20
34.016239
  11
61.925897
  21
34.016239
  0
ARC
  8
WHITE
  6
CONTINUOUS
  10
61.925897
  20
32.51846
  40
1.497779
  50
-3.8985
  51
90.0
  0
LINE
  8
WHITE
  6
CONTINUOUS
  10
63.420211
  20
32.416627
  11
63.065053
  21
26.94148
  0
LINE
  8
WHITE
  6
CONTINUOUS
  10
63.065053
  20
26.94148
  11
63.047194
  21
26.640962
  0
LINE
  8
WHITE
  6
CONTINUOUS
  10
63.047194
  20
26.640962
  11
63.01398
  21
26.140962
  0
LINE
  8
WHITE
  6
CONTINUOUS
  10
61.995845
  20
78.572121
  11
61.724935
  21
74.386333
  0
ARC
  8
WHITE
  6
CONTINUOUS
  10
60.397851
  20
74.476242
  40
1.330126
  50
-89.652759
  51
-3.875843
  0
LINE
  8
WHITE
  6
CONTINUOUS
  10
60.405912
  20
73.14614
  11
56.278969
  21
73.14614
  0
ARC
  8
WHITE
  6
CONTINUOUS
  10
56.27897
  20
73.645772
  40
0.499631
  50
-179.999858
  51
-90.000141
  0
LINE
  8
WHITE
  6
CONTINUOUS
  10
55.779339
  20
73.64577
  11
55.779339
  21
77.642809
  0
ARC
  8
WHITE
  6
CONTINUOUS
  10
55.280821
  20
77.643921
  40
0.49852
  50
-0.12775
  51
90.12775
  0
LINE
  8
WHITE
  6
CONTINUOUS
  10
55.279709
  20
78.142439
  11
54.78008
  21
78.142439
  0
ARC
  8
WHITE
  6
CONTINUOUS
  10
54.778968
  20
77.643921
  40
0.49852
  50
89.87225
  51
180.12775
  0
LINE
  8
WHITE
  6
CONTINUOUS
  10
54.28045
  20
77.642809
  11
54.28045
  21
73.64577
  0
ARC
  8
WHITE
  6
CONTINUOUS
  10
53.780819
  20
73.645772
  40
0.499631
  50
-89.999858
  51
-0.000142
  0
LINE
  8
WHITE
  6
CONTINUOUS
  10
53.78082
  20
73.14614
  11
49.653877
  21
73.146129
  0
ARC
  8
WHITE
  6
CONTINUOUS
  10
49.65374
  20
74.466331
  40
1.320202
  50
-176.526012
  51
-89.994056
  0
LINE
  8
WHITE
  6
CONTINUOUS
  10
48.335965
  20
74.386333
  11
47.62538
  21
85.407057
  0
ARC
  8
WHITE
  6
CONTINUOUS
  10
48.941333
  20
85.496994
  40
1.319023
  50
89.866679
  51
183.909697
  0
LINE
  8
WHITE
  6
CONTINUOUS
  10
48.944403
  20
86.816014
  11
52.072086
  21
86.816014
  0
ARC
  8
WHITE
  6
CONTINUOUS
  10
52.071677
  20
87.254589
  40
0.438575
  50
-89.946574
  51
-41.16527
  0
ARC
  8
WHITE
  6
CONTINUOUS
  10
55.029894
  20
84.618753
  40
3.523603
  50
41.76844
  51
138.2315
  0
ARC
  8
WHITE
  6
CONTINUOUS
  10
57.986587
  20
87.254596
  40
0.437433
  50
-138.702008
  51
-89.709289
  0
LINE
  8
WHITE
  6
CONTINUOUS
  10
57.988806
  20
86.817169
  11
61.115386
  21
86.816014
  0
ARC
  8
WHITE
  6
CONTINUOUS
  10
61.115386
  20
85.498101
  40
1.317913
  50
-3.948416
  51
89.999967
  0
LINE
  8
WHITE
  6
CONTINUOUS
  10
62.43017
  20
85.407352
  11
62.044698
  21
79.372639
  0
LINE
  8
WHITE
  6
CONTINUOUS
  10
62.044698
  20
79.372639
  11
62.02504
  21
79.072121
  0
LINE
  8
WHITE
  6
CONTINUOUS
  10
62.02504
  20
79.072121
  11
61.995845
  21
78.572121
  0
LINE
  8
WHITE
  6
CONTINUOUS
  10
58.097622
  20
55.930005
  11
58.097622
  21
44.377453
  0
ARC
  8
WHITE
  6
CONTINUOUS
  10
61.315222
  20
44.367189
  40
3.217617
  50
179.817238
  51
242.637266
  0
ARC
  8
WHITE
  6
CONTINUOUS
  10
60.066164
  20
41.948141
  40
0.495136
  50
-117.6568
  51
0.126953
  0
LINE
  8
WHITE
  6
CONTINUOUS
  10
60.561299
  20
41.949238
  11
60.566904
  21
46.90558
  0
ARC
  8
WHITE
  6
CONTINUOUS
  10
61.065423
  20
46.90558
  40
0.49852
  50
90.00001
  51
180.0
  0
LINE
  8
WHITE
  6
CONTINUOUS
  10
61.065423
  20
47.404099
  11
61.566163
  21
47.40521
  0
ARC
  8
WHITE
  6
CONTINUOUS
  10
61.566163
  20
46.90669
  40
0.49852
  50
-0.1272
  51
90.0
  0
LINE
  8
WHITE
  6
CONTINUOUS
  10
62.064682
  20
46.905583
  11
62.065793
  21
41.949251
  0
ARC
  8
WHITE
  6
CONTINUOUS
  10
62.564317
  20
41.951971
  40
0.498531
  50
-179.687381
  51
-62.547682
  0
ARC
  8
WHITE
  6
CONTINUOUS
  10
61.314497
  20
44.37596
  40
3.225756
  50
-62.696881
  51
-3.881192
  0
LINE
  8
WHITE
  6
CONTINUOUS
  10
64.532855
  20
44.157615
  11
65.662018
  21
60.636519
  0
ARC
  8
WHITE
  6
CONTINUOUS
  10
62.875194
  20
60.825268
  40
2.793209
  50
-3.874673
  51
67.57419
  0
ARC
  8
WHITE
  6
CONTINUOUS
  10
65.905179
  20
68.109733
  40
5.09631
  50
-153.805079
  51
-112.67217
  0
LINE
  8
WHITE
  6
CONTINUOUS
  10
61.332273
  20
65.860088
  11
60.645734
  21
67.260501
  0
ARC
  8
WHITE
  6
CONTINUOUS
  10
59.43774
  20
66.672048
  40
1.343699
  50
25.972211
  51
180.4748
  0
LINE
  8
WHITE
  6
CONTINUOUS
  10
58.094087
  20
66.660913
  11
58.097622
  21
55.930005
  0
LINE
  8
WHITE
  6
CONTINUOUS
  10
45.197179
  20
55.930005
  11
45.197179
  21
44.377453
  0
ARC
  8
WHITE
  6
CONTINUOUS
  10
48.423677
  20
44.377453
  40
3.226499
  50
180.0
  51
242.7383
  0
ARC
  8
WHITE
  6
CONTINUOUS
  10
47.175448
  20
41.94828
  40
0.495401
  50
-117.62198
  51
0.111113
  0
LINE
  8
WHITE
  6
CONTINUOUS
  10
47.670848
  20
41.949241
  11
47.675343
  21
46.90558
  0
ARC
  8
WHITE
  6
CONTINUOUS
  10
48.173862
  20
46.90558
  40
0.49852
  50
89.87275
  51
180.0
  0
LINE
  8
WHITE
  6
CONTINUOUS
  10
48.17497
  20
47.404098
  11
48.674603
  21
47.40521
  0
ARC
  8
WHITE
  6
CONTINUOUS
  10
48.674603
  20
46.90669
  40
0.49852
  50
-0.127
  51
90.0
  0
LINE
  8
WHITE
  6
CONTINUOUS
  10
49.173121
  20
46.905585
  11
49.175343
  21
41.94924
  0
ARC
  8
WHITE
  6
CONTINUOUS
  10
49.673855
  20
41.951953
  40
0.49852
  50
-179.688197
  51
-62.545586
  0
ARC
  8
WHITE
  6
CONTINUOUS
  10
48.412257
  20
44.37153
  40
3.227252
  50
-62.474824
  51
-3.800571
  0
LINE
  8
WHITE
  6
CONTINUOUS
  10
51.632411
  20
44.157615
  11
52.761575
  21
60.636519
  0
ARC
  8
WHITE
  6
CONTINUOUS
  10
49.974751
  20
60.825268
  40
2.793209
  50
-3.874673
  51
67.57419
  0
ARC
  8
WHITE
  6
CONTINUOUS
  10
53.004737
  20
68.109732
  40
5.09631
  50
-153.799492
  51
-112.672187
  0
LINE
  8
WHITE
  6
CONTINUOUS
  10
48.43205
  20
65.859641
  11
47.745291
  21
67.260501
  0
ARC
  8
WHITE
  6
CONTINUOUS
  10
46.537297
  20
66.672048
  40
1.343699
  50
25.972211
  51
180.4748
  0
LINE
  8
WHITE
  6
CONTINUOUS
  10
45.193644
  20
66.660913
  11
45.197179
  21
55.930005
  0
LINE
  8
WHITE
  6
CONTINUOUS
  10
312.45126
  20
52.711279
  11
305.584282
  21
52.711279
  0
ARC
  8
WHITE
  6
CONTINUOUS
  10
305.584282
  20
52.111723
  40
0.599556
  50
90.0
  51
180.0
  0
LINE
  8
WHITE
  6
CONTINUOUS
  10
304.984726
  20
52.111723
  11
304.984726
  21
51.811945
  0
ARC
  8
WHITE
  6
CONTINUOUS
  10
305.584282
  20
51.811945
  40
0.599556
  50
180.0
  51
270.0
  0
LINE
  8
WHITE
  6
CONTINUOUS
  10
305.584282
  20
51.212389
  11
312.359263
  21
51.213499
  0
ARC
  8
WHITE
  6
CONTINUOUS
  10
312.359263
  20
50.613944
  40
0.599556
  50
-1.9089
  51
90.0
  0
ARC
  8
WHITE
  6
CONTINUOUS
  10
265.013728
  20
51.963212
  40
47.964306
  50
-88.374395
  51
-1.635848
  0
ARC
  8
WHITE
  6
CONTINUOUS
  10
266.355564
  20
4.617767
  40
0.599853
  50
-179.917903
  51
-88.200896
  0
LINE
  8
WHITE
  6
CONTINUOUS
  10
265.755712
  20
4.616907
  11
265.763781
  21
11.391889
  0
ARC
  8
WHITE
  6
CONTINUOUS
  10
265.164225
  20
11.391889
  40
0.599556
  50
0.0
  51
90.00161
  0
LINE
  8
WHITE
  6
CONTINUOUS
  10
265.164208
  20
11.991444
  11
264.865558
  21
11.991444
  0
ARC
  8
WHITE
  6
CONTINUOUS
  10
264.864447
  20
11.39189
  40
0.599556
  50
89.893897
  51
180.000098
  0
LINE
  8
WHITE
  6
CONTINUOUS
  10
264.264891
  20
11.391889
  11
264.264891
  21
4.616907
  0
ARC
  8
WHITE
  6
CONTINUOUS
  10
263.665004
  20
4.616918
  40
0.599887
  50
-91.880173
  51
-0.001048
  0
ARC
  8
WHITE
  6
CONTINUOUS
  10
265.006237
  20
51.962846
  40
47.964803
  50
-178.36459
  51
-91.625882
  0
ARC
  8
WHITE
  6
CONTINUOUS
  10
217.661342
  20
50.612835
  40
0.600667
  50
90.183614
  51
181.800851
  0
LINE
  8
WHITE
  6
CONTINUOUS
  10
217.659417
  20
51.213499
  11
224.445501
  21
51.213499
  0
ARC
  8
WHITE
  6
CONTINUOUS
  10
224.444392
  20
51.813054
  40
0.599556
  50
-89.893995
  51
-0.106005
  0
LINE
  8
WHITE
  6
CONTINUOUS
  10
225.043947
  20
51.811945
  11
225.043947
  21
52.111723
  0
ARC
  8
WHITE
  6
CONTINUOUS
  10
224.444391
  20
52.111723
  40
0.599556
  50
0.0
  51
89.89477
  0
LINE
  8
WHITE
  6
CONTINUOUS
  10
224.445492
  20
52.711278
  11
217.659417
  21
52.711279
  0
ARC
  8
WHITE
  6
CONTINUOUS
  10
217.659417
  20
53.310835
  40
0.599556
  50
178.0876
  51
270.0
  0
ARC
  8
WHITE
  6
CONTINUOUS
  10
265.003564
  20
51.962922
  40
47.96288
  50
91.622729
  51
178.36568
  0
ARC
  8
WHITE
  6
CONTINUOUS
  10
263.664225
  20
99.307011
  40
0.599853
  50
-0.025027
  51
91.803849
  0
LINE
  8
WHITE
  6
CONTINUOUS
  10
264.264078
  20
99.306749
  11
264.264891
  21
92.531779
  0
ARC
  8
WHITE
  6
CONTINUOUS
  10
264.864447
  20
92.531778
  40
0.599556
  50
179.999902
  51
270.106103
  0
LINE
  8
WHITE
  6
CONTINUOUS
  10
264.865558
  20
91.932224
  11
265.164225
  21
91.932224
  0
ARC
  8
WHITE
  6
CONTINUOUS
  10
265.164214
  20
92.531791
  40
0.599567
  50
-89.998939
  51
-0.001061
  0
LINE
  8
WHITE
  6
CONTINUOUS
  10
265.763781
  20
92.531779
  11
265.763781
  21
99.306749
  0
ARC
  8
WHITE
  6
CONTINUOUS
  10
266.363337
  20
99.306749
  40
0.599556
  50
88.93967
  51
180.0
  0
ARC
  8
WHITE
  6
CONTINUOUS
  10
265.006572
  20
51.962836
  40
47.962875
  50
1.850494
  51
88.365752
  0
ARC
  8
WHITE
  6
CONTINUOUS
  10
297.107602
  20
52.999037
  40
15.845126
  50
0.792497
  51
1.85387
  0
ARC
  8
WHITE
  6
CONTINUOUS
  10
312.45126
  20
53.211279
  40
0.5
  50
-90.0
  51
0.792497
  0
ARC
  8
WHITE
  6
CONTINUOUS
  10
265.014339
  20
51.963197
  40
34.473098
  50
90.000015
  51
448.669375
  0
ARC
  8
WHITE
  6
CONTINUOUS
  10
265.502886
  20
99.269773
  40
12.842774
  50
-92.180132
  51
-90.0
  0
LINE
  8
WHITE
  6
CONTINUOUS
  10
265.502886
  20
86.426999
  11
265.814863
  21
86.426999
  0
LINE
  8
WHITE
  6
CONTINUOUS
  10
250.205307
  20
31.867831
  11
242.33114
  21
31.867831
  0
ARC
  8
WHITE
  6
CONTINUOUS
  10
242.33114
  20
33.36561
  40
1.497779
  50
-175.0136
  51
-90.0
  0
LINE
  8
WHITE
  6
CONTINUOUS
  10
240.839029
  20
33.235424
  11
239.743057
  21
45.63652
  0
ARC
  8
WHITE
  6
CONTINUOUS
  10
242.230104
  20
45.855247
  40
2.496646
  50
89.94912
  51
185.026028
  0
ARC
  8
WHITE
  6
CONTINUOUS
  10
242.990104
  20
30.986283
  40
17.382134
  50
76.909576
  51
92.498631
  0
ARC
  8
WHITE
  6
CONTINUOUS
  10
247.024124
  20
48.416175
  40
0.508816
  50
-101.009157
  51
-64.157198
  0
ARC
  8
WHITE
  6
CONTINUOUS
  10
251.444793
  20
38.667134
  40
10.195845
  50
65.633743
  51
114.319343
  0
ARC
  8
WHITE
  6
CONTINUOUS
  10
255.856204
  20
48.41617
  40
0.504833
  50
-113.949917
  51
-76.723927
  0
ARC
  8
WHITE
  6
CONTINUOUS
  10
259.888414
  20
30.99872
  40
17.373266
  50
87.429583
  51
103.027566
  0
ARC
  8
WHITE
  6
CONTINUOUS
  10
260.667583
  20
45.856657
  40
2.49785
  50
-5.05607
  51
90.000618
  0
LINE
  8
WHITE
  6
CONTINUOUS
  10
263.155713
  20
45.63652
  11
262.06763
  21
33.235706
  0
ARC
  8
WHITE
  6
CONTINUOUS
  10
260.576474
  20
33.364521
  40
1.49671
  50
-90.296027
  51
-4.937282
  0
LINE
  8
WHITE
  6
CONTINUOUS
  10
260.568741
  20
31.867831
  11
252.703456
  21
31.867831
  0
ARC
  8
WHITE
  6
CONTINUOUS
  10
252.703455
  20
32.367461
  40
0.49963
  50
-179.872676
  51
-89.999859
  0
LINE
  8
WHITE
  6
CONTINUOUS
  10
252.203826
  20
32.36635
  11
252.203826
  21
37.362649
  0
ARC
  8
WHITE
  6
CONTINUOUS
  10
251.705308
  20
37.363761
  40
0.49852
  50
-0.12775
  51
90.12775
  0
LINE
  8
WHITE
  6
CONTINUOUS
  10
251.704197
  20
37.862279
  11
251.204567
  21
37.862279
  0
ARC
  8
WHITE
  6
CONTINUOUS
  10
251.203455
  20
37.363761
  40
0.49852
  50
89.87225
  51
180.12775
  0
LINE
  8
WHITE
  6
CONTINUOUS
  10
250.704937
  20
37.362649
  11
250.704937
  21
32.36635
  0
ARC
  8
WHITE
  6
CONTINUOUS
  10
250.206417
  20
32.36635
  40
0.49852
  50
-90.127607
  51
0.0
  0
LINE
  8
WHITE
  6
CONTINUOUS
  10
278.325586
  20
32.55621
  11
270.450309
  21
32.55621
  0
ARC
  8
WHITE
  6
CONTINUOUS
  10
270.450309
  20
34.053989
  40
1.497779
  50
-175.095
  51
-90.0
  0
LINE
  8
WHITE
  6
CONTINUOUS
  10
268.958015
  20
33.925923
  11
267.862227
  21
46.326009
  0
ARC
  8
WHITE
  6
CONTINUOUS
  10
270.349273
  20
46.544736
  40
2.496646
  50
89.97475
  51
185.026028
  0
ARC
  8
WHITE
  6
CONTINUOUS
  10
271.103038
  20
31.676965
  40
17.380722
  50
76.884759
  51
92.481944
  0
ARC
  8
WHITE
  6
CONTINUOUS
  10
275.155712
  20
49.092848
  40
0.500498
  50
-102.5564
  51
-65.2967
  0
ARC
  8
WHITE
  6
CONTINUOUS
  10
279.568401
  20
39.344627
  40
10.199962
  50
65.609969
  51
114.337539
  0
ARC
  8
WHITE
  6
CONTINUOUS
  10
283.984981
  20
49.095837
  40
0.504833
  50
-113.90216
  51
-76.808532
  0
ARC
  8
WHITE
  6
CONTINUOUS
  10
288.047273
  20
31.676861
  40
17.381557
  50
87.52909
  51
103.1255
  0
ARC
  8
WHITE
  6
CONTINUOUS
  10
288.796591
  20
46.544408
  40
2.49785
  50
-5.016048
  51
89.999126
  0
LINE
  8
WHITE
  6
CONTINUOUS
  10
291.284875
  20
46.326009
  11
290.185689
  21
33.926306
  0
ARC
  8
WHITE
  6
CONTINUOUS
  10
288.692342
  20
34.055093
  40
1.49889
  50
-89.829899
  51
-4.929032
  0
LINE
  8
WHITE
  6
CONTINUOUS
  10
288.696792
  20
32.55621
  11
280.822625
  21
32.55621
  0
ARC
  8
WHITE
  6
CONTINUOUS
  10
280.822625
  20
33.054729
  40
0.49852
  50
179.8725
  51
270.0
  0
LINE
  8
WHITE
  6
CONTINUOUS
  10
280.324107
  20
33.055839
  11
280.324106
  21
38.052138
  0
ARC
  8
WHITE
  6
CONTINUOUS
  10
279.825586
  20
38.052138
  40
0.49852
  50
0.0
  51
90.25645
  0
LINE
  8
WHITE
  6
CONTINUOUS
  10
279.823355
  20
38.550653
  11
279.323736
  21
38.551768
  0
ARC
  8
WHITE
  6
CONTINUOUS
  10
279.322624
  20
38.05325
  40
0.49852
  50
89.87225
  51
180.12775
  0
LINE
  8
WHITE
  6
CONTINUOUS
  10
278.824106
  20
38.052138
  11
278.824106
  21
33.05584
  0
ARC
  8
WHITE
  6
CONTINUOUS
  10
278.324476
  20
33.055838
  40
0.49963
  50
-89.872676
  51
0.000141
  0
LINE
  8
WHITE
  6
CONTINUOUS
  10
256.460673
  20
69.898546
  11
256.460673
  21
57.957392
  0
ARC
  8
WHITE
  6
CONTINUOUS
  10
251.214559
  20
57.957393
  40
5.246114
  50
-90.0
  51
0.0
  0
ARC
  8
WHITE
  6
CONTINUOUS
  10
251.21456
  20
53.21091
  40
0.499631
  50
-179.999858
  51
-90.000141
  0
LINE
  8
WHITE
  6
CONTINUOUS
  10
250.714929
  20
53.210909
  11
250.714929
  21
60.205727
  0
ARC
  8
WHITE
  6
CONTINUOUS
  10
250.21641
  20
60.205727
  40
0.49852
  50
0.0
  51
90.12823
  0
LINE
  8
WHITE
  6
CONTINUOUS
  10
250.215294
  20
60.704245
  11
249.71567
  21
60.705357
  0
ARC
  8
WHITE
  6
CONTINUOUS
  10
249.714558
  20
60.206838
  40
0.49852
  50
89.87225
  51
180.12775
  0
LINE
  8
WHITE
  6
CONTINUOUS
  10
249.21604
  20
60.205727
  11
249.21604
  21
53.210909
  0
ARC
  8
WHITE
  6
CONTINUOUS
  10
248.716409
  20
53.21091
  40
0.499631
  50
-89.999858
  51
-0.000142
  0
ARC
  8
WHITE
  6
CONTINUOUS
  10
248.71641
  20
57.957393
  40
5.246114
  50
180.0
  51
269.999999
  0
LINE
  8
WHITE
  6
CONTINUOUS
  10
243.470296
  20
57.957392
  11
243.470296
  21
73.196103
  0
ARC
  8
WHITE
  6
CONTINUOUS
  10
247.965855
  20
73.196103
  40
4.495559
  50
41.64647
  51
180.0
  0
ARC
  8
WHITE
  6
CONTINUOUS
  10
252.603187
  20
77.322322
  40
1.711738
  50
-138.296713
  51
-43.298809
  0
ARC
  8
WHITE
  6
CONTINUOUS
  10
257.45705
  20
72.703329
  40
4.988669
  50
61.881513
  51
136.323932
  0
ARC
  8
WHITE
  6
CONTINUOUS
  10
260.408667
  20
78.230774
  40
1.277486
  50
-118.037153
  51
-89.593011
  0
LINE
  8
WHITE
  6
CONTINUOUS
  10
260.417741
  20
76.95332
  11
265.334099
  21
77.552876
  0
ARC
  8
WHITE
  6
CONTINUOUS
  10
265.4529
  20
76.564719
  40
0.995273
  50
0.0
  51
96.855466
  0
LINE
  8
WHITE
  6
CONTINUOUS
  10
266.448173
  20
76.564719
  11
266.45327
  21
74.195363
  0
ARC
  8
WHITE
  6
CONTINUOUS
  10
262.955861
  20
74.195363
  40
3.497409
  50
-90.0
  51
0.0
  0
LINE
  8
WHITE
  6
CONTINUOUS
  10
262.955861
  20
70.697954
  11
257.261191
  21
70.697943
  0
ARC
  8
WHITE
  6
CONTINUOUS
  10
257.25897
  20
69.899649
  40
0.798298
  50
89.840579
  51
180.079113
  0
LINE
  8
WHITE
  6
CONTINUOUS
  10
273.318185
  20
72.417791
  11
273.318185
  21
60.475527
  0
ARC
  8
WHITE
  6
CONTINUOUS
  10
272.519887
  20
60.475527
  40
0.798298
  50
-90.0803
  51
0.0
  0
LINE
  8
WHITE
  6
CONTINUOUS
  10
272.518768
  20
59.67723
  11
266.822996
  21
59.677229
  0
ARC
  8
WHITE
  6
CONTINUOUS
  10
266.821886
  20
56.180931
  40
3.496299
  50
89.981802
  51
180.018198
  0
LINE
  8
WHITE
  6
CONTINUOUS
  10
263.325587
  20
56.17982
  11
263.325587
  21
53.810465
  0
ARC
  8
WHITE
  6
CONTINUOUS
  10
264.323736
  20
53.811983
  40
0.998149
  50
-179.912845
  51
-83.035925
  0
LINE
  8
WHITE
  6
CONTINUOUS
  10
264.444758
  20
52.821197
  11
269.372219
  21
53.420742
  0
ARC
  8
WHITE
  6
CONTINUOUS
  10
269.370399
  20
52.143767
  40
1.276976
  50
61.961261
  51
89.918335
  0
ARC
  8
WHITE
  6
CONTINUOUS
  10
272.315924
  20
57.677496
  40
4.991858
  50
-118.022416
  51
-43.677065
  0
ARC
  8
WHITE
  6
CONTINUOUS
  10
277.164224
  20
53.042145
  40
1.715791
  50
41.63979
  51
136.1798
  0
ARC
  8
WHITE
  6
CONTINUOUS
  10
281.799878
  20
57.190307
  40
4.504875
  50
-138.106657
  51
-0.142794
  0
LINE
  8
WHITE
  6
CONTINUOUS
  10
286.304739
  20
57.17908
  11
286.308561
  21
72.417791
  0
ARC
  8
WHITE
  6
CONTINUOUS
  10
281.063558
  20
72.417791
  40
5.245003
  50
0.0
  51
90.01213
  0
ARC
  8
WHITE
  6
CONTINUOUS
  10
281.061337
  20
77.164276
  40
0.49852
  50
89.872402
  51
180.000142
  0
LINE
  8
WHITE
  6
CONTINUOUS
  10
280.562818
  20
77.164275
  11
280.562818
  21
70.168346
  0
ARC
  8
WHITE
  6
CONTINUOUS
  10
280.064298
  20
70.168346
  40
0.49852
  50
-90.1285
  51
0.0
  0
LINE
  8
WHITE
  6
CONTINUOUS
  10
280.06318
  20
69.669828
  11
279.563558
  21
69.669827
  0
ARC
  8
WHITE
  6
CONTINUOUS
  10
279.563557
  20
70.169457
  40
0.49963
  50
-179.872676
  51
-89.999858
  0
LINE
  8
WHITE
  6
CONTINUOUS
  10
279.063928
  20
70.168346
  11
279.063928
  21
77.164275
  0
ARC
  8
WHITE
  6
CONTINUOUS
  10
278.565409
  20
77.164275
  40
0.49852
  50
0.0
  51
90.127712
  0
ARC
  8
WHITE
  6
CONTINUOUS
  10
278.563188
  20
72.417791
  40
5.245003
  50
89.987881
  51
180.000001
  0
ARC
  8
WHITE
  6
CONTINUOUS
  10
164.468821
  20
99.306749
  40
0.599556
  50
87.98355
  51
180.0
  0
LINE
  8
WHITE
  6
CONTINUOUS
  10
163.869265
  20
99.306749
  11
163.869265
  21
92.531779
  0
ARC
  8
WHITE
  6
CONTINUOUS
  10
163.269698
  20
92.531791
  40
0.599567
  50
-89.998939
  51
-0.001061
  0
LINE
  8
WHITE
  6
CONTINUOUS
  10
163.26971
  20
91.932224
  11
162.969932
  21
91.932224
  0
ARC
  8
WHITE
  6
CONTINUOUS
  10
162.969932
  20
92.531779
  40
0.599556
  50
180.0
  51
270.0
  0
LINE
  8
WHITE
  6
CONTINUOUS
  10
162.370376
  20
92.531779
  11
162.370376
  21
99.30676
  0
ARC
  8
WHITE
  6
CONTINUOUS
  10
161.780908
  20
99.317372
  40
0.589563
  50
-1.031335
  51
91.844927
  0
ARC
  8
WHITE
  6
CONTINUOUS
  10
163.11871
  20
51.962944
  40
47.96288
  50
91.62101
  51
178.3658
  0
ARC
  8
WHITE
  6
CONTINUOUS
  10
115.77605
  20
53.312275
  40
0.600997
  50
178.237086
  51
269.995608
  0
LINE
  8
WHITE
  6
CONTINUOUS
  10
115.776004
  20
52.711279
  11
122.549875
  21
52.711279
  0
ARC
  8
WHITE
  6
CONTINUOUS
  10
122.549875
  20
52.111723
  40
0.599556
  50
0.0
  51
90.00001
  0
LINE
  8
WHITE
  6
CONTINUOUS
  10
123.149431
  20
52.111723
  11
123.14943
  21
51.811942
  0
ARC
  8
WHITE
  6
CONTINUOUS
  10
122.549875
  20
51.813055
  40
0.599556
  50
-90.0
  51
-0.1064
  0
LINE
  8
WHITE
  6
CONTINUOUS
  10
122.549875
  20
51.213499
  11
115.776002
  21
51.212685
  0
ARC
  8
WHITE
  6
CONTINUOUS
  10
115.774894
  20
50.612833
  40
0.599853
  50
89.89416
  51
181.8031
  0
ARC
  8
WHITE
  6
CONTINUOUS
  10
163.1187
  20
51.961008
  40
47.962848
  50
-178.366721
  51
-91.62102
  0
ARC
  8
WHITE
  6
CONTINUOUS
  10
161.770756
  20
4.616908
  40
0.59962
  50
-90.845367
  51
-0.00009
  0
LINE
  8
WHITE
  6
CONTINUOUS
  10
162.370376
  20
4.616907
  11
162.370376
  21
11.391889
  0
ARC
  8
WHITE
  6
CONTINUOUS
  10
162.969932
  20
11.391889
  40
0.599556
  50
90.0
  51
180.0
  0
LINE
  8
WHITE
  6
CONTINUOUS
  10
162.969932
  20
11.991444
  11
163.269709
  21
11.991444
  0
ARC
  8
WHITE
  6
CONTINUOUS
  10
163.26971
  20
11.391889
  40
0.599556
  50
0.0
  51
90.00001
  0
LINE
  8
WHITE
  6
CONTINUOUS
  10
163.869265
  20
11.391889
  11
163.869265
  21
4.616907
  0
ARC
  8
WHITE
  6
CONTINUOUS
  10
164.471039
  20
4.618832
  40
0.601776
  50
-179.816773
  51
-88.202273
  0
ARC
  8
WHITE
  6
CONTINUOUS
  10
163.118645
  20
51.962942
  40
47.965196
  50
-88.361754
  51
-1.635446
  0
ARC
  8
WHITE
  6
CONTINUOUS
  10
210.476313
  20
50.624709
  40
0.58879
  50
-2.988359
  51
90.045082
  0
LINE
  8
WHITE
  6
CONTINUOUS
  10
210.47585
  20
51.213499
  11
203.689766
  21
51.213499
  0
ARC
  8
WHITE
  6
CONTINUOUS
  10
203.689765
  20
51.813055
  40
0.599556
  50
-179.893897
  51
-89.999902
  0
LINE
  8
WHITE
  6
CONTINUOUS
  10
203.09021
  20
51.811945
  11
203.09021
  21
52.111723
  0
ARC
  8
WHITE
  6
CONTINUOUS
  10
203.689766
  20
52.111723
  40
0.599556
  50
90.0
  51
180.0
  0
LINE
  8
WHITE
  6
CONTINUOUS
  10
203.689766
  20
52.711279
  11
210.56679
  21
52.711279
  0
ARC
  8
WHITE
  6
CONTINUOUS
  10
210.56679
  20
53.211279
  40
0.5
  50
-90.0
  51
0.817155
  0
ARC
  8
WHITE
  6
CONTINUOUS
  10
194.805409
  20
52.986474
  40
16.262984
  50
0.817156
  51
1.850504
  0
ARC
  8
WHITE
  6
CONTINUOUS
  10
163.118764
  20
51.959262
  40
47.966274
  50
1.854635
  51
88.361932
  0
LINE
  8
WHITE
  6
CONTINUOUS
  10
163.619977
  20
86.425926
  11
163.919223
  21
86.425926
  0
ARC
  8
WHITE
  6
CONTINUOUS
  10
163.034199
  20
51.962838
  40
34.47445
  50
-89.857698
  51
88.528948
  0
ARC
  8
WHITE
  6
CONTINUOUS
  10
162.925482
  20
51.962395
  40
34.474448
  50
89.677022
  51
270.322988
  0
ARC
  8
WHITE
  6
CONTINUOUS
  10
163.619977
  20
98.493986
  40
12.06806
  50
-92.37531
  51
-90.0
  0
LINE
  8
WHITE
  6
CONTINUOUS
  10
170.854091
  20
75.945178
  11
158.123522
  21
75.945178
  0
ARC
  8
WHITE
  6
CONTINUOUS
  10
158.123522
  20
70.948879
  40
4.996299
  50
90.0
  51
180.0
  0
LINE
  8
WHITE
  6
CONTINUOUS
  10
153.127223
  20
70.948879
  11
153.127223
  21
60.205727
  0
ARC
  8
WHITE
  6
CONTINUOUS
  10
157.372967
  20
60.204616
  40
4.245744
  50
179.985015
  51
270.014985
  0
LINE
  8
WHITE
  6
CONTINUOUS
  10
157.374077
  20
55.958873
  11
157.623892
  21
55.958873
  0
ARC
  8
WHITE
  6
CONTINUOUS
  10
157.623892
  20
56.457393
  40
0.49852
  50
-90.0
  51
0.127235
  0
LINE
  8
WHITE
  6
CONTINUOUS
  10
158.12241
  20
56.4585
  11
158.123522
  21
65.45184
  0
ARC
  8
WHITE
  6
CONTINUOUS
  10
158.622041
  20
65.45184
  40
0.49852
  50
89.87207
  51
180.0
  0
LINE
  8
WHITE
  6
CONTINUOUS
  10
158.623155
  20
65.950359
  11
159.122782
  21
65.952581
  0
ARC
  8
WHITE
  6
CONTINUOUS
  10
159.122782
  20
65.454061
  40
0.49852
  50
-0.2554
  51
90.0
  0
LINE
  8
WHITE
  6
CONTINUOUS
  10
159.621296
  20
65.451839
  11
159.622411
  21
56.458503
  0
ARC
  8
WHITE
  6
CONTINUOUS
  10
160.120931
  20
56.458503
  40
0.49852
  50
180.0
  51
270.1263
  0
LINE
  8
WHITE
  6
CONTINUOUS
  10
160.12203
  20
55.959984
  11
168.116119
  21
55.958873
  0
ARC
  8
WHITE
  6
CONTINUOUS
  10
168.116119
  20
60.955172
  40
4.996299
  50
-90.0
  51
0.0
  0
LINE
  8
WHITE
  6
CONTINUOUS
  10
173.112418
  20
60.955172
  11
173.112418
  21
73.675748
  0
ARC
  8
WHITE
  6
CONTINUOUS
  10
172.613919
  20
73.680251
  40
0.49852
  50
-0.517524
  51
134.555498
  0
LINE
  8
WHITE
  6
CONTINUOUS
  10
172.264157
  20
74.035482
  11
169.055423
  21
70.817865
  0
ARC
  8
WHITE
  6
CONTINUOUS
  10
168.701241
  20
71.172134
  40
0.500951
  50
-134.992964
  51
-45.007036
  0
LINE
  8
WHITE
  6
CONTINUOUS
  10
168.347059
  20
70.817865
  11
167.996208
  21
71.177599
  0
ARC
  8
WHITE
  6
CONTINUOUS
  10
168.346501
  20
71.527895
  40
0.495391
  50
134.999735
  51
225.000265
  0
LINE
  8
WHITE
  6
CONTINUOUS
  10
167.996208
  20
71.878191
  11
171.204942
  21
75.095807
  0
ARC
  8
WHITE
  6
CONTINUOUS
  10
170.864278
  20
75.452237
  40
0.493046
  50
-46.295622
  51
91.18391
  0
LINE
  8
WHITE
  6
CONTINUOUS
  10
168.116119
  20
27.980711
  11
160.122041
  21
27.980711
  0
ARC
  8
WHITE
  6
CONTINUOUS
  10
160.12204
  20
28.48034
  40
0.49963
  50
-179.872676
  51
-89.999859
  0
LINE
  8
WHITE
  6
CONTINUOUS
  10
159.622411
  20
28.47923
  11
159.622411
  21
37.473678
  0
ARC
  8
WHITE
  6
CONTINUOUS
  10
159.123893
  20
37.47479
  40
0.49852
  50
-0.12775
  51
90.12775
  0
LINE
  8
WHITE
  6
CONTINUOUS
  10
159.122782
  20
37.973308
  11
158.623152
  21
37.973308
  0
ARC
  8
WHITE
  6
CONTINUOUS
  10
158.62204
  20
37.47479
  40
0.49852
  50
89.87225
  51
180.12775
  0
LINE
  8
WHITE
  6
CONTINUOUS
  10
158.123522
  20
37.473678
  11
158.123522
  21
28.47923
  0
ARC
  8
WHITE
  6
CONTINUOUS
  10
157.625002
  20
28.47923
  40
0.49852
  50
-90.127607
  51
0.0
  0
LINE
  8
WHITE
  6
CONTINUOUS
  10
157.623892
  20
27.980711
  11
157.374077
  21
27.980711
  0
ARC
  8
WHITE
  6
CONTINUOUS
  10
157.374077
  20
32.227564
  40
4.246854
  50
-179.985021
  51
-89.999998
  0
LINE
  8
WHITE
  6
CONTINUOUS
  10
153.127223
  20
32.226454
  11
153.127223
  21
42.968496
  0
ARC
  8
WHITE
  6
CONTINUOUS
  10
158.123522
  20
42.968496
  40
4.996299
  50
90.00001
  51
180.0
  0
LINE
  8
WHITE
  6
CONTINUOUS
  10
158.123521
  20
47.964795
  11
170.854091
  21
47.964795
  0
ARC
  8
WHITE
  6
CONTINUOUS
  10
170.856453
  20
47.468622
  40
0.496179
  50
-45.384518
  51
90.272807
  0
LINE
  8
WHITE
  6
CONTINUOUS
  10
171.204942
  20
47.115424
  11
167.996208
  21
43.897808
  0
ARC
  8
WHITE
  6
CONTINUOUS
  10
168.343725
  20
43.548067
  40
0.493038
  50
134.817238
  51
225.182762
  0
LINE
  8
WHITE
  6
CONTINUOUS
  10
167.996208
  20
43.198326
  11
168.347059
  21
42.838593
  0
ARC
  8
WHITE
  6
CONTINUOUS
  10
168.69569
  20
43.187223
  40
0.493038
  50
-135.0
  51
-44.1015
  0
LINE
  8
WHITE
  6
CONTINUOUS
  10
169.049745
  20
42.844102
  11
172.264157
  21
46.056209
  0
ARC
  8
WHITE
  6
CONTINUOUS
  10
172.612788
  20
45.707578
  40
0.493038
  50
-1.2733
  51
135.0
  0
LINE
  8
WHITE
  6
CONTINUOUS
  10
173.105705
  20
45.696622
  11
173.112418
  21
32.977009
  0
ARC
  8
WHITE
  6
CONTINUOUS
  10
168.116119
  20
32.977009
  40
4.996299
  50
-90.0
  51
0.0
  0
LINE
  8
WHITE
  6
CONTINUOUS
  10
134.139134
  20
45.636273
  11
134.139238
  21
59.126526
  0
ARC
  8
WHITE
  6
CONTINUOUS
  10
140.384611
  20
59.126526
  40
6.245373
  50
89.99999
  51
180.0
  0
ARC
  8
WHITE
  6
CONTINUOUS
  10
140.385723
  20
64.873381
  40
0.49852
  50
-0.12775
  51
90.127625
  0
LINE
  8
WHITE
  6
CONTINUOUS
  10
140.884241
  20
64.87227
  11
140.884241
  21
58.876711
  0
ARC
  8
WHITE
  6
CONTINUOUS
  10
141.383871
  20
58.87671
  40
0.49963
  50
179.999858
  51
269.872676
  0
LINE
  8
WHITE
  6
CONTINUOUS
  10
141.382761
  20
58.377082
  11
141.883501
  21
58.377082
  0
ARC
  8
WHITE
  6
CONTINUOUS
  10
141.883499
  20
58.876713
  40
0.499631
  50
-89.999859
  51
-0.000141
  0
LINE
  8
WHITE
  6
CONTINUOUS
  10
142.383131
  20
58.876711
  11
142.383131
  21
64.87227
  0
ARC
  8
WHITE
  6
CONTINUOUS
  10
142.881649
  20
64.873381
  40
0.49852
  50
89.872125
  51
180.12775
  0
ARC
  8
WHITE
  6
CONTINUOUS
  10
142.88276
  20
59.126526
  40
6.245373
  50
0.0
  51
89.99999
  0
LINE
  8
WHITE
  6
CONTINUOUS
  10
149.128134
  20
59.126526
  11
149.12803
  21
45.636273
  0
ARC
  8
WHITE
  6
CONTINUOUS
  10
142.882657
  20
45.636273
  40
6.245373
  50
-90.00001
  51
0.0
  0
ARC
  8
WHITE
  6
CONTINUOUS
  10
142.881545
  20
39.889418
  40
0.49852
  50
179.87225
  51
270.127625
  0
LINE
  8
WHITE
  6
CONTINUOUS
  10
142.383027
  20
39.89053
  11
142.383027
  21
45.886088
  0
ARC
  8
WHITE
  6
CONTINUOUS
  10
141.883397
  20
45.886089
  40
0.49963
  50
-0.000142
  51
89.872676
  0
LINE
  8
WHITE
  6
CONTINUOUS
  10
141.884507
  20
46.385718
  11
141.383767
  21
46.385718
  0
ARC
  8
WHITE
  6
CONTINUOUS
  10
141.383768
  20
45.886087
  40
0.499631
  50
90.000141
  51
179.999859
  0
LINE
  8
WHITE
  6
CONTINUOUS
  10
140.884137
  20
45.886088
  11
140.884137
  21
39.89053
  0
ARC
  8
WHITE
  6
CONTINUOUS
  10
140.385619
  20
39.889418
  40
0.49852
  50
-90.127875
  51
0.12775
  0
ARC
  8
WHITE
  6
CONTINUOUS
  10
140.384507
  20
45.636273
  40
6.245373
  50
180.0
  51
269.99999
  0
LINE
  8
WHITE
  6
CONTINUOUS
  10
178.038768
  20
45.636273
  11
178.038872
  21
59.126526
  0
ARC
  8
WHITE
  6
CONTINUOUS
  10
184.284246
  20
59.126526
  40
6.245373
  50
89.99999
  51
180.0
  0
ARC
  8
WHITE
  6
CONTINUOUS
  10
184.285357
  20
64.873381
  40
0.49852
  50
-0.12775
  51
90.127625
  0
LINE
  8
WHITE
  6
CONTINUOUS
  10
184.783876
  20
64.87227
  11
184.783876
  21
58.876711
  0
ARC
  8
WHITE
  6
CONTINUOUS
  10
185.283506
  20
58.87671
  40
0.49963
  50
179.999858
  51
269.872676
  0
LINE
  8
WHITE
  6
CONTINUOUS
  10
185.282395
  20
58.377082
  11
185.783135
  21
58.377082
  0
ARC
  8
WHITE
  6
CONTINUOUS
  10
185.783134
  20
58.876713
  40
0.499631
  50
-89.999859
  51
-0.000141
  0
LINE
  8
WHITE
  6
CONTINUOUS
  10
186.282765
  20
58.876711
  11
186.282765
  21
64.87227
  0
ARC
  8
WHITE
  6
CONTINUOUS
  10
186.781284
  20
64.873381
  40
0.49852
  50
89.872125
  51
180.12775
  0
ARC
  8
WHITE
  6
CONTINUOUS
  10
186.782395
  20
59.126526
  40
6.245373
  50
0.0
  51
89.99999
  0
LINE
  8
WHITE
  6
CONTINUOUS
  10
193.027768
  20
59.126526
  11
193.027665
  21
45.636273
  0
ARC
  8
WHITE
  6
CONTINUOUS
  10
186.782291
  20
45.636273
  40
6.245373
  50
-90.00001
  51
0.0
  0
ARC
  8
WHITE
  6
CONTINUOUS
  10
186.78118
  20
39.889418
  40
0.49852
  50
179.87225
  51
270.127625
  0
LINE
  8
WHITE
  6
CONTINUOUS
  10
186.282661
  20
39.89053
  11
186.282661
  21
45.886088
  0
ARC
  8
WHITE
  6
CONTINUOUS
  10
185.783031
  20
45.886089
  40
0.49963
  50
-0.000142
  51
89.872676
  0
LINE
  8
WHITE
  6
CONTINUOUS
  10
185.784142
  20
46.385718
  11
185.283402
  21
46.385718
  0
ARC
  8
WHITE
  6
CONTINUOUS
  10
185.283403
  20
45.886087
  40
0.499631
  50
90.000141
  51
179.999859
  0
LINE
  8
WHITE
  6
CONTINUOUS
  10
184.783772
  20
45.886088
  11
184.783772
  21
39.89053
  0
ARC
  8
WHITE
  6
CONTINUOUS
  10
184.285253
  20
39.889418
  40
0.49852
  50
-90.127875
  51
0.12775
  0
ARC
  8
WHITE
  6
CONTINUOUS
  10
184.284142
  20
45.636273
  40
6.245373
  50
180.0
  51
269.99999
  0
LINE
  8
WHITE
  6
CONTINUOUS
  10
349.382206
  20
174.121337
  11
339.20049
  21
174.121337
  0
ARC
  8
WHITE
  6
CONTINUOUS
  10
339.200374
  20
174.6218
  40
0.500463
  50
-176.470351
  51
-89.98671
  0
LINE
  8
WHITE
  6
CONTINUOUS
  10
338.70086
  20
174.590989
  11
337.781541
  21
192.577665
  0
ARC
  8
WHITE
  6
CONTINUOUS
  10
337.282559
  20
192.558381
  40
0.499355
  50
2.21314
  51
92.36808
  0
LINE
  8
WHITE
  6
CONTINUOUS
  10
337.261926
  20
193.057309
  11
336.762296
  21
193.027331
  0
ARC
  8
WHITE
  6
CONTINUOUS
  10
336.791163
  20
192.528812
  40
0.499355
  50
93.314095
  51
182.4227
  0
LINE
  8
WHITE
  6
CONTINUOUS
  10
336.292255
  20
192.507703
  11
337.20197
  21
174.642063
  0
ARC
  8
WHITE
  6
CONTINUOUS
  10
336.703451
  20
174.613195
  40
0.499355
  50
-90.1302
  51
3.314095
  0
LINE
  8
WHITE
  6
CONTINUOUS
  10
336.702316
  20
174.113842
  11
334.12314
  21
174.121337
  0
ARC
  8
WHITE
  6
CONTINUOUS
  10
334.122961
  20
176.122298
  40
2.000961
  50
-177.067518
  51
-89.994881
  0
LINE
  8
WHITE
  6
CONTINUOUS
  10
332.12462
  20
176.019931
  11
329.746382
  21
222.585435
  0
ARC
  8
WHITE
  6
CONTINUOUS
  10
330.744532
  20
222.634287
  40
0.999344
  50
129.1989
  51
182.802007
  0
ARC
  8
WHITE
  6
CONTINUOUS
  10
351.580573
  20
196.758131
  40
34.221548
  50
127.063259
  51
128.8522
  0
ARC
  8
WHITE
  6
CONTINUOUS
  10
330.348642
  20
224.863851
  40
1.002403
  50
-52.751539
  51
34.614503
  0
LINE
  8
WHITE
  6
CONTINUOUS
  10
331.173612
  20
225.433268
  11
310.471772
  21
255.302309
  0
ARC
  8
WHITE
  6
CONTINUOUS
  10
314.987316
  20
258.428881
  40
5.492321
  50
47.27594
  51
214.698816
  0
ARC
  8
WHITE
  6
CONTINUOUS
  10
318.982191
  20
262.757591
  40
0.398079
  50
-132.416449
  51
5.54488
  0
ARC
  8
WHITE
  6
CONTINUOUS
  10
324.852367
  20
263.266013
  40
5.494095
  50
38.441533
  51
184.907008
  0
ARC
  8
WHITE
  6
CONTINUOUS
  10
329.464022
  20
266.933269
  40
0.397976
  50
-140.807874
  51
-4.362749
  0
ARC
  8
WHITE
  6
CONTINUOUS
  10
335.338932
  20
266.554164
  40
5.489182
  50
29.664227
  51
176.356472
  0
ARC
  8
WHITE
  6
CONTINUOUS
  10
340.456024
  20
269.471876
  40
0.4013
  50
-149.937946
  51
-11.499943
  0
ARC
  8
WHITE
  6
CONTINUOUS
  10
346.207525
  20
268.221185
  40
5.484653
  50
20.926908
  51
167.67555
  0
ARC
  8
WHITE
  6
CONTINUOUS
  10
351.700119
  20
270.320072
  40
0.395308
  50
-159.2744
  51
-20.1724
  0
ARC
  8
WHITE
  6
CONTINUOUS
  10
357.20275
  20
268.211491
  40
5.49753
  50
12.398571
  51
158.976305
  0
ARC
  8
WHITE
  6
CONTINUOUS
  10
362.960666
  20
269.481804
  40
0.398872
  50
-166.9695
  51
-31.7553
  0
ARC
  8
WHITE
  6
CONTINUOUS
  10
368.066644
  20
266.537561
  40
5.495366
  50
3.805957
  51
150.160746
  0
ARC
  8
WHITE
  6
CONTINUOUS
  10
373.951973
  20
266.938267
  40
0.403686
  50
-174.892724
  51
-39.266052
  0
ARC
  8
WHITE
  6
CONTINUOUS
  10
378.56157
  20
263.259261
  40
5.494095
  50
-4.82899
  51
141.455351
  0
ARC
  8
WHITE
  6
CONTINUOUS
  10
384.434757
  20
262.767889
  40
0.399638
  50
175.8577
  51
311.8922
  0
ARC
  8
WHITE
  6
CONTINUOUS
  10
388.448067
  20
258.453363
  40
5.492952
  50
-34.992238
  51
133.003913
  0
LINE
  8
WHITE
  6
CONTINUOUS
  10
392.948056
  20
255.303345
  11
372.244899
  21
225.434435
  0
ARC
  8
WHITE
  6
CONTINUOUS
  10
373.060889
  20
224.862682
  40
0.996364
  50
144.981579
  51
233.250155
  0
ARC
  8
WHITE
  6
CONTINUOUS
  10
351.585714
  20
196.956319
  40
34.216642
  50
50.621534
  51
52.395965
  0
ARC
  8
WHITE
  6
CONTINUOUS
  10
372.665711
  20
222.626813
  40
1.000104
  50
-2.371214
  51
51.071807
  0
LINE
  8
WHITE
  6
CONTINUOUS
  10
373.664958
  20
222.585435
  11
371.28672
  21
176.019931
  0
ARC
  8
WHITE
  6
CONTINUOUS
  10
369.291742
  20
176.118754
  40
1.997424
  50
-89.846795
  51
-2.835898
  0
LINE
  8
WHITE
  6
CONTINUOUS
  10
369.297083
  20
174.121337
  11
366.718993
  21
174.121337
  0
ARC
  8
WHITE
  6
CONTINUOUS
  10
366.719061
  20
174.62146
  40
0.500123
  50
177.639067
  51
269.992131
  0
LINE
  8
WHITE
  6
CONTINUOUS
  10
366.219363
  20
174.642063
  11
367.128689
  21
192.507716
  0
ARC
  8
WHITE
  6
CONTINUOUS
  10
366.629781
  20
192.528835
  40
0.499355
  50
-2.423809
  51
86.64127
  0
LINE
  8
WHITE
  6
CONTINUOUS
  10
366.659037
  20
193.027331
  11
366.160517
  21
193.057309
  0
ARC
  8
WHITE
  6
CONTINUOUS
  10
366.128804
  20
192.558963
  40
0.499355
  50
86.358742
  51
177.853644
  0
LINE
  8
WHITE
  6
CONTINUOUS
  10
365.629799
  20
192.577665
  11
364.711591
  21
174.590989
  0
ARC
  8
WHITE
  6
CONTINUOUS
  10
364.213071
  20
174.619857
  40
0.499355
  50
-90.257
  51
-3.314095
  0
LINE
  8
WHITE
  6
CONTINUOUS
  10
364.210831
  20
174.120507
  11
349.382206
  21
174.121337
  0
LINE
  8
WHITE
  6
CONTINUOUS
  10
336.271548
  20
227.391874
  11
319.593903
  21
261.516594
  0
LINE
  8
WHITE
  6
CONTINUOUS
  10
329.876286
  20
265.614669
  11
341.199009
  21
229.420371
  0
LINE
  8
WHITE
  6
CONTINUOUS
  10
346.384057
  20
230.660564
  11
340.668291
  21
268.101716
  0
LINE
  8
WHITE
  6
CONTINUOUS
  10
351.710111
  20
269.190909
  11
351.710111
  21
231.079142
  0
LINE
  8
WHITE
  6
CONTINUOUS
  10
357.026173
  20
230.660564
  11
362.781909
  21
268.352641
  0
LINE
  8
WHITE
  6
CONTINUOUS
  10
373.613885
  20
265.854492
  11
362.222324
  21
229.420371
  0
LINE
  8
WHITE
  6
CONTINUOUS
  10
367.148674
  20
227.391874
  11
383.936238
  21
261.737541
  0
LINE
  8
WHITE
  6
CONTINUOUS
  10
276.598179
  20
226.841574
  11
276.642837
  21
227.344843
  0
LINE
  8
WHITE
  6
CONTINUOUS
  10
276.642837
  20
227.344843
  11
268.171997
  21
226.872259
  0
ARC
  8
WHITE
  6
CONTINUOUS
  10
268.14313
  20
227.370778
  40
0.499355
  50
179.8712
  51
273.314095
  0
LINE
  8
WHITE
  6
CONTINUOUS
  10
267.643776
  20
227.371901
  11
267.653492
  21
227.871519
  0
ARC
  8
WHITE
  6
CONTINUOUS
  10
268.153955
  20
227.871635
  40
0.500463
  50
93.529649
  51
180.01329
  0
LINE
  8
WHITE
  6
CONTINUOUS
  10
268.123144
  20
228.371148
  11
276.166075
  21
228.820815
  0
ARC
  8
WHITE
  6
CONTINUOUS
  10
276.137207
  20
229.319335
  40
0.499355
  50
-86.685905
  51
0.123787
  0
LINE
  8
WHITE
  6
CONTINUOUS
  10
276.636561
  20
229.320414
  11
276.64683
  21
231.588765
  0
ARC
  8
WHITE
  6
CONTINUOUS
  10
274.148681
  20
231.588765
  40
2.498149
  50
0.0
  51
90.00001
  0
LINE
  8
WHITE
  6
CONTINUOUS
  10
274.14868
  20
234.086914
  11
272.10908
  21
234.086914
  0
ARC
  8
WHITE
  6
CONTINUOUS
  10
272.107331
  20
235.088099
  40
1.001186
  50
-149.936363
  51
-89.899861
  0
ARC
  8
WHITE
  6
CONTINUOUS
  10
268.645312
  20
233.088761
  40
2.996679
  50
29.987686
  51
89.878993
  0
ARC
  8
WHITE
  6
CONTINUOUS
  10
268.639335
  20
233.08878
  40
2.996679
  50
89.764704
  51
152.817277
  0
ARC
  8
WHITE
  6
CONTINUOUS
  10
263.746387
  20
235.595796
  40
2.501148
  50
-136.4607
  51
-27.0655
  0
LINE
  8
WHITE
  6
CONTINUOUS
  10
261.933299
  20
233.872876
  11
247.067631
  21
249.656491
  0
ARC
  8
WHITE
  6
CONTINUOUS
  10
246.338172
  20
248.968112
  40
1.002984
  50
43.340367
  51
103.9128
  0
LINE
  8
WHITE
  6
CONTINUOUS
  10
246.097009
  20
249.941672
  11
243.701236
  21
249.336728
  0
ARC
  8
WHITE
  6
CONTINUOUS
  10
243.462524
  20
250.30601
  40
0.998244
  50
-170.1174
  51
-76.164685
  0
ARC
  8
WHITE
  6
CONTINUOUS
  10
331.885251
  20
265.760146
  40
90.761315
  50
178.546892
  51
189.913427
  0
ARC
  8
WHITE
  6
CONTINUOUS
  10
236.94624
  20
268.791205
  40
4.269658
  50
-9.8371
  51
90.01501
  0
LINE
  8
WHITE
  6
CONTINUOUS
  10
236.945122
  20
273.060863
  11
233.878513
  21
273.058044
  0
ARC
  8
WHITE
  6
CONTINUOUS
  10
233.87392
  20
272.559546
  40
0.49852
  50
89.47211
  51
173.223445
  0
LINE
  8
WHITE
  6
CONTINUOUS
  10
233.378883
  20
272.61837
  11
229.48066
  21
238.49365
  0
ARC
  8
WHITE
  6
CONTINUOUS
  10
228.98214
  20
238.552495
  40
0.501981
  50
-95.8503
  51
-6.732047
  0
LINE
  8
WHITE
  6
CONTINUOUS
  10
228.930974
  20
238.053129
  11
228.431437
  21
238.113931
  0
ARC
  8
WHITE
  6
CONTINUOUS
  10
228.490282
  20
238.612451
  40
0.501981
  50
174.1516
  51
263.267953
  0
LINE
  8
WHITE
  6
CONTINUOUS
  10
227.990915
  20
238.663601
  11
231.858898
  21
272.509561
  0
ARC
  8
WHITE
  6
CONTINUOUS
  10
231.360379
  20
272.568407
  40
0.501981
  50
-6.732047
  51
90.12887
  0
LINE
  8
WHITE
  6
CONTINUOUS
  10
231.359249
  20
273.070386
  11
227.44217
  21
273.058044
  0
ARC
  8
WHITE
  6
CONTINUOUS
  10
227.475509
  20
269.092043
  40
3.966141
  50
90.481622
  51
146.858386
  0
ARC
  8
WHITE
  6
CONTINUOUS
  10
322.990276
  20
206.969225
  40
117.906099
  50
146.9566
  51
171.0392
  0
ARC
  8
WHITE
  6
CONTINUOUS
  10
308.437567
  20
211.653054
  40
102.828541
  50
172.354274
  51
177.66048
  0
LINE
  8
WHITE
  6
CONTINUOUS
  10
205.694736
  20
215.850615
  11
215.690875
  21
215.850424
  0
LINE
  8
WHITE
  6
CONTINUOUS
  10
215.690875
  20
215.850424
  11
215.690875
  21
214.351534
  0
LINE
  8
WHITE
  6
CONTINUOUS
  10
215.690875
  20
214.351534
  11
205.698278
  21
214.351534
  0
ARC
  8
WHITE
  6
CONTINUOUS
  10
263.824106
  20
217.817867
  40
58.229094
  50
-176.587209
  51
-133.742191
  0
ARC
  8
WHITE
  6
CONTINUOUS
  10
228.398286
  20
180.808358
  40
6.997342
  50
-133.703225
  51
-73.121153
  0
LINE
  8
WHITE
  6
CONTINUOUS
  10
230.429957
  20
174.112455
  11
233.477699
  21
175.040656
  0
ARC
  8
WHITE
  6
CONTINUOUS
  10
233.326362
  20
175.518735
  40
0.50146
  50
-72.434679
  51
16.385678
  0
LINE
  8
WHITE
  6
CONTINUOUS
  10
233.807455
  20
175.660197
  11
231.199387
  21
184.263824
  0
ARC
  8
WHITE
  6
CONTINUOUS
  10
231.67963
  20
184.414245
  40
0.50325
  50
107.399476
  51
197.391528
  0
LINE
  8
WHITE
  6
CONTINUOUS
  10
231.529142
  20
184.894467
  11
232.008787
  21
185.033254
  0
ARC
  8
WHITE
  6
CONTINUOUS
  10
232.156399
  20
184.562124
  40
0.493713
  50
16.639439
  51
107.396616
  0
LINE
  8
WHITE
  6
CONTINUOUS
  10
232.629438
  20
184.703498
  11
235.246389
  21
176.099871
  0
ARC
  8
WHITE
  6
CONTINUOUS
  10
235.724923
  20
176.24976
  40
0.50146
  50
-162.608136
  51
-73.8996
  0
LINE
  8
WHITE
  6
CONTINUOUS
  10
235.863988
  20
175.767969
  11
237.795611
  21
176.349686
  0
ARC
  8
WHITE
  6
CONTINUOUS
  10
235.762222
  20
183.041795
  40
6.994212
  50
-73.098655
  51
9.480915
  0
LINE
  8
WHITE
  6
CONTINUOUS
  10
242.660896
  20
184.193875
  11
241.671629
  21
190.119486
  0
ARC
  8
WHITE
  6
CONTINUOUS
  10
261.048342
  20
195.667972
  40
20.155464
  50
149.565317
  51
195.978969
  0
ARC
  8
WHITE
  6
CONTINUOUS
  10
198.804496
  20
225.233473
  40
48.862747
  50
-23.336
  51
-0.3632
  0
ARC
  8
WHITE
  6
CONTINUOUS
  10
249.830681
  20
224.930338
  40
2.16443
  50
36.334109
  51
180.17487
  0
LINE
  8
WHITE
  6
CONTINUOUS
  10
251.574293
  20
226.212747
  11
268.651642
  21
203.109862
  0
LINE
  8
WHITE
  6
CONTINUOUS
  10
268.651642
  20
203.109862
  11
269.670887
  21
193.257161
  0
ARC
  8
WHITE
  6
CONTINUOUS
  10
273.1472
  20
193.616895
  40
3.494877
  50
-174.091986
  51
44.40847
  0
LINE
  8
WHITE
  6
CONTINUOUS
  10
275.643833
  20
196.062501
  11
275.64646
  21
203.760491
  0
ARC
  8
WHITE
  6
CONTINUOUS
  10
273.649051
  20
203.760491
  40
1.997409
  50
0.0
  51
38.70473
  0
LINE
  8
WHITE
  6
CONTINUOUS
  10
275.207786
  20
205.009485
  11
265.793759
  21
216.769743
  0
ARC
  8
WHITE
  6
CONTINUOUS
  10
266.190621
  20
217.084885
  40
0.506769
  50
128.709926
  51
218.4525
  0
LINE
  8
WHITE
  6
CONTINUOUS
  10
265.8737
  20
217.480328
  11
266.263411
  21
217.788988
  0
ARC
  8
WHITE
  6
CONTINUOUS
  10
266.572071
  20
217.400387
  40
0.496268
  50
38.3003
  51
128.459614
  0
LINE
  8
WHITE
  6
CONTINUOUS
  10
266.961529
  20
217.707965
  11
270.501383
  21
213.292319
  0
ARC
  8
WHITE
  6
CONTINUOUS
  10
270.889984
  20
213.600979
  40
0.496268
  50
-141.540386
  51
-90.002
  0
LINE
  8
WHITE
  6
CONTINUOUS
  10
270.889966
  20
213.104711
  11
271.650531
  21
213.10246
  0
ARC
  8
WHITE
  6
CONTINUOUS
  10
271.650531
  20
215.099869
  40
1.997409
  50
-90.0
  51
0.03157
  0
LINE
  8
WHITE
  6
CONTINUOUS
  10
273.64794
  20
215.100969
  11
273.64794
  21
220.097278
  0
ARC
  8
WHITE
  6
CONTINUOUS
  10
265.804862
  20
227.580623
  40
10.840403
  50
-43.655431
  51
-5.4951
  0
LINE
  8
WHITE
  6
CONTINUOUS
  10
276.595446
  20
226.542539
  11
276.598179
  21
226.841574
  0
LINE
  8
WHITE
  6
CONTINUOUS
  10
252.213819
  20
153.131915
  11
252.213587
  21
153.154971
  0
ARC
  8
WHITE
  6
CONTINUOUS
  10
252.713561
  20
153.160007
  40
0.5
  50
93.177078
  51
180.577077
  0
LINE
  8
WHITE
  6
CONTINUOUS
  10
252.68585
  20
153.659238
  11
260.737505
  21
154.106165
  0
ARC
  8
WHITE
  6
CONTINUOUS
  10
260.707803
  20
154.604635
  40
0.499355
  50
-86.590075
  51
0.133014
  0
LINE
  8
WHITE
  6
CONTINUOUS
  10
261.207157
  20
154.605794
  11
261.207157
  21
155.105424
  0
ARC
  8
WHITE
  6
CONTINUOUS
  10
260.708644
  20
155.108046
  40
0.49852
  50
-0.301308
  51
92.298344
  0
LINE
  8
WHITE
  6
CONTINUOUS
  10
260.688652
  20
155.606165
  11
252.773404
  21
155.16538
  0
ARC
  8
WHITE
  6
CONTINUOUS
  10
252.744781
  20
155.666986
  40
0.502422
  50
175.663956
  51
273.26601
  0
ARC
  8
WHITE
  6
CONTINUOUS
  10
263.054677
  20
154.89669
  40
10.841054
  50
136.3446
  51
175.7242
  0
LINE
  8
WHITE
  6
CONTINUOUS
  10
255.211123
  20
162.380481
  11
255.211598
  21
167.376334
  0
ARC
  8
WHITE
  6
CONTINUOUS
  10
257.210118
  20
167.376334
  40
1.99852
  50
90.000009
  51
179.999991
  0
LINE
  8
WHITE
  6
CONTINUOUS
  10
257.210118
  20
169.374853
  11
257.969555
  21
169.374853
  0
ARC
  8
WHITE
  6
CONTINUOUS
  10
257.968464
  20
168.877717
  40
0.497138
  50
38.17699
  51
89.874222
  0
LINE
  8
WHITE
  6
CONTINUOUS
  10
258.359266
  20
169.184994
  11
261.896646
  21
164.768266
  0
ARC
  8
WHITE
  6
CONTINUOUS
  10
262.285247
  20
165.076926
  40
0.496268
  50
-141.540386
  51
-51.2419
  0
LINE
  8
WHITE
  6
CONTINUOUS
  10
262.595927
  20
164.689939
  11
262.985839
  21
164.998096
  0
ARC
  8
WHITE
  6
CONTINUOUS
  10
262.677179
  20
165.386697
  40
0.496268
  50
-51.540386
  51
39.56339
  0
LINE
  8
WHITE
  6
CONTINUOUS
  10
263.059762
  20
165.702785
  11
253.652753
  21
177.469968
  0
ARC
  8
WHITE
  6
CONTINUOUS
  10
255.210488
  20
178.72021
  40
1.997409
  50
-179.966499
  51
-141.249364
  0
LINE
  8
WHITE
  6
CONTINUOUS
  10
253.213079
  20
178.719042
  11
253.213079
  21
186.412232
  0
ARC
  8
WHITE
  6
CONTINUOUS
  10
255.711228
  20
188.859308
  40
3.496989
  50
5.922302
  51
224.408282
  0
LINE
  8
WHITE
  6
CONTINUOUS
  10
259.189552
  20
189.220126
  11
260.207897
  21
179.367451
  0
LINE
  8
WHITE
  6
CONTINUOUS
  10
260.207897
  20
179.367451
  11
277.285246
  21
156.264566
  0
ARC
  8
WHITE
  6
CONTINUOUS
  10
279.022848
  20
157.5525
  40
2.162877
  50
-143.453638
  51
0.029068
  0
ARC
  8
WHITE
  6
CONTINUOUS
  10
330.048316
  20
157.229366
  40
48.863668
  50
156.645297
  51
179.619815
  0
ARC
  8
WHITE
  6
CONTINUOUS
  10
267.813355
  20
186.810794
  40
20.152989
  50
-30.441844
  51
15.976687
  0
LINE
  8
WHITE
  6
CONTINUOUS
  10
287.18791
  20
192.357827
  11
286.198643
  21
198.294541
  0
ARC
  8
WHITE
  6
CONTINUOUS
  10
293.099113
  20
199.444271
  40
6.995596
  50
106.903764
  51
189.459515
  0
LINE
  8
WHITE
  6
CONTINUOUS
  10
291.065038
  20
206.137619
  11
292.993609
  21
206.71719
  0
ARC
  8
WHITE
  6
CONTINUOUS
  10
293.140914
  20
206.247073
  40
0.492654
  50
16.553299
  51
107.3977
  0
LINE
  8
WHITE
  6
CONTINUOUS
  10
293.61315
  20
206.387434
  11
296.232321
  21
197.773815
  0
ARC
  8
WHITE
  6
CONTINUOUS
  10
296.710305
  20
197.92545
  40
0.50146
  50
-162.399012
  51
-73.735283
  0
LINE
  8
WHITE
  6
CONTINUOUS
  10
296.850752
  20
197.44406
  11
297.330396
  21
197.593948
  0
ARC
  8
WHITE
  6
CONTINUOUS
  10
297.179059
  20
198.072027
  40
0.50146
  50
-72.434679
  51
16.385678
  0
LINE
  8
WHITE
  6
CONTINUOUS
  10
297.660152
  20
198.21349
  11
295.052084
  21
206.818226
  0
ARC
  8
WHITE
  6
CONTINUOUS
  10
295.531315
  20
206.968332
  40
0.502189
  50
107.316356
  51
197.391693
  0
LINE
  8
WHITE
  6
CONTINUOUS
  10
295.38184
  20
207.44776
  11
298.429582
  21
208.365968
  0
ARC
  8
WHITE
  6
CONTINUOUS
  10
300.456969
  20
201.672039
  40
6.994212
  50
46.26026
  51
106.849958
  0
ARC
  8
WHITE
  6
CONTINUOUS
  10
265.025671
  20
164.655566
  40
58.234781
  50
3.416022
  51
46.254264
  0
LINE
  8
WHITE
  6
CONTINUOUS
  10
323.156981
  20
168.125515
  11
313.168663
  21
168.125779
  0
LINE
  8
WHITE
  6
CONTINUOUS
  10
313.168663
  20
168.125779
  11
313.168663
  21
166.626889
  0
LINE
  8
WHITE
  6
CONTINUOUS
  10
313.168663
  20
166.626889
  11
323.161261
  21
166.626889
  0
ARC
  8
WHITE
  6
CONTINUOUS
  10
220.418484
  20
170.883736
  40
102.830923
  50
-7.6781
  51
-2.372526
  0
ARC
  8
WHITE
  6
CONTINUOUS
  10
205.852877
  20
175.49766
  40
117.91165
  50
-33.034412
  51
-8.95447
  0
ARC
  8
WHITE
  6
CONTINUOUS
  10
301.385915
  20
113.376318
  40
3.957174
  50
-89.544585
  51
-33.036184
  0
LINE
  8
WHITE
  6
CONTINUOUS
  10
301.417369
  20
109.419269
  11
297.50027
  21
109.419269
  0
ARC
  8
WHITE
  6
CONTINUOUS
  10
297.500713
  20
109.921515
  40
0.502246
  50
173.44442
  51
269.949544
  0
LINE
  8
WHITE
  6
CONTINUOUS
  10
297.001751
  20
109.978854
  11
300.868886
  21
143.813789
  0
ARC
  8
WHITE
  6
CONTINUOUS
  10
300.369621
  20
143.86593
  40
0.501981
  50
-5.96206
  51
83.309846
  0
LINE
  8
WHITE
  6
CONTINUOUS
  10
300.428101
  20
144.364492
  11
299.928472
  21
144.423338
  0
ARC
  8
WHITE
  6
CONTINUOUS
  10
299.869626
  20
143.924818
  40
0.501981
  50
83.267953
  51
173.161
  0
LINE
  8
WHITE
  6
CONTINUOUS
  10
299.371217
  20
143.984594
  11
295.482876
  21
109.858943
  0
ARC
  8
WHITE
  6
CONTINUOUS
  10
294.987838
  20
109.917769
  40
0.498521
  50
-90.527763
  51
-6.776682
  0
LINE
  8
WHITE
  6
CONTINUOUS
  10
294.983246
  20
109.419269
  11
291.915519
  21
109.419269
  0
ARC
  8
WHITE
  6
CONTINUOUS
  10
291.916421
  20
113.690212
  40
4.270943
  50
170.221521
  51
269.9879
  0
ARC
  8
WHITE
  6
CONTINUOUS
  10
196.984817
  20
116.702364
  40
90.751526
  50
-1.443905
  51
9.923775
  0
ARC
  8
WHITE
  6
CONTINUOUS
  10
285.390353
  20
132.173524
  40
1.002465
  50
9.691818
  51
103.4001
  0
LINE
  8
WHITE
  6
CONTINUOUS
  10
285.158032
  20
133.148697
  11
282.761189
  21
132.54325
  0
ARC
  8
WHITE
  6
CONTINUOUS
  10
282.522477
  20
133.512532
  40
0.998244
  50
-136.9845
  51
-76.164685
  0
LINE
  8
WHITE
  6
CONTINUOUS
  10
281.792592
  20
132.831533
  11
266.922922
  21
148.600243
  0
ARC
  8
WHITE
  6
CONTINUOUS
  10
265.10427
  20
146.891509
  40
2.49545
  50
43.215157
  51
152.8189
  0
ARC
  8
WHITE
  6
CONTINUOUS
  10
260.21264
  20
149.388545
  40
2.996669
  50
-90.090685
  51
-26.92799
  0
ARC
  8
WHITE
  6
CONTINUOUS
  10
260.206616
  20
149.390769
  40
2.998889
  50
-149.987757
  51
-89.975521
  0
ARC
  8
WHITE
  6
CONTINUOUS
  10
256.742662
  20
147.390363
  40
1.001186
  50
29.987637
  51
89.490271
  0
LINE
  8
WHITE
  6
CONTINUOUS
  10
256.751568
  20
148.391509
  11
254.711968
  21
148.391509
  0
ARC
  8
WHITE
  6
CONTINUOUS
  10
254.711968
  20
150.889659
  40
2.498149
  50
180.0
  51
270.0
  0
LINE
  8
WHITE
  6
CONTINUOUS
  10
252.213819
  20
150.889659
  11
252.213819
  21
153.131915
  0
ARC
  8
WHITE
  6
CONTINUOUS
  10
68.92231
  20
136.217116
  40
29.487733
  50
124.883371
  51
137.55269
  0
ARC
  8
WHITE
  6
CONTINUOUS
  10
52.372974
  20
160.022893
  40
0.496268
  50
38.459614
  51
129.3899
  0
LINE
  8
WHITE
  6
CONTINUOUS
  10
52.761575
  20
160.331553
  11
55.889258
  21
156.444432
  0
ARC
  8
WHITE
  6
CONTINUOUS
  10
56.278687
  20
156.756244
  40
0.49888
  50
-141.316095
  51
-49.927787
  0
LINE
  8
WHITE
  6
CONTINUOUS
  10
56.599843
  20
156.374484
  11
56.973407
  21
156.700441
  0
ARC
  8
WHITE
  6
CONTINUOUS
  10
56.659803
  20
157.085063
  40
0.496268
  50
-50.807701
  51
38.460424
  0
LINE
  8
WHITE
  6
CONTINUOUS
  10
57.048399
  20
157.393729
  11
53.930709
  21
161.271967
  0
ARC
  8
WHITE
  6
CONTINUOUS
  10
54.317068
  20
161.583429
  40
0.496268
  50
126.677426
  51
218.873924
  0
ARC
  8
WHITE
  6
CONTINUOUS
  10
107.629123
  20
93.2575
  40
87.159907
  50
123.924529
  51
127.956203
  0
ARC
  8
WHITE
  6
CONTINUOUS
  10
59.258984
  20
165.157977
  40
0.50348
  50
33.760154
  51
122.9491
  0
LINE
  8
WHITE
  6
CONTINUOUS
  10
59.677563
  20
165.43777
  11
62.434409
  21
161.271967
  0
ARC
  8
WHITE
  6
CONTINUOUS
  10
62.854866
  20
161.550058
  40
0.504102
  50
-146.519291
  51
-56.240234
  0
LINE
  8
WHITE
  6
CONTINUOUS
  10
63.135001
  20
161.130961
  11
63.543587
  21
161.410753
  0
ARC
  8
WHITE
  6
CONTINUOUS
  10
63.271544
  20
161.824888
  40
0.495495
  50
-56.699177
  51
33.760116
  0
LINE
  8
WHITE
  6
CONTINUOUS
  10
63.683484
  20
162.100243
  11
60.93552
  21
166.24717
  0
ARC
  8
WHITE
  6
CONTINUOUS
  10
61.349485
  20
166.524439
  40
0.498242
  50
122.030538
  51
213.813579
  0
ARC
  8
WHITE
  6
CONTINUOUS
  10
107.669126
  20
93.2773
  40
87.162257
  50
117.872527
  51
122.306639
  0
ARC
  8
WHITE
  6
CONTINUOUS
  10
67.152025
  20
169.885586
  40
0.499321
  50
28.55962
  51
117.6576
  0
LINE
  8
WHITE
  6
CONTINUOUS
  10
67.590589
  20
170.124298
  11
69.998805
  21
165.758643
  0
ARC
  8
WHITE
  6
CONTINUOUS
  10
70.438913
  20
165.997498
  40
0.500745
  50
-151.510527
  51
-61.440811
  0
LINE
  8
WHITE
  6
CONTINUOUS
  10
70.678302
  20
165.557681
  11
71.10705
  21
165.80921
  0
ARC
  8
WHITE
  6
CONTINUOUS
  10
70.869272
  20
166.248281
  40
0.499321
  50
-61.5623
  51
28.55962
  0
LINE
  8
WHITE
  6
CONTINUOUS
  10
71.307836
  20
166.486993
  11
68.93959
  21
170.773817
  0
ARC
  8
WHITE
  6
CONTINUOUS
  10
69.382831
  20
171.016507
  40
0.505333
  50
116.453102
  51
208.702231
  0
ARC
  8
WHITE
  6
CONTINUOUS
  10
107.619824
  20
93.251246
  40
87.162718
  50
112.0801
  51
116.1848
  0
ARC
  8
WHITE
  6
CONTINUOUS
  10
75.041854
  20
173.560893
  40
0.496903
  50
21.327872
  51
112.070208
  0
LINE
  8
WHITE
  6
CONTINUOUS
  10
75.504727
  20
173.741618
  11
77.394438
  21
169.116156
  0
ARC
  8
WHITE
  6
CONTINUOUS
  10
77.854817
  20
169.305855
  40
0.497931
  50
-157.605899
  51
-67.675551
  0
LINE
  8
WHITE
  6
CONTINUOUS
  10
78.043957
  20
168.845246
  11
78.50867
  21
169.034662
  0
ARC
  8
WHITE
  6
CONTINUOUS
  10
78.323749
  20
169.495875
  40
0.496903
  50
-68.152
  51
22.324427
  0
LINE
  8
WHITE
  6
CONTINUOUS
  10
78.783409
  20
169.684624
  11
76.912669
  21
174.270324
  0
ARC
  8
WHITE
  6
CONTINUOUS
  10
77.372289
  20
174.462216
  40
0.49807
  50
109.825115
  51
202.660653
  0
ARC
  8
WHITE
  6
CONTINUOUS
  10
107.710401
  20
93.277046
  40
87.166559
  50
105.929869
  51
110.486429
  0
ARC
  8
WHITE
  6
CONTINUOUS
  10
83.920714
  20
176.611715
  40
0.502765
  50
13.667984
  51
105.4688
  0
LINE
  8
WHITE
  6
CONTINUOUS
  10
84.409241
  20
176.730515
  11
85.578375
  21
171.932958
  0
ARC
  8
WHITE
  6
CONTINUOUS
  10
86.067691
  20
172.054172
  40
0.504106
  50
-166.086701
  51
-76.331566
  0
LINE
  8
WHITE
  6
CONTINUOUS
  10
86.186813
  20
171.564343
  11
86.666458
  21
171.683143
  0
ARC
  8
WHITE
  6
CONTINUOUS
  10
86.554999
  20
172.165653
  40
0.495216
  50
-76.992904
  51
13.671402
  0
LINE
  8
WHITE
  6
CONTINUOUS
  10
87.036184
  20
172.282699
  11
85.847065
  21
177.140212
  0
ARC
  8
WHITE
  6
CONTINUOUS
  10
86.326648
  20
177.25799
  40
0.493834
  50
102.88354
  51
193.797829
  0
ARC
  8
WHITE
  6
CONTINUOUS
  10
107.621104
  20
93.251571
  40
87.157026
  50
100.175619
  51
104.216481
  0
ARC
  8
WHITE
  6
CONTINUOUS
  10
96.263722
  20
158.76486
  40
20.67152
  50
99.753008
  51
101.27114
  0
ARC
  8
WHITE
  6
CONTINUOUS
  10
92.852657
  20
178.651158
  40
0.494846
  50
8.924455
  51
100.56334
  0
LINE
  8
WHITE
  6
CONTINUOUS
  10
93.341513
  20
178.727925
  11
94.160906
  21
173.801574
  0
ARC
  8
WHITE
  6
CONTINUOUS
  10
94.659572
  20
173.893573
  40
0.507081
  50
-169.547011
  51
-80.819196
  0
LINE
  8
WHITE
  6
CONTINUOUS
  10
94.740477
  20
173.392988
  11
95.22824
  21
173.483733
  0
ARC
  8
WHITE
  6
CONTINUOUS
  10
95.151283
  20
173.972559
  40
0.494846
  50
-81.0533
  51
9.166441
  0
LINE
  8
WHITE
  6
CONTINUOUS
  10
95.63981
  20
174.051389
  11
94.824965
  21
178.916879
  0
ARC
  8
WHITE
  6
CONTINUOUS
  10
95.322978
  20
179.000358
  40
0.504961
  50
96.061558
  51
189.51574
  0
ARC
  8
WHITE
  6
CONTINUOUS
  10
99.079157
  20
144.105121
  40
35.601777
  50
87.284319
  51
96.142588
  0
ARC
  8
WHITE
  6
CONTINUOUS
  10
100.748259
  20
179.16872
  40
0.498508
  50
-0.001277
  51
87.964735
  0
LINE
  8
WHITE
  6
CONTINUOUS
  10
101.246768
  20
179.168709
  11
101.246758
  21
174.141314
  0
ARC
  8
WHITE
  6
CONTINUOUS
  10
101.745276
  20
174.140212
  40
0.49852
  50
179.8734
  51
270.0
  0
LINE
  8
WHITE
  6
CONTINUOUS
  10
101.745276
  20
173.641693
  11
102.244917
  21
173.641693
  0
ARC
  8
WHITE
  6
CONTINUOUS
  10
102.246023
  20
174.141326
  40
0.499635
  50
-90.126757
  51
-0.000426
  0
LINE
  8
WHITE
  6
CONTINUOUS
  10
102.745657
  20
174.141322
  11
102.743308
  21
178.957758
  0
ARC
  8
WHITE
  6
CONTINUOUS
  10
103.241706
  20
178.9593
  40
0.4984
  50
82.85428
  51
180.17731
  0
ARC
  8
WHITE
  6
CONTINUOUS
  10
99.049035
  20
144.117144
  40
35.591903
  50
72.389728
  51
83.134424
  0
ARC
  8
WHITE
  6
CONTINUOUS
  10
109.670527
  20
177.567673
  40
0.495563
  50
-15.063721
  51
72.80396
  0
LINE
  8
WHITE
  6
CONTINUOUS
  10
110.149062
  20
177.43888
  11
108.830039
  21
172.652425
  0
ARC
  8
WHITE
  6
CONTINUOUS
  10
109.309499
  20
172.514601
  40
0.498877
  50
163.962312
  51
254.928545
  0
LINE
  8
WHITE
  6
CONTINUOUS
  10
109.17978
  20
172.032884
  11
109.659424
  21
171.902981
  0
ARC
  8
WHITE
  6
CONTINUOUS
  10
109.789671
  20
172.383138
  40
0.49751
  50
-105.176748
  51
-15.064601
  0
LINE
  8
WHITE
  6
CONTINUOUS
  10
110.270083
  20
172.253832
  11
111.548025
  21
176.869301
  0
ARC
  8
WHITE
  6
CONTINUOUS
  10
112.02554
  20
176.744328
  40
0.493598
  50
67.110269
  51
165.333657
  0
ARC
  8
WHITE
  6
CONTINUOUS
  10
99.094859
  20
144.099337
  40
35.606123
  50
50.526386
  51
68.373722
  0
ARC
  8
WHITE
  6
CONTINUOUS
  10
122.047907
  20
171.974648
  40
0.503102
  50
-129.119022
  51
-63.793301
  0
LINE
  8
WHITE
  6
CONTINUOUS
  10
122.270082
  20
171.523262
  11
124.438476
  21
172.602462
  0
ARC
  8
WHITE
  6
CONTINUOUS
  10
127.696175
  20
166.089754
  40
7.282031
  50
-2.60611
  51
116.574512
  0
LINE
  8
WHITE
  6
CONTINUOUS
  10
134.970674
  20
165.758643
  11
134.970674
  21
165.098022
  0
ARC
  8
WHITE
  6
CONTINUOUS
  10
134.470644
  20
165.0967
  40
0.500032
  50
-85.241469
  51
0.151426
  0
LINE
  8
WHITE
  6
CONTINUOUS
  10
134.512125
  20
164.598392
  11
123.349283
  21
163.66908
  0
ARC
  8
WHITE
  6
CONTINUOUS
  10
123.402425
  20
163.168668
  40
0.503227
  50
96.061867
  51
184.466284
  0
LINE
  8
WHITE
  6
CONTINUOUS
  10
122.900726
  20
163.12948
  11
122.939586
  21
162.62985
  0
ARC
  8
WHITE
  6
CONTINUOUS
  10
123.44015
  20
162.670917
  40
0.502246
  50
-175.309877
  51
-85.54228
  0
LINE
  8
WHITE
  6
CONTINUOUS
  10
123.479187
  20
162.170191
  11
134.282295
  21
163.079517
  0
ARC
  8
WHITE
  6
CONTINUOUS
  10
134.323784
  20
162.582782
  40
0.498465
  50
-6.063221
  51
94.774539
  0
ARC
  8
WHITE
  6
CONTINUOUS
  10
99.976609
  20
165.877444
  40
35.003269
  50
-14.7168
  51
-5.4875
  0
ARC
  8
WHITE
  6
CONTINUOUS
  10
129.159777
  20
158.216212
  40
4.831235
  50
-116.057717
  51
-14.7624
  0
ARC
  8
WHITE
  6
CONTINUOUS
  10
124.848173
  20
149.430739
  40
4.955218
  50
63.77939
  51
90.0
  0
LINE
  8
WHITE
  6
CONTINUOUS
  10
124.848173
  20
154.385957
  11
118.044321
  21
154.378835
  0
ARC
  8
WHITE
  6
CONTINUOUS
  10
118.042103
  20
164.077667
  40
9.698832
  50
-122.2473
  51
-89.9869
  0
ARC
  8
WHITE
  6
CONTINUOUS
  10
97.284835
  20
131.165938
  40
29.211913
  50
57.76318
  51
84.67135
  0
ARC
  8
WHITE
  6
CONTINUOUS
  10
97.276136
  20
131.16533
  40
29.213328
  50
84.654473
  51
131.935543
  0
ARC
  8
WHITE
  6
CONTINUOUS
  10
172.285829
  20
47.708611
  40
141.425082
  50
131.946018
  51
151.736228
  0
ARC
  8
WHITE
  6
CONTINUOUS
  10
38.921827
  20
119.411866
  40
9.992597
  50
-90.0
  51
-28.2783
  0
LINE
  8
WHITE
  6
CONTINUOUS
  10
38.921827
  20
109.419269
  11
2.948477
  21
109.409276
  0
ARC
  8
WHITE
  6
CONTINUOUS
  10
2.948477
  20
112.287144
  40
2.877868
  50
90.0
  51
270.0
  0
LINE
  8
WHITE
  6
CONTINUOUS
  10
2.948477
  20
115.165013
  11
26.550992
  21
115.165013
  0
ARC
  8
WHITE
  6
CONTINUOUS
  10
26.550991
  20
115.664644
  40
0.499631
  50
-89.999858
  51
-0.000142
  0
LINE
  8
WHITE
  6
CONTINUOUS
  10
27.050622
  20
115.664642
  11
27.049511
  21
116.165383
  0
ARC
  8
WHITE
  6
CONTINUOUS
  10
26.550992
  20
116.165383
  40
0.49852
  50
0.0
  51
90.0
  0
LINE
  8
WHITE
  6
CONTINUOUS
  10
26.550992
  20
116.663902
  11
20.795256
  21
116.663902
  0
ARC
  8
WHITE
  6
CONTINUOUS
  10
20.795996
  20
117.166457
  40
0.502555
  50
157.912741
  51
269.91559
  0
ARC
  8
WHITE
  6
CONTINUOUS
  10
108.788958
  20
81.371158
  40
95.497632
  50
153.5827
  51
157.8639
  0
ARC
  8
WHITE
  6
CONTINUOUS
  10
23.712712
  20
123.640643
  40
0.499355
  50
85.364935
  51
154.121867
  0
LINE
  8
WHITE
  6
CONTINUOUS
  10
23.753065
  20
124.138365
  11
30.548031
  21
123.688698
  0
ARC
  8
WHITE
  6
CONTINUOUS
  10
30.580026
  20
124.187231
  40
0.499558
  50
-93.672131
  51
-3.314246
  0
LINE
  8
WHITE
  6
CONTINUOUS
  10
31.078749
  20
124.15835
  11
31.11748
  21
124.658058
  0
ARC
  8
WHITE
  6
CONTINUOUS
  10
30.619089
  20
124.689068
  40
0.499355
  50
-3.5604
  51
86.685905
  0
LINE
  8
WHITE
  6
CONTINUOUS
  10
30.647957
  20
125.187588
  11
24.932191
  21
125.557314
  0
ARC
  8
WHITE
  6
CONTINUOUS
  10
24.959266
  20
126.055901
  40
0.499321
  50
151.013156
  51
266.891659
  0
ARC
  8
WHITE
  6
CONTINUOUS
  10
108.783825
  20
81.362929
  40
95.494091
  50
148.045572
  51
151.929858
  0
ARC
  8
WHITE
  6
CONTINUOUS
  10
28.180896
  20
131.633923
  40
0.499355
  50
86.685905
  51
147.4412
  0
LINE
  8
WHITE
  6
CONTINUOUS
  10
28.209763
  20
132.132443
  11
34.095059
  21
130.712001
  0
ARC
  8
WHITE
  6
CONTINUOUS
  10
34.207542
  20
131.202021
  40
0.502765
  50
-102.9282
  51
-13.667984
  0
LINE
  8
WHITE
  6
CONTINUOUS
  10
34.696069
  20
131.08322
  11
34.81487
  21
131.572857
  0
ARC
  8
WHITE
  6
CONTINUOUS
  10
34.32674
  20
131.685621
  40
0.500985
  50
-13.007807
  51
76.329309
  0
LINE
  8
WHITE
  6
CONTINUOUS
  10
34.445144
  20
132.172413
  11
29.486611
  21
133.362723
  0
ARC
  8
WHITE
  6
CONTINUOUS
  10
29.608727
  20
133.85117
  40
0.50348
  50
146.2399
  51
255.9633
  0
ARC
  8
WHITE
  6
CONTINUOUS
  10
106.040607
  20
83.188915
  40
92.20133
  50
142.382855
  51
146.460701
  0
ARC
  8
WHITE
  6
CONTINUOUS
  10
33.40239
  20
139.15927
  40
0.500784
  50
66.03902
  51
142.089537
  0
LINE
  8
WHITE
  6
CONTINUOUS
  10
33.605766
  20
139.616898
  11
38.269469
  21
137.539549
  0
ARC
  8
WHITE
  6
CONTINUOUS
  10
38.473271
  20
137.996987
  40
0.500784
  50
-114.0143
  51
-23.38207
  0
LINE
  8
WHITE
  6
CONTINUOUS
  10
38.93293
  20
137.798246
  11
39.131672
  21
138.257905
  0
ARC
  8
WHITE
  6
CONTINUOUS
  10
38.686985
  20
138.467291
  40
0.491517
  50
-25.213937
  51
66.642287
  0
LINE
  8
WHITE
  6
CONTINUOUS
  10
38.881857
  20
138.918527
  11
34.784892
  21
140.727187
  0
ARC
  8
WHITE
  6
CONTINUOUS
  10
34.981526
  20
141.182837
  40
0.496268
  50
140.946809
  51
246.657641
  0
ARC
  8
WHITE
  6
CONTINUOUS
  10
108.766258
  20
81.345326
  40
95.494766
  50
138.68301
  51
140.958778
  0
ARC
  8
WHITE
  6
CONTINUOUS
  10
107.605732
  20
93.233435
  40
87.157379
  50
141.641822
  51
144.056824
  0
ARC
  8
WHITE
  6
CONTINUOUS
  10
39.646624
  20
147.008107
  40
0.496268
  50
50.518159
  51
140.887449
  0
LINE
  8
WHITE
  6
CONTINUOUS
  10
39.962168
  20
147.391139
  11
43.854123
  21
144.268519
  0
ARC
  8
WHITE
  6
CONTINUOUS
  10
44.169051
  20
144.652057
  40
0.496268
  50
-129.3899
  51
-38.459614
  0
LINE
  8
WHITE
  6
CONTINUOUS
  10
44.557652
  20
144.343397
  11
44.866862
  21
144.733593
  0
ARC
  8
WHITE
  6
CONTINUOUS
  10
44.488815
  20
145.055092
  40
0.496268
  50
-40.3785
  51
51.540386
  0
LINE
  8
WHITE
  6
CONTINUOUS
  10
44.797475
  20
145.443693
  11
40.910354
  21
148.55028
  0
ARC
  8
WHITE
  6
CONTINUOUS
  10
41.218541
  20
148.939229
  40
0.496246
  50
139.642347
  51
231.608146
  0
ARC
  8
WHITE
  6
CONTINUOUS
  10
76.023231
  20
121.881148
  40
44.580996
  50
133.7104
  51
142.1098
  0
ARC
  8
WHITE
  6
CONTINUOUS
  10
45.58264
  20
153.77373
  40
0.494048
  50
45.690629
  51
137.712189
  0
LINE
  8
WHITE
  6
CONTINUOUS
  10
45.927749
  20
154.12726
  11
49.539477
  21
150.672948
  0
ARC
  8
WHITE
  6
CONTINUOUS
  10
49.883707
  20
151.027334
  40
0.494049
  50
-134.1671
  51
-43.269811
  0
LINE
  8
WHITE
  6
CONTINUOUS
  10
50.24344
  20
150.688696
  11
50.593181
  21
151.059533
  0
ARC
  8
WHITE
  6
CONTINUOUS
  10
50.235113
  20
151.398758
  40
0.493241
  50
-43.452056
  51
46.730411
  0
LINE
  8
WHITE
  6
CONTINUOUS
  10
50.573196
  20
151.757904
  11
46.973047
  21
155.188389
  0
ARC
  8
WHITE
  6
CONTINUOUS
  10
47.317968
  20
155.550369
  40
0.5
  50
136.709837
  51
226.382403
  0
ARC
  8
WHITE
  6
CONTINUOUS
  10
31.728274
  20
170.236301
  40
20.917637
  50
-43.290163
  51
-42.44731
  0
LINE
  8
WHITE
  6
CONTINUOUS
  10
225.9982
  20
161.267617
  11
222.885546
  21
157.393729
  0
ARC
  8
WHITE
  6
CONTINUOUS
  10
223.269124
  20
157.078849
  40
0.496268
  50
140.617315
  51
230.803871
  0
LINE
  8
WHITE
  6
CONTINUOUS
  10
222.955494
  20
156.694247
  11
223.335213
  21
156.374484
  0
ARC
  8
WHITE
  6
CONTINUOUS
  10
223.653865
  20
156.753093
  40
0.494858
  50
-130.085382
  51
-38.303
  0
LINE
  8
WHITE
  6
CONTINUOUS
  10
224.042202
  20
156.44637
  11
227.17237
  21
160.331553
  0
ARC
  8
WHITE
  6
CONTINUOUS
  10
227.556064
  20
160.026975
  40
0.489887
  50
49.862877
  51
141.557378
  0
ARC
  8
WHITE
  6
CONTINUOUS
  10
211.035435
  20
136.20054
  40
29.481371
  50
41.93668
  51
55.17396
  0
ARC
  8
WHITE
  6
CONTINUOUS
  10
232.617585
  20
155.554509
  40
0.493038
  50
-46.433811
  51
45.010512
  0
LINE
  8
WHITE
  6
CONTINUOUS
  10
232.957383
  20
155.197264
  11
229.360749
  21
151.757904
  0
ARC
  8
WHITE
  6
CONTINUOUS
  10
229.699387
  20
151.398171
  40
0.494048
  50
133.269811
  51
223.3577
  0
LINE
  8
WHITE
  6
CONTINUOUS
  10
229.340173
  20
151.058981
  11
229.690504
  21
150.688696
  0
ARC
  8
WHITE
  6
CONTINUOUS
  10
230.045229
  20
151.032577
  40
0.494048
  50
-135.889279
  51
-45.747632
  0
LINE
  8
WHITE
  6
CONTINUOUS
  10
230.389986
  20
150.678704
  11
234.007307
  21
154.12726
  0
ARC
  8
WHITE
  6
CONTINUOUS
  10
234.345945
  20
153.767527
  40
0.494048
  50
42.31639
  51
133.269811
  0
ARC
  8
WHITE
  6
CONTINUOUS
  10
203.94726
  20
121.835672
  40
44.580481
  50
37.963473
  51
46.363727
  0
ARC
  8
WHITE
  6
CONTINUOUS
  10
238.71604
  20
148.941102
  40
0.494858
  50
-51.798
  51
40.08537
  0
LINE
  8
WHITE
  6
CONTINUOUS
  10
239.022078
  20
148.552226
  11
235.13647
  21
145.443693
  0
ARC
  8
WHITE
  6
CONTINUOUS
  10
235.444549
  20
145.054631
  40
0.496268
  50
128.374021
  51
220.382096
  0
LINE
  8
WHITE
  6
CONTINUOUS
  10
235.066522
  20
144.733108
  11
235.376292
  21
144.343397
  0
ARC
  8
WHITE
  6
CONTINUOUS
  10
235.760894
  20
144.657027
  40
0.496268
  50
-140.803871
  51
-50.617315
  0
LINE
  8
WHITE
  6
CONTINUOUS
  10
236.075774
  20
144.273449
  11
239.972887
  21
147.391139
  0
ARC
  8
WHITE
  6
CONTINUOUS
  10
240.281547
  20
147.002538
  40
0.496268
  50
39.19161
  51
128.459614
  0
ARC
  8
WHITE
  6
CONTINUOUS
  10
172.41488
  20
93.098313
  40
87.165427
  50
36.04858
  51
38.463113
  0
ARC
  8
WHITE
  6
CONTINUOUS
  10
171.131026
  20
81.376045
  40
95.500795
  50
39.076318
  51
41.288748
  0
ARC
  8
WHITE
  6
CONTINUOUS
  10
244.957236
  20
141.189303
  40
0.496268
  50
-67.462381
  51
51.08666
  0
LINE
  8
WHITE
  6
CONTINUOUS
  10
245.14745
  20
140.730936
  11
241.052088
  21
138.918527
  0
ARC
  8
WHITE
  6
CONTINUOUS
  10
241.250829
  20
138.458867
  40
0.500784
  50
113.38207
  51
204.1329
  0
LINE
  8
WHITE
  6
CONTINUOUS
  10
240.793814
  20
138.254119
  11
241.002125
  21
137.798246
  0
ARC
  8
WHITE
  6
CONTINUOUS
  10
241.45784
  20
138.005872
  40
0.500784
  50
-155.505769
  51
-65.986392
  0
LINE
  8
WHITE
  6
CONTINUOUS
  10
241.661636
  20
137.548431
  11
246.328179
  21
139.616898
  0
ARC
  8
WHITE
  6
CONTINUOUS
  10
246.526921
  20
139.157239
  40
0.500784
  50
37.6213
  51
113.38207
  0
ARC
  8
WHITE
  6
CONTINUOUS
  10
173.915787
  20
83.151763
  40
92.20133
  50
33.565847
  51
37.643135
  0
ARC
  8
WHITE
  6
CONTINUOUS
  10
250.332878
  20
133.85276
  40
0.494406
  50
-76.744785
  51
34.02587
  0
LINE
  8
WHITE
  6
CONTINUOUS
  10
250.44624
  20
133.371525
  11
245.488801
  21
132.172413
  0
ARC
  8
WHITE
  6
CONTINUOUS
  10
245.607602
  20
131.683886
  40
0.502765
  50
103.667984
  51
192.8324
  0
LINE
  8
WHITE
  6
CONTINUOUS
  10
245.117394
  20
131.572222
  11
245.238986
  21
131.08322
  0
ARC
  8
WHITE
  6
CONTINUOUS
  10
245.727089
  20
131.20375
  40
0.502765
  50
-166.129185
  51
-77.192317
  0
LINE
  8
WHITE
  6
CONTINUOUS
  10
245.838542
  20
130.713494
  11
251.724182
  21
132.132443
  0
ARC
  8
WHITE
  6
CONTINUOUS
  10
251.752996
  20
131.634006
  40
0.499269
  50
32.546391
  51
93.308587
  0
ARC
  8
WHITE
  6
CONTINUOUS
  10
171.133952
  20
81.370556
  40
95.503687
  50
28.061214
  51
31.945406
  0
ARC
  8
WHITE
  6
CONTINUOUS
  10
254.971725
  20
126.059028
  40
0.499321
  50
-86.444653
  51
28.448356
  0
LINE
  8
WHITE
  6
CONTINUOUS
  10
255.002689
  20
125.560668
  11
249.285988
  21
125.187588
  0
ARC
  8
WHITE
  6
CONTINUOUS
  10
249.314722
  20
124.68906
  40
0.499355
  50
93.298801
  51
183.56846
  0
LINE
  8
WHITE
  6
CONTINUOUS
  10
248.816336
  20
124.65798
  11
248.856306
  21
124.15835
  0
ARC
  8
WHITE
  6
CONTINUOUS
  10
249.354826
  20
124.187218
  40
0.499355
  50
-176.685905
  51
-86.4316
  0
LINE
  8
WHITE
  6
CONTINUOUS
  10
249.385906
  20
123.688831
  11
256.18088
  21
124.138365
  0
ARC
  8
WHITE
  6
CONTINUOUS
  10
256.209748
  20
123.639845
  40
0.499355
  50
25.39301
  51
93.314095
  0
ARC
  8
WHITE
  6
CONTINUOUS
  10
171.167239
  20
81.291984
  40
95.502265
  50
22.18494
  51
26.46588
  0
ARC
  8
WHITE
  6
CONTINUOUS
  10
259.135656
  20
117.164634
  40
0.500741
  50
-89.652989
  51
22.145193
  0
LINE
  8
WHITE
  6
CONTINUOUS
  10
259.138689
  20
116.663902
  11
253.382953
  21
116.663902
  0
ARC
  8
WHITE
  6
CONTINUOUS
  10
253.381843
  20
116.165384
  40
0.49852
  50
89.872392
  51
180.000142
  0
LINE
  8
WHITE
  6
CONTINUOUS
  10
252.883323
  20
116.165383
  11
252.883323
  21
115.664642
  0
ARC
  8
WHITE
  6
CONTINUOUS
  10
253.381841
  20
115.663531
  40
0.49852
  50
179.87225
  51
270.12775
  0
LINE
  8
WHITE
  6
CONTINUOUS
  10
253.382953
  20
115.165013
  11
276.996571
  21
115.165013
  0
ARC
  8
WHITE
  6
CONTINUOUS
  10
276.996571
  20
112.287144
  40
2.877868
  50
-90.0
  51
90.0
  0
LINE
  8
WHITE
  6
CONTINUOUS
  10
276.996571
  20
109.409276
  11
241.012117
  21
109.419269
  0
ARC
  8
WHITE
  6
CONTINUOUS
  10
241.009883
  20
119.416018
  40
9.996749
  50
-151.691458
  51
-89.987192
  0
ARC
  8
WHITE
  6
CONTINUOUS
  10
107.652023
  20
47.706098
  40
141.41868
  50
28.26519
  51
48.05584
  0
ARC
  8
WHITE
  6
CONTINUOUS
  10
182.637393
  20
131.159328
  40
29.225779
  50
48.042551
  51
95.30243
  0
ARC
  8
WHITE
  6
CONTINUOUS
  10
182.662895
  20
131.154909
  40
29.232546
  50
95.3514
  51
122.246245
  0
ARC
  8
WHITE
  6
CONTINUOUS
  10
161.88444
  20
164.077665
  40
9.698832
  50
-89.962918
  51
-57.709989
  0
LINE
  8
WHITE
  6
CONTINUOUS
  10
161.890717
  20
154.378835
  11
155.085772
  21
154.385957
  0
ARC
  8
WHITE
  6
CONTINUOUS
  10
155.085772
  20
149.430739
  40
4.955218
  50
90.0
  51
116.209
  0
ARC
  8
WHITE
  6
CONTINUOUS
  10
150.768921
  20
158.213307
  40
4.830932
  50
-165.254827
  51
-63.859337
  0
ARC
  8
WHITE
  6
CONTINUOUS
  10
179.959826
  20
165.851543
  40
35.004618
  50
-174.554961
  51
-165.3252
  0
ARC
  8
WHITE
  6
CONTINUOUS
  10
145.61168
  20
162.578777
  40
0.500907
  50
85.31161
  51
185.5968
  0
LINE
  8
WHITE
  6
CONTINUOUS
  10
145.652622
  20
163.078008
  11
156.454758
  21
162.170191
  0
ARC
  8
WHITE
  6
CONTINUOUS
  10
156.493618
  20
162.66871
  40
0.500032
  50
-94.45725
  51
-4.4283
  0
LINE
  8
WHITE
  6
CONTINUOUS
  10
156.992157
  20
162.630102
  11
157.034329
  21
163.12948
  0
ARC
  8
WHITE
  6
CONTINUOUS
  10
156.535809
  20
163.16834
  40
0.500032
  50
-4.45725
  51
84.42686
  0
LINE
  8
WHITE
  6
CONTINUOUS
  10
156.58437
  20
163.666008
  11
145.424041
  21
164.598392
  0
ARC
  8
WHITE
  6
CONTINUOUS
  10
145.462901
  20
165.096911
  40
0.500032
  50
179.8737
  51
265.54275
  0
LINE
  8
WHITE
  6
CONTINUOUS
  10
144.96287
  20
165.098014
  11
144.963271
  21
165.758643
  0
ARC
  8
WHITE
  6
CONTINUOUS
  10
152.237882
  20
166.087289
  40
7.282031
  50
63.43489
  51
182.586695
  0
LINE
  8
WHITE
  6
CONTINUOUS
  10
155.494512
  20
172.600532
  11
157.663862
  21
171.523262
  0
ARC
  8
WHITE
  6
CONTINUOUS
  10
157.882589
  20
171.971818
  40
0.499044
  50
-115.994963
  51
-50.375
  0
ARC
  8
WHITE
  6
CONTINUOUS
  10
180.83327
  20
144.099805
  40
35.606123
  50
111.617894
  51
129.466915
  0
ARC
  8
WHITE
  6
CONTINUOUS
  10
167.895623
  20
176.741908
  40
0.493598
  50
14.558023
  51
111.409658
  0
LINE
  8
WHITE
  6
CONTINUOUS
  10
168.373373
  20
176.865979
  11
169.664972
  21
172.253832
  0
ARC
  8
WHITE
  6
CONTINUOUS
  10
170.143506
  20
172.382625
  40
0.495563
  50
-164.936279
  51
-74.7231
  0
LINE
  8
WHITE
  6
CONTINUOUS
  10
170.274079
  20
171.904573
  11
170.755275
  21
172.032884
  0
ARC
  8
WHITE
  6
CONTINUOUS
  10
170.626482
  20
172.511419
  40
0.495563
  50
-74.936279
  51
16.45456
  0
LINE
  8
WHITE
  6
CONTINUOUS
  10
171.101749
  20
172.651789
  11
169.785993
  21
177.43888
  0
ARC
  8
WHITE
  6
CONTINUOUS
  10
170.272174
  20
177.570124
  40
0.503584
  50
108.23176
  51
195.106936
  0
ARC
  8
WHITE
  6
CONTINUOUS
  10
180.864649
  20
144.106964
  40
35.603174
  50
96.831247
  51
107.574168
  0
ARC
  8
WHITE
  6
CONTINUOUS
  10
176.688662
  20
178.960113
  40
0.500741
  50
-0.269877
  51
96.749285
  0
LINE
  8
WHITE
  6
CONTINUOUS
  10
177.189398
  20
178.957754
  11
177.189398
  21
174.141322
  0
ARC
  8
WHITE
  6
CONTINUOUS
  10
177.687917
  20
174.141322
  40
0.49852
  50
180.0
  51
270.1263
  0
LINE
  8
WHITE
  6
CONTINUOUS
  10
177.689016
  20
173.642804
  11
178.188657
  21
173.641693
  0
ARC
  8
WHITE
  6
CONTINUOUS
  10
178.188657
  20
174.140212
  40
0.49852
  50
-90.0
  51
0.126267
  0
LINE
  8
WHITE
  6
CONTINUOUS
  10
178.687176
  20
174.141311
  11
178.688287
  21
179.168709
  0
ARC
  8
WHITE
  6
CONTINUOUS
  10
179.188273
  20
179.168767
  40
0.499986
  50
92.331701
  51
180.006594
  0
ARC
  8
WHITE
  6
CONTINUOUS
  10
180.820147
  20
144.107438
  40
35.599261
  50
83.799795
  51
92.660139
  0
ARC
  8
WHITE
  6
CONTINUOUS
  10
184.617265
  20
179.006479
  40
0.494293
  50
-10.337089
  51
84.461542
  0
LINE
  8
WHITE
  6
CONTINUOUS
  10
185.103535
  20
178.917784
  11
184.294134
  21
174.051389
  0
ARC
  8
WHITE
  6
CONTINUOUS
  10
184.780626
  20
173.960843
  40
0.494846
  50
169.456675
  51
261.202289
  0
LINE
  8
WHITE
  6
CONTINUOUS
  10
184.704941
  20
173.471818
  11
185.193468
  21
173.392988
  0
ARC
  8
WHITE
  6
CONTINUOUS
  10
185.272299
  20
173.881515
  40
0.494846
  50
-99.166441
  51
-9.0711
  0
LINE
  8
WHITE
  6
CONTINUOUS
  10
185.760956
  20
173.803497
  11
186.592432
  21
178.727925
  0
ARC
  8
WHITE
  6
CONTINUOUS
  10
187.080959
  20
178.649094
  40
0.494846
  50
79.44322
  51
170.833559
  0
ARC
  8
WHITE
  6
CONTINUOUS
  10
183.583002
  20
158.777923
  40
20.67152
  50
78.481864
  51
80.002687
  0
ARC
  8
WHITE
  6
CONTINUOUS
  10
172.363043
  20
93.237165
  40
87.157904
  50
75.817878
  51
79.857922
  0
ARC
  8
WHITE
  6
CONTINUOUS
  10
193.598353
  20
177.260123
  40
0.493061
  50
-13.7896
  51
76.05763
  0
LINE
  8
WHITE
  6
CONTINUOUS
  10
194.077202
  20
177.142599
  11
192.897761
  21
172.282699
  0
ARC
  8
WHITE
  6
CONTINUOUS
  10
193.386288
  20
172.163898
  40
0.502765
  50
166.332016
  51
256.1206
  0
LINE
  8
WHITE
  6
CONTINUOUS
  10
193.265685
  20
171.675813
  11
193.747132
  21
171.564343
  0
ARC
  8
WHITE
  6
CONTINUOUS
  10
193.865932
  20
172.05287
  40
0.502765
  50
-103.667984
  51
-13.701
  0
LINE
  8
WHITE
  6
CONTINUOUS
  10
194.354391
  20
171.933787
  11
195.525814
  21
176.730515
  0
ARC
  8
WHITE
  6
CONTINUOUS
  10
196.006933
  20
176.61381
  40
0.495071
  50
73.762092
  51
166.365045
  0
ARC
  8
WHITE
  6
CONTINUOUS
  10
172.311519
  20
93.24919
  40
87.16185
  50
69.574207
  51
74.130717
  0
ARC
  8
WHITE
  6
CONTINUOUS
  10
202.562208
  20
174.463381
  40
0.496726
  50
-22.758155
  51
70.198942
  0
LINE
  8
WHITE
  6
CONTINUOUS
  10
203.020262
  20
174.271226
  11
201.151646
  21
169.684624
  0
ARC
  8
WHITE
  6
CONTINUOUS
  10
201.607133
  20
169.486017
  40
0.496903
  50
156.44131
  51
248.056737
  0
LINE
  8
WHITE
  6
CONTINUOUS
  10
201.421446
  20
169.025113
  11
201.891098
  21
168.845246
  0
ARC
  8
WHITE
  6
CONTINUOUS
  10
202.079848
  20
169.304905
  40
0.496903
  50
-112.324427
  51
-22.2273
  0
LINE
  8
WHITE
  6
CONTINUOUS
  10
202.539826
  20
169.116936
  11
204.429218
  21
173.741618
  0
ARC
  8
WHITE
  6
CONTINUOUS
  10
204.888878
  20
173.552869
  40
0.496903
  50
67.94258
  51
157.675573
  0
ARC
  8
WHITE
  6
CONTINUOUS
  10
172.348167
  20
93.230164
  40
87.160822
  50
63.840773
  51
67.945896
  0
ARC
  8
WHITE
  6
CONTINUOUS
  10
210.555791
  20
171.01475
  40
0.499044
  50
-28.7821
  51
64.00504
  0
LINE
  8
WHITE
  6
CONTINUOUS
  10
210.993181
  20
170.77447
  11
208.626109
  21
166.486993
  0
ARC
  8
WHITE
  6
CONTINUOUS
  10
209.063737
  20
166.246569
  40
0.499321
  50
151.216448
  51
241.562633
  0
LINE
  8
WHITE
  6
CONTINUOUS
  10
208.825961
  20
165.807496
  11
209.255643
  21
165.557681
  0
ARC
  8
WHITE
  6
CONTINUOUS
  10
209.494355
  20
165.996245
  40
0.499321
  50
-118.55962
  51
-28.3269
  0
LINE
  8
WHITE
  6
CONTINUOUS
  10
209.933885
  20
165.759316
  11
212.343355
  21
170.124298
  0
ARC
  8
WHITE
  6
CONTINUOUS
  10
212.778672
  20
169.887312
  40
0.495644
  50
61.803132
  51
151.436111
  0
ARC
  8
WHITE
  6
CONTINUOUS
  10
172.30198
  20
93.253012
  40
87.16269
  50
57.722575
  51
62.155872
  0
ARC
  8
WHITE
  6
CONTINUOUS
  10
218.578736
  20
166.528073
  40
0.497996
  50
-33.7241
  51
57.19569
  0
LINE
  8
WHITE
  6
CONTINUOUS
  10
218.99293
  20
166.251589
  11
216.250461
  21
162.100243
  0
ARC
  8
WHITE
  6
CONTINUOUS
  10
216.66904
  20
161.82045
  40
0.50348
  50
146.239846
  51
235.8823
  0
LINE
  8
WHITE
  6
CONTINUOUS
  10
216.38664
  20
161.403625
  11
216.800054
  21
161.130961
  0
ARC
  8
WHITE
  6
CONTINUOUS
  10
217.079593
  20
161.549709
  40
0.50348
  50
-123.725454
  51
-33.479839
  0
LINE
  8
WHITE
  6
CONTINUOUS
  10
217.499536
  20
161.271967
  11
220.257493
  21
165.43777
  0
ARC
  8
WHITE
  6
CONTINUOUS
  10
220.672756
  20
165.160136
  40
0.499525
  50
56.703013
  51
146.234382
  0
ARC
  8
WHITE
  6
CONTINUOUS
  10
172.302997
  20
93.252328
  40
87.161865
  50
52.236321
  51
56.076329
  0
ARC
  8
WHITE
  6
CONTINUOUS
  10
185.925674
  20
110.837581
  40
64.91735
  50
51.973496
  51
52.236323
  0
ARC
  8
WHITE
  6
CONTINUOUS
  10
225.608432
  20
161.580795
  40
0.5
  50
-38.781751
  51
51.973496
  0
LINE
  8
WHITE
  6
CONTINUOUS
  10
13.531226
  20
273.298237
  11
13.531226
  21
273.597589
  0
ARC
  8
WHITE
  6
CONTINUOUS
  10
53.467099
  20
272.059283
  40
39.965489
  50
148.356886
  51
177.794091
  0
ARC
  8
WHITE
  6
CONTINUOUS
  10
19.016573
  20
293.284171
  40
0.49852
  50
-31.157
  51
90.0
  0
LINE
  8
WHITE
  6
CONTINUOUS
  10
19.016573
  20
293.782691
  11
11.452177
  21
293.782691
  0
ARC
  8
WHITE
  6
CONTINUOUS
  10
11.451066
  20
294.281209
  40
0.49852
  50
179.87225
  51
270.12775
  0
LINE
  8
WHITE
  6
CONTINUOUS
  10
10.952547
  20
294.282321
  11
10.952547
  21
294.781951
  0
ARC
  8
WHITE
  6
CONTINUOUS
  10
11.451066
  20
294.783062
  40
0.49852
  50
89.87225
  51
180.12775
  0
LINE
  8
WHITE
  6
CONTINUOUS
  10
11.452177
  20
295.281581
  11
20.685336
  21
295.280936
  0
ARC
  8
WHITE
  6
CONTINUOUS
  10
20.67457
  20
295.781096
  40
0.500276
  50
-88.766912
  51
-34.437091
  0
ARC
  8
WHITE
  6
CONTINUOUS
  10
53.46154
  20
272.045716
  40
39.976471
  50
90.70248
  51
144.07987
  0
ARC
  8
WHITE
  6
CONTINUOUS
  10
52.97142
  20
312.518812
  40
0.49963
  50
-90.00026
  51
-0.000142
  0
LINE
  8
WHITE
  6
CONTINUOUS
  10
53.471049
  20
312.518811
  11
53.469938
  21
317.515105
  0
ARC
  8
WHITE
  6
CONTINUOUS
  10
52.971419
  20
317.51622
  40
0.49852
  50
-0.1282
  51
90.0
  0
LINE
  8
WHITE
  6
CONTINUOUS
  10
52.971419
  20
318.01474
  11
43.979186
  21
318.015855
  0
ARC
  8
WHITE
  6
CONTINUOUS
  10
43.976971
  20
318.51437
  40
0.49852
  50
180.0
  51
270.2545
  0
LINE
  8
WHITE
  6
CONTINUOUS
  10
43.478452
  20
318.51437
  11
43.478452
  21
319.013999
  0
ARC
  8
WHITE
  6
CONTINUOUS
  10
43.97697
  20
319.015115
  40
0.49852
  50
89.744641
  51
180.128177
  0
LINE
  8
WHITE
  6
CONTINUOUS
  10
43.979192
  20
319.513629
  11
52.971419
  21
319.513629
  0
ARC
  8
WHITE
  6
CONTINUOUS
  10
52.971418
  20
320.01326
  40
0.499631
  50
-89.999859
  51
-0.000142
  0
LINE
  8
WHITE
  6
CONTINUOUS
  10
53.471049
  20
320.013259
  11
53.459945
  21
325.009575
  0
ARC
  8
WHITE
  6
CONTINUOUS
  10
52.961427
  20
325.010668
  40
0.49852
  50
-0.1257
  51
90.00001
  0
ARC
  8
WHITE
  6
CONTINUOUS
  10
53.475103
  20
272.047825
  40
53.463831
  50
90.550502
  51
113.42952
  0
ARC
  8
WHITE
  6
CONTINUOUS
  10
32.422933
  20
320.644936
  40
0.502824
  50
114.204448
  51
204.935295
  0
LINE
  8
WHITE
  6
CONTINUOUS
  10
31.96698
  20
320.432948
  11
34.046535
  21
315.901711
  0
ARC
  8
WHITE
  6
CONTINUOUS
  10
33.596883
  20
315.695347
  40
0.494745
  50
-65.045249
  51
24.65234
  0
LINE
  8
WHITE
  6
CONTINUOUS
  10
33.805618
  20
315.24679
  11
33.354289
  21
315.041461
  0
ARC
  8
WHITE
  6
CONTINUOUS
  10
33.136114
  20
315.485502
  40
0.494745
  50
-155.045249
  51
-63.8333
  0
LINE
  8
WHITE
  6
CONTINUOUS
  10
32.687557
  20
315.276768
  11
30.599104
  21
319.803415
  0
ARC
  8
WHITE
  6
CONTINUOUS
  10
30.146057
  20
319.598333
  40
0.497303
  50
24.354903
  51
116.004212
  0
ARC
  8
WHITE
  6
CONTINUOUS
  10
53.455794
  20
272.045646
  40
53.455794
  50
116.112503
  51
248.844653
  0
ARC
  8
WHITE
  6
CONTINUOUS
  10
33.987705
  20
221.726071
  40
0.49852
  50
0.0
  51
69.32541
  0
LINE
  8
WHITE
  6
CONTINUOUS
  10
34.486225
  20
221.726071
  11
34.486225
  21
210.594318
  0
ARC
  8
WHITE
  6
CONTINUOUS
  10
39.482523
  20
210.594318
  40
4.996299
  50
180.0
  51
270.0
  0
LINE
  8
WHITE
  6
CONTINUOUS
  10
39.482523
  20
205.598019
  11
40.731598
  21
205.598019
  0
ARC
  8
WHITE
  6
CONTINUOUS
  10
40.730488
  20
206.097648
  40
0.49963
  50
-89.872676
  51
0.000142
  0
LINE
  8
WHITE
  6
CONTINUOUS
  10
41.230117
  20
206.097649
  11
41.230117
  21
212.094318
  0
ARC
  8
WHITE
  6
CONTINUOUS
  10
41.728637
  20
212.094319
  40
0.49852
  50
89.872392
  51
180.000142
  0
LINE
  8
WHITE
  6
CONTINUOUS
  10
41.729747
  20
212.592837
  11
42.229378
  21
212.592832
  0
ARC
  8
WHITE
  6
CONTINUOUS
  10
42.231598
  20
212.094318
  40
0.49852
  50
0.0
  51
90.25507
  0
LINE
  8
WHITE
  6
CONTINUOUS
  10
42.730117
  20
212.094318
  11
42.730117
  21
206.097649
  0
ARC
  8
WHITE
  6
CONTINUOUS
  10
43.229748
  20
206.09765
  40
0.499631
  50
-179.999858
  51
-90.000141
  0
LINE
  8
WHITE
  6
CONTINUOUS
  10
43.229747
  20
205.598019
  11
44.478822
  21
205.598019
  0
ARC
  8
WHITE
  6
CONTINUOUS
  10
44.478822
  20
210.594318
  40
4.996299
  50
-90.0
  51
0.0
  0
LINE
  8
WHITE
  6
CONTINUOUS
  10
49.475121
  20
210.594318
  11
49.475121
  21
218.198684
  0
ARC
  8
WHITE
  6
CONTINUOUS
  10
49.97408
  20
218.199834
  40
0.49896
  50
86.606584
  51
180.132011
  0
ARC
  8
WHITE
  6
CONTINUOUS
  10
53.459861
  20
272.045383
  40
53.459307
  50
-93.706868
  51
-90.534232
  0
ARC
  8
WHITE
  6
CONTINUOUS
  10
52.9713
  20
219.088051
  40
0.49975
  50
-91.134097
  51
-0.002965
  0
LINE
  8
WHITE
  6
CONTINUOUS
  10
53.471049
  20
219.088025
  11
53.469934
  21
224.08433
  0
ARC
  8
WHITE
  6
CONTINUOUS
  10
52.971419
  20
224.086545
  40
0.49852
  50
-0.2545
  51
90.0
  0
LINE
  8
WHITE
  6
CONTINUOUS
  10
52.971419
  20
224.585064
  11
43.979191
  21
224.585069
  0
ARC
  8
WHITE
  6
CONTINUOUS
  10
43.976971
  20
225.083584
  40
0.49852
  50
180.0
  51
270.2551
  0
LINE
  8
WHITE
  6
CONTINUOUS
  10
43.478452
  20
225.083584
  11
43.478452
  21
225.583214
  0
ARC
  8
WHITE
  6
CONTINUOUS
  10
43.97697
  20
225.584329
  40
0.49852
  50
89.744641
  51
180.128177
  0
LINE
  8
WHITE
  6
CONTINUOUS
  10
43.979192
  20
226.082844
  11
52.971419
  21
226.082844
  0
ARC
  8
WHITE
  6
CONTINUOUS
  10
52.971418
  20
226.582475
  40
0.499631
  50
-89.999859
  51
-0.000142
  0
LINE
  8
WHITE
  6
CONTINUOUS
  10
53.471049
  20
226.582474
  11
53.461131
  21
231.578816
  0
ARC
  8
WHITE
  6
CONTINUOUS
  10
52.962537
  20
231.580993
  40
0.498599
  50
-0.2501
  51
88.97925
  0
ARC
  8
WHITE
  6
CONTINUOUS
  10
53.466545
  20
272.045654
  40
39.969209
  50
-144.092576
  51
-90.70978
  0
ARC
  8
WHITE
  6
CONTINUOUS
  10
20.685337
  20
248.317483
  40
0.49852
  50
35.16825
  51
90.0
  0
LINE
  8
WHITE
  6
CONTINUOUS
  10
20.685337
  20
248.816003
  11
11.452177
  21
248.816003
  0
ARC
  8
WHITE
  6
CONTINUOUS
  10
11.451066
  20
249.314521
  40
0.49852
  50
179.87225
  51
270.12775
  0
LINE
  8
WHITE
  6
CONTINUOUS
  10
10.952547
  20
249.315633
  11
10.952547
  21
249.815263
  0
ARC
  8
WHITE
  6
CONTINUOUS
  10
11.451066
  20
249.816374
  40
0.49852
  50
89.87225
  51
180.12775
  0
LINE
  8
WHITE
  6
CONTINUOUS
  10
11.452177
  20
250.314892
  11
19.016573
  21
250.314892
  0
ARC
  8
WHITE
  6
CONTINUOUS
  10
19.017515
  20
250.815633
  40
0.500741
  50
-90.107771
  51
31.106308
  0
ARC
  8
WHITE
  6
CONTINUOUS
  10
53.455907
  20
272.045463
  40
39.955536
  50
-178.241915
  51
-148.341062
  0
ARC
  8
WHITE
  6
CONTINUOUS
  10
13.021015
  20
270.800827
  40
0.49852
  50
2.163246
  51
90.0
  0
LINE
  8
WHITE
  6
CONTINUOUS
  10
13.021015
  20
271.299347
  11
7.005471
  21
271.299347
  0
ARC
  8
WHITE
  6
CONTINUOUS
  10
7.00436
  20
271.797865
  40
0.49852
  50
179.87225
  51
270.12775
  0
LINE
  8
WHITE
  6
CONTINUOUS
  10
6.505842
  20
271.798977
  11
6.505842
  21
272.298607
  0
ARC
  8
WHITE
  6
CONTINUOUS
  10
7.00436
  20
272.299718
  40
0.49852
  50
89.87225
  51
180.12775
  0
LINE
  8
WHITE
  6
CONTINUOUS
  10
7.005471
  20
272.798237
  11
13.031226
  21
272.798237
  0
ARC
  8
WHITE
  6
CONTINUOUS
  10
13.031226
  20
273.298237
  40
0.5
  50
-90.0
  51
0.0
  0
ARC
  8
WHITE
  6
CONTINUOUS
  10
234.548017
  20
282.650938
  40
0.49852
  50
-87.8366
  51
0.0
  0
LINE
  8
WHITE
  6
CONTINUOUS
  10
235.046537
  20
282.650938
  11
235.046537
  21
288.666481
  0
ARC
  8
WHITE
  6
CONTINUOUS
  10
235.545055
  20
288.667593
  40
0.49852
  50
89.87225
  51
180.12775
  0
LINE
  8
WHITE
  6
CONTINUOUS
  10
235.546167
  20
289.166111
  11
236.045796
  21
289.166111
  0
ARC
  8
WHITE
  6
CONTINUOUS
  10
236.048018
  20
288.667596
  40
0.49852
  50
-0.128177
  51
90.255359
  0
LINE
  8
WHITE
  6
CONTINUOUS
  10
236.546537
  20
288.666481
  11
236.546537
  21
282.650938
  0
ARC
  8
WHITE
  6
CONTINUOUS
  10
237.053885
  20
282.658362
  40
0.507403
  50
-179.161651
  51
-92.125847
  0
ARC
  8
WHITE
  6
CONTINUOUS
  10
235.797857
  20
242.197003
  40
39.973455
  50
58.354447
  51
88.226372
  0
ARC
  8
WHITE
  6
CONTINUOUS
  10
257.027192
  20
276.658994
  40
0.502695
  50
-120.713025
  51
-0.285431
  0
LINE
  8
WHITE
  6
CONTINUOUS
  10
257.529881
  20
276.656489
  11
257.529881
  21
284.219775
  0
ARC
  8
WHITE
  6
CONTINUOUS
  10
258.028395
  20
284.221997
  40
0.49852
  50
89.871823
  51
180.255359
  0
LINE
  8
WHITE
  6
CONTINUOUS
  10
258.029511
  20
284.720516
  11
258.529141
  21
284.720516
  0
ARC
  8
WHITE
  6
CONTINUOUS
  10
258.531366
  20
284.222001
  40
0.49852
  50
-0.255787
  51
90.255787
  0
LINE
  8
WHITE
  6
CONTINUOUS
  10
259.029881
  20
284.219775
  11
259.029881
  21
274.986615
  0
ARC
  8
WHITE
  6
CONTINUOUS
  10
259.527393
  20
274.982069
  40
0.497533
  50
179.476405
  51
234.519949
  0
ARC
  8
WHITE
  6
CONTINUOUS
  10
235.794933
  20
242.197094
  40
39.975734
  50
0.723158
  51
54.094662
  0
ARC
  8
WHITE
  6
CONTINUOUS
  10
276.266001
  20
242.700533
  40
0.49852
  50
179.8735
  51
270.0
  0
LINE
  8
WHITE
  6
CONTINUOUS
  10
276.266001
  20
242.202014
  11
281.2623
  21
242.202014
  0
ARC
  8
WHITE
  6
CONTINUOUS
  10
281.262298
  20
242.701645
  40
0.499631
  50
-89.999858
  51
-0.000141
  0
LINE
  8
WHITE
  6
CONTINUOUS
  10
281.76193
  20
242.701643
  11
281.76193
  21
251.693871
  0
ARC
  8
WHITE
  6
CONTINUOUS
  10
282.260448
  20
251.694986
  40
0.49852
  50
89.744641
  51
180.128177
  0
LINE
  8
WHITE
  6
CONTINUOUS
  10
282.26267
  20
252.193501
  11
282.761189
  21
252.193501
  0
ARC
  8
WHITE
  6
CONTINUOUS
  10
282.763411
  20
251.694986
  40
0.49852
  50
-0.128177
  51
90.255359
  0
LINE
  8
WHITE
  6
CONTINUOUS
  10
283.261929
  20
251.693871
  11
283.261931
  21
242.701634
  0
ARC
  8
WHITE
  6
CONTINUOUS
  10
283.760449
  20
242.700533
  40
0.49852
  50
179.8735
  51
270.0
  0
LINE
  8
WHITE
  6
CONTINUOUS
  10
283.760449
  20
242.202014
  11
288.756748
  21
242.202014
  0
ARC
  8
WHITE
  6
CONTINUOUS
  10
288.747864
  20
242.710449
  40
0.508513
  50
-88.999016
  51
0.008607
  0
ARC
  8
WHITE
  6
CONTINUOUS
  10
235.794835
  20
242.205874
  40
53.463925
  50
0.540829
  51
3.714393
  0
ARC
  8
WHITE
  6
CONTINUOUS
  10
289.644068
  20
245.699427
  40
0.49852
  50
89.767719
  51
183.450024
  0
LINE
  8
WHITE
  6
CONTINUOUS
  10
289.646089
  20
246.197942
  11
297.251566
  21
246.197942
  0
ARC
  8
WHITE
  6
CONTINUOUS
  10
297.251566
  20
251.194241
  40
4.996299
  50
-90.0
  51
0.0
  0
LINE
  8
WHITE
  6
CONTINUOUS
  10
302.247864
  20
251.194241
  11
302.245643
  21
252.44333
  0
ARC
  8
WHITE
  6
CONTINUOUS
  10
301.747124
  20
252.444426
  40
0.49852
  50
-0.126
  51
90.0
  0
LINE
  8
WHITE
  6
CONTINUOUS
  10
301.747124
  20
252.942945
  11
295.752653
  21
252.944061
  0
ARC
  8
WHITE
  6
CONTINUOUS
  10
295.750456
  20
253.442575
  40
0.49852
  50
180.0
  51
270.2526
  0
LINE
  8
WHITE
  6
CONTINUOUS
  10
295.251936
  20
253.442575
  11
295.251936
  21
253.942205
  0
ARC
  8
WHITE
  6
CONTINUOUS
  10
295.750454
  20
253.94332
  40
0.49852
  50
89.744641
  51
180.128177
  0
LINE
  8
WHITE
  6
CONTINUOUS
  10
295.752676
  20
254.441835
  11
301.747114
  21
254.44295
  0
ARC
  8
WHITE
  6
CONTINUOUS
  10
301.749345
  20
254.941465
  40
0.49852
  50
-90.2564
  51
0.0
  0
LINE
  8
WHITE
  6
CONTINUOUS
  10
302.247864
  20
254.941465
  11
302.247864
  21
256.19054
  0
ARC
  8
WHITE
  6
CONTINUOUS
  10
297.251566
  20
256.19054
  40
4.996299
  50
0.0
  51
90.0
  0
LINE
  8
WHITE
  6
CONTINUOUS
  10
297.251566
  20
261.186838
  11
286.118702
  21
261.186838
  0
ARC
  8
WHITE
  6
CONTINUOUS
  10
286.114708
  20
261.693807
  40
0.506984
  50
-158.10584
  51
-89.548675
  0
ARC
  8
WHITE
  6
CONTINUOUS
  10
235.795018
  20
242.205401
  40
53.454795
  50
21.164121
  51
153.874729
  0
ARC
  8
WHITE
  6
CONTINUOUS
  10
188.25218
  20
265.527938
  40
0.499535
  50
154.444532
  51
245.036854
  0
LINE
  8
WHITE
  6
CONTINUOUS
  10
188.041358
  20
265.075069
  11
192.564833
  21
262.979187
  0
ARC
  8
WHITE
  6
CONTINUOUS
  10
192.369263
  20
262.524736
  40
0.494745
  50
-24.954751
  51
66.71573
  0
LINE
  8
WHITE
  6
CONTINUOUS
  10
192.81782
  20
262.316002
  11
192.601487
  21
261.870223
  0
ARC
  8
WHITE
  6
CONTINUOUS
  10
192.147206
  20
262.066187
  40
0.494745
  50
-114.954751
  51
-23.334
  0
LINE
  8
WHITE
  6
CONTINUOUS
  10
191.938471
  20
261.61763
  11
187.411825
  21
263.706083
  0
ARC
  8
WHITE
  6
CONTINUOUS
  10
187.198535
  20
263.258559
  40
0.495752
  50
64.517503
  51
156.636374
  0
ARC
  8
WHITE
  6
CONTINUOUS
  10
235.801132
  20
242.216469
  40
53.457833
  50
156.59063
  51
179.470445
  0
ARC
  8
WHITE
  6
CONTINUOUS
  10
182.845231
  20
242.70174
  40
0.499726
  50
178.99048
  51
269.997395
  0
LINE
  8
WHITE
  6
CONTINUOUS
  10
182.845208
  20
242.202014
  11
187.832624
  21
242.202014
  0
ARC
  8
WHITE
  6
CONTINUOUS
  10
187.832623
  20
242.701645
  40
0.499631
  50
-89.999859
  51
-0.000141
  0
LINE
  8
WHITE
  6
CONTINUOUS
  10
188.332254
  20
242.701643
  11
188.332254
  21
251.693871
  0
ARC
  8
WHITE
  6
CONTINUOUS
  10
188.830774
  20
251.694981
  40
0.498521
  50
90.0
  51
180.127607
  0
LINE
  8
WHITE
  6
CONTINUOUS
  10
188.830774
  20
252.193501
  11
189.330404
  21
252.193501
  0
ARC
  8
WHITE
  6
CONTINUOUS
  10
189.331515
  20
251.694982
  40
0.49852
  50
-0.12775
  51
90.12775
  0
LINE
  8
WHITE
  6
CONTINUOUS
  10
189.830033
  20
251.693871
  11
189.830033
  21
242.701643
  0
ARC
  8
WHITE
  6
CONTINUOUS
  10
190.330774
  20
242.702755
  40
0.500741
  50
-179.872818
  51
-90.0
  0
LINE
  8
WHITE
  6
CONTINUOUS
  10
190.330774
  20
242.202014
  11
195.335955
  21
242.202014
  0
ARC
  8
WHITE
  6
CONTINUOUS
  10
195.327147
  20
242.710451
  40
0.508513
  50
-89.007615
  51
-0.992436
  0
ARC
  8
WHITE
  6
CONTINUOUS
  10
235.794862
  20
242.208118
  40
39.962325
  50
125.899139
  51
179.292394
  0
ARC
  8
WHITE
  6
CONTINUOUS
  10
212.074666
  20
274.986615
  40
0.49852
  50
-54.7272
  51
0.0
  0
LINE
  8
WHITE
  6
CONTINUOUS
  10
212.573185
  20
274.986615
  11
212.573185
  21
284.219775
  0
ARC
  8
WHITE
  6
CONTINUOUS
  10
213.0717
  20
284.221997
  40
0.49852
  50
89.871823
  51
180.255359
  0
LINE
  8
WHITE
  6
CONTINUOUS
  10
213.072815
  20
284.720516
  11
213.572445
  21
284.720516
  0
ARC
  8
WHITE
  6
CONTINUOUS
  10
213.57356
  20
284.221997
  40
0.49852
  50
-0.255359
  51
90.128177
  0
LINE
  8
WHITE
  6
CONTINUOUS
  10
214.072075
  20
284.219775
  11
214.072075
  21
275.687496
  0
ARC
  8
WHITE
  6
CONTINUOUS
  10
236.099632
  20
241.577276
  40
40.604438
  50
92.1634
  51
122.853399
  0
LINE
  8
WHITE
  6
CONTINUOUS
  10
319.593903
  20
63.963314
  11
319.593903
  21
53.711649
  0
ARC
  8
WHITE
  6
CONTINUOUS
  10
320.092418
  20
53.709427
  40
0.49852
  50
179.744641
  51
270.128177
  0
LINE
  8
WHITE
  6
CONTINUOUS
  10
320.093533
  20
53.210909
  11
327.088351
  21
53.210909
  0
ARC
  8
WHITE
  6
CONTINUOUS
  10
327.088351
  20
52.712389
  40
0.49852
  50
-0.1272
  51
90.0
  0
LINE
  8
WHITE
  6
CONTINUOUS
  10
327.58687
  20
52.711282
  11
327.587981
  21
52.211649
  0
ARC
  8
WHITE
  6
CONTINUOUS
  10
327.08835
  20
52.21165
  40
0.499631
  50
-89.999858
  51
-0.000142
  0
LINE
  8
WHITE
  6
CONTINUOUS
  10
327.088351
  20
51.712019
  11
320.093533
  21
51.712019
  0
ARC
  8
WHITE
  6
CONTINUOUS
  10
320.092423
  20
51.213501
  40
0.49852
  50
89.872392
  51
180.000142
  0
LINE
  8
WHITE
  6
CONTINUOUS
  10
319.593903
  20
51.213499
  11
319.593903
  21
28.47923
  0
ARC
  8
WHITE
  6
CONTINUOUS
  10
318.595754
  20
28.47923
  40
0.998149
  50
-90.0642
  51
0.0
  0
LINE
  8
WHITE
  6
CONTINUOUS
  10
318.594635
  20
27.481081
  11
317.595384
  21
27.481081
  0
ARC
  8
WHITE
  6
CONTINUOUS
  10
317.594271
  20
26.482932
  40
0.998149
  50
89.936125
  51
180.127501
  0
LINE
  8
WHITE
  6
CONTINUOUS
  10
316.596124
  20
26.480711
  11
316.596124
  21
3.497737
  0
ARC
  8
WHITE
  6
CONTINUOUS
  10
318.093903
  20
3.497737
  40
1.497779
  50
180.0
  51
270.0414
  0
LINE
  8
WHITE
  6
CONTINUOUS
  10
318.094986
  20
1.999958
  11
322.092053
  21
1.998847
  0
ARC
  8
WHITE
  6
CONTINUOUS
  10
322.092053
  20
3.496626
  40
1.497779
  50
-90.0
  51
0.042397
  0
LINE
  8
WHITE
  6
CONTINUOUS
  10
323.589832
  20
3.497735
  11
323.590942
  21
6.275679
  0
ARC
  8
WHITE
  6
CONTINUOUS
  10
324.59194
  20
6.276636
  40
1.000998
  50
108.667243
  51
180.054809
  0
LINE
  8
WHITE
  6
CONTINUOUS
  10
324.271549
  20
7.224975
  11
340.499527
  21
12.632081
  0
ARC
  8
WHITE
  6
CONTINUOUS
  10
340.817926
  20
11.68516
  40
0.999018
  50
11.335806
  51
108.585007
  0
LINE
  8
WHITE
  6
CONTINUOUS
  10
341.797455
  20
11.881526
  11
342.337055
  21
9.20462
  0
ARC
  8
WHITE
  6
CONTINUOUS
  10
343.805438
  20
9.490324
  40
1.495919
  50
-168.989505
  51
-89.937211
  0
LINE
  8
WHITE
  6
CONTINUOUS
  10
343.807077
  20
7.994405
  11
348.072806
  21
7.994405
  0
ARC
  8
WHITE
  6
CONTINUOUS
  10
348.072806
  20
9.492185
  40
1.497779
  50
-90.0
  51
0.042397
  0
LINE
  8
WHITE
  6
CONTINUOUS
  10
349.570585
  20
9.493293
  11
349.571695
  21
18.276788
  0
ARC
  8
WHITE
  6
CONTINUOUS
  10
348.073917
  20
18.275675
  40
1.497779
  50
0.042573
  51
50.172823
  0
ARC
  8
WHITE
  6
CONTINUOUS
  10
376.616859
  20
52.456224
  40
43.033216
  50
-140.720372
  51
-129.865321
  0
ARC
  8
WHITE
  6
CONTINUOUS
  10
342.917736
  20
24.892998
  40
0.502544
  50
39.35174
  51
128.6566
  0
LINE
  8
WHITE
  6
CONTINUOUS
  10
342.603821
  20
25.285436
  11
339.299305
  21
22.573605
  0
ARC
  8
WHITE
  6
CONTINUOUS
  10
338.980653
  20
22.962206
  40
0.502544
  50
-139.1246
  51
-50.648247
  0
LINE
  8
WHITE
  6
CONTINUOUS
  10
338.600662
  20
22.633333
  11
338.28006
  21
23.024382
  0
ARC
  8
WHITE
  6
CONTINUOUS
  10
338.669451
  20
23.343678
  40
0.503562
  50
129.20971
  51
219.351348
  0
LINE
  8
WHITE
  6
CONTINUOUS
  10
338.351119
  20
23.733857
  11
341.717514
  21
26.480711
  0
ARC
  8
WHITE
  6
CONTINUOUS
  10
341.391872
  20
26.863474
  40
0.502544
  50
-49.609946
  51
36.195641
  0
ARC
  8
WHITE
  6
CONTINUOUS
  10
376.610862
  20
52.461471
  40
43.036347
  50
143.991556
  51
216.008382
  0
ARC
  8
WHITE
  6
CONTINUOUS
  10
341.398861
  20
78.051407
  40
0.492149
  50
-35.9133
  51
50.8888
  0
LINE
  8
WHITE
  6
CONTINUOUS
  10
341.709322
  20
78.433276
  11
338.351119
  21
81.191292
  0
ARC
  8
WHITE
  6
CONTINUOUS
  10
338.671209
  20
81.581646
  40
0.504811
  50
140.790632
  51
230.648309
  0
LINE
  8
WHITE
  6
CONTINUOUS
  10
338.28006
  20
81.900766
  11
338.600934
  21
82.289367
  0
ARC
  8
WHITE
  6
CONTINUOUS
  10
338.979311
  20
81.979315
  40
0.489185
  50
49.145774
  51
140.667912
  0
LINE
  8
WHITE
  6
CONTINUOUS
  10
339.299305
  20
82.349323
  11
342.606855
  21
79.641329
  0
ARC
  8
WHITE
  6
CONTINUOUS
  10
342.920855
  20
80.033699
  40
0.502544
  50
-128.669093
  51
-39.906359
  0
ARC
  8
WHITE
  6
CONTINUOUS
  10
376.616749
  20
52.46682
  40
43.033058
  50
129.865304
  51
140.720363
  0
ARC
  8
WHITE
  6
CONTINUOUS
  10
348.075026
  20
86.645029
  40
1.495359
  50
-50.1508
  51
0.042786
  0
LINE
  8
WHITE
  6
CONTINUOUS
  10
349.570385
  20
86.646146
  11
349.571695
  21
95.429622
  0
ARC
  8
WHITE
  6
CONTINUOUS
  10
348.073916
  20
95.429622
  40
1.497779
  50
0.0
  51
90.04274
  0
LINE
  8
WHITE
  6
CONTINUOUS
  10
348.072799
  20
96.9274
  11
343.807077
  21
96.928522
  0
ARC
  8
WHITE
  6
CONTINUOUS
  10
343.806752
  20
95.430743
  40
1.497779
  50
89.987568
  51
168.887541
  0
LINE
  8
WHITE
  6
CONTINUOUS
  10
342.337055
  20
95.719418
  11
341.797455
  21
93.041402
  0
ARC
  8
WHITE
  6
CONTINUOUS
  10
340.817905
  20
93.24061
  40
0.999601
  50
-108.572522
  51
-11.49532
  0
LINE
  8
WHITE
  6
CONTINUOUS
  10
340.499527
  20
92.293067
  11
324.27155
  21
97.697941
  0
ARC
  8
WHITE
  6
CONTINUOUS
  10
324.590202
  20
98.646128
  40
1.000299
  50
179.8723
  51
251.4243
  0
LINE
  8
WHITE
  6
CONTINUOUS
  10
323.589906
  20
98.648357
  11
323.590942
  21
101.425191
  0
ARC
  8
WHITE
  6
CONTINUOUS
  10
322.093163
  20
101.425191
  40
1.497779
  50
0.0
  51
90.04274
  0
LINE
  8
WHITE
  6
CONTINUOUS
  10
322.092046
  20
102.92297
  11
318.095014
  21
102.924081
  0
ARC
  8
WHITE
  6
CONTINUOUS
  10
318.093903
  20
101.426302
  40
1.497779
  50
89.957511
  51
180.042489
  0
LINE
  8
WHITE
  6
CONTINUOUS
  10
316.596124
  20
101.425191
  11
316.596124
  21
78.443327
  0
ARC
  8
WHITE
  6
CONTINUOUS
  10
317.594273
  20
78.442216
  40
0.998149
  50
179.936232
  51
270.063768
  0
LINE
  8
WHITE
  6
CONTINUOUS
  10
317.595384
  20
77.444068
  11
318.594644
  21
77.444068
  0
ARC
  8
WHITE
  6
CONTINUOUS
  10
318.594644
  20
76.445918
  40
0.998149
  50
-0.1272
  51
90.0
  0
LINE
  8
WHITE
  6
CONTINUOUS
  10
319.592791
  20
76.443702
  11
319.593903
  21
63.963314
  0
LINE
  8
WHITE
  6
CONTINUOUS
  10
391.230834
  20
76.443698
  11
391.230834
  21
28.47923
  0
ARC
  8
WHITE
  6
CONTINUOUS
  10
392.228983
  20
28.47923
  40
0.998149
  50
180.0
  51
270.063733
  0
LINE
  8
WHITE
  6
CONTINUOUS
  10
392.230094
  20
27.481081
  11
393.229354
  21
27.481081
  0
ARC
  8
WHITE
  6
CONTINUOUS
  10
393.229354
  20
26.482931
  40
0.998149
  50
-0.1275
  51
90.0
  0
LINE
  8
WHITE
  6
CONTINUOUS
  10
394.2275
  20
26.48071
  11
394.228613
  21
3.497737
  0
ARC
  8
WHITE
  6
CONTINUOUS
  10
392.730834
  20
3.497737
  40
1.497779
  50
-90.0428
  51
0.0
  0
LINE
  8
WHITE
  6
CONTINUOUS
  10
392.729715
  20
1.999958
  11
388.732685
  21
1.998847
  0
ARC
  8
WHITE
  6
CONTINUOUS
  10
388.732685
  20
3.497737
  40
1.49889
  50
-179.999984
  51
-90.000016
  0
LINE
  8
WHITE
  6
CONTINUOUS
  10
387.233795
  20
3.497737
  11
387.233795
  21
6.275679
  0
ARC
  8
WHITE
  6
CONTINUOUS
  10
386.235646
  20
6.275679
  40
0.998149
  50
0.0
  51
71.9892
  0
LINE
  8
WHITE
  6
CONTINUOUS
  10
386.54427
  20
7.224917
  11
370.316328
  21
12.632081
  0
ARC
  8
WHITE
  6
CONTINUOUS
  10
369.997675
  20
11.683894
  40
1.000299
  50
71.424276
  51
168.5905
  0
LINE
  8
WHITE
  6
CONTINUOUS
  10
369.017144
  20
11.881773
  11
368.488793
  21
9.20462
  0
ARC
  8
WHITE
  6
CONTINUOUS
  10
367.017963
  20
9.493296
  40
1.498891
  50
-89.969118
  51
-11.104167
  0
LINE
  8
WHITE
  6
CONTINUOUS
  10
367.018771
  20
7.994405
  11
362.751931
  21
7.994405
  0
ARC
  8
WHITE
  6
CONTINUOUS
  10
362.751932
  20
9.493295
  40
1.49889
  50
-179.999984
  51
-90.000016
  0
LINE
  8
WHITE
  6
CONTINUOUS
  10
361.253042
  20
9.493295
  11
361.253042
  21
18.276788
  0
ARC
  8
WHITE
  6
CONTINUOUS
  10
362.750821
  20
18.276788
  40
1.497779
  50
129.8211
  51
180.0
  0
ARC
  8
WHITE
  6
CONTINUOUS
  10
334.171799
  20
52.440699
  40
43.043589
  50
-50.083408
  51
-39.241647
  0
ARC
  8
WHITE
  6
CONTINUOUS
  10
367.897009
  20
24.892998
  40
0.502544
  50
50.45291
  51
140.6483
  0
LINE
  8
WHITE
  6
CONTINUOUS
  10
368.216985
  20
25.28051
  11
371.51655
  21
22.573605
  0
ARC
  8
WHITE
  6
CONTINUOUS
  10
371.835202
  20
22.962206
  40
0.502544
  50
-129.351753
  51
-40.1402
  0
LINE
  8
WHITE
  6
CONTINUOUS
  10
372.219382
  20
22.638236
  11
372.535795
  21
23.024382
  0
ARC
  8
WHITE
  6
CONTINUOUS
  10
372.147194
  20
23.343035
  40
0.502544
  50
-39.351753
  51
50.90502
  0
LINE
  8
WHITE
  6
CONTINUOUS
  10
372.464102
  20
23.73306
  11
369.108334
  21
26.480711
  0
ARC
  8
WHITE
  6
CONTINUOUS
  10
369.426986
  20
26.869312
  40
0.502544
  50
144.5493
  51
230.648247
  0
ARC
  8
WHITE
  6
CONTINUOUS
  10
334.196816
  20
52.461596
  40
43.042053
  50
-36.002178
  51
-1.649811
  0
ARC
  8
WHITE
  6
CONTINUOUS
  10
377.719546
  20
51.2135
  40
0.498599
  50
89.854017
  51
178.978678
  0
LINE
  8
WHITE
  6
CONTINUOUS
  10
377.720817
  20
51.712097
  11
384.725653
  21
51.712019
  0
ARC
  8
WHITE
  6
CONTINUOUS
  10
384.725653
  20
52.210539
  40
0.49852
  50
-90.0
  51
0.126755
  0
LINE
  8
WHITE
  6
CONTINUOUS
  10
385.224171
  20
52.211641
  11
385.225283
  21
52.711279
  0
ARC
  8
WHITE
  6
CONTINUOUS
  10
384.726765
  20
52.71239
  40
0.49852
  50
-0.12775
  51
90.12775
  0
LINE
  8
WHITE
  6
CONTINUOUS
  10
384.725653
  20
53.210909
  11
377.720842
  21
53.210909
  0
ARC
  8
WHITE
  6
CONTINUOUS
  10
377.72082
  20
53.710618
  40
0.49971
  50
-178.843487
  51
-89.997408
  0
ARC
  8
WHITE
  6
CONTINUOUS
  10
334.195332
  20
52.459553
  40
43.043773
  50
1.652102
  51
36.00294
  0
ARC
  8
WHITE
  6
CONTINUOUS
  10
369.421072
  20
78.054653
  40
0.498872
  50
128.82113
  51
215.941556
  0
LINE
  8
WHITE
  6
CONTINUOUS
  10
369.108334
  20
78.443327
  11
372.464736
  21
81.191292
  0
ARC
  8
WHITE
  6
CONTINUOUS
  10
372.146083
  20
81.579893
  40
0.502544
  50
-50.648247
  51
39.46826
  0
LINE
  8
WHITE
  6
CONTINUOUS
  10
372.534036
  20
81.899335
  11
372.224914
  21
82.289367
  0
ARC
  8
WHITE
  6
CONTINUOUS
  10
371.836313
  20
81.970714
  40
0.502544
  50
39.351753
  51
130.1828
  0
LINE
  8
WHITE
  6
CONTINUOUS
  10
371.512057
  20
82.354653
  11
368.217882
  21
79.641329
  0
ARC
  8
WHITE
  6
CONTINUOUS
  10
367.898142
  20
80.031259
  40
0.504262
  50
-140.611954
  51
-50.648456
  0
ARC
  8
WHITE
  6
CONTINUOUS
  10
334.197434
  20
52.456984
  40
43.039721
  50
39.289249
  51
50.131131
  0
ARC
  8
WHITE
  6
CONTINUOUS
  10
362.750795
  20
86.637299
  40
1.49778
  50
179.661819
  51
229.963116
  0
LINE
  8
WHITE
  6
CONTINUOUS
  10
361.253042
  20
86.64614
  11
361.253042
  21
95.429622
  0
ARC
  8
WHITE
  6
CONTINUOUS
  10
362.751943
  20
95.429621
  40
1.498901
  50
90.00044
  51
179.999984
  0
LINE
  8
WHITE
  6
CONTINUOUS
  10
362.751931
  20
96.928522
  11
367.018771
  21
96.928522
  0
ARC
  8
WHITE
  6
CONTINUOUS
  10
367.018771
  20
95.430743
  40
1.497779
  50
11.11034
  51
90.0
  0
LINE
  8
WHITE
  6
CONTINUOUS
  10
368.488478
  20
95.719364
  11
369.0184
  21
93.041402
  0
ARC
  8
WHITE
  6
CONTINUOUS
  10
369.996565
  20
93.240144
  40
0.99815
  50
-168.515081
  51
-71.3439
  0
LINE
  8
WHITE
  6
CONTINUOUS
  10
370.31586
  20
92.294441
  11
386.544305
  21
97.697941
  0
ARC
  8
WHITE
  6
CONTINUOUS
  10
386.225653
  20
98.646128
  40
1.000299
  50
-71.4243
  51
0.126595
  0
LINE
  8
WHITE
  6
CONTINUOUS
  10
387.225949
  20
98.648338
  11
387.233795
  21
101.425191
  0
ARC
  8
WHITE
  6
CONTINUOUS
  10
388.731574
  20
101.425191
  40
1.497779
  50
89.95856
  51
180.0
  0
LINE
  8
WHITE
  6
CONTINUOUS
  10
388.732658
  20
102.92297
  11
392.729724
  21
102.924081
  0
ARC
  8
WHITE
  6
CONTINUOUS
  10
392.729724
  20
101.426301
  40
1.497779
  50
-0.0424
  51
90.0
  0
LINE
  8
WHITE
  6
CONTINUOUS
  10
394.227503
  20
101.425193
  11
394.228613
  21
78.443327
  0
ARC
  8
WHITE
  6
CONTINUOUS
  10
393.230464
  20
78.443327
  40
0.998149
  50
-90.0641
  51
0.0
  0
LINE
  8
WHITE
  6
CONTINUOUS
  10
393.229347
  20
77.445179
  11
392.230094
  21
77.444068
  0
ARC
  8
WHITE
  6
CONTINUOUS
  10
392.228981
  20
76.445919
  40
0.998149
  50
89.936125
  51
180.127501
  0
ARC
  8
WHITE
  6
CONTINUOUS
  10
323.774863
  20
332.744433
  40
38.964297
  50
-87.727577
  51
-57.456523
  0
ARC
  8
WHITE
  6
CONTINUOUS
  10
345.0073
  20
299.4804
  40
0.49852
  50
-0.094008
  51
123.067463
  0
LINE
  8
WHITE
  6
CONTINUOUS
  10
345.505819
  20
299.479582
  11
345.505819
  21
291.934061
  0
ARC
  8
WHITE
  6
CONTINUOUS
  10
346.005447
  20
291.935171
  40
0.49963
  50
-179.872676
  51
-89.999858
  0
LINE
  8
WHITE
  6
CONTINUOUS
  10
346.005448
  20
291.435541
  11
346.503953
  21
291.435546
  0
ARC
  8
WHITE
  6
CONTINUOUS
  10
346.506189
  20
291.934061
  40
0.49852
  50
-90.257
  51
0.0
  0
LINE
  8
WHITE
  6
CONTINUOUS
  10
347.004708
  20
291.934061
  11
347.004486
  21
301.208335
  0
ARC
  8
WHITE
  6
CONTINUOUS
  10
347.503782
  20
301.208719
  40
0.499297
  50
127.029325
  51
180.044024
  0
ARC
  8
WHITE
  6
CONTINUOUS
  10
323.760243
  20
332.743571
  40
38.974778
  50
-53.023477
  51
-0.719423
  0
ARC
  8
WHITE
  6
CONTINUOUS
  10
363.230408
  20
332.246424
  40
0.49852
  50
89.738105
  51
179.105708
  0
LINE
  8
WHITE
  6
CONTINUOUS
  10
363.232686
  20
332.744939
  11
368.238978
  21
332.744939
  0
ARC
  8
WHITE
  6
CONTINUOUS
  10
368.238983
  20
332.246419
  40
0.49852
  50
-0.255216
  51
90.000568
  0
LINE
  8
WHITE
  6
CONTINUOUS
  10
368.737497
  20
332.244198
  11
368.737497
  21
323.250861
  0
ARC
  8
WHITE
  6
CONTINUOUS
  10
369.238233
  20
323.253081
  40
0.50074
  50
-179.745916
  51
-89.999437
  0
LINE
  8
WHITE
  6
CONTINUOUS
  10
369.238237
  20
322.752341
  11
369.737867
  21
322.752341
  0
ARC
  8
WHITE
  6
CONTINUOUS
  10
369.737867
  20
323.250861
  40
0.49852
  50
-90.0
  51
0.0
  0
LINE
  8
WHITE
  6
CONTINUOUS
  10
370.236387
  20
323.250861
  11
370.236387
  21
332.244198
  0
ARC
  8
WHITE
  6
CONTINUOUS
  10
370.734901
  20
332.246424
  40
0.49852
  50
89.744213
  51
180.255787
  0
LINE
  8
WHITE
  6
CONTINUOUS
  10
370.737127
  20
332.744939
  11
375.733426
  21
332.744939
  0
ARC
  8
WHITE
  6
CONTINUOUS
  10
375.733476
  20
332.251282
  40
0.493657
  50
-0.819942
  51
90.005867
  0
ARC
  8
WHITE
  6
CONTINUOUS
  10
323.76751
  20
332.761864
  40
52.462127
  50
-23.407328
  51
-0.565349
  0
ARC
  8
WHITE
  6
CONTINUOUS
  10
371.454373
  20
312.108004
  40
0.494745
  50
-114.954751
  51
-22.2734
  0
LINE
  8
WHITE
  6
CONTINUOUS
  10
371.245639
  20
311.659448
  11
366.727565
  21
313.742719
  0
ARC
  8
WHITE
  6
CONTINUOUS
  10
366.508038
  20
313.299344
  40
0.494745
  50
63.65873
  51
155.045249
  0
LINE
  8
WHITE
  6
CONTINUOUS
  10
366.059481
  20
313.508078
  11
365.849637
  21
313.049529
  0
ARC
  8
WHITE
  6
CONTINUOUS
  10
366.312481
  20
312.847009
  40
0.505212
  50
156.367993
  51
245.060357
  0
LINE
  8
WHITE
  6
CONTINUOUS
  10
366.099452
  20
312.388907
  11
370.616106
  21
310.301565
  0
ARC
  8
WHITE
  6
CONTINUOUS
  10
370.407721
  20
309.848111
  40
0.499044
  50
-25.79499
  51
65.318887
  0
ARC
  8
WHITE
  6
CONTINUOUS
  10
323.759947
  20
332.71783
  40
52.45131
  50
-179.482662
  51
-26.11398
  0
ARC
  8
WHITE
  6
CONTINUOUS
  10
271.80929
  20
332.24642
  40
0.49852
  50
89.870944
  51
180.250624
  0
LINE
  8
WHITE
  6
CONTINUOUS
  10
271.810413
  20
332.744939
  11
276.806711
  21
332.744939
  0
ARC
  8
WHITE
  6
CONTINUOUS
  10
276.807827
  20
332.24642
  40
0.49852
  50
-0.255359
  51
90.128177
  0
LINE
  8
WHITE
  6
CONTINUOUS
  10
277.306341
  20
332.244198
  11
277.306341
  21
323.250861
  0
ARC
  8
WHITE
  6
CONTINUOUS
  10
277.804861
  20
323.250861
  40
0.49852
  50
180.0
  51
270.0
  0
LINE
  8
WHITE
  6
CONTINUOUS
  10
277.804861
  20
322.752341
  11
278.305601
  21
322.752341
  0
ARC
  8
WHITE
  6
CONTINUOUS
  10
278.306711
  20
323.250861
  40
0.498521
  50
-90.127607
  51
0.0
  0
LINE
  8
WHITE
  6
CONTINUOUS
  10
278.805231
  20
323.250861
  11
278.805231
  21
332.244198
  0
ARC
  8
WHITE
  6
CONTINUOUS
  10
279.303746
  20
332.24642
  40
0.49852
  50
89.871823
  51
180.255359
  0
LINE
  8
WHITE
  6
CONTINUOUS
  10
279.304861
  20
332.744939
  11
284.30116
  21
332.744939
  0
ARC
  8
WHITE
  6
CONTINUOUS
  10
284.302252
  20
332.246341
  40
0.498599
  50
0.902092
  51
90.125597
  0
ARC
  8
WHITE
  6
CONTINUOUS
  10
323.759714
  20
332.743173
  40
38.961993
  50
-179.280905
  51
-126.951466
  0
ARC
  8
WHITE
  6
CONTINUOUS
  10
300.040613
  20
301.206912
  40
0.49852
  50
0.159622
  51
53.35339
  0
LINE
  8
WHITE
  6
CONTINUOUS
  10
300.53913
  20
301.208301
  11
300.53913
  21
291.934061
  0
ARC
  8
WHITE
  6
CONTINUOUS
  10
301.038759
  20
291.935171
  40
0.49963
  50
-179.872676
  51
-89.999858
  0
LINE
  8
WHITE
  6
CONTINUOUS
  10
301.03876
  20
291.435541
  11
301.537264
  21
291.435546
  0
ARC
  8
WHITE
  6
CONTINUOUS
  10
301.5395
  20
291.934061
  40
0.49852
  50
-90.257
  51
0.0
  0
LINE
  8
WHITE
  6
CONTINUOUS
  10
302.03802
  20
291.934061
  11
302.03802
  21
299.479582
  0
ARC
  8
WHITE
  6
CONTINUOUS
  10
302.525969
  20
299.487353
  40
0.488011
  50
55.542178
  51
180.912398
  0
ARC
  8
WHITE
  6
CONTINUOUS
  10
323.763302
  20
332.740885
  40
38.968839
  50
-122.540585
  51
-91.811153
  0
ARC
  8
WHITE
  6
CONTINUOUS
  10
322.523955
  20
293.293054
  40
0.49852
  50
0.0
  51
89.11222
  0
LINE
  8
WHITE
  6
CONTINUOUS
  10
323.022474
  20
293.293054
  11
323.022474
  21
287.27751
  0
ARC
  8
WHITE
  6
CONTINUOUS
  10
323.522103
  20
287.27862
  40
0.49963
  50
-179.872676
  51
-89.999858
  0
LINE
  8
WHITE
  6
CONTINUOUS
  10
323.522104
  20
286.778991
  11
324.020608
  21
286.778996
  0
ARC
  8
WHITE
  6
CONTINUOUS
  10
324.022844
  20
287.27751
  40
0.49852
  50
-90.257
  51
0.0
  0
LINE
  8
WHITE
  6
CONTINUOUS
  10
324.521364
  20
287.27751
  11
324.521364
  21
293.313682
  0
ARC
  8
WHITE
  6
CONTINUOUS
  10
325.021364
  20
293.313682
  40
0.5
  50
89.437832
  51
180.0
  0
LINE
  8
WHITE
  6
CONTINUOUS
  10
325.02627
  20
293.813658
  11
325.319831
  21
293.810778
  0
ARC
  8
WHITE
  6
CONTINUOUS
  10
135.001763
  20
261.387898
  40
0.49852
  50
-0.138832
  51
122.915431
  0
LINE
  8
WHITE
  6
CONTINUOUS
  10
135.500281
  20
261.38669
  11
135.500281
  21
253.852272
  0
ARC
  8
WHITE
  6
CONTINUOUS
  10
135.999912
  20
253.852273
  40
0.499631
  50
-179.999859
  51
-90.000141
  0
LINE
  8
WHITE
  6
CONTINUOUS
  10
135.999911
  20
253.352642
  11
136.499541
  21
253.352642
  0
ARC
  8
WHITE
  6
CONTINUOUS
  10
136.49954
  20
253.852273
  40
0.499631
  50
-89.999858
  51
-0.000141
  0
LINE
  8
WHITE
  6
CONTINUOUS
  10
136.999171
  20
253.852272
  11
136.999171
  21
263.125402
  0
ARC
  8
WHITE
  6
CONTINUOUS
  10
137.497913
  20
263.125017
  40
0.498742
  50
126.659704
  51
179.955801
  0
ARC
  8
WHITE
  6
CONTINUOUS
  10
113.766857
  20
294.667339
  40
38.9738
  50
-53.040011
  51
-0.72761
  0
ARC
  8
WHITE
  6
CONTINUOUS
  10
153.235955
  20
294.163521
  40
0.49852
  50
89.863572
  51
178.977646
  0
LINE
  8
WHITE
  6
CONTINUOUS
  10
153.237142
  20
294.66204
  11
158.23344
  21
294.66204
  0
ARC
  8
WHITE
  6
CONTINUOUS
  10
158.234552
  20
294.163521
  40
0.49852
  50
-0.12775
  51
90.12775
  0
LINE
  8
WHITE
  6
CONTINUOUS
  10
158.73307
  20
294.16241
  11
158.73307
  21
285.169072
  0
ARC
  8
WHITE
  6
CONTINUOUS
  10
159.232701
  20
285.169073
  40
0.499631
  50
-179.999858
  51
-90.000141
  0
LINE
  8
WHITE
  6
CONTINUOUS
  10
159.2327
  20
284.669442
  11
159.73233
  21
284.669442
  0
ARC
  8
WHITE
  6
CONTINUOUS
  10
159.732329
  20
285.169073
  40
0.499631
  50
-89.999858
  51
-0.000142
  0
LINE
  8
WHITE
  6
CONTINUOUS
  10
160.23196
  20
285.169072
  11
160.23196
  21
294.16241
  0
ARC
  8
WHITE
  6
CONTINUOUS
  10
160.730478
  20
294.163521
  40
0.49852
  50
89.87225
  51
180.12775
  0
LINE
  8
WHITE
  6
CONTINUOUS
  10
160.73159
  20
294.66204
  11
165.727888
  21
294.66204
  0
ARC
  8
WHITE
  6
CONTINUOUS
  10
165.729099
  20
294.163522
  40
0.49852
  50
-1.148714
  51
90.139122
  0
ARC
  8
WHITE
  6
CONTINUOUS
  10
113.766131
  20
294.666793
  40
52.463898
  50
-23.399864
  51
-0.560546
  0
ARC
  8
WHITE
  6
CONTINUOUS
  10
161.461049
  20
274.027326
  40
0.494745
  50
-114.954751
  51
-23.3821
  0
LINE
  8
WHITE
  6
CONTINUOUS
  10
161.252315
  20
273.578769
  11
156.720369
  21
275.65814
  0
ARC
  8
WHITE
  6
CONTINUOUS
  10
156.513603
  20
275.208673
  40
0.494745
  50
65.29645
  51
155.045249
  0
LINE
  8
WHITE
  6
CONTINUOUS
  10
156.065047
  20
275.417407
  11
155.856313
  21
274.96663
  0
ARC
  8
WHITE
  6
CONTINUOUS
  10
156.305638
  20
274.749529
  40
0.499025
  50
154.211454
  51
245.03599
  0
LINE
  8
WHITE
  6
CONTINUOUS
  10
156.095025
  20
274.297126
  11
160.621671
  21
272.208673
  0
ARC
  8
WHITE
  6
CONTINUOUS
  10
160.411504
  20
271.756043
  40
0.499044
  50
-25.616977
  51
65.093417
  0
ARC
  8
WHITE
  6
CONTINUOUS
  10
113.765565
  20
294.629698
  40
52.451385
  50
-179.479888
  51
-26.11703
  0
ARC
  8
WHITE
  6
CONTINUOUS
  10
61.814761
  20
294.163522
  40
0.49852
  50
89.860072
  51
181.143977
  0
LINE
  8
WHITE
  6
CONTINUOUS
  10
61.815978
  20
294.66204
  11
66.802284
  21
294.660929
  0
ARC
  8
WHITE
  6
CONTINUOUS
  10
66.802285
  20
294.16241
  40
0.49852
  50
0.0
  51
90.00001
  0
LINE
  8
WHITE
  6
CONTINUOUS
  10
67.300804
  20
294.16241
  11
67.300804
  21
285.169072
  0
ARC
  8
WHITE
  6
CONTINUOUS
  10
67.801544
  20
285.170184
  40
0.500741
  50
-179.872818
  51
-90.0
  0
LINE
  8
WHITE
  6
CONTINUOUS
  10
67.801544
  20
284.669442
  11
68.300064
  21
284.669442
  0
ARC
  8
WHITE
  6
CONTINUOUS
  10
68.300063
  20
285.169073
  40
0.499631
  50
-89.999856
  51
-0.000144
  0
LINE
  8
WHITE
  6
CONTINUOUS
  10
68.799694
  20
285.169072
  11
68.799694
  21
294.16241
  0
ARC
  8
WHITE
  6
CONTINUOUS
  10
69.298212
  20
294.163525
  40
0.49852
  50
89.744641
  51
180.128177
  0
LINE
  8
WHITE
  6
CONTINUOUS
  10
69.300434
  20
294.66204
  11
74.306725
  21
294.66204
  0
ARC
  8
WHITE
  6
CONTINUOUS
  10
74.306666
  20
294.167984
  40
0.494056
  50
0.50622
  51
89.993088
  0
ARC
  8
WHITE
  6
CONTINUOUS
  10
113.760137
  20
294.658327
  40
38.962466
  50
-179.285332
  51
-126.959868
  0
ARC
  8
WHITE
  6
CONTINUOUS
  10
90.036184
  20
263.125125
  40
0.49852
  50
0.031855
  51
53.353124
  0
LINE
  8
WHITE
  6
CONTINUOUS
  10
90.534703
  20
263.125402
  11
90.534705
  21
253.852263
  0
ARC
  8
WHITE
  6
CONTINUOUS
  10
91.033223
  20
253.851162
  40
0.49852
  50
179.8734
  51
270.0
  0
LINE
  8
WHITE
  6
CONTINUOUS
  10
91.033223
  20
253.352642
  11
91.533963
  21
253.352642
  0
ARC
  8
WHITE
  6
CONTINUOUS
  10
91.532853
  20
253.852271
  40
0.49963
  50
-89.872676
  51
0.000142
  0
LINE
  8
WHITE
  6
CONTINUOUS
  10
92.032483
  20
253.852272
  11
92.032483
  21
261.38669
  0
ARC
  8
WHITE
  6
CONTINUOUS
  10
92.530474
  20
261.388861
  40
0.497996
  50
56.971153
  51
180.24976
  0
ARC
  8
WHITE
  6
CONTINUOUS
  10
113.760063
  20
294.664252
  40
38.972861
  50
-122.531464
  51
-91.798022
  0
ARC
  8
WHITE
  6
CONTINUOUS
  10
112.519528
  20
255.212375
  40
0.49852
  50
0.0
  51
87.96387
  0
LINE
  8
WHITE
  6
CONTINUOUS
  10
113.018047
  20
255.212375
  11
113.018049
  21
249.195713
  0
ARC
  8
WHITE
  6
CONTINUOUS
  10
113.516567
  20
249.194611
  40
0.49852
  50
179.8734
  51
270.0
  0
LINE
  8
WHITE
  6
CONTINUOUS
  10
113.516567
  20
248.696092
  11
114.017307
  21
248.696092
  0
ARC
  8
WHITE
  6
CONTINUOUS
  10
114.016197
  20
249.19572
  40
0.49963
  50
-89.872676
  51
0.000141
  0
LINE
  8
WHITE
  6
CONTINUOUS
  10
114.515827
  20
249.195721
  11
114.515827
  21
255.222281
  0
ARC
  8
WHITE
  6
CONTINUOUS
  10
115.015827
  20
255.222281
  40
0.5
  50
91.36652
  51
180.0
  0
ARC
  8
WHITE
  6
CONTINUOUS
  10
114.098414
  20
293.680483
  40
37.969143
  50
-88.63348
  51
-57.084569
  0
LINE
  8
WHITE
  6
CONTINUOUS
  10
53.305106
  20
193.568579
  11
44.897401
  21
186.572114
  0
ARC
  8
WHITE
  6
CONTINUOUS
  10
44.574917
  20
186.956119
  40
0.501454
  50
-144.251785
  51
-49.97678
  0
LINE
  8
WHITE
  6
CONTINUOUS
  10
44.167941
  20
186.663157
  11
43.878156
  21
187.072854
  0
ARC
  8
WHITE
  6
CONTINUOUS
  10
44.286742
  20
187.361529
  40
0.500276
  50
129.9205
  51
215.242037
  0
LINE
  8
WHITE
  6
CONTINUOUS
  10
43.965703
  20
187.745208
  11
52.51287
  21
194.855977
  0
ARC
  8
WHITE
  6
CONTINUOUS
  10
52.194217
  20
195.234585
  40
0.494858
  50
-49.914618
  51
35.52245
  0
LINE
  8
WHITE
  6
CONTINUOUS
  10
52.596976
  20
195.522108
  11
50.263426
  21
198.863008
  0
ARC
  8
WHITE
  6
CONTINUOUS
  10
46.166563
  20
195.997684
  40
4.999437
  50
34.968744
  51
112.940426
  0
ARC
  8
WHITE
  6
CONTINUOUS
  10
72.805984
  20
133.033043
  40
73.367592
  50
112.933053
  51
126.515741
  0
ARC
  8
WHITE
  6
CONTINUOUS
  10
29.443741
  20
191.595712
  40
0.498742
  50
126.216206
  51
236.733304
  0
LINE
  8
WHITE
  6
CONTINUOUS
  10
29.170163
  20
191.178701
  11
32.146846
  21
189.200167
  0
ARC
  8
WHITE
  6
CONTINUOUS
  10
31.869209
  20
188.784897
  40
0.499531
  50
-33.29532
  51
56.234381
  0
LINE
  8
WHITE
  6
CONTINUOUS
  10
32.286743
  20
188.510677
  11
32.00695
  21
188.090988
  0
ARC
  8
WHITE
  6
CONTINUOUS
  10
31.588371
  20
188.370781
  40
0.50348
  50
-122.8429
  51
-33.760154
  0
LINE
  8
WHITE
  6
CONTINUOUS
  10
31.315315
  20
187.947777
  11
27.62131
  21
190.399278
  0
ARC
  8
WHITE
  6
CONTINUOUS
  10
27.341517
  20
189.9807
  40
0.50348
  50
56.239846
  51
127.7496
  0
ARC
  8
WHITE
  6
CONTINUOUS
  10
72.809402
  20
133.039447
  40
73.370664
  50
128.601659
  51
132.85819
  0
ARC
  8
WHITE
  6
CONTINUOUS
  10
23.242332
  20
186.453313
  40
0.501371
  50
132.4871
  51
237.4417
  0
LINE
  8
WHITE
  6
CONTINUOUS
  10
22.972515
  20
186.030735
  11
25.85151
  21
184.123927
  0
ARC
  8
WHITE
  6
CONTINUOUS
  10
25.573872
  20
183.708658
  40
0.499531
  50
-33.29532
  51
56.234381
  0
LINE
  8
WHITE
  6
CONTINUOUS
  10
25.991406
  20
183.434438
  11
25.711614
  21
183.014749
  0
ARC
  8
WHITE
  6
CONTINUOUS
  10
25.293035
  20
183.294542
  40
0.50348
  50
-122.8427
  51
-33.760154
  0
LINE
  8
WHITE
  6
CONTINUOUS
  10
25.01998
  20
182.871536
  11
21.674604
  21
185.093209
  0
ARC
  8
WHITE
  6
CONTINUOUS
  10
21.394812
  20
184.67463
  40
0.50348
  50
56.239846
  51
134.2816
  0
ARC
  8
WHITE
  6
CONTINUOUS
  10
72.808702
  20
133.038889
  40
73.370716
  50
134.872568
  51
155.067048
  0
ARC
  8
WHITE
  6
CONTINUOUS
  10
6.724568
  20
163.760124
  40
0.494745
  50
155.0453
  51
305.3029
  0
LINE
  8
WHITE
  6
CONTINUOUS
  10
7.010481
  20
163.356358
  11
9.753436
  21
165.259014
  0
ARC
  8
WHITE
  6
CONTINUOUS
  10
10.038085
  20
164.856124
  40
0.493301
  50
34.847437
  51
125.241888
  0
LINE
  8
WHITE
  6
CONTINUOUS
  10
10.442925
  20
165.137992
  11
10.73271
  21
164.728296
  0
ARC
  8
WHITE
  6
CONTINUOUS
  10
10.324124
  20
164.439621
  40
0.500276
  50
-54.9049
  51
35.242037
  0
LINE
  8
WHITE
  6
CONTINUOUS
  10
10.61175
  20
164.030295
  11
4.587263
  21
159.811938
  0
ARC
  8
WHITE
  6
CONTINUOUS
  10
4.875938
  20
159.403352
  40
0.500276
  50
125.242037
  51
156.5673
  0
ARC
  8
WHITE
  6
CONTINUOUS
  10
56.748711
  20
137.745567
  40
56.712723
  50
157.331811
  51
166.65141
  0
ARC
  8
WHITE
  6
CONTINUOUS
  10
2.061643
  20
150.730619
  40
0.505258
  50
167.600095
  51
303.435454
  0
LINE
  8
WHITE
  6
CONTINUOUS
  10
2.340039
  20
150.308978
  11
5.327825
  21
152.407423
  0
ARC
  8
WHITE
  6
CONTINUOUS
  10
5.6165
  20
151.998837
  40
0.500276
  50
35.09525
  51
125.242037
  0
LINE
  8
WHITE
  6
CONTINUOUS
  10
6.025825
  20
152.286464
  11
6.315982
  21
151.878926
  0
ARC
  8
WHITE
  6
CONTINUOUS
  10
5.909319
  20
151.59155
  40
0.497955
  50
-56.080928
  51
35.24758
  0
LINE
  8
WHITE
  6
CONTINUOUS
  10
6.187189
  20
151.178334
  11
1.039891
  21
147.571006
  0
ARC
  8
WHITE
  6
CONTINUOUS
  10
1.321212
  20
147.157322
  40
0.500276
  50
124.217216
  51
169.049034
  0
ARC
  8
WHITE
  6
CONTINUOUS
  10
56.747511
  20
137.740511
  40
56.720703
  50
170.3461
  51
179.0432
  0
ARC
  8
WHITE
  6
CONTINUOUS
  10
0.539217
  20
138.691254
  40
0.504514
  50
-179.592242
  51
-54.798488
  0
LINE
  8
WHITE
  6
CONTINUOUS
  10
0.830046
  20
138.279001
  11
4.517315
  21
140.865973
  0
ARC
  8
WHITE
  6
CONTINUOUS
  10
4.804347
  20
140.45983
  40
0.497332
  50
33.741118
  51
125.249917
  0
LINE
  8
WHITE
  6
CONTINUOUS
  10
5.217907
  20
140.736069
  11
5.506582
  21
140.326373
  0
ARC
  8
WHITE
  6
CONTINUOUS
  10
5.103153
  20
140.041363
  40
0.493949
  50
-54.971687
  51
35.240074
  0
LINE
  8
WHITE
  6
CONTINUOUS
  10
5.386671
  20
139.636884
  11
0.280453
  21
136.059534
  0
ARC
  8
WHITE
  6
CONTINUOUS
  10
0.569128
  20
135.650947
  40
0.500276
  50
125.242037
  51
181.1532
  0
ARC
  8
WHITE
  6
CONTINUOUS
  10
57.61987
  20
144.011744
  40
58.156507
  50
-171.72428
  51
-156.05797
  0
ARC
  8
WHITE
  6
CONTINUOUS
  10
6.645738
  20
121.630223
  40
2.49631
  50
-150.7672
  51
-24.5196
  0
LINE
  8
WHITE
  6
CONTINUOUS
  10
8.916929
  20
120.594243
  11
28.65943
  21
167.7072
  0
ARC
  8
WHITE
  6
CONTINUOUS
  10
40.282927
  20
162.412776
  40
12.772494
  50
104.456715
  51
155.511059
  0
LINE
  8
WHITE
  6
CONTINUOUS
  10
37.094292
  20
174.780849
  11
47.035817
  21
177.340064
  0
LINE
  8
WHITE
  6
CONTINUOUS
  10
47.035817
  20
177.340064
  11
55.220864
  21
183.075815
  0
ARC
  8
WHITE
  6
CONTINUOUS
  10
52.349187
  20
187.168227
  40
4.999437
  50
-54.942362
  51
34.912833
  0
LINE
  8
WHITE
  6
CONTINUOUS
  10
56.448843
  20
190.029552
  11
54.034249
  21
193.471399
  0
ARC
  8
WHITE
  6
CONTINUOUS
  10
53.62493
  20
193.184244
  40
0.5
  50
35.051212
  51
129.765508
  0
LINE
  8
WHITE
  6
CONTINUOUS
  10
95.111313
  20
148.846853
  11
95.111313
  21
139.997727
  0
ARC
  8
WHITE
  6
CONTINUOUS
  10
94.510646
  20
139.997728
  40
0.600667
  50
-89.999902
  51
-0.000098
  0
LINE
  8
WHITE
  6
CONTINUOUS
  10
94.510647
  20
139.397061
  11
94.210869
  21
139.397061
  0
ARC
  8
WHITE
  6
CONTINUOUS
  10
94.210869
  20
139.996617
  40
0.599556
  50
179.893
  51
270.0
  0
LINE
  8
WHITE
  6
CONTINUOUS
  10
93.611314
  20
139.997737
  11
93.612423
  21
148.851169
  0
ARC
  8
WHITE
  6
CONTINUOUS
  10
93.113923
  20
148.854082
  40
0.498508
  50
-0.334901
  51
94.857233
  0
ARC
  8
WHITE
  6
CONTINUOUS
  10
94.349655
  20
129.406684
  40
19.985017
  50
93.66628
  51
176.3349
  0
ARC
  8
WHITE
  6
CONTINUOUS
  10
74.915636
  20
130.664416
  40
0.510508
  50
177.777314
  51
269.946933
  0
LINE
  8
WHITE
  6
CONTINUOUS
  10
74.915163
  20
130.153909
  11
83.768605
  21
130.153909
  0
ARC
  8
WHITE
  6
CONTINUOUS
  10
83.768605
  20
129.554353
  40
0.599556
  50
0.0
  51
90.0
  0
LINE
  8
WHITE
  6
CONTINUOUS
  10
84.36816
  20
129.554353
  11
84.36816
  21
129.255685
  0
ARC
  8
WHITE
  6
CONTINUOUS
  10
83.768605
  20
129.255685
  40
0.599556
  50
-90.0
  51
0.0
  0
LINE
  8
WHITE
  6
CONTINUOUS
  10
83.768605
  20
128.656129
  11
74.915163
  21
128.656129
  0
ARC
  8
WHITE
  6
CONTINUOUS
  10
74.91412
  20
128.157611
  40
0.49852
  50
89.88011
  51
183.704091
  0
ARC
  8
WHITE
  6
CONTINUOUS
  10
94.35057
  20
129.39241
  40
19.974153
  50
-176.363158
  51
-93.670907
  0
ARC
  8
WHITE
  6
CONTINUOUS
  10
93.10058
  20
109.957759
  40
0.499355
  50
-93.3141
  51
0.124199
  0
LINE
  8
WHITE
  6
CONTINUOUS
  10
93.599934
  20
109.958841
  11
93.612423
  21
118.812311
  0
ARC
  8
WHITE
  6
CONTINUOUS
  10
94.211979
  20
118.812311
  40
0.599556
  50
90.10686
  51
180.0
  0
LINE
  8
WHITE
  6
CONTINUOUS
  10
94.210861
  20
119.411865
  11
94.510636
  21
119.411866
  0
ARC
  8
WHITE
  6
CONTINUOUS
  10
94.510636
  20
118.812311
  40
0.599556
  50
0.000793
  51
90.00001
  0
LINE
  8
WHITE
  6
CONTINUOUS
  10
95.110192
  20
118.812319
  11
95.111313
  21
109.958869
  0
ARC
  8
WHITE
  6
CONTINUOUS
  10
95.609833
  20
109.958869
  40
0.49852
  50
180.0
  51
273.4337
  0
ARC
  8
WHITE
  6
CONTINUOUS
  10
94.360023
  20
129.407352
  40
19.987115
  50
-86.329148
  51
-3.677401
  0
ARC
  8
WHITE
  6
CONTINUOUS
  10
113.807463
  20
128.154279
  40
0.499357
  50
-3.314848
  51
90.12767
  0
LINE
  8
WHITE
  6
CONTINUOUS
  10
113.80635
  20
128.653632
  11
104.9529
  21
128.656129
  0
ARC
  8
WHITE
  6
CONTINUOUS
  10
104.9529
  20
129.255685
  40
0.599556
  50
180.0
  51
270.0
  0
LINE
  8
WHITE
  6
CONTINUOUS
  10
104.353344
  20
129.255685
  11
104.353344
  21
129.554353
  0
ARC
  8
WHITE
  6
CONTINUOUS
  10
104.9529
  20
129.554353
  40
0.599556
  50
90.00001
  51
180.0
  0
LINE
  8
WHITE
  6
CONTINUOUS
  10
104.9529
  20
130.153909
  11
113.806352
  21
130.153909
  0
ARC
  8
WHITE
  6
CONTINUOUS
  10
113.806352
  20
130.652428
  40
0.49852
  50
-90.0
  51
3.56041
  0
ARC
  8
WHITE
  6
CONTINUOUS
  10
94.350315
  20
129.396407
  40
19.995056
  50
3.690389
  51
85.527087
  0
ARC
  8
WHITE
  6
CONTINUOUS
  10
95.392757
  20
142.722427
  40
6.628324
  50
85.527087
  51
87.956212
  0
ARC
  8
WHITE
  6
CONTINUOUS
  10
95.611313
  20
148.846853
  40
0.5
  50
87.956212
  51
180.0
  0
LINE
  8
WHITE
  6
CONTINUOUS
  10
140.076891
  20
148.837292
  11
140.076891
  21
139.997727
  0
ARC
  8
WHITE
  6
CONTINUOUS
  10
139.476225
  20
139.997726
  40
0.600666
  50
-89.894093
  51
0.000098
  0
LINE
  8
WHITE
  6
CONTINUOUS
  10
139.477335
  20
139.397061
  11
139.178667
  21
139.397061
  0
ARC
  8
WHITE
  6
CONTINUOUS
  10
139.178669
  20
139.997728
  40
0.600667
  50
-179.999902
  51
-90.000098
  0
LINE
  8
WHITE
  6
CONTINUOUS
  10
138.578001
  20
139.997727
  11
138.578001
  21
148.851169
  0
ARC
  8
WHITE
  6
CONTINUOUS
  10
138.079489
  20
148.853887
  40
0.49852
  50
-0.312387
  51
94.599629
  0
ARC
  8
WHITE
  6
CONTINUOUS
  10
139.317454
  20
129.406684
  40
19.985017
  50
93.66628
  51
176.3351
  0
ARC
  8
WHITE
  6
CONTINUOUS
  10
119.88228
  20
130.663308
  40
0.5094
  50
177.655594
  51
269.951818
  0
LINE
  8
WHITE
  6
CONTINUOUS
  10
119.881852
  20
130.153909
  11
128.735293
  21
130.153909
  0
ARC
  8
WHITE
  6
CONTINUOUS
  10
128.735293
  20
129.554353
  40
0.599556
  50
0.0
  51
90.0
  0
LINE
  8
WHITE
  6
CONTINUOUS
  10
129.334849
  20
129.554353
  11
129.334849
  21
129.255685
  0
ARC
  8
WHITE
  6
CONTINUOUS
  10
128.735293
  20
129.255685
  40
0.599556
  50
-90.0
  51
0.0
  0
LINE
  8
WHITE
  6
CONTINUOUS
  10
128.735293
  20
128.656129
  11
119.881852
  21
128.656129
  0
ARC
  8
WHITE
  6
CONTINUOUS
  10
119.880808
  20
128.157611
  40
0.49852
  50
89.88011
  51
183.704091
  0
ARC
  8
WHITE
  6
CONTINUOUS
  10
139.318295
  20
129.393523
  40
19.975258
  50
-176.360161
  51
-93.670493
  0
ARC
  8
WHITE
  6
CONTINUOUS
  10
138.068379
  20
109.957759
  40
0.499355
  50
-93.3141
  51
0.124741
  0
LINE
  8
WHITE
  6
CONTINUOUS
  10
138.567732
  20
109.958846
  11
138.578001
  21
118.812311
  0
ARC
  8
WHITE
  6
CONTINUOUS
  10
139.177557
  20
118.812311
  40
0.599556
  50
89.893897
  51
180.0
  0
LINE
  8
WHITE
  6
CONTINUOUS
  10
139.178667
  20
119.411866
  11
139.477335
  21
119.411866
  0
ARC
  8
WHITE
  6
CONTINUOUS
  10
139.477335
  20
118.812311
  40
0.599556
  50
0.0
  51
90.0
  0
LINE
  8
WHITE
  6
CONTINUOUS
  10
140.076891
  20
118.812311
  11
140.076891
  21
109.958869
  0
ARC
  8
WHITE
  6
CONTINUOUS
  10
140.575411
  20
109.958869
  40
0.49852
  50
180.0
  51
273.5605
  0
ARC
  8
WHITE
  6
CONTINUOUS
  10
139.317925
  20
129.406715
  40
19.986975
  50
-86.30391
  51
-3.675577
  0
ARC
  8
WHITE
  6
CONTINUOUS
  10
158.765269
  20
128.154279
  40
0.499355
  50
-3.3141
  51
89.11226
  0
LINE
  8
WHITE
  6
CONTINUOUS
  10
158.773005
  20
128.653574
  11
149.919599
  21
128.656129
  0
ARC
  8
WHITE
  6
CONTINUOUS
  10
149.919599
  20
129.255685
  40
0.599556
  50
180.0
  51
270.0
  0
LINE
  8
WHITE
  6
CONTINUOUS
  10
149.320044
  20
129.255685
  11
149.320044
  21
129.554353
  0
ARC
  8
WHITE
  6
CONTINUOUS
  10
149.919599
  20
129.554353
  40
0.599556
  50
90.00001
  51
180.0
  0
LINE
  8
WHITE
  6
CONTINUOUS
  10
149.919599
  20
130.153909
  11
158.773041
  21
130.153909
  0
ARC
  8
WHITE
  6
CONTINUOUS
  10
158.766244
  20
130.652382
  40
0.49852
  50
-89.218822
  51
3.580153
  0
ARC
  8
WHITE
  6
CONTINUOUS
  10
139.317652
  20
129.403581
  40
19.987162
  50
3.671601
  51
85.527377
  0
LINE
  8
WHITE
  6
CONTINUOUS
  10
140.876306
  20
149.329876
  11
140.589538
  21
149.337132
  0
ARC
  8
WHITE
  6
CONTINUOUS
  10
140.576891
  20
148.837292
  40
0.5
  50
88.550599
  51
180.0
  0
LINE
  8
WHITE
  6
CONTINUOUS
  10
379.469547
  20
165.577666
  11
377.041346
  21
168.096911
  0
ARC
  8
WHITE
  6
CONTINUOUS
  10
376.321879
  20
167.408532
  40
0.99574
  50
43.734999
  51
166.771
  0
LINE
  8
WHITE
  6
CONTINUOUS
  10
375.352562
  20
167.636401
  11
374.623137
  21
164.728296
  0
ARC
  8
WHITE
  6
CONTINUOUS
  10
373.652221
  20
164.971852
  40
1.000998
  50
-161.212141
  51
-14.082172
  0
LINE
  8
WHITE
  6
CONTINUOUS
  10
372.704558
  20
164.649465
  11
371.435499
  21
168.486623
  0
ARC
  8
WHITE
  6
CONTINUOUS
  10
369.057504
  20
167.730548
  40
2.495297
  50
17.637875
  51
175.739323
  0
LINE
  8
WHITE
  6
CONTINUOUS
  10
366.569104
  20
167.915934
  11
365.839644
  21
159.841916
  0
ARC
  8
WHITE
  6
CONTINUOUS
  10
367.327431
  20
159.702019
  40
1.494349
  50
174.628281
  51
207.957
  0
ARC
  8
WHITE
  6
CONTINUOUS
  10
314.128181
  20
131.610647
  40
58.666151
  50
-15.001272
  51
27.832795
  0
ARC
  8
WHITE
  6
CONTINUOUS
  10
360.185326
  20
121.280008
  40
11.667543
  50
-47.498744
  51
-24.586836
  0
ARC
  8
WHITE
  6
CONTINUOUS
  10
368.406631
  20
112.30824
  40
0.501371
  50
132.4871
  51
207.7712
  0
ARC
  8
WHITE
  6
CONTINUOUS
  10
372.380682
  20
114.430091
  40
5.006398
  50
-151.933882
  51
-88.454947
  0
ARC
  8
WHITE
  6
CONTINUOUS
  10
372.499312
  20
110.4177
  40
0.992321
  50
-89.05549
  51
-58.689696
  0
ARC
  8
WHITE
  6
CONTINUOUS
  10
366.183034
  20
120.635669
  40
13.004885
  50
-58.309
  51
-20.297692
  0
ARC
  8
WHITE
  6
CONTINUOUS
  10
380.257852
  20
115.435923
  40
1.999716
  50
89.93654
  51
159.8647
  0
LINE
  8
WHITE
  6
CONTINUOUS
  10
380.260067
  20
117.435638
  11
380.858518
  21
117.42445
  0
ARC
  8
WHITE
  6
CONTINUOUS
  10
380.855146
  20
120.920747
  40
3.496299
  50
-89.944736
  51
-20.207736
  0
ARC
  8
WHITE
  6
CONTINUOUS
  10
-16.156248
  20
267.182397
  40
426.592643
  50
-20.224
  51
-16.0275
  0
LINE
  8
WHITE
  6
CONTINUOUS
  10
393.854436
  20
149.400724
  11
400.863698
  21
166.916674
  0
ARC
  8
WHITE
  6
CONTINUOUS
  10
399.008304
  20
167.664192
  40
2.000317
  50
-21.943963
  51
138.671891
  0
LINE
  8
WHITE
  6
CONTINUOUS
  10
397.506185
  20
168.985142
  11
391.83039
  21
162.580997
  0
ARC
  8
WHITE
  6
CONTINUOUS
  10
391.082055
  20
163.239399
  40
0.996743
  50
-157.556
  51
-41.342028
  0
LINE
  8
WHITE
  6
CONTINUOUS
  10
390.160812
  20
162.858862
  11
388.263033
  21
167.347466
  0
ARC
  8
WHITE
  6
CONTINUOUS
  10
387.342678
  20
166.961326
  40
0.998077
  50
22.760795
  51
154.161784
  0
LINE
  8
WHITE
  6
CONTINUOUS
  10
386.44438
  20
167.396319
  11
384.036164
  21
162.390028
  0
LINE
  8
WHITE
  6
CONTINUOUS
  10
384.036164
  20
162.390028
  11
384.036164
  21
149.899281
  0
ARC
  8
WHITE
  6
CONTINUOUS
  10
383.536534
  20
149.89928
  40
0.49963
  50
-89.872676
  51
0.000141
  0
LINE
  8
WHITE
  6
CONTINUOUS
  10
383.537644
  20
149.399651
  11
383.036904
  21
149.399651
  0
ARC
  8
WHITE
  6
CONTINUOUS
  10
383.036904
  20
149.898171
  40
0.49852
  50
179.8735
  51
270.0
  0
LINE
  8
WHITE
  6
CONTINUOUS
  10
382.538386
  20
149.899271
  11
382.538385
  21
161.990324
  0
ARC
  8
WHITE
  6
CONTINUOUS
  10
381.540235
  20
161.990324
  40
0.998149
  50
0.0
  51
44.28265
  0
LINE
  8
WHITE
  6
CONTINUOUS
  10
382.254814
  20
162.68723
  11
380.01914
  21
164.998096
  0
LINE
  8
WHITE
  6
CONTINUOUS
  10
380.01914
  20
164.998096
  11
379.469547
  21
165.577666
  0
ARC
  8
WHITE
  6
CONTINUOUS
  10
360.176808
  20
121.275398
  40
13.702605
  50
-20.72589
  51
0.606448
  0
ARC
  8
WHITE
  6
CONTINUOUS
  10
364.791532
  20
120.750874
  40
9.271569
  50
-63.8523
  51
-27.8046
  0
ARC
  8
WHITE
  6
CONTINUOUS
  10
383.277113
  20
126.413213
  40
7.127807
  50
134.244691
  51
225.716543
  0
ARC
  8
WHITE
  6
CONTINUOUS
  10
382.040152
  20
118.043722
  40
4.125299
  50
157.277629
  51
203.072309
  0
ARC
  8
WHITE
  6
CONTINUOUS
  10
369.957704
  20
126.317862
  40
10.636989
  50
-38.9072
  51
38.86061
  0
ARC
  8
WHITE
  6
CONTINUOUS
  10
384.114994
  20
134.70054
  40
6.118002
  50
163.7818
  51
196.218212
  0
LINE
  8
WHITE
  6
CONTINUOUS
  10
340.648306
  20
114.356722
  11
338.100194
  21
111.718677
  0
ARC
  8
WHITE
  6
CONTINUOUS
  10
337.380244
  20
112.408998
  40
0.997432
  50
-165.972552
  51
-43.796416
  0
LINE
  8
WHITE
  6
CONTINUOUS
  10
336.412555
  20
112.167233
  11
335.691978
  21
115.085072
  0
ARC
  8
WHITE
  6
CONTINUOUS
  10
334.722696
  20
114.84636
  40
0.998244
  50
13.835315
  51
161.989
  0
LINE
  8
WHITE
  6
CONTINUOUS
  10
333.773369
  20
115.155016
  11
332.494347
  21
111.327855
  0
ARC
  8
WHITE
  6
CONTINUOUS
  10
330.126154
  20
112.128442
  40
2.499854
  50
-174.46775
  51
-18.67824
  0
LINE
  8
WHITE
  6
CONTINUOUS
  10
327.637944
  20
111.887441
  11
326.898492
  21
119.961459
  0
ARC
  8
WHITE
  6
CONTINUOUS
  10
328.386279
  20
120.101356
  40
1.494349
  50
152.0429
  51
185.371719
  0
ARC
  8
WHITE
  6
CONTINUOUS
  10
275.189501
  20
148.19245
  40
58.663834
  50
-27.83368
  51
15.00425
  0
ARC
  8
WHITE
  6
CONTINUOUS
  10
321.23212
  20
158.538789
  40
11.672456
  50
24.503733
  51
47.37108
  0
ARC
  8
WHITE
  6
CONTINUOUS
  10
329.479791
  20
167.5035
  40
0.5091
  50
152.817572
  51
227.715374
  0
ARC
  8
WHITE
  6
CONTINUOUS
  10
333.438353
  20
165.38903
  40
4.996935
  50
88.436916
  51
151.985441
  0
ARC
  8
WHITE
  6
CONTINUOUS
  10
333.54579
  20
169.385956
  40
0.998567
  50
58.37508
  51
88.34341
  0
ARC
  8
WHITE
  6
CONTINUOUS
  10
327.255733
  20
159.158177
  40
13.005743
  50
20.384325
  51
58.406025
  0
ARC
  8
WHITE
  6
CONTINUOUS
  10
341.325843
  20
164.379757
  40
2.002026
  50
-159.794474
  51
-90.198029
  0
LINE
  8
WHITE
  6
CONTINUOUS
  10
341.318923
  20
162.377743
  11
341.917366
  21
162.380035
  0
ARC
  8
WHITE
  6
CONTINUOUS
  10
341.916725
  20
158.885475
  40
3.494561
  50
20.210945
  51
89.989499
  0
ARC
  8
WHITE
  6
CONTINUOUS
  10
-55.09629
  20
12.623199
  40
426.592643
  50
16.02717
  51
20.22403
  0
LINE
  8
WHITE
  6
CONTINUOUS
  10
354.915072
  20
130.40251
  11
361.922546
  21
112.896693
  0
ARC
  8
WHITE
  6
CONTINUOUS
  10
360.063923
  20
112.157241
  40
2.000317
  50
-138.2468
  51
21.695109
  0
LINE
  8
WHITE
  6
CONTINUOUS
  10
358.571646
  20
110.825183
  11
352.900341
  21
117.223488
  0
ARC
  8
WHITE
  6
CONTINUOUS
  10
352.149529
  20
116.567913
  40
0.996743
  50
41.125957
  51
157.229877
  0
LINE
  8
WHITE
  6
CONTINUOUS
  10
351.230467
  20
116.953687
  11
349.331873
  21
112.457019
  0
ARC
  8
WHITE
  6
CONTINUOUS
  10
348.411103
  20
112.848583
  40
1.00057
  50
-153.814702
  51
-23.03797
  0
LINE
  8
WHITE
  6
CONTINUOUS
  10
347.51322
  20
112.407056
  11
345.095012
  21
117.414457
  0
LINE
  8
WHITE
  6
CONTINUOUS
  10
345.095012
  20
117.414457
  11
345.095012
  21
129.905204
  0
ARC
  8
WHITE
  6
CONTINUOUS
  10
344.596492
  20
129.905204
  40
0.49852
  50
0.0
  51
90.00001
  0
LINE
  8
WHITE
  6
CONTINUOUS
  10
344.596492
  20
130.403724
  11
344.095752
  21
130.403724
  0
ARC
  8
WHITE
  6
CONTINUOUS
  10
344.095752
  20
129.905204
  40
0.49852
  50
90.0
  51
180.0
  0
LINE
  8
WHITE
  6
CONTINUOUS
  10
343.597233
  20
129.905204
  11
343.597233
  21
117.814161
  0
ARC
  8
WHITE
  6
CONTINUOUS
  10
342.60156
  20
117.816725
  40
0.995676
  50
-44.120794
  51
-0.147511
  0
LINE
  8
WHITE
  6
CONTINUOUS
  10
343.316329
  20
117.123562
  11
341.207891
  21
114.935183
  0
LINE
  8
WHITE
  6
CONTINUOUS
  10
341.207891
  20
114.935183
  11
340.648306
  21
114.356722
  0
ARC
  8
WHITE
  6
CONTINUOUS
  10
325.85038
  20
159.054721
  40
9.273492
  50
27.80453
  51
63.78764
  0
ARC
  8
WHITE
  6
CONTINUOUS
  10
321.233623
  20
158.518168
  40
13.710677
  50
-0.560203
  51
20.770846
  0
ARC
  8
WHITE
  6
CONTINUOUS
  10
344.284501
  20
153.737549
  40
7.137597
  50
178.0834
  51
225.6373
  0
ARC
  8
WHITE
  6
CONTINUOUS
  10
344.284738
  20
153.744738
  40
7.137597
  50
134.304836
  51
178.141139
  0
ARC
  8
WHITE
  6
CONTINUOUS
  10
345.175139
  20
145.108387
  40
6.120491
  50
163.745253
  51
196.25474
  0
ARC
  8
WHITE
  6
CONTINUOUS
  10
331.016552
  20
153.495506
  40
10.636989
  50
-38.8606
  51
38.86996
  0
ARC
  8
WHITE
  6
CONTINUOUS
  10
343.094652
  20
161.767657
  40
4.1186
  50
156.978011
  51
202.812593
  0
LINE
  8
WHITE
  6
CONTINUOUS
  10
342.31818
  20
62.744957
  11
342.31818
  21
42.200177
  0
ARC
  8
WHITE
  6
CONTINUOUS
  10
342.816633
  20
42.192005
  40
0.49852
  50
179.060743
  51
251.436761
  0
LINE
  8
WHITE
  6
CONTINUOUS
  10
342.657928
  20
41.719422
  11
353.679763
  21
38.002175
  0
ARC
  8
WHITE
  6
CONTINUOUS
  10
353.520992
  20
37.533634
  40
0.494712
  50
-18.6345
  51
71.280404
  0
LINE
  8
WHITE
  6
CONTINUOUS
  10
353.989769
  20
37.375558
  11
353.838535
  21
36.9041
  0
ARC
  8
WHITE
  6
CONTINUOUS
  10
353.357266
  20
37.06723
  40
0.508164
  50
-108.145425
  51
-18.724473
  0
LINE
  8
WHITE
  6
CONTINUOUS
  10
353.199008
  20
36.584337
  11
342.966589
  21
40.030673
  0
ARC
  8
WHITE
  6
CONTINUOUS
  10
342.807817
  20
39.562131
  40
0.494712
  50
71.280404
  51
179.9995
  0
LINE
  8
WHITE
  6
CONTINUOUS
  10
342.313106
  20
39.562135
  11
342.31818
  21
36.773086
  0
ARC
  8
WHITE
  6
CONTINUOUS
  10
344.816329
  20
36.772366
  40
2.498149
  50
179.983486
  51
251.310197
  0
LINE
  8
WHITE
  6
CONTINUOUS
  10
344.015811
  20
34.405951
  11
361.253042
  21
28.599141
  0
ARC
  8
WHITE
  6
CONTINUOUS
  10
362.051339
  20
30.966277
  40
2.498121
  50
-108.636268
  51
0.025421
  0
LINE
  8
WHITE
  6
CONTINUOUS
  10
364.54946
  20
30.967385
  11
364.550599
  21
39.201287
  0
LINE
  8
WHITE
  6
CONTINUOUS
  10
364.550599
  20
39.201287
  11
364.550599
  21
41.269755
  0
ARC
  8
WHITE
  6
CONTINUOUS
  10
364.052079
  20
41.269755
  40
0.49852
  50
0.0
  51
85.55215
  0
LINE
  8
WHITE
  6
CONTINUOUS
  10
364.09074
  20
41.766773
  11
358.005448
  21
42.298992
  0
ARC
  8
WHITE
  6
CONTINUOUS
  10
358.044308
  20
42.797512
  40
0.500032
  50
175.1825
  51
265.54275
  0
LINE
  8
WHITE
  6
CONTINUOUS
  10
357.546042
  20
42.839506
  11
357.595751
  21
43.338222
  0
ARC
  8
WHITE
  6
CONTINUOUS
  10
358.086576
  20
43.300226
  40
0.492294
  50
83.143961
  51
175.573385
  0
LINE
  8
WHITE
  6
CONTINUOUS
  10
358.145344
  20
43.789
  11
364.001006
  21
43.278267
  0
ARC
  8
WHITE
  6
CONTINUOUS
  10
364.039855
  20
43.776798
  40
0.500043
  50
-94.455882
  51
0.123892
  0
LINE
  8
WHITE
  6
CONTINUOUS
  10
364.539897
  20
43.77788
  11
364.550599
  21
51.222382
  0
ARC
  8
WHITE
  6
CONTINUOUS
  10
364.052081
  20
51.223492
  40
0.49852
  50
-0.127608
  51
90.000142
  0
LINE
  8
WHITE
  6
CONTINUOUS
  10
364.052079
  20
51.722012
  11
358.055411
  21
51.722012
  0
ARC
  8
WHITE
  6
CONTINUOUS
  10
358.055411
  20
52.220531
  40
0.49852
  50
179.8725
  51
270.0
  0
LINE
  8
WHITE
  6
CONTINUOUS
  10
357.556892
  20
52.221641
  11
357.556891
  21
52.721271
  0
ARC
  8
WHITE
  6
CONTINUOUS
  10
358.055411
  20
52.721271
  40
0.49852
  50
90.00001
  51
180.0
  0
LINE
  8
WHITE
  6
CONTINUOUS
  10
358.055411
  20
53.219791
  11
364.052079
  21
53.220901
  0
ARC
  8
WHITE
  6
CONTINUOUS
  10
364.052079
  20
53.719421
  40
0.49852
  50
-90.0
  51
0.127525
  0
LINE
  8
WHITE
  6
CONTINUOUS
  10
364.550598
  20
53.72053
  11
364.550599
  21
61.145031
  0
ARC
  8
WHITE
  6
CONTINUOUS
  10
364.052103
  20
61.149877
  40
0.49852
  50
-0.556984
  51
95.882985
  0
LINE
  8
WHITE
  6
CONTINUOUS
  10
364.001006
  20
61.645771
  11
358.145344
  21
61.136149
  0
ARC
  8
WHITE
  6
CONTINUOUS
  10
358.105037
  20
61.647734
  40
0.513171
  50
-172.944994
  51
-85.495012
  0
LINE
  8
WHITE
  6
CONTINUOUS
  10
357.595751
  20
61.584705
  11
357.556891
  21
62.084335
  0
ARC
  8
WHITE
  6
CONTINUOUS
  10
358.059689
  20
62.12364
  40
0.504331
  50
96.174111
  51
184.469807
  0
LINE
  8
WHITE
  6
CONTINUOUS
  10
358.005448
  20
62.625046
  11
364.090939
  21
63.153543
  0
ARC
  8
WHITE
  6
CONTINUOUS
  10
364.050569
  20
63.651943
  40
0.500032
  50
-85.369092
  51
0.14098
  0
LINE
  8
WHITE
  6
CONTINUOUS
  10
364.550599
  20
63.653173
  11
364.550599
  21
73.975526
  0
ARC
  8
WHITE
  6
CONTINUOUS
  10
362.052451
  20
73.978092
  40
2.498149
  50
-0.058847
  51
108.662957
  0
LINE
  8
WHITE
  6
CONTINUOUS
  10
361.253042
  20
76.344882
  11
344.015811
  21
70.52919
  0
ARC
  8
WHITE
  6
CONTINUOUS
  10
344.814099
  20
68.162063
  40
2.49811
  50
108.636107
  51
180.025623
  0
LINE
  8
WHITE
  6
CONTINUOUS
  10
342.315989
  20
68.160946
  11
342.31818
  21
65.383003
  0
ARC
  8
WHITE
  6
CONTINUOUS
  10
342.8167
  20
65.383003
  40
0.49852
  50
180.0
  51
287.3139
  0
LINE
  8
WHITE
  6
CONTINUOUS
  10
342.965062
  20
64.907072
  11
353.199008
  21
68.359686
  0
ARC
  8
WHITE
  6
CONTINUOUS
  10
353.35778
  20
67.891145
  40
0.494712
  50
17.19453
  51
108.719596
  0
LINE
  8
WHITE
  6
CONTINUOUS
  10
353.830381
  20
68.03739
  11
353.998416
  21
67.571381
  0
ARC
  8
WHITE
  6
CONTINUOUS
  10
353.529874
  20
67.41261
  40
0.494712
  50
-72.7202
  51
18.719595
  0
LINE
  8
WHITE
  6
CONTINUOUS
  10
353.676823
  20
66.940227
  11
342.657928
  21
63.213499
  0
ARC
  8
WHITE
  6
CONTINUOUS
  10
342.81289
  20
62.743683
  40
0.494712
  50
108.254389
  51
179.852488
  0
ARC
  8
WHITE
  6
CONTINUOUS
  10
135.076291
  20
280.300875
  40
6.596421
  50
-85.575509
  51
-13.124
  0
ARC
  8
WHITE
  6
CONTINUOUS
  10
140.907189
  20
278.941408
  40
0.609142
  50
-13.124
  51
83.899512
  0
LINE
  8
WHITE
  6
CONTINUOUS
  10
140.971924
  20
279.5471
  11
135.585174
  21
279.5471
  0
ARC
  8
WHITE
  6
CONTINUOUS
  10
135.585174
  20
280.0471
  40
0.5
  50
180.0
  51
270.0
  0
LINE
  8
WHITE
  6
CONTINUOUS
  10
135.085174
  20
280.0471
  11
135.085174
  21
280.5471
  0
ARC
  8
WHITE
  6
CONTINUOUS
  10
135.585174
  20
280.5471
  40
0.5
  50
90.0
  51
180.0
  0
LINE
  8
WHITE
  6
CONTINUOUS
  10
135.585174
  20
281.0471
  11
140.971924
  21
281.0471
  0
ARC
  8
WHITE
  6
CONTINUOUS
  10
140.899321
  20
281.660166
  40
0.61735
  50
-83.246139
  51
13.174917
  0
ARC
  8
WHITE
  6
CONTINUOUS
  10
135.077134
  20
280.297273
  40
6.596927
  50
13.174917
  51
86.01185
  0
LINE
  8
WHITE
  6
CONTINUOUS
  10
135.535951
  20
286.878225
  11
101.81044
  21
289.189582
  0
ARC
  8
WHITE
  6
CONTINUOUS
  10
101.4062
  20
283.479908
  40
5.723966
  50
85.950272
  51
157.401699
  0
ARC
  8
WHITE
  6
CONTINUOUS
  10
86.492283
  20
289.683924
  40
10.42889
  50
-63.732296
  51
-22.5804
  0
LINE
  8
WHITE
  6
CONTINUOUS
  10
91.107752
  20
280.331963
  11
88.25098
  21
278.924118
  0
ARC
  8
WHITE
  6
CONTINUOUS
  10
89.481954
  20
276.461284
  40
2.753333
  50
116.556812
  51
269.729737
  0
LINE
  8
WHITE
  6
CONTINUOUS
  10
89.468966
  20
273.707982
  11
134.286876
  21
273.707982
  0
LINE
  8
WHITE
  6
CONTINUOUS
  10
134.286876
  20
273.707982
  11
135.085214
  21
273.70446
  0
LINE
  8
WHITE
  6
CONTINUOUS
  10
135.085214
  20
273.70446
  11
135.585174
  21
273.724113
  0
ARC
  8
WHITE
  6
CONTINUOUS
  10
345.076137
  20
321.17129
  40
6.596421
  50
-85.575509
  51
-13.124
  0
ARC
  8
WHITE
  6
CONTINUOUS
  10
350.907034
  20
319.811823
  40
0.609142
  50
-13.124
  51
83.899512
  0
LINE
  8
WHITE
  6
CONTINUOUS
  10
350.971769
  20
320.417515
  11
345.585019
  21
320.417515
  0
ARC
  8
WHITE
  6
CONTINUOUS
  10
345.585019
  20
320.917515
  40
0.5
  50
180.0
  51
270.0
  0
LINE
  8
WHITE
  6
CONTINUOUS
  10
345.085019
  20
320.917515
  11
345.085019
  21
321.417515
  0
ARC
  8
WHITE
  6
CONTINUOUS
  10
345.585019
  20
321.417515
  40
0.5
  50
90.0
  51
180.0
  0
LINE
  8
WHITE
  6
CONTINUOUS
  10
345.585019
  20
321.917515
  11
350.971769
  21
321.917515
  0
ARC
  8
WHITE
  6
CONTINUOUS
  10
350.899166
  20
322.530581
  40
0.61735
  50
-83.246139
  51
13.174917
  0
ARC
  8
WHITE
  6
CONTINUOUS
  10
345.076979
  20
321.167688
  40
6.596927
  50
13.174917
  51
86.01185
  0
LINE
  8
WHITE
  6
CONTINUOUS
  10
345.535796
  20
327.74864
  11
311.810285
  21
330.059997
  0
ARC
  8
WHITE
  6
CONTINUOUS
  10
311.406046
  20
324.350323
  40
5.723966
  50
85.950272
  51
157.401699
  0
ARC
  8
WHITE
  6
CONTINUOUS
  10
296.492128
  20
330.554339
  40
10.42889
  50
-63.732296
  51
-22.5804
  0
LINE
  8
WHITE
  6
CONTINUOUS
  10
301.107598
  20
321.202378
  11
298.250826
  21
319.794532
  0
ARC
  8
WHITE
  6
CONTINUOUS
  10
299.481799
  20
317.331699
  40
2.753333
  50
116.556812
  51
269.729737
  0
LINE
  8
WHITE
  6
CONTINUOUS
  10
299.468812
  20
314.578397
  11
344.286722
  21
314.578397
  0
LINE
  8
WHITE
  6
CONTINUOUS
  10
344.286722
  20
314.578397
  11
345.085059
  21
314.574875
  0
LINE
  8
WHITE
  6
CONTINUOUS
  10
345.085059
  20
314.574875
  11
345.585019
  21
314.594527
  0
LINE
  8
WHITE
  6
CONTINUOUS
  10
181.359184
  20
189.819338
  11
181.359184
  21
189.51993
  0
ARC
  8
WHITE
  6
CONTINUOUS
  10
187.350757
  20
189.514683
  40
5.991575
  50
179.949828
  51
256.889954
  0
ARC
  8
WHITE
  6
CONTINUOUS
  10
186.103905
  20
184.165008
  40
0.49852
  50
-103.0032
  51
0.0
  0
LINE
  8
WHITE
  6
CONTINUOUS
  10
186.602424
  20
184.165008
  11
186.602424
  21
189.0203
  0
ARC
  8
WHITE
  6
CONTINUOUS
  10
187.100943
  20
189.021411
  40
0.49852
  50
89.87225
  51
180.12775
  0
LINE
  8
WHITE
  6
CONTINUOUS
  10
187.102054
  20
189.51993
  11
187.601684
  21
189.51993
  0
ARC
  8
WHITE
  6
CONTINUOUS
  10
187.602796
  20
189.021411
  40
0.49852
  50
-0.12775
  51
90.12775
  0
LINE
  8
WHITE
  6
CONTINUOUS
  10
188.101314
  20
189.0203
  11
188.101314
  21
184.165008
  0
ARC
  8
WHITE
  6
CONTINUOUS
  10
188.61178
  20
184.183263
  40
0.510792
  50
-177.951891
  51
-77.669985
  0
ARC
  8
WHITE
  6
CONTINUOUS
  10
187.357201
  20
189.521439
  40
5.994355
  50
-76.850674
  51
-3.933508
  0
LINE
  8
WHITE
  6
CONTINUOUS
  10
193.337435
  20
189.110233
  11
195.432185
  21
219.767855
  0
ARC
  8
WHITE
  6
CONTINUOUS
  10
190.240799
  20
220.128884
  40
5.203925
  50
-3.978169
  51
67.431073
  0
ARC
  8
WHITE
  6
CONTINUOUS
  10
195.885547
  20
233.6861
  40
9.481487
  50
-153.735003
  51
-112.625
  0
LINE
  8
WHITE
  6
CONTINUOUS
  10
187.382957
  20
229.490319
  11
186.09482
  21
232.09444
  0
ARC
  8
WHITE
  6
CONTINUOUS
  10
183.85446
  20
230.989209
  40
2.498149
  50
26.25839
  51
180.0
  0
LINE
  8
WHITE
  6
CONTINUOUS
  10
181.356311
  20
230.989209
  11
181.356311
  21
190.319338
  0
LINE
  8
WHITE
  6
CONTINUOUS
  10
181.356311
  20
190.319338
  11
181.359184
  21
189.819338
  0
LINE
  8
WHITE
  6
CONTINUOUS
  10
105.025733
  20
189.819338
  11
105.025733
  21
189.51993
  0
ARC
  8
WHITE
  6
CONTINUOUS
  10
111.017305
  20
189.514941
  40
5.991575
  50
179.952292
  51
256.890251
  0
ARC
  8
WHITE
  6
CONTINUOUS
  10
109.771564
  20
184.165008
  40
0.49852
  50
-103.1306
  51
0.0
  0
LINE
  8
WHITE
  6
CONTINUOUS
  10
110.270083
  20
184.165008
  11
110.270083
  21
189.0203
  0
ARC
  8
WHITE
  6
CONTINUOUS
  10
110.768603
  20
189.02141
  40
0.498521
  50
90.0
  51
180.127607
  0
LINE
  8
WHITE
  6
CONTINUOUS
  10
110.768603
  20
189.51993
  11
111.268233
  21
189.51993
  0
ARC
  8
WHITE
  6
CONTINUOUS
  10
111.270454
  20
189.021415
  40
0.49852
  50
-0.128177
  51
90.255359
  0
LINE
  8
WHITE
  6
CONTINUOUS
  10
111.768973
  20
189.0203
  11
111.768973
  21
184.165008
  0
ARC
  8
WHITE
  6
CONTINUOUS
  10
112.278367
  20
184.182135
  40
0.509682
  50
-178.074306
  51
-77.647146
  0
ARC
  8
WHITE
  6
CONTINUOUS
  10
111.02375
  20
189.521439
  40
5.994355
  50
-76.850674
  51
-3.933508
  0
LINE
  8
WHITE
  6
CONTINUOUS
  10
117.003984
  20
189.110233
  11
119.098728
  21
219.767773
  0
ARC
  8
WHITE
  6
CONTINUOUS
  10
113.907316
  20
220.128435
  40
5.203925
  50
-3.974108
  51
67.432646
  0
ARC
  8
WHITE
  6
CONTINUOUS
  10
119.550986
  20
233.6861
  40
9.481487
  50
-153.735003
  51
-112.6188
  0
LINE
  8
WHITE
  6
CONTINUOUS
  10
111.048396
  20
229.490319
  11
109.75935
  21
232.098387
  0
ARC
  8
WHITE
  6
CONTINUOUS
  10
107.520949
  20
230.98933
  40
2.498089
  50
26.356961
  51
180.002775
  0
LINE
  8
WHITE
  6
CONTINUOUS
  10
105.022859
  20
230.989209
  11
105.022859
  21
190.319338
  0
LINE
  8
WHITE
  6
CONTINUOUS
  10
105.022859
  20
190.319338
  11
105.025733
  21
189.819338
  0
LINE
  8
WHITE
  6
CONTINUOUS
  10
124.111594
  20
189.819338
  11
124.111594
  21
189.51993
  0
ARC
  8
WHITE
  6
CONTINUOUS
  10
130.103166
  20
189.514683
  40
5.991575
  50
179.949828
  51
256.889879
  0
ARC
  8
WHITE
  6
CONTINUOUS
  10
128.856314
  20
184.165008
  40
0.49852
  50
-103.0041
  51
0.0
  0
LINE
  8
WHITE
  6
CONTINUOUS
  10
129.354834
  20
184.165008
  11
129.354834
  21
189.0203
  0
ARC
  8
WHITE
  6
CONTINUOUS
  10
129.853352
  20
189.021411
  40
0.49852
  50
89.87225
  51
180.12775
  0
LINE
  8
WHITE
  6
CONTINUOUS
  10
129.854464
  20
189.51993
  11
130.354088
  21
189.518818
  0
ARC
  8
WHITE
  6
CONTINUOUS
  10
130.355204
  20
189.0203
  40
0.49852
  50
0.0
  51
90.12823
  0
LINE
  8
WHITE
  6
CONTINUOUS
  10
130.853724
  20
189.0203
  11
130.853724
  21
184.165008
  0
ARC
  8
WHITE
  6
CONTINUOUS
  10
131.354459
  20
184.173089
  40
0.5008
  50
-179.075396
  51
-77.450745
  0
ARC
  8
WHITE
  6
CONTINUOUS
  10
130.111928
  20
189.521964
  40
5.992079
  50
-76.966441
  51
-3.940046
  0
LINE
  8
WHITE
  6
CONTINUOUS
  10
136.089845
  20
189.110233
  11
138.184589
  21
219.767773
  0
ARC
  8
WHITE
  6
CONTINUOUS
  10
132.993177
  20
220.128435
  40
5.203925
  50
-3.974108
  51
67.432646
  0
ARC
  8
WHITE
  6
CONTINUOUS
  10
138.636847
  20
233.6861
  40
9.481487
  50
-153.735003
  51
-112.6188
  0
LINE
  8
WHITE
  6
CONTINUOUS
  10
130.134257
  20
229.490319
  11
128.845487
  21
232.097966
  0
ARC
  8
WHITE
  6
CONTINUOUS
  10
126.60687
  20
230.989209
  40
2.498149
  50
26.3486
  51
180.0
  0
LINE
  8
WHITE
  6
CONTINUOUS
  10
124.10872
  20
230.989209
  11
124.10872
  21
190.319338
  0
LINE
  8
WHITE
  6
CONTINUOUS
  10
124.10872
  20
190.319338
  11
124.111594
  21
189.819338
  0
ARC
  8
WHITE
  6
CONTINUOUS
  10
7.073154
  20
193.230346
  40
5.992079
  50
-76.967205
  51
-3.95086
  0
ARC
  8
WHITE
  6
CONTINUOUS
  10
8.315612
  20
187.881144
  40
0.500498
  50
180.0
  51
282.5564
  0
LINE
  8
WHITE
  6
CONTINUOUS
  10
7.815114
  20
187.881144
  11
7.815982
  21
192.727554
  0
ARC
  8
WHITE
  6
CONTINUOUS
  10
7.317462
  20
192.727554
  40
0.49852
  50
0.0
  51
90.25462
  0
LINE
  8
WHITE
  6
CONTINUOUS
  10
7.315247
  20
193.226068
  11
6.815612
  21
193.227183
  0
ARC
  8
WHITE
  6
CONTINUOUS
  10
6.814501
  20
192.728665
  40
0.49852
  50
89.87225
  51
180.12775
  0
LINE
  8
WHITE
  6
CONTINUOUS
  10
6.315982
  20
192.727554
  11
6.315982
  21
187.881144
  0
ARC
  8
WHITE
  6
CONTINUOUS
  10
5.814998
  20
187.881698
  40
0.500985
  50
-102.51573
  51
-0.063323
  0
ARC
  8
WHITE
  6
CONTINUOUS
  10
7.064315
  20
193.231244
  40
5.994448
  50
-179.961186
  51
-103.092497
  0
LINE
  8
WHITE
  6
CONTINUOUS
  10
1.069869
  20
193.227183
  11
1.069869
  21
234.696463
  0
ARC
  8
WHITE
  6
CONTINUOUS
  10
3.568018
  20
234.696463
  40
2.498149
  50
26.34892
  51
180.0
  0
LINE
  8
WHITE
  6
CONTINUOUS
  10
5.806629
  20
235.805232
  11
7.095405
  21
233.208676
  0
ARC
  8
WHITE
  6
CONTINUOUS
  10
15.604899
  20
237.390437
  40
9.481488
  50
-153.829439
  51
-112.661542
  0
ARC
  8
WHITE
  6
CONTINUOUS
  10
9.954398
  20
223.83562
  40
5.203925
  50
-3.8627
  51
67.42903
  0
LINE
  8
WHITE
  6
CONTINUOUS
  10
15.146501
  20
223.485053
  11
13.100956
  21
193.616895
  0
LINE
  8
WHITE
  6
CONTINUOUS
  10
13.100956
  20
193.616895
  11
13.073334
  21
193.317467
  0
LINE
  8
WHITE
  6
CONTINUOUS
  10
13.073334
  20
193.317467
  11
13.050993
  21
192.817487
  0
LINE
  8
WHITE
  6
CONTINUOUS
  10
143.187462
  20
189.819338
  11
143.187462
  21
189.51993
  0
ARC
  8
WHITE
  6
CONTINUOUS
  10
149.179036
  20
189.51737
  40
5.991575
  50
179.975518
  51
256.895098
  0
ARC
  8
WHITE
  6
CONTINUOUS
  10
147.943286
  20
184.165008
  40
0.49852
  50
-104.2541
  51
0.0
  0
LINE
  8
WHITE
  6
CONTINUOUS
  10
148.441805
  20
184.165008
  11
148.441805
  21
189.0203
  0
ARC
  8
WHITE
  6
CONTINUOUS
  10
148.940324
  20
189.021411
  40
0.49852
  50
89.87225
  51
180.12775
  0
LINE
  8
WHITE
  6
CONTINUOUS
  10
148.941435
  20
189.51993
  11
149.441065
  21
189.51882
  0
ARC
  8
WHITE
  6
CONTINUOUS
  10
149.441065
  20
189.0203
  40
0.49852
  50
0.0
  51
90.00001
  0
LINE
  8
WHITE
  6
CONTINUOUS
  10
149.939585
  20
189.0203
  11
149.939585
  21
184.165008
  0
ARC
  8
WHITE
  6
CONTINUOUS
  10
150.441411
  20
184.174222
  40
0.501911
  50
-178.948092
  51
-77.476671
  0
ARC
  8
WHITE
  6
CONTINUOUS
  10
149.185221
  20
189.521379
  40
5.994609
  50
-76.837805
  51
-3.932774
  0
LINE
  8
WHITE
  6
CONTINUOUS
  10
155.165713
  20
189.110233
  11
157.270456
  21
219.767855
  0
ARC
  8
WHITE
  6
CONTINUOUS
  10
152.078759
  20
220.124394
  40
5.203925
  50
-3.928612
  51
67.446811
  0
ARC
  8
WHITE
  6
CONTINUOUS
  10
157.712715
  20
233.6861
  40
9.481487
  50
-153.735003
  51
-112.563
  0
LINE
  8
WHITE
  6
CONTINUOUS
  10
149.210125
  20
229.490319
  11
147.931073
  21
232.098387
  0
ARC
  8
WHITE
  6
CONTINUOUS
  10
145.692785
  20
230.991341
  40
2.497095
  50
26.316786
  51
180.048915
  0
LINE
  8
WHITE
  6
CONTINUOUS
  10
143.195692
  20
230.989209
  11
143.195692
  21
190.319338
  0
LINE
  8
WHITE
  6
CONTINUOUS
  10
143.195692
  20
190.319338
  11
143.187462
  21
189.819338
  0
LINE
  8
WHITE
  6
CONTINUOUS
  10
162.273323
  20
189.819338
  11
162.273323
  21
189.51993
  0
ARC
  8
WHITE
  6
CONTINUOUS
  10
168.264897
  20
189.51709
  40
5.991575
  50
179.972844
  51
256.894576
  0
ARC
  8
WHITE
  6
CONTINUOUS
  10
167.028036
  20
184.165008
  40
0.49852
  50
-104.1288
  51
0.0
  0
LINE
  8
WHITE
  6
CONTINUOUS
  10
167.526556
  20
184.165008
  11
167.526556
  21
189.0203
  0
ARC
  8
WHITE
  6
CONTINUOUS
  10
168.025074
  20
189.021411
  40
0.49852
  50
89.87225
  51
180.12775
  0
LINE
  8
WHITE
  6
CONTINUOUS
  10
168.026186
  20
189.51993
  11
168.525816
  21
189.51993
  0
ARC
  8
WHITE
  6
CONTINUOUS
  10
168.526927
  20
189.021411
  40
0.49852
  50
-0.12775
  51
90.12775
  0
LINE
  8
WHITE
  6
CONTINUOUS
  10
169.025446
  20
189.0203
  11
169.025446
  21
184.165008
  0
ARC
  8
WHITE
  6
CONTINUOUS
  10
169.526181
  20
184.173089
  40
0.5008
  50
-179.075396
  51
-77.450745
  0
ARC
  8
WHITE
  6
CONTINUOUS
  10
168.272469
  20
189.521702
  40
5.994355
  50
-76.86175
  51
-3.936033
  0
LINE
  8
WHITE
  6
CONTINUOUS
  10
174.252684
  20
189.110233
  11
176.35002
  21
219.767522
  0
ARC
  8
WHITE
  6
CONTINUOUS
  10
171.165109
  20
220.13143
  40
5.197666
  50
-4.01478
  51
67.422222
  0
ARC
  8
WHITE
  6
CONTINUOUS
  10
176.799686
  20
233.6861
  40
9.481487
  50
-153.735003
  51
-112.5693
  0
LINE
  8
WHITE
  6
CONTINUOUS
  10
168.297096
  20
229.490319
  11
167.016934
  21
232.098387
  0
ARC
  8
WHITE
  6
CONTINUOUS
  10
164.778532
  20
230.98933
  40
2.498089
  50
26.356961
  51
180.002775
  0
LINE
  8
WHITE
  6
CONTINUOUS
  10
162.280442
  20
230.989209
  11
162.280442
  21
190.319338
  0
LINE
  8
WHITE
  6
CONTINUOUS
  10
162.280442
  20
190.319338
  11
162.273323
  21
189.819338
  0
LINE
  8
WHITE
  6
CONTINUOUS
  10
85.940982
  20
189.819338
  11
85.940982
  21
189.51993
  0
ARC
  8
WHITE
  6
CONTINUOUS
  10
91.932556
  20
189.516813
  40
5.991575
  50
179.970195
  51
256.893902
  0
ARC
  8
WHITE
  6
CONTINUOUS
  10
90.694585
  20
184.165008
  40
0.49852
  50
-104.0054
  51
0.0
  0
LINE
  8
WHITE
  6
CONTINUOUS
  10
91.193104
  20
184.165008
  11
91.193104
  21
189.0203
  0
ARC
  8
WHITE
  6
CONTINUOUS
  10
91.691623
  20
189.021411
  40
0.49852
  50
89.87225
  51
180.12775
  0
LINE
  8
WHITE
  6
CONTINUOUS
  10
91.692734
  20
189.51993
  11
92.192359
  21
189.518818
  0
ARC
  8
WHITE
  6
CONTINUOUS
  10
92.193475
  20
189.0203
  40
0.49852
  50
0.0
  51
90.12823
  0
LINE
  8
WHITE
  6
CONTINUOUS
  10
92.691994
  20
189.0203
  11
92.691994
  21
184.165008
  0
ARC
  8
WHITE
  6
CONTINUOUS
  10
93.192729
  20
184.173089
  40
0.5008
  50
-179.075396
  51
-77.450745
  0
ARC
  8
WHITE
  6
CONTINUOUS
  10
91.939257
  20
189.521498
  40
5.994101
  50
-76.863541
  51
-3.934241
  0
LINE
  8
WHITE
  6
CONTINUOUS
  10
97.919233
  20
189.110233
  11
100.016568
  21
219.767522
  0
ARC
  8
WHITE
  6
CONTINUOUS
  10
94.831626
  20
220.130982
  40
5.197666
  50
-4.009825
  51
67.423609
  0
ARC
  8
WHITE
  6
CONTINUOUS
  10
100.465125
  20
233.6861
  40
9.481487
  50
-153.735003
  51
-112.563
  0
LINE
  8
WHITE
  6
CONTINUOUS
  10
91.962534
  20
229.490319
  11
90.683759
  21
232.097963
  0
ARC
  8
WHITE
  6
CONTINUOUS
  10
88.44514
  20
230.989209
  40
2.498149
  50
26.34852
  51
180.0
  0
LINE
  8
WHITE
  6
CONTINUOUS
  10
85.946991
  20
230.989209
  11
85.946991
  21
190.319338
  0
LINE
  8
WHITE
  6
CONTINUOUS
  10
85.946991
  20
190.319338
  11
85.940982
  21
189.819338
  0
LINE
  8
WHITE
  6
CONTINUOUS
  10
66.855121
  20
189.819338
  11
66.855121
  21
189.51993
  0
ARC
  8
WHITE
  6
CONTINUOUS
  10
72.846695
  20
189.516813
  40
5.991575
  50
179.970195
  51
256.893902
  0
ARC
  8
WHITE
  6
CONTINUOUS
  10
71.608724
  20
184.165008
  40
0.49852
  50
-104.0054
  51
0.0
  0
LINE
  8
WHITE
  6
CONTINUOUS
  10
72.107243
  20
184.165008
  11
72.107243
  21
189.0203
  0
ARC
  8
WHITE
  6
CONTINUOUS
  10
72.605762
  20
189.021411
  40
0.49852
  50
89.87225
  51
180.12775
  0
LINE
  8
WHITE
  6
CONTINUOUS
  10
72.606873
  20
189.51993
  11
73.106506
  21
189.518818
  0
ARC
  8
WHITE
  6
CONTINUOUS
  10
73.107613
  20
189.0203
  40
0.49852
  50
0.0
  51
90.12726
  0
LINE
  8
WHITE
  6
CONTINUOUS
  10
73.606133
  20
189.0203
  11
73.606133
  21
184.165008
  0
ARC
  8
WHITE
  6
CONTINUOUS
  10
74.106868
  20
184.173089
  40
0.5008
  50
-179.075396
  51
-77.450745
  0
ARC
  8
WHITE
  6
CONTINUOUS
  10
72.852268
  20
189.521234
  40
5.994101
  50
-76.852465
  51
-3.931717
  0
LINE
  8
WHITE
  6
CONTINUOUS
  10
78.832262
  20
189.110233
  11
80.930707
  21
219.767522
  0
ARC
  8
WHITE
  6
CONTINUOUS
  10
75.745784
  20
220.131423
  40
5.197677
  50
-4.014692
  51
67.422135
  0
ARC
  8
WHITE
  6
CONTINUOUS
  10
81.380374
  20
233.6861
  40
9.481487
  50
-153.735003
  51
-112.5693
  0
LINE
  8
WHITE
  6
CONTINUOUS
  10
72.877784
  20
229.490319
  11
71.597621
  21
232.098387
  0
ARC
  8
WHITE
  6
CONTINUOUS
  10
69.359219
  20
230.98933
  40
2.498089
  50
26.356961
  51
180.002775
  0
LINE
  8
WHITE
  6
CONTINUOUS
  10
66.86113
  20
230.989209
  11
66.86113
  21
190.319338
  0
LINE
  8
WHITE
  6
CONTINUOUS
  10
66.86113
  20
190.319338
  11
66.855121
  21
189.819338
  0
LINE
  8
WHITE
  6
CONTINUOUS
  10
42.321334
  20
257.329326
  11
42.320421
  21
257.829326
  0
LINE
  8
WHITE
  6
CONTINUOUS
  10
42.320421
  20
257.829326
  11
42.320421
  21
294.352269
  0
ARC
  8
WHITE
  6
CONTINUOUS
  10
44.567645
  20
294.352269
  40
2.247224
  50
26.33751
  51
180.0
  0
LINE
  8
WHITE
  6
CONTINUOUS
  10
46.581599
  20
295.349268
  11
47.735298
  21
293.003268
  0
ARC
  8
WHITE
  6
CONTINUOUS
  10
55.388518
  20
296.77936
  40
8.534087
  50
-153.73831
  51
-112.5912
  0
ARC
  8
WHITE
  6
CONTINUOUS
  10
50.315042
  20
284.573386
  40
4.68431
  50
-3.838308
  51
67.467313
  0
LINE
  8
WHITE
  6
CONTINUOUS
  10
54.988844
  20
284.259813
  11
53.101323
  21
256.660192
  0
ARC
  8
WHITE
  6
CONTINUOUS
  10
47.721262
  20
257.028728
  40
5.392669
  50
-75.249502
  51
-3.918666
  0
ARC
  8
WHITE
  6
CONTINUOUS
  10
48.965481
  20
252.297672
  40
0.500741
  50
-179.514195
  51
-75.09372
  0
LINE
  8
WHITE
  6
CONTINUOUS
  10
48.464758
  20
252.293427
  11
48.464758
  21
257.26974
  0
ARC
  8
WHITE
  6
CONTINUOUS
  10
47.966238
  20
257.26974
  40
0.49852
  50
0.0
  51
90.12726
  0
LINE
  8
WHITE
  6
CONTINUOUS
  10
47.965131
  20
257.768259
  11
47.465498
  21
257.76937
  0
ARC
  8
WHITE
  6
CONTINUOUS
  10
47.464387
  20
257.270852
  40
0.49852
  50
89.87225
  51
180.12775
  0
LINE
  8
WHITE
  6
CONTINUOUS
  10
46.965868
  20
257.26974
  11
46.965868
  21
252.293427
  0
ARC
  8
WHITE
  6
CONTINUOUS
  10
46.467349
  20
252.293427
  40
0.49852
  50
-105.154
  51
0.0
  0
ARC
  8
WHITE
  6
CONTINUOUS
  10
47.715313
  20
257.027158
  40
5.39398
  50
179.970782
  51
255.195443
  0
LINE
  8
WHITE
  6
CONTINUOUS
  10
42.321334
  20
257.029909
  11
42.321334
  21
257.329326
  0
LINE
  8
WHITE
  6
CONTINUOUS
  10
25.142948
  20
257.029909
  11
25.142948
  21
257.829326
  0
LINE
  8
WHITE
  6
CONTINUOUS
  10
25.142948
  20
257.829326
  11
25.143146
  21
294.352269
  0
ARC
  8
WHITE
  6
CONTINUOUS
  10
27.39037
  20
294.352269
  40
2.247224
  50
26.33754
  51
180.0
  0
LINE
  8
WHITE
  6
CONTINUOUS
  10
29.404323
  20
295.349269
  11
30.559134
  21
293.003268
  0
ARC
  8
WHITE
  6
CONTINUOUS
  10
38.212353
  20
296.77936
  40
8.534087
  50
-153.73831
  51
-112.605
  0
ARC
  8
WHITE
  6
CONTINUOUS
  10
33.136717
  20
284.574284
  40
4.68431
  50
-3.848426
  51
67.463839
  0
LINE
  8
WHITE
  6
CONTINUOUS
  10
37.810464
  20
284.259887
  11
35.924048
  21
256.660192
  0
ARC
  8
WHITE
  6
CONTINUOUS
  10
30.543151
  20
257.029105
  40
5.393528
  50
-75.230527
  51
-3.922046
  0
ARC
  8
WHITE
  6
CONTINUOUS
  10
31.789317
  20
252.297672
  40
0.500741
  50
-179.514195
  51
-75.09372
  0
LINE
  8
WHITE
  6
CONTINUOUS
  10
31.288593
  20
252.293427
  11
31.288593
  21
257.26974
  0
ARC
  8
WHITE
  6
CONTINUOUS
  10
30.790075
  20
257.270855
  40
0.49852
  50
-0.128177
  51
90.255359
  0
LINE
  8
WHITE
  6
CONTINUOUS
  10
30.787853
  20
257.76937
  11
30.288223
  21
257.76937
  0
ARC
  8
WHITE
  6
CONTINUOUS
  10
30.287112
  20
257.270852
  40
0.49852
  50
89.87225
  51
180.12775
  0
LINE
  8
WHITE
  6
CONTINUOUS
  10
29.788593
  20
257.26974
  11
29.788593
  21
252.293427
  0
ARC
  8
WHITE
  6
CONTINUOUS
  10
29.290074
  20
252.293427
  40
0.49852
  50
-105.2778
  51
0.0
  0
ARC
  8
WHITE
  6
CONTINUOUS
  10
30.536928
  20
257.02746
  40
5.39398
  50
179.973984
  51
255.196221
  0
LINE
  8
WHITE
  6
CONTINUOUS
  10
169.325224
  20
305.615037
  11
169.325224
  21
337.991052
  0
ARC
  8
WHITE
  6
CONTINUOUS
  10
171.322633
  20
337.991052
  40
1.997409
  50
26.39384
  51
180.0
  0
LINE
  8
WHITE
  6
CONTINUOUS
  10
173.111831
  20
338.878978
  11
174.142766
  21
336.800823
  0
ARC
  8
WHITE
  6
CONTINUOUS
  10
180.946673
  20
340.157105
  40
7.586685
  50
-153.743452
  51
-112.610303
  0
ARC
  8
WHITE
  6
CONTINUOUS
  10
176.432181
  20
329.307485
  40
4.164695
  50
-4.0054
  51
67.44123
  0
LINE
  8
WHITE
  6
CONTINUOUS
  10
180.586703
  20
329.016579
  11
178.908124
  21
304.494755
  0
ARC
  8
WHITE
  6
CONTINUOUS
  10
174.122781
  20
304.823401
  40
4.796616
  50
-73.0812
  51
-3.928762
  0
ARC
  8
WHITE
  6
CONTINUOUS
  10
175.37071
  20
300.713525
  40
0.50146
  50
-179.315962
  51
-72.838632
  0
LINE
  8
WHITE
  6
CONTINUOUS
  10
174.869286
  20
300.707539
  11
174.871115
  21
305.645014
  0
ARC
  8
WHITE
  6
CONTINUOUS
  10
174.372596
  20
305.645014
  40
0.49852
  50
0.0
  51
90.00001
  0
LINE
  8
WHITE
  6
CONTINUOUS
  10
174.372595
  20
306.143534
  11
173.872966
  21
306.143534
  0
ARC
  8
WHITE
  6
CONTINUOUS
  10
173.870745
  20
305.645019
  40
0.49852
  50
89.744784
  51
180.000568
  0
LINE
  8
WHITE
  6
CONTINUOUS
  10
173.372226
  20
305.645014
  11
173.372226
  21
300.707561
  0
ARC
  8
WHITE
  6
CONTINUOUS
  10
172.872595
  20
300.707884
  40
0.49963
  50
-106.127708
  51
-0.036988
  0
ARC
  8
WHITE
  6
CONTINUOUS
  10
174.122784
  20
304.807943
  40
4.786011
  50
179.921678
  51
253.129122
  0
LINE
  8
WHITE
  6
CONTINUOUS
  10
169.336778
  20
304.814485
  11
169.336778
  21
305.115037
  0
LINE
  8
WHITE
  6
CONTINUOUS
  10
169.336778
  20
305.115037
  11
169.325224
  21
305.615037
  0
LINE
  8
WHITE
  6
CONTINUOUS
  10
186.913305
  20
305.615037
  11
186.913305
  21
337.991052
  0
ARC
  8
WHITE
  6
CONTINUOUS
  10
188.910714
  20
337.991052
  40
1.997409
  50
26.28091
  51
180.0
  0
LINE
  8
WHITE
  6
CONTINUOUS
  10
190.701659
  20
338.87545
  11
191.728627
  21
336.800823
  0
ARC
  8
WHITE
  6
CONTINUOUS
  10
198.532475
  20
340.157225
  40
7.586685
  50
-153.742443
  51
-112.5322
  0
ARC
  8
WHITE
  6
CONTINUOUS
  10
194.029564
  20
329.313395
  40
4.154903
  50
-4.096412
  51
67.415469
  0
LINE
  8
WHITE
  6
CONTINUOUS
  10
198.173852
  20
329.016589
  11
196.495096
  21
304.494755
  0
ARC
  8
WHITE
  6
CONTINUOUS
  10
191.709752
  20
304.823401
  40
4.796616
  50
-73.0686
  51
-3.928762
  0
ARC
  8
WHITE
  6
CONTINUOUS
  10
192.958788
  20
300.713862
  40
0.50146
  50
-179.277251
  51
-72.85023
  0
LINE
  8
WHITE
  6
CONTINUOUS
  10
192.457368
  20
300.707537
  11
192.458087
  21
305.645014
  0
ARC
  8
WHITE
  6
CONTINUOUS
  10
191.959567
  20
305.645014
  40
0.49852
  50
0.0
  51
90.127607
  0
LINE
  8
WHITE
  6
CONTINUOUS
  10
191.958457
  20
306.143534
  11
191.458827
  21
306.143534
  0
ARC
  8
WHITE
  6
CONTINUOUS
  10
191.457717
  20
305.645016
  40
0.49852
  50
89.872392
  51
180.000142
  0
LINE
  8
WHITE
  6
CONTINUOUS
  10
190.959197
  20
305.645014
  11
190.959197
  21
300.707561
  0
ARC
  8
WHITE
  6
CONTINUOUS
  10
190.459255
  20
300.707977
  40
0.499942
  50
-106.212627
  51
-0.047667
  0
ARC
  8
WHITE
  6
CONTINUOUS
  10
191.709757
  20
304.808766
  40
4.787121
  50
179.931548
  51
253.119252
  0
LINE
  8
WHITE
  6
CONTINUOUS
  10
186.922639
  20
304.814485
  11
186.922639
  21
305.115037
  0
LINE
  8
WHITE
  6
CONTINUOUS
  10
186.922639
  20
305.115037
  11
186.913305
  21
305.615037
  0
ARC
  8
WHITE
  6
CONTINUOUS
  10
179.175053
  20
138.531221
  40
6.691541
  50
85.768467
  51
87.931404
  0
ARC
  8
WHITE
  6
CONTINUOUS
  10
178.916532
  20
135.037161
  40
10.195151
  50
65.56373
  51
85.768467
  0
ARC
  8
WHITE
  6
CONTINUOUS
  10
183.344592
  20
144.77312
  40
0.500498
  50
-114.87405
  51
-77.19865
  0
ARC
  8
WHITE
  6
CONTINUOUS
  10
187.402943
  20
127.357092
  40
17.382134
  50
87.53255
  51
103.1263
  0
ARC
  8
WHITE
  6
CONTINUOUS
  10
188.152618
  20
142.226464
  40
2.496646
  50
-5.086118
  51
90.030823
  0
LINE
  8
WHITE
  6
CONTINUOUS
  10
190.639434
  20
142.005129
  11
189.550241
  21
129.604316
  0
ARC
  8
WHITE
  6
CONTINUOUS
  10
188.058105
  20
129.734216
  40
1.497779
  50
-89.876109
  51
-4.975432
  0
LINE
  8
WHITE
  6
CONTINUOUS
  10
188.061344
  20
128.23644
  11
180.187168
  21
128.236441
  0
ARC
  8
WHITE
  6
CONTINUOUS
  10
180.186067
  20
128.73496
  40
0.49852
  50
180.0
  51
270.1266
  0
LINE
  8
WHITE
  6
CONTINUOUS
  10
179.687547
  20
128.73496
  11
179.686436
  21
133.73127
  0
ARC
  8
WHITE
  6
CONTINUOUS
  10
179.187917
  20
133.732369
  40
0.49852
  50
-0.1263
  51
90.0
  0
LINE
  8
WHITE
  6
CONTINUOUS
  10
179.187917
  20
134.230888
  11
178.688276
  21
134.229777
  0
ARC
  8
WHITE
  6
CONTINUOUS
  10
178.687177
  20
133.731259
  40
0.49852
  50
89.87372
  51
180.0
  0
LINE
  8
WHITE
  6
CONTINUOUS
  10
178.188657
  20
133.731259
  11
178.187547
  21
128.73496
  0
ARC
  8
WHITE
  6
CONTINUOUS
  10
177.689028
  20
128.73496
  40
0.49852
  50
-90.0
  51
0.0
  0
LINE
  8
WHITE
  6
CONTINUOUS
  10
177.689028
  20
128.23644
  11
169.814861
  21
128.23644
  0
ARC
  8
WHITE
  6
CONTINUOUS
  10
169.814034
  20
129.729791
  40
1.493351
  50
-175.180179
  51
-89.968279
  0
LINE
  8
WHITE
  6
CONTINUOUS
  10
168.325964
  20
129.604316
  11
167.226778
  21
142.005129
  0
ARC
  8
WHITE
  6
CONTINUOUS
  10
169.715236
  20
142.224966
  40
2.498149
  50
89.981448
  51
185.048562
  0
ARC
  8
WHITE
  6
CONTINUOUS
  10
170.458248
  20
127.357412
  40
17.381557
  50
76.853776
  51
92.44731
  0
ARC
  8
WHITE
  6
CONTINUOUS
  10
174.511092
  20
144.785467
  40
0.511812
  50
-101.225431
  51
-64.52649
  0
ARC
  8
WHITE
  6
CONTINUOUS
  10
178.920173
  20
135.031357
  40
10.192626
  50
90.286176
  51
114.266346
  0
ARC
  8
WHITE
  6
CONTINUOUS
  10
178.960638
  20
126.929904
  40
18.29418
  50
88.571849
  51
90.286176
  0
LINE
  8
WHITE
  6
CONTINUOUS
  10
237.295002
  20
305.615037
  11
237.295007
  21
304.504741
  0
ARC
  8
WHITE
  6
CONTINUOUS
  10
241.851493
  20
304.510028
  40
4.556489
  50
-179.933522
  51
-107.887547
  0
ARC
  8
WHITE
  6
CONTINUOUS
  10
240.603531
  20
300.648716
  40
0.49852
  50
-107.6996
  51
0.0
  0
LINE
  8
WHITE
  6
CONTINUOUS
  10
241.102051
  20
300.648716
  11
241.102051
  21
305.645014
  0
ARC
  8
WHITE
  6
CONTINUOUS
  10
241.60057
  20
305.645016
  40
0.49852
  50
89.872392
  51
180.000142
  0
LINE
  8
WHITE
  6
CONTINUOUS
  10
241.601681
  20
306.143534
  11
242.102421
  21
306.143534
  0
ARC
  8
WHITE
  6
CONTINUOUS
  10
242.102421
  20
305.645014
  40
0.49852
  50
0.0
  51
90.00001
  0
LINE
  8
WHITE
  6
CONTINUOUS
  10
242.60094
  20
305.645014
  11
242.60094
  21
300.648716
  0
ARC
  8
WHITE
  6
CONTINUOUS
  10
243.110342
  20
300.666158
  40
0.5097
  50
-178.038917
  51
-72.871997
  0
ARC
  8
WHITE
  6
CONTINUOUS
  10
241.860505
  20
304.506563
  40
4.548307
  50
-72.073596
  51
-3.928168
  0
LINE
  8
WHITE
  6
CONTINUOUS
  10
246.398127
  20
304.194978
  11
247.996943
  21
327.497715
  0
ARC
  8
WHITE
  6
CONTINUOUS
  10
244.052419
  20
327.773412
  40
3.954147
  50
-3.998118
  51
67.433383
  0
ARC
  8
WHITE
  6
CONTINUOUS
  10
248.337367
  20
338.079616
  40
7.207332
  50
-153.762874
  51
-112.580804
  0
LINE
  8
WHITE
  6
CONTINUOUS
  10
241.872591
  20
334.893347
  11
240.89566
  21
336.857577
  0
ARC
  8
WHITE
  6
CONTINUOUS
  10
239.192354
  20
336.0214
  40
1.897483
  50
26.14706
  51
180.0
  0
LINE
  8
WHITE
  6
CONTINUOUS
  10
237.294871
  20
336.0214
  11
237.295002
  21
305.615037
  0
LINE
  8
WHITE
  6
CONTINUOUS
  10
204.349892
  20
305.115037
  11
204.348303
  21
304.504733
  0
ARC
  8
WHITE
  6
CONTINUOUS
  10
208.903201
  20
304.509227
  40
4.554901
  50
-179.943474
  51
-107.871677
  0
ARC
  8
WHITE
  6
CONTINUOUS
  10
207.657937
  20
300.648716
  40
0.49852
  50
-107.8214
  51
0.0
  0
LINE
  8
WHITE
  6
CONTINUOUS
  10
208.156457
  20
300.648716
  11
208.156457
  21
305.645014
  0
ARC
  8
WHITE
  6
CONTINUOUS
  10
208.654977
  20
305.645019
  40
0.49852
  50
89.744784
  51
180.000568
  0
LINE
  8
WHITE
  6
CONTINUOUS
  10
208.657197
  20
306.143534
  11
209.155717
  21
306.143534
  0
ARC
  8
WHITE
  6
CONTINUOUS
  10
209.156827
  20
305.645014
  40
0.498521
  50
0.0
  51
90.127607
  0
LINE
  8
WHITE
  6
CONTINUOUS
  10
209.655347
  20
305.645014
  11
209.655347
  21
300.648716
  0
ARC
  8
WHITE
  6
CONTINUOUS
  10
210.165818
  20
300.667307
  40
0.51081
  50
-177.914199
  51
-72.905663
  0
ARC
  8
WHITE
  6
CONTINUOUS
  10
208.903191
  20
304.51533
  40
4.560608
  50
-71.954126
  51
-4.027963
  0
LINE
  8
WHITE
  6
CONTINUOUS
  10
213.452534
  20
304.194978
  11
215.051349
  21
327.497715
  0
ARC
  8
WHITE
  6
CONTINUOUS
  10
211.105634
  20
327.772247
  40
3.955254
  50
-3.980069
  51
67.438774
  0
ARC
  8
WHITE
  6
CONTINUOUS
  10
215.390663
  20
338.079616
  40
7.207332
  50
-153.762874
  51
-112.580804
  0
LINE
  8
WHITE
  6
CONTINUOUS
  10
208.925887
  20
334.893347
  11
207.95096
  21
336.858018
  0
ARC
  8
WHITE
  6
CONTINUOUS
  10
206.247871
  20
336.0214
  40
1.897483
  50
26.16189
  51
180.0
  0
LINE
  8
WHITE
  6
CONTINUOUS
  10
204.350388
  20
336.0214
  11
204.350388
  21
305.615037
  0
LINE
  8
WHITE
  6
CONTINUOUS
  10
204.350388
  20
305.615037
  11
204.349892
  21
305.115037
  0
LINE
  8
WHITE
  6
CONTINUOUS
  10
220.824465
  20
305.115037
  11
220.816103
  21
304.504709
  0
ARC
  8
WHITE
  6
CONTINUOUS
  10
225.372596
  20
304.514085
  40
4.556502
  50
-179.882108
  51
-107.872638
  0
ARC
  8
WHITE
  6
CONTINUOUS
  10
224.136841
  20
300.648716
  40
0.49852
  50
-109.0417
  51
0.0
  0
LINE
  8
WHITE
  6
CONTINUOUS
  10
224.63536
  20
300.648716
  11
224.63536
  21
305.645014
  0
ARC
  8
WHITE
  6
CONTINUOUS
  10
225.13388
  20
305.645016
  40
0.49852
  50
89.872392
  51
180.000142
  0
LINE
  8
WHITE
  6
CONTINUOUS
  10
225.13499
  20
306.143534
  11
225.63462
  21
306.143534
  0
ARC
  8
WHITE
  6
CONTINUOUS
  10
225.63462
  20
305.645014
  40
0.49852
  50
0.0
  51
90.00001
  0
LINE
  8
WHITE
  6
CONTINUOUS
  10
226.13314
  20
305.645014
  11
226.131389
  21
300.64869
  0
ARC
  8
WHITE
  6
CONTINUOUS
  10
226.63277
  20
300.657598
  40
0.50146
  50
-178.9821
  51
-72.6081
  0
ARC
  8
WHITE
  6
CONTINUOUS
  10
225.381571
  20
304.51876
  40
4.560264
  50
-72.107128
  51
-4.071475
  0
LINE
  8
WHITE
  6
CONTINUOUS
  10
229.930327
  20
304.194978
  11
231.51915
  21
327.497715
  0
ARC
  8
WHITE
  6
CONTINUOUS
  10
227.573434
  20
327.772247
  40
3.955254
  50
-3.980069
  51
67.438774
  0
ARC
  8
WHITE
  6
CONTINUOUS
  10
231.871037
  20
338.074373
  40
7.207332
  50
-153.809333
  51
-112.689105
  0
LINE
  8
WHITE
  6
CONTINUOUS
  10
225.40368
  20
334.893347
  11
224.424406
  21
336.860778
  0
ARC
  8
WHITE
  6
CONTINUOUS
  10
222.722866
  20
336.024827
  40
1.895799
  50
26.164481
  51
180.103563
  0
LINE
  8
WHITE
  6
CONTINUOUS
  10
220.827071
  20
336.0214
  11
220.827071
  21
305.615037
  0
LINE
  8
WHITE
  6
CONTINUOUS
  10
220.827071
  20
305.615037
  11
220.824465
  21
305.115037
  0
LINE
  8
WHITE
  6
CONTINUOUS
  10
254.222467
  20
305.115037
  11
254.222467
  21
304.504717
  0
ARC
  8
WHITE
  6
CONTINUOUS
  10
258.778947
  20
304.513695
  40
4.556489
  50
-179.887107
  51
-107.873932
  0
ARC
  8
WHITE
  6
CONTINUOUS
  10
257.542094
  20
300.648716
  40
0.49852
  50
-108.9197
  51
0.0
  0
LINE
  8
WHITE
  6
CONTINUOUS
  10
258.040614
  20
300.648716
  11
258.040614
  21
305.645014
  0
ARC
  8
WHITE
  6
CONTINUOUS
  10
258.539133
  20
305.645016
  40
0.49852
  50
89.872392
  51
180.000142
  0
LINE
  8
WHITE
  6
CONTINUOUS
  10
258.540243
  20
306.143534
  11
259.039873
  21
306.143534
  0
ARC
  8
WHITE
  6
CONTINUOUS
  10
259.040984
  20
305.645014
  40
0.498521
  50
0.0
  51
90.127607
  0
LINE
  8
WHITE
  6
CONTINUOUS
  10
259.539503
  20
305.645014
  11
259.536643
  21
300.64867
  0
ARC
  8
WHITE
  6
CONTINUOUS
  10
260.038023
  20
300.657598
  40
0.50146
  50
-178.9798
  51
-72.6081
  0
ARC
  8
WHITE
  6
CONTINUOUS
  10
258.787965
  20
304.506563
  40
4.548307
  50
-72.073596
  51
-3.928168
  0
LINE
  8
WHITE
  6
CONTINUOUS
  10
263.325587
  20
304.194978
  11
264.924403
  21
327.497715
  0
ARC
  8
WHITE
  6
CONTINUOUS
  10
260.979879
  20
327.773412
  40
3.954147
  50
-3.998118
  51
67.433383
  0
ARC
  8
WHITE
  6
CONTINUOUS
  10
265.26343
  20
338.080196
  40
7.207332
  50
-153.757729
  51
-112.568781
  0
LINE
  8
WHITE
  6
CONTINUOUS
  10
258.798941
  20
334.893347
  11
257.829659
  21
336.860778
  0
ARC
  8
WHITE
  6
CONTINUOUS
  10
256.128119
  20
336.024827
  40
1.895799
  50
26.164481
  51
180.103563
  0
LINE
  8
WHITE
  6
CONTINUOUS
  10
254.232324
  20
336.0214
  11
254.232324
  21
305.615037
  0
LINE
  8
WHITE
  6
CONTINUOUS
  10
254.232324
  20
305.615037
  11
254.222467
  21
305.115037
  0
LINE
  8
WHITE
  6
CONTINUOUS
  10
59.138639
  20
306.364111
  11
59.138639
  21
306.063572
  0
ARC
  8
WHITE
  6
CONTINUOUS
  10
63.332633
  20
306.073586
  40
4.194005
  50
-179.8632
  51
-109.7589
  0
ARC
  8
WHITE
  6
CONTINUOUS
  10
62.084489
  20
302.596629
  40
0.499809
  50
-109.847476
  51
-0.053589
  0
LINE
  8
WHITE
  6
CONTINUOUS
  10
62.584298
  20
302.596162
  11
62.584298
  21
307.572475
  0
ARC
  8
WHITE
  6
CONTINUOUS
  10
63.082816
  20
307.573587
  40
0.49852
  50
89.87225
  51
180.12775
  0
LINE
  8
WHITE
  6
CONTINUOUS
  10
63.083928
  20
308.072105
  11
63.583558
  21
308.072105
  0
ARC
  8
WHITE
  6
CONTINUOUS
  10
63.584669
  20
307.573587
  40
0.49852
  50
-0.12775
  51
90.12775
  0
LINE
  8
WHITE
  6
CONTINUOUS
  10
64.083188
  20
307.572475
  11
64.083188
  21
302.596162
  0
ARC
  8
WHITE
  6
CONTINUOUS
  10
64.583926
  20
302.597954
  40
0.500741
  50
-179.7949
  51
-70.303842
  0
ARC
  8
WHITE
  6
CONTINUOUS
  10
63.337129
  20
306.075201
  40
4.194756
  50
-70.277798
  51
-3.983417
  0
LINE
  8
WHITE
  6
CONTINUOUS
  10
67.521752
  20
305.783801
  11
68.980668
  21
327.219749
  0
ARC
  8
WHITE
  6
CONTINUOUS
  10
65.353233
  20
327.467026
  40
3.635853
  50
-3.899738
  51
67.398775
  0
ARC
  8
WHITE
  6
CONTINUOUS
  10
69.298213
  20
336.940719
  40
6.626394
  50
-153.778419
  51
-112.611
  0
LINE
  8
WHITE
  6
CONTINUOUS
  10
63.353728
  20
334.012888
  11
62.454394
  21
335.832651
  0
ARC
  8
WHITE
  6
CONTINUOUS
  10
60.886153
  20
335.080253
  40
1.739392
  50
25.630375
  51
180.561049
  0
LINE
  8
WHITE
  6
CONTINUOUS
  10
59.146845
  20
335.063221
  11
59.146845
  21
306.864111
  0
LINE
  8
WHITE
  6
CONTINUOUS
  10
59.146845
  20
306.864111
  11
59.138639
  21
306.364111
  0
LINE
  8
WHITE
  6
CONTINUOUS
  10
75.476536
  20
306.364111
  11
75.476536
  21
306.063572
  0
ARC
  8
WHITE
  6
CONTINUOUS
  10
79.670529
  20
306.073586
  40
4.194005
  50
-179.8632
  51
-109.7589
  0
ARC
  8
WHITE
  6
CONTINUOUS
  10
78.422386
  20
302.596629
  40
0.499809
  50
-109.847476
  51
-0.053589
  0
LINE
  8
WHITE
  6
CONTINUOUS
  10
78.922195
  20
302.596162
  11
78.922195
  21
307.572475
  0
ARC
  8
WHITE
  6
CONTINUOUS
  10
79.420713
  20
307.573587
  40
0.49852
  50
89.87225
  51
180.12775
  0
LINE
  8
WHITE
  6
CONTINUOUS
  10
79.421825
  20
308.072105
  11
79.921458
  21
308.070994
  0
ARC
  8
WHITE
  6
CONTINUOUS
  10
79.922565
  20
307.572475
  40
0.49852
  50
0.0
  51
90.12726
  0
LINE
  8
WHITE
  6
CONTINUOUS
  10
80.421084
  20
307.572475
  11
80.421084
  21
302.596162
  0
ARC
  8
WHITE
  6
CONTINUOUS
  10
80.921823
  20
302.597954
  40
0.500741
  50
-179.7949
  51
-70.303842
  0
ARC
  8
WHITE
  6
CONTINUOUS
  10
79.673887
  20
306.074792
  40
4.194756
  50
-70.261275
  51
-3.977825
  0
LINE
  8
WHITE
  6
CONTINUOUS
  10
83.858538
  20
305.783801
  11
85.318559
  21
327.219667
  0
ARC
  8
WHITE
  6
CONTINUOUS
  10
81.691161
  20
327.467476
  40
3.635853
  50
-3.908141
  51
67.396565
  0
ARC
  8
WHITE
  6
CONTINUOUS
  10
85.63722
  20
336.940719
  40
6.626394
  50
-153.778419
  51
-112.6199
  0
LINE
  8
WHITE
  6
CONTINUOUS
  10
79.692735
  20
334.012888
  11
78.792291
  21
335.832651
  0
ARC
  8
WHITE
  6
CONTINUOUS
  10
77.22405
  20
335.080253
  40
1.739392
  50
25.630375
  51
180.561049
  0
LINE
  8
WHITE
  6
CONTINUOUS
  10
75.484741
  20
335.063221
  11
75.484741
  21
306.864111
  0
LINE
  8
WHITE
  6
CONTINUOUS
  10
75.484741
  20
306.864111
  11
75.476536
  21
306.364111
  0
LINE
  8
WHITE
  6
CONTINUOUS
  10
107.860757
  20
306.703119
  11
107.860757
  21
334.033984
  0
ARC
  8
WHITE
  6
CONTINUOUS
  10
109.555451
  20
334.039971
  40
1.694704
  50
26.020602
  51
180.202438
  0
LINE
  8
WHITE
  6
CONTINUOUS
  10
111.078373
  20
334.783428
  11
111.947729
  21
333.013628
  0
ARC
  8
WHITE
  6
CONTINUOUS
  10
117.712348
  20
335.860408
  40
6.429229
  50
-153.718151
  51
-112.5735
  0
ARC
  8
WHITE
  6
CONTINUOUS
  10
113.887535
  20
326.670176
  40
3.525147
  50
-4.093859
  51
67.362351
  0
LINE
  8
WHITE
  6
CONTINUOUS
  10
117.403687
  20
326.418514
  11
115.984739
  21
305.623919
  0
ARC
  8
WHITE
  6
CONTINUOUS
  10
111.927037
  20
305.908416
  40
4.067663
  50
-69.573216
  51
-4.010604
  0
ARC
  8
WHITE
  6
CONTINUOUS
  10
113.166826
  20
302.565074
  40
0.50188
  50
179.8692
  51
291.0011
  0
LINE
  8
WHITE
  6
CONTINUOUS
  10
112.664948
  20
302.56622
  11
112.677189
  21
307.572475
  0
ARC
  8
WHITE
  6
CONTINUOUS
  10
112.178669
  20
307.572475
  40
0.49852
  50
0.0
  51
90.12823
  0
LINE
  8
WHITE
  6
CONTINUOUS
  10
112.177554
  20
308.070994
  11
111.677929
  21
308.072105
  0
ARC
  8
WHITE
  6
CONTINUOUS
  10
111.676818
  20
307.573587
  40
0.49852
  50
89.87225
  51
180.12775
  0
LINE
  8
WHITE
  6
CONTINUOUS
  10
111.178299
  20
307.572475
  11
111.178299
  21
302.566184
  0
ARC
  8
WHITE
  6
CONTINUOUS
  10
110.674988
  20
302.568003
  40
0.503315
  50
-110.490602
  51
-0.207014
  0
ARC
  8
WHITE
  6
CONTINUOUS
  10
111.926634
  20
305.902601
  40
4.065079
  50
179.9843
  51
249.4366
  0
LINE
  8
WHITE
  6
CONTINUOUS
  10
107.861555
  20
305.903715
  11
107.861555
  21
306.364111
  0
LINE
  8
WHITE
  6
CONTINUOUS
  10
107.861555
  20
306.364111
  11
107.860757
  21
306.703119
  0
LINE
  8
WHITE
  6
CONTINUOUS
  10
91.823448
  20
306.364111
  11
91.823448
  21
305.903715
  0
ARC
  8
WHITE
  6
CONTINUOUS
  10
95.880727
  20
305.897199
  40
4.057284
  50
179.907974
  51
249.512926
  0
ARC
  8
WHITE
  6
CONTINUOUS
  10
94.630383
  20
302.56665
  40
0.499805
  50
-109.847216
  51
-0.053394
  0
LINE
  8
WHITE
  6
CONTINUOUS
  10
95.130188
  20
302.566184
  11
95.130188
  21
307.572475
  0
ARC
  8
WHITE
  6
CONTINUOUS
  10
95.628706
  20
307.573587
  40
0.49852
  50
89.87225
  51
180.12775
  0
LINE
  8
WHITE
  6
CONTINUOUS
  10
95.629818
  20
308.072105
  11
96.129451
  21
308.070994
  0
ARC
  8
WHITE
  6
CONTINUOUS
  10
96.130558
  20
307.572475
  40
0.49852
  50
0.0
  51
90.12726
  0
LINE
  8
WHITE
  6
CONTINUOUS
  10
96.629077
  20
307.572475
  11
96.626829
  21
302.566197
  0
ARC
  8
WHITE
  6
CONTINUOUS
  10
97.128708
  20
302.565715
  40
0.50188
  50
179.945033
  51
290.972668
  0
ARC
  8
WHITE
  6
CONTINUOUS
  10
95.880732
  20
305.903712
  40
4.065524
  50
-69.4423
  51
-3.9462
  0
LINE
  8
WHITE
  6
CONTINUOUS
  10
99.936617
  20
305.623923
  11
101.359735
  21
326.41892
  0
ARC
  8
WHITE
  6
CONTINUOUS
  10
97.839148
  20
326.666285
  40
3.529267
  50
-4.019137
  51
67.382638
  0
ARC
  8
WHITE
  6
CONTINUOUS
  10
101.665335
  20
335.860408
  40
6.429228
  50
-153.7182
  51
-112.5826
  0
LINE
  8
WHITE
  6
CONTINUOUS
  10
95.900715
  20
333.013634
  11
95.030262
  21
334.783428
  0
ARC
  8
WHITE
  6
CONTINUOUS
  10
93.508203
  20
334.058803
  40
1.685748
  50
25.458285
  51
180.843613
  0
LINE
  8
WHITE
  6
CONTINUOUS
  10
91.822638
  20
334.033984
  11
91.822638
  21
306.703119
  0
LINE
  8
WHITE
  6
CONTINUOUS
  10
91.822638
  20
306.703119
  11
91.823448
  21
306.364111
  0
LINE
  8
WHITE
  6
CONTINUOUS
  10
123.898876
  20
306.343386
  11
123.898876
  21
331.174991
  0
ARC
  8
WHITE
  6
CONTINUOUS
  10
125.436625
  20
331.174991
  40
1.53775
  50
26.05034
  51
180.0
  0
LINE
  8
WHITE
  6
CONTINUOUS
  10
126.818153
  20
331.85031
  11
127.626115
  21
330.246789
  0
ARC
  8
WHITE
  6
CONTINUOUS
  10
132.882263
  20
332.833676
  40
5.858249
  50
-153.795248
  51
-112.663166
  0
ARC
  8
WHITE
  6
CONTINUOUS
  10
129.387032
  20
324.461075
  40
3.214627
  50
-3.931
  51
67.34969
  0
LINE
  8
WHITE
  6
CONTINUOUS
  10
132.594097
  20
324.240696
  11
131.30339
  21
305.295274
  0
ARC
  8
WHITE
  6
CONTINUOUS
  10
127.606401
  20
305.547159
  40
3.705561
  50
-66.986943
  51
-3.897685
  0
ARC
  8
WHITE
  6
CONTINUOUS
  10
128.866092
  20
302.610992
  40
0.510733
  50
-178.336069
  51
-68.285219
  0
LINE
  8
WHITE
  6
CONTINUOUS
  10
128.355574
  20
302.596162
  11
128.355574
  21
307.572475
  0
ARC
  8
WHITE
  6
CONTINUOUS
  10
127.857055
  20
307.572475
  40
0.49852
  50
0.0
  51
90.12823
  0
LINE
  8
WHITE
  6
CONTINUOUS
  10
127.855939
  20
308.070994
  11
127.356314
  21
308.072105
  0
ARC
  8
WHITE
  6
CONTINUOUS
  10
127.355203
  20
307.573587
  40
0.49852
  50
89.87225
  51
180.12775
  0
LINE
  8
WHITE
  6
CONTINUOUS
  10
126.856685
  20
307.572475
  11
126.856685
  21
302.596162
  0
ARC
  8
WHITE
  6
CONTINUOUS
  10
126.358165
  20
302.596162
  40
0.49852
  50
-112.5605
  51
0.0
  0
ARC
  8
WHITE
  6
CONTINUOUS
  10
127.606129
  20
305.543145
  40
3.698841
  50
179.987087
  51
247.101377
  0
LINE
  8
WHITE
  6
CONTINUOUS
  10
123.907288
  20
305.543978
  11
123.907288
  21
305.843386
  0
LINE
  8
WHITE
  6
CONTINUOUS
  10
123.907288
  20
305.843386
  11
123.898876
  21
306.343386
  0
LINE
  8
WHITE
  6
CONTINUOUS
  10
220.653154
  20
106.196342
  11
217.140912
  21
109.709054
  0
ARC
  8
WHITE
  6
CONTINUOUS
  10
216.78562
  20
109.367215
  40
0.493038
  50
43.894442
  51
136.105558
  0
LINE
  8
WHITE
  6
CONTINUOUS
  10
216.430328
  20
109.709054
  11
216.080587
  21
109.360424
  0
ARC
  8
WHITE
  6
CONTINUOUS
  10
216.422426
  20
109.005131
  40
0.493038
  50
133.894442
  51
226.105558
  0
LINE
  8
WHITE
  6
CONTINUOUS
  10
216.080587
  20
108.649839
  11
219.597981
  21
105.132445
  0
ARC
  8
WHITE
  6
CONTINUOUS
  10
219.24935
  20
104.783814
  40
0.493038
  50
-69.2077
  51
45.0
  0
ARC
  8
WHITE
  6
CONTINUOUS
  10
218.032153
  20
107.757466
  40
3.706023
  50
-134.835393
  51
-67.934694
  0
LINE
  8
WHITE
  6
CONTINUOUS
  10
215.419139
  20
105.129394
  11
197.305607
  21
123.249024
  0
ARC
  8
WHITE
  6
CONTINUOUS
  10
198.3948
  20
124.338217
  40
1.540352
  50
71.13489
  51
225.0
  0
LINE
  8
WHITE
  6
CONTINUOUS
  10
198.892859
  20
125.795825
  11
200.582068
  21
125.227558
  0
ARC
  8
WHITE
  6
CONTINUOUS
  10
202.459566
  20
130.772339
  40
5.854024
  50
-108.706426
  51
-67.5313
  0
ARC
  8
WHITE
  6
CONTINUOUS
  10
205.923069
  20
122.385294
  40
3.220028
  50
40.967909
  51
112.38388
  0
LINE
  8
WHITE
  6
CONTINUOUS
  10
208.354438
  20
124.496461
  11
220.827071
  21
110.188699
  0
ARC
  8
WHITE
  6
CONTINUOUS
  10
218.040688
  20
107.750587
  40
3.702475
  50
-20.332563
  51
41.186238
  0
ARC
  8
WHITE
  6
CONTINUOUS
  10
219.985196
  20
107.030035
  40
1.628757
  50
-25.175431
  51
-20.332563
  0
ARC
  8
WHITE
  6
CONTINUOUS
  10
221.006731
  20
106.549872
  40
0.5
  50
-135.003835
  51
-25.175431
  0
ARC
  8
WHITE
  6
CONTINUOUS
  10
208.775998
  20
96.181302
  40
0.493038
  50
44.817238
  51
135.182762
  0
LINE
  8
WHITE
  6
CONTINUOUS
  10
208.426257
  20
96.528818
  11
208.066524
  21
96.169085
  0
ARC
  8
WHITE
  6
CONTINUOUS
  10
208.414598
  20
95.819899
  40
0.493038
  50
134.908692
  51
225.091308
  0
LINE
  8
WHITE
  6
CONTINUOUS
  10
208.066524
  20
95.470713
  11
211.583918
  21
91.952209
  0
ARC
  8
WHITE
  6
CONTINUOUS
  10
211.235287
  20
91.603578
  40
0.493038
  50
-68.152
  51
45.0
  0
ARC
  8
WHITE
  6
CONTINUOUS
  10
210.021039
  20
94.575333
  40
3.703282
  50
-134.681836
  51
-67.825409
  0
LINE
  8
WHITE
  6
CONTINUOUS
  10
207.417005
  20
91.942216
  11
189.290433
  21
110.059906
  0
ARC
  8
WHITE
  6
CONTINUOUS
  10
190.379626
  20
111.149099
  40
1.540352
  50
71.20187
  51
225.0
  0
LINE
  8
WHITE
  6
CONTINUOUS
  10
190.875981
  20
112.607288
  11
192.577998
  21
112.03733
  0
ARC
  8
WHITE
  6
CONTINUOUS
  10
194.455496
  20
117.582111
  40
5.854024
  50
-108.706426
  51
-67.5313
  0
ARC
  8
WHITE
  6
CONTINUOUS
  10
197.915998
  20
109.198489
  40
3.21572
  50
41.018632
  51
112.357673
  0
LINE
  8
WHITE
  6
CONTINUOUS
  10
200.342246
  20
111.30898
  11
212.823
  21
96.99847
  0
ARC
  8
WHITE
  6
CONTINUOUS
  10
210.036176
  20
94.560277
  40
3.702861
  50
-20.2478
  51
41.182693
  0
ARC
  8
WHITE
  6
CONTINUOUS
  10
212.015282
  20
93.830232
  40
1.593399
  50
-25.500604
  51
-20.2478
  0
ARC
  8
WHITE
  6
CONTINUOUS
  10
213.002163
  20
93.359501
  40
0.5
  50
-135.0
  51
-25.500604
  0
LINE
  8
WHITE
  6
CONTINUOUS
  10
212.648609
  20
93.005948
  11
209.125739
  21
96.528818
  0
LINE
  8
WHITE
  6
CONTINUOUS
  10
139.097616
  20
306.343386
  11
139.097616
  21
331.174991
  0
ARC
  8
WHITE
  6
CONTINUOUS
  10
140.635366
  20
331.174991
  40
1.53775
  50
26.03203
  51
180.0
  0
LINE
  8
WHITE
  6
CONTINUOUS
  10
142.017109
  20
331.849868
  11
142.814863
  21
330.246789
  0
ARC
  8
WHITE
  6
CONTINUOUS
  10
148.070969
  20
332.833762
  40
5.858249
  50
-153.794318
  51
-112.5822
  0
ARC
  8
WHITE
  6
CONTINUOUS
  10
144.584458
  20
324.45808
  40
3.214117
  50
-3.888259
  51
67.366711
  0
LINE
  8
WHITE
  6
CONTINUOUS
  10
147.791176
  20
324.240128
  11
146.492138
  21
305.295274
  0
ARC
  8
WHITE
  6
CONTINUOUS
  10
142.795095
  20
305.547197
  40
3.705616
  50
-66.986414
  51
-3.898214
  0
ARC
  8
WHITE
  6
CONTINUOUS
  10
144.055046
  20
302.599104
  40
0.49963
  50
-179.662569
  51
-67.802853
  0
LINE
  8
WHITE
  6
CONTINUOUS
  10
143.555425
  20
302.596162
  11
143.555425
  21
307.572475
  0
ARC
  8
WHITE
  6
CONTINUOUS
  10
143.056906
  20
307.572475
  40
0.49852
  50
0.0
  51
90.12823
  0
LINE
  8
WHITE
  6
CONTINUOUS
  10
143.05579
  20
308.070994
  11
142.555055
  21
308.072105
  0
ARC
  8
WHITE
  6
CONTINUOUS
  10
142.553944
  20
307.573587
  40
0.49852
  50
89.87225
  51
180.12775
  0
LINE
  8
WHITE
  6
CONTINUOUS
  10
142.055425
  20
307.572475
  11
142.055425
  21
302.596162
  0
ARC
  8
WHITE
  6
CONTINUOUS
  10
141.553757
  20
302.597526
  40
0.50167
  50
-113.222797
  51
-0.155763
  0
ARC
  8
WHITE
  6
CONTINUOUS
  10
142.794877
  20
305.543978
  40
3.698841
  50
180.0
  51
247.1063
  0
LINE
  8
WHITE
  6
CONTINUOUS
  10
139.096036
  20
305.543978
  11
139.096036
  21
305.843373
  0
LINE
  8
WHITE
  6
CONTINUOUS
  10
139.096036
  20
305.843373
  11
139.097616
  21
306.343386
  0
VIEWPORT
  8
0
  67
1
  10
200.504303
  20
169.994232
  40
401.008606
  41
339.988464
  68
1
  69
1
  1001
ACAD
  1000
MVIEW
  1002
{
  1070
16
  1010
0.0
  1020
0.0
  1010
0.0
  1020
0.0
  1030
1.0
  1040
0.0
  1040
339.988464
  1040
200.504303
  1040
169.994232
  1040
50.0
  1040
0.0
  1040
0.0
  1070
0
  1070
100
  1070
1
  1070
1
  1070
0
  1070
0
  1070
0
  1070
0
  1040
0.0
  1040
0.0
  1040
0.0
  1040
1.0
  1040
1.0
  1040
0.0
  1040
0.0
  1070
0
  1002
{
  1002
}
  1002
}
  0
VIEWPORT
  8
0
  6
BYBLOCK
  62
0
  67
1
  10
200.504303
  20
169.994232
  40
401.008606
  41
339.988464
  68
2
  69
2
  1001
ACAD
  1000
MVIEW
  1002
{
  1070
16
  1010
0.0
  1020
0.0
  1010
0.0
  1020
0.0
  1030
1.0
  1040
0.0
  1040
339.988464
  1040
200.504303
  1040
169.994232
  1040
50.0
  1040
0.0
  1040
0.0
  1070
0
  1070
100
  1070
1
  1070
1
  1070
0
  1070
0
  1070
0
  1070
0
  1040
0.0
  1040
0.0
  1040
0.0
  1040
1.0
  1040
1.0
  1040
0.0
  1040
0.0
  1070
0
  1002
{
  1002
}
  1002
}
  0
ENDSEC
  0
EOF

