  0
SECTION
  2
HEADER
  9
$ACADVER
  1
AC1014
  9
$HANDSEED
  5
FFFF
  9
$MEASUREMENT
 70
     1
  0
ENDSEC
  0
SECTION
  2
TABLES
  0
TABLE
  2
VPORT
  5
8
330
0
100
AcDbSymbolTable
 70
     4
  0
VPORT
  5
2E
330
8
100
AcDbSymbolTableRecord
100
AcDbViewportTableRecord
  2
*ACTIVE
 70
     0
 10
0.0
 20
0.0
 11
1.0
 21
1.0
 12
210.0
 22
148.5
 13
0.0
 23
0.0
 14
10.0
 24
10.0
 15
10.0
 25
10.0
 16
0.0
 26
0.0
 36
1.0
 17
0.0
 27
0.0
 37
0.0
 40
341.0
 41
1.24
 42
50.0
 43
0.0
 44
0.0
 50
0.0
 51
0.0
 71
     0
 72
   100
 73
     1
 74
     3
 75
     0
 76
     0
 77
     0
 78
     0
  0
ENDTAB
  0
TABLE
  2
LTYPE
  5
5
330
0
100
AcDbSymbolTable
 70
     1
  0
LTYPE
  5
14
330
5
100
AcDbSymbolTableRecord
100
AcDbLinetypeTableRecord
  2
BYBLOCK
 70
     0
  3

 72
    65
 73
     0
 40
0.0
  0
LTYPE
  5
15
330
5
100
AcDbSymbolTableRecord
100
AcDbLinetypeTableRecord
  2
BYLAYER
 70
     0
  3

 72
    65
 73
     0
 40
0.0
  0
LTYPE
  5
16
330
5
100
AcDbSymbolTableRecord
100
AcDbLinetypeTableRecord
  2
CONTINUOUS
 70
     0
  3
Solid line
 72
    65
 73
     0
 40
0.0
  0
ENDTAB
  0
TABLE
  2
LAYER
  5
2
100
AcDbSymbolTable
 70
1
  0
LAYER
  5
50
100
AcDbSymbolTableRecord
100
AcDbLayerTableRecord
  2
0
 70
0
  6
CONTINUOUS
  0
ENDTAB
  0
TABLE
  2
STYLE
  5
3
330
0
100
AcDbSymbolTable
 70
     1
  0
STYLE
  5
11
330
3
100
AcDbSymbolTableRecord
100
AcDbTextStyleTableRecord
  2
STANDARD
 70
     0
 40
0.0
 41
1.0
 50
0.0
 71
     0
 42
2.5
  3
txt
  4

  0
ENDTAB
  0
TABLE
  2
VIEW
  5
6
330
0
100
AcDbSymbolTable
 70
     0
  0
ENDTAB
  0
TABLE
  2
UCS
  5
7
330
0
100
AcDbSymbolTable
 70
     0
  0
ENDTAB
  0
TABLE
  2
APPID
  5
9
330
0
100
AcDbSymbolTable
 70
     2
  0
APPID
  5
12
330
9
100
AcDbSymbolTableRecord
100
AcDbRegAppTableRecord
  2
ACAD
 70
     0
  0
ENDTAB
  0
TABLE
  2
DIMSTYLE
  5
A
330
0
100
AcDbSymbolTable
 70
     1
  0
DIMSTYLE
105
27
330
A
100
AcDbSymbolTableRecord
100
AcDbDimStyleTableRecord
  2
ISO-25
 70
     0
  3

  4

  5

  6

  7

 40
1.0
 41
2.5
 42
0.625
 43
3.75
 44
1.25
 45
0.0
 46
0.0
 47
0.0
 48
0.0
140
2.5
141
2.5
142
0.0
143
0.03937007874016
144
1.0
145
0.0
146
1.0
147
0.625
 71
     0
 72
     0
 73
     0
 74
     0
 75
     0
 76
     0
 77
     1
 78
     8
170
     0
171
     3
172
     1
173
     0
174
     0
175
     0
176
     0
177
     0
178
     0
270
     2
271
     2
272
     2
273
     2
274
     3
340
11
275
     0
280
     0
281
     0
282
     0
283
     0
284
     8
285
     0
286
     0
287
     3
288
     0
  0
ENDTAB
  0
TABLE
  2
BLOCK_RECORD
  5
1
330
0
100
AcDbSymbolTable
 70
     1
  0
BLOCK_RECORD
  5
1F
330
1
100
AcDbSymbolTableRecord
100
AcDbBlockTableRecord
  2
*MODEL_SPACE
  0
BLOCK_RECORD
  5
1B
330
1
100
AcDbSymbolTableRecord
100
AcDbBlockTableRecord
  2
*PAPER_SPACE
  0
ENDTAB
  0
ENDSEC
  0
SECTION
  2
BLOCKS
  0
BLOCK
  5
20
330
1F
100
AcDbEntity
  8
0
100
AcDbBlockBegin
  2
*MODEL_SPACE
 70
     0
 10
0.0
 20
0.0
 30
0.0
  3
*MODEL_SPACE
  1

  0
ENDBLK
  5
21
330
1F
100
AcDbEntity
  8
0
100
AcDbBlockEnd
  0
BLOCK
  5
1C
330
1B
100
AcDbEntity
 67
     1
  8
0
100
AcDbBlockBegin
  2
*PAPER_SPACE
  1

  0
ENDBLK
  5
1D
330
1B
100
AcDbEntity
 67
     1
  8
0
100
AcDbBlockEnd
  0
ENDSEC
  0
SECTION
  2
ENTITIES
  0
SPLINE
  5
100
100
AcDbEntity
  8
0
 62
7
100
AcDbSpline
 70
8
 71
3
 72
8
 73
4
 74
0
 40
0
 40
0
 40
0
 40
0
 40
1
 40
1
 40
1
 40
1
 10
59.219105
 20
12.634976
 30
0.0
 10
58.432586
 20
16.849402
 30
0.0
 10
56.805049
 20
20.790924
 30
0.0
 10
54.007660
 20
25.255895
 30
0.0
  0
SPLINE
  5
101
100
AcDbEntity
  8
0
 62
7
100
AcDbSpline
 70
8
 71
3
 72
8
 73
4
 74
0
 40
0
 40
0
 40
0
 40
0
 40
1
 40
1
 40
1
 40
1
 10
54.007660
 20
25.255895
 30
0.0
 10
53.296624
 20
26.390796
 30
0.0
 10
52.113992
 20
28.278730
 30
0.0
 10
51.379588
 20
29.451305
 30
0.0
  0
SPLINE
  5
102
100
AcDbEntity
  8
0
 62
7
100
AcDbSpline
 70
8
 71
3
 72
8
 73
4
 74
0
 40
0
 40
0
 40
0
 40
0
 40
1
 40
1
 40
1
 40
1
 10
51.379588
 20
29.451305
 30
0.0
 10
50.645187
 20
30.623880
 30
0.0
 10
49.934487
 20
31.872121
 30
0.0
 10
49.800256
 20
32.225173
 30
0.0
  0
SPLINE
  5
103
100
AcDbEntity
  8
0
 62
7
100
AcDbSpline
 70
8
 71
3
 72
8
 73
4
 74
0
 40
0
 40
0
 40
0
 40
0
 40
1
 40
1
 40
1
 40
1
 10
49.800256
 20
32.225173
 30
0.0
 10
49.561292
 20
32.853696
 30
0.0
 10
49.579490
 20
32.850167
 30
0.0
 10
50.672513
 20
32.056004
 30
0.0
  0
SPLINE
  5
104
100
AcDbEntity
  8
0
 62
7
100
AcDbSpline
 70
8
 71
3
 72
8
 73
4
 74
0
 40
0
 40
0
 40
0
 40
0
 40
1
 40
1
 40
1
 40
1
 10
50.672513
 20
32.056004
 30
0.0
 10
51.746692
 20
31.275533
 30
0.0
 10
51.792050
 20
31.265966
 30
0.0
 10
51.874269
 20
31.802512
 30
0.0
  0
SPLINE
  5
105
100
AcDbEntity
  8
0
 62
7
100
AcDbSpline
 70
8
 71
3
 72
8
 73
4
 74
0
 40
0
 40
0
 40
0
 40
0
 40
1
 40
1
 40
1
 40
1
 10
51.874269
 20
31.802512
 30
0.0
 10
52.115757
 20
33.378431
 30
0.0
 10
49.950092
 20
37.666681
 30
0.0
 10
47.655620
 20
40.155889
 30
0.0
  0
SPLINE
  5
106
100
AcDbEntity
  8
0
 62
7
100
AcDbSpline
 70
8
 71
3
 72
8
 73
4
 74
0
 40
0
 40
0
 40
0
 40
0
 40
1
 40
1
 40
1
 40
1
 10
47.655620
 20
40.155889
 30
0.0
 10
47.048671
 20
40.814350
 30
0.0
 10
46.609217
 20
41.410231
 30
0.0
 10
46.679054
 20
41.480068
 30
0.0
  0
SPLINE
  5
107
100
AcDbEntity
  8
0
 62
7
100
AcDbSpline
 70
8
 71
3
 72
8
 73
4
 74
0
 40
0
 40
0
 40
0
 40
0
 40
1
 40
1
 40
1
 40
1
 10
46.679054
 20
41.480068
 30
0.0
 10
47.033453
 20
41.834464
 30
0.0
 10
53.390292
 20
36.746111
 30
0.0
 10
54.827678
 20
34.957475
 30
0.0
  0
SPLINE
  5
108
100
AcDbEntity
  8
0
 62
7
100
AcDbSpline
 70
8
 71
3
 72
8
 73
4
 74
0
 40
0
 40
0
 40
0
 40
0
 40
1
 40
1
 40
1
 40
1
 10
54.827678
 20
34.957475
 30
0.0
 10
55.791235
 20
33.758457
 30
0.0
 10
57.079952
 20
32.878160
 30
0.0
 10
57.874241
 20
32.876421
 30
0.0
  0
SPLINE
  5
109
100
AcDbEntity
  8
0
 62
7
100
AcDbSpline
 70
8
 71
3
 72
8
 73
4
 74
0
 40
0
 40
0
 40
0
 40
0
 40
1
 40
1
 40
1
 40
1
 10
57.874241
 20
32.876421
 30
0.0
 10
58.347091
 20
32.875363
 30
0.0
 10
58.403408
 20
33.051268
 30
0.0
 10
58.403408
 20
34.529080
 30
0.0
  0
SPLINE
  5
10a
100
AcDbEntity
  8
0
 62
7
100
AcDbSpline
 70
8
 71
3
 72
8
 73
4
 74
0
 40
0
 40
0
 40
0
 40
0
 40
1
 40
1
 40
1
 40
1
 10
58.403408
 20
34.529080
 30
0.0
 10
58.403408
 20
35.438675
 30
0.0
 10
58.491641
 20
36.579413
 30
0.0
 10
58.599483
 20
37.064050
 30
0.0
  0
SPLINE
  5
10b
100
AcDbEntity
  8
0
 62
7
100
AcDbSpline
 70
8
 71
3
 72
8
 73
4
 74
0
 40
0
 40
0
 40
0
 40
0
 40
1
 40
1
 40
1
 40
1
 10
58.599483
 20
37.064050
 30
0.0
 10
58.856274
 20
38.218057
 30
0.0
 10
58.367631
 20
38.083972
 30
0.0
 10
57.500324
 20
36.762439
 30
0.0
  0
SPLINE
  5
10c
100
AcDbEntity
  8
0
 62
7
100
AcDbSpline
 70
8
 71
3
 72
8
 73
4
 74
0
 40
0
 40
0
 40
0
 40
0
 40
1
 40
1
 40
1
 40
1
 10
56.389199
 20
36.845174
 30
0.0
 10
55.753188
 20
38.265751
 30
0.0
 10
54.439108
 20
40.151203
 30
0.0
 10
53.036219
 20
41.656056
 30
0.0
  0
SPLINE
  5
10d
100
AcDbEntity
  8
0
 62
7
100
AcDbSpline
 70
8
 71
3
 72
8
 73
4
 74
0
 40
0
 40
0
 40
0
 40
0
 40
1
 40
1
 40
1
 40
1
 10
53.036219
 20
41.656056
 30
0.0
 10
52.071482
 20
42.690912
 30
0.0
 10
51.774405
 20
43.281124
 30
0.0
 10
51.239298
 20
45.226071
 30
0.0
  0
SPLINE
  5
10e
100
AcDbEntity
  8
0
 62
7
100
AcDbSpline
 70
8
 71
3
 72
8
 73
4
 74
0
 40
0
 40
0
 40
0
 40
0
 40
1
 40
1
 40
1
 40
1
 10
51.239298
 20
45.226071
 30
0.0
 10
50.886693
 20
46.507673
 30
0.0
 10
50.598200
 20
47.670469
 30
0.0
 10
50.598200
 20
47.810060
 30
0.0
  0
SPLINE
  5
10f
100
AcDbEntity
  8
0
 62
7
100
AcDbSpline
 70
8
 71
3
 72
8
 73
4
 74
0
 40
0
 40
0
 40
0
 40
0
 40
1
 40
1
 40
1
 40
1
 10
50.598200
 20
47.810060
 30
0.0
 10
50.598200
 20
47.949652
 30
0.0
 10
51.020448
 20
47.460686
 30
0.0
 10
51.536531
 20
46.723467
 30
0.0
  0
SPLINE
  5
110
100
AcDbEntity
  8
0
 62
7
100
AcDbSpline
 70
8
 71
3
 72
8
 73
4
 74
0
 40
0
 40
0
 40
0
 40
0
 40
1
 40
1
 40
1
 40
1
 10
51.536531
 20
46.723467
 30
0.0
 10
52.052617
 20
45.986248
 30
0.0
 10
53.034883
 20
44.986758
 30
0.0
 10
53.719344
 20
44.502377
 30
0.0
  0
SPLINE
  5
111
100
AcDbEntity
  8
0
 62
7
100
AcDbSpline
 70
8
 71
3
 72
8
 73
4
 74
0
 40
0
 40
0
 40
0
 40
0
 40
1
 40
1
 40
1
 40
1
 10
53.719344
 20
44.502377
 30
0.0
 10
54.403808
 20
44.017994
 30
0.0
 10
55.581595
 20
43.100596
 30
0.0
 10
56.336647
 20
42.463709
 30
0.0
  0
LWPOLYLINE
  5
112
100
AcDbEntity
  8
0
 62
7
100
AcDbPolyline
 90
3
 70
0
 10
57.500324
 20
36.762439
 30
0.0
 10
56.861821
 20
35.789539
 30
0.0
 10
56.389199
 20
36.845174
 30
0.0
  0
SPLINE
  5
113
100
AcDbEntity
  8
0
 62
7
100
AcDbSpline
 70
8
 71
3
 72
8
 73
4
 74
0
 40
0
 40
0
 40
0
 40
0
 40
1
 40
1
 40
1
 40
1
 10
58.096978
 20
42.055097
 30
0.0
 10
58.310111
 20
42.467247
 30
0.0
 10
58.690714
 20
43.513843
 30
0.0
 10
58.942764
 20
44.380867
 30
0.0
  0
LWPOLYLINE
  5
114
100
AcDbEntity
  8
0
 62
7
100
AcDbPolyline
 90
3
 70
0
 10
56.336647
 20
42.463709
 30
0.0
 10
57.709469
 20
41.305737
 30
0.0
 10
58.096978
 20
42.055097
 30
0.0
  0
SPLINE
  5
115
100
AcDbEntity
  8
0
 62
7
100
AcDbSpline
 70
8
 71
3
 72
8
 73
4
 74
0
 40
0
 40
0
 40
0
 40
0
 40
1
 40
1
 40
1
 40
1
 10
59.960555
 20
44.006164
 30
0.0
 10
60.691546
 20
41.457118
 30
0.0
 10
61.116943
 20
41.186544
 30
0.0
 10
62.431401
 20
42.434581
 30
0.0
  0
SPLINE
  5
116
100
AcDbEntity
  8
0
 62
7
100
AcDbSpline
 70
8
 71
3
 72
8
 73
4
 74
0
 40
0
 40
0
 40
0
 40
0
 40
1
 40
1
 40
1
 40
1
 10
62.431401
 20
42.434581
 30
0.0
 10
62.980901
 20
42.956316
 30
0.0
 10
63.966273
 20
43.744772
 30
0.0
 10
64.621116
 20
44.186705
 30
0.0
  0
SPLINE
  5
117
100
AcDbEntity
  8
0
 62
7
100
AcDbSpline
 70
8
 71
3
 72
8
 73
4
 74
0
 40
0
 40
0
 40
0
 40
0
 40
1
 40
1
 40
1
 40
1
 10
64.621116
 20
44.186705
 30
0.0
 10
66.089326
 20
45.177554
 30
0.0
 10
66.761804
 20
45.894286
 30
0.0
 10
67.661983
 20
47.427684
 30
0.0
  0
SPLINE
  5
118
100
AcDbEntity
  8
0
 62
7
100
AcDbSpline
 70
8
 71
3
 72
8
 73
4
 74
0
 40
0
 40
0
 40
0
 40
0
 40
1
 40
1
 40
1
 40
1
 10
67.661983
 20
47.427684
 30
0.0
 10
68.046407
 20
48.082528
 30
0.0
 10
68.303749
 20
48.380184
 30
0.0
 10
68.233854
 20
48.089143
 30
0.0
  0
SPLINE
  5
119
100
AcDbEntity
  8
0
 62
7
100
AcDbSpline
 70
8
 71
3
 72
8
 73
4
 74
0
 40
0
 40
0
 40
0
 40
0
 40
1
 40
1
 40
1
 40
1
 10
68.233854
 20
48.089143
 30
0.0
 10
67.021350
 20
43.040419
 30
0.0
 10
66.952569
 20
42.877700
 30
0.0
 10
65.244020
 20
41.015925
 30
0.0
  0
SPLINE
  5
11a
100
AcDbEntity
  8
0
 62
7
100
AcDbSpline
 70
8
 71
3
 72
8
 73
4
 74
0
 40
0
 40
0
 40
0
 40
0
 40
1
 40
1
 40
1
 40
1
 10
65.244020
 20
41.015925
 30
0.0
 10
64.337965
 20
40.028614
 30
0.0
 10
63.173136
 20
38.373574
 30
0.0
 10
62.654053
 20
37.335989
 30
0.0
  0
SPLINE
  5
11b
100
AcDbEntity
  8
0
 62
7
100
AcDbSpline
 70
8
 71
3
 72
8
 73
4
 74
0
 40
0
 40
0
 40
0
 40
0
 40
1
 40
1
 40
1
 40
1
 10
62.654053
 20
37.335989
 30
0.0
 10
62.135208
 20
36.298881
 30
0.0
 10
61.710700
 20
35.643050
 30
0.0
 10
61.710700
 20
35.878587
 30
0.0
  0
SPLINE
  5
11c
100
AcDbEntity
  8
0
 62
7
100
AcDbSpline
 70
8
 71
3
 72
8
 73
4
 74
0
 40
0
 40
0
 40
0
 40
0
 40
1
 40
1
 40
1
 40
1
 10
61.710700
 20
35.878587
 30
0.0
 10
61.710700
 20
36.114125
 30
0.0
 10
61.374462
 20
36.683154
 30
0.0
 10
60.963503
 20
37.143095
 30
0.0
  0
LWPOLYLINE
  5
11d
100
AcDbEntity
  8
0
 62
7
100
AcDbPolyline
 90
3
 70
0
 10
58.942764
 20
44.380867
 30
0.0
 10
59.401038
 20
45.957273
 30
0.0
 10
59.960555
 20
44.006164
 30
0.0
  0
SPLINE
  5
11e
100
AcDbEntity
  8
0
 62
7
100
AcDbSpline
 70
8
 71
3
 72
8
 73
4
 74
0
 40
0
 40
0
 40
0
 40
0
 40
1
 40
1
 40
1
 40
1
 10
60.994017
 20
32.876556
 30
0.0
 10
61.574508
 20
32.875762
 30
0.0
 10
62.400569
 20
33.513329
 30
0.0
 10
64.854288
 20
35.855947
 30
0.0
  0
SPLINE
  5
11f
100
AcDbEntity
  8
0
 62
7
100
AcDbSpline
 70
8
 71
3
 72
8
 73
4
 74
0
 40
0
 40
0
 40
0
 40
0
 40
1
 40
1
 40
1
 40
1
 10
64.854288
 20
35.855947
 30
0.0
 10
67.489184
 20
38.371589
 30
0.0
 10
71.588275
 20
41.606851
 30
0.0
 10
72.140651
 20
41.606851
 30
0.0
  0
SPLINE
  5
120
100
AcDbEntity
  8
0
 62
7
100
AcDbSpline
 70
8
 71
3
 72
8
 73
4
 74
0
 40
0
 40
0
 40
0
 40
0
 40
1
 40
1
 40
1
 40
1
 10
72.140651
 20
41.606851
 30
0.0
 10
72.227009
 20
41.606851
 30
0.0
 10
71.596115
 20
40.771313
 30
0.0
 10
70.738669
 20
39.750100
 30
0.0
  0
SPLINE
  5
121
100
AcDbEntity
  8
0
 62
7
100
AcDbSpline
 70
8
 71
3
 72
8
 73
4
 74
0
 40
0
 40
0
 40
0
 40
0
 40
1
 40
1
 40
1
 40
1
 10
70.738669
 20
39.750100
 30
0.0
 10
69.881223
 20
38.728888
 30
0.0
 10
68.763629
 20
37.091779
 30
0.0
 10
68.255126
 20
36.112080
 30
0.0
  0
SPLINE
  5
122
100
AcDbEntity
  8
0
 62
7
100
AcDbSpline
 70
8
 71
3
 72
8
 73
4
 74
0
 40
0
 40
0
 40
0
 40
0
 40
1
 40
1
 40
1
 40
1
 10
68.255126
 20
36.112080
 30
0.0
 10
67.286362
 20
34.245621
 30
0.0
 10
66.511982
 20
31.690291
 30
0.0
 10
66.821365
 20
31.380906
 30
0.0
  0
SPLINE
  5
123
100
AcDbEntity
  8
0
 62
7
100
AcDbSpline
 70
8
 71
3
 72
8
 73
4
 74
0
 40
0
 40
0
 40
0
 40
0
 40
1
 40
1
 40
1
 40
1
 10
66.821365
 20
31.380906
 30
0.0
 10
66.921028
 20
31.281243
 30
0.0
 10
67.478775
 20
31.582389
 30
0.0
 10
68.060803
 20
32.050120
 30
0.0
  0
SPLINE
  5
124
100
AcDbEntity
  8
0
 62
7
100
AcDbSpline
 70
8
 71
3
 72
8
 73
4
 74
0
 40
0
 40
0
 40
0
 40
0
 40
1
 40
1
 40
1
 40
1
 10
68.060803
 20
32.050120
 30
0.0
 10
68.642828
 20
32.517850
 30
0.0
 10
69.119033
 20
32.802745
 30
0.0
 10
69.119033
 20
32.683225
 30
0.0
  0
SPLINE
  5
125
100
AcDbEntity
  8
0
 62
7
100
AcDbSpline
 70
8
 71
3
 72
8
 73
4
 74
0
 40
0
 40
0
 40
0
 40
0
 40
1
 40
1
 40
1
 40
1
 10
69.119033
 20
32.683225
 30
0.0
 10
69.119033
 20
32.393020
 30
0.0
 10
67.186138
 20
29.073277
 30
0.0
 10
65.302728
 20
26.128726
 30
0.0
  0
SPLINE
  5
126
100
AcDbEntity
  8
0
 62
7
100
AcDbSpline
 70
8
 71
3
 72
8
 73
4
 74
0
 40
0
 40
0
 40
0
 40
0
 40
1
 40
1
 40
1
 40
1
 10
65.302728
 20
26.128726
 30
0.0
 10
62.313286
 20
21.454988
 30
0.0
 10
60.199939
 20
16.537107
 30
0.0
 10
59.630008
 20
12.927965
 30
0.0
  0
LWPOLYLINE
  5
127
100
AcDbEntity
  8
0
 62
7
100
AcDbPolyline
 90
5
 70
0
 10
60.963503
 20
37.143095
 30
0.0
 10
60.216304
 20
37.979355
 30
0.0
 10
60.235909
 20
35.428484
 30
0.0
 10
60.255489
 20
32.877614
 30
0.0
 10
60.994017
 20
32.876556
 30
0.0
  0
SPLINE
  5
128
100
AcDbEntity
  8
0
 62
7
100
AcDbSpline
 70
8
 71
3
 72
8
 73
4
 74
0
 40
0
 40
0
 40
0
 40
0
 40
1
 40
1
 40
1
 40
1
 10
57.685075
 20
46.369351
 30
0.0
 10
57.452966
 20
46.878674
 30
0.0
 10
56.717216
 20
48.009768
 30
0.0
 10
56.050077
 20
48.882893
 30
0.0
  0
SPLINE
  5
129
100
AcDbEntity
  8
0
 62
7
100
AcDbSpline
 70
8
 71
3
 72
8
 73
4
 74
0
 40
0
 40
0
 40
0
 40
0
 40
1
 40
1
 40
1
 40
1
 10
56.050077
 20
48.882893
 30
0.0
 10
54.975898
 20
50.288735
 30
0.0
 10
54.838232
 20
50.621774
 30
0.0
 10
54.847022
 20
51.793309
 30
0.0
  0
LWPOLYLINE
  5
12a
100
AcDbEntity
  8
0
 62
7
100
AcDbPolyline
 90
3
 70
0
 10
59.630008
 20
12.927965
 30
0.0
 10
59.416617
 20
11.576643
 30
0.0
 10
59.219105
 20
12.634976
 30
0.0
  0
SPLINE
  5
12b
100
AcDbEntity
  8
0
 62
7
100
AcDbSpline
 70
8
 71
3
 72
8
 73
4
 74
0
 40
0
 40
0
 40
0
 40
0
 40
1
 40
1
 40
1
 40
1
 10
55.308683
 20
52.190184
 30
0.0
 10
55.861268
 20
51.057416
 30
0.0
 10
56.652231
 20
50.885074
 30
0.0
 10
57.740854
 20
51.660242
 30
0.0
  0
SPLINE
  5
12c
100
AcDbEntity
  8
0
 62
7
100
AcDbSpline
 70
8
 71
3
 72
8
 73
4
 74
0
 40
0
 40
0
 40
0
 40
0
 40
1
 40
1
 40
1
 40
1
 10
57.740854
 20
51.660242
 30
0.0
 10
58.752962
 20
52.380925
 30
0.0
 10
59.022131
 20
53.358582
 30
0.0
 10
58.398246
 20
54.047967
 30
0.0
  0
SPLINE
  5
12d
100
AcDbEntity
  8
0
 62
7
100
AcDbSpline
 70
8
 71
3
 72
8
 73
4
 74
0
 40
0
 40
0
 40
0
 40
0
 40
1
 40
1
 40
1
 40
1
 10
58.398246
 20
54.047967
 30
0.0
 10
58.018230
 20
54.467876
 30
0.0
 10
57.994301
 20
54.634773
 30
0.0
 10
58.266991
 20
54.963346
 30
0.0
  0
SPLINE
  5
12e
100
AcDbEntity
  8
0
 62
7
100
AcDbSpline
 70
8
 71
3
 72
8
 73
4
 74
0
 40
0
 40
0
 40
0
 40
0
 40
1
 40
1
 40
1
 40
1
 10
58.266991
 20
54.963346
 30
0.0
 10
58.610812
 20
55.377625
 30
0.0
 10
59.499018
 20
55.486565
 30
0.0
 10
60.233846
 20
55.204585
 30
0.0
  0
SPLINE
  5
12f
100
AcDbEntity
  8
0
 62
7
100
AcDbSpline
 70
8
 71
3
 72
8
 73
4
 74
0
 40
0
 40
0
 40
0
 40
0
 40
1
 40
1
 40
1
 40
1
 10
60.233846
 20
55.204585
 30
0.0
 10
60.764761
 20
55.000853
 30
0.0
 10
60.779438
 20
54.147646
 30
0.0
 10
60.255489
 20
53.946586
 30
0.0
  0
SPLINE
  5
130
100
AcDbEntity
  8
0
 62
7
100
AcDbSpline
 70
8
 71
3
 72
8
 73
4
 74
0
 40
0
 40
0
 40
0
 40
0
 40
1
 40
1
 40
1
 40
1
 10
60.255489
 20
53.946586
 30
0.0
 10
59.575705
 20
53.685731
 30
0.0
 10
59.817923
 20
52.809894
 30
0.0
 10
60.810984
 20
51.937976
 30
0.0
  0
SPLINE
  5
131
100
AcDbEntity
  8
0
 62
7
100
AcDbSpline
 70
8
 71
3
 72
8
 73
4
 74
0
 40
0
 40
0
 40
0
 40
0
 40
1
 40
1
 40
1
 40
1
 10
60.810984
 20
51.937976
 30
0.0
 10
62.094457
 20
50.811073
 30
0.0
 10
63.046708
 20
50.901388
 30
0.0
 10
63.470195
 20
52.190184
 30
0.0
  0
LWPOLYLINE
  5
132
100
AcDbEntity
  8
0
 62
7
100
AcDbPolyline
 90
3
 70
0
 10
54.847022
 20
51.793309
 30
0.0
 10
54.856944
 20
53.116226
 30
0.0
 10
55.308683
 20
52.190184
 30
0.0
  0
SPLINE
  5
133
100
AcDbEntity
  8
0
 62
7
100
AcDbSpline
 70
8
 71
3
 72
8
 73
4
 74
0
 40
0
 40
0
 40
0
 40
0
 40
1
 40
1
 40
1
 40
1
 10
63.961899
 20
52.388622
 30
0.0
 10
64.238611
 20
51.314337
 30
0.0
 10
63.970048
 20
50.590140
 30
0.0
 10
62.609661
 20
48.742182
 30
0.0
  0
SPLINE
  5
134
100
AcDbEntity
  8
0
 62
7
100
AcDbSpline
 70
8
 71
3
 72
8
 73
4
 74
0
 40
0
 40
0
 40
0
 40
0
 40
1
 40
1
 40
1
 40
1
 10
62.609661
 20
48.742182
 30
0.0
 10
61.936146
 20
47.827277
 30
0.0
 10
61.234185
 20
46.719826
 30
0.0
 10
61.049749
 20
46.281184
 30
0.0
  0
LWPOLYLINE
  5
135
100
AcDbEntity
  8
0
 62
7
100
AcDbPolyline
 90
3
 70
0
 10
63.470195
 20
52.190184
 30
0.0
 10
63.774484
 20
53.116226
 30
0.0
 10
63.961899
 20
52.388622
 30
0.0
  0
SPLINE
  5
136
100
AcDbEntity
  8
0
 62
7
100
AcDbSpline
 70
8
 71
3
 72
8
 73
4
 74
0
 40
0
 40
0
 40
0
 40
0
 40
1
 40
1
 40
1
 40
1
 10
60.528073
 20
46.586571
 30
0.0
 10
60.321505
 20
47.809245
 30
0.0
 10
59.947159
 20
48.230875
 30
0.0
 10
59.681901
 20
47.539624
 30
0.0
  0
SPLINE
  5
137
100
AcDbEntity
  8
0
 62
7
100
AcDbSpline
 70
8
 71
3
 72
8
 73
4
 74
0
 40
0
 40
0
 40
0
 40
0
 40
1
 40
1
 40
1
 40
1
 10
59.681901
 20
47.539624
 30
0.0
 10
59.521294
 20
47.121088
 30
0.0
 10
59.483789
 20
47.123239
 30
0.0
 10
59.157338
 20
47.569686
 30
0.0
  0
SPLINE
  5
138
100
AcDbEntity
  8
0
 62
7
100
AcDbSpline
 70
8
 71
3
 72
8
 73
4
 74
0
 40
0
 40
0
 40
0
 40
0
 40
1
 40
1
 40
1
 40
1
 10
59.157338
 20
47.569686
 30
0.0
 10
58.700331
 20
48.194680
 30
0.0
 10
58.475544
 20
47.938941
 30
0.0
 10
58.272381
 20
46.562875
 30
0.0
  0
LWPOLYLINE
  5
139
100
AcDbEntity
  8
0
 62
7
100
AcDbPolyline
 90
3
 70
0
 10
61.049749
 20
46.281184
 30
0.0
 10
60.714411
 20
45.483648
 30
0.0
 10
60.528073
 20
46.586571
 30
0.0
  0
SPLINE
  5
13a
100
AcDbEntity
  8
0
 62
7
100
AcDbSpline
 70
8
 71
3
 72
8
 73
4
 74
0
 40
0
 40
0
 40
0
 40
0
 40
1
 40
1
 40
1
 40
1
 10
55.344732
 20
55.073971
 30
0.0
 10
54.527834
 20
55.932448
 30
0.0
 10
53.699407
 20
57.021241
 30
0.0
 10
53.503788
 20
57.493509
 30
0.0
  0
SPLINE
  5
13b
100
AcDbEntity
  8
0
 62
7
100
AcDbSpline
 70
8
 71
3
 72
8
 73
4
 74
0
 40
0
 40
0
 40
0
 40
0
 40
1
 40
1
 40
1
 40
1
 10
53.503788
 20
57.493509
 30
0.0
 10
53.176683
 20
58.283210
 30
0.0
 10
53.205727
 20
58.460669
 30
0.0
 10
53.865410
 20
59.702951
 30
0.0
  0
SPLINE
  5
13c
100
AcDbEntity
  8
0
 62
7
100
AcDbSpline
 70
8
 71
3
 72
8
 73
4
 74
0
 40
0
 40
0
 40
0
 40
0
 40
1
 40
1
 40
1
 40
1
 10
53.865410
 20
59.702951
 30
0.0
 10
54.259922
 20
60.445878
 30
0.0
 10
55.039175
 20
61.581829
 30
0.0
 10
55.597081
 20
62.227291
 30
0.0
  0
LWPOLYLINE
  5
13d
100
AcDbEntity
  8
0
 62
7
100
AcDbPolyline
 90
3
 70
0
 10
58.272381
 20
46.562875
 30
0.0
 10
58.107091
 20
45.443309
 30
0.0
 10
57.685075
 20
46.369351
 30
0.0
  0
SPLINE
  5
13e
100
AcDbEntity
  8
0
 62
7
100
AcDbSpline
 70
8
 71
3
 72
8
 73
4
 74
0
 40
0
 40
0
 40
0
 40
0
 40
1
 40
1
 40
1
 40
1
 10
56.799133
 20
61.648353
 30
0.0
 10
57.101798
 20
58.822122
 30
0.0
 10
57.785537
 20
58.791959
 30
0.0
 10
58.938104
 20
61.553992
 30
0.0
  0
LWPOLYLINE
  5
13f
100
AcDbEntity
  8
0
 62
7
100
AcDbPolyline
 90
3
 70
0
 10
55.597081
 20
62.227291
 30
0.0
 10
56.611457
 20
63.400855
 30
0.0
 10
56.799133
 20
61.648353
 30
0.0
  0
SPLINE
  5
140
100
AcDbEntity
  8
0
 62
7
100
AcDbSpline
 70
8
 71
3
 72
8
 73
4
 74
0
 40
0
 40
0
 40
0
 40
0
 40
1
 40
1
 40
1
 40
1
 10
59.967916
 20
61.289409
 30
0.0
 10
60.659134
 20
59.799260
 30
0.0
 10
61.295476
 20
59.140722
 30
0.0
 10
61.587536
 20
59.613289
 30
0.0
  0
SPLINE
  5
141
100
AcDbEntity
  8
0
 62
7
100
AcDbSpline
 70
8
 71
3
 72
8
 73
4
 74
0
 40
0
 40
0
 40
0
 40
0
 40
1
 40
1
 40
1
 40
1
 10
61.587536
 20
59.613289
 30
0.0
 10
61.691229
 20
59.781067
 30
0.0
 10
61.837599
 20
60.684876
 30
0.0
 10
61.912802
 20
61.621755
 30
0.0
  0
LWPOLYLINE
  5
142
100
AcDbEntity
  8
0
 62
7
100
AcDbPolyline
 90
3
 70
0
 10
58.938104
 20
61.553992
 30
0.0
 10
59.367677
 20
62.583428
 30
0.0
 10
59.967916
 20
61.289409
 30
0.0
  0
SPLINE
  5
143
100
AcDbEntity
  8
0
 62
7
100
AcDbSpline
 70
8
 71
3
 72
8
 73
4
 74
0
 40
0
 40
0
 40
0
 40
0
 40
1
 40
1
 40
1
 40
1
 10
62.695757
 20
62.718614
 30
0.0
 10
63.784030
 20
61.697142
 30
0.0
 10
65.414866
 20
59.049589
 30
0.0
 10
65.414866
 20
58.304322
 30
0.0
  0
SPLINE
  5
144
100
AcDbEntity
  8
0
 62
7
100
AcDbSpline
 70
8
 71
3
 72
8
 73
4
 74
0
 40
0
 40
0
 40
0
 40
0
 40
1
 40
1
 40
1
 40
1
 10
65.414866
 20
58.304322
 30
0.0
 10
65.414866
 20
57.916723
 30
0.0
 10
65.218953
 20
57.305210
 30
0.0
 10
64.979502
 20
56.945411
 30
0.0
  0
SPLINE
  5
145
100
AcDbEntity
  8
0
 62
7
100
AcDbSpline
 70
8
 71
3
 72
8
 73
4
 74
0
 40
0
 40
0
 40
0
 40
0
 40
1
 40
1
 40
1
 40
1
 10
64.979502
 20
56.945411
 30
0.0
 10
64.455918
 20
56.158667
 30
0.0
 10
61.927684
 20
53.513101
 30
0.0
 10
61.699415
 20
53.513101
 30
0.0
  0
SPLINE
  5
146
100
AcDbEntity
  8
0
 62
7
100
AcDbSpline
 70
8
 71
3
 72
8
 73
4
 74
0
 40
0
 40
0
 40
0
 40
0
 40
1
 40
1
 40
1
 40
1
 10
61.699415
 20
53.513101
 30
0.0
 10
61.610507
 20
53.513101
 30
0.0
 10
61.590349
 20
53.871379
 30
0.0
 10
61.654619
 20
54.309275
 30
0.0
  0
SPLINE
  5
147
100
AcDbEntity
  8
0
 62
7
100
AcDbSpline
 70
8
 71
3
 72
8
 73
4
 74
0
 40
0
 40
0
 40
0
 40
0
 40
1
 40
1
 40
1
 40
1
 10
61.654619
 20
54.309275
 30
0.0
 10
61.718886
 20
54.747171
 30
0.0
 10
61.626771
 20
55.279801
 30
0.0
 10
61.449916
 20
55.492899
 30
0.0
  0
SPLINE
  5
148
100
AcDbEntity
  8
0
 62
7
100
AcDbSpline
 70
8
 71
3
 72
8
 73
4
 74
0
 40
0
 40
0
 40
0
 40
0
 40
1
 40
1
 40
1
 40
1
 10
61.449916
 20
55.492899
 30
0.0
 10
60.977563
 20
56.062049
 30
0.0
 10
59.425099
 20
56.271353
 30
0.0
 10
58.261573
 20
55.922751
 30
0.0
  0
SPLINE
  5
149
100
AcDbEntity
  8
0
 62
7
100
AcDbSpline
 70
8
 71
3
 72
8
 73
4
 74
0
 40
0
 40
0
 40
0
 40
0
 40
1
 40
1
 40
1
 40
1
 10
58.261573
 20
55.922751
 30
0.0
 10
57.189293
 20
55.601489
 30
0.0
 10
56.788267
 20
54.962986
 30
0.0
 10
57.080491
 20
54.042268
 30
0.0
  0
SPLINE
  5
14a
100
AcDbEntity
  8
0
 62
7
100
AcDbSpline
 70
8
 71
3
 72
8
 73
4
 74
0
 40
0
 40
0
 40
0
 40
0
 40
1
 40
1
 40
1
 40
1
 10
57.080491
 20
54.042268
 30
0.0
 10
57.359198
 20
53.164142
 30
0.0
 10
56.905395
 20
53.433874
 30
0.0
 10
55.344732
 20
55.073971
 30
0.0
  0
LWPOLYLINE
  5
14b
100
AcDbEntity
  8
0
 62
7
100
AcDbPolyline
 90
3
 70
0
 10
61.912802
 20
61.621755
 30
0.0
 10
62.049536
 20
63.325169
 30
0.0
 10
62.695757
 20
62.718614
 30
0.0
  0
SPLINE
  5
14c
100
AcDbEntity
  8
0
 62
7
100
AcDbSpline
 70
8
 71
3
 72
8
 73
4
 74
0
 40
0
 40
0
 40
0
 40
0
 40
1
 40
1
 40
1
 40
1
 10
60.512328
 20
63.129827
 30
0.0
 10
60.311586
 20
64.468465
 30
0.0
 10
59.957957
 20
64.927755
 30
0.0
 10
59.681904
 20
64.208374
 30
0.0
  0
SPLINE
  5
14d
100
AcDbEntity
  8
0
 62
7
100
AcDbSpline
 70
8
 71
3
 72
8
 73
4
 74
0
 40
0
 40
0
 40
0
 40
0
 40
1
 40
1
 40
1
 40
1
 10
59.681904
 20
64.208374
 30
0.0
 10
59.522564
 20
63.793140
 30
0.0
 10
59.480175
 20
63.796931
 30
0.0
 10
59.144159
 20
64.256462
 30
0.0
  0
SPLINE
  5
14e
100
AcDbEntity
  8
0
 62
7
100
AcDbSpline
 70
8
 71
3
 72
8
 73
4
 74
0
 40
0
 40
0
 40
0
 40
0
 40
1
 40
1
 40
1
 40
1
 10
59.144159
 20
64.256462
 30
0.0
 10
58.829530
 20
64.686744
 30
0.0
 10
58.745012
 20
64.700938
 30
0.0
 10
58.529305
 20
64.359729
 30
0.0
  0
SPLINE
  5
14f
100
AcDbEntity
  8
0
 62
7
100
AcDbSpline
 70
8
 71
3
 72
8
 73
4
 74
0
 40
0
 40
0
 40
0
 40
0
 40
1
 40
1
 40
1
 40
1
 10
58.529305
 20
64.359729
 30
0.0
 10
58.391758
 20
64.142157
 30
0.0
 10
58.277395
 20
63.577190
 30
0.0
 10
58.275167
 20
63.104247
 30
0.0
  0
SPLINE
  5
150
100
AcDbEntity
  8
0
 62
7
100
AcDbSpline
 70
8
 71
3
 72
8
 73
4
 74
0
 40
0
 40
0
 40
0
 40
0
 40
1
 40
1
 40
1
 40
1
 10
58.275167
 20
63.104247
 30
0.0
 10
58.270484
 20
62.109546
 30
0.0
 10
57.871693
 20
61.955976
 30
0.0
 10
57.644456
 20
62.861362
 30
0.0
  0
SPLINE
  5
151
100
AcDbEntity
  8
0
 62
7
100
AcDbSpline
 70
8
 71
3
 72
8
 73
4
 74
0
 40
0
 40
0
 40
0
 40
0
 40
1
 40
1
 40
1
 40
1
 10
57.644456
 20
62.861362
 30
0.0
 10
57.559284
 20
63.200719
 30
0.0
 10
56.891531
 20
64.288554
 30
0.0
 10
56.160564
 20
65.278775
 30
0.0
  0
SPLINE
  5
152
100
AcDbEntity
  8
0
 62
7
100
AcDbSpline
 70
8
 71
3
 72
8
 73
4
 74
0
 40
0
 40
0
 40
0
 40
0
 40
1
 40
1
 40
1
 40
1
 10
56.160564
 20
65.278775
 30
0.0
 10
55.043054
 20
66.792636
 30
0.0
 10
54.831533
 20
67.262917
 30
0.0
 10
54.831533
 20
68.233639
 30
0.0
  0
SPLINE
  5
153
100
AcDbEntity
  8
0
 62
7
100
AcDbSpline
 70
8
 71
3
 72
8
 73
4
 74
0
 40
0
 40
0
 40
0
 40
0
 40
1
 40
1
 40
1
 40
1
 10
54.831533
 20
68.233639
 30
0.0
 10
54.831533
 20
69.584927
 30
0.0
 10
55.014566
 20
69.700997
 30
0.0
 10
55.400345
 20
68.594351
 30
0.0
  0
SPLINE
  5
154
100
AcDbEntity
  8
0
 62
7
100
AcDbSpline
 70
8
 71
3
 72
8
 73
4
 74
0
 40
0
 40
0
 40
0
 40
0
 40
1
 40
1
 40
1
 40
1
 10
55.400345
 20
68.594351
 30
0.0
 10
55.798699
 20
67.451634
 30
0.0
 10
56.903049
 20
67.426599
 30
0.0
 10
58.072679
 20
68.533772
 30
0.0
  0
SPLINE
  5
155
100
AcDbEntity
  8
0
 62
7
100
AcDbSpline
 70
8
 71
3
 72
8
 73
4
 74
0
 40
0
 40
0
 40
0
 40
0
 40
1
 40
1
 40
1
 40
1
 10
58.072679
 20
68.533772
 30
0.0
 10
58.863659
 20
69.282511
 30
0.0
 10
59.036805
 20
70.372280
 30
0.0
 10
58.403408
 20
70.615336
 30
0.0
  0
SPLINE
  5
156
100
AcDbEntity
  8
0
 62
7
100
AcDbSpline
 70
8
 71
3
 72
8
 73
4
 74
0
 40
0
 40
0
 40
0
 40
0
 40
1
 40
1
 40
1
 40
1
 10
58.403408
 20
70.615336
 30
0.0
 10
57.788188
 20
70.851419
 30
0.0
 10
57.934728
 20
71.490565
 30
0.0
 10
58.667991
 20
71.769351
 30
0.0
  0
SPLINE
  5
157
100
AcDbEntity
  8
0
 62
7
100
AcDbSpline
 70
8
 71
3
 72
8
 73
4
 74
0
 40
0
 40
0
 40
0
 40
0
 40
1
 40
1
 40
1
 40
1
 10
58.667991
 20
71.769351
 30
0.0
 10
59.085999
 20
71.928276
 30
0.0
 10
59.572901
 20
71.928276
 30
0.0
 10
59.990908
 20
71.769351
 30
0.0
  0
SPLINE
  5
158
100
AcDbEntity
  8
0
 62
7
100
AcDbSpline
 70
8
 71
3
 72
8
 73
4
 74
0
 40
0
 40
0
 40
0
 40
0
 40
1
 40
1
 40
1
 40
1
 10
59.990908
 20
71.769351
 30
0.0
 10
60.724172
 20
71.490565
 30
0.0
 10
60.870711
 20
70.851419
 30
0.0
 10
60.255491
 20
70.615336
 30
0.0
  0
SPLINE
  5
159
100
AcDbEntity
  8
0
 62
7
100
AcDbSpline
 70
8
 71
3
 72
8
 73
4
 74
0
 40
0
 40
0
 40
0
 40
0
 40
1
 40
1
 40
1
 40
1
 10
60.255491
 20
70.615336
 30
0.0
 10
59.278009
 20
70.240242
 30
0.0
 10
60.279754
 20
68.339073
 30
0.0
 10
61.719312
 20
67.837246
 30
0.0
  0
SPLINE
  5
15a
100
AcDbEntity
  8
0
 62
7
100
AcDbSpline
 70
8
 71
3
 72
8
 73
4
 74
0
 40
0
 40
0
 40
0
 40
0
 40
1
 40
1
 40
1
 40
1
 10
61.719312
 20
67.837246
 30
0.0
 10
62.399540
 20
67.600116
 30
0.0
 10
62.605597
 20
67.637165
 30
0.0
 10
63.043821
 20
68.075389
 30
0.0
  0
SPLINE
  5
15b
100
AcDbEntity
  8
0
 62
7
100
AcDbSpline
 70
8
 71
3
 72
8
 73
4
 74
0
 40
0
 40
0
 40
0
 40
0
 40
1
 40
1
 40
1
 40
1
 10
63.043821
 20
68.075389
 30
0.0
 10
63.329251
 20
68.360819
 30
0.0
 10
63.570329
 20
68.862242
 30
0.0
 10
63.579555
 20
69.189663
 30
0.0
  0
SPLINE
  5
15c
100
AcDbEntity
  8
0
 62
7
100
AcDbSpline
 70
8
 71
3
 72
8
 73
4
 74
0
 40
0
 40
0
 40
0
 40
0
 40
1
 40
1
 40
1
 40
1
 10
63.579555
 20
69.189663
 30
0.0
 10
63.595827
 20
69.767159
 30
0.0
 10
63.604267
 20
69.765180
 30
0.0
 10
63.862117
 20
69.123518
 30
0.0
  0
SPLINE
  5
15d
100
AcDbEntity
  8
0
 62
7
100
AcDbSpline
 70
8
 71
3
 72
8
 73
4
 74
0
 40
0
 40
0
 40
0
 40
0
 40
1
 40
1
 40
1
 40
1
 10
63.862117
 20
69.123518
 30
0.0
 10
64.262672
 20
68.126684
 30
0.0
 10
63.938039
 20
67.069229
 30
0.0
 10
62.747282
 20
65.492080
 30
0.0
  0
SPLINE
  5
15e
100
AcDbEntity
  8
0
 62
7
100
AcDbSpline
 70
8
 71
3
 72
8
 73
4
 74
0
 40
0
 40
0
 40
0
 40
0
 40
1
 40
1
 40
1
 40
1
 10
62.747282
 20
65.492080
 30
0.0
 10
62.155935
 20
64.708849
 30
0.0
 10
61.452919
 20
63.578449
 30
0.0
 10
61.185020
 20
62.980078
 30
0.0
  0
LWPOLYLINE
  5
15f
100
AcDbEntity
  8
0
 62
7
100
AcDbPolyline
 90
1
 70
1
 10
55.344732
 20
55.073971
 30
0.0
  0
SPLINE
  5
160
100
AcDbEntity
  8
0
 62
7
100
AcDbSpline
 70
8
 71
3
 72
8
 73
4
 74
0
 40
0
 40
0
 40
0
 40
0
 40
1
 40
1
 40
1
 40
1
 10
55.455331
 20
71.570913
 30
0.0
 10
54.588119
 20
72.480419
 30
0.0
 10
53.723127
 20
73.607255
 30
0.0
 10
53.533127
 20
74.074996
 30
0.0
  0
SPLINE
  5
161
100
AcDbEntity
  8
0
 62
7
100
AcDbSpline
 70
8
 71
3
 72
8
 73
4
 74
0
 40
0
 40
0
 40
0
 40
0
 40
1
 40
1
 40
1
 40
1
 10
53.533127
 20
74.074996
 30
0.0
 10
53.227727
 20
74.826820
 30
0.0
 10
53.251418
 20
75.056921
 30
0.0
 10
53.737439
 20
76.059371
 30
0.0
  0
SPLINE
  5
162
100
AcDbEntity
  8
0
 62
7
100
AcDbSpline
 70
8
 71
3
 72
8
 73
4
 74
0
 40
0
 40
0
 40
0
 40
0
 40
1
 40
1
 40
1
 40
1
 10
53.737439
 20
76.059371
 30
0.0
 10
54.039810
 20
76.683037
 30
0.0
 10
54.811292
 20
77.788278
 30
0.0
 10
55.451843
 20
78.515461
 30
0.0
  0
LWPOLYLINE
  5
163
100
AcDbEntity
  8
0
 62
7
100
AcDbPolyline
 90
3
 70
0
 10
61.185020
 20
62.980078
 30
0.0
 10
60.697933
 20
61.892132
 30
0.0
 10
60.512328
 20
63.129827
 30
0.0
  0
SPLINE
  5
164
100
AcDbEntity
  8
0
 62
7
100
AcDbSpline
 70
8
 71
3
 72
8
 73
4
 74
0
 40
0
 40
0
 40
0
 40
0
 40
1
 40
1
 40
1
 40
1
 10
56.802642
 20
78.233643
 30
0.0
 10
57.118197
 20
75.514819
 30
0.0
 10
57.549711
 20
75.383364
 30
0.0
 10
58.701001
 20
77.655325
 30
0.0
  0
LWPOLYLINE
  5
165
100
AcDbEntity
  8
0
 62
7
100
AcDbPolyline
 90
3
 70
0
 10
55.451843
 20
78.515461
 30
0.0
 10
56.616484
 20
79.837613
 30
0.0
 10
56.802642
 20
78.233643
 30
0.0
  0
SPLINE
  5
166
100
AcDbEntity
  8
0
 62
7
100
AcDbSpline
 70
8
 71
3
 72
8
 73
4
 74
0
 40
0
 40
0
 40
0
 40
0
 40
1
 40
1
 40
1
 40
1
 10
59.996155
 20
77.738708
 30
0.0
 10
61.162557
 20
75.318567
 30
0.0
 10
61.648192
 20
75.455518
 30
0.0
 10
61.927671
 20
78.283406
 30
0.0
  0
LWPOLYLINE
  5
167
100
AcDbEntity
  8
0
 62
7
100
AcDbPolyline
 90
3
 70
0
 10
58.701001
 20
77.655325
 30
0.0
 10
59.385406
 20
79.005935
 30
0.0
 10
59.996155
 20
77.738708
 30
0.0
  0
SPLINE
  5
168
100
AcDbEntity
  8
0
 62
7
100
AcDbSpline
 70
8
 71
3
 72
8
 73
4
 74
0
 40
0
 40
0
 40
0
 40
0
 40
1
 40
1
 40
1
 40
1
 10
63.631503
 20
78.155157
 30
0.0
 10
65.234582
 20
76.105382
 30
0.0
 10
65.571624
 20
75.340356
 30
0.0
 10
65.317560
 20
74.328094
 30
0.0
  0
SPLINE
  5
169
100
AcDbEntity
  8
0
 62
7
100
AcDbSpline
 70
8
 71
3
 72
8
 73
4
 74
0
 40
0
 40
0
 40
0
 40
0
 40
1
 40
1
 40
1
 40
1
 10
65.317560
 20
74.328094
 30
0.0
 10
65.129376
 20
73.578297
 30
0.0
 10
63.767102
 20
71.861061
 30
0.0
 10
62.486289
 20
70.759079
 30
0.0
  0
LWPOLYLINE
  5
16a
100
AcDbEntity
  8
0
 62
7
100
AcDbPolyline
 90
3
 70
0
 10
61.927671
 20
78.283406
 30
0.0
 10
62.107575
 20
80.103726
 30
0.0
 10
63.631503
 20
78.155157
 30
0.0
  0
SPLINE
  5
16b
100
AcDbEntity
  8
0
 62
7
100
AcDbSpline
 70
8
 71
3
 72
8
 73
4
 74
0
 40
0
 40
0
 40
0
 40
0
 40
1
 40
1
 40
1
 40
1
 10
61.657955
 20
70.736177
 30
0.0
 10
61.844042
 20
72.004068
 30
0.0
 10
61.131527
 20
72.563101
 30
0.0
 10
59.329450
 20
72.563101
 30
0.0
  0
SPLINE
  5
16c
100
AcDbEntity
  8
0
 62
7
100
AcDbSpline
 70
8
 71
3
 72
8
 73
4
 74
0
 40
0
 40
0
 40
0
 40
0
 40
1
 40
1
 40
1
 40
1
 10
59.329450
 20
72.563101
 30
0.0
 10
57.492381
 20
72.563101
 30
0.0
 10
56.784449
 20
71.992789
 30
0.0
 10
57.039367
 20
70.718198
 30
0.0
  0
SPLINE
  5
16d
100
AcDbEntity
  8
0
 62
7
100
AcDbSpline
 70
8
 71
3
 72
8
 73
4
 74
0
 40
0
 40
0
 40
0
 40
0
 40
1
 40
1
 40
1
 40
1
 10
57.039367
 20
70.718198
 30
0.0
 10
57.127471
 20
70.277686
 30
0.0
 10
57.161872
 20
69.917268
 30
0.0
 10
57.115816
 20
69.917268
 30
0.0
  0
SPLINE
  5
16e
100
AcDbEntity
  8
0
 62
7
100
AcDbSpline
 70
8
 71
3
 72
8
 73
4
 74
0
 40
0
 40
0
 40
0
 40
0
 40
1
 40
1
 40
1
 40
1
 10
57.115816
 20
69.917268
 30
0.0
 10
57.069760
 20
69.917268
 30
0.0
 10
56.322539
 20
70.661408
 30
0.0
 10
55.455331
 20
71.570913
 30
0.0
  0
LWPOLYLINE
  5
16f
100
AcDbEntity
  8
0
 62
7
100
AcDbPolyline
 90
3
 70
0
 10
62.486289
 20
70.759079
 30
0.0
 10
61.542086
 20
69.946713
 30
0.0
 10
61.657955
 20
70.736177
 30
0.0
  0
SPLINE
  5
170
100
AcDbEntity
  8
0
 62
7
100
AcDbSpline
 70
8
 71
3
 72
8
 73
4
 74
0
 40
0
 40
0
 40
0
 40
0
 40
1
 40
1
 40
1
 40
1
 10
57.698852
 20
79.728867
 30
0.0
 10
57.466648
 20
80.250300
 30
0.0
 10
56.726508
 20
81.424256
 30
0.0
 10
56.054098
 20
82.337661
 30
0.0
  0
SPLINE
  5
171
100
AcDbEntity
  8
0
 62
7
100
AcDbSpline
 70
8
 71
3
 72
8
 73
4
 74
0
 40
0
 40
0
 40
0
 40
0
 40
1
 40
1
 40
1
 40
1
 10
56.054098
 20
82.337661
 30
0.0
 10
55.032452
 20
83.725470
 30
0.0
 10
54.831533
 20
84.191851
 30
0.0
 10
54.831533
 20
85.175532
 30
0.0
  0
SPLINE
  5
172
100
AcDbEntity
  8
0
 62
7
100
AcDbSpline
 70
8
 71
3
 72
8
 73
4
 74
0
 40
0
 40
0
 40
0
 40
0
 40
1
 40
1
 40
1
 40
1
 10
54.831533
 20
85.175532
 30
0.0
 10
54.831533
 20
85.892913
 30
0.0
 10
54.934871
 20
86.288798
 30
0.0
 10
55.096116
 20
86.189143
 30
0.0
  0
SPLINE
  5
173
100
AcDbEntity
  8
0
 62
7
100
AcDbSpline
 70
8
 71
3
 72
8
 73
4
 74
0
 40
0
 40
0
 40
0
 40
0
 40
1
 40
1
 40
1
 40
1
 10
55.096116
 20
86.189143
 30
0.0
 10
55.241637
 20
86.099205
 30
0.0
 10
55.360700
 20
85.798713
 30
0.0
 10
55.360700
 20
85.521379
 30
0.0
  0
SPLINE
  5
174
100
AcDbEntity
  8
0
 62
7
100
AcDbSpline
 70
8
 71
3
 72
8
 73
4
 74
0
 40
0
 40
0
 40
0
 40
0
 40
1
 40
1
 40
1
 40
1
 10
55.360700
 20
85.521379
 30
0.0
 10
55.360700
 20
85.244046
 30
0.0
 10
55.590199
 20
84.894312
 30
0.0
 10
55.870700
 20
84.744192
 30
0.0
  0
SPLINE
  5
175
100
AcDbEntity
  8
0
 62
7
100
AcDbSpline
 70
8
 71
3
 72
8
 73
4
 74
0
 40
0
 40
0
 40
0
 40
0
 40
1
 40
1
 40
1
 40
1
 10
55.870700
 20
84.744192
 30
0.0
 10
57.308049
 20
83.974945
 30
0.0
 10
59.779276
 20
86.805601
 30
0.0
 10
58.362533
 20
87.598451
 30
0.0
  0
SPLINE
  5
176
100
AcDbEntity
  8
0
 62
7
100
AcDbSpline
 70
8
 71
3
 72
8
 73
4
 74
0
 40
0
 40
0
 40
0
 40
0
 40
1
 40
1
 40
1
 40
1
 10
58.362533
 20
87.598451
 30
0.0
 10
57.567076
 20
88.043613
 30
0.0
 10
58.144190
 20
88.702684
 30
0.0
 10
59.329450
 20
88.702684
 30
0.0
  0
SPLINE
  5
177
100
AcDbEntity
  8
0
 62
7
100
AcDbSpline
 70
8
 71
3
 72
8
 73
4
 74
0
 40
0
 40
0
 40
0
 40
0
 40
1
 40
1
 40
1
 40
1
 10
59.329450
 20
88.702684
 30
0.0
 10
60.541522
 20
88.702684
 30
0.0
 10
61.058645
 20
88.066623
 30
0.0
 10
60.298481
 20
87.510776
 30
0.0
  0
SPLINE
  5
178
100
AcDbEntity
  8
0
 62
7
100
AcDbSpline
 70
8
 71
3
 72
8
 73
4
 74
0
 40
0
 40
0
 40
0
 40
0
 40
1
 40
1
 40
1
 40
1
 10
60.298481
 20
87.510776
 30
0.0
 10
59.462813
 20
86.899721
 30
0.0
 10
60.035818
 20
85.595518
 30
0.0
 10
61.464568
 20
84.856685
 30
0.0
  0
SPLINE
  5
179
100
AcDbEntity
  8
0
 62
7
100
AcDbSpline
 70
8
 71
3
 72
8
 73
4
 74
0
 40
0
 40
0
 40
0
 40
0
 40
1
 40
1
 40
1
 40
1
 10
61.464568
 20
84.856685
 30
0.0
 10
62.470348
 20
84.336575
 30
0.0
 10
63.202227
 20
84.696414
 30
0.0
 10
63.514422
 20
85.864520
 30
0.0
  0
LWPOLYLINE
  5
17a
100
AcDbEntity
  8
0
 62
7
100
AcDbPolyline
 90
1
 70
1
 10
55.455331
 20
71.570913
 30
0.0
  0
SPLINE
  5
17b
100
AcDbEntity
  8
0
 62
7
100
AcDbSpline
 70
8
 71
3
 72
8
 73
4
 74
0
 40
0
 40
0
 40
0
 40
0
 40
1
 40
1
 40
1
 40
1
 10
63.936996
 20
85.864359
 30
0.0
 10
64.195947
 20
84.726772
 30
0.0
 10
63.966982
 20
84.076164
 30
0.0
 10
62.719434
 20
82.404627
 30
0.0
  0
SPLINE
  5
17c
100
AcDbEntity
  8
0
 62
7
100
AcDbSpline
 70
8
 71
3
 72
8
 73
4
 74
0
 40
0
 40
0
 40
0
 40
0
 40
1
 40
1
 40
1
 40
1
 10
62.719434
 20
82.404627
 30
0.0
 10
62.143405
 20
81.632830
 30
0.0
 10
61.452919
 20
80.511782
 30
0.0
 10
61.185020
 20
79.913411
 30
0.0
  0
LWPOLYLINE
  5
17d
100
AcDbEntity
  8
0
 62
7
100
AcDbPolyline
 90
3
 70
0
 10
63.514422
 20
85.864520
 30
0.0
 10
63.742612
 20
86.718309
 30
0.0
 10
63.936996
 20
85.864359
 30
0.0
  0
SPLINE
  5
17e
100
AcDbEntity
  8
0
 62
7
100
AcDbSpline
 70
8
 71
3
 72
8
 73
4
 74
0
 40
0
 40
0
 40
0
 40
0
 40
1
 40
1
 40
1
 40
1
 10
60.512328
 20
80.063160
 30
0.0
 10
60.314224
 20
81.384217
 30
0.0
 10
59.958605
 20
81.862779
 30
0.0
 10
59.691765
 20
81.167407
 30
0.0
  0
SPLINE
  5
17f
100
AcDbEntity
  8
0
 62
7
100
AcDbSpline
 70
8
 71
3
 72
8
 73
4
 74
0
 40
0
 40
0
 40
0
 40
0
 40
1
 40
1
 40
1
 40
1
 10
59.691765
 20
81.167407
 30
0.0
 10
59.542794
 20
80.779194
 30
0.0
 10
59.486689
 20
80.780316
 30
0.0
 10
59.044671
 20
81.180345
 30
0.0
  0
SPLINE
  5
180
100
AcDbEntity
  8
0
 62
7
100
AcDbSpline
 70
8
 71
3
 72
8
 73
4
 74
0
 40
0
 40
0
 40
0
 40
0
 40
1
 40
1
 40
1
 40
1
 10
59.044671
 20
81.180345
 30
0.0
 10
58.589653
 20
81.592129
 30
0.0
 10
58.552408
 20
81.580937
 30
0.0
 10
58.422307
 20
80.993329
 30
0.0
  0
SPLINE
  5
181
100
AcDbEntity
  8
0
 62
7
100
AcDbSpline
 70
8
 71
3
 72
8
 73
4
 74
0
 40
0
 40
0
 40
0
 40
0
 40
1
 40
1
 40
1
 40
1
 10
58.422307
 20
80.993329
 30
0.0
 10
58.346197
 20
80.649572
 30
0.0
 10
58.247277
 20
80.011130
 30
0.0
 10
58.202486
 20
79.574567
 30
0.0
  0
LWPOLYLINE
  5
182
100
AcDbEntity
  8
0
 62
7
100
AcDbPolyline
 90
3
 70
0
 10
61.185020
 20
79.913411
 30
0.0
 10
60.697933
 20
78.825466
 30
0.0
 10
60.512328
 20
80.063160
 30
0.0
  0
SPLINE
  5
183
100
AcDbEntity
  8
0
 62
7
100
AcDbSpline
 70
8
 71
3
 72
8
 73
4
 74
0
 40
0
 40
0
 40
0
 40
0
 40
1
 40
1
 40
1
 40
1
 10
55.455331
 20
88.504247
 30
0.0
 10
54.588119
 20
89.413752
 30
0.0
 10
53.714737
 20
90.560848
 30
0.0
 10
53.514479
 20
91.053346
 30
0.0
  0
SPLINE
  5
184
100
AcDbEntity
  8
0
 62
7
100
AcDbSpline
 70
8
 71
3
 72
8
 73
4
 74
0
 40
0
 40
0
 40
0
 40
0
 40
1
 40
1
 40
1
 40
1
 10
53.514479
 20
91.053346
 30
0.0
 10
53.182718
 20
91.869263
 30
0.0
 10
53.202774
 20
92.047571
 30
0.0
 10
53.740272
 20
93.060763
 30
0.0
  0
SPLINE
  5
185
100
AcDbEntity
  8
0
 62
7
100
AcDbSpline
 70
8
 71
3
 72
8
 73
4
 74
0
 40
0
 40
0
 40
0
 40
0
 40
1
 40
1
 40
1
 40
1
 10
53.740272
 20
93.060763
 30
0.0
 10
54.064712
 20
93.672342
 30
0.0
 10
54.841394
 20
94.753697
 30
0.0
 10
55.466231
 20
95.463773
 30
0.0
  0
LWPOLYLINE
  5
186
100
AcDbEntity
  8
0
 62
7
100
AcDbPolyline
 90
4
 70
0
 10
58.202486
 20
79.574567
 30
0.0
 10
58.121045
 20
78.780817
 30
0.0
 10
57.698852
 20
79.728875
 30
0.0
 10
57.698852
 20
79.728867
 30
0.0
  0
SPLINE
  5
187
100
AcDbEntity
  8
0
 62
7
100
AcDbSpline
 70
8
 71
3
 72
8
 73
4
 74
0
 40
0
 40
0
 40
0
 40
0
 40
1
 40
1
 40
1
 40
1
 10
56.782592
 20
95.176149
 30
0.0
 10
57.092411
 20
92.463392
 30
0.0
 10
57.551645
 20
92.320512
 30
0.0
 10
58.696897
 20
94.580562
 30
0.0
  0
LWPOLYLINE
  5
188
100
AcDbEntity
  8
0
 62
7
100
AcDbPolyline
 90
3
 70
0
 10
55.466231
 20
95.463773
 30
0.0
 10
56.602297
 20
96.754823
 30
0.0
 10
56.782592
 20
95.176149
 30
0.0
  0
SPLINE
  5
189
100
AcDbEntity
  8
0
 62
7
100
AcDbSpline
 70
8
 71
3
 72
8
 73
4
 74
0
 40
0
 40
0
 40
0
 40
0
 40
1
 40
1
 40
1
 40
1
 10
60.080930
 20
94.517186
 30
0.0
 10
60.467981
 20
93.743949
 30
0.0
 10
60.932753
 20
93.062182
 30
0.0
 10
61.113760
 20
93.002153
 30
0.0
  0
SPLINE
  5
18a
100
AcDbEntity
  8
0
 62
7
100
AcDbSpline
 70
8
 71
3
 72
8
 73
4
 74
0
 40
0
 40
0
 40
0
 40
0
 40
1
 40
1
 40
1
 40
1
 10
61.113760
 20
93.002153
 30
0.0
 10
61.579654
 20
92.847639
 30
0.0
 10
61.974055
 20
94.056785
 30
0.0
 10
61.982400
 20
95.665221
 30
0.0
  0
LWPOLYLINE
  5
18b
100
AcDbEntity
  8
0
 62
7
100
AcDbPolyline
 90
3
 70
0
 10
58.696897
 20
94.580562
 30
0.0
 10
59.377202
 20
95.923076
 30
0.0
 10
60.080930
 20
94.517186
 30
0.0
  0
SPLINE
  5
18c
100
AcDbEntity
  8
0
 62
7
100
AcDbSpline
 70
8
 71
3
 72
8
 73
4
 74
0
 40
0
 40
0
 40
0
 40
0
 40
1
 40
1
 40
1
 40
1
 10
62.787345
 20
96.111018
 30
0.0
 10
64.299290
 20
94.356095
 30
0.0
 10
65.414866
 20
92.544416
 30
0.0
 10
65.414866
 20
91.843961
 30
0.0
  0
SPLINE
  5
18d
100
AcDbEntity
  8
0
 62
7
100
AcDbSpline
 70
8
 71
3
 72
8
 73
4
 74
0
 40
0
 40
0
 40
0
 40
0
 40
1
 40
1
 40
1
 40
1
 10
65.414866
 20
91.843961
 30
0.0
 10
65.414866
 20
90.955154
 30
0.0
 10
64.007161
 20
88.896582
 30
0.0
 10
62.611246
 20
87.744059
 30
0.0
  0
LWPOLYLINE
  5
18e
100
AcDbEntity
  8
0
 62
7
100
AcDbPolyline
 90
3
 70
0
 10
61.982400
 20
95.665221
 30
0.0
 10
61.989518
 20
97.037059
 30
0.0
 10
62.787345
 20
96.111018
 30
0.0
  0
SPLINE
  5
18f
100
AcDbEntity
  8
0
 62
7
100
AcDbSpline
 70
8
 71
3
 72
8
 73
4
 74
0
 40
0
 40
0
 40
0
 40
0
 40
1
 40
1
 40
1
 40
1
 10
61.656391
 20
87.658855
 30
0.0
 10
61.838194
 20
88.897555
 30
0.0
 10
61.128764
 20
89.496434
 30
0.0
 10
59.479606
 20
89.496434
 30
0.0
  0
SPLINE
  5
190
100
AcDbEntity
  8
0
 62
7
100
AcDbSpline
 70
8
 71
3
 72
8
 73
4
 74
0
 40
0
 40
0
 40
0
 40
0
 40
1
 40
1
 40
1
 40
1
 10
59.479606
 20
89.496434
 30
0.0
 10
57.623149
 20
89.496434
 30
0.0
 10
56.841247
 20
88.935100
 30
0.0
 10
57.034957
 20
87.741398
 30
0.0
  0
SPLINE
  5
191
100
AcDbEntity
  8
0
 62
7
100
AcDbSpline
 70
8
 71
3
 72
8
 73
4
 74
0
 40
0
 40
0
 40
0
 40
0
 40
1
 40
1
 40
1
 40
1
 10
57.034957
 20
87.741398
 30
0.0
 10
57.114464
 20
87.251461
 30
0.0
 10
57.146341
 20
86.850601
 30
0.0
 10
57.105796
 20
86.850601
 30
0.0
  0
SPLINE
  5
192
100
AcDbEntity
  8
0
 62
7
100
AcDbSpline
 70
8
 71
3
 72
8
 73
4
 74
0
 40
0
 40
0
 40
0
 40
0
 40
1
 40
1
 40
1
 40
1
 10
57.105796
 20
86.850601
 30
0.0
 10
57.065249
 20
86.850601
 30
0.0
 10
56.322539
 20
87.594742
 30
0.0
 10
55.455331
 20
88.504247
 30
0.0
  0
LWPOLYLINE
  5
193
100
AcDbEntity
  8
0
 62
7
100
AcDbPolyline
 90
3
 70
0
 10
62.611246
 20
87.744059
 30
0.0
 10
61.538959
 20
86.858737
 30
0.0
 10
61.656391
 20
87.658855
 30
0.0
  0
SPLINE
  5
194
100
AcDbEntity
  8
0
 62
7
100
AcDbSpline
 70
8
 71
3
 72
8
 73
4
 74
0
 40
0
 40
0
 40
0
 40
0
 40
1
 40
1
 40
1
 40
1
 10
57.767662
 20
96.243309
 30
0.0
 10
57.587748
 20
96.679872
 30
0.0
 10
56.992023
 20
97.632372
 30
0.0
 10
56.443827
 20
98.359976
 30
0.0
  0
SPLINE
  5
195
100
AcDbEntity
  8
0
 62
7
100
AcDbSpline
 70
8
 71
3
 72
8
 73
4
 74
0
 40
0
 40
0
 40
0
 40
0
 40
1
 40
1
 40
1
 40
1
 10
56.443827
 20
98.359976
 30
0.0
 10
55.028788
 20
100.238121
 30
0.0
 10
54.828784
 20
100.693347
 30
0.0
 10
54.853115
 20
101.980603
 30
0.0
  0
LWPOLYLINE
  5
196
100
AcDbEntity
  8
0
 62
7
100
AcDbPolyline
 90
1
 70
1
 10
55.455331
 20
88.504247
 30
0.0
  0
SPLINE
  5
197
100
AcDbEntity
  8
0
 62
7
100
AcDbSpline
 70
8
 71
3
 72
8
 73
4
 74
0
 40
0
 40
0
 40
0
 40
0
 40
1
 40
1
 40
1
 40
1
 10
55.254914
 20
102.252388
 30
0.0
 10
55.722917
 20
101.181392
 30
0.0
 10
56.193230
 20
100.980370
 30
0.0
 10
57.228079
 20
101.409018
 30
0.0
  0
SPLINE
  5
198
100
AcDbEntity
  8
0
 62
7
100
AcDbSpline
 70
8
 71
3
 72
8
 73
4
 74
0
 40
0
 40
0
 40
0
 40
0
 40
1
 40
1
 40
1
 40
1
 10
57.228079
 20
101.409018
 30
0.0
 10
58.662885
 20
102.003333
 30
0.0
 10
59.270921
 20
103.513752
 30
0.0
 10
58.347255
 20
104.189154
 30
0.0
  0
SPLINE
  5
199
100
AcDbEntity
  8
0
 62
7
100
AcDbSpline
 70
8
 71
3
 72
8
 73
4
 74
0
 40
0
 40
0
 40
0
 40
0
 40
1
 40
1
 40
1
 40
1
 10
58.347255
 20
104.189154
 30
0.0
 10
57.411369
 20
104.873494
 30
0.0
 10
58.946505
 20
105.704838
 30
0.0
 10
60.233856
 20
105.210835
 30
0.0
  0
SPLINE
  5
19a
100
AcDbEntity
  8
0
 62
7
100
AcDbSpline
 70
8
 71
3
 72
8
 73
4
 74
0
 40
0
 40
0
 40
0
 40
0
 40
1
 40
1
 40
1
 40
1
 10
60.233856
 20
105.210835
 30
0.0
 10
60.764772
 20
105.007103
 30
0.0
 10
60.779448
 20
104.153896
 30
0.0
 10
60.255499
 20
103.952836
 30
0.0
  0
SPLINE
  5
19b
100
AcDbEntity
  8
0
 62
7
100
AcDbSpline
 70
8
 71
3
 72
8
 73
4
 74
0
 40
0
 40
0
 40
0
 40
0
 40
1
 40
1
 40
1
 40
1
 10
60.255499
 20
103.952836
 30
0.0
 10
59.611485
 20
103.705708
 30
0.0
 10
59.797024
 20
102.998868
 30
0.0
 10
60.758208
 20
102.037684
 30
0.0
  0
SPLINE
  5
19c
100
AcDbEntity
  8
0
 62
7
100
AcDbSpline
 70
8
 71
3
 72
8
 73
4
 74
0
 40
0
 40
0
 40
0
 40
0
 40
1
 40
1
 40
1
 40
1
 10
60.758208
 20
102.037684
 30
0.0
 10
62.106170
 20
100.689722
 30
0.0
 10
63.051044
 20
100.894758
 30
0.0
 10
63.545590
 20
102.642540
 30
0.0
  0
LWPOLYLINE
  5
19d
100
AcDbEntity
  8
0
 62
7
100
AcDbPolyline
 90
3
 70
0
 10
54.853115
 20
101.980603
 30
0.0
 10
54.874705
 20
103.122476
 30
0.0
 10
55.254914
 20
102.252388
 30
0.0
  0
SPLINE
  5
19e
100
AcDbEntity
  8
0
 62
7
100
AcDbSpline
 70
8
 71
3
 72
8
 73
4
 74
0
 40
0
 40
0
 40
0
 40
0
 40
1
 40
1
 40
1
 40
1
 10
63.957351
 20
102.374623
 30
0.0
 10
64.196291
 20
101.171661
 30
0.0
 10
63.925635
 20
100.476590
 30
0.0
 10
62.492879
 20
98.613690
 30
0.0
  0
SPLINE
  5
19f
100
AcDbEntity
  8
0
 62
7
100
AcDbSpline
 70
8
 71
3
 72
8
 73
4
 74
0
 40
0
 40
0
 40
0
 40
0
 40
1
 40
1
 40
1
 40
1
 10
62.492879
 20
98.613690
 30
0.0
 10
61.928679
 20
97.880106
 30
0.0
 10
61.288419
 20
96.868075
 30
0.0
 10
61.070075
 20
96.364732
 30
0.0
  0
SPLINE
  5
1a0
100
AcDbEntity
  8
0
 62
7
100
AcDbSpline
 70
8
 71
3
 72
8
 73
4
 74
0
 40
0
 40
0
 40
0
 40
0
 40
1
 40
1
 40
1
 40
1
 10
61.070075
 20
96.364732
 30
0.0
 10
60.851733
 20
95.861386
 30
0.0
 10
60.667762
 20
95.628153
 30
0.0
 10
60.661254
 20
95.846434
 30
0.0
  0
SPLINE
  5
1a1
100
AcDbEntity
  8
0
 62
7
100
AcDbSpline
 70
8
 71
3
 72
8
 73
4
 74
0
 40
0
 40
0
 40
0
 40
0
 40
1
 40
1
 40
1
 40
1
 10
60.661254
 20
95.846434
 30
0.0
 10
60.654745
 20
96.064716
 30
0.0
 10
60.518627
 20
96.714421
 30
0.0
 10
60.358769
 20
97.290223
 30
0.0
  0
SPLINE
  5
1a2
100
AcDbEntity
  8
0
 62
7
100
AcDbSpline
 70
8
 71
3
 72
8
 73
4
 74
0
 40
0
 40
0
 40
0
 40
0
 40
1
 40
1
 40
1
 40
1
 10
60.358769
 20
97.290223
 30
0.0
 10
60.072410
 20
98.321662
 30
0.0
 10
60.063176
 20
98.327916
 30
0.0
 10
59.734265
 20
97.713340
 30
0.0
  0
SPLINE
  5
1a3
100
AcDbEntity
  8
0
 62
7
100
AcDbSpline
 70
8
 71
3
 72
8
 73
4
 74
0
 40
0
 40
0
 40
0
 40
0
 40
1
 40
1
 40
1
 40
1
 10
59.734265
 20
97.713340
 30
0.0
 10
59.416072
 20
97.118789
 30
0.0
 10
59.387277
 20
97.113019
 30
0.0
 10
59.120199
 20
97.590261
 30
0.0
  0
SPLINE
  5
1a4
100
AcDbEntity
  8
0
 62
7
100
AcDbSpline
 70
8
 71
3
 72
8
 73
4
 74
0
 40
0
 40
0
 40
0
 40
0
 40
1
 40
1
 40
1
 40
1
 10
59.120199
 20
97.590261
 30
0.0
 10
58.747507
 20
98.256225
 30
0.0
 10
58.474629
 20
97.929925
 30
0.0
 10
58.266237
 20
96.569125
 30
0.0
  0
LWPOLYLINE
  5
1a5
100
AcDbEntity
  8
0
 62
7
100
AcDbPolyline
 90
3
 70
0
 10
63.545590
 20
102.642540
 30
0.0
 10
63.756257
 20
103.387059
 30
0.0
 10
63.957351
 20
102.374623
 30
0.0
  0
SPLINE
  5
1a6
100
AcDbEntity
  8
0
 62
7
100
AcDbSpline
 70
8
 71
3
 72
8
 73
4
 74
0
 40
0
 40
0
 40
0
 40
0
 40
1
 40
1
 40
1
 40
1
 10
55.360768
 20
105.085380
 30
0.0
 10
54.517970
 20
105.946697
 30
0.0
 10
53.689187
 20
107.073258
 30
0.0
 10
53.519028
 20
107.588849
 30
0.0
  0
SPLINE
  5
1a7
100
AcDbEntity
  8
0
 62
7
100
AcDbSpline
 70
8
 71
3
 72
8
 73
4
 74
0
 40
0
 40
0
 40
0
 40
0
 40
1
 40
1
 40
1
 40
1
 10
53.519028
 20
107.588849
 30
0.0
 10
53.137051
 20
108.746245
 30
0.0
 10
53.474437
 20
109.554370
 30
0.0
 10
55.294850
 20
111.842410
 30
0.0
  0
LWPOLYLINE
  5
1a8
100
AcDbEntity
  8
0
 62
7
100
AcDbPolyline
 90
4
 70
0
 10
58.266237
 20
96.569125
 30
0.0
 10
58.094790
 20
95.449559
 30
0.0
 10
57.767670
 20
96.243309
 30
0.0
 10
57.767662
 20
96.243309
 30
0.0
  0
SPLINE
  5
1a9
100
AcDbEntity
  8
0
 62
7
100
AcDbSpline
 70
8
 71
3
 72
8
 73
4
 74
0
 40
0
 40
0
 40
0
 40
0
 40
1
 40
1
 40
1
 40
1
 10
56.814694
 20
111.580525
 30
0.0
 10
57.164893
 20
109.158781
 30
0.0
 10
57.676206
 20
109.009151
 30
0.0
 10
58.668801
 20
111.037944
 30
0.0
  0
LWPOLYLINE
  5
1aa
100
AcDbEntity
  8
0
 62
7
100
AcDbPolyline
 90
3
 70
0
 10
55.294850
 20
111.842410
 30
0.0
 10
56.548898
 20
113.418594
 30
0.0
 10
56.814694
 20
111.580525
 30
0.0
  0
SPLINE
  5
1ab
100
AcDbEntity
  8
0
 62
7
100
AcDbSpline
 70
8
 71
3
 72
8
 73
4
 74
0
 40
0
 40
0
 40
0
 40
0
 40
1
 40
1
 40
1
 40
1
 10
60.084322
 20
111.118393
 30
0.0
 10
61.241228
 20
108.836523
 30
0.0
 10
61.953984
 20
109.297790
 30
0.0
 10
61.987139
 20
112.349820
 30
0.0
  0
LWPOLYLINE
  5
1ac
100
AcDbEntity
  8
0
 62
7
100
AcDbPolyline
 90
3
 70
0
 10
58.668801
 20
111.037944
 30
0.0
 10
59.383986
 20
112.499727
 30
0.0
 10
60.084322
 20
111.118393
 30
0.0
  0
SPLINE
  5
1ad
100
AcDbEntity
  8
0
 62
7
100
AcDbSpline
 70
8
 71
3
 72
8
 73
4
 74
0
 40
0
 40
0
 40
0
 40
0
 40
1
 40
1
 40
1
 40
1
 10
63.196997
 20
112.118309
 30
0.0
 10
65.304485
 20
109.791077
 30
0.0
 10
65.838684
 20
108.242682
 30
0.0
 10
64.979500
 20
106.951661
 30
0.0
  0
SPLINE
  5
1ae
100
AcDbEntity
  8
0
 62
7
100
AcDbSpline
 70
8
 71
3
 72
8
 73
4
 74
0
 40
0
 40
0
 40
0
 40
0
 40
1
 40
1
 40
1
 40
1
 10
64.979500
 20
106.951661
 30
0.0
 10
64.481414
 20
106.203229
 30
0.0
 10
61.932669
 20
103.519438
 30
0.0
 10
61.719735
 20
103.519176
 30
0.0
  0
SPLINE
  5
1af
100
AcDbEntity
  8
0
 62
7
100
AcDbSpline
 70
8
 71
3
 72
8
 73
4
 74
0
 40
0
 40
0
 40
0
 40
0
 40
1
 40
1
 40
1
 40
1
 10
61.719735
 20
103.519176
 30
0.0
 10
61.642003
 20
103.519081
 30
0.0
 10
61.578405
 20
103.960689
 30
0.0
 10
61.578405
 20
104.500527
 30
0.0
  0
SPLINE
  5
1b0
100
AcDbEntity
  8
0
 62
7
100
AcDbSpline
 70
8
 71
3
 72
8
 73
4
 74
0
 40
0
 40
0
 40
0
 40
0
 40
1
 40
1
 40
1
 40
1
 10
61.578405
 20
104.500527
 30
0.0
 10
61.578405
 20
105.762772
 30
0.0
 10
60.796763
 20
106.232846
 30
0.0
 10
58.954302
 20
106.078644
 30
0.0
  0
SPLINE
  5
1b1
100
AcDbEntity
  8
0
 62
7
100
AcDbSpline
 70
8
 71
3
 72
8
 73
4
 74
0
 40
0
 40
0
 40
0
 40
0
 40
1
 40
1
 40
1
 40
1
 10
58.954302
 20
106.078644
 30
0.0
 10
57.462888
 20
105.953822
 30
0.0
 10
56.857069
 20
105.380758
 30
0.0
 10
57.017912
 20
104.246955
 30
0.0
  0
SPLINE
  5
1b2
100
AcDbEntity
  8
0
 62
7
100
AcDbSpline
 70
8
 71
3
 72
8
 73
4
 74
0
 40
0
 40
0
 40
0
 40
0
 40
1
 40
1
 40
1
 40
1
 10
57.017912
 20
104.246955
 30
0.0
 10
57.074684
 20
103.846773
 30
0.0
 10
57.069831
 20
103.519351
 30
0.0
 10
57.007117
 20
103.519351
 30
0.0
  0
SPLINE
  5
1b3
100
AcDbEntity
  8
0
 62
7
100
AcDbSpline
 70
8
 71
3
 72
8
 73
4
 74
0
 40
0
 40
0
 40
0
 40
0
 40
1
 40
1
 40
1
 40
1
 10
57.007117
 20
103.519351
 30
0.0
 10
56.944413
 20
103.519351
 30
0.0
 10
56.203551
 20
104.224063
 30
0.0
 10
55.360753
 20
105.085380
 30
0.0
  0
LWPOLYLINE
  5
1b4
100
AcDbEntity
  8
0
 62
7
100
AcDbPolyline
 90
3
 70
0
 10
61.987139
 20
112.349820
 30
0.0
 10
61.998992
 20
113.441226
 30
0.0
 10
63.196997
 20
112.118309
 30
0.0
  0
SPLINE
  5
1b5
100
AcDbEntity
  8
0
 62
7
100
AcDbSpline
 70
8
 71
3
 72
8
 73
4
 74
0
 40
0
 40
0
 40
0
 40
0
 40
1
 40
1
 40
1
 40
1
 10
39.879119
 20
106.905692
 30
0.0
 10
37.757756
 20
107.639242
 30
0.0
 10
36.214055
 20
108.678832
 30
0.0
 10
34.553316
 20
110.492302
 30
0.0
  0
SPLINE
  5
1b6
100
AcDbEntity
  8
0
 62
7
100
AcDbSpline
 70
8
 71
3
 72
8
 73
4
 74
0
 40
0
 40
0
 40
0
 40
0
 40
1
 40
1
 40
1
 40
1
 10
34.553316
 20
110.492302
 30
0.0
 10
33.273963
 20
111.889307
 30
0.0
 10
31.283616
 20
115.133287
 30
0.0
 10
31.283616
 20
115.821441
 30
0.0
  0
SPLINE
  5
1b7
100
AcDbEntity
  8
0
 62
7
100
AcDbSpline
 70
8
 71
3
 72
8
 73
4
 74
0
 40
0
 40
0
 40
0
 40
0
 40
1
 40
1
 40
1
 40
1
 10
31.283616
 20
115.821441
 30
0.0
 10
31.283616
 20
115.918536
 30
0.0
 10
31.824702
 20
115.364077
 30
0.0
 10
32.486029
 20
114.589314
 30
0.0
  0
SPLINE
  5
1b8
100
AcDbEntity
  8
0
 62
7
100
AcDbSpline
 70
8
 71
3
 72
8
 73
4
 74
0
 40
0
 40
0
 40
0
 40
0
 40
1
 40
1
 40
1
 40
1
 10
32.486029
 20
114.589314
 30
0.0
 10
34.154782
 20
112.634321
 30
0.0
 10
35.680216
 20
111.641607
 30
0.0
 10
36.753080
 20
111.812427
 30
0.0
  0
SPLINE
  5
1b9
100
AcDbEntity
  8
0
 62
7
100
AcDbSpline
 70
8
 71
3
 72
8
 73
4
 74
0
 40
0
 40
0
 40
0
 40
0
 40
1
 40
1
 40
1
 40
1
 10
36.753080
 20
111.812427
 30
0.0
 10
37.320646
 20
111.902793
 30
0.0
 10
37.637672
 20
111.827905
 30
0.0
 10
37.732377
 20
111.581113
 30
0.0
  0
SPLINE
  5
1ba
100
AcDbEntity
  8
0
 62
7
100
AcDbSpline
 70
8
 71
3
 72
8
 73
4
 74
0
 40
0
 40
0
 40
0
 40
0
 40
1
 40
1
 40
1
 40
1
 10
37.732377
 20
111.581113
 30
0.0
 10
37.942761
 20
111.032862
 30
0.0
 10
39.877331
 20
110.133934
 30
0.0
 10
40.846833
 20
110.133934
 30
0.0
  0
SPLINE
  5
1bb
100
AcDbEntity
  8
0
 62
7
100
AcDbSpline
 70
8
 71
3
 72
8
 73
4
 74
0
 40
0
 40
0
 40
0
 40
0
 40
1
 40
1
 40
1
 40
1
 10
40.846833
 20
110.133934
 30
0.0
 10
42.048102
 20
110.133934
 30
0.0
 10
43.847139
 20
111.073435
 30
0.0
 10
44.755067
 20
112.174912
 30
0.0
  0
SPLINE
  5
1bc
100
AcDbEntity
  8
0
 62
7
100
AcDbSpline
 70
8
 71
3
 72
8
 73
4
 74
0
 40
0
 40
0
 40
0
 40
0
 40
1
 40
1
 40
1
 40
1
 10
44.755067
 20
112.174912
 30
0.0
 10
45.179014
 20
112.689233
 30
0.0
 10
45.793345
 20
113.958463
 30
0.0
 10
46.120243
 20
114.995426
 30
0.0
  0
SPLINE
  5
1bd
100
AcDbEntity
  8
0
 62
7
100
AcDbSpline
 70
8
 71
3
 72
8
 73
4
 74
0
 40
0
 40
0
 40
0
 40
0
 40
1
 40
1
 40
1
 40
1
 10
46.120243
 20
114.995426
 30
0.0
 10
47.220121
 20
118.484343
 30
0.0
 10
49.301329
 20
121.894182
 30
0.0
 10
50.805768
 20
122.672160
 30
0.0
  0
SPLINE
  5
1be
100
AcDbEntity
  8
0
 62
7
100
AcDbSpline
 70
8
 71
3
 72
8
 73
4
 74
0
 40
0
 40
0
 40
0
 40
0
 40
1
 40
1
 40
1
 40
1
 10
50.805768
 20
122.672160
 30
0.0
 10
51.971863
 20
123.275172
 30
0.0
 10
53.824823
 20
123.456192
 30
0.0
 10
54.407528
 20
123.024024
 30
0.0
  0
SPLINE
  5
1bf
100
AcDbEntity
  8
0
 62
7
100
AcDbSpline
 70
8
 71
3
 72
8
 73
4
 74
0
 40
0
 40
0
 40
0
 40
0
 40
1
 40
1
 40
1
 40
1
 10
54.407528
 20
123.024024
 30
0.0
 10
55.199134
 20
122.436922
 30
0.0
 10
54.753904
 20
121.437784
 30
0.0
 10
53.062299
 20
120.005210
 30
0.0
  0
SPLINE
  5
1c0
100
AcDbEntity
  8
0
 62
7
100
AcDbSpline
 70
8
 71
3
 72
8
 73
4
 74
0
 40
0
 40
0
 40
0
 40
0
 40
1
 40
1
 40
1
 40
1
 10
53.062299
 20
120.005210
 30
0.0
 10
49.557371
 20
117.036985
 30
0.0
 10
48.532169
 20
115.369184
 30
0.0
 10
47.764406
 20
111.386583
 30
0.0
  0
SPLINE
  5
1c1
100
AcDbEntity
  8
0
 62
7
100
AcDbSpline
 70
8
 71
3
 72
8
 73
4
 74
0
 40
0
 40
0
 40
0
 40
0
 40
1
 40
1
 40
1
 40
1
 10
47.764406
 20
111.386583
 30
0.0
 10
47.364182
 20
109.310519
 30
0.0
 10
47.266040
 20
109.102316
 30
0.0
 10
46.532184
 20
108.772500
 30
0.0
  0
SPLINE
  5
1c2
100
AcDbEntity
  8
0
 62
7
100
AcDbSpline
 70
8
 71
3
 72
8
 73
4
 74
0
 40
0
 40
0
 40
0
 40
0
 40
1
 40
1
 40
1
 40
1
 10
46.532184
 20
108.772500
 30
0.0
 10
45.394557
 20
108.261219
 30
0.0
 10
45.386966
 20
107.831938
 30
0.0
 10
46.506122
 20
107.298252
 30
0.0
  0
SPLINE
  5
1c3
100
AcDbEntity
  8
0
 62
7
100
AcDbSpline
 70
8
 71
3
 72
8
 73
4
 74
0
 40
0
 40
0
 40
0
 40
0
 40
1
 40
1
 40
1
 40
1
 10
46.506122
 20
107.298252
 30
0.0
 10
47.437148
 20
106.854276
 30
0.0
 10
47.453153
 20
106.825071
 30
0.0
 10
46.857108
 20
106.657788
 30
0.0
  0
SPLINE
  5
1c4
100
AcDbEntity
  8
0
 62
7
100
AcDbSpline
 70
8
 71
3
 72
8
 73
4
 74
0
 40
0
 40
0
 40
0
 40
0
 40
1
 40
1
 40
1
 40
1
 10
46.857108
 20
106.657788
 30
0.0
 10
45.529855
 20
106.285295
 30
0.0
 10
41.231667
 20
106.437994
 30
0.0
 10
39.879124
 20
106.905692
 30
0.0
  0
LWPOLYLINE
  5
1c5
100
AcDbEntity
  8
0
 62
7
100
AcDbPolyline
 90
1
 70
1
 10
55.360753
 20
105.085380
 30
0.0
  0
SPLINE
  5
1c6
100
AcDbEntity
  8
0
 62
7
100
AcDbSpline
 70
8
 71
3
 72
8
 73
4
 74
0
 40
0
 40
0
 40
0
 40
0
 40
1
 40
1
 40
1
 40
1
 10
71.801797
 20
106.644223
 30
0.0
 10
71.200158
 20
106.826143
 30
0.0
 10
71.212279
 20
106.849757
 30
0.0
 10
72.132526
 20
107.288595
 30
0.0
  0
SPLINE
  5
1c7
100
AcDbEntity
  8
0
 62
7
100
AcDbSpline
 70
8
 71
3
 72
8
 73
4
 74
0
 40
0
 40
0
 40
0
 40
0
 40
1
 40
1
 40
1
 40
1
 10
72.132526
 20
107.288595
 30
0.0
 10
73.329006
 20
107.859155
 30
0.0
 10
73.351940
 20
108.418217
 30
0.0
 10
72.194542
 20
108.800194
 30
0.0
  0
SPLINE
  5
1c8
100
AcDbEntity
  8
0
 62
7
100
AcDbSpline
 70
8
 71
3
 72
8
 73
4
 74
0
 40
0
 40
0
 40
0
 40
0
 40
1
 40
1
 40
1
 40
1
 10
72.194542
 20
108.800194
 30
0.0
 10
71.371127
 20
109.071944
 30
0.0
 10
71.287079
 20
109.202815
 30
0.0
 10
71.119386
 20
110.474358
 30
0.0
  0
SPLINE
  5
1c9
100
AcDbEntity
  8
0
 62
7
100
AcDbSpline
 70
8
 71
3
 72
8
 73
4
 74
0
 40
0
 40
0
 40
0
 40
0
 40
1
 40
1
 40
1
 40
1
 10
71.119386
 20
110.474358
 30
0.0
 10
70.856742
 20
112.465837
 30
0.0
 10
69.756240
 20
115.570101
 30
0.0
 10
68.841588
 20
116.899502
 30
0.0
  0
SPLINE
  5
1ca
100
AcDbEntity
  8
0
 62
7
100
AcDbSpline
 70
8
 71
3
 72
8
 73
4
 74
0
 40
0
 40
0
 40
0
 40
0
 40
1
 40
1
 40
1
 40
1
 10
68.841588
 20
116.899502
 30
0.0
 10
68.407259
 20
117.530779
 30
0.0
 10
67.346475
 20
118.590089
 30
0.0
 10
66.484294
 20
119.253524
 30
0.0
  0
SPLINE
  5
1cb
100
AcDbEntity
  8
0
 62
7
100
AcDbSpline
 70
8
 71
3
 72
8
 73
4
 74
0
 40
0
 40
0
 40
0
 40
0
 40
1
 40
1
 40
1
 40
1
 10
66.484294
 20
119.253524
 30
0.0
 10
64.817739
 20
120.535906
 30
0.0
 10
63.827366
 20
121.715583
 30
0.0
 10
63.827366
 20
122.418306
 30
0.0
  0
SPLINE
  5
1cc
100
AcDbEntity
  8
0
 62
7
100
AcDbSpline
 70
8
 71
3
 72
8
 73
4
 74
0
 40
0
 40
0
 40
0
 40
0
 40
1
 40
1
 40
1
 40
1
 10
63.827366
 20
122.418306
 30
0.0
 10
63.827366
 20
123.487310
 30
0.0
 10
66.571900
 20
123.512715
 30
0.0
 10
68.141337
 20
122.458239
 30
0.0
  0
SPLINE
  5
1cd
100
AcDbEntity
  8
0
 62
7
100
AcDbSpline
 70
8
 71
3
 72
8
 73
4
 74
0
 40
0
 40
0
 40
0
 40
0
 40
1
 40
1
 40
1
 40
1
 10
68.141337
 20
122.458239
 30
0.0
 10
69.550341
 20
121.511552
 30
0.0
 10
71.401858
 20
118.525401
 30
0.0
 10
72.307892
 20
115.738370
 30
0.0
  0
SPLINE
  5
1ce
100
AcDbEntity
  8
0
 62
7
100
AcDbSpline
 70
8
 71
3
 72
8
 73
4
 74
0
 40
0
 40
0
 40
0
 40
0
 40
1
 40
1
 40
1
 40
1
 10
72.307892
 20
115.738370
 30
0.0
 10
73.278733
 20
112.751976
 30
0.0
 10
73.951396
 20
111.790935
 30
0.0
 10
75.759712
 20
110.806727
 30
0.0
  0
SPLINE
  5
1cf
100
AcDbEntity
  8
0
 62
7
100
AcDbSpline
 70
8
 71
3
 72
8
 73
4
 74
0
 40
0
 40
0
 40
0
 40
0
 40
1
 40
1
 40
1
 40
1
 10
75.759712
 20
110.806727
 30
0.0
 10
77.461809
 20
109.880329
 30
0.0
 10
78.957683
 20
109.969522
 30
0.0
 10
80.419596
 20
111.084577
 30
0.0
  0
SPLINE
  5
1d0
100
AcDbEntity
  8
0
 62
7
100
AcDbSpline
 70
8
 71
3
 72
8
 73
4
 74
0
 40
0
 40
0
 40
0
 40
0
 40
1
 40
1
 40
1
 40
1
 10
80.419596
 20
111.084577
 30
0.0
 10
81.025153
 20
111.546457
 30
0.0
 10
81.663402
 20
111.808890
 30
0.0
 10
82.075928
 20
111.765620
 30
0.0
  0
SPLINE
  5
1d1
100
AcDbEntity
  8
0
 62
7
100
AcDbSpline
 70
8
 71
3
 72
8
 73
4
 74
0
 40
0
 40
0
 40
0
 40
0
 40
1
 40
1
 40
1
 40
1
 10
82.075928
 20
111.765620
 30
0.0
 10
83.001580
 20
111.668523
 30
0.0
 10
85.011609
 20
113.055244
 30
0.0
 10
86.311333
 20
114.687625
 30
0.0
  0
SPLINE
  5
1d2
100
AcDbEntity
  8
0
 62
7
100
AcDbSpline
 70
8
 71
3
 72
8
 73
4
 74
0
 40
0
 40
0
 40
0
 40
0
 40
1
 40
1
 40
1
 40
1
 10
86.311333
 20
114.687625
 30
0.0
 10
87.484244
 20
116.160741
 30
0.0
 10
87.679982
 20
116.004861
 30
0.0
 10
86.809908
 20
114.290581
 30
0.0
  0
SPLINE
  5
1d3
100
AcDbEntity
  8
0
 62
7
100
AcDbSpline
 70
8
 71
3
 72
8
 73
4
 74
0
 40
0
 40
0
 40
0
 40
0
 40
1
 40
1
 40
1
 40
1
 10
86.809908
 20
114.290581
 30
0.0
 10
85.248978
 20
111.215122
 30
0.0
 10
83.008049
 20
108.910572
 30
0.0
 10
80.245738
 20
107.540041
 30
0.0
  0
SPLINE
  5
1d4
100
AcDbEntity
  8
0
 62
7
100
AcDbSpline
 70
8
 71
3
 72
8
 73
4
 74
0
 40
0
 40
0
 40
0
 40
0
 40
1
 40
1
 40
1
 40
1
 10
80.245738
 20
107.540041
 30
0.0
 10
78.366803
 20
106.607803
 30
0.0
 10
78.140134
 20
106.560056
 30
0.0
 10
75.350947
 20
106.508960
 30
0.0
  0
SPLINE
  5
1d5
100
AcDbEntity
  8
0
 62
7
100
AcDbSpline
 70
8
 71
3
 72
8
 73
4
 74
0
 40
0
 40
0
 40
0
 40
0
 40
1
 40
1
 40
1
 40
1
 10
75.350947
 20
106.508960
 30
0.0
 10
73.742404
 20
106.479493
 30
0.0
 10
72.145287
 20
106.540361
 30
0.0
 10
71.801797
 20
106.644223
 30
0.0
  0
LWPOLYLINE
  5
1d6
100
AcDbEntity
  8
0
 62
7
100
AcDbPolyline
 90
1
 70
1
 10
39.879124
 20
106.905692
 30
0.0
  0
SPLINE
  5
1d7
100
AcDbEntity
  8
0
 62
7
100
AcDbSpline
 70
8
 71
3
 72
8
 73
4
 74
0
 40
0
 40
0
 40
0
 40
0
 40
1
 40
1
 40
1
 40
1
 10
66.744220
 20
108.744872
 30
0.0
 10
64.778752
 20
110.945462
 30
0.0
 10
63.035238
 20
113.593113
 30
0.0
 10
62.488950
 20
115.206804
 30
0.0
  0
SPLINE
  5
1d8
100
AcDbEntity
  8
0
 62
7
100
AcDbSpline
 70
8
 71
3
 72
8
 73
4
 74
0
 40
0
 40
0
 40
0
 40
0
 40
1
 40
1
 40
1
 40
1
 10
62.488950
 20
115.206804
 30
0.0
 10
62.227576
 20
115.978876
 30
0.0
 10
62.050650
 20
116.647494
 30
0.0
 10
62.095777
 20
116.692622
 30
0.0
  0
SPLINE
  5
1d9
100
AcDbEntity
  8
0
 62
7
100
AcDbSpline
 70
8
 71
3
 72
8
 73
4
 74
0
 40
0
 40
0
 40
0
 40
0
 40
1
 40
1
 40
1
 40
1
 10
62.095777
 20
116.692622
 30
0.0
 10
62.140904
 20
116.737749
 30
0.0
 10
62.629566
 20
116.468112
 30
0.0
 10
63.181693
 20
116.093430
 30
0.0
  0
SPLINE
  5
1da
100
AcDbEntity
  8
0
 62
7
100
AcDbSpline
 70
8
 71
3
 72
8
 73
4
 74
0
 40
0
 40
0
 40
0
 40
0
 40
1
 40
1
 40
1
 40
1
 10
63.181693
 20
116.093430
 30
0.0
 10
63.733818
 20
115.718746
 30
0.0
 10
64.442308
 20
115.347747
 30
0.0
 10
64.756115
 20
115.268989
 30
0.0
  0
SPLINE
  5
1db
100
AcDbEntity
  8
0
 62
7
100
AcDbSpline
 70
8
 71
3
 72
8
 73
4
 74
0
 40
0
 40
0
 40
0
 40
0
 40
1
 40
1
 40
1
 40
1
 10
64.756115
 20
115.268989
 30
0.0
 10
65.230224
 20
115.149992
 30
0.0
 10
65.326673
 20
114.932743
 30
0.0
 10
65.326673
 20
113.983778
 30
0.0
  0
SPLINE
  5
1dc
100
AcDbEntity
  8
0
 62
7
100
AcDbSpline
 70
8
 71
3
 72
8
 73
4
 74
0
 40
0
 40
0
 40
0
 40
0
 40
1
 40
1
 40
1
 40
1
 10
65.326673
 20
113.983778
 30
0.0
 10
65.326673
 20
112.822950
 30
0.0
 10
66.656783
 20
109.617314
 30
0.0
 10
67.811055
 20
107.996289
 30
0.0
  0
SPLINE
  5
1dd
100
AcDbEntity
  8
0
 62
7
100
AcDbSpline
 70
8
 71
3
 72
8
 73
4
 74
0
 40
0
 40
0
 40
0
 40
0
 40
1
 40
1
 40
1
 40
1
 10
67.811055
 20
107.996289
 30
0.0
 10
68.687080
 20
106.766027
 30
0.0
 10
68.217084
 20
107.095814
 30
0.0
 10
66.744220
 20
108.744872
 30
0.0
  0
LWPOLYLINE
  5
1de
100
AcDbEntity
  8
0
 62
7
100
AcDbPolyline
 90
1
 70
1
 10
71.801797
 20
106.644223
 30
0.0
  0
SPLINE
  5
1df
100
AcDbEntity
  8
0
 62
7
100
AcDbSpline
 70
8
 71
3
 72
8
 73
4
 74
0
 40
0
 40
0
 40
0
 40
0
 40
1
 40
1
 40
1
 40
1
 10
51.303671
 20
108.943309
 30
0.0
 10
52.582069
 20
110.994388
 30
0.0
 10
53.494406
 20
113.216140
 30
0.0
 10
53.502335
 20
114.297571
 30
0.0
  0
SPLINE
  5
1e0
100
AcDbEntity
  8
0
 62
7
100
AcDbSpline
 70
8
 71
3
 72
8
 73
4
 74
0
 40
0
 40
0
 40
0
 40
0
 40
1
 40
1
 40
1
 40
1
 10
53.502335
 20
114.297571
 30
0.0
 10
53.507733
 20
115.034118
 30
0.0
 10
53.646914
 20
115.211701
 30
0.0
 10
54.497192
 20
115.566971
 30
0.0
  0
SPLINE
  5
1e1
100
AcDbEntity
  8
0
 62
7
100
AcDbSpline
 70
8
 71
3
 72
8
 73
4
 74
0
 40
0
 40
0
 40
0
 40
0
 40
1
 40
1
 40
1
 40
1
 10
54.497192
 20
115.566971
 30
0.0
 10
55.040911
 20
115.794150
 30
0.0
 10
55.755286
 20
116.233220
 30
0.0
 10
56.084692
 20
116.542682
 30
0.0
  0
SPLINE
  5
1e2
100
AcDbEntity
  8
0
 62
7
100
AcDbSpline
 70
8
 71
3
 72
8
 73
4
 74
0
 40
0
 40
0
 40
0
 40
0
 40
1
 40
1
 40
1
 40
1
 10
56.084692
 20
116.542682
 30
0.0
 10
56.657039
 20
117.080374
 30
0.0
 10
56.683503
 20
117.082750
 30
0.0
 10
56.681031
 20
116.596200
 30
0.0
  0
SPLINE
  5
1e3
100
AcDbEntity
  8
0
 62
7
100
AcDbSpline
 70
8
 71
3
 72
8
 73
4
 74
0
 40
0
 40
0
 40
0
 40
0
 40
1
 40
1
 40
1
 40
1
 10
56.681031
 20
116.596200
 30
0.0
 10
56.674126
 20
115.233582
 30
0.0
 10
54.365125
 20
111.629330
 30
0.0
 10
51.693620
 20
108.811018
 30
0.0
  0
LWPOLYLINE
  5
1e4
100
AcDbEntity
  8
0
 62
7
100
AcDbPolyline
 90
1
 70
1
 10
66.744220
 20
108.744872
 30
0.0
  0
SPLINE
  5
1e5
100
AcDbEntity
  8
0
 62
7
100
AcDbSpline
 70
8
 71
3
 72
8
 73
4
 74
0
 40
0
 40
0
 40
0
 40
0
 40
1
 40
1
 40
1
 40
1
 10
39.035866
 20
113.801618
 30
0.0
 10
37.359397
 20
114.380888
 30
0.0
 10
35.726725
 20
115.482431
 30
0.0
 10
34.701969
 20
116.725634
 30
0.0
  0
SPLINE
  5
1e6
100
AcDbEntity
  8
0
 62
7
100
AcDbSpline
 70
8
 71
3
 72
8
 73
4
 74
0
 40
0
 40
0
 40
0
 40
0
 40
1
 40
1
 40
1
 40
1
 10
34.701969
 20
116.725634
 30
0.0
 10
33.213551
 20
118.531344
 30
0.0
 10
31.234100
 20
123.004556
 30
0.0
 10
31.304505
 20
124.403310
 30
0.0
  0
SPLINE
  5
1e7
100
AcDbEntity
  8
0
 62
7
100
AcDbSpline
 70
8
 71
3
 72
8
 73
4
 74
0
 40
0
 40
0
 40
0
 40
0
 40
1
 40
1
 40
1
 40
1
 10
31.304505
 20
124.403310
 30
0.0
 10
31.322417
 20
124.759371
 30
0.0
 10
31.345391
 20
124.761945
 30
0.0
 10
31.466211
 20
124.421434
 30
0.0
  0
SPLINE
  5
1e8
100
AcDbEntity
  8
0
 62
7
100
AcDbSpline
 70
8
 71
3
 72
8
 73
4
 74
0
 40
0
 40
0
 40
0
 40
0
 40
1
 40
1
 40
1
 40
1
 10
31.466211
 20
124.421434
 30
0.0
 10
32.012065
 20
122.883033
 30
0.0
 10
33.960282
 20
121.171798
 30
0.0
 10
34.667947
 20
121.609160
 30
0.0
  0
SPLINE
  5
1e9
100
AcDbEntity
  8
0
 62
7
100
AcDbSpline
 70
8
 71
3
 72
8
 73
4
 74
0
 40
0
 40
0
 40
0
 40
0
 40
1
 40
1
 40
1
 40
1
 10
34.667947
 20
121.609160
 30
0.0
 10
34.800643
 20
121.691172
 30
0.0
 10
35.052439
 20
121.280227
 30
0.0
 10
35.227493
 20
120.695950
 30
0.0
  0
SPLINE
  5
1ea
100
AcDbEntity
  8
0
 62
7
100
AcDbSpline
 70
8
 71
3
 72
8
 73
4
 74
0
 40
0
 40
0
 40
0
 40
0
 40
1
 40
1
 40
1
 40
1
 10
35.227493
 20
120.695950
 30
0.0
 10
35.679346
 20
119.187804
 30
0.0
 10
36.785722
 20
118.542604
 30
0.0
 10
38.709253
 20
118.665509
 30
0.0
  0
SPLINE
  5
1eb
100
AcDbEntity
  8
0
 62
7
100
AcDbSpline
 70
8
 71
3
 72
8
 73
4
 74
0
 40
0
 40
0
 40
0
 40
0
 40
1
 40
1
 40
1
 40
1
 10
38.709253
 20
118.665509
 30
0.0
 10
40.646011
 20
118.789257
 30
0.0
 10
41.585862
 20
119.482193
 30
0.0
 10
42.923566
 20
121.772661
 30
0.0
  0
SPLINE
  5
1ec
100
AcDbEntity
  8
0
 62
7
100
AcDbSpline
 70
8
 71
3
 72
8
 73
4
 74
0
 40
0
 40
0
 40
0
 40
0
 40
1
 40
1
 40
1
 40
1
 10
42.923566
 20
121.772661
 30
0.0
 10
44.261008
 20
124.062678
 30
0.0
 10
47.365179
 20
127.140806
 30
0.0
 10
49.223869
 20
128.020109
 30
0.0
  0
SPLINE
  5
1ed
100
AcDbEntity
  8
0
 62
7
100
AcDbSpline
 70
8
 71
3
 72
8
 73
4
 74
0
 40
0
 40
0
 40
0
 40
0
 40
1
 40
1
 40
1
 40
1
 10
49.223869
 20
128.020109
 30
0.0
 10
51.582066
 20
129.135714
 30
0.0
 10
53.508098
 20
128.570268
 30
0.0
 10
52.781539
 20
126.975645
 30
0.0
  0
SPLINE
  5
1ee
100
AcDbEntity
  8
0
 62
7
100
AcDbSpline
 70
8
 71
3
 72
8
 73
4
 74
0
 40
0
 40
0
 40
0
 40
0
 40
1
 40
1
 40
1
 40
1
 10
52.781539
 20
126.975645
 30
0.0
 10
52.581821
 20
126.537313
 30
0.0
 10
51.684581
 20
125.902961
 30
0.0
 10
50.125051
 20
125.097495
 30
0.0
  0
SPLINE
  5
1ef
100
AcDbEntity
  8
0
 62
7
100
AcDbSpline
 70
8
 71
3
 72
8
 73
4
 74
0
 40
0
 40
0
 40
0
 40
0
 40
1
 40
1
 40
1
 40
1
 10
50.125051
 20
125.097495
 30
0.0
 10
48.829846
 20
124.428549
 30
0.0
 10
47.282613
 20
123.463928
 30
0.0
 10
46.686753
 20
122.953894
 30
0.0
  0
SPLINE
  5
1f0
100
AcDbEntity
  8
0
 62
7
100
AcDbSpline
 70
8
 71
3
 72
8
 73
4
 74
0
 40
0
 40
0
 40
0
 40
0
 40
1
 40
1
 40
1
 40
1
 10
46.686753
 20
122.953894
 30
0.0
 10
45.185685
 20
121.669035
 30
0.0
 10
44.237151
 20
119.636312
 30
0.0
 10
44.180223
 20
117.582363
 30
0.0
  0
SPLINE
  5
1f1
100
AcDbEntity
  8
0
 62
7
100
AcDbSpline
 70
8
 71
3
 72
8
 73
4
 74
0
 40
0
 40
0
 40
0
 40
0
 40
1
 40
1
 40
1
 40
1
 10
44.180223
 20
117.582363
 30
0.0
 10
44.139937
 20
116.128961
 30
0.0
 10
44.076670
 20
115.954768
 30
0.0
 10
43.589067
 20
115.954768
 30
0.0
  0
SPLINE
  5
1f2
100
AcDbEntity
  8
0
 62
7
100
AcDbSpline
 70
8
 71
3
 72
8
 73
4
 74
0
 40
0
 40
0
 40
0
 40
0
 40
1
 40
1
 40
1
 40
1
 10
43.589067
 20
115.954768
 30
0.0
 10
42.940219
 20
115.954768
 30
0.0
 10
41.866950
 20
115.255241
 30
0.0
 10
41.866950
 20
114.832339
 30
0.0
  0
SPLINE
  5
1f3
100
AcDbEntity
  8
0
 62
7
100
AcDbSpline
 70
8
 71
3
 72
8
 73
4
 74
0
 40
0
 40
0
 40
0
 40
0
 40
1
 40
1
 40
1
 40
1
 10
41.866950
 20
114.832339
 30
0.0
 10
41.866950
 20
114.668067
 30
0.0
 10
42.125829
 20
114.258101
 30
0.0
 10
42.442236
 20
113.921299
 30
0.0
  0
LWPOLYLINE
  5
1f4
100
AcDbEntity
  8
0
 62
7
100
AcDbPolyline
 90
3
 70
0
 10
51.693620
 20
108.811018
 30
0.0
 10
50.314212
 20
107.355809
 30
0.0
 10
51.303671
 20
108.943309
 30
0.0
  0
SPLINE
  5
1f5
100
AcDbEntity
  8
0
 62
7
100
AcDbSpline
 70
8
 71
3
 72
8
 73
4
 74
0
 40
0
 40
0
 40
0
 40
0
 40
1
 40
1
 40
1
 40
1
 10
41.714632
 20
113.317560
 30
0.0
 10
40.998042
 20
113.322296
 30
0.0
 10
39.792598
 20
113.540130
 30
0.0
 10
39.035866
 20
113.801604
 30
0.0
  0
LWPOLYLINE
  5
1f6
100
AcDbEntity
  8
0
 62
7
100
AcDbPolyline
 90
3
 70
0
 10
42.442236
 20
113.921299
 30
0.0
 10
43.017525
 20
113.308934
 30
0.0
 10
41.714632
 20
113.317560
 30
0.0
  0
SPLINE
  5
1f7
100
AcDbEntity
  8
0
 62
7
100
AcDbSpline
 70
8
 71
3
 72
8
 73
4
 74
0
 40
0
 40
0
 40
0
 40
0
 40
1
 40
1
 40
1
 40
1
 10
76.196637
 20
113.693964
 30
0.0
 10
76.524059
 20
113.935264
 30
0.0
 10
76.791950
 20
114.357311
 30
0.0
 10
76.791950
 20
114.631851
 30
0.0
  0
SPLINE
  5
1f8
100
AcDbEntity
  8
0
 62
7
100
AcDbSpline
 70
8
 71
3
 72
8
 73
4
 74
0
 40
0
 40
0
 40
0
 40
0
 40
1
 40
1
 40
1
 40
1
 10
76.791950
 20
114.631851
 30
0.0
 10
76.791950
 20
115.185399
 30
0.0
 10
75.855719
 20
115.954768
 30
0.0
 10
75.182116
 20
115.954768
 30
0.0
  0
SPLINE
  5
1f9
100
AcDbEntity
  8
0
 62
7
100
AcDbSpline
 70
8
 71
3
 72
8
 73
4
 74
0
 40
0
 40
0
 40
0
 40
0
 40
1
 40
1
 40
1
 40
1
 10
75.182116
 20
115.954768
 30
0.0
 10
74.841976
 20
115.954768
 30
0.0
 10
74.709681
 20
116.332267
 30
0.0
 10
74.569164
 20
117.703809
 30
0.0
  0
SPLINE
  5
1fa
100
AcDbEntity
  8
0
 62
7
100
AcDbSpline
 70
8
 71
3
 72
8
 73
4
 74
0
 40
0
 40
0
 40
0
 40
0
 40
1
 40
1
 40
1
 40
1
 10
74.569164
 20
117.703809
 30
0.0
 10
74.362363
 20
119.722305
 30
0.0
 10
73.532521
 20
121.529078
 30
0.0
 10
72.251512
 20
122.749911
 30
0.0
  0
SPLINE
  5
1fb
100
AcDbEntity
  8
0
 62
7
100
AcDbSpline
 70
8
 71
3
 72
8
 73
4
 74
0
 40
0
 40
0
 40
0
 40
0
 40
1
 40
1
 40
1
 40
1
 10
72.251512
 20
122.749911
 30
0.0
 10
71.765575
 20
123.213021
 30
0.0
 10
70.180110
 20
124.225053
 30
0.0
 10
68.728254
 20
124.998869
 30
0.0
  0
SPLINE
  5
1fc
100
AcDbEntity
  8
0
 62
7
100
AcDbSpline
 70
8
 71
3
 72
8
 73
4
 74
0
 40
0
 40
0
 40
0
 40
0
 40
1
 40
1
 40
1
 40
1
 10
68.728254
 20
124.998869
 30
0.0
 10
66.735682
 20
126.060880
 30
0.0
 10
66.027215
 20
126.580315
 30
0.0
 10
65.838467
 20
127.117605
 30
0.0
  0
SPLINE
  5
1fd
100
AcDbEntity
  8
0
 62
7
100
AcDbSpline
 70
8
 71
3
 72
8
 73
4
 74
0
 40
0
 40
0
 40
0
 40
0
 40
1
 40
1
 40
1
 40
1
 10
65.838467
 20
127.117605
 30
0.0
 10
65.243826
 20
128.810314
 30
0.0
 10
67.633691
 20
129.155878
 30
0.0
 10
70.068136
 20
127.729200
 30
0.0
  0
SPLINE
  5
1fe
100
AcDbEntity
  8
0
 62
7
100
AcDbSpline
 70
8
 71
3
 72
8
 73
4
 74
0
 40
0
 40
0
 40
0
 40
0
 40
1
 40
1
 40
1
 40
1
 10
70.068136
 20
127.729200
 30
0.0
 10
71.819471
 20
126.702849
 30
0.0
 10
74.679826
 20
123.713132
 30
0.0
 10
75.842897
 20
121.693273
 30
0.0
  0
SPLINE
  5
1ff
100
AcDbEntity
  8
0
 62
7
100
AcDbSpline
 70
8
 71
3
 72
8
 73
4
 74
0
 40
0
 40
0
 40
0
 40
0
 40
1
 40
1
 40
1
 40
1
 10
75.842897
 20
121.693273
 30
0.0
 10
77.078041
 20
119.548241
 30
0.0
 10
78.431133
 20
118.600045
 30
0.0
 10
80.254779
 20
118.601591
 30
0.0
  0
SPLINE
  5
200
100
AcDbEntity
  8
0
 62
7
100
AcDbSpline
 70
8
 71
3
 72
8
 73
4
 74
0
 40
0
 40
0
 40
0
 40
0
 40
1
 40
1
 40
1
 40
1
 10
80.254779
 20
118.601591
 30
0.0
 10
81.881670
 20
118.602913
 30
0.0
 10
83.031452
 20
119.361021
 30
0.0
 10
83.431406
 20
120.695950
 30
0.0
  0
SPLINE
  5
201
100
AcDbEntity
  8
0
 62
7
100
AcDbSpline
 70
8
 71
3
 72
8
 73
4
 74
0
 40
0
 40
0
 40
0
 40
0
 40
1
 40
1
 40
1
 40
1
 10
83.431406
 20
120.695950
 30
0.0
 10
83.606460
 20
121.280227
 30
0.0
 10
83.858256
 20
121.691172
 30
0.0
 10
83.990953
 20
121.609160
 30
0.0
  0
SPLINE
  5
202
100
AcDbEntity
  8
0
 62
7
100
AcDbSpline
 70
8
 71
3
 72
8
 73
4
 74
0
 40
0
 40
0
 40
0
 40
0
 40
1
 40
1
 40
1
 40
1
 10
83.990953
 20
121.609160
 30
0.0
 10
84.516293
 20
121.284481
 30
0.0
 10
85.891476
 20
122.185316
 30
0.0
 10
86.617045
 20
123.329420
 30
0.0
  0
SPLINE
  5
203
100
AcDbEntity
  8
0
 62
7
100
AcDbSpline
 70
8
 71
3
 72
8
 73
4
 74
0
 40
0
 40
0
 40
0
 40
0
 40
1
 40
1
 40
1
 40
1
 10
86.617045
 20
123.329420
 30
0.0
 10
87.520997
 20
124.754801
 30
0.0
 10
87.557128
 20
124.542820
 30
0.0
 10
86.820767
 20
122.134201
 30
0.0
  0
SPLINE
  5
204
100
AcDbEntity
  8
0
 62
7
100
AcDbSpline
 70
8
 71
3
 72
8
 73
4
 74
0
 40
0
 40
0
 40
0
 40
0
 40
1
 40
1
 40
1
 40
1
 10
86.820767
 20
122.134201
 30
0.0
 10
85.224628
 20
116.913271
 30
0.0
 10
81.764920
 20
113.699708
 30
0.0
 10
77.401470
 20
113.385052
 30
0.0
  0
SPLINE
  5
205
100
AcDbEntity
  8
0
 62
7
100
AcDbSpline
 70
8
 71
3
 72
8
 73
4
 74
0
 40
0
 40
0
 40
0
 40
0
 40
1
 40
1
 40
1
 40
1
 10
77.401470
 20
113.385052
 30
0.0
 10
75.675887
 20
113.260616
 30
0.0
 10
75.625981
 20
113.273411
 30
0.0
 10
76.196637
 20
113.693964
 30
0.0
  0
LWPOLYLINE
  5
206
100
AcDbEntity
  8
0
 62
7
100
AcDbPolyline
 90
1
 70
1
 10
39.035866
 20
113.801604
 30
0.0
  0
SPLINE
  5
207
100
AcDbEntity
  8
0
 62
7
100
AcDbSpline
 70
8
 71
3
 72
8
 73
4
 74
0
 40
0
 40
0
 40
0
 40
0
 40
1
 40
1
 40
1
 40
1
 10
58.820984
 20
115.162489
 30
0.0
 10
58.123730
 20
117.074778
 30
0.0
 10
56.344571
 20
119.052057
 30
0.0
 10
55.096550
 20
119.301660
 30
0.0
  0
SPLINE
  5
208
100
AcDbEntity
  8
0
 62
7
100
AcDbSpline
 70
8
 71
3
 72
8
 73
4
 74
0
 40
0
 40
0
 40
0
 40
0
 40
1
 40
1
 40
1
 40
1
 10
55.096550
 20
119.301660
 30
0.0
 10
54.659750
 20
119.389020
 30
0.0
 10
54.306081
 20
119.534911
 30
0.0
 10
54.310624
 20
119.625861
 30
0.0
  0
SPLINE
  5
209
100
AcDbEntity
  8
0
 62
7
100
AcDbSpline
 70
8
 71
3
 72
8
 73
4
 74
0
 40
0
 40
0
 40
0
 40
0
 40
1
 40
1
 40
1
 40
1
 10
54.310624
 20
119.625861
 30
0.0
 10
54.315175
 20
119.716812
 30
0.0
 10
54.612212
 20
120.267476
 30
0.0
 10
54.970728
 20
120.849559
 30
0.0
  0
SPLINE
  5
20a
100
AcDbEntity
  8
0
 62
7
100
AcDbSpline
 70
8
 71
3
 72
8
 73
4
 74
0
 40
0
 40
0
 40
0
 40
0
 40
1
 40
1
 40
1
 40
1
 10
54.970728
 20
120.849559
 30
0.0
 10
56.334459
 20
123.063712
 30
0.0
 10
55.588543
 20
124.037278
 30
0.0
 10
52.683497
 20
123.834835
 30
0.0
  0
LWPOLYLINE
  5
20b
100
AcDbEntity
  8
0
 62
7
100
AcDbPolyline
 90
1
 70
1
 10
76.196637
 20
113.693964
 30
0.0
  0
SPLINE
  5
20c
100
AcDbEntity
  8
0
 62
7
100
AcDbSpline
 70
8
 71
3
 72
8
 73
4
 74
0
 40
0
 40
0
 40
0
 40
0
 40
1
 40
1
 40
1
 40
1
 10
52.214836
 20
125.019004
 30
0.0
 10
53.443018
 20
126.572772
 30
0.0
 10
54.009084
 20
128.184032
 30
0.0
 10
53.529698
 20
128.761657
 30
0.0
  0
SPLINE
  5
20d
100
AcDbEntity
  8
0
 62
7
100
AcDbSpline
 70
8
 71
3
 72
8
 73
4
 74
0
 40
0
 40
0
 40
0
 40
0
 40
1
 40
1
 40
1
 40
1
 10
53.529698
 20
128.761657
 30
0.0
 10
53.045857
 20
129.344650
 30
0.0
 10
51.896103
 20
129.504448
 30
0.0
 10
50.475650
 20
129.186117
 30
0.0
  0
SPLINE
  5
20e
100
AcDbEntity
  8
0
 62
7
100
AcDbSpline
 70
8
 71
3
 72
8
 73
4
 74
0
 40
0
 40
0
 40
0
 40
0
 40
1
 40
1
 40
1
 40
1
 10
50.475650
 20
129.186117
 30
0.0
 10
49.776830
 20
129.029508
 30
0.0
 10
49.153993
 20
128.952448
 30
0.0
 10
49.091570
 20
129.014868
 30
0.0
  0
SPLINE
  5
20f
100
AcDbEntity
  8
0
 62
7
100
AcDbSpline
 70
8
 71
3
 72
8
 73
4
 74
0
 40
0
 40
0
 40
0
 40
0
 40
1
 40
1
 40
1
 40
1
 10
49.091570
 20
129.014868
 30
0.0
 10
49.029149
 20
129.077291
 30
0.0
 10
49.327263
 20
129.527821
 30
0.0
 10
49.754047
 20
130.016046
 30
0.0
  0
SPLINE
  5
210
100
AcDbEntity
  8
0
 62
7
100
AcDbSpline
 70
8
 71
3
 72
8
 73
4
 74
0
 40
0
 40
0
 40
0
 40
0
 40
1
 40
1
 40
1
 40
1
 10
49.754047
 20
130.016046
 30
0.0
 10
51.705449
 20
132.248373
 30
0.0
 10
52.388677
 20
133.877177
 30
0.0
 10
51.590387
 20
134.393839
 30
0.0
  0
SPLINE
  5
211
100
AcDbEntity
  8
0
 62
7
100
AcDbSpline
 70
8
 71
3
 72
8
 73
4
 74
0
 40
0
 40
0
 40
0
 40
0
 40
1
 40
1
 40
1
 40
1
 10
51.590387
 20
134.393839
 30
0.0
 10
51.408486
 20
134.511568
 30
0.0
 10
50.343393
 20
134.667424
 30
0.0
 10
49.223509
 20
134.740184
 30
0.0
  0
LWPOLYLINE
  5
212
100
AcDbEntity
  8
0
 62
7
100
AcDbPolyline
 90
3
 70
0
 10
52.683497
 20
123.834835
 30
0.0
 10
51.196917
 20
123.731240
 30
0.0
 10
52.214836
 20
125.019004
 30
0.0
  0
SPLINE
  5
213
100
AcDbEntity
  8
0
 62
7
100
AcDbSpline
 70
8
 71
3
 72
8
 73
4
 74
0
 40
0
 40
0
 40
0
 40
0
 40
1
 40
1
 40
1
 40
1
 10
48.760488
 20
136.944851
 30
0.0
 10
50.382649
 20
139.081822
 30
0.0
 10
50.771965
 20
140.336193
 30
0.0
 10
49.915101
 20
140.665002
 30
0.0
  0
SPLINE
  5
214
100
AcDbEntity
  8
0
 62
7
100
AcDbSpline
 70
8
 71
3
 72
8
 73
4
 74
0
 40
0
 40
0
 40
0
 40
0
 40
1
 40
1
 40
1
 40
1
 10
49.915101
 20
140.665002
 30
0.0
 10
49.684919
 20
140.753333
 30
0.0
 10
48.821716
 20
140.826045
 30
0.0
 10
47.996872
 20
140.826591
 30
0.0
  0
LWPOLYLINE
  5
215
100
AcDbEntity
  8
0
 62
7
100
AcDbPolyline
 90
3
 70
0
 10
49.223509
 20
134.740184
 30
0.0
 10
47.187363
 20
134.872476
 30
0.0
 10
48.760488
 20
136.944851
 30
0.0
  0
SPLINE
  5
216
100
AcDbEntity
  8
0
 62
7
100
AcDbSpline
 70
8
 71
3
 72
8
 73
4
 74
0
 40
0
 40
0
 40
0
 40
0
 40
1
 40
1
 40
1
 40
1
 10
47.290908
 20
141.322301
 30
0.0
 10
48.449902
 20
142.044566
 30
0.0
 10
49.448881
 20
143.192770
 30
0.0
 10
49.966480
 20
144.397545
 30
0.0
  0
SPLINE
  5
217
100
AcDbEntity
  8
0
 62
7
100
AcDbSpline
 70
8
 71
3
 72
8
 73
4
 74
0
 40
0
 40
0
 40
0
 40
0
 40
1
 40
1
 40
1
 40
1
 10
49.966480
 20
144.397545
 30
0.0
 10
50.538703
 20
145.729455
 30
0.0
 10
50.536904
 20
148.481066
 30
0.0
 10
49.962776
 20
150.052998
 30
0.0
  0
LWPOLYLINE
  5
218
100
AcDbEntity
  8
0
 62
7
100
AcDbPolyline
 90
3
 70
0
 10
47.996872
 20
140.826591
 30
0.0
 10
46.497158
 20
140.827649
 30
0.0
 10
47.290908
 20
141.322301
 30
0.0
  0
SPLINE
  5
219
100
AcDbEntity
  8
0
 62
7
100
AcDbSpline
 70
8
 71
3
 72
8
 73
4
 74
0
 40
0
 40
0
 40
0
 40
0
 40
1
 40
1
 40
1
 40
1
 10
50.375846
 20
151.043367
 30
0.0
 10
51.812576
 20
150.756022
 30
0.0
 10
54.930437
 20
149.109819
 30
0.0
 10
55.993702
 20
148.077187
 30
0.0
  0
SPLINE
  5
21a
100
AcDbEntity
  8
0
 62
7
100
AcDbSpline
 70
8
 71
3
 72
8
 73
4
 74
0
 40
0
 40
0
 40
0
 40
0
 40
1
 40
1
 40
1
 40
1
 10
55.993702
 20
148.077187
 30
0.0
 10
57.796081
 20
146.326741
 30
0.0
 10
58.163788
 20
144.618525
 30
0.0
 10
57.175905
 20
142.585165
 30
0.0
  0
SPLINE
  5
21b
100
AcDbEntity
  8
0
 62
7
100
AcDbSpline
 70
8
 71
3
 72
8
 73
4
 74
0
 40
0
 40
0
 40
0
 40
0
 40
1
 40
1
 40
1
 40
1
 10
57.175905
 20
142.585165
 30
0.0
 10
56.453707
 20
141.098662
 30
0.0
 10
56.643246
 20
140.031920
 30
0.0
 10
57.629571
 20
140.031920
 30
0.0
  0
SPLINE
  5
21c
100
AcDbEntity
  8
0
 62
7
100
AcDbSpline
 70
8
 71
3
 72
8
 73
4
 74
0
 40
0
 40
0
 40
0
 40
0
 40
1
 40
1
 40
1
 40
1
 10
57.629571
 20
140.031920
 30
0.0
 10
58.175821
 20
140.031920
 30
0.0
 10
58.404659
 20
140.266023
 30
0.0
 10
58.858068
 20
141.288691
 30
0.0
  0
LWPOLYLINE
  5
21d
100
AcDbEntity
  8
0
 62
7
100
AcDbPolyline
 90
3
 70
0
 10
49.962776
 20
150.052998
 30
0.0
 10
49.540007
 20
151.210537
 30
0.0
 10
50.375846
 20
151.043367
 30
0.0
  0
SPLINE
  5
21e
100
AcDbEntity
  8
0
 62
7
100
AcDbSpline
 70
8
 71
3
 72
8
 73
4
 74
0
 40
0
 40
0
 40
0
 40
0
 40
1
 40
1
 40
1
 40
1
 10
59.671466
 20
141.751711
 30
0.0
 10
60.197937
 20
140.120587
 30
0.0
 10
61.404471
 20
139.494525
 30
0.0
 10
61.973264
 20
140.557324
 30
0.0
  0
SPLINE
  5
21f
100
AcDbEntity
  8
0
 62
7
100
AcDbSpline
 70
8
 71
3
 72
8
 73
4
 74
0
 40
0
 40
0
 40
0
 40
0
 40
1
 40
1
 40
1
 40
1
 10
61.973264
 20
140.557324
 30
0.0
 10
62.191964
 20
140.965968
 30
0.0
 10
62.128448
 20
141.329722
 30
0.0
 10
61.687461
 20
142.194127
 30
0.0
  0
SPLINE
  5
220
100
AcDbEntity
  8
0
 62
7
100
AcDbSpline
 70
8
 71
3
 72
8
 73
4
 74
0
 40
0
 40
0
 40
0
 40
0
 40
1
 40
1
 40
1
 40
1
 10
61.687461
 20
142.194127
 30
0.0
 10
60.368786
 20
144.778944
 30
0.0
 10
61.235090
 20
147.153400
 30
0.0
 10
64.230033
 20
149.163069
 30
0.0
  0
SPLINE
  5
221
100
AcDbEntity
  8
0
 62
7
100
AcDbSpline
 70
8
 71
3
 72
8
 73
4
 74
0
 40
0
 40
0
 40
0
 40
0
 40
1
 40
1
 40
1
 40
1
 10
64.230033
 20
149.163069
 30
0.0
 10
65.816832
 20
150.227845
 30
0.0
 10
68.697462
 20
151.389599
 30
0.0
 10
69.000190
 20
151.086868
 30
0.0
  0
SPLINE
  5
222
100
AcDbEntity
  8
0
 62
7
100
AcDbSpline
 70
8
 71
3
 72
8
 73
4
 74
0
 40
0
 40
0
 40
0
 40
0
 40
1
 40
1
 40
1
 40
1
 10
69.000190
 20
151.086868
 30
0.0
 10
69.089132
 20
150.997928
 30
0.0
 10
69.018817
 20
150.657827
 30
0.0
 10
68.843967
 20
150.331093
 30
0.0
  0
SPLINE
  5
223
100
AcDbEntity
  8
0
 62
7
100
AcDbSpline
 70
8
 71
3
 72
8
 73
4
 74
0
 40
0
 40
0
 40
0
 40
0
 40
1
 40
1
 40
1
 40
1
 10
68.843967
 20
150.331093
 30
0.0
 10
68.669104
 20
150.004357
 30
0.0
 10
68.468793
 20
148.773769
 30
0.0
 10
68.398835
 20
147.596453
 30
0.0
  0
SPLINE
  5
224
100
AcDbEntity
  8
0
 62
7
100
AcDbSpline
 70
8
 71
3
 72
8
 73
4
 74
0
 40
0
 40
0
 40
0
 40
0
 40
1
 40
1
 40
1
 40
1
 10
68.398835
 20
147.596453
 30
0.0
 10
68.281275
 20
145.618065
 30
0.0
 10
68.329654
 20
145.345986
 30
0.0
 10
69.037369
 20
144.005506
 30
0.0
  0
SPLINE
  5
225
100
AcDbEntity
  8
0
 62
7
100
AcDbSpline
 70
8
 71
3
 72
8
 73
4
 74
0
 40
0
 40
0
 40
0
 40
0
 40
1
 40
1
 40
1
 40
1
 10
69.037369
 20
144.005506
 30
0.0
 10
69.478776
 20
143.169439
 30
0.0
 10
70.283298
 20
142.188877
 30
0.0
 10
70.936842
 20
141.690402
 30
0.0
  0
LWPOLYLINE
  5
226
100
AcDbEntity
  8
0
 62
7
100
AcDbPolyline
 90
3
 70
0
 10
58.858068
 20
141.288691
 30
0.0
 10
59.415273
 20
142.545461
 30
0.0
 10
59.671466
 20
141.751711
 30
0.0
  0
SPLINE
  5
227
100
AcDbEntity
  8
0
 62
7
100
AcDbSpline
 70
8
 71
3
 72
8
 73
4
 74
0
 40
0
 40
0
 40
0
 40
0
 40
1
 40
1
 40
1
 40
1
 10
70.494909
 20
140.825670
 30
0.0
 10
67.782035
 20
140.825670
 30
0.0
 10
67.690291
 20
140.002927
 30
0.0
 10
70.051642
 20
136.850607
 30
0.0
  0
LWPOLYLINE
  5
228
100
AcDbEntity
  8
0
 62
7
100
AcDbPolyline
 90
3
 70
0
 10
70.936842
 20
141.690402
 30
0.0
 10
72.070582
 20
140.825670
 30
0.0
 10
70.494909
 20
140.825670
 30
0.0
  0
SPLINE
  5
229
100
AcDbEntity
  8
0
 62
7
100
AcDbSpline
 70
8
 71
3
 72
8
 73
4
 74
0
 40
0
 40
0
 40
0
 40
0
 40
1
 40
1
 40
1
 40
1
 10
69.540927
 20
134.740253
 30
0.0
 10
66.260755
 20
134.522461
 30
0.0
 10
66.067625
 20
133.886570
 30
0.0
 10
68.361285
 20
130.856223
 30
0.0
  0
SPLINE
  5
22a
100
AcDbEntity
  8
0
 62
7
100
AcDbSpline
 70
8
 71
3
 72
8
 73
4
 74
0
 40
0
 40
0
 40
0
 40
0
 40
1
 40
1
 40
1
 40
1
 10
68.361285
 20
130.856223
 30
0.0
 10
69.083343
 20
129.902252
 30
0.0
 10
69.626128
 20
129.073741
 30
0.0
 10
69.567473
 20
129.015088
 30
0.0
  0
SPLINE
  5
22b
100
AcDbEntity
  8
0
 62
7
100
AcDbSpline
 70
8
 71
3
 72
8
 73
4
 74
0
 40
0
 40
0
 40
0
 40
0
 40
1
 40
1
 40
1
 40
1
 10
69.567473
 20
129.015088
 30
0.0
 10
69.508820
 20
128.956435
 30
0.0
 10
68.877910
 20
129.030592
 30
0.0
 10
68.165451
 20
129.179868
 30
0.0
  0
SPLINE
  5
22c
100
AcDbEntity
  8
0
 62
7
100
AcDbSpline
 70
8
 71
3
 72
8
 73
4
 74
0
 40
0
 40
0
 40
0
 40
0
 40
1
 40
1
 40
1
 40
1
 10
68.165451
 20
129.179868
 30
0.0
 10
66.275400
 20
129.575891
 30
0.0
 10
65.304723
 20
129.242756
 30
0.0
 10
65.198715
 20
128.161693
 30
0.0
  0
SPLINE
  5
22d
100
AcDbEntity
  8
0
 62
7
100
AcDbSpline
 70
8
 71
3
 72
8
 73
4
 74
0
 40
0
 40
0
 40
0
 40
0
 40
1
 40
1
 40
1
 40
1
 10
65.198715
 20
128.161693
 30
0.0
 10
65.108667
 20
127.243411
 30
0.0
 10
65.986022
 20
125.473568
 30
0.0
 10
66.974940
 20
124.578613
 30
0.0
  0
SPLINE
  5
22e
100
AcDbEntity
  8
0
 62
7
100
AcDbSpline
 70
8
 71
3
 72
8
 73
4
 74
0
 40
0
 40
0
 40
0
 40
0
 40
1
 40
1
 40
1
 40
1
 10
66.974940
 20
124.578613
 30
0.0
 10
67.281063
 20
124.301573
 30
0.0
 10
67.531528
 20
123.996463
 30
0.0
 10
67.531528
 20
123.900591
 30
0.0
  0
SPLINE
  5
22f
100
AcDbEntity
  8
0
 62
7
100
AcDbSpline
 70
8
 71
3
 72
8
 73
4
 74
0
 40
0
 40
0
 40
0
 40
0
 40
1
 40
1
 40
1
 40
1
 10
67.531528
 20
123.900591
 30
0.0
 10
67.531528
 20
123.804720
 30
0.0
 10
66.817999
 20
123.777891
 30
0.0
 10
65.945912
 20
123.840973
 30
0.0
  0
SPLINE
  5
230
100
AcDbEntity
  8
0
 62
7
100
AcDbSpline
 70
8
 71
3
 72
8
 73
4
 74
0
 40
0
 40
0
 40
0
 40
0
 40
1
 40
1
 40
1
 40
1
 10
65.945912
 20
123.840973
 30
0.0
 10
64.770643
 20
123.925984
 30
0.0
 10
64.188626
 20
123.843090
 30
0.0
 10
63.696953
 20
123.521025
 30
0.0
  0
SPLINE
  5
231
100
AcDbEntity
  8
0
 62
7
100
AcDbSpline
 70
8
 71
3
 72
8
 73
4
 74
0
 40
0
 40
0
 40
0
 40
0
 40
1
 40
1
 40
1
 40
1
 10
63.696953
 20
123.521025
 30
0.0
 10
62.866553
 20
122.976926
 30
0.0
 10
62.866812
 20
122.475466
 30
0.0
 10
63.698276
 20
121.021060
 30
0.0
  0
SPLINE
  5
232
100
AcDbEntity
  8
0
 62
7
100
AcDbSpline
 70
8
 71
3
 72
8
 73
4
 74
0
 40
0
 40
0
 40
0
 40
0
 40
1
 40
1
 40
1
 40
1
 10
63.698276
 20
121.021060
 30
0.0
 10
64.528152
 20
119.569389
 30
0.0
 10
64.522321
 20
119.472874
 30
0.0
 10
63.592366
 20
119.268624
 30
0.0
  0
SPLINE
  5
233
100
AcDbEntity
  8
0
 62
7
100
AcDbSpline
 70
8
 71
3
 72
8
 73
4
 74
0
 40
0
 40
0
 40
0
 40
0
 40
1
 40
1
 40
1
 40
1
 10
63.592366
 20
119.268624
 30
0.0
 10
62.166331
 20
118.955413
 30
0.0
 10
60.402922
 20
116.794325
 30
0.0
 10
59.728936
 20
114.533918
 30
0.0
  0
LWPOLYLINE
  5
234
100
AcDbEntity
  8
0
 62
7
100
AcDbPolyline
 90
3
 70
0
 10
70.051642
 20
136.850607
 30
0.0
 10
71.533372
 20
134.872545
 30
0.0
 10
69.540927
 20
134.740253
 30
0.0
  0
SPLINE
  5
235
100
AcDbEntity
  8
0
 62
7
100
AcDbSpline
 70
8
 71
3
 72
8
 73
4
 74
0
 40
0
 40
0
 40
0
 40
0
 40
1
 40
1
 40
1
 40
1
 10
52.075210
 20
116.254625
 30
0.0
 10
52.319028
 20
116.649135
 30
0.0
 10
54.603036
 20
118.071434
 30
0.0
 10
54.992744
 20
118.071434
 30
0.0
  0
SPLINE
  5
236
100
AcDbEntity
  8
0
 62
7
100
AcDbSpline
 70
8
 71
3
 72
8
 73
4
 74
0
 40
0
 40
0
 40
0
 40
0
 40
1
 40
1
 40
1
 40
1
 10
54.992744
 20
118.071434
 30
0.0
 10
55.215629
 20
118.071434
 30
0.0
 10
55.254173
 20
117.847168
 30
0.0
 10
55.117799
 20
117.343830
 30
0.0
  0
SPLINE
  5
237
100
AcDbEntity
  8
0
 62
7
100
AcDbSpline
 70
8
 71
3
 72
8
 73
4
 74
0
 40
0
 40
0
 40
0
 40
0
 40
1
 40
1
 40
1
 40
1
 10
55.117799
 20
117.343830
 30
0.0
 10
54.971511
 20
116.803898
 30
0.0
 10
54.778426
 20
116.636604
 30
0.0
 10
54.369205
 20
116.695231
 30
0.0
  0
SPLINE
  5
238
100
AcDbEntity
  8
0
 62
7
100
AcDbSpline
 70
8
 71
3
 72
8
 73
4
 74
0
 40
0
 40
0
 40
0
 40
0
 40
1
 40
1
 40
1
 40
1
 10
54.369205
 20
116.695231
 30
0.0
 10
54.065906
 20
116.738680
 30
0.0
 10
53.386596
 20
116.594086
 30
0.0
 10
52.859630
 20
116.373905
 30
0.0
  0
SPLINE
  5
239
100
AcDbEntity
  8
0
 62
7
100
AcDbSpline
 70
8
 71
3
 72
8
 73
4
 74
0
 40
0
 40
0
 40
0
 40
0
 40
1
 40
1
 40
1
 40
1
 10
52.859630
 20
116.373905
 30
0.0
 10
52.332665
 20
116.153726
 30
0.0
 10
51.979677
 20
116.100050
 30
0.0
 10
52.075210
 20
116.254625
 30
0.0
  0
LWPOLYLINE
  5
23a
100
AcDbEntity
  8
0
 62
7
100
AcDbPolyline
 90
4
 70
0
 10
59.728936
 20
114.533918
 30
0.0
 10
59.423596
 20
113.509875
 30
0.0
 10
58.820997
 20
115.162558
 30
0.0
 10
58.820984
 20
115.162489
 30
0.0
  0
SPLINE
  5
23b
100
AcDbEntity
  8
0
 62
7
100
AcDbSpline
 70
8
 71
3
 72
8
 73
4
 74
0
 40
0
 40
0
 40
0
 40
0
 40
1
 40
1
 40
1
 40
1
 10
66.076325
 20
116.219351
 30
0.0
 10
65.785283
 20
116.344417
 30
0.0
 10
65.174090
 20
116.455111
 30
0.0
 10
64.718121
 20
116.465337
 30
0.0
  0
SPLINE
  5
23c
100
AcDbEntity
  8
0
 62
7
100
AcDbSpline
 70
8
 71
3
 72
8
 73
4
 74
0
 40
0
 40
0
 40
0
 40
0
 40
1
 40
1
 40
1
 40
1
 10
64.718121
 20
116.465337
 30
0.0
 10
64.094199
 20
116.479333
 30
0.0
 10
63.851314
 20
116.628365
 30
0.0
 10
63.736426
 20
117.067692
 30
0.0
  0
SPLINE
  5
23d
100
AcDbEntity
  8
0
 62
7
100
AcDbSpline
 70
8
 71
3
 72
8
 73
4
 74
0
 40
0
 40
0
 40
0
 40
0
 40
1
 40
1
 40
1
 40
1
 10
63.736426
 20
117.067692
 30
0.0
 10
63.652466
 20
117.388759
 30
0.0
 10
63.624531
 20
117.692210
 30
0.0
 10
63.674347
 20
117.742028
 30
0.0
  0
SPLINE
  5
23e
100
AcDbEntity
  8
0
 62
7
100
AcDbSpline
 70
8
 71
3
 72
8
 73
4
 74
0
 40
0
 40
0
 40
0
 40
0
 40
1
 40
1
 40
1
 40
1
 10
63.674347
 20
117.742028
 30
0.0
 10
63.908869
 20
117.976549
 30
0.0
 10
65.177170
 20
117.424240
 30
0.0
 10
65.979016
 20
116.738408
 30
0.0
  0
SPLINE
  5
23f
100
AcDbEntity
  8
0
 62
7
100
AcDbSpline
 70
8
 71
3
 72
8
 73
4
 74
0
 40
0
 40
0
 40
0
 40
0
 40
1
 40
1
 40
1
 40
1
 10
65.979016
 20
116.738408
 30
0.0
 10
66.919134
 20
115.934313
 30
0.0
 10
66.934858
 20
115.850427
 30
0.0
 10
66.076325
 20
116.219351
 30
0.0
  0
LWPOLYLINE
  5
240
100
AcDbEntity
  8
0
 62
7
100
AcDbPolyline
 90
1
 70
1
 10
52.075210
 20
116.254625
 30
0.0
  0
SPLINE
  5
241
100
AcDbEntity
  8
0
 62
7
100
AcDbSpline
 70
8
 71
3
 72
8
 73
4
 74
0
 40
0
 40
0
 40
0
 40
0
 40
1
 40
1
 40
1
 40
1
 10
37.579615
 20
123.043207
 30
0.0
 10
35.019742
 20
124.915411
 30
0.0
 10
33.651838
 20
128.428848
 30
0.0
 10
33.695151
 20
133.020393
 30
0.0
  0
SPLINE
  5
242
100
AcDbEntity
  8
0
 62
7
100
AcDbSpline
 70
8
 71
3
 72
8
 73
4
 74
0
 40
0
 40
0
 40
0
 40
0
 40
1
 40
1
 40
1
 40
1
 10
33.695151
 20
133.020393
 30
0.0
 10
33.718116
 20
135.455933
 30
0.0
 10
34.110308
 20
137.754603
 30
0.0
 10
34.169136
 20
135.798518
 30
0.0
  0
SPLINE
  5
243
100
AcDbEntity
  8
0
 62
7
100
AcDbSpline
 70
8
 71
3
 72
8
 73
4
 74
0
 40
0
 40
0
 40
0
 40
0
 40
1
 40
1
 40
1
 40
1
 10
34.169136
 20
135.798518
 30
0.0
 10
34.213231
 20
134.332258
 30
0.0
 10
34.695257
 20
132.937679
 30
0.0
 10
35.305767
 20
132.510062
 30
0.0
  0
SPLINE
  5
244
100
AcDbEntity
  8
0
 62
7
100
AcDbSpline
 70
8
 71
3
 72
8
 73
4
 74
0
 40
0
 40
0
 40
0
 40
0
 40
1
 40
1
 40
1
 40
1
 10
35.305767
 20
132.510062
 30
0.0
 10
35.614869
 20
132.293558
 30
0.0
 10
35.960375
 20
132.173652
 30
0.0
 10
36.073562
 20
132.243605
 30
0.0
  0
SPLINE
  5
245
100
AcDbEntity
  8
0
 62
7
100
AcDbSpline
 70
8
 71
3
 72
8
 73
4
 74
0
 40
0
 40
0
 40
0
 40
0
 40
1
 40
1
 40
1
 40
1
 10
36.073562
 20
132.243605
 30
0.0
 10
36.186748
 20
132.313558
 30
0.0
 10
36.214288
 20
131.969835
 30
0.0
 10
36.134762
 20
131.479777
 30
0.0
  0
SPLINE
  5
246
100
AcDbEntity
  8
0
 62
7
100
AcDbSpline
 70
8
 71
3
 72
8
 73
4
 74
0
 40
0
 40
0
 40
0
 40
0
 40
1
 40
1
 40
1
 40
1
 10
36.134762
 20
131.479777
 30
0.0
 10
35.846044
 20
129.700602
 30
0.0
 10
37.230569
 20
128.125601
 30
0.0
 10
39.083298
 20
128.125601
 30
0.0
  0
SPLINE
  5
247
100
AcDbEntity
  8
0
 62
7
100
AcDbSpline
 70
8
 71
3
 72
8
 73
4
 74
0
 40
0
 40
0
 40
0
 40
0
 40
1
 40
1
 40
1
 40
1
 10
39.083298
 20
128.125601
 30
0.0
 10
41.031610
 20
128.125601
 30
0.0
 10
41.842081
 20
128.555353
 30
0.0
 10
44.223826
 20
130.851362
 30
0.0
  0
SPLINE
  5
248
100
AcDbEntity
  8
0
 62
7
100
AcDbSpline
 70
8
 71
3
 72
8
 73
4
 74
0
 40
0
 40
0
 40
0
 40
0
 40
1
 40
1
 40
1
 40
1
 10
44.223826
 20
130.851362
 30
0.0
 10
46.717553
 20
133.255319
 30
0.0
 10
48.196365
 20
134.044140
 30
0.0
 10
49.937196
 20
133.898957
 30
0.0
  0
SPLINE
  5
249
100
AcDbEntity
  8
0
 62
7
100
AcDbSpline
 70
8
 71
3
 72
8
 73
4
 74
0
 40
0
 40
0
 40
0
 40
0
 40
1
 40
1
 40
1
 40
1
 10
49.937196
 20
133.898957
 30
0.0
 10
51.196002
 20
133.793973
 30
0.0
 10
51.307854
 20
133.498807
 30
0.0
 10
50.527635
 20
132.340858
 30
0.0
  0
SPLINE
  5
24a
100
AcDbEntity
  8
0
 62
7
100
AcDbSpline
 70
8
 71
3
 72
8
 73
4
 74
0
 40
0
 40
0
 40
0
 40
0
 40
1
 40
1
 40
1
 40
1
 10
50.527635
 20
132.340858
 30
0.0
 10
50.093383
 20
131.696370
 30
0.0
 10
49.215519
 20
131.083045
 30
0.0
 10
47.502448
 20
130.227290
 30
0.0
  0
SPLINE
  5
24b
100
AcDbEntity
  8
0
 62
7
100
AcDbSpline
 70
8
 71
3
 72
8
 73
4
 74
0
 40
0
 40
0
 40
0
 40
0
 40
1
 40
1
 40
1
 40
1
 10
47.502448
 20
130.227290
 30
0.0
 10
44.671813
 20
128.813261
 30
0.0
 10
43.078625
 20
127.575199
 30
0.0
 10
41.736042
 20
125.746237
 30
0.0
  0
SPLINE
  5
24c
100
AcDbEntity
  8
0
 62
7
100
AcDbSpline
 70
8
 71
3
 72
8
 73
4
 74
0
 40
0
 40
0
 40
0
 40
0
 40
1
 40
1
 40
1
 40
1
 10
41.736042
 20
125.746237
 30
0.0
 10
40.846695
 20
124.534705
 30
0.0
 10
40.672009
 20
124.421434
 30
0.0
 10
39.692911
 20
124.421434
 30
0.0
  0
LWPOLYLINE
  5
24d
100
AcDbEntity
  8
0
 62
7
100
AcDbPolyline
 90
1
 70
1
 10
66.076325
 20
116.219351
 30
0.0
  0
SPLINE
  5
24e
100
AcDbEntity
  8
0
 62
7
100
AcDbSpline
 70
8
 71
3
 72
8
 73
4
 74
0
 40
0
 40
0
 40
0
 40
0
 40
1
 40
1
 40
1
 40
1
 10
38.764226
 20
123.363101
 30
0.0
 10
38.842302
 20
122.781018
 30
0.0
 10
38.828213
 20
122.309644
 30
0.0
 10
38.732918
 20
122.315602
 30
0.0
  0
SPLINE
  5
24f
100
AcDbEntity
  8
0
 62
7
100
AcDbSpline
 70
8
 71
3
 72
8
 73
4
 74
0
 40
0
 40
0
 40
0
 40
0
 40
1
 40
1
 40
1
 40
1
 10
38.732918
 20
122.315602
 30
0.0
 10
38.637625
 20
122.321555
 30
0.0
 10
38.118640
 20
122.648983
 30
0.0
 10
37.579615
 20
123.043207
 30
0.0
  0
LWPOLYLINE
  5
250
100
AcDbEntity
  8
0
 62
7
100
AcDbPolyline
 90
3
 70
0
 10
39.692911
 20
124.421434
 30
0.0
 10
38.622274
 20
124.421434
 30
0.0
 10
38.764226
 20
123.363101
 30
0.0
  0
SPLINE
  5
251
100
AcDbEntity
  8
0
 62
7
100
AcDbSpline
 70
8
 71
3
 72
8
 73
4
 74
0
 40
0
 40
0
 40
0
 40
0
 40
1
 40
1
 40
1
 40
1
 10
79.944696
 20
123.032359
 30
0.0
 10
80.252409
 20
124.122458
 30
0.0
 10
80.032416
 20
124.421421
 30
0.0
 10
78.922552
 20
124.421421
 30
0.0
  0
SPLINE
  5
252
100
AcDbEntity
  8
0
 62
7
100
AcDbSpline
 70
8
 71
3
 72
8
 73
4
 74
0
 40
0
 40
0
 40
0
 40
0
 40
1
 40
1
 40
1
 40
1
 10
78.922552
 20
124.421421
 30
0.0
 10
78.050948
 20
124.421421
 30
0.0
 10
77.826034
 20
124.560261
 30
0.0
 10
77.174423
 20
125.500537
 30
0.0
  0
SPLINE
  5
253
100
AcDbEntity
  8
0
 62
7
100
AcDbSpline
 70
8
 71
3
 72
8
 73
4
 74
0
 40
0
 40
0
 40
0
 40
0
 40
1
 40
1
 40
1
 40
1
 10
77.174423
 20
125.500537
 30
0.0
 10
75.935118
 20
127.288854
 30
0.0
 10
73.953600
 20
128.860262
 30
0.0
 10
71.272172
 20
130.181220
 30
0.0
  0
SPLINE
  5
254
100
AcDbEntity
  8
0
 62
7
100
AcDbSpline
 70
8
 71
3
 72
8
 73
4
 74
0
 40
0
 40
0
 40
0
 40
0
 40
1
 40
1
 40
1
 40
1
 10
71.272172
 20
130.181220
 30
0.0
 10
69.431170
 20
131.088156
 30
0.0
 10
68.566191
 20
131.680469
 30
0.0
 10
68.131507
 20
132.331852
 30
0.0
  0
SPLINE
  5
255
100
AcDbEntity
  8
0
 62
7
100
AcDbSpline
 70
8
 71
3
 72
8
 73
4
 74
0
 40
0
 40
0
 40
0
 40
0
 40
1
 40
1
 40
1
 40
1
 10
68.131507
 20
132.331852
 30
0.0
 10
67.417291
 20
133.402123
 30
0.0
 10
67.683877
 20
133.946421
 30
0.0
 10
68.922297
 20
133.946421
 30
0.0
  0
SPLINE
  5
256
100
AcDbEntity
  8
0
 62
7
100
AcDbSpline
 70
8
 71
3
 72
8
 73
4
 74
0
 40
0
 40
0
 40
0
 40
0
 40
1
 40
1
 40
1
 40
1
 10
68.922297
 20
133.946421
 30
0.0
 10
70.761537
 20
133.946421
 30
0.0
 10
71.852015
 20
133.344044
 30
0.0
 10
74.314558
 20
130.967753
 30
0.0
  0
SPLINE
  5
257
100
AcDbEntity
  8
0
 62
7
100
AcDbSpline
 70
8
 71
3
 72
8
 73
4
 74
0
 40
0
 40
0
 40
0
 40
0
 40
1
 40
1
 40
1
 40
1
 10
74.314558
 20
130.967753
 30
0.0
 10
76.818434
 20
128.551585
 30
0.0
 10
77.606964
 20
128.125601
 30
0.0
 10
79.575602
 20
128.125601
 30
0.0
  0
SPLINE
  5
258
100
AcDbEntity
  8
0
 62
7
100
AcDbSpline
 70
8
 71
3
 72
8
 73
4
 74
0
 40
0
 40
0
 40
0
 40
0
 40
1
 40
1
 40
1
 40
1
 10
79.575602
 20
128.125601
 30
0.0
 10
81.442422
 20
128.125601
 30
0.0
 10
82.813025
 20
129.699570
 30
0.0
 10
82.519779
 20
131.506629
 30
0.0
  0
SPLINE
  5
259
100
AcDbEntity
  8
0
 62
7
100
AcDbSpline
 70
8
 71
3
 72
8
 73
4
 74
0
 40
0
 40
0
 40
0
 40
0
 40
1
 40
1
 40
1
 40
1
 10
82.519779
 20
131.506629
 30
0.0
 10
82.437856
 20
132.011457
 30
0.0
 10
82.440923
 20
132.354405
 30
0.0
 10
82.526606
 20
132.268735
 30
0.0
  0
SPLINE
  5
25a
100
AcDbEntity
  8
0
 62
7
100
AcDbSpline
 70
8
 71
3
 72
8
 73
4
 74
0
 40
0
 40
0
 40
0
 40
0
 40
1
 40
1
 40
1
 40
1
 10
82.526606
 20
132.268735
 30
0.0
 10
82.839330
 20
131.956011
 30
0.0
 10
83.725533
 20
132.689108
 30
0.0
 10
84.090402
 20
133.562357
 30
0.0
  0
SPLINE
  5
25b
100
AcDbEntity
  8
0
 62
7
100
AcDbSpline
 70
8
 71
3
 72
8
 73
4
 74
0
 40
0
 40
0
 40
0
 40
0
 40
1
 40
1
 40
1
 40
1
 10
84.090402
 20
133.562357
 30
0.0
 10
84.296364
 20
134.055294
 30
0.0
 10
84.472423
 20
134.968446
 30
0.0
 10
84.481649
 20
135.591582
 30
0.0
  0
SPLINE
  5
25c
100
AcDbEntity
  8
0
 62
7
100
AcDbSpline
 70
8
 71
3
 72
8
 73
4
 74
0
 40
0
 40
0
 40
0
 40
0
 40
1
 40
1
 40
1
 40
1
 10
84.481649
 20
135.591582
 30
0.0
 10
84.496942
 20
136.625341
 30
0.0
 10
84.522159
 20
136.666634
 30
0.0
 10
84.769510
 20
136.063101
 30
0.0
  0
SPLINE
  5
25d
100
AcDbEntity
  8
0
 62
7
100
AcDbSpline
 70
8
 71
3
 72
8
 73
4
 74
0
 40
0
 40
0
 40
0
 40
0
 40
1
 40
1
 40
1
 40
1
 10
84.769510
 20
136.063101
 30
0.0
 10
85.228131
 20
134.944075
 30
0.0
 10
84.883731
 20
129.292263
 30
0.0
 10
84.249826
 20
127.534765
 30
0.0
  0
SPLINE
  5
25e
100
AcDbEntity
  8
0
 62
7
100
AcDbSpline
 70
8
 71
3
 72
8
 73
4
 74
0
 40
0
 40
0
 40
0
 40
0
 40
1
 40
1
 40
1
 40
1
 10
84.249826
 20
127.534765
 30
0.0
 10
83.538534
 20
125.562715
 30
0.0
 10
82.384990
 20
123.908495
 30
0.0
 10
81.100242
 20
123.018166
 30
0.0
  0
SPLINE
  5
25f
100
AcDbEntity
  8
0
 62
7
100
AcDbSpline
 70
8
 71
3
 72
8
 73
4
 74
0
 40
0
 40
0
 40
0
 40
0
 40
1
 40
1
 40
1
 40
1
 10
81.100242
 20
123.018166
 30
0.0
 10
79.814065
 20
122.126843
 30
0.0
 10
79.689523
 20
122.128375
 30
0.0
 10
79.944706
 20
123.032374
 30
0.0
  0
LWPOLYLINE
  5
260
100
AcDbEntity
  8
0
 62
7
100
AcDbPolyline
 90
1
 70
1
 10
37.579615
 20
123.043207
 30
0.0
  0
SPLINE
  5
261
100
AcDbEntity
  8
0
 62
7
100
AcDbSpline
 70
8
 71
3
 72
8
 73
4
 74
0
 40
0
 40
0
 40
0
 40
0
 40
1
 40
1
 40
1
 40
1
 10
38.194197
 20
132.092975
 30
0.0
 10
36.963305
 20
133.792172
 30
0.0
 10
36.482308
 20
136.062913
 30
0.0
 10
36.642241
 20
139.419597
 30
0.0
  0
SPLINE
  5
262
100
AcDbEntity
  8
0
 62
7
100
AcDbSpline
 70
8
 71
3
 72
8
 73
4
 74
0
 40
0
 40
0
 40
0
 40
0
 40
1
 40
1
 40
1
 40
1
 10
36.642241
 20
139.419597
 30
0.0
 10
36.717221
 20
140.993265
 30
0.0
 10
36.935373
 20
142.935653
 30
0.0
 10
37.127024
 20
143.736018
 30
0.0
  0
LWPOLYLINE
  5
263
100
AcDbEntity
  8
0
 62
7
100
AcDbPolyline
 90
1
 70
1
 10
79.944706
 20
123.032374
 30
0.0
  0
SPLINE
  5
264
100
AcDbEntity
  8
0
 62
7
100
AcDbSpline
 70
8
 71
3
 72
8
 73
4
 74
0
 40
0
 40
0
 40
0
 40
0
 40
1
 40
1
 40
1
 40
1
 10
37.649983
 20
143.688046
 30
0.0
 10
37.745958
 20
142.861297
 30
0.0
 10
38.069480
 20
141.769629
 30
0.0
 10
38.368920
 20
141.262119
 30
0.0
  0
SPLINE
  5
265
100
AcDbEntity
  8
0
 62
7
100
AcDbSpline
 70
8
 71
3
 72
8
 73
4
 74
0
 40
0
 40
0
 40
0
 40
0
 40
1
 40
1
 40
1
 40
1
 10
38.368920
 20
141.262119
 30
0.0
 10
38.905167
 20
140.353248
 30
0.0
 10
38.905720
 20
140.332463
 30
0.0
 10
38.405776
 20
139.880020
 30
0.0
  0
SPLINE
  5
266
100
AcDbEntity
  8
0
 62
7
100
AcDbSpline
 70
8
 71
3
 72
8
 73
4
 74
0
 40
0
 40
0
 40
0
 40
0
 40
1
 40
1
 40
1
 40
1
 10
38.405776
 20
139.880020
 30
0.0
 10
37.641832
 20
139.188661
 30
0.0
 10
37.736822
 20
137.815947
 30
0.0
 10
38.595340
 20
137.140638
 30
0.0
  0
SPLINE
  5
267
100
AcDbEntity
  8
0
 62
7
100
AcDbSpline
 70
8
 71
3
 72
8
 73
4
 74
0
 40
0
 40
0
 40
0
 40
0
 40
1
 40
1
 40
1
 40
1
 10
38.595340
 20
137.140638
 30
0.0
 10
39.834688
 20
136.165767
 30
0.0
 10
41.275590
 20
136.530440
 30
0.0
 10
45.648541
 20
138.925707
 30
0.0
  0
SPLINE
  5
268
100
AcDbEntity
  8
0
 62
7
100
AcDbSpline
 70
8
 71
3
 72
8
 73
4
 74
0
 40
0
 40
0
 40
0
 40
0
 40
1
 40
1
 40
1
 40
1
 10
45.648541
 20
138.925707
 30
0.0
 10
47.145324
 20
139.745564
 30
0.0
 10
48.466282
 20
140.297837
 30
0.0
 10
48.812775
 20
140.248624
 30
0.0
  0
SPLINE
  5
269
100
AcDbEntity
  8
0
 62
7
100
AcDbSpline
 70
8
 71
3
 72
8
 73
4
 74
0
 40
0
 40
0
 40
0
 40
0
 40
1
 40
1
 40
1
 40
1
 10
48.812775
 20
140.248624
 30
0.0
 10
49.700453
 20
140.122545
 30
0.0
 10
49.707440
 20
139.168172
 30
0.0
 10
48.827830
 20
138.191732
 30
0.0
  0
SPLINE
  5
26a
100
AcDbEntity
  8
0
 62
7
100
AcDbSpline
 70
8
 71
3
 72
8
 73
4
 74
0
 40
0
 40
0
 40
0
 40
0
 40
1
 40
1
 40
1
 40
1
 10
48.827830
 20
138.191732
 30
0.0
 10
48.215434
 20
137.511917
 30
0.0
 10
47.630024
 20
137.254726
 30
0.0
 10
45.501113
 20
136.730192
 30
0.0
  0
SPLINE
  5
26b
100
AcDbEntity
  8
0
 62
7
100
AcDbSpline
 70
8
 71
3
 72
8
 73
4
 74
0
 40
0
 40
0
 40
0
 40
0
 40
1
 40
1
 40
1
 40
1
 10
45.501113
 20
136.730192
 30
0.0
 10
42.786845
 20
136.061437
 30
0.0
 10
41.717645
 20
135.487638
 30
0.0
 10
40.809630
 20
134.212446
 30
0.0
  0
SPLINE
  5
26c
100
AcDbEntity
  8
0
 62
7
100
AcDbSpline
 70
8
 71
3
 72
8
 73
4
 74
0
 40
0
 40
0
 40
0
 40
0
 40
1
 40
1
 40
1
 40
1
 10
40.809630
 20
134.212446
 30
0.0
 10
40.506901
 20
133.787301
 30
0.0
 10
40.101904
 20
133.502006
 30
0.0
 10
39.907181
 20
133.576727
 30
0.0
  0
SPLINE
  5
26d
100
AcDbEntity
  8
0
 62
7
100
AcDbSpline
 70
8
 71
3
 72
8
 73
4
 74
0
 40
0
 40
0
 40
0
 40
0
 40
1
 40
1
 40
1
 40
1
 10
39.907181
 20
133.576727
 30
0.0
 10
39.549022
 20
133.714165
 30
0.0
 10
38.691947
 20
133.040707
 30
0.0
 10
38.691947
 20
132.621843
 30
0.0
  0
SPLINE
  5
26e
100
AcDbEntity
  8
0
 62
7
100
AcDbSpline
 70
8
 71
3
 72
8
 73
4
 74
0
 40
0
 40
0
 40
0
 40
0
 40
1
 40
1
 40
1
 40
1
 10
38.691947
 20
132.621843
 30
0.0
 10
38.691947
 20
132.496190
 30
0.0
 10
38.808062
 20
132.087975
 30
0.0
 10
38.949982
 20
131.714700
 30
0.0
  0
SPLINE
  5
26f
100
AcDbEntity
  8
0
 62
7
100
AcDbSpline
 70
8
 71
3
 72
8
 73
4
 74
0
 40
0
 40
0
 40
0
 40
0
 40
1
 40
1
 40
1
 40
1
 10
38.949982
 20
131.714700
 30
0.0
 10
39.315573
 20
130.753123
 30
0.0
 10
39.079009
 20
130.871526
 30
0.0
 10
38.194194
 20
132.092975
 30
0.0
  0
LWPOLYLINE
  5
270
100
AcDbEntity
  8
0
 62
7
100
AcDbPolyline
 90
3
 70
0
 10
37.127024
 20
143.736018
 30
0.0
 10
37.475480
 20
145.191226
 30
0.0
 10
37.649983
 20
143.688046
 30
0.0
  0
SPLINE
  5
271
100
AcDbEntity
  8
0
 62
7
100
AcDbSpline
 70
8
 71
3
 72
8
 73
4
 74
0
 40
0
 40
0
 40
0
 40
0
 40
1
 40
1
 40
1
 40
1
 10
79.853351
 20
132.019331
 30
0.0
 10
80.001226
 20
132.944084
 30
0.0
 10
79.946463
 20
133.145030
 30
0.0
 10
79.478280
 20
133.395593
 30
0.0
  0
SPLINE
  5
272
100
AcDbEntity
  8
0
 62
7
100
AcDbSpline
 70
8
 71
3
 72
8
 73
4
 74
0
 40
0
 40
0
 40
0
 40
0
 40
1
 40
1
 40
1
 40
1
 10
79.478280
 20
133.395593
 30
0.0
 10
79.176756
 20
133.556965
 30
0.0
 10
78.833239
 20
133.657623
 30
0.0
 10
78.714910
 20
133.619277
 30
0.0
  0
SPLINE
  5
273
100
AcDbEntity
  8
0
 62
7
100
AcDbSpline
 70
8
 71
3
 72
8
 73
4
 74
0
 40
0
 40
0
 40
0
 40
0
 40
1
 40
1
 40
1
 40
1
 10
78.714910
 20
133.619277
 30
0.0
 10
78.596580
 20
133.580934
 30
0.0
 10
78.042754
 20
134.054874
 30
0.0
 10
77.484184
 20
134.672483
 30
0.0
  0
SPLINE
  5
274
100
AcDbEntity
  8
0
 62
7
100
AcDbSpline
 70
8
 71
3
 72
8
 73
4
 74
0
 40
0
 40
0
 40
0
 40
0
 40
1
 40
1
 40
1
 40
1
 10
77.484184
 20
134.672483
 30
0.0
 10
76.436638
 20
135.830749
 30
0.0
 10
74.789729
 20
136.531482
 30
0.0
 10
72.035773
 20
136.990685
 30
0.0
  0
SPLINE
  5
275
100
AcDbEntity
  8
0
 62
7
100
AcDbSpline
 70
8
 71
3
 72
8
 73
4
 74
0
 40
0
 40
0
 40
0
 40
0
 40
1
 40
1
 40
1
 40
1
 10
72.035773
 20
136.990685
 30
0.0
 10
70.584817
 20
137.232623
 30
0.0
 10
69.032665
 20
138.623117
 30
0.0
 10
69.165843
 20
139.561708
 30
0.0
  0
SPLINE
  5
276
100
AcDbEntity
  8
0
 62
7
100
AcDbSpline
 70
8
 71
3
 72
8
 73
4
 74
0
 40
0
 40
0
 40
0
 40
0
 40
1
 40
1
 40
1
 40
1
 10
69.165843
 20
139.561708
 30
0.0
 10
69.313766
 20
140.604211
 30
0.0
 10
70.268399
 20
140.423768
 30
0.0
 10
73.417552
 20
138.758057
 30
0.0
  0
SPLINE
  5
277
100
AcDbEntity
  8
0
 62
7
100
AcDbSpline
 70
8
 71
3
 72
8
 73
4
 74
0
 40
0
 40
0
 40
0
 40
0
 40
1
 40
1
 40
1
 40
1
 10
73.417552
 20
138.758057
 30
0.0
 10
76.967644
 20
136.880269
 30
0.0
 10
78.112329
 20
136.483265
 30
0.0
 10
79.322078
 20
136.710214
 30
0.0
  0
SPLINE
  5
278
100
AcDbEntity
  8
0
 62
7
100
AcDbSpline
 70
8
 71
3
 72
8
 73
4
 74
0
 40
0
 40
0
 40
0
 40
0
 40
1
 40
1
 40
1
 40
1
 10
79.322078
 20
136.710214
 30
0.0
 10
80.926855
 20
137.011272
 30
0.0
 10
81.406151
 20
138.947213
 30
0.0
 10
80.136741
 20
140.000731
 30
0.0
  0
SPLINE
  5
279
100
AcDbEntity
  8
0
 62
7
100
AcDbSpline
 70
8
 71
3
 72
8
 73
4
 74
0
 40
0
 40
0
 40
0
 40
0
 40
1
 40
1
 40
1
 40
1
 10
80.136741
 20
140.000731
 30
0.0
 10
79.764094
 20
140.310000
 30
0.0
 10
79.779151
 20
140.421720
 30
0.0
 10
80.285852
 20
141.107070
 30
0.0
  0
SPLINE
  5
27a
100
AcDbEntity
  8
0
 62
7
100
AcDbSpline
 70
8
 71
3
 72
8
 73
4
 74
0
 40
0
 40
0
 40
0
 40
0
 40
1
 40
1
 40
1
 40
1
 10
80.285852
 20
141.107070
 30
0.0
 10
80.671718
 20
141.628977
 30
0.0
 10
80.899040
 20
142.434940
 30
0.0
 10
81.006648
 20
143.662606
 30
0.0
  0
LWPOLYLINE
  5
27b
100
AcDbEntity
  8
0
 62
7
100
AcDbPolyline
 90
1
 70
1
 10
38.194194
 20
132.092975
 30
0.0
  0
SPLINE
  5
27c
100
AcDbEntity
  8
0
 62
7
100
AcDbSpline
 70
8
 71
3
 72
8
 73
4
 74
0
 40
0
 40
0
 40
0
 40
0
 40
1
 40
1
 40
1
 40
1
 10
81.557577
 20
143.736018
 30
0.0
 10
81.802989
 20
142.664127
 30
0.0
 10
81.950192
 20
140.670587
 30
0.0
 10
81.948322
 20
138.444351
 30
0.0
  0
SPLINE
  5
27d
100
AcDbEntity
  8
0
 62
7
100
AcDbSpline
 70
8
 71
3
 72
8
 73
4
 74
0
 40
0
 40
0
 40
0
 40
0
 40
1
 40
1
 40
1
 40
1
 10
81.948322
 20
138.444351
 30
0.0
 10
81.945147
 20
134.653248
 30
0.0
 10
81.633946
 20
133.420260
 30
0.0
 10
80.229766
 20
131.635135
 30
0.0
  0
LWPOLYLINE
  5
27e
100
AcDbEntity
  8
0
 62
7
100
AcDbPolyline
 90
3
 70
0
 10
81.006648
 20
143.662606
 30
0.0
 10
81.163829
 20
145.455809
 30
0.0
 10
81.557577
 20
143.736018
 30
0.0
  0
SPLINE
  5
27f
100
AcDbEntity
  8
0
 62
7
100
AcDbSpline
 70
8
 71
3
 72
8
 73
4
 74
0
 40
0
 40
0
 40
0
 40
0
 40
1
 40
1
 40
1
 40
1
 10
17.859394
 20
144.265184
 30
0.0
 10
15.996910
 20
148.060063
 30
0.0
 10
15.577532
 20
149.775344
 30
0.0
 10
15.562922
 20
153.657893
 30
0.0
  0
SPLINE
  5
280
100
AcDbEntity
  8
0
 62
7
100
AcDbSpline
 70
8
 71
3
 72
8
 73
4
 74
0
 40
0
 40
0
 40
0
 40
0
 40
1
 40
1
 40
1
 40
1
 10
15.562922
 20
153.657893
 30
0.0
 10
15.549269
 20
157.285941
 30
0.0
 10
15.949544
 20
159.147036
 30
0.0
 10
17.407292
 20
162.233369
 30
0.0
  0
SPLINE
  5
281
100
AcDbEntity
  8
0
 62
7
100
AcDbSpline
 70
8
 71
3
 72
8
 73
4
 74
0
 40
0
 40
0
 40
0
 40
0
 40
1
 40
1
 40
1
 40
1
 10
17.407292
 20
162.233369
 30
0.0
 10
18.357459
 20
164.245047
 30
0.0
 10
20.214577
 20
167.036009
 30
0.0
 10
21.181240
 20
167.905028
 30
0.0
  0
SPLINE
  5
282
100
AcDbEntity
  8
0
 62
7
100
AcDbSpline
 70
8
 71
3
 72
8
 73
4
 74
0
 40
0
 40
0
 40
0
 40
0
 40
1
 40
1
 40
1
 40
1
 10
21.181240
 20
167.905028
 30
0.0
 10
21.718948
 20
168.388419
 30
0.0
 10
21.726859
 20
168.382564
 30
0.0
 10
21.896083
 20
167.375861
 30
0.0
  0
SPLINE
  5
283
100
AcDbEntity
  8
0
 62
7
100
AcDbSpline
 70
8
 71
3
 72
8
 73
4
 74
0
 40
0
 40
0
 40
0
 40
0
 40
1
 40
1
 40
1
 40
1
 10
21.896083
 20
167.375861
 30
0.0
 10
22.368227
 20
164.567111
 30
0.0
 10
23.459199
 20
162.455902
 30
0.0
 10
25.486411
 20
160.427993
 30
0.0
  0
SPLINE
  5
284
100
AcDbEntity
  8
0
 62
7
100
AcDbSpline
 70
8
 71
3
 72
8
 73
4
 74
0
 40
0
 40
0
 40
0
 40
0
 40
1
 40
1
 40
1
 40
1
 10
25.486411
 20
160.427993
 30
0.0
 10
27.829862
 20
158.083734
 30
0.0
 10
30.224817
 20
156.910117
 30
0.0
 10
34.723200
 20
155.901623
 30
0.0
  0
SPLINE
  5
285
100
AcDbEntity
  8
0
 62
7
100
AcDbSpline
 70
8
 71
3
 72
8
 73
4
 74
0
 40
0
 40
0
 40
0
 40
0
 40
1
 40
1
 40
1
 40
1
 10
34.723200
 20
155.901623
 30
0.0
 10
37.024971
 20
155.385590
 30
0.0
 10
39.096386
 20
154.454363
 30
0.0
 10
42.672675
 20
152.327856
 30
0.0
  0
SPLINE
  5
286
100
AcDbEntity
  8
0
 62
7
100
AcDbSpline
 70
8
 71
3
 72
8
 73
4
 74
0
 40
0
 40
0
 40
0
 40
0
 40
1
 40
1
 40
1
 40
1
 10
42.672675
 20
152.327856
 30
0.0
 10
46.086205
 20
150.298126
 30
0.0
 10
46.558682
 20
150.121083
 30
0.0
 10
47.104707
 20
150.667109
 30
0.0
  0
SPLINE
  5
287
100
AcDbEntity
  8
0
 62
7
100
AcDbSpline
 70
8
 71
3
 72
8
 73
4
 74
0
 40
0
 40
0
 40
0
 40
0
 40
1
 40
1
 40
1
 40
1
 10
47.104707
 20
150.667109
 30
0.0
 10
47.728598
 20
151.290999
 30
0.0
 10
48.744391
 20
149.124905
 30
0.0
 10
48.742055
 20
147.175601
 30
0.0
  0
SPLINE
  5
288
100
AcDbEntity
  8
0
 62
7
100
AcDbSpline
 70
8
 71
3
 72
8
 73
4
 74
0
 40
0
 40
0
 40
0
 40
0
 40
1
 40
1
 40
1
 40
1
 10
48.742055
 20
147.175601
 30
0.0
 10
48.740467
 20
145.896274
 30
0.0
 10
47.647162
 20
143.666943
 30
0.0
 10
46.685372
 20
142.982087
 30
0.0
  0
SPLINE
  5
289
100
AcDbEntity
  8
0
 62
7
100
AcDbSpline
 70
8
 71
3
 72
8
 73
4
 74
0
 40
0
 40
0
 40
0
 40
0
 40
1
 40
1
 40
1
 40
1
 10
46.685372
 20
142.982087
 30
0.0
 10
45.641432
 20
142.238738
 30
0.0
 10
43.556290
 20
142.160614
 30
0.0
 10
43.857042
 20
142.876122
 30
0.0
  0
SPLINE
  5
28a
100
AcDbEntity
  8
0
 62
7
100
AcDbSpline
 70
8
 71
3
 72
8
 73
4
 74
0
 40
0
 40
0
 40
0
 40
0
 40
1
 40
1
 40
1
 40
1
 10
43.857042
 20
142.876122
 30
0.0
 10
44.833566
 20
145.199330
 30
0.0
 10
43.364764
 20
146.811061
 30
0.0
 10
39.232205
 20
147.950999
 30
0.0
  0
SPLINE
  5
28b
100
AcDbEntity
  8
0
 62
7
100
AcDbSpline
 70
8
 71
3
 72
8
 73
4
 74
0
 40
0
 40
0
 40
0
 40
0
 40
1
 40
1
 40
1
 40
1
 10
39.232205
 20
147.950999
 30
0.0
 10
36.492984
 20
148.706597
 30
0.0
 10
33.638392
 20
148.898388
 30
0.0
 10
30.985997
 20
148.505037
 30
0.0
  0
SPLINE
  5
28c
100
AcDbEntity
  8
0
 62
7
100
AcDbSpline
 70
8
 71
3
 72
8
 73
4
 74
0
 40
0
 40
0
 40
0
 40
0
 40
1
 40
1
 40
1
 40
1
 10
30.985997
 20
148.505037
 30
0.0
 10
28.490355
 20
148.134933
 30
0.0
 10
26.351341
 20
148.117967
 30
0.0
 10
25.424831
 20
148.460926
 30
0.0
  0
SPLINE
  5
28d
100
AcDbEntity
  8
0
 62
7
100
AcDbSpline
 70
8
 71
3
 72
8
 73
4
 74
0
 40
0
 40
0
 40
0
 40
0
 40
1
 40
1
 40
1
 40
1
 10
25.424831
 20
148.460926
 30
0.0
 10
24.814975
 20
148.686673
 30
0.0
 10
24.819274
 20
148.695669
 30
0.0
 10
25.621168
 20
148.871929
 30
0.0
  0
SPLINE
  5
28e
100
AcDbEntity
  8
0
 62
7
100
AcDbSpline
 70
8
 71
3
 72
8
 73
4
 74
0
 40
0
 40
0
 40
0
 40
0
 40
1
 40
1
 40
1
 40
1
 10
25.621168
 20
148.871929
 30
0.0
 10
26.524823
 20
149.070557
 30
0.0
 10
27.951012
 20
150.417726
 30
0.0
 10
28.226380
 20
151.332795
 30
0.0
  0
SPLINE
  5
28f
100
AcDbEntity
  8
0
 62
7
100
AcDbSpline
 70
8
 71
3
 72
8
 73
4
 74
0
 40
0
 40
0
 40
0
 40
0
 40
1
 40
1
 40
1
 40
1
 10
28.226380
 20
151.332795
 30
0.0
 10
28.729077
 20
153.003313
 30
0.0
 10
27.055789
 20
153.474793
 30
0.0
 10
24.732769
 20
152.317183
 30
0.0
  0
SPLINE
  5
290
100
AcDbEntity
  8
0
 62
7
100
AcDbSpline
 70
8
 71
3
 72
8
 73
4
 74
0
 40
0
 40
0
 40
0
 40
0
 40
1
 40
1
 40
1
 40
1
 10
24.732769
 20
152.317183
 30
0.0
 10
21.948310
 20
150.929628
 30
0.0
 10
19.929285
 20
147.382047
 30
0.0
 10
19.397250
 20
142.942268
 30
0.0
  0
LWPOLYLINE
  5
291
100
AcDbEntity
  8
0
 62
7
100
AcDbPolyline
 90
3
 70
0
 10
80.229766
 20
131.635135
 30
0.0
 10
79.680194
 20
130.936468
 30
0.0
 10
79.853351
 20
132.019331
 30
0.0
  0
SPLINE
  5
292
100
AcDbEntity
  8
0
 62
7
100
AcDbSpline
 70
8
 71
3
 72
8
 73
4
 74
0
 40
0
 40
0
 40
0
 40
0
 40
1
 40
1
 40
1
 40
1
 10
99.286806
 20
142.677684
 30
0.0
 10
99.262279
 20
145.204471
 30
0.0
 10
97.882321
 20
148.759661
 30
0.0
 10
96.203061
 20
150.622310
 30
0.0
  0
SPLINE
  5
293
100
AcDbEntity
  8
0
 62
7
100
AcDbSpline
 70
8
 71
3
 72
8
 73
4
 74
0
 40
0
 40
0
 40
0
 40
0
 40
1
 40
1
 40
1
 40
1
 10
96.203061
 20
150.622310
 30
0.0
 10
95.119952
 20
151.823703
 30
0.0
 10
92.984913
 20
152.989539
 30
0.0
 10
91.859970
 20
152.993849
 30
0.0
  0
SPLINE
  5
294
100
AcDbEntity
  8
0
 62
7
100
AcDbSpline
 70
8
 71
3
 72
8
 73
4
 74
0
 40
0
 40
0
 40
0
 40
0
 40
1
 40
1
 40
1
 40
1
 10
91.859970
 20
152.993849
 30
0.0
 10
89.675264
 20
153.002210
 30
0.0
 10
90.319762
 20
150.108015
 30
0.0
 10
92.744335
 20
149.022504
 30
0.0
  0
LWPOLYLINE
  5
295
100
AcDbEntity
  8
0
 62
7
100
AcDbPolyline
 90
3
 70
0
 10
19.397250
 20
142.942268
 30
0.0
 10
19.222866
 20
141.487059
 30
0.0
 10
17.859394
 20
144.265184
 30
0.0
  0
SPLINE
  5
296
100
AcDbEntity
  8
0
 62
7
100
AcDbSpline
 70
8
 71
3
 72
8
 73
4
 74
0
 40
0
 40
0
 40
0
 40
0
 40
1
 40
1
 40
1
 40
1
 10
92.938820
 20
148.367827
 30
0.0
 10
91.718006
 20
148.099690
 30
0.0
 10
90.518935
 20
148.135075
 30
0.0
 10
87.697045
 20
148.522507
 30
0.0
  0
SPLINE
  5
297
100
AcDbEntity
  8
0
 62
7
100
AcDbSpline
 70
8
 71
3
 72
8
 73
4
 74
0
 40
0
 40
0
 40
0
 40
0
 40
1
 40
1
 40
1
 40
1
 10
87.697045
 20
148.522507
 30
0.0
 10
85.741611
 20
148.790980
 30
0.0
 10
84.688397
 20
148.798145
 30
0.0
 10
82.771364
 20
148.556020
 30
0.0
  0
SPLINE
  5
298
100
AcDbEntity
  8
0
 62
7
100
AcDbSpline
 70
8
 71
3
 72
8
 73
4
 74
0
 40
0
 40
0
 40
0
 40
0
 40
1
 40
1
 40
1
 40
1
 10
82.771364
 20
148.556020
 30
0.0
 10
76.685413
 20
147.787349
 30
0.0
 10
73.815567
 20
145.797225
 30
0.0
 10
74.771472
 20
143.008413
 30
0.0
  0
SPLINE
  5
299
100
AcDbEntity
  8
0
 62
7
100
AcDbSpline
 70
8
 71
3
 72
8
 73
4
 74
0
 40
0
 40
0
 40
0
 40
0
 40
1
 40
1
 40
1
 40
1
 10
74.771472
 20
143.008413
 30
0.0
 10
74.958676
 20
142.462261
 30
0.0
 10
74.895493
 20
142.413101
 30
0.0
 10
74.006332
 20
142.413101
 30
0.0
  0
SPLINE
  5
29a
100
AcDbEntity
  8
0
 62
7
100
AcDbSpline
 70
8
 71
3
 72
8
 73
4
 74
0
 40
0
 40
0
 40
0
 40
0
 40
1
 40
1
 40
1
 40
1
 10
74.006332
 20
142.413101
 30
0.0
 10
72.155402
 20
142.413101
 30
0.0
 10
70.711192
 20
143.842409
 30
0.0
 10
70.188370
 20
146.191666
 30
0.0
  0
SPLINE
  5
29b
100
AcDbEntity
  8
0
 62
7
100
AcDbSpline
 70
8
 71
3
 72
8
 73
4
 74
0
 40
0
 40
0
 40
0
 40
0
 40
1
 40
1
 40
1
 40
1
 10
70.188370
 20
146.191666
 30
0.0
 10
69.885208
 20
147.553897
 30
0.0
 10
69.979140
 20
148.333611
 30
0.0
 10
70.633611
 20
149.887580
 30
0.0
  0
SPLINE
  5
29c
100
AcDbEntity
  8
0
 62
7
100
AcDbSpline
 70
8
 71
3
 72
8
 73
4
 74
0
 40
0
 40
0
 40
0
 40
0
 40
1
 40
1
 40
1
 40
1
 10
70.633611
 20
149.887580
 30
0.0
 10
71.056812
 20
150.892420
 30
0.0
 10
71.335694
 20
151.095546
 30
0.0
 10
71.632575
 20
150.615184
 30
0.0
  0
SPLINE
  5
29d
100
AcDbEntity
  8
0
 62
7
100
AcDbSpline
 70
8
 71
3
 72
8
 73
4
 74
0
 40
0
 40
0
 40
0
 40
0
 40
1
 40
1
 40
1
 40
1
 10
71.632575
 20
150.615184
 30
0.0
 10
71.962489
 20
150.081372
 30
0.0
 10
72.776445
 20
150.391267
 30
0.0
 10
76.006206
 20
152.280345
 30
0.0
  0
SPLINE
  5
29e
100
AcDbEntity
  8
0
 62
7
100
AcDbSpline
 70
8
 71
3
 72
8
 73
4
 74
0
 40
0
 40
0
 40
0
 40
0
 40
1
 40
1
 40
1
 40
1
 10
76.006206
 20
152.280345
 30
0.0
 10
80.124234
 20
154.688969
 30
0.0
 10
81.350027
 20
155.211148
 30
0.0
 10
85.161162
 20
156.180293
 30
0.0
  0
SPLINE
  5
29f
100
AcDbEntity
  8
0
 62
7
100
AcDbSpline
 70
8
 71
3
 72
8
 73
4
 74
0
 40
0
 40
0
 40
0
 40
0
 40
1
 40
1
 40
1
 40
1
 10
85.161162
 20
156.180293
 30
0.0
 10
88.982690
 20
157.152081
 30
0.0
 10
91.008552
 20
158.217203
 30
0.0
 10
93.196116
 20
160.404768
 30
0.0
  0
SPLINE
  5
2a0
100
AcDbEntity
  8
0
 62
7
100
AcDbSpline
 70
8
 71
3
 72
8
 73
4
 74
0
 40
0
 40
0
 40
0
 40
0
 40
1
 40
1
 40
1
 40
1
 10
93.196116
 20
160.404768
 30
0.0
 10
95.153678
 20
162.362330
 30
0.0
 10
96.261685
 20
164.398375
 30
0.0
 10
96.723695
 20
166.886959
 30
0.0
  0
LWPOLYLINE
  5
2a1
100
AcDbEntity
  8
0
 62
7
100
AcDbPolyline
 90
3
 70
0
 10
92.744335
 20
149.022504
 30
0.0
 10
93.789352
 20
148.554636
 30
0.0
 10
92.938820
 20
148.367827
 30
0.0
  0
SPLINE
  5
2a2
100
AcDbEntity
  8
0
 62
7
100
AcDbSpline
 70
8
 71
3
 72
8
 73
4
 74
0
 40
0
 40
0
 40
0
 40
0
 40
1
 40
1
 40
1
 40
1
 10
98.065614
 20
167.362415
 30
0.0
 10
99.662906
 20
165.525064
 30
0.0
 10
101.492622
 20
162.290257
 30
0.0
 10
102.317600
 20
159.845216
 30
0.0
  0
SPLINE
  5
2a3
100
AcDbEntity
  8
0
 62
7
100
AcDbSpline
 70
8
 71
3
 72
8
 73
4
 74
0
 40
0
 40
0
 40
0
 40
0
 40
1
 40
1
 40
1
 40
1
 10
102.317600
 20
159.845216
 30
0.0
 10
103.373544
 20
156.715640
 30
0.0
 10
103.541941
 20
152.529238
 30
0.0
 10
102.746101
 20
149.192522
 30
0.0
  0
SPLINE
  5
2a4
100
AcDbEntity
  8
0
 62
7
100
AcDbSpline
 70
8
 71
3
 72
8
 73
4
 74
0
 40
0
 40
0
 40
0
 40
0
 40
1
 40
1
 40
1
 40
1
 10
102.746101
 20
149.192522
 30
0.0
 10
102.208608
 20
146.938966
 30
0.0
 10
100.599867
 20
143.125531
 30
0.0
 10
99.718701
 20
142.016226
 30
0.0
  0
SPLINE
  5
2a5
100
AcDbEntity
  8
0
 62
7
100
AcDbSpline
 70
8
 71
3
 72
8
 73
4
 74
0
 40
0
 40
0
 40
0
 40
0
 40
1
 40
1
 40
1
 40
1
 10
99.718701
 20
142.016226
 30
0.0
 10
99.318273
 20
141.512123
 30
0.0
 10
99.297815
 20
141.543455
 30
0.0
 10
99.286806
 20
142.677684
 30
0.0
  0
LWPOLYLINE
  5
2a6
100
AcDbEntity
  8
0
 62
7
100
AcDbPolyline
 90
3
 70
0
 10
96.723695
 20
166.886959
 30
0.0
 10
97.032575
 20
168.550714
 30
0.0
 10
98.065614
 20
167.362415
 30
0.0
  0
SPLINE
  5
2a7
100
AcDbEntity
  8
0
 62
7
100
AcDbSpline
 70
8
 71
3
 72
8
 73
4
 74
0
 40
0
 40
0
 40
0
 40
0
 40
1
 40
1
 40
1
 40
1
 10
59.129628
 20
146.117268
 30
0.0
 10
58.698305
 20
147.790673
 30
0.0
 10
57.473760
 20
149.599626
 30
0.0
 10
56.371061
 20
150.192351
 30
0.0
  0
SPLINE
  5
2a8
100
AcDbEntity
  8
0
 62
7
100
AcDbSpline
 70
8
 71
3
 72
8
 73
4
 74
0
 40
0
 40
0
 40
0
 40
0
 40
1
 40
1
 40
1
 40
1
 10
56.371061
 20
150.192351
 30
0.0
 10
55.478630
 20
150.672054
 30
0.0
 10
55.447353
 20
150.736147
 30
0.0
 10
55.701544
 20
151.564366
 30
0.0
  0
SPLINE
  5
2a9
100
AcDbEntity
  8
0
 62
7
100
AcDbSpline
 70
8
 71
3
 72
8
 73
4
 74
0
 40
0
 40
0
 40
0
 40
0
 40
1
 40
1
 40
1
 40
1
 10
55.701544
 20
151.564366
 30
0.0
 10
56.019287
 20
152.599670
 30
0.0
 10
55.576705
 20
153.920547
 30
0.0
 10
54.766840
 20
154.353974
 30
0.0
  0
SPLINE
  5
2aa
100
AcDbEntity
  8
0
 62
7
100
AcDbSpline
 70
8
 71
3
 72
8
 73
4
 74
0
 40
0
 40
0
 40
0
 40
0
 40
1
 40
1
 40
1
 40
1
 10
54.766840
 20
154.353974
 30
0.0
 10
54.084572
 20
154.719113
 30
0.0
 10
53.746625
 20
154.374294
 30
0.0
 10
53.514355
 20
153.076034
 30
0.0
  0
LWPOLYLINE
  5
2ab
100
AcDbEntity
  8
0
 62
7
100
AcDbPolyline
 90
1
 70
1
 10
99.286806
 20
142.677684
 30
0.0
  0
SPLINE
  5
2ac
100
AcDbEntity
  8
0
 62
7
100
AcDbSpline
 70
8
 71
3
 72
8
 73
4
 74
0
 40
0
 40
0
 40
0
 40
0
 40
1
 40
1
 40
1
 40
1
 10
52.976044
 20
153.261018
 30
0.0
 10
52.079131
 20
156.240673
 30
0.0
 10
52.831172
 20
159.187925
 30
0.0
 10
55.007110
 20
161.220772
 30
0.0
  0
SPLINE
  5
2ad
100
AcDbEntity
  8
0
 62
7
100
AcDbSpline
 70
8
 71
3
 72
8
 73
4
 74
0
 40
0
 40
0
 40
0
 40
0
 40
1
 40
1
 40
1
 40
1
 10
55.007110
 20
161.220772
 30
0.0
 10
57.203938
 20
163.273134
 30
0.0
 10
58.730454
 20
164.077250
 30
0.0
 10
57.268200
 20
162.411836
 30
0.0
  0
SPLINE
  5
2ae
100
AcDbEntity
  8
0
 62
7
100
AcDbSpline
 70
8
 71
3
 72
8
 73
4
 74
0
 40
0
 40
0
 40
0
 40
0
 40
1
 40
1
 40
1
 40
1
 10
57.268200
 20
162.411836
 30
0.0
 10
55.821868
 20
160.764553
 30
0.0
 10
55.531361
 20
158.408410
 30
0.0
 10
56.535233
 20
156.467135
 30
0.0
  0
SPLINE
  5
2af
100
AcDbEntity
  8
0
 62
7
100
AcDbSpline
 70
8
 71
3
 72
8
 73
4
 74
0
 40
0
 40
0
 40
0
 40
0
 40
1
 40
1
 40
1
 40
1
 10
56.535233
 20
156.467135
 30
0.0
 10
57.317738
 20
154.953941
 30
0.0
 10
59.736442
 20
154.452106
 30
0.0
 10
61.302260
 20
155.478067
 30
0.0
  0
SPLINE
  5
2b0
100
AcDbEntity
  8
0
 62
7
100
AcDbSpline
 70
8
 71
3
 72
8
 73
4
 74
0
 40
0
 40
0
 40
0
 40
0
 40
1
 40
1
 40
1
 40
1
 10
61.302260
 20
155.478067
 30
0.0
 10
63.043168
 20
156.618755
 30
0.0
 10
63.258965
 20
160.008200
 30
0.0
 10
61.726543
 20
162.142062
 30
0.0
  0
LWPOLYLINE
  5
2b1
100
AcDbEntity
  8
0
 62
7
100
AcDbPolyline
 90
3
 70
0
 10
53.514355
 20
153.076034
 30
0.0
 10
53.334438
 20
152.070393
 30
0.0
 10
52.976044
 20
153.261018
 30
0.0
  0
SPLINE
  5
2b2
100
AcDbEntity
  8
0
 62
7
100
AcDbSpline
 70
8
 71
3
 72
8
 73
4
 74
0
 40
0
 40
0
 40
0
 40
0
 40
1
 40
1
 40
1
 40
1
 10
61.639831
 20
162.954957
 30
0.0
 10
62.825776
 20
162.341682
 30
0.0
 10
64.769873
 20
160.346139
 30
0.0
 10
65.416814
 20
159.078030
 30
0.0
  0
SPLINE
  5
2b3
100
AcDbEntity
  8
0
 62
7
100
AcDbSpline
 70
8
 71
3
 72
8
 73
4
 74
0
 40
0
 40
0
 40
0
 40
0
 40
1
 40
1
 40
1
 40
1
 10
65.416814
 20
159.078030
 30
0.0
 10
66.159687
 20
157.621880
 30
0.0
 10
66.362911
 20
155.536119
 30
0.0
 10
65.935458
 20
153.755008
 30
0.0
  0
LWPOLYLINE
  5
2b4
100
AcDbEntity
  8
0
 62
7
100
AcDbPolyline
 90
3
 70
0
 10
61.726543
 20
162.142062
 30
0.0
 10
60.849121
 20
163.363849
 30
0.0
 10
61.639831
 20
162.954957
 30
0.0
  0
SPLINE
  5
2b5
100
AcDbEntity
  8
0
 62
7
100
AcDbSpline
 70
8
 71
3
 72
8
 73
4
 74
0
 40
0
 40
0
 40
0
 40
0
 40
1
 40
1
 40
1
 40
1
 10
65.306326
 20
153.183209
 30
0.0
 10
64.835111
 20
154.569446
 30
0.0
 10
64.466385
 20
154.779377
 30
0.0
 10
63.725428
 20
154.083284
 30
0.0
  0
SPLINE
  5
2b6
100
AcDbEntity
  8
0
 62
7
100
AcDbSpline
 70
8
 71
3
 72
8
 73
4
 74
0
 40
0
 40
0
 40
0
 40
0
 40
1
 40
1
 40
1
 40
1
 10
63.725428
 20
154.083284
 30
0.0
 10
62.971614
 20
153.375111
 30
0.0
 10
62.723120
 20
152.357897
 30
0.0
 10
63.076730
 20
151.427828
 30
0.0
  0
SPLINE
  5
2b7
100
AcDbEntity
  8
0
 62
7
100
AcDbSpline
 70
8
 71
3
 72
8
 73
4
 74
0
 40
0
 40
0
 40
0
 40
0
 40
1
 40
1
 40
1
 40
1
 10
63.076730
 20
151.427828
 30
0.0
 10
63.259171
 20
150.947972
 30
0.0
 10
63.241031
 20
150.728421
 30
0.0
 10
63.012659
 20
150.652295
 30
0.0
  0
SPLINE
  5
2b8
100
AcDbEntity
  8
0
 62
7
100
AcDbSpline
 70
8
 71
3
 72
8
 73
4
 74
0
 40
0
 40
0
 40
0
 40
0
 40
1
 40
1
 40
1
 40
1
 10
63.012659
 20
150.652295
 30
0.0
 10
62.427400
 20
150.457210
 30
0.0
 10
60.623003
 20
148.680038
 30
0.0
 10
60.221114
 20
147.902874
 30
0.0
  0
SPLINE
  5
2b9
100
AcDbEntity
  8
0
 62
7
100
AcDbSpline
 70
8
 71
3
 72
8
 73
4
 74
0
 40
0
 40
0
 40
0
 40
0
 40
1
 40
1
 40
1
 40
1
 10
60.221114
 20
147.902874
 30
0.0
 10
60.002769
 20
147.480639
 30
0.0
 10
59.736911
 20
146.638253
 30
0.0
 10
59.630318
 20
146.030908
 30
0.0
  0
LWPOLYLINE
  5
2ba
100
AcDbEntity
  8
0
 62
7
100
AcDbPolyline
 90
3
 70
0
 10
65.935458
 20
153.755008
 30
0.0
 10
65.594659
 20
152.334976
 30
0.0
 10
65.306326
 20
153.183209
 30
0.0
  0
SPLINE
  5
2bb
100
AcDbEntity
  8
0
 62
7
100
AcDbSpline
 70
8
 71
3
 72
8
 73
4
 74
0
 40
0
 40
0
 40
0
 40
0
 40
1
 40
1
 40
1
 40
1
 10
87.110403
 20
159.041894
 30
0.0
 10
87.952432
 20
160.089686
 30
0.0
 10
88.698200
 20
162.077310
 30
0.0
 10
88.698200
 20
163.273700
 30
0.0
  0
SPLINE
  5
2bc
100
AcDbEntity
  8
0
 62
7
100
AcDbSpline
 70
8
 71
3
 72
8
 73
4
 74
0
 40
0
 40
0
 40
0
 40
0
 40
1
 40
1
 40
1
 40
1
 10
88.698200
 20
163.273700
 30
0.0
 10
88.698200
 20
163.641191
 30
0.0
 10
88.448639
 20
164.457388
 30
0.0
 10
88.143620
 20
165.087472
 30
0.0
  0
SPLINE
  5
2bd
100
AcDbEntity
  8
0
 62
7
100
AcDbSpline
 70
8
 71
3
 72
8
 73
4
 74
0
 40
0
 40
0
 40
0
 40
0
 40
1
 40
1
 40
1
 40
1
 10
88.143620
 20
165.087472
 30
0.0
 10
87.525572
 20
166.364192
 30
0.0
 10
85.935722
 20
167.471908
 30
0.0
 10
84.352649
 20
167.728805
 30
0.0
  0
SPLINE
  5
2be
100
AcDbEntity
  8
0
 62
7
100
AcDbSpline
 70
8
 71
3
 72
8
 73
4
 74
0
 40
0
 40
0
 40
0
 40
0
 40
1
 40
1
 40
1
 40
1
 10
84.352649
 20
167.728805
 30
0.0
 10
83.268794
 20
167.904689
 30
0.0
 10
83.260748
 20
167.928732
 30
0.0
 10
83.829866
 20
169.290823
 30
0.0
  0
SPLINE
  5
2bf
100
AcDbEntity
  8
0
 62
7
100
AcDbSpline
 70
8
 71
3
 72
8
 73
4
 74
0
 40
0
 40
0
 40
0
 40
0
 40
1
 40
1
 40
1
 40
1
 10
83.829866
 20
169.290823
 30
0.0
 10
84.632393
 20
171.211536
 30
0.0
 10
84.246741
 20
174.328124
 30
0.0
 10
82.865981
 20
177.080340
 30
0.0
  0
SPLINE
  5
2c0
100
AcDbEntity
  8
0
 62
7
100
AcDbSpline
 70
8
 71
3
 72
8
 73
4
 74
0
 40
0
 40
0
 40
0
 40
0
 40
1
 40
1
 40
1
 40
1
 10
82.865981
 20
177.080340
 30
0.0
 10
81.446124
 20
179.910490
 30
0.0
 10
77.679137
 20
183.621139
 30
0.0
 10
74.686226
 20
185.137763
 30
0.0
  0
SPLINE
  5
2c1
100
AcDbEntity
  8
0
 62
7
100
AcDbSpline
 70
8
 71
3
 72
8
 73
4
 74
0
 40
0
 40
0
 40
0
 40
0
 40
1
 40
1
 40
1
 40
1
 10
74.686226
 20
185.137763
 30
0.0
 10
72.358324
 20
186.317400
 30
0.0
 10
69.927565
 20
186.946899
 30
0.0
 10
67.603915
 20
186.971881
 30
0.0
  0
SPLINE
  5
2c2
100
AcDbEntity
  8
0
 62
7
100
AcDbSpline
 70
8
 71
3
 72
8
 73
4
 74
0
 40
0
 40
0
 40
0
 40
0
 40
1
 40
1
 40
1
 40
1
 10
67.603915
 20
186.971881
 30
0.0
 10
66.401080
 20
186.984819
 30
0.0
 10
65.416472
 20
187.075931
 30
0.0
 10
65.415903
 20
187.174369
 30
0.0
  0
SPLINE
  5
2c3
100
AcDbEntity
  8
0
 62
7
100
AcDbSpline
 70
8
 71
3
 72
8
 73
4
 74
0
 40
0
 40
0
 40
0
 40
0
 40
1
 40
1
 40
1
 40
1
 10
65.415903
 20
187.174369
 30
0.0
 10
65.414051
 20
187.509065
 30
0.0
 10
68.186157
 20
188.699809
 30
0.0
 10
70.045075
 20
189.162747
 30
0.0
  0
SPLINE
  5
2c4
100
AcDbEntity
  8
0
 62
7
100
AcDbSpline
 70
8
 71
3
 72
8
 73
4
 74
0
 40
0
 40
0
 40
0
 40
0
 40
1
 40
1
 40
1
 40
1
 10
70.045075
 20
189.162747
 30
0.0
 10
71.430444
 20
189.507753
 30
0.0
 10
72.930597
 20
189.619135
 30
0.0
 10
75.998200
 20
189.604747
 30
0.0
  0
SPLINE
  5
2c5
100
AcDbEntity
  8
0
 62
7
100
AcDbSpline
 70
8
 71
3
 72
8
 73
4
 74
0
 40
0
 40
0
 40
0
 40
0
 40
1
 40
1
 40
1
 40
1
 10
75.998200
 20
189.604747
 30
0.0
 10
79.547164
 20
189.588105
 30
0.0
 10
80.452878
 20
189.491749
 30
0.0
 10
82.726189
 20
188.889015
 30
0.0
  0
SPLINE
  5
2c6
100
AcDbEntity
  8
0
 62
7
100
AcDbSpline
 70
8
 71
3
 72
8
 73
4
 74
0
 40
0
 40
0
 40
0
 40
0
 40
1
 40
1
 40
1
 40
1
 10
82.726189
 20
188.889015
 30
0.0
 10
89.873632
 20
186.993979
 30
0.0
 10
95.387496
 20
182.559454
 30
0.0
 10
98.733430
 20
176.015184
 30
0.0
  0
SPLINE
  5
2c7
100
AcDbEntity
  8
0
 62
7
100
AcDbSpline
 70
8
 71
3
 72
8
 73
4
 74
0
 40
0
 40
0
 40
0
 40
0
 40
1
 40
1
 40
1
 40
1
 10
98.733430
 20
176.015184
 30
0.0
 10
100.038940
 20
173.461754
 30
0.0
 10
101.448994
 20
169.444522
 30
0.0
 10
101.798109
 20
167.283934
 30
0.0
  0
LWPOLYLINE
  5
2c8
100
AcDbEntity
  8
0
 62
7
100
AcDbPolyline
 90
3
 70
0
 10
59.630318
 20
146.030908
 30
0.0
 10
59.436516
 20
144.926643
 30
0.0
 10
59.129628
 20
146.117268
 30
0.0
  0
SPLINE
  5
2c9
100
AcDbEntity
  8
0
 62
7
100
AcDbSpline
 70
8
 71
3
 72
8
 73
4
 74
0
 40
0
 40
0
 40
0
 40
0
 40
1
 40
1
 40
1
 40
1
 10
100.811727
 20
167.680809
 30
0.0
 10
99.124849
 20
169.952599
 30
0.0
 10
96.398014
 20
172.311018
 30
0.0
 10
95.458214
 20
172.311018
 30
0.0
  0
SPLINE
  5
2ca
100
AcDbEntity
  8
0
 62
7
100
AcDbSpline
 70
8
 71
3
 72
8
 73
4
 74
0
 40
0
 40
0
 40
0
 40
0
 40
1
 40
1
 40
1
 40
1
 10
95.458214
 20
172.311018
 30
0.0
 10
95.378228
 20
172.311018
 30
0.0
 10
95.311370
 20
171.388283
 30
0.0
 10
95.309642
 20
170.260497
 30
0.0
  0
SPLINE
  5
2cb
100
AcDbEntity
  8
0
 62
7
100
AcDbSpline
 70
8
 71
3
 72
8
 73
4
 74
0
 40
0
 40
0
 40
0
 40
0
 40
1
 40
1
 40
1
 40
1
 10
95.309642
 20
170.260497
 30
0.0
 10
95.301414
 20
164.887455
 30
0.0
 10
92.671876
 20
160.840640
 30
0.0
 10
87.784302
 20
158.679123
 30
0.0
  0
LWPOLYLINE
  5
2cc
100
AcDbEntity
  8
0
 62
7
100
AcDbPolyline
 90
3
 70
0
 10
101.798109
 20
167.283934
 30
0.0
 10
101.990496
 20
166.093309
 30
0.0
 10
100.811727
 20
167.680809
 30
0.0
  0
SPLINE
  5
2cd
100
AcDbEntity
  8
0
 62
7
100
AcDbSpline
 70
8
 71
3
 72
8
 73
4
 74
0
 40
0
 40
0
 40
0
 40
0
 40
1
 40
1
 40
1
 40
1
 10
29.970492
 20
159.221482
 30
0.0
 10
25.845479
 20
161.444077
 30
0.0
 10
23.727074
 20
164.861991
 30
0.0
 10
23.382163
 20
169.851343
 30
0.0
  0
LWPOLYLINE
  5
2ce
100
AcDbEntity
  8
0
 62
7
100
AcDbPolyline
 90
3
 70
0
 10
87.784302
 20
158.679123
 30
0.0
 10
86.286583
 20
158.016760
 30
0.0
 10
87.110403
 20
159.041894
 30
0.0
  0
SPLINE
  5
2cf
100
AcDbEntity
  8
0
 62
7
100
AcDbSpline
 70
8
 71
3
 72
8
 73
4
 74
0
 40
0
 40
0
 40
0
 40
0
 40
1
 40
1
 40
1
 40
1
 10
22.353278
 20
171.868499
 30
0.0
 10
21.071446
 20
171.245930
 30
0.0
 10
19.379928
 20
169.663168
 30
0.0
 10
18.061451
 20
167.852617
 30
0.0
  0
SPLINE
  5
2d0
100
AcDbEntity
  8
0
 62
7
100
AcDbSpline
 70
8
 71
3
 72
8
 73
4
 74
0
 40
0
 40
0
 40
0
 40
0
 40
1
 40
1
 40
1
 40
1
 10
18.061451
 20
167.852617
 30
0.0
 10
17.417050
 20
166.967718
 30
0.0
 10
16.853276
 20
166.280248
 30
0.0
 10
16.808614
 20
166.324907
 30
0.0
  0
SPLINE
  5
2d1
100
AcDbEntity
  8
0
 62
7
100
AcDbSpline
 70
8
 71
3
 72
8
 73
4
 74
0
 40
0
 40
0
 40
0
 40
0
 40
1
 40
1
 40
1
 40
1
 10
16.808614
 20
166.324907
 30
0.0
 10
16.614071
 20
166.519453
 30
0.0
 10
18.101869
 20
171.702489
 30
0.0
 10
18.948009
 20
173.777907
 30
0.0
  0
SPLINE
  5
2d2
100
AcDbEntity
  8
0
 62
7
100
AcDbSpline
 70
8
 71
3
 72
8
 73
4
 74
0
 40
0
 40
0
 40
0
 40
0
 40
1
 40
1
 40
1
 40
1
 10
18.948009
 20
173.777907
 30
0.0
 10
20.995003
 20
178.798793
 30
0.0
 10
24.781132
 20
183.351839
 30
0.0
 10
29.107043
 20
185.994748
 30
0.0
  0
SPLINE
  5
2d3
100
AcDbEntity
  8
0
 62
7
100
AcDbSpline
 70
8
 71
3
 72
8
 73
4
 74
0
 40
0
 40
0
 40
0
 40
0
 40
1
 40
1
 40
1
 40
1
 10
29.107043
 20
185.994748
 30
0.0
 10
34.589278
 20
189.344114
 30
0.0
 10
42.779598
 20
190.620977
 30
0.0
 10
48.951298
 20
189.088447
 30
0.0
  0
SPLINE
  5
2d4
100
AcDbEntity
  8
0
 62
7
100
AcDbSpline
 70
8
 71
3
 72
8
 73
4
 74
0
 40
0
 40
0
 40
0
 40
0
 40
1
 40
1
 40
1
 40
1
 10
48.951298
 20
189.088447
 30
0.0
 10
50.764593
 20
188.638179
 30
0.0
 10
53.245504
 20
187.540177
 30
0.0
 10
53.242213
 20
187.189371
 30
0.0
  0
SPLINE
  5
2d5
100
AcDbEntity
  8
0
 62
7
100
AcDbSpline
 70
8
 71
3
 72
8
 73
4
 74
0
 40
0
 40
0
 40
0
 40
0
 40
1
 40
1
 40
1
 40
1
 10
53.242213
 20
187.189371
 30
0.0
 10
53.241154
 20
187.082683
 30
0.0
 10
52.300463
 20
186.986938
 30
0.0
 10
51.151655
 20
186.976609
 30
0.0
  0
SPLINE
  5
2d6
100
AcDbEntity
  8
0
 62
7
100
AcDbSpline
 70
8
 71
3
 72
8
 73
4
 74
0
 40
0
 40
0
 40
0
 40
0
 40
1
 40
1
 40
1
 40
1
 10
51.151655
 20
186.976609
 30
0.0
 10
44.286802
 20
186.914877
 30
0.0
 10
36.808757
 20
181.111601
 30
0.0
 10
34.849755
 20
174.325658
 30
0.0
  0
SPLINE
  5
2d7
100
AcDbEntity
  8
0
 62
7
100
AcDbSpline
 70
8
 71
3
 72
8
 73
4
 74
0
 40
0
 40
0
 40
0
 40
0
 40
1
 40
1
 40
1
 40
1
 10
34.849755
 20
174.325658
 30
0.0
 10
34.319160
 20
172.487680
 30
0.0
 10
34.410198
 20
170.210361
 30
0.0
 10
35.066772
 20
168.896930
 30
0.0
  0
SPLINE
  5
2d8
100
AcDbEntity
  8
0
 62
7
100
AcDbSpline
 70
8
 71
3
 72
8
 73
4
 74
0
 40
0
 40
0
 40
0
 40
0
 40
1
 40
1
 40
1
 40
1
 10
35.066772
 20
168.896930
 30
0.0
 10
35.622272
 20
167.785695
 30
0.0
 10
35.623429
 20
167.813101
 30
0.0
 10
35.021049
 20
167.813101
 30
0.0
  0
SPLINE
  5
2d9
100
AcDbEntity
  8
0
 62
7
100
AcDbSpline
 70
8
 71
3
 72
8
 73
4
 74
0
 40
0
 40
0
 40
0
 40
0
 40
1
 40
1
 40
1
 40
1
 10
35.021049
 20
167.813101
 30
0.0
 10
34.173861
 20
167.813101
 30
0.0
 10
32.254952
 20
167.029688
 30
0.0
 10
31.596740
 20
166.415096
 30
0.0
  0
SPLINE
  5
2da
100
AcDbEntity
  8
0
 62
7
100
AcDbSpline
 70
8
 71
3
 72
8
 73
4
 74
0
 40
0
 40
0
 40
0
 40
0
 40
1
 40
1
 40
1
 40
1
 10
31.596740
 20
166.415096
 30
0.0
 10
29.647362
 20
164.594900
 30
0.0
 10
29.739299
 20
161.016871
 30
0.0
 10
31.790267
 20
158.883413
 30
0.0
  0
SPLINE
  5
2db
100
AcDbEntity
  8
0
 62
7
100
AcDbSpline
 70
8
 71
3
 72
8
 73
4
 74
0
 40
0
 40
0
 40
0
 40
0
 40
1
 40
1
 40
1
 40
1
 10
31.790267
 20
158.883413
 30
0.0
 10
32.614627
 20
158.025902
 30
0.0
 10
31.965678
 20
158.146459
 30
0.0
 10
29.970492
 20
159.221482
 30
0.0
  0
LWPOLYLINE
  5
2dc
100
AcDbEntity
  8
0
 62
7
100
AcDbPolyline
 90
3
 70
0
 10
23.382163
 20
169.851343
 30
0.0
 10
23.213825
 20
172.286456
 30
0.0
 10
22.353278
 20
171.868499
 30
0.0
  0
SPLINE
  5
2dd
100
AcDbEntity
  8
0
 62
7
100
AcDbSpline
 70
8
 71
3
 72
8
 73
4
 74
0
 40
0
 40
0
 40
0
 40
0
 40
1
 40
1
 40
1
 40
1
 10
34.855491
 20
159.463383
 30
0.0
 10
33.391557
 20
160.003604
 30
0.0
 10
32.606533
 20
160.979498
 30
0.0
 10
32.606533
 20
162.259156
 30
0.0
  0
SPLINE
  5
2de
100
AcDbEntity
  8
0
 62
7
100
AcDbSpline
 70
8
 71
3
 72
8
 73
4
 74
0
 40
0
 40
0
 40
0
 40
0
 40
1
 40
1
 40
1
 40
1
 10
32.606533
 20
162.259156
 30
0.0
 10
32.606533
 20
164.320114
 30
0.0
 10
33.293381
 20
165.058482
 30
0.0
 10
35.913825
 20
165.814521
 30
0.0
  0
SPLINE
  5
2df
100
AcDbEntity
  8
0
 62
7
100
AcDbSpline
 70
8
 71
3
 72
8
 73
4
 74
0
 40
0
 40
0
 40
0
 40
0
 40
1
 40
1
 40
1
 40
1
 10
35.913825
 20
165.814521
 30
0.0
 10
40.872201
 20
167.245093
 30
0.0
 10
44.072024
 20
170.858370
 30
0.0
 10
45.144865
 20
176.238315
 30
0.0
  0
SPLINE
  5
2e0
100
AcDbEntity
  8
0
 62
7
100
AcDbSpline
 70
8
 71
3
 72
8
 73
4
 74
0
 40
0
 40
0
 40
0
 40
0
 40
1
 40
1
 40
1
 40
1
 10
45.144865
 20
176.238315
 30
0.0
 10
45.357960
 20
177.306924
 30
0.0
 10
45.587393
 20
178.236321
 30
0.0
 10
45.654714
 20
178.303644
 30
0.0
  0
SPLINE
  5
2e1
100
AcDbEntity
  8
0
 62
7
100
AcDbSpline
 70
8
 71
3
 72
8
 73
4
 74
0
 40
0
 40
0
 40
0
 40
0
 40
1
 40
1
 40
1
 40
1
 10
45.654714
 20
178.303644
 30
0.0
 10
45.964716
 20
178.613643
 30
0.0
 10
46.936467
 20
174.857439
 30
0.0
 10
47.068145
 20
172.840184
 30
0.0
  0
SPLINE
  5
2e2
100
AcDbEntity
  8
0
 62
7
100
AcDbSpline
 70
8
 71
3
 72
8
 73
4
 74
0
 40
0
 40
0
 40
0
 40
0
 40
1
 40
1
 40
1
 40
1
 10
47.068145
 20
172.840184
 30
0.0
 10
47.514973
 20
165.994871
 30
0.0
 10
42.990908
 20
159.591229
 30
0.0
 10
37.419669
 20
159.183139
 30
0.0
  0
SPLINE
  5
2e3
100
AcDbEntity
  8
0
 62
7
100
AcDbSpline
 70
8
 71
3
 72
8
 73
4
 74
0
 40
0
 40
0
 40
0
 40
0
 40
1
 40
1
 40
1
 40
1
 10
37.419669
 20
159.183139
 30
0.0
 10
36.483782
 20
159.114588
 30
0.0
 10
35.513248
 20
159.220659
 30
0.0
 10
34.855491
 20
159.463383
 30
0.0
  0
LWPOLYLINE
  5
2e4
100
AcDbEntity
  8
0
 62
7
100
AcDbPolyline
 90
1
 70
1
 10
29.970492
 20
159.221482
 30
0.0
  0
SPLINE
  5
2e5
100
AcDbEntity
  8
0
 62
7
100
AcDbSpline
 70
8
 71
3
 72
8
 73
4
 74
0
 40
0
 40
0
 40
0
 40
0
 40
1
 40
1
 40
1
 40
1
 10
79.523556
 20
159.462589
 30
0.0
 10
76.385782
 20
160.443839
 30
0.0
 10
73.665977
 20
163.478017
 30
0.0
 10
72.275523
 20
167.548518
 30
0.0
  0
SPLINE
  5
2e6
100
AcDbEntity
  8
0
 62
7
100
AcDbSpline
 70
8
 71
3
 72
8
 73
4
 74
0
 40
0
 40
0
 40
0
 40
0
 40
1
 40
1
 40
1
 40
1
 10
72.275523
 20
167.548518
 30
0.0
 10
71.258732
 20
170.525138
 30
0.0
 10
71.550377
 20
175.485856
 30
0.0
 10
72.889417
 20
177.990457
 30
0.0
  0
SPLINE
  5
2e7
100
AcDbEntity
  8
0
 62
7
100
AcDbSpline
 70
8
 71
3
 72
8
 73
4
 74
0
 40
0
 40
0
 40
0
 40
0
 40
1
 40
1
 40
1
 40
1
 10
72.889417
 20
177.990457
 30
0.0
 10
73.120134
 20
178.422003
 30
0.0
 10
73.244715
 20
178.129278
 30
0.0
 10
73.621339
 20
176.270666
 30
0.0
  0
SPLINE
  5
2e8
100
AcDbEntity
  8
0
 62
7
100
AcDbSpline
 70
8
 71
3
 72
8
 73
4
 74
0
 40
0
 40
0
 40
0
 40
0
 40
1
 40
1
 40
1
 40
1
 10
73.621339
 20
176.270666
 30
0.0
 10
74.417105
 20
172.343612
 30
0.0
 10
76.365764
 20
169.242692
 30
0.0
 10
79.228191
 20
167.348429
 30
0.0
  0
SPLINE
  5
2e9
100
AcDbEntity
  8
0
 62
7
100
AcDbSpline
 70
8
 71
3
 72
8
 73
4
 74
0
 40
0
 40
0
 40
0
 40
0
 40
1
 40
1
 40
1
 40
1
 10
79.228191
 20
167.348429
 30
0.0
 10
79.823612
 20
166.954398
 30
0.0
 10
81.390270
 20
166.272676
 30
0.0
 10
82.709655
 20
165.833491
 30
0.0
  0
SPLINE
  5
2ea
100
AcDbEntity
  8
0
 62
7
100
AcDbSpline
 70
8
 71
3
 72
8
 73
4
 74
0
 40
0
 40
0
 40
0
 40
0
 40
1
 40
1
 40
1
 40
1
 10
82.709655
 20
165.833491
 30
0.0
 10
84.720110
 20
165.164270
 30
0.0
 10
85.206364
 20
164.889408
 30
0.0
 10
85.712742
 20
164.135954
 30
0.0
  0
SPLINE
  5
2eb
100
AcDbEntity
  8
0
 62
7
100
AcDbSpline
 70
8
 71
3
 72
8
 73
4
 74
0
 40
0
 40
0
 40
0
 40
0
 40
1
 40
1
 40
1
 40
1
 10
85.712742
 20
164.135954
 30
0.0
 10
86.602639
 20
162.811841
 30
0.0
 10
86.512792
 20
161.606026
 30
0.0
 10
85.444640
 20
160.537874
 30
0.0
  0
SPLINE
  5
2ec
100
AcDbEntity
  8
0
 62
7
100
AcDbSpline
 70
8
 71
3
 72
8
 73
4
 74
0
 40
0
 40
0
 40
0
 40
0
 40
1
 40
1
 40
1
 40
1
 10
85.444640
 20
160.537874
 30
0.0
 10
84.059956
 20
159.153191
 30
0.0
 10
81.816369
 20
158.745798
 30
0.0
 10
79.523556
 20
159.462716
 30
0.0
  0
LWPOLYLINE
  5
2ed
100
AcDbEntity
  8
0
 62
7
100
AcDbPolyline
 90
1
 70
1
 10
34.855491
 20
159.463383
 30
0.0
  0
LWPOLYLINE
  5
2ee
100
AcDbEntity
  8
0
 62
7
100
AcDbPolyline
 90
2
 70
0
 10
79.523556
 20
159.462716
 30
0.0
 10
79.523556
 20
159.462589
 30
0.0
  0
ENDSEC
  0
SECTION
  2
OBJECTS
  0
DICTIONARY
  5
C
330
0
100
AcDbDictionary
  3
ACAD_GROUP
350
D
  3
ACAD_MLINESTYLE
350
17
  0
DICTIONARY
  5
D
330
C
100
AcDbDictionary
  0
DICTIONARY
  5
1A
330
C
100
AcDbDictionary
  0
DICTIONARY
  5
17
330
C
100
AcDbDictionary
  3
STANDARD
350
18
  0
DICTIONARY
  5
19
330
C
100
AcDbDictionary
  0
ENDSEC
  0
EOF
