0
SECTION
2
HEADER
9
$EXTMIN
10
0.000000
20
0.000000
9
$EXTMAX
10
48.000000
20
48.000000
0
ENDSEC
0
SECTION
2
TABLES
0
TABLE
2
LTYPE
70
1
0
LTYPE
2
0
70
0
3
Solid Line
72
65
73
0
40
0.0
0
ENDTAB
0
TABLE
2
LAYER
70
1
0
LAYER
2
1
70
0
62
7
6
0
0
ENDTAB
0
ENDSEC
0
SECTION
2
BLOCKS
0
ENDSEC
0
SECTION
2
ENTITIES
0
ARC
8
1
10
2.226491
20
3.931674
40
3.495823
50
-73.489031
51
-63.249182
0
LINE
8
1
10
3.800000
20
0.810000
11
4.100000
21
1.010000
0
LINE
8
1
10
4.100000
20
1.010000
11
4.110000
21
1.020000
0
ARC
8
1
10
2.676702
20
2.876206
40
2.345175
50
-52.325910
51
2.292134
0
LINE
8
1
10
5.020000
20
2.970000
11
5.020000
21
2.980000
0
LINE
8
1
10
5.020000
20
2.980000
11
5.020000
21
2.990000
0
LINE
8
1
10
5.020000
20
2.990000
11
5.020000
21
3.000000
0
LINE
8
1
10
5.020000
20
3.000000
11
5.020000
21
3.010000
0
LINE
8
1
10
5.020000
20
3.010000
11
5.020000
21
3.020000
0
LINE
8
1
10
5.020000
20
3.020000
11
5.020000
21
3.030000
0
LINE
8
1
10
5.020000
20
3.030000
11
5.020000
21
3.040000
0
LINE
8
1
10
5.020000
20
3.040000
11
5.020000
21
3.050000
0
LINE
8
1
10
5.020000
20
3.050000
11
5.020000
21
3.060000
0
LINE
8
1
10
5.020000
20
3.060000
11
4.980000
21
3.380000
0
LINE
8
1
10
4.980000
20
3.380000
11
4.880000
21
3.720000
0
LINE
8
1
10
4.880000
20
3.720000
11
4.730000
21
4.040000
0
LINE
8
1
10
4.730000
20
4.040000
11
4.560000
21
4.300000
0
ARC
8
1
10
2.668241
20
2.935522
40
2.332499
50
35.801962
51
79.526255
0
ARC
8
1
10
2.640242
20
2.954424
40
2.319209
50
78.761164
51
98.186423
0
LINE
8
1
10
2.310000
20
5.250000
11
2.060000
21
5.200000
0
LINE
8
1
10
2.060000
20
5.200000
11
1.730000
21
5.090000
0
LINE
8
1
10
1.730000
20
5.090000
11
1.440000
21
4.940000
0
ARC
8
1
10
2.709136
20
2.841673
40
2.452281
50
121.166899
51
153.160415
0
LINE
8
1
10
0.521029
20
3.948863
11
0.491401
21
3.887595
0
ARC
8
1
10
2.686260
20
2.881794
40
2.414341
50
155.380245
51
-179.090736
0
ARC
8
1
10
2.456544
20
2.843156
40
2.184321
50
179.991471
51
-156.724042
0
LINE
8
1
10
0.450000
20
1.980000
11
0.460000
21
1.970000
0
LINE
8
1
10
0.460000
20
1.970000
11
0.460000
21
1.960000
0
ARC
8
1
10
2.629822
20
2.872030
40
2.353705
50
-157.201772
51
-88.360799
0
ARC
8
1
10
2.648358
20
3.529147
40
3.010254
50
-89.071252
51
-81.755916
0
LINE
8
1
10
3.080000
20
0.550000
11
3.220000
21
0.580000
0
LINE
8
1
10
3.150000
20
1.120000
11
2.650000
21
2.240000
0
LINE
8
1
10
2.650000
20
2.240000
11
2.140000
21
1.120000
0
ARC
8
1
10
2.235001
20
1.285002
40
0.190396
50
-119.931404
51
-103.671396
0
LINE
8
1
10
2.190000
20
1.100000
11
2.470000
21
1.060000
0
ARC
8
1
10
2.640000
20
3.016669
40
1.964040
50
-94.965508
51
-74.949574
0
ARC
8
1
10
2.678883
20
2.870212
40
1.808847
50
-53.295892
51
-5.867171
0
ARC
8
1
10
2.845013
20
2.900835
40
1.647402
50
-7.517485
51
15.822054
0
LINE
8
1
10
4.430000
20
3.350000
11
3.480000
21
1.250000
0
ARC
8
1
10
3.235005
20
1.934989
40
0.727483
50
-70.319763
51
-60.792326
0
LINE
8
1
10
3.590000
20
1.300000
11
3.760000
21
1.420000
0
LINE
8
1
10
1.300000
20
2.390000
11
0.870000
21
3.350000
0
LINE
8
1
10
0.870000
20
3.350000
11
0.860000
21
3.350000
0
ARC
8
1
10
3.036248
20
2.877946
40
2.226857
50
167.761468
51
-170.489312
0
ARC
8
1
10
2.676551
20
2.920480
40
1.881864
50
-167.401110
51
-117.417748
0
LINE
8
1
10
1.810000
20
1.250000
11
1.300000
21
2.390000
0
LINE
8
1
10
2.960000
20
2.830000
11
2.950000
21
2.830000
0
LINE
8
1
10
2.950000
20
2.830000
11
2.940000
21
2.830000
0
LINE
8
1
10
2.940000
20
2.830000
11
2.930000
21
2.830000
0
LINE
8
1
10
2.930000
20
2.830000
11
2.920000
21
2.830000
0
LINE
8
1
10
2.920000
20
2.830000
11
2.910000
21
2.830000
0
LINE
8
1
10
2.910000
20
2.830000
11
2.900000
21
2.830000
0
LINE
8
1
10
2.900000
20
2.830000
11
2.890000
21
2.830000
0
LINE
8
1
10
2.890000
20
2.830000
11
2.880000
21
2.830000
0
LINE
8
1
10
2.880000
20
2.830000
11
2.870000
21
2.830000
0
LINE
8
1
10
2.870000
20
2.830000
11
2.860000
21
2.830000
0
LINE
8
1
10
2.860000
20
2.830000
11
2.850000
21
2.830000
0
LINE
8
1
10
2.850000
20
2.830000
11
2.840000
21
2.830000
0
LINE
8
1
10
2.840000
20
2.830000
11
2.830000
21
2.830000
0
LINE
8
1
10
2.830000
20
2.830000
11
2.820000
21
2.830000
0
LINE
8
1
10
2.820000
20
2.830000
11
2.810000
21
2.830000
0
LINE
8
1
10
2.810000
20
2.830000
11
2.800000
21
2.830000
0
LINE
8
1
10
2.800000
20
2.830000
11
2.790000
21
2.830000
0
LINE
8
1
10
2.790000
20
2.830000
11
2.780000
21
2.830000
0
LINE
8
1
10
2.780000
20
2.830000
11
2.770000
21
2.830000
0
LINE
8
1
10
2.770000
20
2.830000
11
2.760000
21
2.830000
0
LINE
8
1
10
2.760000
20
2.830000
11
2.750000
21
2.830000
0
LINE
8
1
10
2.750000
20
2.830000
11
2.740000
21
2.830000
0
LINE
8
1
10
2.740000
20
2.830000
11
2.730000
21
2.830000
0
LINE
8
1
10
2.730000
20
2.830000
11
2.720000
21
2.830000
0
LINE
8
1
10
2.720000
20
2.830000
11
2.710000
21
2.830000
0
LINE
8
1
10
2.710000
20
2.830000
11
2.700000
21
2.830000
0
LINE
8
1
10
2.700000
20
2.830000
11
2.690000
21
2.830000
0
LINE
8
1
10
2.690000
20
2.830000
11
2.680000
21
2.830000
0
LINE
8
1
10
2.680000
20
2.830000
11
2.670000
21
2.830000
0
LINE
8
1
10
2.670000
20
2.830000
11
2.660000
21
2.830000
0
LINE
8
1
10
2.660000
20
2.830000
11
2.650000
21
2.830000
0
LINE
8
1
10
2.650000
20
2.830000
11
2.640000
21
2.830000
0
LINE
8
1
10
2.640000
20
2.830000
11
2.630000
21
2.830000
0
LINE
8
1
10
2.630000
20
2.830000
11
2.620000
21
2.830000
0
LINE
8
1
10
2.620000
20
2.830000
11
2.610000
21
2.830000
0
LINE
8
1
10
2.610000
20
2.830000
11
2.600000
21
2.830000
0
LINE
8
1
10
2.600000
20
2.830000
11
2.590000
21
2.830000
0
LINE
8
1
10
2.590000
20
2.830000
11
2.580000
21
2.830000
0
LINE
8
1
10
2.580000
20
2.830000
11
2.570000
21
2.830000
0
LINE
8
1
10
2.570000
20
2.830000
11
2.560000
21
2.830000
0
LINE
8
1
10
2.560000
20
2.830000
11
2.550000
21
2.830000
0
LINE
8
1
10
2.550000
20
2.830000
11
2.540000
21
2.830000
0
LINE
8
1
10
2.540000
20
2.830000
11
2.530000
21
2.830000
0
LINE
8
1
10
2.530000
20
2.830000
11
2.520000
21
2.830000
0
LINE
8
1
10
2.520000
20
2.830000
11
2.510000
21
2.830000
0
LINE
8
1
10
2.510000
20
2.830000
11
2.500000
21
2.830000
0
LINE
8
1
10
2.500000
20
2.830000
11
2.490000
21
2.830000
0
LINE
8
1
10
2.490000
20
2.830000
11
2.480000
21
2.830000
0
LINE
8
1
10
2.480000
20
2.830000
11
2.470000
21
2.830000
0
LINE
8
1
10
2.470000
20
2.830000
11
2.460000
21
2.830000
0
LINE
8
1
10
2.460000
20
2.830000
11
2.450000
21
2.830000
0
LINE
8
1
10
2.450000
20
2.830000
11
2.440000
21
2.830000
0
LINE
8
1
10
2.440000
20
2.830000
11
2.430000
21
2.830000
0
LINE
8
1
10
2.430000
20
2.830000
11
2.420000
21
2.830000
0
LINE
8
1
10
2.420000
20
2.830000
11
2.410000
21
2.830000
0
LINE
8
1
10
2.410000
20
2.830000
11
2.400000
21
2.830000
0
LINE
8
1
10
2.400000
20
2.830000
11
2.390000
21
2.830000
0
LINE
8
1
10
2.390000
20
2.830000
11
2.380000
21
2.830000
0
LINE
8
1
10
2.380000
20
2.830000
11
2.370000
21
2.830000
0
LINE
8
1
10
2.370000
20
2.830000
11
2.360000
21
2.830000
0
LINE
8
1
10
2.360000
20
2.830000
11
2.350000
21
2.830000
0
ARC
8
1
10
2.665997
20
2.576002
40
0.405425
50
141.207698
51
162.190804
0
LINE
8
1
10
2.280000
20
2.700000
11
2.010000
21
2.110000
0
LINE
8
1
10
2.010000
20
2.110000
11
2.000000
21
2.120000
0
LINE
8
1
10
2.000000
20
2.120000
11
1.160000
21
3.990000
0
ARC
8
1
10
2.705281
20
2.799139
40
1.950909
50
122.746130
51
142.380570
0
ARC
8
1
10
-0.499905
20
3.290045
40
2.438132
50
21.408513
51
28.141729
0
ARC
8
1
10
1.735001
20
4.135000
40
0.057008
50
15.255255
51
52.125551
0
LINE
8
1
10
1.790000
20
4.150000
11
2.340000
21
2.940000
0
LINE
8
1
10
2.340000
20
2.940000
11
2.350000
21
2.940000
0
LINE
8
1
10
2.350000
20
2.940000
11
2.360000
21
2.940000
0
LINE
8
1
10
2.360000
20
2.940000
11
2.370000
21
2.940000
0
LINE
8
1
10
2.370000
20
2.940000
11
2.380000
21
2.940000
0
LINE
8
1
10
2.380000
20
2.940000
11
2.390000
21
2.940000
0
LINE
8
1
10
2.390000
20
2.940000
11
2.400000
21
2.940000
0
LINE
8
1
10
2.400000
20
2.940000
11
2.410000
21
2.940000
0
LINE
8
1
10
2.410000
20
2.940000
11
2.420000
21
2.940000
0
LINE
8
1
10
2.420000
20
2.940000
11
2.430000
21
2.940000
0
LINE
8
1
10
2.430000
20
2.940000
11
2.440000
21
2.940000
0
LINE
8
1
10
2.440000
20
2.940000
11
2.450000
21
2.940000
0
LINE
8
1
10
2.450000
20
2.940000
11
2.460000
21
2.940000
0
LINE
8
1
10
2.460000
20
2.940000
11
2.470000
21
2.940000
0
LINE
8
1
10
2.470000
20
2.940000
11
2.480000
21
2.940000
0
LINE
8
1
10
2.480000
20
2.940000
11
2.490000
21
2.940000
0
LINE
8
1
10
2.490000
20
2.940000
11
2.500000
21
2.940000
0
LINE
8
1
10
2.500000
20
2.940000
11
2.510000
21
2.940000
0
LINE
8
1
10
2.510000
20
2.940000
11
2.520000
21
2.940000
0
LINE
8
1
10
2.520000
20
2.940000
11
2.530000
21
2.940000
0
LINE
8
1
10
2.530000
20
2.940000
11
2.540000
21
2.940000
0
LINE
8
1
10
2.540000
20
2.940000
11
2.550000
21
2.940000
0
LINE
8
1
10
2.550000
20
2.940000
11
2.560000
21
2.940000
0
LINE
8
1
10
2.560000
20
2.940000
11
2.570000
21
2.940000
0
LINE
8
1
10
2.570000
20
2.940000
11
2.580000
21
2.940000
0
LINE
8
1
10
2.580000
20
2.940000
11
2.590000
21
2.940000
0
LINE
8
1
10
2.590000
20
2.940000
11
2.600000
21
2.940000
0
LINE
8
1
10
2.600000
20
2.940000
11
2.610000
21
2.940000
0
LINE
8
1
10
2.610000
20
2.940000
11
2.620000
21
2.940000
0
LINE
8
1
10
2.620000
20
2.940000
11
2.630000
21
2.940000
0
LINE
8
1
10
2.630000
20
2.940000
11
2.640000
21
2.940000
0
LINE
8
1
10
2.640000
20
2.940000
11
2.650000
21
2.940000
0
LINE
8
1
10
2.650000
20
2.940000
11
2.660000
21
2.940000
0
LINE
8
1
10
2.660000
20
2.940000
11
2.670000
21
2.940000
0
LINE
8
1
10
2.670000
20
2.940000
11
2.680000
21
2.940000
0
LINE
8
1
10
2.680000
20
2.940000
11
2.690000
21
2.940000
0
LINE
8
1
10
2.690000
20
2.940000
11
2.700000
21
2.940000
0
LINE
8
1
10
2.700000
20
2.940000
11
2.710000
21
2.940000
0
LINE
8
1
10
2.710000
20
2.940000
11
2.720000
21
2.940000
0
LINE
8
1
10
2.720000
20
2.940000
11
2.730000
21
2.940000
0
LINE
8
1
10
2.730000
20
2.940000
11
2.740000
21
2.940000
0
LINE
8
1
10
2.740000
20
2.940000
11
2.750000
21
2.940000
0
LINE
8
1
10
2.750000
20
2.940000
11
2.760000
21
2.940000
0
LINE
8
1
10
2.760000
20
2.940000
11
2.770000
21
2.940000
0
LINE
8
1
10
2.770000
20
2.940000
11
2.780000
21
2.940000
0
LINE
8
1
10
2.780000
20
2.940000
11
2.790000
21
2.940000
0
LINE
8
1
10
2.790000
20
2.940000
11
2.800000
21
2.940000
0
LINE
8
1
10
2.800000
20
2.940000
11
2.810000
21
2.940000
0
LINE
8
1
10
2.810000
20
2.940000
11
2.820000
21
2.940000
0
LINE
8
1
10
2.820000
20
2.940000
11
2.830000
21
2.940000
0
LINE
8
1
10
2.830000
20
2.940000
11
2.840000
21
2.940000
0
LINE
8
1
10
2.840000
20
2.940000
11
2.850000
21
2.940000
0
LINE
8
1
10
2.850000
20
2.940000
11
2.860000
21
2.940000
0
LINE
8
1
10
2.860000
20
2.940000
11
2.870000
21
2.940000
0
LINE
8
1
10
2.870000
20
2.940000
11
2.880000
21
2.940000
0
LINE
8
1
10
2.880000
20
2.940000
11
2.890000
21
2.940000
0
LINE
8
1
10
2.890000
20
2.940000
11
2.900000
21
2.940000
0
LINE
8
1
10
2.900000
20
2.940000
11
2.910000
21
2.940000
0
LINE
8
1
10
2.910000
20
2.940000
11
2.920000
21
2.940000
0
LINE
8
1
10
2.920000
20
2.940000
11
2.930000
21
2.940000
0
LINE
8
1
10
2.930000
20
2.940000
11
2.940000
21
2.940000
0
LINE
8
1
10
2.940000
20
2.940000
11
2.950000
21
2.940000
0
ARC
8
1
10
2.634003
20
3.193998
40
0.405425
50
-38.792297
51
-17.809191
0
LINE
8
1
10
3.020000
20
3.070000
11
3.640000
21
4.440000
0
ARC
8
1
10
3.267322
20
3.710148
40
0.819496
50
45.972680
51
62.950169
0
ARC
8
1
10
2.388836
20
2.676123
40
2.175258
50
36.827833
51
48.265100
0
ARC
8
1
10
3.962141
20
4.000715
40
0.169132
50
-40.889785
51
-7.035215
0
LINE
8
1
10
4.090000
20
3.890000
11
3.290000
21
2.110000
0
LINE
8
1
10
3.290000
20
2.110000
11
2.960000
21
2.830000
0
LINE
8
1
10
2.872776
20
4.016618
11
3.160000
21
4.660000
0
ARC
8
1
10
2.570918
20
2.605505
40
2.137281
50
74.000895
51
87.074473
0
LINE
8
1
10
2.680000
20
4.740000
11
2.670000
21
4.740000
0
LINE
8
1
10
2.670000
20
4.740000
11
2.660000
21
4.740000
0
LINE
8
1
10
2.660000
20
4.740000
11
2.650000
21
4.740000
0
LINE
8
1
10
2.650000
20
4.740000
11
2.640000
21
4.740000
0
LINE
8
1
10
2.640000
20
4.740000
11
2.630000
21
4.740000
0
LINE
8
1
10
2.630000
20
4.740000
11
2.620000
21
4.740000
0
LINE
8
1
10
2.620000
20
4.740000
11
2.610000
21
4.740000
0
LINE
8
1
10
2.610000
20
4.740000
11
2.600000
21
4.740000
0
LINE
8
1
10
2.600000
20
4.740000
11
2.590000
21
4.740000
0
LINE
8
1
10
2.590000
20
4.740000
11
2.580000
21
4.740000
0
ARC
8
1
10
2.575000
20
4.273554
40
0.466472
50
89.385832
51
100.612878
0
ARC
8
1
10
2.784278
20
2.420037
40
2.330779
50
97.275956
51
106.046753
0
ARC
8
1
10
3.186690
20
4.978343
40
1.094030
50
-163.083254
51
-149.919663
0
LINE
8
1
10
2.240000
20
4.430000
11
2.647751
21
3.512561
0
LINE
8
1
10
2.647751
20
3.512561
11
2.872776
21
4.016618
0
ENDSEC
0
EOF
