  0
SECTION
  2
HEADER
  9
$ACADVER
  1
AC1018
  9
$ACADMAINTVER
 70
     0
  9
$DWGCODEPAGE
  3
ANSI_1256
  9
$INSBASE
 10
0.0
 20
0.0
 30
0.0
  9
$EXTMIN
 10
0.0
 20
0.0
 30
0.0
  9
$EXTMAX
 10
17.343
 20
35.7012
 30
0.0
  9
$LIMMIN
 10
0.0
 20
0.0
  9
$LIMMAX
 10
12.0
 20
9.0
  9
$ORTHOMODE
 70
     0
  9
$REGENMODE
 70
     1
  9
$FILLMODE
 70
     1
  9
$QTEXTMODE
 70
     0
  9
$MIRRTEXT
 70
     1
  9
$LTSCALE
 40
1.0
  9
$ATTMODE
 70
     1
  9
$TEXTSIZE
 40
0.2
  9
$TRACEWID
 40
0.05
  9
$TEXTSTYLE
  7
Standard
  9
$CLAYER
  8
0
  9
$CELTYPE
  6
ByBlock
  9
$CECOLOR
 62
   256
  9
$CELTSCALE
 40
1.0
  9
$DISPSILH
 70
     0
  9
$DIMSCALE
 40
1.0
  9
$DIMASZ
 40
0.18
  9
$DIMEXO
 40
0.0625
  9
$DIMDLI
 40
0.38
  9
$DIMRND
 40
0.0
  9
$DIMDLE
 40
0.0
  9
$DIMEXE
 40
0.18
  9
$DIMTP
 40
0.0
  9
$DIMTM
 40
0.0
  9
$DIMTXT
 40
0.18
  9
$DIMCEN
 40
0.09
  9
$DIMTSZ
 40
0.0
  9
$DIMTOL
 70
     0
  9
$DIMLIM
 70
     0
  9
$DIMTIH
 70
     1
  9
$DIMTOH
 70
     1
  9
$DIMSE1
 70
     0
  9
$DIMSE2
 70
     0
  9
$DIMTAD
 70
     0
  9
$DIMZIN
 70
     0
  9
$DIMBLK
  1

  9
$DIMASO
 70
     1
  9
$DIMSHO
 70
     1
  9
$DIMPOST
  1

  9
$DIMAPOST
  1

  9
$DIMALT
 70
     0
  9
$DIMALTD
 70
     2
  9
$DIMALTF
 40
25.4
  9
$DIMLFAC
 40
1.0
  9
$DIMTOFL
 70
     0
  9
$DIMTVP
 40
0.0
  9
$DIMTIX
 70
     0
  9
$DIMSOXD
 70
     0
  9
$DIMSAH
 70
     0
  9
$DIMBLK1
  1

  9
$DIMBLK2
  1

  9
$DIMSTYLE
  2
Standard
  9
$DIMCLRD
 70
     0
  9
$DIMCLRE
 70
     0
  9
$DIMCLRT
 70
     0
  9
$DIMTFAC
 40
1.0
  9
$DIMGAP
 40
0.09
  9
$DIMJUST
 70
     0
  9
$DIMSD1
 70
     0
  9
$DIMSD2
 70
     0
  9
$DIMTOLJ
 70
     1
  9
$DIMTZIN
 70
     0
  9
$DIMALTZ
 70
     0
  9
$DIMALTTZ
 70
     0
  9
$DIMUPT
 70
     0
  9
$DIMDEC
 70
     4
  9
$DIMTDEC
 70
     4
  9
$DIMALTU
 70
     2
  9
$DIMALTTD
 70
     2
  9
$DIMTXSTY
  7
Standard
  9
$DIMAUNIT
 70
     0
  9
$DIMADEC
 70
     0
  9
$DIMALTRND
 40
0.0
  9
$DIMAZIN
 70
     0
  9
$DIMDSEP
 70
    46
  9
$DIMATFIT
 70
     3
  9
$DIMFRAC
 70
     0
  9
$DIMLDRBLK
  1

  9
$DIMLUNIT
 70
     2
  9
$DIMLWD
 70
    -2
  9
$DIMLWE
 70
    -2
  9
$DIMTMOVE
 70
     2
  9
$LUNITS
 70
     2
  9
$LUPREC
 70
     4
  9
$SKETCHINC
 40
0.1
  9
$FILLETRAD
 40
0.5
  9
$AUNITS
 70
     0
  9
$AUPREC
 70
     0
  9
$MENU
  1
.
  9
$ELEVATION
 40
0.0
  9
$PELEVATION
 40
0.0
  9
$THICKNESS
 40
0.0
  9
$LIMCHECK
 70
     0
  9
$CHAMFERA
 40
0.0
  9
$CHAMFERB
 40
0.0
  9
$CHAMFERC
 40
0.0
  9
$CHAMFERD
 40
0.0
  9
$SKPOLY
 70
     0
  9
$TDCREATE
 40
2457950.57946478
  9
$TDUCREATE
 40
2457950.45446478
  9
$TDUPDATE
 40
2457950.57946537
  9
$TDUUPDATE
 40
2457950.45446537
  9
$TDINDWG
 40
0.0000000116
  9
$TDUSRTIMER
 40
0.0000000116
  9
$USRTIMER
 70
     1
  9
$ANGBASE
 50
0.0
  9
$ANGDIR
 70
     0
  9
$PDMODE
 70
     0
  9
$PDSIZE
 40
0.0
  9
$PLINEWID
 40
0.0
  9
$SPLFRAME
 70
     0
  9
$SPLINETYPE
 70
     6
  9
$SPLINESEGS
 70
     8
  9
$HANDSEED
  5
EAC
  9
$SURFTAB1
 70
     6
  9
$SURFTAB2
 70
     6
  9
$SURFTYPE
 70
     6
  9
$SURFU
 70
     6
  9
$SURFV
 70
     6
  9
$UCSBASE
  2

  9
$UCSNAME
  2

  9
$UCSORG
 10
0.0
 20
0.0
 30
0.0
  9
$UCSXDIR
 10
1.0
 20
0.0
 30
0.0
  9
$UCSYDIR
 10
0.0
 20
1.0
 30
0.0
  9
$UCSORTHOREF
  2

  9
$UCSORTHOVIEW
 70
     0
  9
$UCSORGTOP
 10
0.0
 20
0.0
 30
0.0
  9
$UCSORGBOTTOM
 10
0.0
 20
0.0
 30
0.0
  9
$UCSORGLEFT
 10
0.0
 20
0.0
 30
0.0
  9
$UCSORGRIGHT
 10
0.0
 20
0.0
 30
0.0
  9
$UCSORGFRONT
 10
0.0
 20
0.0
 30
0.0
  9
$UCSORGBACK
 10
0.0
 20
0.0
 30
0.0
  9
$PUCSBASE
  2

  9
$PUCSNAME
  2

  9
$PUCSORG
 10
0.0
 20
0.0
 30
0.0
  9
$PUCSXDIR
 10
1.0
 20
0.0
 30
0.0
  9
$PUCSYDIR
 10
0.0
 20
1.0
 30
0.0
  9
$PUCSORTHOREF
  2

  9
$PUCSORTHOVIEW
 70
     0
  9
$PUCSORGTOP
 10
0.0
 20
0.0
 30
0.0
  9
$PUCSORGBOTTOM
 10
0.0
 20
0.0
 30
0.0
  9
$PUCSORGLEFT
 10
0.0
 20
0.0
 30
0.0
  9
$PUCSORGRIGHT
 10
0.0
 20
0.0
 30
0.0
  9
$PUCSORGFRONT
 10
0.0
 20
0.0
 30
0.0
  9
$PUCSORGBACK
 10
0.0
 20
0.0
 30
0.0
  9
$USERI1
 70
     0
  9
$USERI2
 70
     0
  9
$USERI3
 70
     0
  9
$USERI4
 70
     0
  9
$USERI5
 70
     0
  9
$USERR1
 40
0.0
  9
$USERR2
 40
0.0
  9
$USERR3
 40
0.0
  9
$USERR4
 40
0.0
  9
$USERR5
 40
0.0
  9
$WORLDVIEW
 70
     1
  9
$SHADEDGE
 70
     3
  9
$SHADEDIF
 70
    70
  9
$TILEMODE
 70
     1
  9
$MAXACTVP
 70
    64
  9
$PINSBASE
 10
0.0
 20
0.0
 30
0.0
  9
$PLIMCHECK
 70
     0
  9
$PEXTMIN
 10
1.000000000000000E+20
 20
1.000000000000000E+20
 30
1.000000000000000E+20
  9
$PEXTMAX
 10
-1.000000000000000E+20
 20
-1.000000000000000E+20
 30
-1.000000000000000E+20
  9
$PLIMMIN
 10
0.0
 20
0.0
  9
$PLIMMAX
 10
12.0
 20
9.0
  9
$UNITMODE
 70
     0
  9
$VISRETAIN
 70
     1
  9
$PLINEGEN
 70
     0
  9
$PSLTSCALE
 70
     1
  9
$TREEDEPTH
 70
  3020
  9
$CMLSTYLE
  2
Standard
  9
$CMLJUST
 70
     0
  9
$CMLSCALE
 40
1.0
  9
$PROXYGRAPHICS
 70
     1
  9
$MEASUREMENT
 70
     0
  9
$CELWEIGHT
370
    -1
  9
$ENDCAPS
280
     0
  9
$JOINSTYLE
280
     0
  9
$LWDISPLAY
290
     0
  9
$INSUNITS
 70
     0
  9
$HYPERLINKBASE
  1

  9
$STYLESHEET
  1

  9
$XEDIT
290
     1
  9
$CEPSNTYPE
380
     0
  9
$PSTYLEMODE
290
     1
  9
$FINGERPRINTGUID
  2
{121E7A34-5574-4ACB-A7EC-500F1DCC7D3F}
  9
$VERSIONGUID
  2
{FAEB1C32-E019-11D5-929B-00C0DF256EC4}
  9
$EXTNAMES
290
     1
  9
$PSVPSCALE
 40
0.0
  9
$OLESTARTUP
290
     0
  9
$SORTENTS
280
   127
  9
$INDEXCTL
280
     0
  9
$HIDETEXT
280
     1
  9
$XCLIPFRAME
290
     0
  9
$HALOGAP
280
     0
  9
$OBSCOLOR
 70
   257
  9
$OBSLTYPE
280
     0
  9
$INTERSECTIONDISPLAY
280
     0
  9
$INTERSECTIONCOLOR
 70
   257
  9
$DIMASSOC
280
     2
  9
$PROJECTNAME
  1

  0
ENDSEC
  0
SECTION
  2
CLASSES
  0
CLASS
  1
ACDBDICTIONARYWDFLT
  2
AcDbDictionaryWithDefault
  3
ObjectDBX Classes
 90
        0
 91
        4
280
     0
281
     0
  0
CLASS
  1
SCALE
  2
AcDbScale
  3
ObjectDBX Classes
 90
     1153
 91
        4
280
     0
281
     0
  0
CLASS
  1
VISUALSTYLE
  2
AcDbVisualStyle
  3
ObjectDBX Classes
 90
     4095
 91
        4
280
     0
281
     0
  0
CLASS
  1
MATERIAL
  2
AcDbMaterial
  3
ObjectDBX Classes
 90
     1153
 91
        4
280
     0
281
     0
  0
CLASS
  1
TABLESTYLE
  2
AcDbTableStyle
  3
ObjectDBX Classes
 90
     4095
 91
        4
280
     0
281
     0
  0
CLASS
  1
MLEADERSTYLE
  2
AcDbMLeaderStyle
  3
ACDB_MLEADERSTYLE_CLASS
 90
     4095
 91
        4
280
     0
281
     0
  0
CLASS
  1
DICTIONARYVAR
  2
AcDbDictionaryVar
  3
ObjectDBX Classes
 90
        0
 91
        4
280
     0
281
     0
  0
CLASS
  1
CELLSTYLEMAP
  2
AcDbCellStyleMap
  3
ObjectDBX Classes
 90
     1152
 91
        4
280
     0
281
     0
  0
ENDSEC
  0
SECTION
  2
TABLES
  0
TABLE
  2
VPORT
  5
8
102
{ACAD_XDICTIONARY
360
E65
102
}
330
0
100
AcDbSymbolTable
 70
     1
  0
VPORT
  5
21
330
8
100
AcDbSymbolTableRecord
100
AcDbViewportTableRecord
  2
*Active
 70
     0
 10
0.0
 20
0.0
 11
1.0
 21
1.0
 12
10.42990654205607
 22
4.5
 13
0.0
 23
0.0
 14
0.5
 24
0.5
 15
0.5
 25
0.5
 16
0.0
 26
0.0
 36
1.0
 17
0.0
 27
0.0
 37
0.0
 40
9.0
 41
1.972972972850329
 42
50.0
 43
0.0
 44
0.0
 50
0.0
 51
0.0
 71
     0
 72
   100
 73
     1
 74
     3
 75
     0
 76
     0
 77
     0
 78
     0
281
     0
 65
     1
110
0.0
120
0.0
130
0.0
111
1.0
121
0.0
131
0.0
112
0.0
122
1.0
132
0.0
 79
     0
146
0.0
  0
ENDTAB
  0
TABLE
  2
LTYPE
  5
5
330
0
100
AcDbSymbolTable
 70
     1
  0
LTYPE
  5
14
330
5
100
AcDbSymbolTableRecord
100
AcDbLinetypeTableRecord
  2
ByBlock
 70
     0
  3

 72
    65
 73
     0
 40
0.0
  0
LTYPE
  5
15
330
5
100
AcDbSymbolTableRecord
100
AcDbLinetypeTableRecord
  2
ByLayer
 70
     0
  3

 72
    65
 73
     0
 40
0.0
  0
LTYPE
  5
16
330
5
100
AcDbSymbolTableRecord
100
AcDbLinetypeTableRecord
  2
Continuous
 70
     0
  3
Solid line
 72
    65
 73
     0
 40
0.0
  0
ENDTAB
  0
TABLE
  2
LAYER
  5
2
330
0
100
AcDbSymbolTable
 70
     1
  0
LAYER
  5
10
330
2
100
AcDbSymbolTableRecord
100
AcDbLayerTableRecord
  2
0
 70
     0
 62
     7
  6
Continuous
370
    -3
390
F
  0
ENDTAB
  0
TABLE
  2
STYLE
  5
3
330
0
100
AcDbSymbolTable
 70
     1
  0
STYLE
  5
11
330
3
100
AcDbSymbolTableRecord
100
AcDbTextStyleTableRecord
  2
Standard
 70
     0
 40
0.0
 41
1.0
 50
0.0
 71
     0
 42
0.2
  3
txt
  4

  0
ENDTAB
  0
TABLE
  2
VIEW
  5
6
330
0
100
AcDbSymbolTable
 70
     0
  0
ENDTAB
  0
TABLE
  2
UCS
  5
7
330
0
100
AcDbSymbolTable
 70
     0
  0
ENDTAB
  0
TABLE
  2
APPID
  5
9
330
0
100
AcDbSymbolTable
 70
     2
  0
APPID
  5
12
330
9
100
AcDbSymbolTableRecord
100
AcDbRegAppTableRecord
  2
ACAD
 70
     0
  0
APPID
  5
EA3
330
9
100
AcDbSymbolTableRecord
100
AcDbRegAppTableRecord
  2
ACAD_MLEADERVER
 70
     0
  0
ENDTAB
  0
TABLE
  2
DIMSTYLE
  5
A
330
0
100
AcDbSymbolTable
 70
     1
100
AcDbDimStyleTable
  0
DIMSTYLE
105
20
330
A
100
AcDbSymbolTableRecord
100
AcDbDimStyleTableRecord
  2
Standard
 70
     0
178
     0
340
11
  0
ENDTAB
  0
TABLE
  2
BLOCK_RECORD
  5
1
330
0
100
AcDbSymbolTable
 70
     0
  0
BLOCK_RECORD
  5
1D
330
1
100
AcDbSymbolTableRecord
100
AcDbBlockTableRecord
  2
*Model_Space
340
1E
  0
BLOCK_RECORD
  5
1B
330
1
100
AcDbSymbolTableRecord
100
AcDbBlockTableRecord
  2
*Paper_Space
340
1C
  0
ENDTAB
  0
ENDSEC
  0
SECTION
  2
BLOCKS
  0
BLOCK
  5
E40
330
1D
100
AcDbEntity
  8
0
100
AcDbBlockBegin
  2
*Model_Space
 70
     0
 10
0.0
 20
0.0
 30
0.0
  3
*Model_Space
  1

  0
ENDBLK
  5
E41
330
1D
100
AcDbEntity
  8
0
100
AcDbBlockEnd
  0
BLOCK
  5
E42
330
1B
100
AcDbEntity
 67
     1
  8
0
100
AcDbBlockBegin
  2
*Paper_Space
 70
     0
 10
0.0
 20
0.0
 30
0.0
  3
*Paper_Space
  1

  0
ENDBLK
  5
E43
330
1B
100
AcDbEntity
 67
     1
  8
0
100
AcDbBlockEnd
  0
ENDSEC
  0
SECTION
  2
ENTITIES
  0
LWPOLYLINE
  5
22
330
1D
100
AcDbEntity
  8
0
100
AcDbPolyline
 90
        8
 70
     1
 43
0.0
 10
8.6715
 20
35.7012
 10
0.0
 20
35.7012
 10
0.0
 20
17.8506
 10
0.0
 20
0.0
 10
8.6715
 20
0.0
 10
17.343
 20
0.0
 10
17.343
 20
17.8506
 10
17.343
 20
35.7012
  0
LWPOLYLINE
  5
2C
330
1D
100
AcDbEntity
  8
0
100
AcDbPolyline
 90
       24
 70
     1
 43
0.0
 10
1.150906
 20
35.179608
 42
-0.009659
 10
1.540253
 20
35.152398
 42
-0.060911
 10
1.734444
 20
35.110853
 42
-0.091542
 10
1.876773
 20
35.030302
 42
-0.036015
 10
2.039206
 20
34.872927
 42
-0.036413
 10
2.177534
 20
34.693369
 42
-0.082977
 10
2.246793
 20
34.537463
 42
-0.05425
 10
2.276949
 20
34.329618
 42
-0.008922
 10
2.2842
 20
33.923265
 10
2.2842
 20
33.2478
 10
1.738281
 20
33.2478
 42
-0.016487
 10
1.513006
 20
33.25523
 42
-0.016239
 10
1.287564
 20
33.277489
 42
-0.016342
 10
1.091628
 20
33.309829
 42
-0.057882
 10
0.970536
 20
33.34887
 42
-0.054031
 10
0.876797
 20
33.404487
 42
-0.032478
 10
0.778459
 20
33.488733
 42
-0.032235
 10
0.690513
 20
33.586406
 42
-0.047873
 10
0.628155
 20
33.683069
 42
-0.063676
 10
0.578139
 20
33.82006
 42
-0.02173
 10
0.540295
 20
34.028697
 42
-0.01962
 10
0.515718
 20
34.281935
 42
-0.014379
 10
0.5076
 20
34.564146
 10
0.5076
 20
35.212094
  0
LWPOLYLINE
  5
46
330
1D
100
AcDbEntity
  8
0
100
AcDbPolyline
 90
       28
 70
     1
 43
0.0
 10
3.842073
 20
35.17425
 10
4.342445
 20
35.1513
 10
4.322508
 20
34.47885
 42
-0.010963
 10
4.308617
 20
34.209693
 42
-0.01311
 10
4.283343
 20
33.957061
 42
-0.011881
 10
4.251589
 20
33.746518
 42
-0.079654
 10
4.217176
 20
33.646838
 42
-0.078225
 10
4.164504
 20
33.577196
 42
-0.030779
 10
4.072685
 20
33.498974
 42
-0.029539
 10
3.961176
 20
33.425118
 42
-0.032551
 10
3.845208
 20
33.367538
 42
-0.044349
 10
3.699948
 20
33.321465
 42
-0.017341
 10
3.49291
 20
33.282973
 42
-0.017005
 10
3.264711
 20
33.256583
 42
-0.020285
 10
3.048317
 20
33.2478
 10
2.538
 20
33.2478
 10
2.539247
 20
33.86115
 42
-0.015446
 10
2.547491
 20
34.111478
 42
-0.016277
 10
2.571171
 20
34.356457
 42
-0.016114
 10
2.60518
 20
34.56568
 42
-0.067607
 10
2.646174
 20
34.686
 42
-0.06333
 10
2.707622
 20
34.7778
 42
-0.030135
 10
2.807444
 20
34.87939
 42
-0.029282
 10
2.926116
 20
34.974452
 42
-0.036698
 10
3.046777
 20
35.04735
 42
-0.0421
 10
3.209894
 20
35.11363
 42
-0.035909
 10
3.390718
 20
35.155972
 42
-0.031374
 10
3.598154
 20
35.175843
 42
-0.019654
  0
LWPOLYLINE
  5
64
330
1D
100
AcDbEntity
  8
0
100
AcDbPolyline
 90
       24
 70
     1
 43
0.0
 10
5.294469
 20
35.174684
 42
-0.010874
 10
5.65395
 20
35.143752
 42
-0.047766
 10
5.86232
 20
35.100853
 42
-0.072424
 10
6.013906
 20
35.028915
 42
-0.04945
 10
6.161619
 20
34.907867
 42
-0.050577
 10
6.286011
 20
34.755418
 42
-0.079841
 10
6.355301
 20
34.601904
 42
-0.047508
 10
6.392784
 20
34.383146
 42
-0.008296
 10
6.417131
 20
33.965008
 10
6.446963
 20
33.2478
 10
5.892362
 20
33.2478
 42
-0.016247
 10
5.663764
 20
33.25523
 42
-0.016117
 10
5.435514
 20
33.277489
 42
-0.016192
 10
5.237483
 20
33.309819
 42
-0.058395
 10
5.115936
 20
33.34887
 42
-0.054031
 10
5.022197
 20
33.404487
 42
-0.032478
 10
4.923859
 20
33.488733
 42
-0.032235
 10
4.835913
 20
33.586406
 42
-0.047873
 10
4.773555
 20
33.683069
 42
-0.063726
 10
4.723496
 20
33.820221
 42
-0.021752
 10
4.685661
 20
34.029091
 42
-0.019617
 10
4.661107
 20
34.282828
 42
-0.014311
 10
4.653
 20
34.566024
 10
4.653
 20
35.215851
  0
LWPOLYLINE
  5
7E
330
1D
100
AcDbEntity
  8
0
100
AcDbPolyline
 90
       24
 70
     1
 43
0.0
 10
8.024531
 20
35.193469
 10
8.561963
 20
35.1936
 10
8.532131
 20
34.476392
 42
-0.008238
 10
8.507564
 20
34.053622
 42
-0.049119
 10
8.469645
 20
33.836219
 42
-0.081739
 10
8.398358
 20
33.68239
 42
-0.047059
 10
8.267865
 20
33.524642
 42
-0.042832
 10
8.111944
 20
33.393308
 42
-0.089301
 10
7.96848
 20
33.32642
 42
-0.055639
 10
7.77044
 20
33.2971
 42
-0.008954
 10
7.379565
 20
33.2901
 10
6.7257
 20
33.2901
 10
6.700863
 20
33.75863
 42
-0.022742
 10
6.699337
 20
33.962536
 42
-0.016723
 10
6.715469
 20
34.187985
 42
-0.01697
 10
6.74518
 20
34.400643
 42
-0.035728
 10
6.785463
 20
34.56233
 42
-0.037077
 10
6.853271
 20
34.727422
 42
-0.058694
 10
6.937139
 20
34.855128
 42
-0.06039
 10
7.046481
 20
34.957361
 42
-0.041997
 10
7.191
 20
35.045419
 42
-0.044929
 10
7.351165
 20
35.108185
 42
-0.026985
 10
7.550155
 20
35.154723
 42
-0.024387
 10
7.777619
 20
35.183772
 42
-0.019505
  0
LWPOLYLINE
  5
98
330
1D
100
AcDbEntity
  8
0
100
AcDbPolyline
 90
       24
 70
     1
 43
0.0
 10
9.284694
 20
35.1936
 42
-0.016182
 10
9.497251
 20
35.186719
 42
-0.014014
 10
9.719419
 20
35.166054
 42
-0.014232
 10
9.919676
 20
35.135945
 42
-0.039453
 10
10.057346
 20
35.099828
 42
-0.053983
 10
10.170522
 20
35.046092
 42
-0.038308
 10
10.284353
 20
34.963491
 42
-0.038583
 10
10.383092
 20
34.865531
 42
-0.058814
 10
10.450671
 20
34.765629
 42
-0.061154
 10
10.502801
 20
34.625046
 42
-0.023116
 10
10.541771
 20
34.418759
 42
-0.020515
 10
10.566762
 20
34.168345
 42
-0.014612
 10
10.575
 20
33.886501
 10
10.575
 20
33.2478
 10
9.984135
 20
33.2478
 42
-0.01182
 10
9.637564
 20
33.255994
 42
-0.05758
 10
9.444085
 20
33.287676
 42
-0.078964
 10
9.292785
 20
33.357973
 42
-0.03418
 10
9.116985
 20
33.494659
 42
-0.036914
 10
8.954848
 20
33.662608
 42
-0.097598
 10
8.875202
 20
33.808602
 42
-0.058661
 10
8.83618
 20
34.01411
 42
-0.007349
 10
8.810869
 20
34.467559
 10
8.781037
 20
35.1936
  0
LWPOLYLINE
  5
B2
330
1D
100
AcDbEntity
  8
0
100
AcDbPolyline
 90
       30
 70
     1
 43
0.0
 10
12.0555
 20
35.183785
 42
-0.018562
 10
12.166582
 20
35.182945
 42
-0.013242
 10
12.290662
 20
35.1741
 42
-0.013397
 10
12.408674
 20
35.159339
 42
-0.027659
 10
12.49965
 20
35.140278
 42
-0.105611
 10
12.604261
 20
35.086839
 42
-0.154447
 10
12.66066
 20
35.001055
 42
-0.062174
 10
12.684981
 20
34.841149
 42
-0.006688
 10
12.69
 20
34.465968
 42
-0.010556
 10
12.68221
 20
34.097003
 42
-0.056124
 10
12.651233
 20
33.897911
 42
-0.080548
 10
12.581621
 20
33.745011
 42
-0.035322
 10
12.445006
 20
33.568473
 42
-0.036015
 10
12.282573
 20
33.411098
 42
-0.091542
 10
12.140244
 20
33.330547
 42
-0.060911
 10
11.946053
 20
33.289002
 42
-0.009659
 10
11.556706
 20
33.261792
 10
10.9134
 20
33.229306
 10
10.9134
 20
33.948281
 42
-0.009276
 10
10.920262
 20
34.318113
 42
-0.031851
 10
10.944417
 20
34.556974
 42
-0.049857
 10
10.989678
 20
34.724348
 42
-0.079399
 10
11.063486
 20
34.852603
 42
-0.060742
 10
11.142096
 20
34.928647
 42
-0.031789
 10
11.255865
 20
35.003822
 42
-0.031081
 10
11.384046
 20
35.067044
 42
-0.04129
 10
11.507636
 20
35.107116
 42
-0.013763
 10
11.63872
 20
35.134163
 42
-0.009229
 10
11.789872
 20
35.158168
 42
-0.009298
 10
11.937242
 20
35.176004
 42
-0.018074
  0
LWPOLYLINE
  5
D2
330
1D
100
AcDbEntity
  8
0
100
AcDbPolyline
 90
       24
 70
     1
 43
0.0
 10
13.25337
 20
35.170512
 42
-0.016199
 10
13.404353
 20
35.174538
 42
-0.008591
 10
13.591487
 20
35.170248
 42
-0.008541
 10
13.782875
 20
35.159293
 42
-0.013095
 10
13.948121
 20
35.142638
 42
-0.033333
 10
14.122727
 20
35.108463
 42
-0.043385
 10
14.27589
 20
35.053138
 42
-0.046711
 10
14.407836
 20
34.976411
 42
-0.050876
 10
14.519171
 20
34.878423
 42
-0.055609
 10
14.627792
 20
34.731403
 42
-0.077843
 10
14.68673
 20
34.57937
 42
-0.045452
 10
14.713719
 20
34.362156
 42
-0.008194
 10
14.7204
 20
33.954546
 10
14.7204
 20
33.2478
 10
14.129535
 20
33.2478
 42
-0.01182
 10
13.782964
 20
33.255994
 42
-0.05758
 10
13.589485
 20
33.287676
 42
-0.078964
 10
13.438185
 20
33.357973
 42
-0.03418
 10
13.262385
 20
33.494659
 42
-0.036397
 10
13.100824
 20
33.661666
 42
-0.096758
 10
13.021158
 20
33.806409
 42
-0.059599
 10
12.982033
 20
34.008565
 42
-0.00781
 10
12.95727
 20
34.446409
 10
12.92844
 20
35.1513
  0
LWPOLYLINE
  5
EC
330
1D
100
AcDbEntity
  8
0
100
AcDbPolyline
 90
       24
 70
     1
 43
0.0
 10
16.3701
 20
35.159925
 10
16.7931
 20
35.140777
 10
16.817895
 20
34.485574
 42
-0.008143
 10
16.826981
 20
34.063813
 42
-0.07004
 10
16.801752
 20
33.877505
 42
-0.10225
 10
16.727652
 20
33.73456
 42
-0.025846
 10
16.551405
 20
33.539085
 42
-0.026734
 10
16.361495
 20
33.368466
 42
-0.090958
 10
16.21587
 20
33.289463
 42
-0.068218
 10
16.03035
 20
33.255813
 42
-0.010802
 10
15.65946
 20
33.2478
 10
15.0588
 20
33.2478
 10
15.060681
 20
33.94575
 42
-0.010015
 10
15.068783
 20
34.302198
 42
-0.031921
 10
15.0941
 20
34.538849
 42
-0.048205
 10
15.140451
 20
34.708483
 42
-0.073285
 10
15.214833
 20
34.841657
 42
-0.059732
 10
15.294085
 20
34.922574
 42
-0.03306
 10
15.407561
 20
35.001948
 42
-0.032469
 10
15.534911
 20
35.068144
 42
-0.044649
 10
15.657102
 20
35.109344
 42
-0.028604
 10
15.798027
 20
35.134809
 42
-0.01269
 10
15.986169
 20
35.152965
 42
-0.012513
 10
16.186922
 20
35.162165
 42
-0.016504
  0
LWPOLYLINE
  5
106
330
1D
100
AcDbEntity
  8
0
100
AcDbPolyline
 90
       28
 70
     1
 43
0.0
 10
1.75545
 20
32.993479
 10
2.2842
 20
32.994
 10
2.2842
 20
32.351403
 42
-0.013151
 10
2.276041
 20
32.04125
 42
-0.027495
 10
2.25012
 20
31.801227
 42
-0.035314
 10
2.205247
 20
31.612267
 42
-0.057517
 10
2.138311
 20
31.461837
 42
-0.053279
 10
2.057449
 20
31.353235
 42
-0.046423
 10
1.951913
 20
31.258497
 42
-0.045498
 10
1.828389
 20
31.183133
 42
-0.04651
 10
1.694161
 20
31.132005
 42
-0.027666
 10
1.548623
 20
31.100122
 42
-0.012142
 10
1.353045
 20
31.073346
 42
-0.011974
 10
1.143633
 20
31.054905
 42
-0.015707
 10
0.95175
 20
31.048672
 10
0.5076
 20
31.0482
 10
0.510291
 20
31.74615
 42
-0.011579
 10
0.518521
 20
32.050792
 42
-0.020948
 10
0.541452
 20
32.299173
 42
-0.023774
 10
0.576196
 20
32.488507
 42
-0.105513
 10
0.624051
 20
32.59035
 42
-0.046571
 10
0.683829
 20
32.655478
 42
-0.019894
 10
0.774695
 20
32.731292
 42
-0.01948
 10
0.878664
 20
32.804985
 42
-0.024243
 10
0.98091
 20
32.864779
 42
-0.056756
 10
1.114055
 20
32.916009
 42
-0.022318
 10
1.306609
 20
32.956907
 42
-0.021032
 10
1.528189
 20
32.98421
 42
-0.019892
  0
LWPOLYLINE
  5
124
330
1D
100
AcDbEntity
  8
0
100
AcDbPolyline
 90
       24
 70
     1
 43
0.0
 10
3.222984
 20
32.980809
 42
-0.008365
 10
3.629604
 20
32.955521
 42
-0.053459
 10
3.832291
 20
32.917452
 42
-0.09161
 10
3.971822
 20
32.845663
 42
-0.050678
 10
4.111284
 20
32.713333
 42
-0.051343
 10
4.22094
 20
32.555693
 42
-0.073758
 10
4.280433
 20
32.396634
 42
-0.044371
 10
4.307751
 20
32.173813
 42
-0.008327
 10
4.3146
 20
31.762582
 10
4.3146
 20
31.0482
 10
3.846583
 20
31.0482
 42
-0.022547
 10
3.645678
 20
31.057264
 42
-0.017615
 10
3.42897
 20
31.084582
 42
-0.01794
 10
3.228679
 20
31.124454
 42
-0.040873
 10
3.082138
 20
31.172055
 42
-0.044426
 10
2.943134
 20
31.245232
 42
-0.053058
 10
2.828011
 20
31.338211
 42
-0.053058
 10
2.735032
 20
31.453334
 42
-0.044426
 10
2.661855
 20
31.592338
 42
-0.046172
 10
2.614166
 20
31.744616
 42
-0.016966
 10
2.574382
 20
31.966653
 42
-0.01665
 10
2.547092
 20
32.213596
 42
-0.019195
 10
2.538
 20
32.450341
 10
2.538
 20
33.011916
  0
LWPOLYLINE
  5
13E
330
1D
100
AcDbEntity
  8
0
100
AcDbPolyline
 90
       28
 70
     1
 43
0.0
 10
5.85855
 20
32.990613
 10
6.4296
 20
32.994
 10
6.4296
 20
32.336024
 42
-0.011856
 10
6.422086
 20
32.019158
 42
-0.028149
 10
6.397684
 20
31.784702
 42
-0.038145
 10
6.355471
 20
31.60935
 42
-0.074769
 10
6.291643
 20
31.481087
 42
-0.052461
 10
6.218607
 20
31.397112
 42
-0.026774
 10
6.111278
 20
31.307332
 42
-0.026273
 10
5.989563
 20
31.225744
 42
-0.035569
 10
5.871361
 20
31.166163
 42
-0.042269
 10
5.730391
 20
31.120806
 42
-0.017719
 10
5.534488
 20
31.082852
 42
-0.017381
 10
5.320897
 20
31.056842
 42
-0.021608
 10
5.121017
 20
31.0482
 10
4.653
 20
31.0482
 10
4.653
 20
31.730562
 42
-0.011633
 10
4.659356
 20
32.003696
 42
-0.013955
 10
4.678476
 20
32.260082
 42
-0.012691
 10
4.705909
 20
32.473691
 42
-0.084774
 10
4.739727
 20
32.574974
 42
-0.058845
 10
4.78927
 20
32.646018
 42
-0.02717
 10
4.868694
 20
32.726171
 42
-0.026457
 10
4.962361
 20
32.80234
 42
-0.03317
 10
5.056977
 20
32.862125
 42
-0.06227
 10
5.187111
 20
32.913023
 42
-0.02238
 10
5.382301
 20
32.953341
 42
-0.020753
 10
5.612933
 20
32.980552
 42
-0.017504
  0
LWPOLYLINE
  5
15C
330
1D
100
AcDbEntity
  8
0
100
AcDbPolyline
 90
       24
 70
     1
 43
0.0
 10
7.316565
 20
32.994
 42
-0.010218
 10
7.69319
 20
32.986302
 42
-0.056068
 10
7.893866
 20
32.95538
 42
-0.081176
 10
8.04757
 20
32.885463
 42
-0.035021
 10
8.226015
 20
32.74728
 42
-0.034291
 10
8.39049
 20
32.578781
 42
-0.105952
 10
8.465461
 20
32.43945
 42
-0.063627
 10
8.495926
 20
32.245043
 42
-0.00709
 10
8.5023
 20
31.79553
 10
8.5023
 20
31.0905
 10
7.9947
 20
31.06755
 42
-0.019208
 10
7.746814
 20
31.065872
 42
-0.03125
 10
7.537339
 20
31.085646
 42
-0.035951
 10
7.355336
 20
31.127968
 42
-0.042064
 10
7.191
 20
31.19445
 42
-0.041944
 10
7.053758
 20
31.279036
 42
-0.051829
 10
6.942858
 20
31.380245
 42
-0.052942
 10
6.856929
 20
31.500177
 42
-0.046851
 10
6.793925
 20
31.6404
 42
-0.036533
 10
6.754727
 20
31.790393
 42
-0.013769
 10
6.721209
 20
32.004841
 42
-0.013554
 10
6.697407
 20
32.241102
 42
-0.016068
 10
6.688175
 20
32.46525
 10
6.6834
 20
32.994
  0
LWPOLYLINE
  5
176
330
1D
100
AcDbEntity
  8
0
100
AcDbPolyline
 90
       28
 70
     1
 43
0.0
 10
10.04625
 20
32.988638
 10
10.575
 20
32.994
 10
10.575
 20
32.286436
 42
-0.007765
 10
10.568509
 20
31.86853
 42
-0.04906
 10
10.541134
 20
31.657663
 42
-0.086297
 10
10.479469
 20
31.511529
 42
-0.053532
 10
10.362298
 20
31.366171
 42
-0.041191
 10
10.261644
 20
31.280863
 42
-0.028029
 10
10.134771
 20
31.200489
 42
-0.028308
 10
10.002636
 20
31.136328
 42
-0.049552
 10
9.886423
 20
31.100835
 42
-0.021226
 10
9.7568
 20
31.080587
 42
-0.008688
 10
9.579407
 20
31.063661
 42
-0.008578
 10
9.388003
 20
31.052049
 42
-0.01086
 10
9.210825
 20
31.0482
 10
8.7984
 20
31.0482
 10
8.7984
 20
31.713591
 42
-0.010239
 10
8.805791
 20
32.074502
 42
-0.039619
 10
8.832609
 20
32.296633
 42
-0.060765
 10
8.886642
 20
32.459286
 42
-0.056162
 10
8.979285
 20
32.60894
 42
-0.02826
 10
9.061645
 20
32.702273
 42
-0.023105
 10
9.159518
 20
32.792553
 42
-0.023701
 10
9.257562
 20
32.867314
 42
-0.055078
 10
9.338835
 20
32.911086
 42
-0.056328
 10
9.44057
 20
32.939401
 42
-0.012431
 10
9.620337
 20
32.963645
 42
-0.012776
 10
9.830718
 20
32.981282
 42
-0.011987
  0
LWPOLYLINE
  5
194
330
1D
100
AcDbEntity
  8
0
100
AcDbPolyline
 90
       24
 70
     1
 43
0.0
 10
11.547606
 20
32.980468
 42
-0.01074
 10
11.909541
 20
32.954387
 42
-0.05082
 10
12.113311
 20
32.914147
 42
-0.076686
 10
12.262681
 20
32.842068
 42
-0.045698
 10
12.414756
 20
32.715529
 42
-0.047655
 10
12.54421
 20
32.558752
 42
-0.081471
 10
12.61516
 20
32.405028
 42
-0.048858
 10
12.653001
 20
32.187433
 42
-0.008245
 10
12.677531
 20
31.765408
 10
12.707363
 20
31.0482
 10
12.14458
 20
31.0482
 42
-0.01795
 10
11.899457
 20
31.057003
 42
-0.021175
 10
11.668859
 20
31.083438
 42
-0.023008
 10
11.471963
 20
31.123861
 42
-0.057251
 10
11.334707
 20
31.175976
 42
-0.032615
 10
11.233721
 20
31.236847
 42
-0.026997
 10
11.134611
 20
31.314029
 42
-0.027828
 10
11.051286
 20
31.395032
 42
-0.063206
 10
11.000508
 20
31.466514
 42
-0.085077
 10
10.966535
 20
31.568467
 42
-0.012576
 10
10.938988
 20
31.784625
 42
-0.013871
 10
10.919783
 20
32.044157
 42
-0.011531
 10
10.9134
 20
32.320885
 10
10.9134
 20
33.012494
  0
LWPOLYLINE
  5
1AE
330
1D
100
AcDbEntity
  8
0
100
AcDbPolyline
 90
       28
 70
     1
 43
0.0
 10
14.23395
 20
32.993869
 10
14.7204
 20
32.994
 10
14.7204
 20
32.311638
 42
-0.012239
 10
14.713698
 20
32.037866
 42
-0.014447
 10
14.693548
 20
31.779548
 42
-0.01336
 10
14.664592
 20
31.563862
 42
-0.082996
 10
14.62899
 20
31.458476
 42
-0.074674
 10
14.573843
 20
31.384479
 42
-0.031491
 10
14.480252
 20
31.302675
 42
-0.030281
 10
14.367419
 20
31.226343
 42
-0.034631
 10
14.251008
 20
31.167938
 42
-0.044349
 10
14.105748
 20
31.121865
 42
-0.017341
 10
13.89871
 20
31.083373
 42
-0.017005
 10
13.670511
 20
31.056983
 42
-0.020285
 10
13.454117
 20
31.0482
 10
12.9438
 20
31.0482
 10
12.945047
 20
31.66155
 42
-0.015446
 10
12.953291
 20
31.911878
 42
-0.016277
 10
12.976971
 20
32.156857
 42
-0.016114
 10
13.01098
 20
32.36608
 42
-0.067607
 10
13.051974
 20
32.4864
 42
-0.063708
 10
13.113432
 20
32.578065
 42
-0.030425
 10
13.213244
 20
32.679223
 42
-0.02956
 10
13.331916
 20
32.773659
 42
-0.03706
 10
13.452577
 20
32.845819
 42
-0.044312
 10
13.605814
 20
32.90637
 42
-0.02513
 10
13.799851
 20
32.953342
 42
-0.02363
 10
14.015168
 20
32.983685
 42
-0.023125
  0
LWPOLYLINE
  5
1CC
330
1D
100
AcDbEntity
  8
0
100
AcDbPolyline
 90
       24
 70
     1
 43
0.0
 10
15.693006
 20
32.980468
 42
-0.01074
 10
16.054941
 20
32.954387
 42
-0.05082
 10
16.258711
 20
32.914147
 42
-0.076686
 10
16.408081
 20
32.842068
 42
-0.045698
 10
16.560156
 20
32.715529
 42
-0.047655
 10
16.68961
 20
32.558752
 42
-0.081471
 10
16.76056
 20
32.405028
 42
-0.048858
 10
16.798401
 20
32.187433
 42
-0.008245
 10
16.822931
 20
31.765408
 10
16.852763
 20
31.0482
 10
16.349106
 20
31.0482
 42
-0.015741
 10
16.137146
 20
31.054874
 42
-0.013857
 10
15.916775
 20
31.074911
 42
-0.014059
 10
15.718996
 20
31.104095
 42
-0.040224
 10
15.584607
 20
31.13913
 42
-0.044855
 10
15.475033
 20
31.188732
 42
-0.031441
 10
15.36147
 20
31.262744
 42
-0.031857
 10
15.260879
 20
31.348186
 42
-0.055788
 10
15.191282
 20
31.432254
 42
-0.074684
 10
15.130819
 20
31.563762
 42
-0.033583
 10
15.090223
 20
31.749917
 42
-0.025471
 10
15.06626
 20
31.9971
 42
-0.011428
 10
15.0588
 20
32.32347
 10
15.0588
 20
33.012494
  0
LWPOLYLINE
  5
1E6
330
1D
100
AcDbEntity
  8
0
100
AcDbPolyline
 90
       28
 70
     1
 43
0.0
 10
1.061701
 20
30.7944
 42
-0.018495
 10
1.298843
 20
30.785625
 42
-0.020316
 10
1.527316
 20
30.759327
 42
-0.021587
 10
1.7238
 20
30.719827
 42
-0.058991
 10
1.856229
 20
30.670071
 42
-0.058814
 10
1.956131
 20
30.602492
 42
-0.038583
 10
2.054091
 20
30.503753
 42
-0.038308
 10
2.136692
 20
30.389922
 42
-0.053983
 10
2.190428
 20
30.276746
 42
-0.04352
 10
2.226621
 20
30.134078
 42
-0.013238
 10
2.256654
 20
29.912931
 42
-0.013146
 10
2.277311
 20
29.662263
 42
-0.013983
 10
2.2842
 20
29.415965
 10
2.2842
 20
28.824178
 10
1.66028
 20
28.871365
 42
-0.013804
 10
1.408673
 20
28.897396
 42
-0.015519
 10
1.168594
 20
28.936567
 42
-0.014905
 10
0.967386
 20
28.982106
 42
-0.076615
 10
0.8626
 20
29.027066
 42
-0.047429
 10
0.789453
 20
29.083024
 42
-0.028178
 10
0.713263
 20
29.162129
 42
-0.028019
 10
0.645574
 20
29.250384
 42
-0.042706
 10
0.59822
 20
29.334471
 42
-0.066021
 10
0.563062
 20
29.449893
 42
-0.01375
 10
0.53422
 20
29.660152
 42
-0.014211
 10
0.514255
 20
29.907904
 42
-0.012998
 10
0.5076
 20
30.163881
 10
0.5076
 20
30.7944
  0
LWPOLYLINE
  5
204
330
1D
100
AcDbEntity
  8
0
100
AcDbPolyline
 90
       30
 70
     1
 43
0.0
 10
3.74355
 20
30.792149
 10
4.3146
 20
30.7944
 10
4.311785
 20
30.09645
 42
-0.009273
 10
4.303233
 20
29.717742
 42
-0.038212
 10
4.27637
 20
29.490193
 42
-0.061589
 10
4.223449
 20
29.328837
 42
-0.063449
 10
4.133201
 20
29.187
 42
-0.064473
 10
4.010062
 20
29.072598
 42
-0.082638
 10
3.871304
 20
29.004718
 42
-0.047843
 10
3.665231
 20
28.964134
 42
-0.009053
 10
3.282898
 20
28.9332
 42
-0.005169
 10
3.021822
 20
28.919536
 42
-0.008005
 10
2.796173
 20
28.91368
 42
-0.003339
 10
2.604596
 20
28.913057
 42
-0.198274
 10
2.573182
 20
28.92615
 42
-0.177356
 10
2.559113
 20
28.956556
 42
-0.004847
 10
2.548335
 20
29.104728
 42
-0.009455
 10
2.540548
 20
29.281533
 42
-0.006275
 10
2.538
 20
29.484576
 42
-0.014526
 10
2.544349
 20
29.703063
 42
-0.013381
 10
2.56339
 20
29.926901
 42
-0.013515
 10
2.591092
 20
30.125421
 42
-0.042463
 10
2.624433
 20
30.255693
 42
-0.05336
 10
2.674313
 20
30.361085
 42
-0.033233
 10
2.753279
 20
30.472847
 42
-0.033115
 10
2.846972
 20
30.573873
 42
-0.050482
 10
2.941683
 20
30.646766
 42
-0.060225
 10
3.078465
 20
30.710289
 42
-0.03379
 10
3.256429
 20
30.755145
 42
-0.027818
 10
3.476588
 20
30.782527
 42
-0.016044
  0
LWPOLYLINE
  5
224
330
1D
100
AcDbEntity
  8
0
100
AcDbPolyline
 90
       30
 70
     1
 43
0.0
 10
5.197393
 20
30.7944
 42
-0.013748
 10
5.42203
 20
30.788222
 42
-0.013598
 10
5.646818
 20
30.769707
 42
-0.013579
 10
5.842445
 20
30.74283
 42
-0.049949
 10
5.962885
 20
30.710338
 42
-0.072529
 10
6.060091
 20
30.656204
 42
-0.044939
 10
6.15653
 20
30.56766
 42
-0.042343
 10
6.242048
 20
30.456001
 42
-0.043322
 10
6.306792
 20
30.332355
 42
-0.045948
 10
6.354074
 20
30.181615
 42
-0.017015
 10
6.393525
 20
29.962442
 42
-0.016694
 10
6.420586
 20
29.718948
 42
-0.019326
 10
6.4296
 20
29.485817
 42
-0.011374
 10
6.423859
 20
29.233495
 42
-0.03536
 10
6.404148
 20
29.064602
 42
-0.056308
 10
6.371925
 20
28.960202
 42
-0.281066
 10
6.32385
 20
28.926535
 42
-0.015455
 10
6.256233
 20
28.924368
 42
-0.001407
 10
6.087631
 20
28.924653
 42
-0.001822
 10
5.886518
 20
28.926292
 42
-0.001424
 10
5.6682
 20
28.929488
 42
-0.012753
 10
5.346479
 20
28.943328
 42
-0.063672
 10
5.16966
 20
28.978375
 42
-0.088336
 10
5.035641
 20
29.051426
 42
-0.037615
 10
4.88565
 20
29.191287
 42
-0.041375
 10
4.755812
 20
29.357744
 42
-0.083695
 10
4.689331
 20
29.50957
 42
-0.0527
 10
4.660066
 20
29.7166
 42
-0.008781
 10
4.653
 20
30.118935
 10
4.653
 20
30.7944
  0
LWPOLYLINE
  5
244
330
1D
100
AcDbEntity
  8
0
100
AcDbPolyline
 90
       28
 70
     1
 43
0.0
 10
7.97355
 20
30.789038
 10
8.5446
 20
30.7944
 10
8.5446
 20
30.197999
 42
-0.016289
 10
8.536028
 20
29.934953
 42
-0.021301
 10
8.510156
 20
29.695759
 42
-0.023719
 10
8.469952
 20
29.49513
 42
-0.058078
 10
8.416824
 20
29.354507
 42
-0.032615
 10
8.355953
 20
29.253521
 42
-0.026997
 10
8.278771
 20
29.154411
 42
-0.027828
 10
8.197768
 20
29.071086
 42
-0.063206
 10
8.126286
 20
29.020308
 42
-0.082931
 10
8.025906
 20
28.986383
 42
-0.013385
 10
7.820685
 20
28.958788
 42
-0.014464
 10
7.574921
 20
28.939587
 42
-0.012261
 10
7.314504
 20
28.9332
 10
6.665484
 20
28.9332
 10
6.695828
 20
29.601379
 42
-0.010901
 10
6.718871
 20
29.943844
 42
-0.034959
 10
6.755033
 20
30.169541
 42
-0.052734
 10
6.810906
 20
30.330488
 42
-0.073413
 10
6.895136
 20
30.457364
 42
-0.0267
 10
6.972214
 20
30.534346
 42
-0.020357
 10
7.064169
 20
30.610345
 42
-0.020743
 10
7.156439
 20
30.674628
 42
-0.04466
 10
7.2333
 20
30.714423
 42
-0.060707
 10
7.332764
 20
30.741653
 42
-0.011376
 10
7.520543
 20
30.764907
 42
-0.012024
 10
7.742517
 20
30.781902
 42
-0.010744
  0
LWPOLYLINE
  5
262
330
1D
100
AcDbEntity
  8
0
100
AcDbPolyline
 90
       20
 70
     1
 43
0.0
 10
9.474318
 20
30.781621
 42
-0.008151
 10
9.887323
 20
30.756113
 42
-0.053079
 10
10.09165
 20
30.718077
 42
-0.091885
 10
10.231804
 20
30.64629
 42
-0.050998
 10
10.371684
 20
30.513733
 42
-0.050029
 10
10.48035
 20
30.358386
 42
-0.072687
 10
10.540013
 20
30.202387
 42
-0.045697
 10
10.567825
 20
29.987729
 42
-0.009379
 10
10.575
 20
29.605282
 10
10.575
 20
28.9332
 10
9.912947
 20
28.9332
 42
-0.008529
 10
9.52168
 20
28.939875
 42
-0.053167
 10
9.323488
 20
28.967875
 42
-0.09092
 10
9.185188
 20
29.030955
 42
-0.051853
 10
9.045797
 20
29.151465
 42
-0.057332
 10
8.936005
 20
29.299
 42
-0.070096
 10
8.871438
 20
29.458217
 42
-0.042213
 10
8.834541
 20
29.685514
 42
-0.008677
 10
8.810484
 20
30.091435
 10
8.780268
 20
30.813139
  0
LWPOLYLINE
  5
278
330
1D
100
AcDbEntity
  8
0
100
AcDbPolyline
 90
       28
 70
     1
 43
0.0
 10
12.11895
 20
30.794084
 10
12.69
 20
30.7944
 10
12.688753
 20
30.18105
 42
-0.015446
 10
12.680509
 20
29.930722
 42
-0.016277
 10
12.656829
 20
29.685743
 42
-0.016114
 10
12.62282
 20
29.47652
 42
-0.067607
 10
12.581826
 20
29.3562
 42
-0.063319
 10
12.520378
 20
29.264397
 42
-0.030127
 10
12.420556
 20
29.162793
 42
-0.029274
 10
12.301884
 20
29.067713
 42
-0.036687
 10
12.181223
 20
28.994793
 42
-0.041395
 10
12.021858
 20
28.929747
 42
-0.034858
 10
11.844533
 20
28.887275
 42
-0.031441
 10
11.645556
 20
28.866801
 42
-0.022274
 10
11.421
 20
28.867893
 10
10.9557
 20
28.8909
 10
10.930243
 20
29.48133
 42
-0.008738
 10
10.924086
 20
29.721657
 42
-0.009489
 10
10.926622
 20
29.955528
 42
-0.009048
 10
10.936211
 20
30.155509
 42
-0.045004
 10
10.953663
 20
30.266505
 42
-0.084075
 10
10.991634
 20
30.353
 42
-0.03658
 10
11.068283
 20
30.452881
 42
-0.034872
 10
11.167266
 20
30.549519
 42
-0.039059
 10
11.27522
 20
30.627508
 42
-0.047404
 10
11.435167
 20
30.705325
 42
-0.040808
 10
11.615113
 20
30.756386
 42
-0.032822
 10
11.834835
 20
30.784956
 42
-0.015783
  0
LWPOLYLINE
  5
296
330
1D
100
AcDbEntity
  8
0
100
AcDbPolyline
 90
       24
 70
     1
 43
0.0
 10
13.584808
 20
30.7944
 42
-0.009299
 10
13.97292
 20
30.787182
 42
-0.059301
 10
14.167149
 20
30.756702
 42
-0.090906
 10
14.311046
 20
30.686226
 42
-0.037181
 10
14.476578
 20
30.543637
 42
-0.036691
 10
14.623276
 20
30.37367
 42
-0.101703
 10
14.689637
 20
30.231232
 42
-0.060118
 10
14.712016
 20
30.034366
 42
-0.007052
 10
14.70272
 20
29.591887
 10
14.6781
 20
28.8909
 10
14.071629
 20
28.895982
 42
-0.013642
 10
13.79956
 20
28.905689
 42
-0.02599
 10
13.582155
 20
28.930782
 42
-0.031883
 10
13.417771
 20
28.96938
 42
-0.099833
 10
13.318274
 20
29.022882
 42
-0.051785
 10
13.253907
 20
29.08861
 42
-0.021757
 10
13.18111
 20
29.188884
 42
-0.021247
 10
13.111937
 20
29.303774
 42
-0.025889
 10
13.057595
 20
29.416933
 42
-0.048243
 10
13.013743
 20
29.558936
 42
-0.016506
 10
12.977227
 20
29.771528
 42
-0.016232
 10
12.952159
 20
30.010241
 42
-0.018045
 10
12.9438
 20
30.241783
 10
12.9438
 20
30.7944
  0
LWPOLYLINE
  5
2B0
330
1D
100
AcDbEntity
  8
0
100
AcDbPolyline
 90
       28
 70
     1
 43
0.0
 10
16.26435
 20
30.789038
 10
16.8354
 20
30.7944
 10
16.834153
 20
30.18105
 42
-0.015446
 10
16.825909
 20
29.930722
 42
-0.016277
 10
16.802229
 20
29.685743
 42
-0.016114
 10
16.76822
 20
29.47652
 42
-0.067607
 10
16.727226
 20
29.3562
 42
-0.063708
 10
16.665768
 20
29.264535
 42
-0.030425
 10
16.565956
 20
29.163377
 42
-0.02956
 10
16.447284
 20
29.068941
 42
-0.03706
 10
16.326623
 20
28.996781
 42
-0.044312
 10
16.173386
 20
28.93623
 42
-0.02513
 10
15.979349
 20
28.889258
 42
-0.02363
 10
15.764032
 20
28.858915
 42
-0.023125
 10
15.54525
 20
28.848731
 10
15.0588
 20
28.8486
 10
15.0588
 20
29.548876
 42
-0.010713
 10
15.066062
 20
29.887743
 42
-0.027007
 10
15.089918
 20
30.133292
 42
-0.037376
 10
15.131362
 20
30.313895
 42
-0.077838
 10
15.194752
 20
30.443251
 42
-0.03783
 10
15.260064
 20
30.522929
 42
-0.027119
 10
15.344024
 20
30.601825
 42
-0.027553
 10
15.432734
 20
30.668564
 42
-0.05163
 10
15.512002
 20
30.710512
 42
-0.058098
 10
15.616794
 20
30.739232
 42
-0.01186
 10
15.80779
 20
30.763759
 42
-0.012345
 10
16.032431
 20
30.781612
 42
-0.011308
  0
LWPOLYLINE
  5
2CE
330
1D
100
AcDbEntity
  8
0
100
AcDbPolyline
 90
       20
 70
     1
 43
0.0
 10
1.643192
 20
28.5948
 10
2.2842
 20
28.5948
 10
2.2842
 20
27.911492
 42
-0.008143
 10
2.2774
 20
27.493948
 42
-0.056851
 10
2.247741
 20
27.292467
 42
-0.092416
 10
2.178234
 20
27.146359
 42
-0.039282
 10
2.036908
 20
26.980892
 42
-0.038235
 10
1.873587
 20
26.840807
 42
-0.090501
 10
1.729961
 20
26.771069
 42
-0.058644
 10
1.535409
 20
26.740797
 42
-0.009302
 10
1.148608
 20
26.7336
 10
0.5076
 20
26.7336
 10
0.5076
 20
27.416908
 42
-0.008143
 10
0.5144
 20
27.834452
 42
-0.056851
 10
0.544059
 20
28.035933
 42
-0.092416
 10
0.613566
 20
28.182041
 42
-0.039282
 10
0.754892
 20
28.347508
 42
-0.038235
 10
0.918213
 20
28.487593
 42
-0.090501
 10
1.061839
 20
28.557331
 42
-0.058644
 10
1.256391
 20
28.587603
 42
-0.009302
  0
LWPOLYLINE
  5
2E4
330
1D
100
AcDbEntity
  8
0
100
AcDbPolyline
 90
       24
 70
     1
 43
0.0
 10
3.179008
 20
28.5948
 42
-0.009302
 10
3.565809
 20
28.587603
 42
-0.058644
 10
3.760361
 20
28.557331
 42
-0.090501
 10
3.903987
 20
28.487593
 42
-0.038235
 10
4.067308
 20
28.347508
 42
-0.039282
 10
4.208634
 20
28.182041
 42
-0.092416
 10
4.278141
 20
28.035933
 42
-0.056851
 10
4.3078
 20
27.834452
 42
-0.008143
 10
4.3146
 20
27.416908
 10
4.3146
 20
26.7336
 10
3.716838
 20
26.7336
 42
-0.013271
 10
3.47605
 20
26.739992
 42
-0.015241
 10
3.246858
 20
26.759188
 42
-0.014438
 10
3.054673
 20
26.786842
 42
-0.080072
 10
2.956314
 20
26.820708
 42
-0.063206
 10
2.884832
 20
26.871486
 42
-0.027828
 10
2.803829
 20
26.954811
 42
-0.026997
 10
2.726647
 20
27.053921
 42
-0.032615
 10
2.665776
 20
27.154907
 42
-0.058078
 10
2.612648
 20
27.29553
 42
-0.023719
 10
2.572444
 20
27.496159
 42
-0.021301
 10
2.546572
 20
27.735353
 42
-0.016289
 10
2.538
 20
27.998399
 10
2.538
 20
28.5948
  0
LWPOLYLINE
  5
2FE
330
1D
100
AcDbEntity
  8
0
100
AcDbPolyline
 90
       20
 70
     1
 43
0.0
 10
5.797274
 20
28.5948
 10
6.446963
 20
28.5948
 10
6.41713
 20
27.868374
 42
-0.007372
 10
6.392683
 20
27.430636
 42
-0.052315
 10
6.355689
 20
27.221487
 42
-0.094059
 10
6.284167
 20
27.079694
 42
-0.05147
 10
6.149931
 20
26.937774
 42
-0.048383
 10
5.996447
 20
26.829659
 42
-0.071558
 10
5.843416
 20
26.769578
 42
-0.047193
 10
5.637096
 20
26.74115
 42
-0.010653
 10
5.282782
 20
26.7336
 10
4.653
 20
26.7336
 10
4.653
 20
27.416908
 42
-0.008143
 10
4.6598
 20
27.834452
 42
-0.056851
 10
4.689459
 20
28.035933
 42
-0.092416
 10
4.758966
 20
28.182041
 42
-0.039282
 10
4.900292
 20
28.347508
 42
-0.038446
 10
5.064067
 20
28.487863
 42
-0.090919
 10
5.208199
 20
28.557549
 42
-0.058275
 10
5.404181
 20
28.587689
 42
-0.009044
  0
LWPOLYLINE
  5
314
330
1D
100
AcDbEntity
  8
0
100
AcDbPolyline
 90
       28
 70
     1
 43
0.0
 10
7.299076
 20
28.5948
 42
-0.013469
 10
7.586007
 20
28.587069
 42
-0.027222
 10
7.810701
 20
28.562639
 42
-0.034797
 10
7.982752
 20
28.521936
 42
-0.077441
 10
8.103259
 20
28.462764
 42
-0.043022
 10
8.184601
 20
28.394667
 42
-0.02281
 10
8.273527
 20
28.297703
 42
-0.02253
 10
8.356024
 20
28.189527
 42
-0.032317
 10
8.418183
 20
28.086266
 42
-0.057802
 10
8.469198
 20
27.951458
 42
-0.022328
 10
8.509294
 20
27.755325
 42
-0.020806
 10
8.53577
 20
27.526903
 42
-0.01845
 10
8.5446
 20
27.287701
 10
8.5446
 20
26.7336
 10
7.879336
 20
26.7336
 42
-0.008764
 10
7.490914
 20
26.740409
 42
-0.050701
 10
7.287849
 20
26.768274
 42
-0.085138
 10
7.144667
 20
26.83009
 42
-0.052042
 10
7.001371
 20
26.946302
 42
-0.041191
 10
6.916063
 20
27.046956
 42
-0.028029
 10
6.835689
 20
27.173829
 42
-0.028308
 10
6.771528
 20
27.305964
 42
-0.049552
 10
6.736035
 20
27.422177
 42
-0.022631
 10
6.715766
 20
27.554368
 42
-0.008425
 10
6.698861
 20
27.741618
 42
-0.008328
 10
6.687256
 20
27.946688
 42
-0.009969
 10
6.6834
 20
28.140075
 10
6.6834
 20
28.5948
  0
LWPOLYLINE
  5
332
330
1D
100
AcDbEntity
  8
0
100
AcDbPolyline
 90
       24
 70
     1
 43
0.0
 10
10.00395
 20
28.591413
 10
10.575
 20
28.5948
 10
10.575
 20
27.911492
 42
-0.008143
 10
10.5682
 20
27.493948
 42
-0.056851
 10
10.538541
 20
27.292467
 42
-0.092416
 10
10.469034
 20
27.146359
 42
-0.039282
 10
10.327708
 20
26.980892
 42
-0.038235
 10
10.164387
 20
26.840807
 42
-0.090501
 10
10.020761
 20
26.771069
 42
-0.058644
 10
9.826209
 20
26.740797
 42
-0.009302
 10
9.439408
 20
26.7336
 10
8.7984
 20
26.7336
 10
8.7984
 20
27.373662
 42
-0.012374
 10
8.80476
 20
27.630596
 42
-0.014554
 10
8.823876
 20
27.873308
 42
-0.013506
 10
8.851357
 20
28.076067
 42
-0.082605
 10
8.885127
 20
28.175774
 42
-0.058845
 10
8.93467
 20
28.246818
 42
-0.02717
 10
9.014094
 20
28.326971
 42
-0.026457
 10
9.107761
 20
28.40314
 42
-0.03317
 10
9.202377
 20
28.462925
 42
-0.06227
 10
9.332511
 20
28.513823
 42
-0.02238
 10
9.527701
 20
28.554141
 42
-0.020753
 10
9.758333
 20
28.581352
 42
-0.017504
  0
LWPOLYLINE
  5
34C
330
1D
100
AcDbEntity
  8
0
100
AcDbPolyline
 90
       24
 70
     1
 43
0.0
 10
11.483115
 20
28.594977
 42
-0.010979
 10
11.844322
 20
28.586941
 42
-0.056664
 10
12.041495
 20
28.555645
 42
-0.079996
 10
12.19391
 20
28.485695
 42
-0.034838
 10
12.370433
 20
28.348817
 42
-0.036418
 10
12.53035
 20
28.183495
 42
-0.09476
 10
12.610403
 20
28.039373
 42
-0.059856
 10
12.650609
 20
27.839486
 42
-0.008386
 10
12.676826
 20
27.418217
 10
12.707916
 20
26.7336
 10
12.03811
 20
26.7336
 42
-0.009443
 10
11.675299
 20
26.740453
 42
-0.04014
 10
11.459983
 20
26.765981
 42
-0.06652
 10
11.310654
 20
26.817311
 42
-0.071645
 10
11.184176
 20
26.905141
 42
-0.037159
 10
11.110674
 20
26.984599
 42
-0.028203
 10
11.042092
 20
27.08152
 42
-0.028846
 10
10.987883
 20
27.18034
 42
-0.0574
 10
10.959048
 20
27.264691
 42
-0.027142
 10
10.941724
 20
27.371735
 42
-0.005365
 10
10.923196
 20
27.565271
 42
-0.00567
 10
10.90657
 20
27.791446
 42
-0.005242
 10
10.894574
 20
28.023927
 10
10.8711
 20
28.595155
  0
LWPOLYLINE
  5
366
330
1D
100
AcDbEntity
  8
0
100
AcDbPolyline
 90
       28
 70
     1
 43
0.0
 10
14.14935
 20
28.594243
 10
14.7204
 20
28.5948
 10
14.7204
 20
27.964281
 42
-0.013447
 10
14.7135
 20
27.707772
 42
-0.014504
 10
14.692808
 20
27.458419
 42
-0.014136
 10
14.662888
 20
27.246204
 42
-0.064888
 10
14.626471
 20
27.12761
 42
-0.054415
 10
14.575471
 20
27.0418
 42
-0.035121
 10
14.499577
 20
26.954423
 42
-0.035121
 10
14.4122
 20
26.878529
 42
-0.054415
 10
14.32639
 20
26.827529
 42
-0.062671
 10
14.209782
 20
26.791158
 42
-0.01487
 10
14.008006
 20
26.761192
 42
-0.015068
 10
13.772335
 20
26.740503
 42
-0.014358
 10
13.532019
 20
26.7336
 10
12.9438
 20
26.7336
 10
12.949746
 20
27.34695
 42
-0.008654
 10
12.956387
 20
27.592834
 42
-0.010303
 10
12.971441
 20
27.824412
 42
-0.009202
 10
12.991681
 20
28.01847
 42
-0.063568
 10
13.015251
 20
28.111053
 42
-0.073942
 10
13.055302
 20
28.180379
 42
-0.026339
 10
13.131265
 20
28.266267
 42
-0.025458
 10
13.225818
 20
28.353136
 42
-0.027352
 10
13.326555
 20
28.427746
 42
-0.051514
 10
13.477423
 20
28.50626
 42
-0.044342
 10
13.648909
 20
28.557114
 42
-0.034511
 10
13.863225
 20
28.585277
 42
-0.015174
  0
LWPOLYLINE
  5
384
330
1D
100
AcDbEntity
  8
0
100
AcDbPolyline
 90
       28
 70
     1
 43
0.0
 10
15.604719
 20
28.5948
 42
-0.015765
 10
15.829228
 20
28.587719
 42
-0.015864
 10
16.052375
 20
28.566505
 42
-0.015879
 10
16.245307
 20
28.535714
 42
-0.059446
 10
16.362042
 20
28.498478
 42
-0.066201
 10
16.4525
 20
28.441799
 42
-0.033848
 10
16.549821
 20
28.349372
 42
-0.032921
 10
16.638753
 20
28.238877
 42
-0.042227
 10
16.704423
 20
28.126143
 42
-0.050404
 10
16.757227
 20
27.977971
 42
-0.021477
 10
16.798831
 20
27.771324
 42
-0.020119
 10
16.826247
 20
27.53499
 42
-0.018816
 10
16.8354
 20
27.291864
 10
16.8354
 20
26.7336
 10
16.17975
 20
26.736291
 42
-0.013221
 10
15.909385
 20
26.744551
 42
-0.019029
 10
15.671058
 20
26.767269
 42
-0.018905
 10
15.480946
 20
26.800079
 42
-0.111985
 10
15.389869
 20
26.842041
 42
-0.039123
 10
15.331364
 20
26.894713
 42
-0.019967
 10
15.266157
 20
26.969108
 42
-0.019711
 10
15.204699
 20
27.051597
 42
-0.027888
 10
15.157219
 20
27.129888
 42
-0.077707
 10
15.119001
 20
27.239926
 42
-0.015108
 10
15.087711
 20
27.448413
 42
-0.015723
 10
15.066026
 20
27.696143
 42
-0.013968
 10
15.0588
 20
27.954738
 10
15.0588
 20
28.5948
  0
LWPOLYLINE
  5
3A2
330
1D
100
AcDbEntity
  8
0
100
AcDbPolyline
 90
       24
 70
     1
 43
0.0
 10
1.704937
 20
26.368637
 42
-0.041239
 10
1.802262
 20
26.329749
 42
-0.025675
 10
1.909347
 20
26.269299
 42
-0.025692
 10
2.009512
 20
26.1983
 42
-0.041791
 10
2.085637
 20
26.127166
 42
-0.084374
 10
2.162813
 20
26.006065
 42
-0.047862
 10
2.214893
 20
25.839704
 42
-0.031478
 10
2.249549
 20
25.602046
 42
-0.009974
 10
2.271731
 20
25.244278
 10
2.301563
 20
24.534
 10
1.651874
 20
24.534
 42
-0.009044
 10
1.258781
 20
24.541111
 42
-0.058275
 10
1.062799
 20
24.571251
 42
-0.090919
 10
0.918667
 20
24.640937
 42
-0.038446
 10
0.754892
 20
24.781292
 42
-0.039176
 10
0.613682
 20
24.946552
 42
-0.092239
 10
0.544154
 20
25.092411
 42
-0.057029
 10
0.514438
 20
25.293204
 42
-0.008248
 10
0.5076
 20
25.70767
 10
0.5076
 20
26.386756
 10
0.99405
 20
26.412128
 42
-0.014581
 10
1.196752
 20
26.416781
 42
-0.013724
 10
1.403534
 20
26.409819
 42
-0.013832
 10
1.58636
 20
26.393547
 42
-0.045351
  0
LWPOLYLINE
  5
3BC
330
1D
100
AcDbEntity
  8
0
100
AcDbPolyline
 90
       28
 70
     1
 43
0.0
 10
3.82815
 20
26.462066
 10
4.3146
 20
26.43996
 10
4.3146
 20
25.777518
 42
-0.012022
 10
4.308214
 20
25.511961
 42
-0.014272
 10
4.289012
 20
25.261857
 42
-0.013123
 10
4.261432
 20
25.0532
 42
-0.083628
 10
4.227492
 20
24.952314
 42
-0.063206
 10
4.176714
 20
24.880832
 42
-0.027828
 10
4.093389
 20
24.799829
 42
-0.026997
 10
3.994279
 20
24.722647
 42
-0.032615
 10
3.893293
 20
24.661776
 42
-0.057041
 10
3.75695
 20
24.609943
 42
-0.0228
 10
3.561005
 20
24.569459
 42
-0.02112
 10
3.332611
 20
24.542865
 42
-0.018423
 10
3.092101
 20
24.534
 10
2.538
 20
24.534
 10
2.539247
 20
25.14735
 42
-0.015446
 10
2.547491
 20
25.397678
 42
-0.016277
 10
2.571171
 20
25.642657
 42
-0.016114
 10
2.60518
 20
25.85188
 42
-0.067607
 10
2.646174
 20
25.9722
 42
-0.063255
 10
2.70762
 20
26.064026
 42
-0.030078
 10
2.807444
 20
26.165704
 42
-0.029227
 10
2.926116
 20
26.26089
 42
-0.036626
 10
3.046777
 20
26.333936
 42
-0.041863
 10
3.208304
 20
26.399854
 42
-0.035329
 10
3.387983
 20
26.442525
 42
-0.031297
 10
3.592257
 20
26.463012
 42
-0.020703
  0
LWPOLYLINE
  5
3DA
330
1D
100
AcDbEntity
  8
0
100
AcDbPolyline
 90
       24
 70
     1
 43
0.0
 10
5.121017
 20
26.4798
 42
-0.021972
 10
5.321292
 20
26.470995
 42
-0.017475
 10
5.536085
 20
26.444481
 42
-0.017809
 10
5.733678
 20
26.405787
 42
-0.041721
 10
5.876798
 20
26.359565
 42
-0.049244
 10
5.99742
 20
26.294576
 42
-0.034491
 10
6.119307
 20
26.199676
 42
-0.034814
 10
6.225183
 20
26.09064
 42
-0.05602
 10
6.297081
 20
25.983066
 42
-0.055664
 10
6.353353
 20
25.83626
 42
-0.02556
 10
6.394867
 20
25.635304
 42
-0.022372
 10
6.420991
 20
25.394057
 42
-0.015785
 10
6.4296
 20
25.121443
 10
6.4296
 20
24.516084
 10
5.744616
 20
24.547191
 42
-0.008365
 10
5.337996
 20
24.572479
 42
-0.053459
 10
5.135309
 20
24.610548
 42
-0.09161
 10
4.995778
 20
24.682337
 42
-0.050678
 10
4.856316
 20
24.814667
 42
-0.051343
 10
4.74666
 20
24.972307
 42
-0.073758
 10
4.687167
 20
25.131366
 42
-0.044371
 10
4.659849
 20
25.354187
 42
-0.008327
 10
4.653
 20
25.765418
 10
4.653
 20
26.4798
  0
LWPOLYLINE
  5
3F4
330
1D
100
AcDbEntity
  8
0
100
AcDbPolyline
 90
       24
 70
     1
 43
0.0
 10
7.9947
 20
26.457222
 10
8.5023
 20
26.4375
 10
8.5023
 20
25.741304
 42
-0.00788
 10
8.495664
 20
25.320305
 42
-0.053795
 10
8.466937
 20
25.114979
 42
-0.090849
 10
8.400356
 20
24.968913
 42
-0.044245
 10
8.268293
 20
24.811269
 42
-0.046251
 10
8.113136
 20
24.682533
 42
-0.079448
 10
7.961587
 20
24.61089
 42
-0.050091
 10
7.751039
 20
24.571937
 42
-0.009365
 10
7.358843
 20
24.546758
 10
6.6834
 20
24.516084
 10
6.6834
 20
25.077659
 42
-0.019178
 10
6.692483
 20
25.314383
 42
-0.016644
 10
6.719747
 20
25.561261
 42
-0.01696
 10
6.75949
 20
25.783209
 42
-0.046201
 10
6.807133
 20
25.93537
 42
-0.044977
 10
6.878026
 20
26.069676
 42
-0.047314
 10
6.970758
 20
26.186695
 42
-0.048086
 10
7.082306
 20
26.282576
 42
-0.049632
 10
7.208983
 20
26.354225
 42
-0.048268
 10
7.355436
 20
26.402611
 42
-0.023077
 10
7.550741
 20
26.437442
 42
-0.021612
 10
7.770682
 20
26.456654
 42
-0.020689
  0
LWPOLYLINE
  5
40E
330
1D
100
AcDbEntity
  8
0
100
AcDbPolyline
 90
       28
 70
     1
 43
0.0
 10
9.41175
 20
26.462631
 42
-0.01519
 10
9.660083
 20
26.439078
 42
-0.016632
 10
9.899075
 20
26.400952
 42
-0.016264
 10
10.100372
 20
26.355095
 42
-0.075657
 10
10.20943
 20
26.308015
 42
-0.045205
 10
10.286633
 20
26.249458
 42
-0.028129
 10
10.366232
 20
26.168234
 42
-0.028115
 10
10.436289
 20
26.078494
 42
-0.044804
 10
10.48438
 20
25.993929
 42
-0.066021
 10
10.519538
 20
25.878507
 42
-0.01375
 10
10.54838
 20
25.668248
 42
-0.014211
 10
10.568345
 20
25.420496
 42
-0.012998
 10
10.575
 20
25.164519
 10
10.575
 20
24.534
 10
10.029081
 20
24.534
 42
-0.015074
 10
9.8053
 20
24.540748
 42
-0.015484
 10
9.584335
 20
24.560969
 42
-0.015401
 10
9.394219
 20
24.59029
 42
-0.061001
 10
9.281663
 20
24.625809
 42
-0.055838
 10
9.194298
 20
24.678069
 42
-0.029208
 10
9.09797
 20
24.760707
 42
-0.028646
 10
9.007978
 20
24.85807
 42
-0.038828
 10
8.939282
 20
24.956112
 42
-0.060681
 10
8.875202
 20
25.102606
 42
-0.033645
 10
8.831824
 20
25.293118
 42
-0.0263
 10
8.806422
 20
25.536442
 42
-0.012858
 10
8.7984
 20
25.848329
 10
8.7984
 20
26.502051
  0
LWPOLYLINE
  5
42C
330
1D
100
AcDbEntity
  8
0
100
AcDbPolyline
 90
       20
 70
     1
 43
0.0
 10
12.024736
 20
26.3952
 10
12.69
 20
26.3952
 10
12.69
 20
25.75224
 42
-0.009279
 10
12.682545
 20
25.350594
 42
-0.065759
 10
12.649926
 20
25.158783
 42
-0.093606
 10
12.572075
 20
25.011568
 42
-0.028079
 10
12.40236
 20
24.82164
 42
-0.027767
 10
12.213656
 20
24.652807
 42
-0.09222
 10
12.067393
 20
24.574709
 42
-0.066654
 10
11.87859
 20
24.541636
 42
-0.009996
 10
11.49291
 20
24.533803
 10
10.8711
 20
24.533605
 10
10.898311
 20
25.247427
 42
-0.008373
 10
10.920932
 20
25.659461
 42
-0.046275
 10
10.957176
 20
25.87837
 42
-0.078371
 10
11.024033
 20
26.03095
 42
-0.054051
 10
11.142497
 20
26.178224
 42
-0.050129
 10
11.28834
 20
26.297427
 42
-0.086187
 10
11.431674
 20
26.360254
 42
-0.051599
 10
11.63409
 20
26.388375
 42
-0.008735
  0
LWPOLYLINE
  5
442
330
1D
100
AcDbEntity
  8
0
100
AcDbPolyline
 90
       28
 70
     1
 43
0.0
 10
13.59945
 20
26.392509
 42
-0.013221
 10
13.869815
 20
26.384249
 42
-0.019029
 10
14.108142
 20
26.361531
 42
-0.018905
 10
14.298254
 20
26.328721
 42
-0.111985
 10
14.389331
 20
26.286759
 42
-0.039123
 10
14.447836
 20
26.234087
 42
-0.019967
 10
14.513043
 20
26.159692
 42
-0.019711
 10
14.574501
 20
26.077203
 42
-0.027888
 10
14.621981
 20
25.998912
 42
-0.077707
 10
14.660199
 20
25.888874
 42
-0.015108
 10
14.691489
 20
25.680387
 42
-0.015723
 10
14.713174
 20
25.432657
 42
-0.013968
 10
14.7204
 20
25.174062
 10
14.7204
 20
24.534
 10
14.166299
 20
24.534
 42
-0.018495
 10
13.929157
 20
24.542775
 42
-0.020316
 10
13.700684
 20
24.569073
 42
-0.021587
 10
13.5042
 20
24.608573
 42
-0.058991
 10
13.371771
 20
24.658329
 42
-0.058814
 10
13.271869
 20
24.725908
 42
-0.038583
 10
13.173909
 20
24.824647
 42
-0.038308
 10
13.091308
 20
24.938478
 42
-0.053983
 10
13.037572
 20
25.051654
 42
-0.041076
 10
13.001426
 20
25.191275
 42
-0.013859
 10
12.971346
 20
25.399456
 42
-0.01368
 10
12.950685
 20
25.632495
 42
-0.015268
 10
12.9438
 20
25.857924
 10
12.9438
 20
26.3952
  0
LWPOLYLINE
  5
460
330
1D
100
AcDbEntity
  8
0
100
AcDbPolyline
 90
       20
 70
     1
 43
0.0
 10
16.170136
 20
26.3952
 10
16.8354
 20
26.3952
 10
16.8354
 20
25.75224
 42
-0.009279
 10
16.827945
 20
25.350594
 42
-0.065759
 10
16.795326
 20
25.158783
 42
-0.093606
 10
16.717475
 20
25.011568
 42
-0.028079
 10
16.54776
 20
24.82164
 42
-0.02744
 10
16.360304
 20
24.653703
 42
-0.090877
 10
16.21506
 20
24.575406
 42
-0.067609
 10
16.029405
 20
24.541979
 42
-0.010783
 10
15.65946
 20
24.534
 10
15.0588
 20
24.534
 10
15.0588
 20
25.241564
 42
-0.00769
 10
15.065316
 20
25.665166
 42
-0.051162
 10
15.093284
 20
25.874214
 42
-0.088894
 10
15.157359
 20
26.020616
 42
-0.04892
 10
15.281836
 20
26.172164
 42
-0.047565
 10
15.431331
 20
26.295632
 42
-0.087544
 10
15.574927
 20
26.359868
 42
-0.05285
 10
15.776468
 20
26.388351
 42
-0.008698
  0
LWPOLYLINE
  5
476
330
1D
100
AcDbEntity
  8
0
100
AcDbPolyline
 90
       28
 70
     1
 43
0.0
 10
1.75545
 20
24.279679
 10
2.2842
 20
24.2802
 10
2.2842
 20
23.637603
 42
-0.013192
 10
2.276067
 20
23.329409
 42
-0.027022
 10
2.250312
 20
23.089162
 42
-0.034532
 10
2.206064
 20
22.900065
 42
-0.058734
 10
2.140486
 20
22.751718
 42
-0.050554
 10
2.067217
 20
22.652189
 42
-0.034179
 10
1.965665
 20
22.554335
 42
-0.034428
 10
1.853232
 20
22.472411
 42
-0.05642
 10
1.747162
 20
22.421415
 42
-0.040894
 10
1.617808
 20
22.387877
 42
-0.013903
 10
1.425475
 20
22.359961
 42
-0.013718
 10
1.210389
 20
22.340789
 42
-0.015368
 10
1.002576
 20
22.3344
 10
0.5076
 20
22.3344
 10
0.510291
 20
23.03235
 42
-0.011579
 10
0.518521
 20
23.336992
 42
-0.020948
 10
0.541452
 20
23.585373
 42
-0.023774
 10
0.576196
 20
23.774707
 42
-0.105513
 10
0.624051
 20
23.87655
 42
-0.046571
 10
0.683829
 20
23.941678
 42
-0.019894
 10
0.774695
 20
24.017492
 42
-0.01948
 10
0.878664
 20
24.091185
 42
-0.024243
 10
0.98091
 20
24.150979
 42
-0.056756
 10
1.114055
 20
24.202209
 42
-0.022318
 10
1.306609
 20
24.243107
 42
-0.021032
 10
1.528189
 20
24.27041
 42
-0.019892
  0
LWPOLYLINE
  5
494
330
1D
100
AcDbEntity
  8
0
100
AcDbPolyline
 90
       24
 70
     1
 43
0.0
 10
3.08342
 20
24.2802
 42
-0.01795
 10
3.328543
 20
24.271397
 42
-0.021175
 10
3.559141
 20
24.244962
 42
-0.023008
 10
3.756037
 20
24.204539
 42
-0.057251
 10
3.893293
 20
24.152424
 42
-0.032615
 10
3.994279
 20
24.091553
 42
-0.026997
 10
4.093389
 20
24.014371
 42
-0.027828
 10
4.176714
 20
23.933368
 42
-0.063206
 10
4.227492
 20
23.861886
 42
-0.085077
 10
4.261465
 20
23.759933
 42
-0.012576
 10
4.289012
 20
23.543775
 42
-0.013871
 10
4.308217
 20
23.284243
 42
-0.011531
 10
4.3146
 20
23.007515
 10
4.3146
 20
22.315906
 10
3.680394
 20
22.347932
 42
-0.01074
 10
3.318459
 20
22.374013
 42
-0.05082
 10
3.114689
 20
22.414253
 42
-0.076686
 10
2.965319
 20
22.486332
 42
-0.045698
 10
2.813244
 20
22.612871
 42
-0.047655
 10
2.68379
 20
22.769648
 42
-0.081471
 10
2.61284
 20
22.923372
 42
-0.048858
 10
2.574999
 20
23.140967
 42
-0.008245
 10
2.550469
 20
23.562992
 10
2.520637
 20
24.2802
  0
LWPOLYLINE
  5
4AE
330
1D
100
AcDbEntity
  8
0
100
AcDbPolyline
 90
       24
 70
     1
 43
0.0
 10
5.90085
 20
24.276889
 10
6.4296
 20
24.2802
 10
6.4296
 20
23.604735
 42
-0.008922
 10
6.422349
 20
23.198382
 42
-0.05425
 10
6.392193
 20
22.990537
 42
-0.082977
 10
6.322934
 20
22.834631
 42
-0.036413
 10
6.184606
 20
22.655073
 42
-0.036015
 10
6.022173
 20
22.497698
 42
-0.091542
 10
5.879844
 20
22.417147
 42
-0.060911
 10
5.685653
 20
22.375602
 42
-0.009659
 10
5.296306
 20
22.348392
 10
4.653
 20
22.315906
 10
4.653
 20
23.007515
 42
-0.012062
 10
4.65969
 20
23.284808
 42
-0.014305
 10
4.679808
 20
23.546055
 42
-0.013168
 10
4.708705
 20
23.764041
 42
-0.08351
 10
4.744261
 20
23.869647
 42
-0.070214
 10
4.798177
 20
23.943346
 42
-0.031251
 10
4.887524
 20
24.02436
 42
-0.030165
 10
4.994407
 20
24.099658
 42
-0.035793
 10
5.103811
 20
24.156873
 42
-0.04814
 10
5.242878
 20
24.20205
 42
-0.017112
 10
5.44861
 20
24.240268
 42
-0.016798
 10
5.678735
 20
24.26705
 42
-0.019003
  0
LWPOLYLINE
  5
4C8
330
1D
100
AcDbEntity
  8
0
100
AcDbPolyline
 90
       34
 70
     1
 43
0.0
 10
7.31085
 20
24.278953
 42
-0.018183
 10
7.523397
 20
24.270705
 42
-0.017765
 10
7.73645
 20
24.247029
 42
-0.017975
 10
7.9217
 20
24.212907
 42
-0.061399
 10
8.037
 20
24.172026
 42
-0.063708
 10
8.128665
 20
24.110568
 42
-0.030425
 10
8.229823
 20
24.010756
 42
-0.02956
 10
8.324259
 20
23.892084
 42
-0.03706
 10
8.396419
 20
23.771423
 42
-0.045714
 10
8.460519
 20
23.607867
 42
-0.028215
 10
8.506797
 20
23.406359
 42
-0.02477
 10
8.535095
 20
23.171271
 42
-0.017511
 10
8.544469
 20
22.90545
 10
8.5446
 20
22.3344
 10
7.97355
 20
22.335647
 42
-0.016513
 10
7.739414
 20
22.343894
 42
-0.016894
 10
7.508118
 20
22.367571
 42
-0.0169
 10
7.309234
 20
22.401628
 42
-0.065089
 10
7.191
 20
22.442574
 42
-0.063708
 10
7.099335
 20
22.504032
 42
-0.030425
 10
6.998177
 20
22.603844
 42
-0.02956
 10
6.903741
 20
22.722516
 42
-0.03706
 10
6.831581
 20
22.843177
 42
-0.044745
 10
6.769717
 20
23.000133
 42
-0.026293
 10
6.723002
 20
23.196589
 42
-0.024175
 10
6.693434
 20
23.418382
 42
-0.020988
 10
6.683531
 20
23.65275
 42
-0.010195
 10
6.687584
 20
23.854011
 42
-0.014425
 10
6.700006
 20
24.032789
 42
-0.010473
 10
6.717531
 20
24.179163
 42
-0.162737
 10
6.7398
 20
24.2238
 42
-0.163204
 10
6.784441
 20
24.24602
 42
-0.010502
 10
6.930811
 20
24.263266
 42
-0.014461
 10
7.109589
 20
24.275328
 42
-0.010217
  0
LWPOLYLINE
  5
4EC
330
1D
100
AcDbEntity
  8
0
100
AcDbPolyline
 90
       28
 70
     1
 43
0.0
 10
10.04625
 20
24.274838
 10
10.575
 20
24.2802
 10
10.575
 20
23.600423
 42
-0.011692
 10
10.567488
 20
23.279236
 42
-0.025589
 10
10.543437
 20
23.034427
 42
-0.033529
 10
10.5028
 20
22.849341
 42
-0.074355
 10
10.442518
 20
22.718454
 42
-0.055788
 10
10.372921
 20
22.634386
 42
-0.031857
 10
10.27233
 20
22.548944
 42
-0.031441
 10
10.158767
 20
22.474932
 42
-0.044855
 10
10.049193
 20
22.42533
 42
-0.039788
 10
9.91531
 20
22.390302
 42
-0.014158
 10
9.719575
 20
22.361111
 42
-0.013947
 10
9.502011
 20
22.341073
 42
-0.015989
 10
9.293376
 20
22.3344
 10
8.7984
 20
22.3344
 10
8.7984
 20
22.999791
 42
-0.010239
 10
8.805791
 20
23.360702
 42
-0.039619
 10
8.832609
 20
23.582833
 42
-0.060765
 10
8.886642
 20
23.745486
 42
-0.056162
 10
8.979285
 20
23.89514
 42
-0.02826
 10
9.061645
 20
23.988473
 42
-0.023105
 10
9.159518
 20
24.078753
 42
-0.023701
 10
9.257562
 20
24.153514
 42
-0.055078
 10
9.338835
 20
24.197286
 42
-0.056328
 10
9.44057
 20
24.225601
 42
-0.012431
 10
9.620337
 20
24.249845
 42
-0.012776
 10
9.830718
 20
24.267482
 42
-0.011987
  0
LWPOLYLINE
  5
50A
330
1D
100
AcDbEntity
  8
0
100
AcDbPolyline
 90
       30
 70
     1
 43
0.0
 10
11.45625
 20
24.271767
 42
-0.011094
 10
11.63634
 20
24.264236
 42
-0.010074
 10
11.821822
 20
24.248596
 42
-0.010142
 10
11.987173
 20
24.227893
 42
-0.031671
 10
12.096849
 20
24.204727
 42
-0.075831
 10
12.191154
 20
24.162291
 42
-0.032906
 10
12.301744
 20
24.079949
 42
-0.03161
 10
12.409976
 20
23.97521
 42
-0.036417
 10
12.498699
 20
23.862249
 42
-0.043055
 10
12.595721
 20
23.687544
 42
-0.053735
 10
12.652922
 20
23.511107
 42
-0.039306
 10
12.681681
 20
23.286894
 42
-0.012251
 10
12.69
 20
22.947431
 10
12.69
 20
22.316484
 10
12.005016
 20
22.347591
 42
-0.008365
 10
11.598396
 20
22.372879
 42
-0.053459
 10
11.395709
 20
22.410948
 42
-0.09161
 10
11.256178
 20
22.482737
 42
-0.050678
 10
11.116716
 20
22.615067
 42
-0.049598
 10
11.00841
 20
22.769616
 42
-0.072276
 10
10.948683
 20
22.924601
 42
-0.046139
 10
10.920692
 20
23.136521
 42
-0.009777
 10
10.9134
 20
23.509418
 42
-0.007988
 10
10.917493
 20
23.765624
 42
-0.011709
 10
10.929968
 20
23.990685
 42
-0.00721
 10
10.947381
 20
24.176972
 42
-0.171084
 10
10.9698
 20
24.2238
 42
-0.15932
 10
11.012698
 20
24.245559
 42
-0.013786
 10
11.13596
 20
24.261155
 42
-0.017064
 10
11.287415
 20
24.270887
 42
-0.012412
  0
LWPOLYLINE
  5
52A
330
1D
100
AcDbEntity
  8
0
100
AcDbPolyline
 90
       28
 70
     1
 43
0.0
 10
14.23395
 20
24.268679
 10
14.7204
 20
24.2802
 10
14.7204
 20
23.597838
 42
-0.011682
 10
14.714016
 20
23.324652
 42
-0.013996
 10
14.694812
 20
23.068109
 42
-0.012747
 10
14.667255
 20
22.854333
 42
-0.084627
 10
14.633292
 20
22.752714
 42
-0.063206
 10
14.582514
 20
22.681232
 42
-0.027828
 10
14.499189
 20
22.600229
 42
-0.026997
 10
14.400079
 20
22.523047
 42
-0.032615
 10
14.299093
 20
22.462176
 42
-0.057041
 10
14.16275
 20
22.410343
 42
-0.0228
 10
13.966805
 20
22.369859
 42
-0.02112
 10
13.738411
 20
22.343265
 42
-0.018423
 10
13.497901
 20
22.3344
 10
12.9438
 20
22.3344
 10
12.9438
 20
23.004709
 42
-0.009478
 10
12.951124
 20
23.391047
 42
-0.04749
 10
12.979754
 20
23.605333
 42
-0.073624
 10
13.042155
 20
23.763997
 42
-0.044483
 10
13.158188
 20
23.929803
 42
-0.031929
 10
13.254048
 20
24.029988
 42
-0.029197
 10
13.364666
 20
24.120404
 42
-0.030419
 10
13.473141
 20
24.18933
 42
-0.078671
 10
13.560038
 20
24.220873
 42
-0.024305
 10
13.662928
 20
24.235645
 42
-0.005793
 10
13.835328
 20
24.249884
 42
-0.005942
 10
14.033964
 20
24.261604
 42
-0.005842
  0
LWPOLYLINE
  5
548
330
1D
100
AcDbEntity
  8
0
100
AcDbPolyline
 90
       24
 70
     1
 43
0.0
 10
15.54525
 20
24.271767
 42
-0.010001
 10
15.746932
 20
24.264234
 42
-0.009638
 10
15.950654
 20
24.248596
 42
-0.009602
 10
16.129516
 20
24.227919
 42
-0.03431
 10
16.242249
 20
24.204727
 42
-0.075831
 10
16.336554
 20
24.162291
 42
-0.032906
 10
16.447144
 20
24.079949
 42
-0.03161
 10
16.555376
 20
23.97521
 42
-0.036417
 10
16.644099
 20
23.862249
 42
-0.042859
 10
16.740836
 20
23.688217
 42
-0.053435
 10
16.798092
 20
23.512438
 42
-0.039456
 10
16.826992
 20
23.29009
 42
-0.012596
 10
16.8354
 20
22.956389
 10
16.8354
 20
22.3344
 10
16.194392
 20
22.3344
 42
-0.009302
 10
15.807591
 20
22.341597
 42
-0.058644
 10
15.613039
 20
22.371869
 42
-0.090501
 10
15.469413
 20
22.441607
 42
-0.038235
 10
15.306092
 20
22.581692
 42
-0.040372
 10
15.163694
 20
22.749151
 42
-0.094048
 10
15.094366
 20
22.897777
 42
-0.055088
 10
15.065254
 20
23.106105
 42
-0.007195
 10
15.0588
 20
23.554592
 10
15.0588
 20
24.2802
  0
LWPOLYLINE
  5
562
330
1D
100
AcDbEntity
  8
0
100
AcDbPolyline
 90
       28
 70
     1
 43
0.0
 10
1.002576
 20
22.0806
 42
-0.015368
 10
1.210389
 20
22.074211
 42
-0.013718
 10
1.425475
 20
22.055039
 42
-0.013903
 10
1.617808
 20
22.027123
 42
-0.040894
 10
1.747162
 20
21.993585
 42
-0.05642
 10
1.853232
 20
21.942589
 42
-0.034428
 10
1.965665
 20
21.860665
 42
-0.034179
 10
2.067217
 20
21.762811
 42
-0.050554
 10
2.140486
 20
21.663282
 42
-0.058734
 10
2.206064
 20
21.514935
 42
-0.034532
 10
2.250312
 20
21.325838
 42
-0.027022
 10
2.276067
 20
21.085591
 42
-0.013192
 10
2.2842
 20
20.777397
 10
2.2842
 20
20.1348
 10
1.768236
 20
20.1348
 42
-0.021447
 10
1.547625
 20
20.144267
 42
-0.019533
 10
1.321581
 20
20.172633
 42
-0.020234
 10
1.119204
 20
20.214576
 42
-0.049601
 10
0.976257
 20
20.265777
 42
-0.042227
 10
0.863523
 20
20.331447
 42
-0.032921
 10
0.753028
 20
20.420379
 42
-0.033848
 10
0.660601
 20
20.5177
 42
-0.066201
 10
0.603922
 20
20.608158
 42
-0.064088
 10
0.566594
 20
20.729031
 42
-0.014404
 10
0.535895
 20
20.942677
 42
-0.014709
 10
0.514677
 20
21.193186
 42
-0.013771
 10
0.5076
 20
21.450081
 10
0.5076
 20
22.0806
  0
LWPOLYLINE
  5
580
330
1D
100
AcDbEntity
  8
0
100
AcDbPolyline
 90
       28
 70
     1
 43
0.0
 10
3.78585
 20
22.078674
 10
4.3146
 20
22.0806
 10
4.3146
 20
21.400823
 42
-0.011601
 10
4.307066
 20
21.076168
 42
-0.026342
 10
4.282792
 20
20.83196
 42
-0.035032
 10
4.241252
 20
20.647734
 42
-0.072181
 10
4.179002
 20
20.514098
 42
-0.067147
 10
4.104885
 20
20.428586
 42
-0.035005
 10
3.992599
 20
20.342766
 42
-0.034058
 10
3.862928
 20
20.269462
 42
-0.043903
 10
3.734852
 20
20.221447
 42
-0.027013
 10
3.585268
 20
20.188481
 42
-0.012229
 10
3.386468
 20
20.16078
 42
-0.012067
 10
3.174776
 20
20.141707
 42
-0.016167
 10
2.98215
 20
20.135272
 10
2.538
 20
20.1348
 10
2.538
 20
20.765319
 42
-0.013707
 10
2.545042
 20
21.022137
 42
-0.014668
 10
2.566155
 20
21.272417
 42
-0.014352
 10
2.5967
 20
21.485778
 42
-0.064246
 10
2.633847
 20
21.6062
 42
-0.063213
 10
2.689497
 20
21.6962
 42
-0.033169
 10
2.779001
 20
21.792982
 42
-0.03238
 10
2.885409
 20
21.881411
 42
-0.042613
 10
2.993397
 20
21.946654
 42
-0.05255
 10
3.132835
 20
21.998074
 42
-0.020806
 10
3.333
 20
22.040045
 42
-0.019907
 10
3.559677
 20
22.06859
 42
-0.020457
  0
LWPOLYLINE
  5
59E
330
1D
100
AcDbEntity
  8
0
100
AcDbPolyline
 90
       24
 70
     1
 43
0.0
 10
5.25366
 20
22.0806
 42
-0.010783
 10
5.623605
 20
22.072621
 42
-0.067609
 10
5.80926
 20
22.039194
 42
-0.090877
 10
5.954504
 20
21.960897
 42
-0.02744
 10
6.14196
 20
21.79296
 42
-0.02877
 10
6.313197
 20
21.600796
 42
-0.096015
 10
6.390694
 20
21.451539
 42
-0.063881
 10
6.4226
 20
21.253678
 42
-0.008072
 10
6.4296
 20
20.82006
 10
6.4296
 20
20.1348
 10
5.934624
 20
20.1348
 42
-0.015989
 10
5.725989
 20
20.141473
 42
-0.013947
 10
5.508425
 20
20.161511
 42
-0.014158
 10
5.31269
 20
20.190702
 42
-0.039788
 10
5.178807
 20
20.22573
 42
-0.044855
 10
5.069233
 20
20.275332
 42
-0.031441
 10
4.95567
 20
20.349344
 42
-0.031857
 10
4.855079
 20
20.434786
 42
-0.055788
 10
4.785482
 20
20.518854
 42
-0.074355
 10
4.7252
 20
20.649741
 42
-0.033529
 10
4.684563
 20
20.834827
 42
-0.025589
 10
4.660512
 20
21.079636
 42
-0.011692
 10
4.653
 20
21.400823
 10
4.653
 20
22.0806
  0
LWPOLYLINE
  5
5B8
330
1D
100
AcDbEntity
  8
0
100
AcDbPolyline
 90
       28
 70
     1
 43
0.0
 10
7.97355
 20
22.080284
 10
8.5446
 20
22.0806
 10
8.544284
 20
21.46725
 42
-0.01384
 10
8.535582
 20
21.158689
 42
-0.032233
 10
8.507839
 20
20.929223
 42
-0.041746
 10
8.457442
 20
20.745844
 42
-0.049015
 10
8.37913
 20
20.583558
 42
-0.046825
 10
8.287257
 20
20.460455
 42
-0.047789
 10
8.174656
 20
20.357521
 42
-0.046938
 10
8.042603
 20
20.276329
 42
-0.042194
 10
7.892996
 20
20.217764
 42
-0.033035
 10
7.739743
 20
20.183054
 42
-0.016377
 10
7.541824
 20
20.158398
 42
-0.016178
 10
7.334134
 20
20.146165
 42
-0.022792
 10
7.1487
 20
20.149706
 10
6.7257
 20
20.1771
 10
6.698486
 20
20.6424
 42
-0.020629
 10
6.695023
 20
20.844066
 42
-0.015557
 10
6.707252
 20
21.065399
 42
-0.015799
 10
6.731842
 20
21.272996
 42
-0.034706
 10
6.766544
 20
21.428996
 42
-0.042184
 10
6.825038
 20
21.57866
 42
-0.047018
 10
6.906139
 20
21.710681
 42
-0.047871
 10
7.009017
 20
21.823237
 42
-0.046803
 10
7.132158
 20
21.91513
 42
-0.048036
 10
7.290794
 20
21.992063
 42
-0.040454
 10
7.47057
 20
22.042726
 42
-0.03254
 10
7.690324
 20
22.07118
 42
-0.01579
  0
LWPOLYLINE
  5
5D6
330
1D
100
AcDbEntity
  8
0
100
AcDbPolyline
 90
       24
 70
     1
 43
0.0
 10
9.34382
 20
22.0806
 42
-0.01812
 10
9.581575
 20
22.071981
 42
-0.019466
 10
9.812423
 20
22.046158
 42
-0.020386
 10
10.010759
 20
22.00779
 42
-0.061425
 10
10.139731
 20
21.960045
 42
-0.047873
 10
10.236394
 20
21.897687
 42
-0.032235
 10
10.334067
 20
21.809741
 42
-0.032478
 10
10.418313
 20
21.711403
 42
-0.054031
 10
10.47393
 20
21.617664
 42
-0.063015
 10
10.513074
 20
21.491863
 42
-0.014758
 10
10.545311
 20
21.273069
 42
-0.014981
 10
10.567573
 20
21.017272
 42
-0.014214
 10
10.575
 20
20.756073
 10
10.575
 20
20.116306
 10
9.940794
 20
20.148332
 42
-0.01074
 10
9.578859
 20
20.174413
 42
-0.05082
 10
9.375089
 20
20.214653
 42
-0.076686
 10
9.225719
 20
20.286732
 42
-0.045698
 10
9.073644
 20
20.413271
 42
-0.047655
 10
8.94419
 20
20.570048
 42
-0.081471
 10
8.87324
 20
20.723772
 42
-0.048858
 10
8.835399
 20
20.941367
 42
-0.008245
 10
8.810869
 20
21.363392
 10
8.781037
 20
22.0806
  0
LWPOLYLINE
  5
5F0
330
1D
100
AcDbEntity
  8
0
100
AcDbPolyline
 90
       28
 70
     1
 43
0.0
 10
12.11895
 20
22.080284
 10
12.69
 20
22.0806
 10
12.688753
 20
21.46725
 42
-0.015446
 10
12.680509
 20
21.216922
 42
-0.016277
 10
12.656829
 20
20.971943
 42
-0.016114
 10
12.62282
 20
20.76272
 42
-0.067607
 10
12.581826
 20
20.6424
 42
-0.06333
 10
12.520378
 20
20.5506
 42
-0.030135
 10
12.420556
 20
20.44901
 42
-0.029282
 10
12.301884
 20
20.353948
 42
-0.036698
 10
12.181223
 20
20.28105
 42
-0.042246
 10
12.017377
 20
20.214529
 42
-0.036109
 10
11.835851
 20
20.172211
 42
-0.031344
 10
11.626701
 20
20.152455
 42
-0.019179
 10
11.378811
 20
20.15415
 10
10.871321
 20
20.1771
 10
10.897329
 20
20.8116
 42
-0.005546
 10
10.910575
 20
21.065815
 42
-0.006632
 10
10.928882
 20
21.30492
 42
-0.005782
 10
10.949284
 20
21.505744
 42
-0.042774
 10
10.968222
 20
21.599987
 42
-0.091946
 10
11.003704
 20
21.67033
 42
-0.031874
 10
11.07847
 20
21.756565
 42
-0.030395
 10
11.174862
 20
21.843179
 42
-0.030932
 10
11.280504
 20
21.916921
 42
-0.048847
 10
11.437488
 20
21.992742
 42
-0.039996
 10
11.617064
 20
22.042902
 42
-0.032181
 10
11.836863
 20
22.071211
 42
-0.015801
  0
LWPOLYLINE
  5
60E
330
1D
100
AcDbEntity
  8
0
100
AcDbPolyline
 90
       20
 70
     1
 43
0.0
 10
13.625843
 20
22.062857
 42
-0.007868
 10
14.047394
 20
22.031792
 42
-0.05498
 10
14.249403
 20
21.991022
 42
-0.096743
 10
14.386146
 20
21.915985
 42
-0.050339
 10
14.522872
 20
21.776507
 42
-0.05073
 10
14.627205
 20
21.61497
 42
-0.067137
 10
14.685211
 20
21.449953
 42
-0.041963
 10
14.712636
 20
21.222657
 42
-0.008901
 10
14.71998
 20
20.823503
 10
14.7204
 20
20.116306
 10
14.086194
 20
20.148332
 42
-0.01074
 10
13.724259
 20
20.174413
 42
-0.05082
 10
13.520489
 20
20.214653
 42
-0.076686
 10
13.371119
 20
20.286732
 42
-0.045698
 10
13.219044
 20
20.413271
 42
-0.048002
 10
13.08931
 20
20.570609
 42
-0.081776
 10
13.01837
 20
20.72512
 42
-0.048462
 10
12.980573
 20
20.944805
 42
-0.007994
 10
12.955801
 20
21.374791
 10
12.925501
 20
22.103399
  0
LWPOLYLINE
  5
624
330
1D
100
AcDbEntity
  8
0
100
AcDbPolyline
 90
       28
 70
     1
 43
0.0
 10
16.30665
 20
22.077289
 10
16.8354
 20
22.0806
 10
16.834153
 20
21.46725
 42
-0.015446
 10
16.825909
 20
21.216922
 42
-0.016277
 10
16.802229
 20
20.971943
 42
-0.016114
 10
16.76822
 20
20.76272
 42
-0.067607
 10
16.727226
 20
20.6424
 42
-0.06333
 10
16.665778
 20
20.5506
 42
-0.030135
 10
16.565956
 20
20.44901
 42
-0.029282
 10
16.447284
 20
20.353948
 42
-0.036698
 10
16.326623
 20
20.28105
 42
-0.042219
 10
16.162913
 20
20.214574
 42
-0.036072
 10
15.98152
 20
20.172251
 42
-0.03135
 10
15.772693
 20
20.152474
 42
-0.019267
 10
15.525551
 20
20.15415
 10
15.019402
 20
20.1771
 10
15.032304
 20
20.825612
 42
-0.013225
 10
15.044441
 20
21.087328
 42
-0.01496
 10
15.070221
 20
21.337445
 42
-0.014276
 10
15.104402
 20
21.54768
 42
-0.075561
 10
15.143264
 20
21.657346
 42
-0.066673
 10
15.19992
 20
21.735948
 42
-0.031776
 10
15.291328
 20
21.821029
 42
-0.030803
 10
15.399706
 20
21.899133
 42
-0.038159
 10
15.509611
 20
21.957273
 42
-0.04814
 10
15.648678
 20
22.00245
 42
-0.017112
 10
15.85441
 20
22.040668
 42
-0.016798
 10
16.084535
 20
22.06745
 42
-0.019003
  0
LWPOLYLINE
  5
642
330
1D
100
AcDbEntity
  8
0
100
AcDbPolyline
 90
       24
 70
     1
 43
0.0
 10
1.71315
 20
19.877613
 10
2.2842
 20
19.881
 10
2.2842
 20
19.197692
 42
-0.008143
 10
2.2774
 20
18.780148
 42
-0.056851
 10
2.247741
 20
18.578667
 42
-0.092416
 10
2.178234
 20
18.432559
 42
-0.039282
 10
2.036908
 20
18.267092
 42
-0.038235
 10
1.873587
 20
18.127007
 42
-0.090501
 10
1.729961
 20
18.057269
 42
-0.058644
 10
1.535409
 20
18.026997
 42
-0.009302
 10
1.148608
 20
18.0198
 10
0.5076
 20
18.0198
 10
0.5076
 20
18.659862
 42
-0.012374
 10
0.51396
 20
18.916796
 42
-0.014554
 10
0.533076
 20
19.159508
 42
-0.013506
 10
0.560557
 20
19.362267
 42
-0.082605
 10
0.594327
 20
19.461974
 42
-0.058845
 10
0.64387
 20
19.533018
 42
-0.02717
 10
0.723294
 20
19.613171
 42
-0.026457
 10
0.816961
 20
19.68934
 42
-0.03317
 10
0.911577
 20
19.749125
 42
-0.06227
 10
1.041711
 20
19.800023
 42
-0.02238
 10
1.236901
 20
19.840341
 42
-0.020753
 10
1.467533
 20
19.867552
 42
-0.017504
  0
LWPOLYLINE
  5
65C
330
1D
100
AcDbEntity
  8
0
100
AcDbPolyline
 90
       24
 70
     1
 43
0.0
 10
3.179008
 20
19.881
 42
-0.009302
 10
3.565809
 20
19.873803
 42
-0.058644
 10
3.760361
 20
19.843531
 42
-0.090501
 10
3.903987
 20
19.773793
 42
-0.038235
 10
4.067308
 20
19.633708
 42
-0.039282
 10
4.208634
 20
19.468241
 42
-0.092416
 10
4.278141
 20
19.322133
 42
-0.056851
 10
4.3078
 20
19.120652
 42
-0.008143
 10
4.3146
 20
18.703108
 10
4.3146
 20
18.0198
 10
3.716838
 20
18.0198
 42
-0.013271
 10
3.47605
 20
18.026192
 42
-0.015241
 10
3.246858
 20
18.045388
 42
-0.014438
 10
3.054673
 20
18.073042
 42
-0.080072
 10
2.956314
 20
18.106908
 42
-0.063206
 10
2.884832
 20
18.157686
 42
-0.027828
 10
2.803829
 20
18.241011
 42
-0.026997
 10
2.726647
 20
18.340121
 42
-0.032615
 10
2.665776
 20
18.441107
 42
-0.058078
 10
2.612648
 20
18.58173
 42
-0.023719
 10
2.572444
 20
18.782359
 42
-0.021301
 10
2.546572
 20
19.021553
 42
-0.016289
 10
2.538
 20
19.284599
 10
2.538
 20
19.881
  0
LWPOLYLINE
  5
676
330
1D
100
AcDbEntity
  8
0
100
AcDbPolyline
 90
       24
 70
     1
 43
0.0
 10
5.867231
 20
19.877613
 10
6.446963
 20
19.881
 10
6.41713
 20
19.154574
 42
-0.007372
 10
6.392683
 20
18.716836
 42
-0.052315
 10
6.355689
 20
18.507687
 42
-0.094059
 10
6.284167
 20
18.365894
 42
-0.05147
 10
6.149931
 20
18.223974
 42
-0.048383
 10
5.996447
 20
18.115859
 42
-0.071558
 10
5.843416
 20
18.055778
 42
-0.047193
 10
5.637096
 20
18.02735
 42
-0.010653
 10
5.282782
 20
18.0198
 10
4.653
 20
18.0198
 10
4.653
 20
18.659862
 42
-0.012374
 10
4.65936
 20
18.916796
 42
-0.014554
 10
4.678476
 20
19.159508
 42
-0.013506
 10
4.705957
 20
19.362267
 42
-0.082605
 10
4.739727
 20
19.461974
 42
-0.058845
 10
4.78927
 20
19.533018
 42
-0.02717
 10
4.868694
 20
19.613171
 42
-0.026457
 10
4.962361
 20
19.68934
 42
-0.03317
 10
5.056977
 20
19.749125
 42
-0.062504
 10
5.18797
 20
19.800289
 42
-0.022565
 10
5.38414
 20
19.840543
 42
-0.020792
 10
5.617012
 20
19.867604
 42
-0.017069
  0
LWPOLYLINE
  5
690
330
1D
100
AcDbEntity
  8
0
100
AcDbPolyline
 90
       24
 70
     1
 43
0.0
 10
7.316565
 20
19.881
 42
-0.010213
 10
7.69056
 20
19.87336
 42
-0.054823
 10
7.891715
 20
19.842879
 42
-0.080454
 10
8.044624
 20
19.774506
 42
-0.037059
 10
8.218042
 20
19.641264
 42
-0.039215
 10
8.372216
 20
19.480087
 42
-0.091476
 10
8.452318
 20
19.33428
 42
-0.057105
 10
8.494905
 20
19.130309
 42
-0.00848
 10
8.526346
 20
18.710664
 10
8.56634
 20
18.0198
 10
7.87463
 20
18.0198
 42
-0.007812
 10
7.465046
 20
18.0262
 42
-0.050954
 10
7.261237
 20
18.053481
 42
-0.091272
 10
7.122008
 20
18.115145
 42
-0.056164
 10
6.985795
 20
18.232502
 42
-0.039852
 10
6.906447
 20
18.333122
 42
-0.026196
 10
6.831113
 20
18.46003
 42
-0.026361
 10
6.770419
 20
18.592157
 42
-0.045158
 10
6.736035
 20
18.708377
 42
-0.022631
 10
6.715766
 20
18.840568
 42
-0.008425
 10
6.698861
 20
19.027819
 42
-0.008328
 10
6.687256
 20
19.232888
 42
-0.009969
 10
6.6834
 20
19.426275
 10
6.6834
 20
19.881
  0
LWPOLYLINE
  5
6AA
330
1D
100
AcDbEntity
  8
0
100
AcDbPolyline
 90
       24
 70
     1
 43
0.0
 10
10.00395
 20
19.875274
 10
10.575
 20
19.881
 10
10.575
 20
19.197692
 42
-0.008143
 10
10.5682
 20
18.780148
 42
-0.056851
 10
10.538541
 20
18.578667
 42
-0.092416
 10
10.469034
 20
18.432559
 42
-0.039282
 10
10.327708
 20
18.267092
 42
-0.038235
 10
10.164387
 20
18.127007
 42
-0.090501
 10
10.020761
 20
18.057269
 42
-0.058644
 10
9.826209
 20
18.026997
 42
-0.009302
 10
9.439408
 20
18.0198
 10
8.7984
 20
18.0198
 10
8.7984
 20
18.620097
 42
-0.01491
 10
8.806811
 20
18.902101
 42
-0.026785
 10
8.832956
 20
19.132084
 42
-0.032863
 10
8.876736
 20
19.31702
 42
-0.05892
 10
8.939699
 20
19.459594
 42
-0.033477
 10
9.006705
 20
19.557433
 42
-0.026647
 10
9.091177
 20
19.653608
 42
-0.027363
 10
9.179423
 20
19.734526
 42
-0.058974
 10
9.256949
 20
19.784171
 42
-0.068619
 10
9.359775
 20
19.817648
 42
-0.014091
 10
9.54896
 20
19.846151
 42
-0.014581
 10
9.772424
 20
19.866812
 42
-0.013254
  0
LWPOLYLINE
  5
6C4
330
1D
100
AcDbEntity
  8
0
100
AcDbPolyline
 90
       28
 70
     1
 43
0.0
 10
11.476973
 20
19.881
 42
-0.010743
 10
11.842633
 20
19.873143
 42
-0.056482
 10
12.040792
 20
19.842014
 42
-0.080382
 10
12.19351
 20
19.772145
 42
-0.034943
 10
12.370433
 20
19.635017
 42
-0.036148
 10
12.529987
 20
19.470248
 42
-0.094226
 10
12.610073
 20
19.326789
 42
-0.060355
 10
12.650362
 20
19.128741
 42
-0.008687
 10
12.676305
 20
18.715893
 10
12.706874
 20
18.04275
 10
12.466727
 20
17.996843
 42
-0.030927
 10
12.348096
 20
17.98169
 42
-0.012502
 10
12.185016
 20
17.975129
 42
-0.012315
 10
12.008652
 20
17.97679
 42
-0.015294
 10
11.84494
 20
17.987386
 42
-0.007417
 10
11.687903
 20
18.004739
 42
-0.007444
 10
11.531644
 20
18.026723
 42
-0.007308
 10
11.395989
 20
18.049908
 42
-0.029331
 10
11.314322
 20
18.070113
 42
-0.087542
 10
11.24892
 20
18.103816
 42
-0.037252
 10
11.174909
 20
18.169377
 42
-0.035394
 10
11.10447
 20
18.252897
 42
-0.038867
 10
11.048928
 20
18.343045
 42
-0.061089
 10
11.001547
 20
18.471863
 42
-0.014612
 10
10.955885
 20
18.695717
 42
-0.014801
 10
10.918324
 20
18.957716
 42
-0.014164
 10
10.895664
 20
19.22535
 10
10.858815
 20
19.881
  0
LWPOLYLINE
  5
6E2
330
1D
100
AcDbEntity
  8
0
100
AcDbPolyline
 90
       24
 70
     1
 43
0.0
 10
14.11974
 20
19.881
 10
14.7204
 20
19.881
 10
14.7204
 20
19.173436
 42
-0.00769
 10
14.713884
 20
18.749834
 42
-0.051162
 10
14.685916
 20
18.540786
 42
-0.088894
 10
14.621841
 20
18.394384
 42
-0.04892
 10
14.497364
 20
18.242836
 42
-0.025749
 10
14.401949
 20
18.156773
 42
-0.027095
 10
14.299743
 20
18.082528
 42
-0.028064
 10
14.205156
 20
18.028627
 42
-0.098416
 10
14.137814
 20
18.010304
 42
-0.002665
 10
14.055896
 20
18.005045
 42
-0.000371
 10
13.886081
 20
17.995177
 42
-0.000425
 10
13.685
 20
17.983814
 42
-0.00036
 10
13.47255
 20
17.972142
 10
12.9438
 20
17.943475
 10
12.9438
 20
18.624598
 42
-0.008179
 10
12.950842
 20
19.055078
 42
-0.064065
 10
12.982813
 20
19.252351
 42
-0.095793
 10
13.060342
 20
19.401405
 42
-0.0287
 10
13.23144
 20
19.59336
 42
-0.02744
 10
13.418896
 20
19.761297
 42
-0.090877
 10
13.56414
 20
19.839594
 42
-0.067609
 10
13.749795
 20
19.873021
 42
-0.010783
  0
LWPOLYLINE
  5
6FC
330
1D
100
AcDbEntity
  8
0
100
AcDbPolyline
 90
       30
 70
     1
 43
0.0
 10
15.649665
 20
19.881
 42
-0.011817
 10
15.99594
 20
19.872815
 42
-0.057423
 10
16.189461
 20
19.841191
 42
-0.078887
 10
16.340654
 20
19.771089
 42
-0.034417
 10
16.515833
 20
19.635017
 42
-0.036418
 10
16.67575
 20
19.469695
 42
-0.09476
 10
16.755803
 20
19.325573
 42
-0.059856
 10
16.796009
 20
19.125686
 42
-0.008386
 10
16.822226
 20
18.704417
 42
-0.007111
 10
16.833031
 20
18.357755
 42
-0.034205
 10
16.822882
 20
18.160651
 42
-0.070228
 10
16.793363
 20
18.049712
 42
-0.278062
 10
16.738608
 20
18.009949
 42
-0.012045
 10
16.67387
 20
18.005957
 42
-0.002407
 10
16.55819
 20
18.002175
 42
-0.002544
 10
16.423468
 20
17.999106
 42
-0.00237
 10
16.2855
 20
17.99732
 42
-0.003618
 10
16.138624
 20
17.997177
 42
-0.002716
 10
15.976977
 20
17.999068
 42
-0.002745
 10
15.824884
 20
18.002509
 42
-0.006299
 10
15.71041
 20
18.007171
 42
-0.068747
 10
15.602707
 20
18.02795
 42
-0.040372
 10
15.482075
 20
18.080174
 42
-0.038779
 10
15.364697
 20
18.154878
 42
-0.044802
 10
15.26626
 20
18.243654
 42
-0.052611
 10
15.153326
 20
18.394615
 42
-0.079621
 10
15.092857
 20
18.54678
 42
-0.046731
 10
15.065497
 20
18.762859
 42
-0.008139
 10
15.0588
 20
19.174254
 10
15.0588
 20
19.881
  0
LWPOLYLINE
  5
71C
330
1D
100
AcDbEntity
  8
0
100
AcDbPolyline
 90
       24
 70
     1
 43
0.0
 10
1.105362
 20
17.6814
 42
-0.013271
 10
1.34615
 20
17.675008
 42
-0.015241
 10
1.575342
 20
17.655812
 42
-0.014438
 10
1.767527
 20
17.628158
 42
-0.080072
 10
1.865886
 20
17.594292
 42
-0.063206
 10
1.937368
 20
17.543514
 42
-0.027828
 10
2.018371
 20
17.460189
 42
-0.026997
 10
2.095553
 20
17.361079
 42
-0.032615
 10
2.156424
 20
17.260093
 42
-0.058078
 10
2.209552
 20
17.11947
 42
-0.023719
 10
2.249756
 20
16.918841
 42
-0.021301
 10
2.275628
 20
16.679647
 42
-0.016289
 10
2.2842
 20
16.416601
 10
2.2842
 20
15.8202
 10
1.643192
 20
15.8202
 42
-0.009302
 10
1.256391
 20
15.827397
 42
-0.058644
 10
1.061839
 20
15.857669
 42
-0.090501
 10
0.918213
 20
15.927407
 42
-0.038235
 10
0.754892
 20
16.067492
 42
-0.039282
 10
0.613566
 20
16.232959
 42
-0.092416
 10
0.544059
 20
16.379067
 42
-0.056851
 10
0.5144
 20
16.580548
 42
-0.008143
 10
0.5076
 20
16.998092
 10
0.5076
 20
17.6814
  0
LWPOLYLINE
  5
736
330
1D
100
AcDbEntity
  8
0
100
AcDbPolyline
 90
       24
 70
     1
 43
0.0
 10
3.74355
 20
17.678402
 10
4.3146
 20
17.6814
 10
4.3146
 20
16.998092
 42
-0.008143
 10
4.3078
 20
16.580548
 42
-0.056851
 10
4.278141
 20
16.379067
 42
-0.092416
 10
4.208634
 20
16.232959
 42
-0.039282
 10
4.067308
 20
16.067492
 42
-0.038235
 10
3.903987
 20
15.927407
 42
-0.090501
 10
3.760361
 20
15.857669
 42
-0.058644
 10
3.565809
 20
15.827397
 42
-0.009302
 10
3.179008
 20
15.8202
 10
2.538
 20
15.8202
 10
2.540998
 20
16.43355
 42
-0.015837
 10
2.550256
 20
16.686672
 42
-0.017985
 10
2.575505
 20
16.928116
 42
-0.018251
 10
2.611781
 20
17.13132
 42
-0.073368
 10
2.65606
 20
17.249088
 42
-0.043084
 10
2.713649
 20
17.334687
 42
-0.026772
 10
2.794598
 20
17.424802
 42
-0.026772
 10
2.884713
 20
17.505751
 42
-0.043084
 10
2.970312
 20
17.56334
 42
-0.071549
 10
3.084842
 20
17.606875
 42
-0.018171
 10
3.280853
 20
17.643366
 42
-0.018151
 10
3.510099
 20
17.669015
 42
-0.01747
  0
LWPOLYLINE
  5
750
330
1D
100
AcDbEntity
  8
0
100
AcDbPolyline
 90
       24
 70
     1
 43
0.0
 10
5.250762
 20
17.6814
 42
-0.013271
 10
5.49155
 20
17.675008
 42
-0.015241
 10
5.720742
 20
17.655812
 42
-0.014438
 10
5.912927
 20
17.628158
 42
-0.080072
 10
6.011286
 20
17.594292
 42
-0.063206
 10
6.082768
 20
17.543514
 42
-0.027828
 10
6.163771
 20
17.460189
 42
-0.026997
 10
6.240953
 20
17.361079
 42
-0.032615
 10
6.301824
 20
17.260093
 42
-0.058078
 10
6.354952
 20
17.11947
 42
-0.023719
 10
6.395156
 20
16.918841
 42
-0.021301
 10
6.421028
 20
16.679647
 42
-0.016289
 10
6.4296
 20
16.416601
 10
6.4296
 20
15.8202
 10
5.788592
 20
15.8202
 42
-0.009302
 10
5.401791
 20
15.827397
 42
-0.058644
 10
5.207239
 20
15.857669
 42
-0.090501
 10
5.063613
 20
15.927407
 42
-0.038235
 10
4.900292
 20
16.067492
 42
-0.039282
 10
4.758966
 20
16.232959
 42
-0.092416
 10
4.689459
 20
16.379067
 42
-0.056851
 10
4.6598
 20
16.580548
 42
-0.008143
 10
4.653
 20
16.998092
 10
4.653
 20
17.6814
  0
LWPOLYLINE
  5
76A
330
1D
100
AcDbEntity
  8
0
100
AcDbPolyline
 90
       28
 70
     1
 43
0.0
 10
7.93125
 20
17.679149
 10
8.5446
 20
17.6814
 10
8.5446
 20
17.144124
 42
-0.014265
 10
8.538208
 20
16.920117
 42
-0.01327
 10
8.519039
 20
16.69135
 42
-0.013384
 10
8.49116
 20
16.488974
 42
-0.042967
 10
8.457585
 20
16.357238
 42
-0.05642
 10
8.406589
 20
16.251168
 42
-0.034428
 10
8.324665
 20
16.138735
 42
-0.034179
 10
8.226811
 20
16.037183
 42
-0.050554
 10
8.127282
 20
15.963914
 42
-0.05756
 10
7.982397
 20
15.899461
 42
-0.033722
 10
7.797582
 20
15.854985
 42
-0.027326
 10
7.56777
 20
15.828649
 42
-0.014867
 10
7.283697
 20
15.8202
 10
6.6834
 20
15.8202
 10
6.6834
 20
16.357476
 42
-0.014178
 10
6.68975
 20
16.581361
 42
-0.013232
 10
6.70879
 20
16.80976
 42
-0.01334
 10
6.73648
 20
17.01164
 42
-0.043137
 10
6.769833
 20
17.142693
 42
-0.05336
 10
6.819713
 20
17.248085
 42
-0.033233
 10
6.898679
 20
17.359847
 42
-0.033115
 10
6.992372
 20
17.460873
 42
-0.050482
 10
7.087083
 20
17.533766
 42
-0.061471
 10
7.227418
 20
17.598515
 42
-0.034751
 10
7.409638
 20
17.643112
 42
-0.02758
 10
7.640258
 20
17.669845
 42
-0.014147
  0
LWPOLYLINE
  5
788
330
1D
100
AcDbEntity
  8
0
100
AcDbPolyline
 90
       24
 70
     1
 43
0.0
 10
9.46768
 20
17.6814
 42
-0.007685
 10
9.886649
 20
17.67496
 42
-0.063661
 10
10.074172
 20
17.645103
 42
-0.107565
 10
10.206063
 20
17.573162
 42
-0.039429
 10
10.35598
 20
17.421109
 42
-0.042751
 10
10.475221
 20
17.251965
 42
-0.074502
 10
10.538726
 20
17.092912
 42
-0.048367
 10
10.567648
 20
16.879165
 42
-0.009458
 10
10.575
 20
16.490509
 10
10.575
 20
15.8202
 10
9.977238
 20
15.8202
 42
-0.013271
 10
9.73645
 20
15.826592
 42
-0.015241
 10
9.507258
 20
15.845788
 42
-0.014438
 10
9.315073
 20
15.873442
 42
-0.080072
 10
9.216714
 20
15.907308
 42
-0.063206
 10
9.145232
 20
15.958086
 42
-0.027828
 10
9.064229
 20
16.041411
 42
-0.026997
 10
8.987047
 20
16.140521
 42
-0.032615
 10
8.926176
 20
16.241507
 42
-0.058078
 10
8.873048
 20
16.38213
 42
-0.023719
 10
8.832844
 20
16.582759
 42
-0.021301
 10
8.806972
 20
16.821953
 42
-0.016289
 10
8.7984
 20
17.084999
 10
8.7984
 20
17.6814
  0
LWPOLYLINE
  5
7A2
330
1D
100
AcDbEntity
  8
0
100
AcDbPolyline
 90
       24
 70
     1
 43
0.0
 10
12.061991
 20
17.6814
 10
12.69
 20
17.6814
 10
12.69
 20
17.083638
 42
-0.014314
 10
12.683059
 20
16.841238
 42
-0.015733
 10
12.66224
 20
16.607187
 42
-0.015293
 10
12.632155
 20
16.40915
 42
-0.072975
 10
12.595498
 20
16.301088
 42
-0.035476
 10
12.546336
 20
16.219748
 42
-0.019665
 10
12.47575
 20
16.127644
 42
-0.019527
 10
12.396547
 20
16.039546
 42
-0.02967
 10
12.320548
 20
15.970131
 42
-0.078795
 10
12.20011
 20
15.900602
 42
-0.046623
 10
12.039961
 20
15.855741
 42
-0.032426
 10
11.819968
 20
15.830304
 42
-0.011752
 10
11.5056
 20
15.821884
 10
10.8711
 20
15.819805
 10
10.898399
 20
16.536756
 42
-0.007322
 10
10.921662
 20
16.977728
 42
-0.05663
 10
10.958675
 20
17.180571
 42
-0.099681
 10
11.033382
 20
17.31985
 42
-0.045094
 10
11.17984
 20
17.467554
 42
-0.043582
 10
11.342739
 20
17.58199
 42
-0.07199
 10
11.498513
 20
17.644489
 42
-0.048693
 10
11.704909
 20
17.673684
 42
-0.010803
  0
LWPOLYLINE
  5
7BC
330
1D
100
AcDbEntity
  8
0
100
AcDbPolyline
 90
       24
 70
     1
 43
0.0
 10
13.584808
 20
17.6814
 42
-0.009302
 10
13.971609
 20
17.674203
 42
-0.058644
 10
14.166161
 20
17.643931
 42
-0.090501
 10
14.309787
 20
17.574193
 42
-0.038235
 10
14.473108
 20
17.434108
 42
-0.039282
 10
14.614434
 20
17.268641
 42
-0.092416
 10
14.683941
 20
17.122533
 42
-0.056851
 10
14.7136
 20
16.921052
 42
-0.008143
 10
14.7204
 20
16.503508
 10
14.7204
 20
15.8202
 10
14.122638
 20
15.8202
 42
-0.013898
 10
13.881263
 20
15.82691
 42
-0.015699
 10
13.650296
 20
15.847052
 42
-0.015055
 10
13.456061
 20
15.876107
 42
-0.07836
 10
13.354076
 20
15.91161
 42
-0.074674
 10
13.280079
 20
15.966757
 42
-0.031491
 10
13.198275
 20
16.060348
 42
-0.030281
 10
13.121943
 20
16.173181
 42
-0.034631
 10
13.063538
 20
16.289592
 42
-0.046698
 10
13.017424
 20
16.437382
 42
-0.016851
 10
12.978973
 20
16.654316
 42
-0.016543
 10
12.952591
 20
16.89619
 42
-0.018892
 10
12.9438
 20
17.128783
 10
12.9438
 20
17.6814
  0
LWPOLYLINE
  5
7D6
330
1D
100
AcDbEntity
  8
0
100
AcDbPolyline
 90
       24
 70
     1
 43
0.0
 10
16.202235
 20
17.6814
 10
16.8354
 20
17.6814
 10
16.8354
 20
17.083638
 42
-0.014314
 10
16.828459
 20
16.841238
 42
-0.015733
 10
16.80764
 20
16.607187
 42
-0.015293
 10
16.777555
 20
16.40915
 42
-0.072975
 10
16.740898
 20
16.301088
 42
-0.035476
 10
16.691736
 20
16.219748
 42
-0.019665
 10
16.62115
 20
16.127644
 42
-0.019527
 10
16.541947
 20
16.039546
 42
-0.02967
 10
16.465948
 20
15.970131
 42
-0.07879
 10
16.345505
 20
15.900597
 42
-0.046651
 10
16.185385
 20
15.855751
 42
-0.032438
 10
15.965414
 20
15.830343
 42
-0.011748
 10
15.651
 20
15.821964
 10
15.0165
 20
15.819965
 10
15.034337
 20
16.518033
 42
-0.007772
 10
15.052009
 20
16.947858
 42
-0.058048
 10
15.087022
 20
17.148694
 42
-0.097153
 10
15.161404
 20
17.290782
 42
-0.040501
 10
15.310622
 20
17.44875
 42
-0.039512
 10
15.478065
 20
17.577083
 42
-0.080098
 10
15.629556
 20
17.643846
 42
-0.053689
 10
15.830802
 20
17.673842
 42
-0.010173
  0
LWPOLYLINE
  5
7F0
330
1D
100
AcDbEntity
  8
0
100
AcDbPolyline
 90
       28
 70
     1
 43
0.0
 10
3.5109
 20
15.510016
 42
-0.007626
 10
3.557768
 20
15.501477
 42
-0.001648
 10
3.638538
 20
15.485208
 42
-0.001719
 10
3.731926
 20
15.465742
 42
-0.001642
 10
3.826611
 20
15.44534
 42
-0.067911
 10
3.929675
 20
15.407588
 42
-0.051777
 10
4.029631
 20
15.340635
 42
-0.049631
 10
4.11785
 20
15.251094
 42
-0.050426
 10
4.186161
 20
15.146376
 42
-0.058759
 10
4.240823
 20
15.001095
 42
-0.024678
 10
4.280972
 20
14.795807
 42
-0.021447
 10
4.306289
 20
14.545758
 42
-0.014504
 10
4.3146
 20
14.259301
 10
4.3146
 20
13.6206
 10
3.723735
 20
13.6206
 42
-0.011817
 10
3.37746
 20
13.628785
 42
-0.057423
 10
3.183939
 20
13.660409
 42
-0.078887
 10
3.032746
 20
13.730511
 42
-0.034417
 10
2.857567
 20
13.866583
 42
-0.036307
 10
2.697798
 20
14.031679
 42
-0.094543
 10
2.617732
 20
14.175527
 42
-0.060061
 10
2.577492
 20
14.374658
 42
-0.008508
 10
2.551389
 20
14.792458
 10
2.520513
 20
15.472351
 10
2.973407
 20
15.498226
 42
-0.003836
 10
3.153031
 20
15.507106
 42
-0.004949
 10
3.318114
 20
15.512362
 42
-0.003803
 10
3.456332
 20
15.514343
 42
-0.042948
  0
LWPOLYLINE
  5
80E
330
1D
100
AcDbEntity
  8
0
100
AcDbPolyline
 90
       26
 70
     1
 43
0.0
 10
6.36615
 20
15.497957
 42
-0.268122
 10
6.391408
 20
15.465145
 42
-0.008865
 10
6.410962
 20
15.294968
 42
-0.014718
 10
6.425013
 20
15.086295
 42
-0.009451
 10
6.4296
 20
14.843642
 42
-0.010385
 10
6.421864
 20
14.471202
 42
-0.055952
 10
6.390969
 20
14.271284
 42
-0.080794
 10
6.321395
 20
14.118108
 42
-0.035421
 10
6.184606
 20
13.941273
 42
-0.036015
 10
6.022173
 20
13.783898
 42
-0.091542
 10
5.879844
 20
13.703347
 42
-0.060911
 10
5.685653
 20
13.661802
 42
-0.009659
 10
5.296306
 20
13.634592
 10
4.653
 20
13.602106
 10
4.653
 20
14.314625
 42
-0.007357
 10
4.659383
 20
14.74841
 42
-0.053655
 10
4.687678
 20
14.954206
 42
-0.094363
 10
4.753878
 20
15.097791
 42
-0.046693
 10
4.885744
 20
15.250127
 42
-0.046332
 10
5.034575
 20
15.368375
 42
-0.071671
 10
5.183183
 20
15.437556
 42
-0.049978
 10
5.381151
 20
15.476188
 42
-0.012455
 10
5.710594
 20
15.498605
 42
-0.004526
 10
5.942055
 20
15.506473
 42
-0.006479
 10
6.147407
 20
15.508931
 42
-0.003737
 10
6.320021
 20
15.507471
 42
-0.093998
  0
LWPOLYLINE
  5
82A
330
1D
100
AcDbEntity
  8
0
100
AcDbPolyline
 90
       28
 70
     1
 43
0.0
 10
1.67085
 20
15.476074
 10
2.2842
 20
15.4818
 10
2.2842
 20
14.893581
 42
-0.01538
 10
2.276771
 20
14.652114
 42
-0.015655
 10
2.254511
 20
14.41299
 42
-0.015617
 10
2.222218
 20
14.206807
 42
-0.060306
 10
2.18313
 20
14.083536
 42
-0.054031
 10
2.127513
 20
13.989797
 42
-0.032478
 10
2.043267
 20
13.891459
 42
-0.032235
 10
1.945594
 20
13.803513
 42
-0.047873
 10
1.848931
 20
13.741155
 42
-0.0612
 10
1.720866
 20
13.693681
 42
-0.020202
 10
1.523548
 20
13.65525
 42
-0.019407
 10
1.294951
 20
13.629274
 42
-0.018587
 10
1.061701
 20
13.6206
 10
0.5076
 20
13.6206
 10
0.5076
 20
14.251119
 42
-0.013491
 10
0.514524
 20
14.50768
 42
-0.014532
 10
0.535286
 20
14.757188
 42
-0.014173
 10
0.565312
 20
14.969596
 42
-0.064779
 10
0.601851
 20
15.088498
 42
-0.04756
 10
0.651163
 20
15.17411
 42
-0.033438
 10
0.721497
 20
15.260294
 42
-0.033881
 10
0.800731
 20
15.334365
 42
-0.058332
 10
0.876801
 20
15.382853
 42
-0.070057
 10
0.983568
 20
15.417176
 42
-0.013575
 10
1.184591
 20
15.446329
 42
-0.014193
 10
1.42278
 20
15.467459
 42
-0.012691
  0
LWPOLYLINE
  5
848
330
1D
100
AcDbEntity
  8
0
100
AcDbPolyline
 90
       28
 70
     1
 43
0.0
 10
7.323462
 20
15.4818
 42
-0.013016
 10
7.581035
 20
15.475094
 42
-0.01505
 10
7.825678
 20
15.454948
 42
-0.01418
 10
8.03059
 20
15.425943
 42
-0.080781
 10
8.134324
 20
15.39039
 42
-0.074674
 10
8.208321
 20
15.335243
 42
-0.031491
 10
8.290125
 20
15.241652
 42
-0.030281
 10
8.366457
 20
15.128819
 42
-0.034631
 10
8.424862
 20
15.012408
 42
-0.046698
 10
8.470976
 20
14.864618
 42
-0.016851
 10
8.509427
 20
14.647684
 42
-0.016543
 10
8.535809
 20
14.40581
 42
-0.018892
 10
8.5446
 20
14.173217
 10
8.5446
 20
13.6206
 10
7.928924
 20
13.6206
 42
-0.013295
 10
7.636156
 20
13.628386
 42
-0.028754
 10
7.412361
 20
13.653255
 42
-0.037705
 10
7.241643
 20
13.695673
 42
-0.073156
 10
7.116287
 20
13.758557
 42
-0.052461
 10
7.032312
 20
13.831593
 42
-0.026774
 10
6.942532
 20
13.938922
 42
-0.026273
 10
6.860944
 20
14.060637
 42
-0.035569
 10
6.801363
 20
14.178839
 42
-0.044787
 10
6.755966
 20
14.322405
 42
-0.017255
 10
6.718052
 20
14.528138
 42
-0.016921
 10
6.692054
 20
14.755399
 42
-0.020018
 10
6.6834
 20
14.971483
 10
6.6834
 20
15.4818
  0
LWPOLYLINE
  5
866
330
1D
100
AcDbEntity
  8
0
100
AcDbPolyline
 90
       24
 70
     1
 43
0.0
 10
9.933992
 20
15.4818
 10
10.575
 20
15.4818
 10
10.575
 20
14.841738
 42
-0.012427
 10
10.568612
 20
14.584752
 42
-0.014595
 10
10.549412
 20
14.341883
 42
-0.013562
 10
10.521807
 20
14.138951
 42
-0.082454
 10
10.487892
 20
14.038914
 42
-0.063206
 10
10.437114
 20
13.967432
 42
-0.027828
 10
10.353789
 20
13.886429
 42
-0.026997
 10
10.254679
 20
13.809247
 42
-0.032615
 10
10.153693
 20
13.748376
 42
-0.057041
 10
10.01735
 20
13.696543
 42
-0.0228
 10
9.821405
 20
13.656059
 42
-0.02112
 10
9.593011
 20
13.629465
 42
-0.018423
 10
9.352501
 20
13.6206
 10
8.7984
 20
13.6206
 10
8.7984
 20
14.303908
 42
-0.008143
 10
8.8052
 20
14.721452
 42
-0.056851
 10
8.834859
 20
14.922933
 42
-0.092416
 10
8.904366
 20
15.069041
 42
-0.039282
 10
9.045692
 20
15.234508
 42
-0.038235
 10
9.209013
 20
15.374593
 42
-0.090501
 10
9.352639
 20
15.444331
 42
-0.058644
 10
9.547191
 20
15.474603
 42
-0.009302
  0
LWPOLYLINE
  5
880
330
1D
100
AcDbEntity
  8
0
100
AcDbPolyline
 90
       24
 70
     1
 43
0.0
 10
11.490012
 20
15.481896
 42
-0.012831
 10
11.738899
 20
15.47547
 42
-0.014907
 10
11.97493
 20
15.45624
 42
-0.013988
 10
12.172476
 20
15.428588
 42
-0.081265
 10
12.271686
 20
15.394692
 42
-0.063206
 10
12.343168
 20
15.343914
 42
-0.027828
 10
12.424171
 20
15.260589
 42
-0.026997
 10
12.501353
 20
15.161479
 42
-0.032615
 10
12.562224
 20
15.060493
 42
-0.058078
 10
12.615352
 20
14.91987
 42
-0.023719
 10
12.655556
 20
14.719241
 42
-0.021301
 10
12.681428
 20
14.480047
 42
-0.016289
 10
12.69
 20
14.217001
 10
12.69
 20
13.6206
 10
12.060218
 20
13.6206
 42
-0.010657
 10
11.705993
 20
13.628151
 42
-0.047153
 10
11.49962
 20
13.656574
 42
-0.071485
 10
11.34654
 20
13.716623
 42
-0.048411
 10
11.193068
 20
13.824644
 42
-0.052515
 10
11.059643
 20
13.966206
 42
-0.089985
 10
10.986176
 20
14.110337
 42
-0.050816
 10
10.945246
 20
14.32274
 42
-0.007669
 10
10.9134
 20
14.755341
 10
10.8711
 20
15.481993
  0
LWPOLYLINE
  5
89A
330
1D
100
AcDbEntity
  8
0
100
AcDbPolyline
 90
       20
 70
     1
 43
0.0
 10
14.090618
 20
15.4818
 10
14.7204
 20
15.4818
 10
14.7204
 20
14.77022
 42
-0.006766
 10
14.714302
 20
14.319615
 42
-0.061495
 10
14.685004
 20
14.125623
 42
-0.10947
 10
14.61322
 20
13.991304
 42
-0.040626
 10
14.460109
 20
13.83962
 42
-0.041911
 10
14.292958
 20
13.721364
 42
-0.073248
 10
14.136108
 20
13.657672
 42
-0.04942
 10
13.928561
 20
13.62827
 42
-0.010493
 10
13.563128
 20
13.6206
 10
12.926437
 20
13.6206
 10
12.95627
 20
14.347026
 42
-0.007372
 10
12.980717
 20
14.784764
 42
-0.052315
 10
13.017711
 20
14.993913
 42
-0.094059
 10
13.089233
 20
15.135706
 42
-0.05147
 10
13.223469
 20
15.277626
 42
-0.048383
 10
13.376953
 20
15.385741
 42
-0.071558
 10
13.529984
 20
15.445822
 42
-0.047193
 10
13.736304
 20
15.47425
 42
-0.010653
  0
LWPOLYLINE
  5
8B0
330
1D
100
AcDbEntity
  8
0
100
AcDbPolyline
 90
       24
 70
     1
 43
0.0
 10
15.635412
 20
15.481896
 42
-0.012831
 10
15.884299
 20
15.47547
 42
-0.014907
 10
16.12033
 20
15.45624
 42
-0.013988
 10
16.317876
 20
15.428588
 42
-0.081265
 10
16.417086
 20
15.394692
 42
-0.063206
 10
16.488568
 20
15.343914
 42
-0.027828
 10
16.569571
 20
15.260589
 42
-0.026997
 10
16.646753
 20
15.161479
 42
-0.032615
 10
16.707624
 20
15.060493
 42
-0.058078
 10
16.760752
 20
14.91987
 42
-0.023719
 10
16.800956
 20
14.719241
 42
-0.021301
 10
16.826828
 20
14.480047
 42
-0.016289
 10
16.8354
 20
14.217001
 10
16.8354
 20
13.6206
 10
16.205618
 20
13.6206
 42
-0.010657
 10
15.851393
 20
13.628151
 42
-0.047153
 10
15.64502
 20
13.656574
 42
-0.071485
 10
15.49194
 20
13.716623
 42
-0.048411
 10
15.338468
 20
13.824644
 42
-0.052515
 10
15.205043
 20
13.966206
 42
-0.089985
 10
15.131576
 20
14.110337
 42
-0.050816
 10
15.090646
 20
14.32274
 42
-0.007669
 10
15.0588
 20
14.755341
 10
15.0165
 20
15.481993
  0
LWPOLYLINE
  5
8CA
330
1D
100
AcDbEntity
  8
0
100
AcDbPolyline
 90
       24
 70
     1
 43
0.0
 10
1.141806
 20
13.353268
 42
-0.01074
 10
1.503741
 20
13.327187
 42
-0.05082
 10
1.707511
 20
13.286947
 42
-0.076686
 10
1.856881
 20
13.214868
 42
-0.045698
 10
2.008956
 20
13.088329
 42
-0.047655
 10
2.13841
 20
12.931552
 42
-0.081471
 10
2.20936
 20
12.777828
 42
-0.048858
 10
2.247201
 20
12.560233
 42
-0.008245
 10
2.271731
 20
12.138208
 10
2.301563
 20
11.421
 10
1.746962
 20
11.421
 42
-0.016247
 10
1.518364
 20
11.42843
 42
-0.016117
 10
1.290114
 20
11.450689
 42
-0.016192
 10
1.092083
 20
11.483019
 42
-0.058395
 10
0.970536
 20
11.52207
 42
-0.054031
 10
0.876797
 20
11.577687
 42
-0.032478
 10
0.778459
 20
11.661933
 42
-0.032235
 10
0.690513
 20
11.759606
 42
-0.047873
 10
0.628155
 20
11.856269
 42
-0.063676
 10
0.578139
 20
11.99326
 42
-0.02173
 10
0.540295
 20
12.201897
 42
-0.01962
 10
0.515718
 20
12.455135
 42
-0.014379
 10
0.5076
 20
12.737346
 10
0.5076
 20
13.385294
  0
LWPOLYLINE
  5
8E4
330
1D
100
AcDbEntity
  8
0
100
AcDbPolyline
 90
       28
 70
     1
 43
0.0
 10
3.78585
 20
13.364874
 10
4.3146
 20
13.3668
 10
4.3146
 20
12.687023
 42
-0.011692
 10
4.307088
 20
12.365836
 42
-0.025589
 10
4.283037
 20
12.121027
 42
-0.033529
 10
4.2424
 20
11.935941
 42
-0.074355
 10
4.182118
 20
11.805054
 42
-0.055788
 10
4.112521
 20
11.720986
 42
-0.031857
 10
4.01193
 20
11.635544
 42
-0.031441
 10
3.898367
 20
11.561532
 42
-0.044855
 10
3.788793
 20
11.51193
 42
-0.039788
 10
3.65491
 20
11.476902
 42
-0.014158
 10
3.459175
 20
11.447711
 42
-0.013947
 10
3.241611
 20
11.427673
 42
-0.015989
 10
3.032976
 20
11.421
 10
2.538
 20
11.421
 10
2.538
 20
12.051519
 42
-0.013707
 10
2.545042
 20
12.308337
 42
-0.014668
 10
2.566155
 20
12.558617
 42
-0.014352
 10
2.5967
 20
12.771978
 42
-0.064246
 10
2.633847
 20
12.8924
 42
-0.063213
 10
2.689497
 20
12.9824
 42
-0.033169
 10
2.779001
 20
13.079182
 42
-0.03238
 10
2.885409
 20
13.167611
 42
-0.042613
 10
2.993397
 20
13.232854
 42
-0.05255
 10
3.132835
 20
13.284274
 42
-0.020806
 10
3.333
 20
13.326245
 42
-0.019907
 10
3.559677
 20
13.35479
 42
-0.020457
  0
LWPOLYLINE
  5
902
330
1D
100
AcDbEntity
  8
0
100
AcDbPolyline
 90
       24
 70
     1
 43
0.0
 10
5.287206
 20
13.353268
 42
-0.01074
 10
5.649141
 20
13.327187
 42
-0.05082
 10
5.852911
 20
13.286947
 42
-0.076686
 10
6.002281
 20
13.214868
 42
-0.045698
 10
6.154356
 20
13.088329
 42
-0.047655
 10
6.28381
 20
12.931552
 42
-0.081471
 10
6.35476
 20
12.777828
 42
-0.048858
 10
6.392601
 20
12.560233
 42
-0.008245
 10
6.417131
 20
12.138208
 10
6.446963
 20
11.421
 10
5.88418
 20
11.421
 42
-0.01795
 10
5.639057
 20
11.429803
 42
-0.021175
 10
5.408459
 20
11.456238
 42
-0.023008
 10
5.211563
 20
11.496661
 42
-0.057251
 10
5.074307
 20
11.548776
 42
-0.032615
 10
4.973321
 20
11.609647
 42
-0.026997
 10
4.874211
 20
11.686829
 42
-0.027828
 10
4.790886
 20
11.767832
 42
-0.063206
 10
4.740108
 20
11.839314
 42
-0.085077
 10
4.706135
 20
11.941267
 42
-0.012576
 10
4.678588
 20
12.157425
 42
-0.013871
 10
4.659383
 20
12.416957
 42
-0.011531
 10
4.653
 20
12.693685
 10
4.653
 20
13.385294
  0
LWPOLYLINE
  5
91C
330
1D
100
AcDbEntity
  8
0
100
AcDbPolyline
 90
       28
 70
     1
 43
0.0
 10
7.97355
 20
13.366484
 10
8.5446
 20
13.3668
 10
8.5446
 20
12.814183
 42
-0.018045
 10
8.536241
 20
12.582641
 42
-0.016232
 10
8.511173
 20
12.343928
 42
-0.016506
 10
8.474657
 20
12.131336
 42
-0.048243
 10
8.430805
 20
11.989333
 42
-0.026119
 10
8.376356
 20
11.876084
 42
-0.021311
 10
8.306856
 20
11.760924
 42
-0.021818
 10
8.233588
 20
11.660275
 42
-0.05143
 10
8.168649
 20
11.594056
 42
-0.100737
 10
8.065594
 20
11.538878
 42
-0.03317
 10
7.897172
 20
11.500423
 42
-0.025924
 10
7.669443
 20
11.476118
 42
-0.012133
 10
7.372994
 20
11.467156
 10
6.7257
 20
11.4633
 10
6.701022
 20
12.019562
 42
-0.015366
 10
6.697898
 20
12.249122
 42
-0.015278
 10
6.708861
 20
12.478883
 42
-0.015307
 10
6.730708
 20
12.678816
 42
-0.056026
 10
6.762363
 20
12.802074
 42
-0.063465
 10
6.815094
 20
12.900916
 42
-0.031575
 10
6.9045
 20
13.011483
 42
-0.030731
 10
7.013062
 20
13.115966
 42
-0.039343
 10
7.125441
 20
13.197245
 42
-0.046248
 10
7.287849
 20
13.276719
 42
-0.041448
 10
7.468137
 20
13.328524
 42
-0.033344
 10
7.687805
 20
13.35731
 42
-0.015772
  0
LWPOLYLINE
  5
93A
330
1D
100
AcDbEntity
  8
0
100
AcDbPolyline
 90
       24
 70
     1
 43
0.0
 10
9.352501
 20
13.3668
 42
-0.018587
 10
9.585751
 20
13.358126
 42
-0.019407
 10
9.814348
 20
13.33215
 42
-0.020202
 10
10.011666
 20
13.293719
 42
-0.0612
 10
10.139731
 20
13.246245
 42
-0.047873
 10
10.236394
 20
13.183887
 42
-0.032235
 10
10.334067
 20
13.095941
 42
-0.032478
 10
10.418313
 20
12.997603
 42
-0.054031
 10
10.47393
 20
12.903864
 42
-0.063015
 10
10.513074
 20
12.778063
 42
-0.014758
 10
10.545311
 20
12.559269
 42
-0.014981
 10
10.567573
 20
12.303472
 42
-0.014214
 10
10.575
 20
12.042273
 10
10.575
 20
11.402506
 10
9.931694
 20
11.434992
 42
-0.009659
 10
9.542347
 20
11.462202
 42
-0.060911
 10
9.348156
 20
11.503747
 42
-0.091542
 10
9.205827
 20
11.584298
 42
-0.036015
 10
9.043394
 20
11.741673
 42
-0.036413
 10
8.905066
 20
11.921231
 42
-0.082977
 10
8.835807
 20
12.077137
 42
-0.05425
 10
8.805651
 20
12.284982
 42
-0.008922
 10
8.7984
 20
12.691335
 10
8.7984
 20
13.3668
  0
LWPOLYLINE
  5
954
330
1D
100
AcDbEntity
  8
0
100
AcDbPolyline
 90
       28
 70
     1
 43
0.0
 10
12.16125
 20
13.363489
 10
12.69
 20
13.3668
 10
12.69
 20
12.708824
 42
-0.012033
 10
12.682525
 20
12.398279
 42
-0.026658
 10
12.658546
 20
12.162685
 42
-0.035141
 10
12.618051
 20
11.985744
 42
-0.079108
 10
12.557964
 20
11.862341
 42
-0.043022
 10
12.489867
 20
11.780999
 42
-0.02281
 10
12.392903
 20
11.692073
 42
-0.02253
 10
12.284727
 20
11.609576
 42
-0.032317
 10
12.181466
 20
11.547417
 42
-0.057836
 10
12.04651
 20
11.496356
 42
-0.022361
 10
11.850222
 20
11.456271
 42
-0.020815
 10
11.621445
 20
11.42982
 42
-0.018373
 10
11.381505
 20
11.421
 10
10.826007
 20
11.421
 10
10.858715
 20
12.082831
 42
-0.012691
 10
10.878744
 20
12.35022
 42
-0.014199
 10
10.911852
 20
12.606371
 42
-0.013578
 10
10.95201
 20
12.822045
 42
-0.070153
 10
10.993673
 20
12.935715
 42
-0.064648
 10
11.052005
 20
13.017335
 42
-0.032026
 10
11.144697
 20
13.104929
 42
-0.031138
 10
11.253998
 20
13.184765
 42
-0.039593
 10
11.364211
 20
13.243473
 42
-0.04814
 10
11.503278
 20
13.28865
 42
-0.017112
 10
11.70901
 20
13.326868
 42
-0.016798
 10
11.939135
 20
13.35365
 42
-0.019003
  0
LWPOLYLINE
  5
972
330
1D
100
AcDbEntity
  8
0
100
AcDbPolyline
 90
       24
 70
     1
 43
0.0
 10
13.459764
 20
13.3668
 42
-0.021447
 10
13.680375
 20
13.357333
 42
-0.019533
 10
13.906419
 20
13.328967
 42
-0.020234
 10
14.108796
 20
13.287024
 42
-0.049601
 10
14.251743
 20
13.235823
 42
-0.042227
 10
14.364477
 20
13.170153
 42
-0.032921
 10
14.474972
 20
13.081221
 42
-0.033848
 10
14.567399
 20
12.9839
 42
-0.066201
 10
14.624078
 20
12.893442
 42
-0.064088
 10
14.661406
 20
12.772569
 42
-0.014404
 10
14.692105
 20
12.558923
 42
-0.014709
 10
14.713323
 20
12.308414
 42
-0.013771
 10
14.7204
 20
12.051519
 10
14.7204
 20
11.421
 10
14.11974
 20
11.421
 42
-0.010783
 10
13.749795
 20
11.428979
 42
-0.067609
 10
13.56414
 20
11.462406
 42
-0.090877
 10
13.418896
 20
11.540703
 42
-0.02744
 10
13.23144
 20
11.70864
 42
-0.02877
 10
13.060203
 20
11.900804
 42
-0.096015
 10
12.982706
 20
12.050061
 42
-0.063881
 10
12.9508
 20
12.247922
 42
-0.008072
 10
12.9438
 20
12.68154
 10
12.9438
 20
13.3668
  0
LWPOLYLINE
  5
98C
330
1D
100
AcDbEntity
  8
0
100
AcDbPolyline
 90
       30
 70
     1
 43
0.0
 10
16.30665
 20
13.363489
 10
16.8354
 20
13.3668
 10
16.8354
 20
12.691335
 42
-0.008923
 10
16.828156
 20
12.285435
 42
-0.054054
 10
16.798067
 20
12.077483
 42
-0.082845
 10
16.729047
 20
11.921681
 42
-0.036739
 10
16.591511
 20
11.74291
 42
-0.03594
 10
16.431713
 20
11.588042
 42
-0.088464
 10
16.290514
 20
11.50693
 42
-0.061343
 10
16.100446
 20
11.463945
 42
-0.01086
 10
15.7356
 20
11.435369
 42
-0.01081
 10
15.460896
 20
11.425798
 42
-0.027137
 10
15.260696
 20
11.434021
 42
-0.034361
 10
15.121597
 20
11.457042
 42
-0.198683
 10
15.06243
 20
11.499726
 42
-0.113179
 10
15.039476
 20
11.567142
 42
-0.011036
 10
15.025506
 20
11.739867
 42
-0.013536
 10
15.0189
 20
11.949081
 42
-0.010314
 10
15.022598
 20
12.178289
 42
-0.014305
 10
15.03801
 20
12.413718
 42
-0.01546
 10
15.066648
 20
12.641823
 42
-0.015117
 10
15.103046
 20
12.835208
 42
-0.06889
 10
15.142619
 20
12.94234
 42
-0.066354
 10
15.199533
 20
13.021407
 42
-0.031818
 10
15.291138
 20
13.106875
 42
-0.030857
 10
15.399659
 20
13.185245
 42
-0.038381
 10
15.509611
 20
13.243473
 42
-0.04814
 10
15.648678
 20
13.28865
 42
-0.017112
 10
15.85441
 20
13.326868
 42
-0.016798
 10
16.084535
 20
13.35365
 42
-0.019003
  0
LWPOLYLINE
  5
9AC
330
1D
100
AcDbEntity
  8
0
100
AcDbPolyline
 90
       28
 70
     1
 43
0.0
 10
1.71315
 20
11.163813
 10
2.2842
 20
11.1672
 10
2.282953
 20
10.55385
 42
-0.015446
 10
2.274709
 20
10.303522
 42
-0.016277
 10
2.251029
 20
10.058543
 42
-0.016114
 10
2.21702
 20
9.84932
 42
-0.067607
 10
2.176026
 20
9.729
 42
-0.063708
 10
2.114568
 20
9.637335
 42
-0.030425
 10
2.014756
 20
9.536177
 42
-0.02956
 10
1.896084
 20
9.441741
 42
-0.03706
 10
1.775423
 20
9.369581
 42
-0.044312
 10
1.622186
 20
9.30903
 42
-0.02513
 10
1.428149
 20
9.262058
 42
-0.02363
 10
1.212832
 20
9.231715
 42
-0.023125
 10
0.99405
 20
9.221531
 10
0.5076
 20
9.2214
 10
0.5076
 20
9.903762
 42
-0.011633
 10
0.513956
 20
10.176896
 42
-0.013955
 10
0.533076
 20
10.433282
 42
-0.012691
 10
0.560509
 20
10.646891
 42
-0.084774
 10
0.594327
 20
10.748174
 42
-0.058845
 10
0.64387
 20
10.819218
 42
-0.02717
 10
0.723294
 20
10.899371
 42
-0.026457
 10
0.816961
 20
10.97554
 42
-0.03317
 10
0.911577
 20
11.035325
 42
-0.06227
 10
1.041711
 20
11.086223
 42
-0.02238
 10
1.236901
 20
11.126541
 42
-0.020753
 10
1.467533
 20
11.153752
 42
-0.017504
  0
LWPOLYLINE
  5
9CA
330
1D
100
AcDbEntity
  8
0
100
AcDbPolyline
 90
       20
 70
     1
 43
0.0
 10
3.213918
 20
11.154421
 42
-0.008125
 10
3.628802
 20
11.128819
 42
-0.05383
 10
3.832517
 20
11.090603
 42
-0.092734
 10
3.972725
 20
11.017978
 42
-0.04943
 10
4.114568
 20
10.882716
 42
-0.047016
 10
4.227856
 20
10.722815
 42
-0.082418
 10
4.284536
 20
10.571303
 42
-0.049188
 10
4.304594
 20
10.361276
 42
-0.008086
 10
4.296734
 20
9.953115
 10
4.2723
 20
9.2637
 10
3.655301
 20
9.269271
 42
-0.010328
 10
3.295443
 20
9.279957
 42
-0.055082
 10
3.10164
 20
9.311311
 42
-0.084633
 10
2.959575
 20
9.378072
 42
-0.044319
 10
2.809301
 20
9.503813
 42
-0.049509
 10
2.682374
 20
9.658695
 42
-0.080848
 10
2.612327
 20
9.812954
 42
-0.047806
 10
2.574714
 20
10.032913
 42
-0.008065
 10
2.550084
 20
10.459361
 10
2.519868
 20
11.185939
  0
LWPOLYLINE
  5
9E0
330
1D
100
AcDbEntity
  8
0
100
AcDbPolyline
 90
       28
 70
     1
 43
0.0
 10
5.85855
 20
11.163813
 10
6.4296
 20
11.1672
 10
6.428353
 20
10.55385
 42
-0.015446
 10
6.420109
 20
10.303522
 42
-0.016277
 10
6.396429
 20
10.058543
 42
-0.016114
 10
6.36242
 20
9.84932
 42
-0.067607
 10
6.321426
 20
9.729
 42
-0.063708
 10
6.259968
 20
9.637335
 42
-0.030425
 10
6.160156
 20
9.536177
 42
-0.02956
 10
6.041484
 20
9.441741
 42
-0.03706
 10
5.920823
 20
9.369581
 42
-0.044312
 10
5.767586
 20
9.30903
 42
-0.02513
 10
5.573549
 20
9.262058
 42
-0.02363
 10
5.358232
 20
9.231715
 42
-0.023125
 10
5.13945
 20
9.221531
 10
4.653
 20
9.2214
 10
4.653
 20
9.903762
 42
-0.011633
 10
4.659356
 20
10.176896
 42
-0.013955
 10
4.678476
 20
10.433282
 42
-0.012691
 10
4.705909
 20
10.646891
 42
-0.084774
 10
4.739727
 20
10.748174
 42
-0.058845
 10
4.78927
 20
10.819218
 42
-0.02717
 10
4.868694
 20
10.899371
 42
-0.026457
 10
4.962361
 20
10.97554
 42
-0.03317
 10
5.056977
 20
11.035325
 42
-0.06227
 10
5.187111
 20
11.086223
 42
-0.02238
 10
5.382301
 20
11.126541
 42
-0.020753
 10
5.612933
 20
11.153752
 42
-0.017504
  0
LWPOLYLINE
  5
9FE
330
1D
100
AcDbEntity
  8
0
100
AcDbPolyline
 90
       28
 70
     1
 43
0.0
 10
7.306491
 20
11.1672
 42
-0.011676
 10
7.635629
 20
11.159513
 42
-0.039101
 10
7.849609
 20
11.132655
 42
-0.057467
 10
8.008606
 20
11.080348
 42
-0.058536
 10
8.150455
 20
10.993461
 42
-0.053247
 10
8.24181
 20
10.90436
 42
-0.029737
 10
8.333677
 20
10.778899
 42
-0.029338
 10
8.412392
 20
10.639462
 42
-0.041793
 10
8.464028
 20
10.507011
 42
-0.035365
 10
8.497756
 20
10.354385
 42
-0.015705
 10
8.521504
 20
10.149477
 42
-0.015454
 10
8.533159
 20
9.930046
 42
-0.020149
 10
8.529514
 20
9.729
 10
8.5023
 20
9.2637
 10
8.024125
 20
9.237957
 42
-0.022605
 10
7.806635
 20
9.236091
 42
-0.023348
 10
7.59222
 20
9.253995
 42
-0.024832
 10
7.397045
 20
9.289441
 42
-0.041642
 10
7.238531
 20
9.340662
 42
-0.041669
 10
7.09307
 20
9.416219
 42
-0.053944
 10
6.975301
 20
9.509549
 42
-0.054704
 10
6.881442
 20
9.62477
 42
-0.044654
 10
6.807255
 20
9.765538
 42
-0.045697
 10
6.759574
 20
9.917283
 42
-0.017068
 10
6.719782
 20
10.137221
 42
-0.016744
 10
6.69249
 20
10.381268
 42
-0.019473
 10
6.6834
 20
10.614583
 10
6.6834
 20
11.1672
  0
LWPOLYLINE
  5
A1C
330
1D
100
AcDbEntity
  8
0
100
AcDbPolyline
 90
       24
 70
     1
 43
0.0
 10
10.04625
 20
11.161838
 10
10.575
 20
11.1672
 10
10.575
 20
10.491735
 42
-0.008932
 10
10.567789
 20
10.088131
 42
-0.053075
 10
10.538029
 20
9.879628
 42
-0.082143
 10
10.470206
 20
9.724324
 42
-0.038406
 10
10.336566
 20
9.549415
 42
-0.038934
 10
10.178479
 20
9.398027
 42
-0.088129
 10
10.034423
 20
9.317424
 42
-0.057872
 10
9.836136
 20
9.273353
 42
-0.009751
 10
9.448266
 20
9.240855
 10
8.7984
 20
9.199149
 10
8.800281
 20
9.908224
 42
-0.00981
 10
8.808248
 20
10.265855
 42
-0.03049
 10
8.832998
 20
10.505642
 42
-0.045904
 10
8.877534
 20
10.676103
 42
-0.079465
 10
8.948331
 20
10.8039
 42
-0.039757
 10
9.01968
 20
10.88142
 42
-0.025373
 10
9.113691
 20
10.960063
 42
-0.025458
 10
9.214377
 20
11.028207
 42
-0.042565
 10
9.306
 20
11.073487
 42
-0.05032
 10
9.42165
 20
11.105913
 42
-0.013505
 10
9.610692
 20
11.133673
 42
-0.013541
 10
9.828306
 20
11.153686
 42
-0.013623
  0
LWPOLYLINE
  5
A36
330
1D
100
AcDbEntity
  8
0
100
AcDbPolyline
 90
       28
 70
     1
 43
0.0
 10
11.375841
 20
11.1672
 42
-0.013571
 10
11.599161
 20
11.161138
 42
-0.013506
 10
11.822182
 20
11.142968
 42
-0.013465
 10
12.015977
 20
11.116601
 42
-0.050334
 10
12.134554
 20
11.084709
 42
-0.065127
 10
12.229941
 20
11.033414
 42
-0.031053
 10
12.337965
 20
10.945063
 42
-0.030137
 10
12.441009
 20
10.837277
 42
-0.037557
 10
12.52234
 20
10.725159
 42
-0.044373
 10
12.606426
 20
10.557052
 42
-0.05164
 10
12.654402
 20
10.384996
 42
-0.038594
 10
12.674182
 20
10.169648
 42
-0.013202
 10
12.670429
 20
9.8559
 10
12.6477
 20
9.2637
 10
12.122383
 20
9.238602
 42
-0.017762
 10
11.875231
 20
9.235582
 42
-0.028145
 10
11.664197
 20
9.25241
 42
-0.033096
 10
11.48681
 20
9.288741
 42
-0.052313
 10
11.342341
 20
9.345228
 42
-0.029511
 10
11.239289
 20
9.406477
 42
-0.026527
 10
11.140265
 20
9.48149
 42
-0.027476
 10
11.058691
 20
9.558446
 42
-0.071526
 10
11.012121
 20
9.624126
 42
-0.072431
 10
10.979888
 20
9.718429
 42
-0.008967
 10
10.943743
 20
9.93309
 42
-0.010433
 10
10.910517
 20
10.191225
 42
-0.008458
 10
10.885361
 20
10.46925
 10
10.834096
 20
11.1672
  0
LWPOLYLINE
  5
A54
330
1D
100
AcDbEntity
  8
0
100
AcDbPolyline
 90
       28
 70
     1
 43
0.0
 10
14.19165
 20
11.161838
 10
14.7204
 20
11.1672
 10
14.7204
 20
10.4481
 42
-0.008028
 10
14.714013
 20
10.050357
 42
-0.039788
 10
14.689098
 20
9.828126
 42
-0.071123
 10
14.637701
 20
9.679617
 42
-0.077707
 10
14.547822
 20
9.556422
 42
-0.031168
 10
14.466218
 20
9.484404
 42
-0.019846
 10
14.363185
 20
9.410679
 42
-0.019929
 10
14.255929
 20
9.346162
 42
-0.034605
 10
14.161614
 20
9.302622
 42
-0.04867
 10
14.046496
 20
9.27125
 42
-0.01395
 10
13.863249
 20
9.245259
 42
-0.013899
 10
13.653789
 20
9.227369
 42
-0.014353
 10
13.445893
 20
9.2214
 10
12.9438
 20
9.2214
 10
12.9438
 20
9.886791
 42
-0.010239
 10
12.951191
 20
10.247702
 42
-0.039619
 10
12.978009
 20
10.469833
 42
-0.060765
 10
13.032042
 20
10.632486
 42
-0.056162
 10
13.124685
 20
10.78214
 42
-0.02826
 10
13.207045
 20
10.875473
 42
-0.023105
 10
13.304918
 20
10.965753
 42
-0.023701
 10
13.402962
 20
11.040514
 42
-0.055078
 10
13.484235
 20
11.084286
 42
-0.056328
 10
13.58597
 20
11.112601
 42
-0.012431
 10
13.765737
 20
11.136845
 42
-0.012776
 10
13.976118
 20
11.154482
 42
-0.011987
  0
LWPOLYLINE
  5
A72
330
1D
100
AcDbEntity
  8
0
100
AcDbPolyline
 90
       34
 70
     1
 43
0.0
 10
15.644584
 20
11.1672
 42
-0.013546
 10
15.944034
 20
11.159086
 42
-0.040156
 10
16.147564
 20
11.131555
 42
-0.056126
 10
16.302604
 20
11.078995
 42
-0.056944
 10
16.441255
 20
10.993461
 42
-0.053247
 10
16.53261
 20
10.90436
 42
-0.029737
 10
16.624477
 20
10.778899
 42
-0.029338
 10
16.703192
 20
10.639462
 42
-0.041793
 10
16.754828
 20
10.507011
 42
-0.035365
 10
16.788556
 20
10.354385
 42
-0.015705
 10
16.812304
 20
10.149477
 42
-0.015454
 10
16.823959
 20
9.930046
 42
-0.020149
 10
16.820314
 20
9.729
 10
16.7931
 20
9.2637
 10
16.313545
 20
9.238534
 42
-0.022559
 10
16.096219
 20
9.236943
 42
-0.023056
 10
15.881219
 20
9.255023
 42
-0.024492
 10
15.685624
 20
9.290408
 42
-0.041983
 10
15.52795
 20
9.341239
 42
-0.042086
 10
15.382463
 20
9.416963
 42
-0.054614
 10
15.265
 20
9.510626
 42
-0.054941
 10
15.171118
 20
9.627016
 42
-0.04333
 10
15.095977
 20
9.770512
 42
-0.04396
 10
15.048249
 20
9.920586
 42
-0.019459
 10
15.010755
 20
10.125307
 42
-0.019012
 10
14.98749
 20
10.347756
 42
-0.02349
 10
14.983486
 20
10.556107
 42
-0.006538
 10
14.991252
 20
10.746201
 42
-0.009001
 10
15.003534
 20
10.916707
 42
-0.006202
 10
15.018082
 20
11.058402
 42
-0.100466
 10
15.032857
 20
11.10375
 42
-0.231803
 10
15.069646
 20
11.128919
 42
-0.010272
 10
15.227372
 20
11.148562
 42
-0.015545
 10
15.42133
 20
11.162603
 42
-0.010295
  0
LWPOLYLINE
  5
A96
330
1D
100
AcDbEntity
  8
0
100
AcDbPolyline
 90
       32
 70
     1
 43
0.0
 10
1.053519
 20
8.9676
 42
-0.015765
 10
1.278028
 20
8.960519
 42
-0.015864
 10
1.501175
 20
8.939305
 42
-0.015879
 10
1.694107
 20
8.908514
 42
-0.059446
 10
1.810842
 20
8.871278
 42
-0.066201
 10
1.9013
 20
8.814599
 42
-0.033848
 10
1.998621
 20
8.722172
 42
-0.032921
 10
2.087553
 20
8.611677
 42
-0.042227
 10
2.153223
 20
8.498943
 42
-0.050404
 10
2.206027
 20
8.350771
 42
-0.021477
 10
2.247631
 20
8.144124
 42
-0.020119
 10
2.275047
 20
7.90779
 42
-0.018816
 10
2.2842
 20
7.664664
 10
2.2842
 20
7.1064
 10
1.79775
 20
7.096376
 42
-0.002999
 10
1.602201
 20
7.09352
 42
-0.003526
 10
1.416918
 20
7.093232
 42
-0.003102
 10
1.260438
 20
7.095063
 42
-0.021819
 10
1.1844
 20
7.099747
 42
-0.039278
 10
1.123127
 20
7.11113
 42
-0.015827
 10
1.041607
 20
7.135799
 42
-0.015547
 10
0.955096
 20
7.168025
 42
-0.019018
 10
0.876495
 20
7.203666
 42
-0.056806
 10
0.800328
 20
7.253266
 42
-0.033193
 10
0.721063
 20
7.328165
 42
-0.032806
 10
0.650753
 20
7.414799
 42
-0.047197
 10
0.601545
 20
7.500375
 42
-0.064883
 10
0.565122
 20
7.618985
 42
-0.014138
 10
0.535196
 20
7.831209
 42
-0.014505
 10
0.514501
 20
8.080569
 42
-0.01345
 10
0.5076
 20
8.337081
 10
0.5076
 20
8.9676
  0
LWPOLYLINE
  5
AB8
330
1D
100
AcDbEntity
  8
0
100
AcDbPolyline
 90
       28
 70
     1
 43
0.0
 10
3.74355
 20
8.964602
 10
4.3146
 20
8.9676
 10
4.3146
 20
8.337081
 42
-0.013447
 10
4.3077
 20
8.080572
 42
-0.014504
 10
4.287008
 20
7.831219
 42
-0.014136
 10
4.257088
 20
7.619004
 42
-0.064888
 10
4.220671
 20
7.50041
 42
-0.054415
 10
4.169671
 20
7.4146
 42
-0.035121
 10
4.093777
 20
7.327223
 42
-0.035121
 10
4.0064
 20
7.251329
 42
-0.054415
 10
3.92059
 20
7.200329
 42
-0.062671
 10
3.803982
 20
7.163958
 42
-0.01487
 10
3.602206
 20
7.133992
 42
-0.015068
 10
3.366535
 20
7.113303
 42
-0.014358
 10
3.126219
 20
7.1064
 10
2.538
 20
7.1064
 10
2.540998
 20
7.71975
 42
-0.015837
 10
2.550256
 20
7.972872
 42
-0.017985
 10
2.575505
 20
8.214316
 42
-0.018251
 10
2.611781
 20
8.41752
 42
-0.073368
 10
2.65606
 20
8.535288
 42
-0.043084
 10
2.713649
 20
8.620887
 42
-0.026772
 10
2.794598
 20
8.711002
 42
-0.026772
 10
2.884713
 20
8.791951
 42
-0.043084
 10
2.970312
 20
8.84954
 42
-0.071549
 10
3.084842
 20
8.893075
 42
-0.018171
 10
3.280853
 20
8.929566
 42
-0.018151
 10
3.510099
 20
8.955215
 42
-0.01747
  0
LWPOLYLINE
  5
AD6
330
1D
100
AcDbEntity
  8
0
100
AcDbPolyline
 90
       28
 70
     1
 43
0.0
 10
5.326508
 20
8.95493
 42
-0.009279
 10
5.684583
 20
8.932004
 42
-0.039959
 10
5.895079
 20
8.897522
 42
-0.069732
 10
6.03253
 20
8.842385
 42
-0.095844
 10
6.1331
 20
8.755622
 42
-0.021163
 10
6.190005
 20
8.67684
 42
-0.012706
 10
6.251092
 20
8.578929
 42
-0.012714
 10
6.307
 20
8.478266
 42
-0.021584
 10
6.347892
 20
8.391043
 42
-0.05757
 10
6.379528
 20
8.281115
 42
-0.013818
 10
6.405598
 20
8.092803
 42
-0.014012
 10
6.423596
 20
7.873575
 42
-0.013473
 10
6.4296
 20
7.650793
 10
6.4296
 20
7.1064
 10
5.77395
 20
7.109091
 42
-0.013221
 10
5.503585
 20
7.117351
 42
-0.019029
 10
5.265258
 20
7.140069
 42
-0.018905
 10
5.075146
 20
7.172879
 42
-0.111985
 10
4.984069
 20
7.214841
 42
-0.039123
 10
4.925564
 20
7.267513
 42
-0.019967
 10
4.860357
 20
7.341908
 42
-0.019711
 10
4.798899
 20
7.424397
 42
-0.027888
 10
4.751419
 20
7.502688
 42
-0.078203
 10
4.71319
 20
7.613107
 42
-0.014931
 10
4.681911
 20
7.823844
 42
-0.015591
 10
4.660225
 20
8.074471
 42
-0.013784
 10
4.653
 20
8.336496
 10
4.653
 20
8.985516
  0
LWPOLYLINE
  5
AF4
330
1D
100
AcDbEntity
  8
0
100
AcDbPolyline
 90
       24
 70
     1
 43
0.0
 10
7.911435
 20
8.9676
 10
8.5446
 20
8.9676
 10
8.5446
 20
8.409336
 42
-0.018816
 10
8.535447
 20
8.16621
 42
-0.020119
 10
8.508031
 20
7.929876
 42
-0.021477
 10
8.466427
 20
7.723229
 42
-0.050404
 10
8.413623
 20
7.575057
 42
-0.042227
 10
8.347953
 20
7.462323
 42
-0.032921
 10
8.259021
 20
7.351828
 42
-0.033848
 10
8.1617
 20
7.259401
 42
-0.066201
 10
8.071242
 20
7.202722
 42
-0.062348
 10
7.951954
 20
7.165431
 42
-0.014974
 10
7.746518
 20
7.134695
 42
-0.015149
 10
7.506792
 20
7.113479
 42
-0.014495
 10
7.262661
 20
7.1064
 10
6.665484
 20
7.1064
 10
6.696574
 20
7.791017
 42
-0.008386
 10
6.722791
 20
8.212286
 42
-0.059856
 10
6.762997
 20
8.412173
 42
-0.09476
 10
6.84305
 20
8.556295
 42
-0.036418
 10
7.002967
 20
8.721617
 42
-0.035243
 10
7.180804
 20
8.859283
 42
-0.081145
 10
7.334372
 20
8.929037
 42
-0.055951
 10
7.535061
 20
8.959911
 42
-0.010214
  0
LWPOLYLINE
  5
B0E
330
1D
100
AcDbEntity
  8
0
100
AcDbPolyline
 90
       20
 70
     1
 43
0.0
 10
9.464329
 20
8.955274
 42
-0.009539
 10
9.838369
 20
8.931131
 42
-0.041494
 10
10.057218
 20
8.894358
 42
-0.068123
 10
10.209064
 20
8.832747
 42
-0.066053
 10
10.340545
 20
8.732087
 42
-0.06721
 10
10.442104
 20
8.598843
 42
-0.069486
 10
10.503287
 20
8.444898
 42
-0.040841
 10
10.53913
 20
8.219806
 42
-0.00867
 10
10.562531
 20
7.823182
 10
10.592363
 20
7.1064
 10
9.953899
 20
7.1064
 42
-0.010369
 10
9.593731
 20
7.11387
 42
-0.046924
 10
9.385718
 20
7.142177
 42
-0.071856
 10
9.232071
 20
7.202212
 42
-0.048639
 10
9.078069
 20
7.310574
 42
-0.051804
 10
8.943627
 20
7.4529
 42
-0.094294
 10
8.872104
 20
7.595334
 42
-0.051929
 10
8.835141
 20
7.806144
 42
-0.00719
 10
8.810485
 20
8.250543
 10
8.780268
 20
8.986339
  0
LWPOLYLINE
  5
B24
330
1D
100
AcDbEntity
  8
0
100
AcDbPolyline
 90
       32
 70
     1
 43
0.0
 10
12.11895
 20
8.966353
 10
12.69
 20
8.9676
 10
12.69
 20
8.371199
 42
-0.016289
 10
12.681428
 20
8.108153
 42
-0.021301
 10
12.655556
 20
7.868959
 42
-0.023719
 10
12.615352
 20
7.66833
 42
-0.058078
 10
12.562224
 20
7.527707
 42
-0.029844
 10
12.50249
 20
7.427355
 42
-0.026178
 10
12.42875
 20
7.330141
 42
-0.027066
 10
12.352705
 20
7.24939
 42
-0.067932
 10
12.287274
 20
7.20212
 42
-0.037972
 10
12.21581
 20
7.170714
 42
-0.018853
 10
12.121204
 20
7.141402
 42
-0.018595
 10
12.020341
 20
7.118257
 42
-0.025902
 10
11.9286
 20
7.105648
 42
-0.013808
 10
11.817987
 20
7.099316
 42
-0.004108
 10
11.648759
 20
7.095703
 42
-0.004117
 10
11.458507
 20
7.09477
 42
-0.004437
 10
11.27295
 20
7.097036
 10
10.8288
 20
7.1064
 10
10.828931
 20
7.63515
 42
-0.020028
 10
10.838697
 20
7.877345
 42
-0.024379
 10
10.867917
 20
8.102426
 42
-0.026821
 10
10.914513
 20
8.300121
 42
-0.044976
 10
10.976981
 20
8.458823
 42
-0.03706
 10
11.049141
 20
8.579484
 42
-0.02956
 10
11.143577
 20
8.698156
 42
-0.030425
 10
11.244735
 20
8.797968
 42
-0.063708
 10
11.3364
 20
8.859426
 42
-0.065089
 10
11.454634
 20
8.900372
 42
-0.0169
 10
11.653518
 20
8.934429
 42
-0.016894
 10
11.884814
 20
8.958106
 42
-0.016513
  0
LWPOLYLINE
  5
B46
330
1D
100
AcDbEntity
  8
0
100
AcDbPolyline
 90
       20
 70
     1
 43
0.0
 10
13.564901
 20
8.9676
 42
-0.010374
 10
13.92496
 20
8.960129
 42
-0.046876
 10
14.133039
 20
8.931828
 42
-0.071769
 10
14.286744
 20
8.87183
 42
-0.048673
 10
14.440732
 20
8.763581
 42
-0.049745
 10
14.577434
 20
8.620156
 42
-0.104775
 10
14.644465
 20
8.482519
 42
-0.054866
 10
14.672236
 20
8.277746
 42
-0.006293
 10
14.6781
 20
7.811831
 10
14.6781
 20
7.0641
 10
14.052918
 20
7.077855
 42
-0.010407
 10
13.694612
 20
7.093204
 42
-0.051751
 10
13.496191
 20
7.126659
 42
-0.080422
 10
13.352265
 20
7.19283
 42
-0.04851
 10
13.206918
 20
7.312397
 42
-0.052658
 10
13.085893
 20
7.461982
 42
-0.07864
 10
13.017732
 20
7.615404
 42
-0.046586
 10
12.980489
 20
7.834984
 42
-0.008335
 10
12.956269
 20
8.250392
 10
12.926437
 20
8.9676
  0
LWPOLYLINE
  5
B5C
330
1D
100
AcDbEntity
  8
0
100
AcDbPolyline
 90
       28
 70
     1
 43
0.0
 10
16.219724
 20
8.9676
 10
16.8354
 20
8.9676
 10
16.835269
 20
8.39655
 42
-0.017544
 10
16.825881
 20
8.13085
 42
-0.02468
 10
16.797553
 20
7.895423
 42
-0.028071
 10
16.751265
 20
7.693395
 42
-0.045515
 10
16.687219
 20
7.5294
 42
-0.042202
 10
16.598948
 20
7.384664
 42
-0.060313
 10
16.496249
 20
7.27497
 42
-0.058337
 10
16.367628
 20
7.190464
 42
-0.036481
 10
16.2009
 20
7.121574
 42
-0.035024
 10
16.02791
 20
7.07761
 42
-0.02669
 10
15.833932
 20
7.053139
 42
-0.025284
 10
15.626771
 20
7.048672
 42
-0.023209
 10
15.414154
 20
7.064735
 10
14.965808
 20
7.119624
 10
14.981454
 20
7.641762
 42
-0.016473
 10
14.995264
 20
7.861021
 42
-0.014585
 10
15.023793
 20
8.088041
 42
-0.014807
 10
15.061521
 20
8.290998
 42
-0.042581
 10
15.103614
 20
8.427793
 42
-0.038603
 10
15.158787
 20
8.538933
 42
-0.027221
 10
15.236696
 20
8.654693
 42
-0.027605
 10
15.323914
 20
8.75782
 42
-0.050687
 10
15.407087
 20
8.829643
 42
-0.073156
 10
15.532443
 20
8.892527
 42
-0.037705
 10
15.703161
 20
8.934945
 42
-0.028754
 10
15.926956
 20
8.959814
 42
-0.013295
  0
LWPOLYLINE
  5
B7A
330
1D
100
AcDbEntity
  8
0
100
AcDbPolyline
 90
       24
 70
     1
 43
0.0
 10
1.643192
 20
6.768
 10
2.2842
 20
6.768
 10
2.2842
 20
6.181307
 42
-0.01238
 10
2.278251
 20
5.941076
 42
-0.012848
 10
2.260416
 20
5.7044
 42
-0.012632
 10
2.234588
 20
5.500777
 42
-0.053022
 10
2.203234
 20
5.381659
 42
-0.066324
 10
2.153981
 20
5.290589
 42
-0.035728
 10
2.071665
 20
5.192793
 42
-0.034855
 10
1.971922
 20
5.103525
 42
-0.045807
 10
1.869036
 20
5.037752
 42
-0.0553
 10
1.729134
 20
4.98401
 42
-0.023873
 10
1.533517
 20
4.942614
 42
-0.021841
 10
1.30517
 20
4.915746
 42
-0.018365
 10
1.061701
 20
4.9068
 10
0.5076
 20
4.9068
 10
0.5076
 20
5.590108
 42
-0.008143
 10
0.5144
 20
6.007652
 42
-0.056851
 10
0.544059
 20
6.209133
 42
-0.092416
 10
0.613566
 20
6.355241
 42
-0.039282
 10
0.754892
 20
6.520708
 42
-0.038235
 10
0.918213
 20
6.660793
 42
-0.090501
 10
1.061839
 20
6.730531
 42
-0.058644
 10
1.256391
 20
6.760803
 42
-0.009302
  0
LWPOLYLINE
  5
B94
330
1D
100
AcDbEntity
  8
0
100
AcDbPolyline
 90
       24
 70
     1
 43
0.0
 10
3.179008
 20
6.768
 42
-0.009302
 10
3.565809
 20
6.760803
 42
-0.058644
 10
3.760361
 20
6.730531
 42
-0.090501
 10
3.903987
 20
6.660793
 42
-0.038235
 10
4.067308
 20
6.520708
 42
-0.039282
 10
4.208634
 20
6.355241
 42
-0.092416
 10
4.278141
 20
6.209133
 42
-0.056851
 10
4.3078
 20
6.007652
 42
-0.008143
 10
4.3146
 20
5.590108
 10
4.3146
 20
4.9068
 10
3.716838
 20
4.9068
 42
-0.013271
 10
3.47605
 20
4.913192
 42
-0.015241
 10
3.246858
 20
4.932388
 42
-0.014438
 10
3.054673
 20
4.960042
 42
-0.080072
 10
2.956314
 20
4.993908
 42
-0.063206
 10
2.884832
 20
5.044686
 42
-0.027828
 10
2.803829
 20
5.128011
 42
-0.026997
 10
2.726647
 20
5.227121
 42
-0.032615
 10
2.665776
 20
5.328107
 42
-0.058078
 10
2.612648
 20
5.46873
 42
-0.023719
 10
2.572444
 20
5.669359
 42
-0.021301
 10
2.546572
 20
5.908553
 42
-0.016289
 10
2.538
 20
6.171599
 10
2.538
 20
6.768
  0
LWPOLYLINE
  5
BAE
330
1D
100
AcDbEntity
  8
0
100
AcDbPolyline
 90
       20
 70
     1
 43
0.0
 10
5.797274
 20
6.768
 10
6.446963
 20
6.768
 10
6.41713
 20
6.041574
 42
-0.007372
 10
6.392683
 20
5.603836
 42
-0.052315
 10
6.355689
 20
5.394687
 42
-0.094059
 10
6.284167
 20
5.252894
 42
-0.05147
 10
6.149931
 20
5.110974
 42
-0.048383
 10
5.996447
 20
5.002859
 42
-0.071558
 10
5.843416
 20
4.942778
 42
-0.047193
 10
5.637096
 20
4.91435
 42
-0.010653
 10
5.282782
 20
4.9068
 10
4.653
 20
4.9068
 10
4.653
 20
5.590108
 42
-0.008143
 10
4.6598
 20
6.007652
 42
-0.056851
 10
4.689459
 20
6.209133
 42
-0.092416
 10
4.758966
 20
6.355241
 42
-0.039282
 10
4.900292
 20
6.520708
 42
-0.038446
 10
5.064067
 20
6.661063
 42
-0.090919
 10
5.208199
 20
6.730749
 42
-0.058275
 10
5.404181
 20
6.760889
 42
-0.009044
  0
LWPOLYLINE
  5
BC4
330
1D
100
AcDbEntity
  8
0
100
AcDbPolyline
 90
       24
 70
     1
 43
0.0
 10
7.262661
 20
6.768
 42
-0.013684
 10
7.505873
 20
6.761342
 42
-0.014654
 10
7.742842
 20
6.74138
 42
-0.014333
 10
7.944825
 20
6.712502
 42
-0.064301
 10
8.058729
 20
6.67738
 42
-0.044673
 10
8.143342
 20
6.629291
 42
-0.027982
 10
8.23323
 20
6.559232
 42
-0.027992
 10
8.31467
 20
6.479633
 42
-0.044954
 10
8.373484
 20
6.40243
 42
-0.079314
 10
8.420776
 20
6.29146
 42
-0.015709
 10
8.466621
 20
6.07965
 42
-0.016275
 10
8.5046
 20
5.826979
 42
-0.0145
 10
8.527844
 20
5.56245
 10
8.56634
 20
4.9068
 10
7.894498
 20
4.9068
 42
-0.008205
 10
7.479057
 20
4.913618
 42
-0.060465
 10
7.283388
 20
4.943912
 42
-0.096787
 10
7.140909
 20
5.015813
 42
-0.036638
 10
6.974572
 20
5.165744
 42
-0.03993
 10
6.836528
 20
5.335004
 42
-0.07853
 10
6.761544
 20
5.491184
 42
-0.051769
 10
6.721509
 20
5.702282
 42
-0.00965
 10
6.695986
 20
6.096344
 10
6.665484
 20
6.768
  0
LWPOLYLINE
  5
BDE
330
1D
100
AcDbEntity
  8
0
100
AcDbPolyline
 90
       20
 70
     1
 43
0.0
 10
9.933992
 20
6.768
 10
10.575
 20
6.768
 10
10.575
 20
6.095918
 42
-0.009379
 10
10.567825
 20
5.713471
 42
-0.045697
 10
10.540013
 20
5.498813
 42
-0.072687
 10
10.48035
 20
5.342814
 42
-0.050029
 10
10.371684
 20
5.187467
 42
-0.050678
 10
10.232222
 20
5.055137
 42
-0.09161
 10
10.092691
 20
4.983348
 42
-0.053459
 10
9.890004
 20
4.945279
 42
-0.008365
 10
9.483384
 20
4.919991
 10
8.7984
 20
4.888884
 10
8.7984
 20
5.58115
 42
-0.007926
 10
8.805123
 20
6.005232
 42
-0.056475
 10
8.83466
 20
6.208169
 42
-0.092784
 10
8.904126
 20
6.354807
 42
-0.03951
 10
9.045692
 20
6.520708
 42
-0.038235
 10
9.209013
 20
6.660793
 42
-0.090501
 10
9.352639
 20
6.730531
 42
-0.058644
 10
9.547191
 20
6.760803
 42
-0.009302
  0
LWPOLYLINE
  5
BF4
330
1D
100
AcDbEntity
  8
0
100
AcDbPolyline
 90
       28
 70
     1
 43
0.0
 10
11.489648
 20
6.768
 42
-0.009586
 10
11.850955
 20
6.761072
 42
-0.041785
 10
12.063154
 20
6.735083
 42
-0.06888
 10
12.211396
 20
6.682155
 42
-0.06749
 10
12.34083
 20
6.590676
 42
-0.031394
 10
12.419523
 20
6.507549
 42
-0.021389
 10
12.498583
 20
6.404081
 42
-0.021606
 10
12.566519
 20
6.297268
 42
-0.040012
 10
12.610583
 20
6.204469
 42
-0.051508
 10
12.641308
 20
6.089155
 42
-0.013108
 10
12.666671
 20
5.897029
 42
-0.013222
 10
12.684164
 20
5.674932
 42
-0.01304
 10
12.69
 20
5.451193
 10
12.69
 20
4.9068
 10
12.027947
 20
4.9068
 42
-0.008791
 10
11.652596
 20
4.9134
 42
-0.046931
 10
11.449573
 20
4.939727
 42
-0.082278
 10
11.311526
 20
4.995978
 42
-0.066828
 10
11.187582
 20
5.09715
 42
-0.029886
 10
11.112719
 20
5.187304
 42
-0.018358
 10
11.035143
 20
5.301543
 42
-0.018385
 10
10.966464
 20
5.420648
 42
-0.031039
 10
10.919035
 20
5.525657
 42
-0.045549
 10
10.884235
 20
5.650843
 42
-0.014703
 10
10.855307
 20
5.841346
 42
-0.014526
 10
10.835429
 20
6.05621
 42
-0.015802
 10
10.8288
 20
6.265907
 10
10.8288
 20
6.768
  0
LWPOLYLINE
  5
C12
330
1D
100
AcDbEntity
  8
0
100
AcDbPolyline
 90
       24
 70
     1
 43
0.0
 10
14.14935
 20
6.764613
 10
14.7204
 20
6.768
 10
14.7204
 20
6.084692
 42
-0.008143
 10
14.7136
 20
5.667148
 42
-0.056851
 10
14.683941
 20
5.465667
 42
-0.092416
 10
14.614434
 20
5.319559
 42
-0.039282
 10
14.473108
 20
5.154092
 42
-0.038235
 10
14.309787
 20
5.014007
 42
-0.090501
 10
14.166161
 20
4.944269
 42
-0.058644
 10
13.971609
 20
4.913997
 42
-0.009302
 10
13.584808
 20
4.9068
 10
12.9438
 20
4.9068
 10
12.9438
 20
5.493493
 42
-0.012342
 10
12.94973
 20
5.733673
 42
-0.012826
 10
12.967506
 20
5.970197
 42
-0.012604
 10
12.993249
 20
6.173626
 42
-0.05311
 10
13.024502
 20
6.292449
 42
-0.061963
 10
13.0725
 20
6.383069
 42
-0.034809
 10
13.150984
 20
6.480035
 42
-0.034174
 10
13.245271
 20
6.568302
 42
-0.046854
 10
13.341752
 20
6.632969
 42
-0.060355
 10
13.475407
 20
6.685776
 42
-0.023536
 10
13.67003
 20
6.726983
 42
-0.021486
 10
13.900573
 20
6.754459
 42
-0.017432
  0
LWPOLYLINE
  5
C2C
330
1D
100
AcDbEntity
  8
0
100
AcDbPolyline
 90
       28
 70
     1
 43
0.0
 10
15.607242
 20
6.768
 42
-0.012885
 10
15.907278
 20
6.760267
 42
-0.026041
 10
16.142355
 20
6.735823
 42
-0.033228
 10
16.323089
 20
6.695006
 42
-0.073004
 10
16.451346
 20
6.635518
 42
-0.055788
 10
16.535414
 20
6.565921
 42
-0.031857
 10
16.620856
 20
6.46533
 42
-0.031441
 10
16.694868
 20
6.351767
 42
-0.044855
 10
16.74447
 20
6.242193
 42
-0.041853
 10
16.779534
 20
6.105879
 42
-0.013669
 10
16.808689
 20
5.900149
 42
-0.013514
 10
16.828722
 20
5.668907
 42
-0.014848
 10
16.8354
 20
5.444076
 10
16.8354
 20
4.9068
 10
16.173347
 20
4.9068
 42
-0.008791
 10
15.797996
 20
4.9134
 42
-0.046931
 10
15.594973
 20
4.939727
 42
-0.082278
 10
15.456926
 20
4.995978
 42
-0.066828
 10
15.332982
 20
5.09715
 42
-0.027737
 10
15.259021
 20
5.185443
 42
-0.018654
 10
15.184227
 20
5.293713
 42
-0.018818
 10
15.119506
 20
5.404276
 42
-0.034995
 10
15.076977
 20
5.499
 42
-0.044471
 10
15.045849
 20
5.614539
 42
-0.011771
 10
15.017118
 20
5.803692
 42
-0.011848
 10
14.994514
 20
6.021306
 42
-0.011929
 10
14.982307
 20
6.23925
 10
14.965331
 20
6.768
  0
LWPOLYLINE
  5
C4A
330
1D
100
AcDbEntity
  8
0
100
AcDbPolyline
 90
       28
 70
     1
 43
0.0
 10
5.5413
 20
4.596616
 42
-0.007775
 10
5.588357
 20
4.588028
 42
-0.001643
 10
5.670161
 20
4.571501
 42
-0.001721
 10
5.764895
 20
4.551697
 42
-0.001632
 10
5.861174
 20
4.530896
 42
-0.070214
 10
5.967864
 20
4.491194
 42
-0.045775
 10
6.077382
 20
4.418193
 42
-0.043079
 10
6.17911
 20
4.320432
 42
-0.042934
 10
6.262708
 20
4.20658
 42
-0.048367
 10
6.341916
 20
4.042975
 42
-0.042122
 10
6.392709
 20
3.859464
 42
-0.032513
 10
6.420562
 20
3.630077
 42
-0.013829
 10
6.429284
 20
3.32055
 10
6.4296
 20
2.7072
 10
5.788592
 20
2.7072
 42
-0.009302
 10
5.401791
 20
2.714397
 42
-0.058644
 10
5.207239
 20
2.744669
 42
-0.090501
 10
5.063613
 20
2.814407
 42
-0.038235
 10
4.900292
 20
2.954492
 42
-0.039165
 10
4.759093
 20
3.119732
 42
-0.092221
 10
4.689563
 20
3.265566
 42
-0.057047
 10
4.659841
 20
3.466292
 42
-0.008259
 10
4.653
 20
3.880457
 10
4.653
 20
4.559129
 10
5.05485
 20
4.584915
 42
-0.004442
 10
5.21492
 20
4.593759
 42
-0.005566
 10
5.363508
 20
4.598988
 42
-0.004527
 10
5.488078
 20
4.600857
 42
-0.042753
  0
LWPOLYLINE
  5
C68
330
1D
100
AcDbEntity
  8
0
100
AcDbPolyline
 90
       34
 70
     1
 43
0.0
 10
8.2908
 20
4.598883
 42
0.002528
 10
8.344832
 20
4.591694
 42
0.002114
 10
8.402255
 20
4.584596
 42
0.002133
 10
8.454818
 20
4.578551
 42
0.005839
 10
8.49202
 20
4.574873
 42
-0.362217
 10
8.520097
 20
4.546991
 42
-0.010838
 10
8.532905
 20
4.369859
 42
-0.016848
 10
8.536633
 20
4.148122
 42
-0.010236
 10
8.526839
 20
3.886041
 42
-0.009498
 10
8.496865
 20
3.496627
 42
-0.047267
 10
8.455423
 20
3.281467
 42
-0.075312
 10
8.384022
 20
3.127846
 42
-0.050035
 10
8.260812
 20
2.977157
 42
-0.049113
 10
8.110103
 20
2.853467
 42
-0.077988
 10
7.958933
 20
2.783506
 42
-0.048732
 10
7.747467
 20
2.74494
 42
-0.009407
 10
7.358843
 20
2.719958
 10
6.6834
 20
2.689284
 10
6.6834
 20
3.250859
 42
-0.018414
 10
6.692086
 20
3.486624
 42
-0.016369
 10
6.718141
 20
3.730619
 42
-0.01666
 10
6.756105
 20
3.948594
 42
-0.047543
 10
6.801668
 20
4.095489
 42
-0.022603
 10
6.855352
 20
4.209234
 42
-0.02301
 10
6.918794
 20
4.316972
 42
-0.023538
 10
6.982421
 20
4.405111
 42
-0.082099
 10
7.034318
 20
4.451989
 42
-0.083357
 10
7.107142
 20
4.483164
 42
-0.012301
 10
7.264208
 20
4.517224
 42
-0.013586
 10
7.45357
 20
4.548127
 42
-0.011305
 10
7.6563
 20
4.570927
 42
-0.005163
 10
7.859949
 20
4.587061
 42
-0.006176
 10
8.052069
 20
4.597905
 42
-0.005372
 10
8.213979
 20
4.603297
 42
-0.039989
  0
LWPOLYLINE
  5
C8C
330
1D
100
AcDbEntity
  8
0
100
AcDbPolyline
 90
       24
 70
     1
 43
0.0
 10
1.105362
 20
4.5684
 42
-0.013271
 10
1.34615
 20
4.562008
 42
-0.015241
 10
1.575342
 20
4.542812
 42
-0.014438
 10
1.767527
 20
4.515158
 42
-0.080072
 10
1.865886
 20
4.481292
 42
-0.063206
 10
1.937368
 20
4.430514
 42
-0.027828
 10
2.018371
 20
4.347189
 42
-0.026997
 10
2.095553
 20
4.248079
 42
-0.032615
 10
2.156424
 20
4.147093
 42
-0.058078
 10
2.209552
 20
4.00647
 42
-0.023719
 10
2.249756
 20
3.805841
 42
-0.021301
 10
2.275628
 20
3.566647
 42
-0.016289
 10
2.2842
 20
3.303601
 10
2.2842
 20
2.7072
 10
1.643192
 20
2.7072
 42
-0.009302
 10
1.256391
 20
2.714397
 42
-0.058644
 10
1.061839
 20
2.744669
 42
-0.090501
 10
0.918213
 20
2.814407
 42
-0.038235
 10
0.754892
 20
2.954492
 42
-0.039282
 10
0.613566
 20
3.119959
 42
-0.092416
 10
0.544059
 20
3.266067
 42
-0.056851
 10
0.5144
 20
3.467548
 42
-0.008143
 10
0.5076
 20
3.885092
 10
0.5076
 20
4.5684
  0
LWPOLYLINE
  5
CA6
330
1D
100
AcDbEntity
  8
0
100
AcDbPolyline
 90
       24
 70
     1
 43
0.0
 10
3.673592
 20
4.5684
 10
4.3146
 20
4.5684
 10
4.3146
 20
3.928338
 42
-0.012427
 10
4.308212
 20
3.671352
 42
-0.014595
 10
4.289012
 20
3.428483
 42
-0.013562
 10
4.261407
 20
3.225551
 42
-0.082454
 10
4.227492
 20
3.125514
 42
-0.063206
 10
4.176714
 20
3.054032
 42
-0.027828
 10
4.093389
 20
2.973029
 42
-0.026997
 10
3.994279
 20
2.895847
 42
-0.032615
 10
3.893293
 20
2.834976
 42
-0.057041
 10
3.75695
 20
2.783143
 42
-0.0228
 10
3.561005
 20
2.742659
 42
-0.02112
 10
3.332611
 20
2.716065
 42
-0.018423
 10
3.092101
 20
2.7072
 10
2.538
 20
2.7072
 10
2.538
 20
3.390508
 42
-0.008143
 10
2.5448
 20
3.808052
 42
-0.056851
 10
2.574459
 20
4.009533
 42
-0.092416
 10
2.643966
 20
4.155641
 42
-0.039282
 10
2.785292
 20
4.321108
 42
-0.038235
 10
2.948613
 20
4.461193
 42
-0.090501
 10
3.092239
 20
4.530931
 42
-0.058644
 10
3.286791
 20
4.561203
 42
-0.009302
  0
LWPOLYLINE
  5
CC0
330
1D
100
AcDbEntity
  8
0
100
AcDbPolyline
 90
       24
 70
     1
 43
0.0
 10
9.460453
 20
4.5684
 42
-0.008529
 10
9.85172
 20
4.561725
 42
-0.053167
 10
10.049912
 20
4.533725
 42
-0.09092
 10
10.188212
 20
4.470645
 42
-0.051853
 10
10.327603
 20
4.350135
 42
-0.057003
 10
10.437177
 20
4.203094
 42
-0.069927
 10
10.501748
 20
4.044617
 42
-0.04249
 10
10.538666
 20
3.819229
 42
-0.008893
 10
10.562531
 20
3.419535
 10
10.592363
 20
2.7072
 10
10.037762
 20
2.7072
 42
-0.016247
 10
9.809164
 20
2.71463
 42
-0.016117
 10
9.580914
 20
2.736889
 42
-0.016192
 10
9.382883
 20
2.769219
 42
-0.058395
 10
9.261336
 20
2.80827
 42
-0.054031
 10
9.167597
 20
2.863887
 42
-0.032478
 10
9.069259
 20
2.948133
 42
-0.032235
 10
8.981313
 20
3.045806
 42
-0.047873
 10
8.918955
 20
3.142469
 42
-0.062307
 10
8.870238
 20
3.274782
 42
-0.021009
 10
8.832093
 20
3.477124
 42
-0.019609
 10
8.806813
 20
3.716751
 42
-0.016475
 10
8.7984
 20
3.971999
 10
8.7984
 20
4.5684
  0
LWPOLYLINE
  5
CDA
330
1D
100
AcDbEntity
  8
0
100
AcDbPolyline
 90
       24
 70
     1
 43
0.0
 10
12.085608
 20
4.565013
 10
12.707916
 20
4.5684
 10
12.677242
 20
3.892957
 42
-0.009364
 10
12.652075
 20
3.500919
 42
-0.050034
 10
12.613147
 20
3.290368
 42
-0.079424
 10
12.541597
 20
3.138903
 42
-0.046425
 10
12.413127
 20
2.984073
 42
-0.046425
 10
12.258297
 20
2.855603
 42
-0.079424
 10
12.106832
 20
2.784053
 42
-0.050034
 10
11.896281
 20
2.745125
 42
-0.009364
 10
11.504243
 20
2.719958
 10
10.8288
 20
2.689284
 10
10.8288
 20
3.235518
 42
-0.015012
 10
10.835672
 20
3.464335
 42
-0.01358
 10
10.856287
 20
3.700145
 42
-0.013745
 10
10.886295
 20
3.910275
 42
-0.041547
 10
10.922373
 20
4.050175
 42
-0.050997
 10
10.974585
 20
4.161852
 42
-0.035949
 10
11.054164
 20
4.275444
 42
-0.036412
 10
11.147128
 20
4.374087
 42
-0.061224
 10
11.239623
 20
4.440112
 42
-0.065953
 10
11.370505
 20
4.490265
 42
-0.021913
 10
11.572644
 20
4.529224
 42
-0.020022
 10
11.816851
 20
4.555341
 42
-0.015266
  0
LWPOLYLINE
  5
CF4
330
1D
100
AcDbEntity
  8
0
100
AcDbPolyline
 90
       24
 70
     1
 43
0.0
 10
13.61308
 20
4.5684
 42
-0.007685
 10
14.032049
 20
4.56196
 42
-0.063661
 10
14.219572
 20
4.532103
 42
-0.107565
 10
14.351463
 20
4.460162
 42
-0.039429
 10
14.50138
 20
4.308109
 42
-0.042751
 10
14.620621
 20
4.138965
 42
-0.074502
 10
14.684126
 20
3.979912
 42
-0.048367
 10
14.713048
 20
3.766165
 42
-0.009458
 10
14.7204
 20
3.377509
 10
14.7204
 20
2.7072
 10
14.176007
 20
2.7072
 42
-0.013277
 10
13.951969
 20
2.71315
 42
-0.01335
 10
13.728975
 20
2.730984
 42
-0.01327
 10
13.535688
 20
2.756852
 42
-0.050979
 10
13.418659
 20
2.788166
 42
-0.066324
 10
13.327589
 20
2.837419
 42
-0.035728
 10
13.229793
 20
2.919735
 42
-0.034855
 10
13.140525
 20
3.019478
 42
-0.045807
 10
13.074752
 20
3.122364
 42
-0.056305
 10
13.019691
 20
3.266561
 42
-0.024841
 10
12.978574
 20
3.466726
 42
-0.022016
 10
12.952439
 20
3.705769
 42
-0.01622
 10
12.9438
 20
3.971999
 10
12.9438
 20
4.5684
  0
LWPOLYLINE
  5
D0E
330
1D
100
AcDbEntity
  8
0
100
AcDbPolyline
 90
       20
 70
     1
 43
0.0
 10
16.211193
 20
4.5684
 10
16.853316
 20
4.5684
 10
16.822226
 20
3.883783
 42
-0.008386
 10
16.796009
 20
3.462514
 42
-0.059856
 10
16.755803
 20
3.262627
 42
-0.09476
 10
16.67575
 20
3.118505
 42
-0.036418
 10
16.515833
 20
2.953183
 42
-0.035208
 10
16.338103
 20
2.815579
 42
-0.081057
 10
16.184636
 20
2.745812
 42
-0.056014
 10
15.984245
 20
2.714909
 42
-0.010274
 10
15.609141
 20
2.7072
 10
14.977751
 20
2.7072
 10
14.997126
 20
3.390999
 42
-0.008085
 10
15.016082
 20
3.816729
 42
-0.061817
 10
15.052684
 20
4.01325
 42
-0.098594
 10
15.130956
 20
4.155113
 42
-0.035259
 10
15.292785
 20
4.321599
 42
-0.035188
 10
15.471772
 20
4.460152
 42
-0.081649
 10
15.62596
 20
4.530021
 42
-0.05577
 10
15.828107
 20
4.5608
 42
-0.009919
  0
LWPOLYLINE
  5
D24
330
1D
100
AcDbEntity
  8
0
100
AcDbPolyline
 90
       24
 70
     1
 43
0.0
 10
1.7766
 20
2.422534
 10
2.2419
 20
2.4111
 10
2.266515
 20
1.760662
 42
-0.008779
 10
2.274636
 20
1.360042
 42
-0.05989
 10
2.25162
 20
1.1641
 42
-0.090486
 10
2.185555
 20
1.014981
 42
-0.032933
 10
2.042671
 20
0.832151
 42
-0.034996
 10
1.878014
 20
0.67197
 42
-0.091892
 10
1.735431
 20
0.590638
 42
-0.061587
 10
1.541565
 20
0.548891
 42
-0.009656
 10
1.150906
 20
0.521592
 10
0.5076
 20
0.489106
 10
0.5076
 20
1.205917
 42
-0.00753
 10
0.514037
 20
1.633326
 42
-0.049789
 10
0.541615
 20
1.8449
 42
-0.087927
 10
0.604499
 20
1.991782
 42
-0.051416
 10
0.725605
 20
2.140732
 42
-0.029325
 10
0.82257
 20
2.226945
 42
-0.025402
 10
0.933575
 20
2.305747
 42
-0.026215
 10
1.041675
 20
2.366801
 42
-0.065065
 10
1.127455
 20
2.396352
 42
-0.032395
 10
1.227835
 20
2.410196
 42
-0.007993
 10
1.393977
 20
2.419559
 42
-0.008147
 10
1.584976
 20
2.424148
 42
-0.008073
  0
LWPOLYLINE
  5
D3E
330
1D
100
AcDbEntity
  8
0
100
AcDbPolyline
 90
       28
 70
     1
 43
0.0
 10
3.032976
 20
2.4534
 42
-0.016435
 10
3.242208
 20
2.446521
 42
-0.0141
 10
3.46157
 20
2.425854
 42
-0.014326
 10
3.659789
 20
2.395738
 42
-0.039018
 10
3.796946
 20
2.359628
 42
-0.053983
 10
3.910122
 20
2.305892
 42
-0.038308
 10
4.023953
 20
2.223291
 42
-0.038583
 10
4.122692
 20
2.125331
 42
-0.058814
 10
4.190271
 20
2.025429
 42
-0.061154
 10
4.242401
 20
1.884846
 42
-0.023116
 10
4.281371
 20
1.678559
 42
-0.020515
 10
4.306362
 20
1.428145
 42
-0.014612
 10
4.3146
 20
1.146301
 10
4.3146
 20
0.5076
 10
3.756603
 20
0.5076
 42
-0.016948
 10
3.498681
 20
0.516345
 42
-0.026827
 10
3.279183
 20
0.54313
 42
-0.031713
 10
3.09853
 20
0.587046
 42
-0.057986
 10
2.960112
 20
0.648482
 42
-0.038828
 10
2.86207
 20
0.717178
 42
-0.028646
 10
2.764707
 20
0.80717
 42
-0.029208
 10
2.682069
 20
0.903498
 42
-0.055838
 10
2.629809
 20
0.990863
 42
-0.065611
 10
2.594199
 20
1.107428
 42
-0.013891
 10
2.564969
 20
1.318386
 42
-0.014317
 10
2.544743
 20
1.566713
 42
-0.01316
 10
2.538
 20
1.822881
 10
2.538
 20
2.4534
  0
LWPOLYLINE
  5
D5C
330
1D
100
AcDbEntity
  8
0
100
AcDbPolyline
 90
       24
 70
     1
 43
0.0
 10
5.90085
 20
2.450089
 10
6.4296
 20
2.4534
 10
6.4296
 20
1.777935
 42
-0.008922
 10
6.422349
 20
1.371582
 42
-0.05425
 10
6.392193
 20
1.163737
 42
-0.082977
 10
6.322934
 20
1.007831
 42
-0.036413
 10
6.184606
 20
0.828273
 42
-0.036015
 10
6.022173
 20
0.670898
 42
-0.091542
 10
5.879844
 20
0.590347
 42
-0.060911
 10
5.685653
 20
0.548802
 42
-0.009659
 10
5.296306
 20
0.521592
 10
4.653
 20
0.489106
 10
4.653
 20
1.180715
 42
-0.012062
 10
4.65969
 20
1.458008
 42
-0.014305
 10
4.679808
 20
1.719255
 42
-0.013168
 10
4.708705
 20
1.937241
 42
-0.08351
 10
4.744261
 20
2.042847
 42
-0.070214
 10
4.798177
 20
2.116546
 42
-0.031251
 10
4.887524
 20
2.19756
 42
-0.030165
 10
4.994407
 20
2.272858
 42
-0.035793
 10
5.103811
 20
2.330073
 42
-0.04814
 10
5.242878
 20
2.37525
 42
-0.017112
 10
5.44861
 20
2.413468
 42
-0.016798
 10
5.678735
 20
2.44025
 42
-0.019003
  0
LWPOLYLINE
  5
D76
330
1D
100
AcDbEntity
  8
0
100
AcDbPolyline
 90
       34
 70
     1
 43
0.0
 10
7.31085
 20
2.452153
 42
-0.018183
 10
7.523397
 20
2.443905
 42
-0.017765
 10
7.73645
 20
2.420229
 42
-0.017975
 10
7.9217
 20
2.386107
 42
-0.061399
 10
8.037
 20
2.345226
 42
-0.063708
 10
8.128665
 20
2.283768
 42
-0.030425
 10
8.229823
 20
2.183956
 42
-0.02956
 10
8.324259
 20
2.065284
 42
-0.03706
 10
8.396419
 20
1.944623
 42
-0.045714
 10
8.460519
 20
1.781067
 42
-0.028215
 10
8.506797
 20
1.579559
 42
-0.02477
 10
8.535095
 20
1.344471
 42
-0.017511
 10
8.544469
 20
1.07865
 10
8.5446
 20
0.5076
 10
8.000207
 20
0.5076
 42
-0.013509
 10
7.775874
 20
0.513662
 42
-0.013474
 10
7.551996
 20
0.531832
 42
-0.013425
 10
7.357559
 20
0.558197
 42
-0.050467
 10
7.238846
 20
0.590091
 42
-0.065457
 10
7.143589
 20
0.641397
 42
-0.031335
 10
7.035991
 20
0.729737
 42
-0.030408
 10
6.933561
 20
0.837523
 42
-0.03792
 10
6.852955
 20
0.949641
 42
-0.04595
 10
6.774
 20
1.110745
 42
-0.040934
 10
6.722095
 20
1.289884
 42
-0.033401
 10
6.693039
 20
1.506357
 42
-0.016521
 10
6.683716
 20
1.78365
 42
-0.00943
 10
6.687695
 20
2.001125
 42
-0.013509
 10
6.70006
 20
2.193563
 42
-0.009327
 10
6.717492
 20
2.351626
 42
-0.165719
 10
6.7398
 20
2.397
 42
-0.163204
 10
6.784441
 20
2.41922
 42
-0.010502
 10
6.930811
 20
2.436466
 42
-0.014461
 10
7.109589
 20
2.448528
 42
-0.010217
  0
LWPOLYLINE
  5
D9A
330
1D
100
AcDbEntity
  8
0
100
AcDbPolyline
 90
       28
 70
     1
 43
0.0
 10
10.04625
 20
2.448038
 10
10.575
 20
2.4534
 10
10.575
 20
1.822881
 42
-0.013771
 10
10.567923
 20
1.565986
 42
-0.014709
 10
10.546705
 20
1.315477
 42
-0.014404
 10
10.516006
 20
1.101831
 42
-0.064088
 10
10.478678
 20
0.980958
 42
-0.066201
 10
10.421999
 20
0.8905
 42
-0.033848
 10
10.329572
 20
0.793179
 42
-0.032921
 10
10.219077
 20
0.704247
 42
-0.042227
 10
10.106343
 20
0.638577
 42
-0.049601
 10
9.963396
 20
0.587376
 42
-0.020234
 10
9.761019
 20
0.545433
 42
-0.019533
 10
9.534975
 20
0.517067
 42
-0.021447
 10
9.314364
 20
0.5076
 10
8.7984
 20
0.5076
 10
8.7984
 20
1.172991
 42
-0.010239
 10
8.805791
 20
1.533902
 42
-0.039619
 10
8.832609
 20
1.756033
 42
-0.060765
 10
8.886642
 20
1.918686
 42
-0.056162
 10
8.979285
 20
2.06834
 42
-0.02826
 10
9.061645
 20
2.161673
 42
-0.023105
 10
9.159518
 20
2.251953
 42
-0.023701
 10
9.257562
 20
2.326714
 42
-0.055078
 10
9.338835
 20
2.370486
 42
-0.056328
 10
9.44057
 20
2.398801
 42
-0.012431
 10
9.620337
 20
2.423045
 42
-0.012776
 10
9.830718
 20
2.440682
 42
-0.011987
  0
LWPOLYLINE
  5
DB8
330
1D
100
AcDbEntity
  8
0
100
AcDbPolyline
 90
       34
 70
     1
 43
0.0
 10
11.378762
 20
2.4534
 42
-0.022436
 10
11.580684
 20
2.444335
 42
-0.017589
 10
11.79825
 20
2.417018
 42
-0.017916
 10
11.999153
 20
2.377148
 42
-0.041034
 10
12.145862
 20
2.329545
 42
-0.044426
 10
12.284866
 20
2.256368
 42
-0.053058
 10
12.399989
 20
2.163389
 42
-0.053058
 10
12.492968
 20
2.048266
 42
-0.044426
 10
12.566145
 20
1.909262
 42
-0.045697
 10
12.613826
 20
1.757517
 42
-0.017068
 10
12.653618
 20
1.537579
 42
-0.016744
 10
12.68091
 20
1.293532
 42
-0.019473
 10
12.69
 20
1.060217
 10
12.69
 20
0.5076
 10
12.145607
 20
0.5076
 42
-0.013255
 10
11.921596
 20
0.51354
 42
-0.013339
 10
11.698684
 20
0.531342
 42
-0.013256
 10
11.505504
 20
0.557164
 42
-0.051027
 10
11.388632
 20
0.588424
 42
-0.05083
 10
11.297507
 20
0.634128
 42
-0.03041
 10
11.199303
 20
0.70532
 42
-0.030215
 10
11.109221
 20
0.788986
 42
-0.045497
 10
11.042629
 20
0.872872
 42
-0.066728
 10
10.987731
 20
0.98746
 42
-0.018502
 10
10.933181
 20
1.179678
 42
-0.018335
 10
10.887039
 20
1.40401
 42
-0.018272
 10
10.857394
 20
1.631378
 42
-0.010431
 10
10.841309
 20
1.85362
 42
-0.012645
 10
10.835856
 20
2.0625
 42
-0.011273
 10
10.839656
 20
2.237353
 42
-0.080707
 10
10.856834
 20
2.31983
 42
-0.157099
 10
10.907638
 20
2.382905
 42
-0.082826
 10
11.000581
 20
2.423945
 42
-0.048475
 10
11.148533
 20
2.446861
 42
-0.014199
  0
LWPOLYLINE
  5
DDC
330
1D
100
AcDbEntity
  8
0
100
AcDbPolyline
 90
       28
 70
     1
 43
0.0
 10
14.27625
 20
2.433264
 10
14.7204
 20
2.447016
 10
14.7204
 20
1.767846
 42
-0.011735
 10
14.714016
 20
1.495882
 42
-0.01404
 10
14.694812
 20
1.240371
 42
-0.012806
 10
14.667251
 20
1.027417
 42
-0.08447
 10
14.633292
 20
0.925914
 42
-0.063206
 10
14.582514
 20
0.854432
 42
-0.027828
 10
14.499189
 20
0.773429
 42
-0.026997
 10
14.400079
 20
0.696247
 42
-0.032615
 10
14.299093
 20
0.635376
 42
-0.057041
 10
14.16275
 20
0.583543
 42
-0.0228
 10
13.966805
 20
0.543059
 42
-0.02112
 10
13.738411
 20
0.516465
 42
-0.018423
 10
13.497901
 20
0.5076
 10
12.9438
 20
0.5076
 10
12.9438
 20
1.177909
 42
-0.009477
 10
12.951125
 20
1.564324
 42
-0.047519
 10
12.979764
 20
1.778592
 42
-0.073654
 10
13.042201
 20
1.937268
 42
-0.044425
 10
13.158339
 20
2.103183
 42
-0.040903
 10
13.257359
 20
2.203025
 42
-0.034073
 10
13.377305
 20
2.292265
 42
-0.035378
 10
13.499129
 20
2.358945
 42
-0.074447
 10
13.602489
 20
2.388829
 42
-0.012624
 10
13.720496
 20
2.401575
 42
-0.004122
 10
13.895121
 20
2.414538
 42
-0.004105
 10
14.089366
 20
2.425748
 42
-0.00462
  0
LWPOLYLINE
  5
DFA
330
1D
100
AcDbEntity
  8
0
100
AcDbPolyline
 90
       34
 70
     1
 43
0.0
 10
15.644084
 20
2.425927
 42
-0.014178
 10
15.876379
 20
2.404756
 42
-0.014981
 10
16.102847
 20
2.370713
 42
-0.014745
 10
16.295702
 20
2.32988
 42
-0.0634
 10
16.405109
 20
2.288102
 42
-0.069022
 10
16.486836
 20
2.228611
 42
-0.032422
 10
16.575045
 20
2.131798
 42
-0.031358
 10
16.655796
 20
2.016609
 42
-0.038254
 10
16.715662
 20
1.899408
 42
-0.046698
 10
16.761776
 20
1.751618
 42
-0.016851
 10
16.800227
 20
1.534684
 42
-0.016543
 10
16.826609
 20
1.29281
 42
-0.018892
 10
16.8354
 20
1.060217
 10
16.8354
 20
0.5076
 10
16.219724
 20
0.5076
 42
-0.013494
 10
15.933613
 20
0.515323
 42
-0.027012
 10
15.708792
 20
0.539695
 42
-0.034391
 10
15.536527
 20
0.580166
 42
-0.078035
 10
15.416679
 20
0.638839
 42
-0.03147
 10
15.338315
 20
0.701426
 42
-0.021848
 10
15.257767
 20
0.781195
 42
-0.022108
 10
15.1869
 20
0.864929
 42
-0.041712
 10
15.138818
 20
0.939162
 42
-0.067205
 10
15.101228
 20
1.039885
 42
-0.012854
 10
15.062868
 20
1.231804
 42
-0.013492
 10
15.029673
 20
1.459787
 42
-0.012054
 10
15.00734
 20
1.697953
 42
-0.009354
 10
14.995559
 20
1.93017
 42
-0.012714
 10
14.994185
 20
2.139986
 42
-0.009636
 10
15.000804
 20
2.313418
 42
-0.124679
 10
15.020113
 20
2.374646
 42
-0.214587
 10
15.070908
 20
2.408985
 42
-0.022428
 10
15.217036
 20
2.427621
 42
-0.023159
 10
15.409752
 20
2.434502
 42
-0.012979
  0
ENDSEC
  0
SECTION
  2
OBJECTS
  0
DICTIONARY
  5
C
330
0
100
AcDbDictionary
281
     1
  3
ACAD_DETAILVIEWSTYLE
350
EAA
  3
ACAD_GROUP
350
D
  3
ACAD_LAYOUT
350
1A
  3
ACAD_MATERIAL
350
E5D
  3
ACAD_MLEADERSTYLE
350
E63
  3
ACAD_MLINESTYLE
350
17
  3
ACAD_PLOTSETTINGS
350
19
  3
ACAD_PLOTSTYLENAME
350
E
  3
ACAD_SCALELIST
350
E1E
  3
ACAD_SECTIONVIEWSTYLE
350
EAB
  3
ACAD_TABLESTYLE
350
E61
  3
ACAD_VISUALSTYLE
350
E44
  3
ACDB_RECOMPOSE_DATA
350
EA6
  3
AcDbVariableDictionary
350
E67
  0
DICTIONARY
  5
E65
330
8
100
AcDbDictionary
280
     1
281
     1
  3
ACAD_XREC_ROUNDTRIP
360
E66
  0
DICTIONARY
  5
EAA
102
{ACAD_REACTORS
330
C
102
}
330
C
100
AcDbDictionary
281
     1
  0
DICTIONARY
  5
D
102
{ACAD_REACTORS
330
C
102
}
330
C
100
AcDbDictionary
281
     1
  0
DICTIONARY
  5
1A
102
{ACAD_REACTORS
330
C
102
}
330
C
100
AcDbDictionary
281
     1
  3
Layout1
350
1C
  3
Model
350
1E
  0
DICTIONARY
  5
E5D
102
{ACAD_REACTORS
330
C
102
}
330
C
100
AcDbDictionary
281
     1
  3
ByBlock
350
E5F
  3
ByLayer
350
E5E
  3
Global
350
E60
  0
DICTIONARY
  5
E63
102
{ACAD_REACTORS
330
C
102
}
330
C
100
AcDbDictionary
281
     1
  3
Standard
350
E64
  0
DICTIONARY
  5
17
102
{ACAD_REACTORS
330
C
102
}
330
C
100
AcDbDictionary
281
     1
  3
Standard
350
18
  0
DICTIONARY
  5
19
102
{ACAD_REACTORS
330
C
102
}
330
C
100
AcDbDictionary
281
     1
  0
ACDBDICTIONARYWDFLT
  5
E
102
{ACAD_REACTORS
330
C
102
}
330
C
100
AcDbDictionary
281
     1
  3
Normal
350
F
100
AcDbDictionaryWithDefault
340
F
  0
DICTIONARY
  5
E1E
102
{ACAD_REACTORS
330
C
102
}
330
C
100
AcDbDictionary
281
     1
  3
A0
350
E1F
  3
A1
350
E20
  3
A2
350
E21
  3
A3
350
E22
  3
A4
350
E23
  3
A5
350
E24
  3
A6
350
E25
  3
A7
350
E26
  3
A8
350
E27
  3
A9
350
E28
  3
B0
350
E29
  3
B1
350
E2A
  3
B2
350
E2B
  3
B3
350
E2C
  3
B4
350
E2D
  3
B5
350
E2E
  3
B6
350
E2F
  3
B7
350
E30
  3
B8
350
E31
  3
B9
350
E32
  3
C0
350
E33
  3
C1
350
E34
  3
C2
350
E35
  3
C3
350
E36
  3
C4
350
E37
  3
C5
350
E38
  3
C6
350
E39
  3
C7
350
E3A
  3
C8
350
E3B
  3
C9
350
E3C
  3
D0
350
E3D
  3
D1
350
E3E
  3
D2
350
E3F
  0
DICTIONARY
  5
EAB
102
{ACAD_REACTORS
330
C
102
}
330
C
100
AcDbDictionary
281
     1
  0
DICTIONARY
  5
E61
102
{ACAD_REACTORS
330
C
102
}
330
C
100
AcDbDictionary
281
     1
  3
Standard
350
E62
  0
DICTIONARY
  5
E44
102
{ACAD_REACTORS
330
C
102
}
330
C
100
AcDbDictionary
281
     1
  3
2dWireframe
350
E49
  3
Basic
350
E4C
  3
Brighten
350
E50
  3
ColorChange
350
E54
  3
Conceptual
350
E4E
  3
Dim
350
E4F
  3
EdgeColorOff
350
E57
  3
Facepattern
350
E53
  3
Flat
350
E45
  3
FlatWithEdges
350
E46
  3
Gouraud
350
E47
  3
GouraudWithEdges
350
E48
  3
Hidden
350
E4B
  3
JitterOff
350
E55
  3
Linepattern
350
E52
  3
OverhangOff
350
E56
  3
Realistic
350
E4D
  3
Shaded
350
E5C
  3
Shaded with edges
350
E5B
  3
Shades of Gray
350
E58
  3
Sketchy
350
E59
  3
Thicken
350
E51
  3
Wireframe
350
E4A
  3
X-Ray
350
E5A
  0
XRECORD
  5
EA6
102
{ACAD_REACTORS
330
C
102
}
330
C
100
AcDbXrecord
280
     1
 90
        1
330
E62
  0
DICTIONARY
  5
E67
102
{ACAD_REACTORS
330
C
102
}
330
C
100
AcDbDictionary
281
     1
  3
CANNOSCALE
350
E68
  3
CMLEADERSTYLE
350
EA8
  3
CTABLESTYLE
350
EA7
  3
MSLTSCALE
350
EA9
  3
XCLIPFRAME
350
E69
  0
XRECORD
  5
E66
102
{ACAD_REACTORS
330
E65
102
}
330
E65
100
AcDbXrecord
280
     1
102
VTR_0.000_0.000_1.000_1.000_VISUALSTYLE
340
E49
102
VTR_0.000_0.000_1.000_1.000_GRIDDISPLAY
 70
     3
102
VTR_0.000_0.000_1.000_1.000_GRIDMAJOR
 70
     5
102
VTR_0.000_0.000_1.000_1.000_DEFAULTLIGHTING
280
     1
102
VTR_0.000_0.000_1.000_1.000_DEFAULTLIGHTINGTYPE
 70
     1
102
VTR_0.000_0.000_1.000_1.000_BRIGHTNESS
141
0.0
102
VTR_0.000_0.000_1.000_1.000_CONTRAST
142
0.0
  0
LAYOUT
  5
1C
102
{ACAD_REACTORS
330
1A
102
}
330
1A
100
AcDbPlotSettings
  1

  2
none_device
  4

  6

 40
0.0
 41
0.0
 42
0.0
 43
0.0
 44
0.0
 45
0.0
 46
0.0
 47
0.0
 48
0.0
 49
0.0
140
0.0
141
0.0
142
1.0
143
1.0
 70
   688
 72
     0
 73
     0
 74
     5
  7

 75
    16
 76
     0
 77
     2
 78
   300
147
1.0
148
0.0
149
0.0
100
AcDbLayout
  1
Layout1
 70
     1
 71
     1
 10
0.0
 20
0.0
 11
12.0
 21
9.0
 12
0.0
 22
0.0
 32
0.0
 14
1.000000000000000E+20
 24
1.000000000000000E+20
 34
1.000000000000000E+20
 15
-1.000000000000000E+20
 25
-1.000000000000000E+20
 35
-1.000000000000000E+20
146
0.0
 13
0.0
 23
0.0
 33
0.0
 16
1.0
 26
0.0
 36
0.0
 17
0.0
 27
1.0
 37
0.0
 76
     0
330
1B
  0
LAYOUT
  5
1E
102
{ACAD_REACTORS
330
1A
102
}
330
1A
100
AcDbPlotSettings
  1

  2
none_device
  4
Letter_(8.50_x_11.00_Inches)
  6

 40
6.35
 41
6.35
 42
6.35000508
 43
6.35000508
 44
215.9
 45
279.4
 46
0.0
 47
0.0
 48
0.0
 49
0.0
140
0.0
141
0.0
142
1.0
143
1.0
 70
  1712
 72
     0
 73
     0
 74
     0
  7

 75
     0
 76
     0
 77
     2
 78
   300
147
1.0
148
0.0
149
0.0
100
AcDbLayout
  1
Model
 70
     1
 71
     0
 10
0.0
 20
0.0
 11
12.0
 21
9.0
 12
0.0
 22
0.0
 32
0.0
 14
0.0
 24
0.0
 34
0.0
 15
17.343
 25
35.7012
 35
0.0
146
0.0
 13
0.0
 23
0.0
 33
0.0
 16
1.0
 26
0.0
 36
0.0
 17
0.0
 27
1.0
 37
0.0
 76
     0
330
1D
331
21
  0
MATERIAL
  5
E5F
102
{ACAD_REACTORS
330
E5D
102
}
102
{ACAD_XDICTIONARY
360
E9C
102
}
330
E5D
100
AcDbMaterial
  1
ByBlock
  0
MATERIAL
  5
E5E
102
{ACAD_REACTORS
330
E5D
102
}
102
{ACAD_XDICTIONARY
360
E9A
102
}
330
E5D
100
AcDbMaterial
  1
ByLayer
  0
MATERIAL
  5
E60
102
{ACAD_REACTORS
330
E5D
102
}
102
{ACAD_XDICTIONARY
360
E9E
102
}
330
E5D
100
AcDbMaterial
  1
Global
  0
MLEADERSTYLE
  5
E64
102
{ACAD_REACTORS
330
E63
102
}
102
{ACAD_XDICTIONARY
360
EA4
102
}
330
E63
100
AcDbMLeaderStyle
170
     2
171
     1
172
     0
 90
        2
 40
0.0
 41
0.0
173
     1
 91
-1056964608
340
14
 92
       -2
290
     1
 42
0.09
291
     1
 43
0.36
  3
Standard
341
0
 44
0.18
300

342
11
174
     1
178
     6
175
     1
176
     0
 93
-1056964608
 45
0.18
292
     0
297
     0
 46
0.18
343
0
 94
-1056964608
 47
1.0
 49
1.0
140
1.0
293
     1
141
0.0
294
     1
177
     0
142
1.0
295
     0
296
     0
143
0.125
1001
ACAD_MLEADERVER
1070
     2
  0
MLINESTYLE
  5
18
102
{ACAD_REACTORS
330
17
102
}
330
17
100
AcDbMlineStyle
  2
Standard
 70
     0
  3

 62
   256
 51
90.0
 52
90.0
 71
     2
 49
0.5
 62
   256
  6
BYLAYER
 49
-0.5
 62
   256
  6
BYLAYER
  0
ACDBPLACEHOLDER
  5
F
102
{ACAD_REACTORS
330
E
102
}
330
E
  0
SCALE
  5
E1F
102
{ACAD_REACTORS
330
E1E
102
}
330
E1E
100
AcDbScale
 70
     0
300
1:1
140
1.0
141
1.0
290
     1
  0
SCALE
  5
E20
102
{ACAD_REACTORS
330
E1E
102
}
330
E1E
100
AcDbScale
 70
     0
300
1:2
140
1.0
141
2.0
290
     0
  0
SCALE
  5
E21
102
{ACAD_REACTORS
330
E1E
102
}
330
E1E
100
AcDbScale
 70
     0
300
1:4
140
1.0
141
4.0
290
     0
  0
SCALE
  5
E22
102
{ACAD_REACTORS
330
E1E
102
}
330
E1E
100
AcDbScale
 70
     0
300
1:5
140
1.0
141
5.0
290
     0
  0
SCALE
  5
E23
102
{ACAD_REACTORS
330
E1E
102
}
330
E1E
100
AcDbScale
 70
     0
300
1:8
140
1.0
141
8.0
290
     0
  0
SCALE
  5
E24
102
{ACAD_REACTORS
330
E1E
102
}
330
E1E
100
AcDbScale
 70
     0
300
1:10
140
1.0
141
10.0
290
     0
  0
SCALE
  5
E25
102
{ACAD_REACTORS
330
E1E
102
}
330
E1E
100
AcDbScale
 70
     0
300
1:16
140
1.0
141
16.0
290
     0
  0
SCALE
  5
E26
102
{ACAD_REACTORS
330
E1E
102
}
330
E1E
100
AcDbScale
 70
     0
300
1:20
140
1.0
141
20.0
290
     0
  0
SCALE
  5
E27
102
{ACAD_REACTORS
330
E1E
102
}
330
E1E
100
AcDbScale
 70
     0
300
1:30
140
1.0
141
30.0
290
     0
  0
SCALE
  5
E28
102
{ACAD_REACTORS
330
E1E
102
}
330
E1E
100
AcDbScale
 70
     0
300
1:40
140
1.0
141
40.0
290
     0
  0
SCALE
  5
E29
102
{ACAD_REACTORS
330
E1E
102
}
330
E1E
100
AcDbScale
 70
     0
300
1:50
140
1.0
141
50.0
290
     0
  0
SCALE
  5
E2A
102
{ACAD_REACTORS
330
E1E
102
}
330
E1E
100
AcDbScale
 70
     0
300
1:100
140
1.0
141
100.0
290
     0
  0
SCALE
  5
E2B
102
{ACAD_REACTORS
330
E1E
102
}
330
E1E
100
AcDbScale
 70
     0
300
2:1
140
2.0
141
1.0
290
     0
  0
SCALE
  5
E2C
102
{ACAD_REACTORS
330
E1E
102
}
330
E1E
100
AcDbScale
 70
     0
300
4:1
140
4.0
141
1.0
290
     0
  0
SCALE
  5
E2D
102
{ACAD_REACTORS
330
E1E
102
}
330
E1E
100
AcDbScale
 70
     0
300
8:1
140
8.0
141
1.0
290
     0
  0
SCALE
  5
E2E
102
{ACAD_REACTORS
330
E1E
102
}
330
E1E
100
AcDbScale
 70
     0
300
10:1
140
10.0
141
1.0
290
     0
  0
SCALE
  5
E2F
102
{ACAD_REACTORS
330
E1E
102
}
330
E1E
100
AcDbScale
 70
     0
300
100:1
140
100.0
141
1.0
290
     0
  0
SCALE
  5
E30
102
{ACAD_REACTORS
330
E1E
102
}
330
E1E
100
AcDbScale
 70
     0
300
1/128\" = 1\'-0\"
140
0.0078125
141
12.0
290
     0
  0
SCALE
  5
E31
102
{ACAD_REACTORS
330
E1E
102
}
330
E1E
100
AcDbScale
 70
     0
300
1/64\" = 1\'-0\"
140
0.015625
141
12.0
290
     0
  0
SCALE
  5
E32
102
{ACAD_REACTORS
330
E1E
102
}
330
E1E
100
AcDbScale
 70
     0
300
1/32\" = 1\'-0\"
140
0.03125
141
12.0
290
     0
  0
SCALE
  5
E33
102
{ACAD_REACTORS
330
E1E
102
}
330
E1E
100
AcDbScale
 70
     0
300
1/16\" = 1\'-0\"
140
0.0625
141
12.0
290
     0
  0
SCALE
  5
E34
102
{ACAD_REACTORS
330
E1E
102
}
330
E1E
100
AcDbScale
 70
     0
300
3/32\" = 1\'-0\"
140
0.09375
141
12.0
290
     0
  0
SCALE
  5
E35
102
{ACAD_REACTORS
330
E1E
102
}
330
E1E
100
AcDbScale
 70
     0
300
1/8\" = 1\'-0\"
140
0.125
141
12.0
290
     0
  0
SCALE
  5
E36
102
{ACAD_REACTORS
330
E1E
102
}
330
E1E
100
AcDbScale
 70
     0
300
3/16\" = 1\'-0\"
140
0.1875
141
12.0
290
     0
  0
SCALE
  5
E37
102
{ACAD_REACTORS
330
E1E
102
}
330
E1E
100
AcDbScale
 70
     0
300
1/4\" = 1\'-0\"
140
0.25
141
12.0
290
     0
  0
SCALE
  5
E38
102
{ACAD_REACTORS
330
E1E
102
}
330
E1E
100
AcDbScale
 70
     0
300
3/8\" = 1\'-0\"
140
0.375
141
12.0
290
     0
  0
SCALE
  5
E39
102
{ACAD_REACTORS
330
E1E
102
}
330
E1E
100
AcDbScale
 70
     0
300
1/2\" = 1\'-0\"
140
0.5
141
12.0
290
     0
  0
SCALE
  5
E3A
102
{ACAD_REACTORS
330
E1E
102
}
330
E1E
100
AcDbScale
 70
     0
300
3/4\" = 1\'-0\"
140
0.75
141
12.0
290
     0
  0
SCALE
  5
E3B
102
{ACAD_REACTORS
330
E1E
102
}
330
E1E
100
AcDbScale
 70
     0
300
1\" = 1\'-0\"
140
1.0
141
12.0
290
     0
  0
SCALE
  5
E3C
102
{ACAD_REACTORS
330
E1E
102
}
330
E1E
100
AcDbScale
 70
     0
300
1-1/2\" = 1\'-0\"
140
1.5
141
12.0
290
     0
  0
SCALE
  5
E3D
102
{ACAD_REACTORS
330
E1E
102
}
330
E1E
100
AcDbScale
 70
     0
300
3\" = 1\'-0\"
140
3.0
141
12.0
290
     0
  0
SCALE
  5
E3E
102
{ACAD_REACTORS
330
E1E
102
}
330
E1E
100
AcDbScale
 70
     0
300
6\" = 1\'-0\"
140
6.0
141
12.0
290
     0
  0
SCALE
  5
E3F
102
{ACAD_REACTORS
330
E1E
102
}
330
E1E
100
AcDbScale
 70
     0
300
1\'-0\" = 1\'-0\"
140
12.0
141
12.0
290
     0
  0
TABLESTYLE
  5
E62
102
{ACAD_REACTORS
330
E61
102
}
102
{ACAD_XDICTIONARY
360
EA0
102
}
330
E61
100
AcDbTableStyle
  3
Standard
 70
     0
 71
     0
 40
0.06
 41
0.06
280
     0
281
     0
  7
Standard
140
0.18
170
     2
 62
     0
 63
   257
283
     0
274
    -2
284
     1
 64
     0
275
    -2
285
     1
 65
     0
276
    -2
286
     1
 66
     0
277
    -2
287
     1
 67
     0
278
    -2
288
     1
 68
     0
279
    -2
289
     1
 69
     0
  7
Standard
140
0.25
170
     5
 62
     0
 63
   257
283
     0
274
    -2
284
     1
 64
     0
275
    -2
285
     1
 65
     0
276
    -2
286
     1
 66
     0
277
    -2
287
     1
 67
     0
278
    -2
288
     1
 68
     0
279
    -2
289
     1
 69
     0
  7
Standard
140
0.18
170
     5
 62
     0
 63
   257
283
     0
274
    -2
284
     1
 64
     0
275
    -2
285
     1
 65
     0
276
    -2
286
     1
 66
     0
277
    -2
287
     1
 67
     0
278
    -2
288
     1
 68
     0
279
    -2
289
     1
 69
     0
  0
VISUALSTYLE
  5
E49
102
{ACAD_REACTORS
330
E44
102
}
102
{ACAD_XDICTIONARY
360
E72
102
}
330
E44
100
AcDbVisualStyle
  2
2dWireframe
 70
     4
 71
     0
 72
     2
 73
     0
 90
        0
 40
0.6
 41
30.0
 62
     5
 63
     7
421
 16777215
 74
     1
 91
        4
 64
     7
 65
   257
 75
     1
175
     1
 42
1.0
 92
        0
 66
   257
 43
1.0
 76
     1
 77
     6
 78
     2
 67
     7
 79
     5
170
     0
171
     0
290
     0
174
     0
 93
        1
 44
0.0
173
     0
291
     0
 45
0.0
1001
ACAD
1000
AcDbSavedByObjectVersion
1070
     0
  0
VISUALSTYLE
  5
E4C
102
{ACAD_REACTORS
330
E44
102
}
102
{ACAD_XDICTIONARY
360
E78
102
}
330
E44
100
AcDbVisualStyle
  2
Basic
 70
     7
 71
     1
 72
     0
 73
     1
 90
        0
 40
0.6
 41
30.0
 62
     5
 63
     7
421
 16777215
 74
     0
 91
        4
 64
     7
 65
   257
 75
     1
175
     1
 42
1.0
 92
        8
 66
     7
 43
1.0
 76
     1
 77
     6
 78
     2
 67
     7
 79
     5
170
     0
171
     0
290
     0
174
     0
 93
        1
 44
0.0
173
     0
291
     1
 45
0.0
1001
ACAD
1000
AcDbSavedByObjectVersion
1070
     0
  0
VISUALSTYLE
  5
E50
102
{ACAD_REACTORS
330
E44
102
}
102
{ACAD_XDICTIONARY
360
E80
102
}
330
E44
100
AcDbVisualStyle
  2
Brighten
 70
    12
 71
     2
 72
     2
 73
     0
 90
        0
 40
0.6
 41
30.0
 62
     5
 63
     7
421
 16777215
 74
     1
 91
        4
 64
     7
 65
   257
 75
     1
175
     1
 42
1.0
 92
        8
 66
     7
 43
1.0
 76
     1
 77
     6
 78
     2
 67
     7
 79
     5
170
     0
171
     0
290
     0
174
     0
 93
        1
 44
50.0
173
     0
291
     1
 45
0.0
1001
ACAD
1000
AcDbSavedByObjectVersion
1070
     0
  0
VISUALSTYLE
  5
E54
102
{ACAD_REACTORS
330
E44
102
}
102
{ACAD_XDICTIONARY
360
E88
102
}
330
E44
100
AcDbVisualStyle
  2
ColorChange
 70
    16
 71
     2
 72
     2
 73
     3
 90
        0
 40
0.6
 41
30.0
 62
     5
 63
     8
421
  8421504
 74
     1
 91
        4
 64
     7
 65
   257
 75
     1
175
     1
 42
1.0
 92
        8
 66
     8
424
  8421504
 43
1.0
 76
     1
 77
     6
 78
     2
 67
     7
 79
     5
170
     0
171
     0
290
     0
174
     0
 93
        1
 44
0.0
173
     0
291
     1
 45
0.0
1001
ACAD
1000
AcDbSavedByObjectVersion
1070
     0
  0
VISUALSTYLE
  5
E4E
102
{ACAD_REACTORS
330
E44
102
}
102
{ACAD_XDICTIONARY
360
E7C
102
}
330
E44
100
AcDbVisualStyle
  2
Conceptual
 70
     9
 71
     3
 72
     2
 73
     0
 90
        0
 40
0.6
 41
30.0
 62
     5
 63
     7
421
 16777215
 74
     2
 91
        2
 64
     7
 65
   257
 75
     1
175
     1
 42
179.0
 92
        8
 66
     7
 43
1.0
 76
     1
 77
     6
 78
     2
 67
     7
 79
     3
170
     0
171
     0
290
     0
174
     0
 93
        1
 44
0.0
173
     0
291
     0
 45
0.0
1001
ACAD
1000
AcDbSavedByObjectVersion
1070
     0
  0
VISUALSTYLE
  5
E4F
102
{ACAD_REACTORS
330
E44
102
}
102
{ACAD_XDICTIONARY
360
E7E
102
}
330
E44
100
AcDbVisualStyle
  2
Dim
 70
    11
 71
     2
 72
     2
 73
     0
 90
        0
 40
0.6
 41
30.0
 62
     5
 63
     7
421
 16777215
 74
     1
 91
        4
 64
     7
 65
   257
 75
     1
175
     1
 42
1.0
 92
        8
 66
     7
 43
1.0
 76
     1
 77
     6
 78
     2
 67
     7
 79
     5
170
     0
171
     0
290
     0
174
     0
 93
        1
 44
-50.0
173
     0
291
     1
 45
0.0
1001
ACAD
1000
AcDbSavedByObjectVersion
1070
     0
  0
VISUALSTYLE
  5
E57
102
{ACAD_REACTORS
330
E44
102
}
102
{ACAD_XDICTIONARY
360
E8E
102
}
330
E44
100
AcDbVisualStyle
  2
EdgeColorOff
 70
    22
 71
     2
 72
     2
 73
     0
 90
        0
 40
0.6
 41
30.0
 62
     5
 63
     7
421
 16777215
 74
     1
 91
        4
 64
     7
 65
   257
 75
     1
175
     1
 42
1.0
 92
        8
 66
     7
 43
1.0
 76
     1
 77
     6
 78
     2
 67
     7
 79
     5
170
     0
171
     0
290
     0
174
     0
 93
        1
 44
0.0
173
     0
291
     1
 45
0.0
1001
ACAD
1000
AcDbSavedByObjectVersion
1070
     0
  0
VISUALSTYLE
  5
E53
102
{ACAD_REACTORS
330
E44
102
}
102
{ACAD_XDICTIONARY
360
E86
102
}
330
E44
100
AcDbVisualStyle
  2
Facepattern
 70
    15
 71
     2
 72
     2
 73
     0
 90
        0
 40
0.6
 41
30.0
 62
     5
 63
     7
421
 16777215
 74
     1
 91
        4
 64
     7
 65
   257
 75
     1
175
     1
 42
1.0
 92
        8
 66
     7
 43
1.0
 76
     1
 77
     6
 78
     2
 67
     7
 79
     5
170
     0
171
     0
290
     0
174
     0
 93
        1
 44
0.0
173
     0
291
     1
 45
0.0
1001
ACAD
1000
AcDbSavedByObjectVersion
1070
     0
  0
VISUALSTYLE
  5
E45
102
{ACAD_REACTORS
330
E44
102
}
102
{ACAD_XDICTIONARY
360
E6A
102
}
330
E44
100
AcDbVisualStyle
  2
Flat
 70
     0
 71
     2
 72
     1
 73
     1
 90
        2
 40
0.6
 41
30.0
 62
     5
 63
     7
421
 16777215
 74
     0
 91
        0
 64
     7
 65
   257
 75
     1
175
     1
 42
1.0
 92
        8
 66
     7
 43
1.0
 76
     1
 77
     6
 78
     2
 67
     7
 79
     5
170
     0
171
     0
290
     0
174
     0
 93
       13
 44
0.0
173
     0
291
     1
 45
0.0
1001
ACAD
1000
AcDbSavedByObjectVersion
1070
     0
  0
VISUALSTYLE
  5
E46
102
{ACAD_REACTORS
330
E44
102
}
102
{ACAD_XDICTIONARY
360
E6C
102
}
330
E44
100
AcDbVisualStyle
  2
FlatWithEdges
 70
     1
 71
     2
 72
     1
 73
     1
 90
        2
 40
0.6
 41
30.0
 62
     5
 63
     7
421
 16777215
 74
     1
 91
        0
 64
     7
 65
   257
 75
     1
175
     1
 42
1.0
 92
        0
 66
   257
 43
1.0
 76
     1
 77
     6
 78
     2
 67
     7
 79
     5
170
     0
171
     0
290
     0
174
     0
 93
       13
 44
0.0
173
     0
291
     1
 45
0.0
1001
ACAD
1000
AcDbSavedByObjectVersion
1070
     0
  0
VISUALSTYLE
  5
E47
102
{ACAD_REACTORS
330
E44
102
}
102
{ACAD_XDICTIONARY
360
E6E
102
}
330
E44
100
AcDbVisualStyle
  2
Gouraud
 70
     2
 71
     2
 72
     2
 73
     1
 90
        2
 40
0.6
 41
30.0
 62
     5
 63
     7
421
 16777215
 74
     0
 91
        0
 64
     7
 65
   257
 75
     1
175
     1
 42
1.0
 92
        0
 66
     7
 43
1.0
 76
     1
 77
     6
 78
     2
 67
     7
 79
     5
170
     0
171
     0
290
     0
174
     0
 93
       13
 44
0.0
173
     0
291
     1
 45
0.0
1001
ACAD
1000
AcDbSavedByObjectVersion
1070
     0
  0
VISUALSTYLE
  5
E48
102
{ACAD_REACTORS
330
E44
102
}
102
{ACAD_XDICTIONARY
360
E70
102
}
330
E44
100
AcDbVisualStyle
  2
GouraudWithEdges
 70
     3
 71
     2
 72
     2
 73
     1
 90
        2
 40
0.6
 41
30.0
 62
     5
 63
     7
421
 16777215
 74
     1
 91
        0
 64
     7
 65
   257
 75
     1
175
     1
 42
1.0
 92
        0
 66
   257
 43
1.0
 76
     1
 77
     6
 78
     2
 67
     7
 79
     5
170
     0
171
     0
290
     0
174
     0
 93
       13
 44
0.0
173
     0
291
     1
 45
0.0
1001
ACAD
1000
AcDbSavedByObjectVersion
1070
     0
  0
VISUALSTYLE
  5
E4B
102
{ACAD_REACTORS
330
E44
102
}
102
{ACAD_XDICTIONARY
360
E76
102
}
330
E44
100
AcDbVisualStyle
  2
Hidden
 70
     6
 71
     1
 72
     2
 73
     2
 90
        0
 40
0.6
 41
30.0
 62
     5
 63
     7
421
 16777215
 74
     2
 91
        2
 64
     7
 65
   257
 75
     2
175
     1
 42
40.0
 92
        0
 66
   257
 43
1.0
 76
     1
 77
     6
 78
     2
 67
     7
 79
     3
170
     0
171
     0
290
     0
174
     0
 93
        1
 44
0.0
173
     0
291
     0
 45
0.0
1001
ACAD
1000
AcDbSavedByObjectVersion
1070
     0
  0
VISUALSTYLE
  5
E55
102
{ACAD_REACTORS
330
E44
102
}
102
{ACAD_XDICTIONARY
360
E8A
102
}
330
E44
100
AcDbVisualStyle
  2
JitterOff
 70
    20
 71
     2
 72
     2
 73
     0
 90
        0
 40
0.6
 41
30.0
 62
     5
 63
     7
421
 16777215
 74
     1
 91
        4
 64
     7
 65
   257
 75
     1
175
     1
 42
1.0
 92
       10
 66
     7
 43
1.0
 76
     1
 77
     6
 78
     2
 67
     7
 79
     5
170
     0
171
     0
290
     0
174
     0
 93
        1
 44
0.0
173
     0
291
     1
 45
0.0
1001
ACAD
1000
AcDbSavedByObjectVersion
1070
     0
  0
VISUALSTYLE
  5
E52
102
{ACAD_REACTORS
330
E44
102
}
102
{ACAD_XDICTIONARY
360
E84
102
}
330
E44
100
AcDbVisualStyle
  2
Linepattern
 70
    14
 71
     2
 72
     2
 73
     0
 90
        0
 40
0.6
 41
30.0
 62
     5
 63
     7
421
 16777215
 74
     1
 91
        4
 64
     7
 65
   257
 75
     7
175
     7
 42
1.0
 92
        8
 66
     7
 43
1.0
 76
     1
 77
     6
 78
     2
 67
     7
 79
     5
170
     0
171
     0
290
     0
174
     0
 93
        1
 44
0.0
173
     0
291
     1
 45
0.0
1001
ACAD
1000
AcDbSavedByObjectVersion
1070
     0
  0
VISUALSTYLE
  5
E56
102
{ACAD_REACTORS
330
E44
102
}
102
{ACAD_XDICTIONARY
360
E8C
102
}
330
E44
100
AcDbVisualStyle
  2
OverhangOff
 70
    21
 71
     2
 72
     2
 73
     0
 90
        0
 40
0.6
 41
30.0
 62
     5
 63
     7
421
 16777215
 74
     1
 91
        4
 64
     7
 65
   257
 75
     1
175
     1
 42
1.0
 92
        9
 66
     7
 43
1.0
 76
     1
 77
     6
 78
     2
 67
     7
 79
     5
170
     0
171
     0
290
     0
174
     0
 93
        1
 44
0.0
173
     0
291
     1
 45
0.0
1001
ACAD
1000
AcDbSavedByObjectVersion
1070
     0
  0
VISUALSTYLE
  5
E4D
102
{ACAD_REACTORS
330
E44
102
}
102
{ACAD_XDICTIONARY
360
E7A
102
}
330
E44
100
AcDbVisualStyle
  2
Realistic
 70
     8
 71
     2
 72
     3
 73
     0
 90
        2
 40
0.6
 41
30.0
 62
     5
 63
     7
421
 16777215
 74
     0
 91
        0
 64
     7
 65
   257
 75
     1
175
     1
 42
1.0
 92
        8
 66
   257
 43
1.0
 76
     1
 77
     6
 78
     2
 67
     7
 79
     3
170
     0
171
     0
290
     0
174
     0
 93
       13
 44
0.0
173
     0
291
     0
 45
0.0
1001
ACAD
1000
AcDbSavedByObjectVersion
1070
     0
  0
VISUALSTYLE
  5
E5C
102
{ACAD_REACTORS
330
E44
102
}
102
{ACAD_XDICTIONARY
360
E98
102
}
330
E44
100
AcDbVisualStyle
  2
Shaded
 70
    27
 71
     2
 72
     2
 73
     1
 90
        2
 40
0.6
 41
30.0
 62
     5
 63
     7
421
 16777215
 74
     0
 91
        4
 64
     7
 65
   257
 75
     1
175
     1
 42
1.0
 92
        8
 66
   257
 43
1.0
 76
     1
 77
     6
 78
     2
 67
     8
425
  7895160
 79
     3
170
     0
171
     0
290
     0
174
     0
 93
        5
 44
0.0
173
     0
291
     0
 45
0.0
1001
ACAD
1000
AcDbSavedByObjectVersion
1070
     0
  0
VISUALSTYLE
  5
E5B
102
{ACAD_REACTORS
330
E44
102
}
102
{ACAD_XDICTIONARY
360
E96
102
}
330
E44
100
AcDbVisualStyle
  2
Shaded with edges
 70
    26
 71
     2
 72
     2
 73
     1
 90
        2
 40
0.6
 41
30.0
 62
     5
 63
     7
421
 16777215
 74
     1
 91
       10
 64
     7
 65
   257
 75
     2
175
     1
 42
1.0
 92
        8
 66
   257
 43
1.0
 76
     1
 77
     6
 78
     2
 67
     7
 79
     3
170
     0
171
     0
290
     0
174
     0
 93
        5
 44
0.0
173
     0
291
     0
 45
0.0
1001
ACAD
1000
AcDbSavedByObjectVersion
1070
     0
  0
VISUALSTYLE
  5
E58
102
{ACAD_REACTORS
330
E44
102
}
102
{ACAD_XDICTIONARY
360
E90
102
}
330
E44
100
AcDbVisualStyle
  2
Shades of Gray
 70
    23
 71
     2
 72
     2
 73
     3
 90
        0
 40
0.6
 41
30.0
 62
     5
 63
     7
421
 16777215
 74
     2
 91
        2
 64
     7
 65
     7
 75
     1
175
     1
 42
40.0
 92
        8
 66
     7
 43
1.0
 76
     1
 77
     6
 78
     2
 67
     7
 79
     3
170
     0
171
     0
290
     0
174
     0
 93
        1
 44
0.0
173
     0
291
     0
 45
0.0
1001
ACAD
1000
AcDbSavedByObjectVersion
1070
     0
  0
VISUALSTYLE
  5
E59
102
{ACAD_REACTORS
330
E44
102
}
102
{ACAD_XDICTIONARY
360
E92
102
}
330
E44
100
AcDbVisualStyle
  2
Sketchy
 70
    24
 71
     1
 72
     2
 73
     2
 90
        0
 40
0.6
 41
30.0
 62
     5
 63
     7
421
 16777215
 74
     2
 91
        2
 64
     7
 65
     7
 75
     1
175
     1
 42
40.0
 92
       11
 66
     7
 43
1.0
 76
     1
 77
     6
 78
     2
 67
     7
 79
     6
170
     0
171
     0
290
     0
174
     0
 93
        1
 44
0.0
173
     0
291
     0
 45
0.0
1001
ACAD
1000
AcDbSavedByObjectVersion
1070
     0
  0
VISUALSTYLE
  5
E51
102
{ACAD_REACTORS
330
E44
102
}
102
{ACAD_XDICTIONARY
360
E82
102
}
330
E44
100
AcDbVisualStyle
  2
Thicken
 70
    13
 71
     2
 72
     2
 73
     0
 90
        0
 40
0.6
 41
30.0
 62
     5
 63
     7
421
 16777215
 74
     1
 91
        4
 64
     7
 65
   257
 75
     1
175
     1
 42
1.0
 92
       12
 66
     7
 43
1.0
 76
     1
 77
     6
 78
     2
 67
     7
 79
     5
170
     0
171
     0
290
     0
174
     0
 93
        1
 44
0.0
173
     0
291
     1
 45
0.0
1001
ACAD
1000
AcDbSavedByObjectVersion
1070
     0
  0
VISUALSTYLE
  5
E4A
102
{ACAD_REACTORS
330
E44
102
}
102
{ACAD_XDICTIONARY
360
E74
102
}
330
E44
100
AcDbVisualStyle
  2
Wireframe
 70
     5
 71
     0
 72
     2
 73
     0
 90
        0
 40
0.6
 41
30.0
 62
     5
 63
     7
421
 16777215
 74
     1
 91
        4
 64
     7
 65
   257
 75
     1
175
     1
 42
1.0
 92
        0
 66
   257
 43
1.0
 76
     1
 77
     6
 78
     2
 67
     7
 79
     3
170
     0
171
     0
290
     0
174
     0
 93
        1
 44
0.0
173
     0
291
     0
 45
0.0
1001
ACAD
1000
AcDbSavedByObjectVersion
1070
     0
  0
VISUALSTYLE
  5
E5A
102
{ACAD_REACTORS
330
E44
102
}
102
{ACAD_XDICTIONARY
360
E94
102
}
330
E44
100
AcDbVisualStyle
  2
X-Ray
 70
    25
 71
     2
 72
     2
 73
     1
 90
        1
 40
0.5
 41
30.0
 62
     5
 63
     7
421
 16777215
 74
     1
 91
        0
 64
     7
 65
   257
 75
     1
175
     1
 42
1.0
 92
        8
 66
     7
 43
1.0
 76
     1
 77
     6
 78
     2
 67
     7
 79
     3
170
     0
171
     0
290
     0
174
     0
 93
       13
 44
0.0
173
     0
291
     0
 45
0.0
1001
ACAD
1000
AcDbSavedByObjectVersion
1070
     0
  0
DICTIONARYVAR
  5
E68
102
{ACAD_REACTORS
330
E67
102
}
330
E67
100
DictionaryVariables
280
     0
  1
1:1
  0
DICTIONARYVAR
  5
EA8
102
{ACAD_REACTORS
330
E67
102
}
330
E67
100
DictionaryVariables
280
     0
  1
Standard
  0
DICTIONARYVAR
  5
EA7
102
{ACAD_REACTORS
330
E67
102
}
330
E67
100
DictionaryVariables
280
     0
  1
Standard
  0
DICTIONARYVAR
  5
EA9
102
{ACAD_REACTORS
330
E67
102
}
330
E67
100
DictionaryVariables
280
     0
  1
0
  0
DICTIONARYVAR
  5
E69
102
{ACAD_REACTORS
330
E67
102
}
330
E67
100
DictionaryVariables
280
     0
  1
2
  0
DICTIONARY
  5
E9C
330
E5F
100
AcDbDictionary
280
     1
281
     1
  3
ACAD_XREC_ROUNDTRIP
360
E9D
  0
DICTIONARY
  5
E9A
330
E5E
100
AcDbDictionary
280
     1
281
     1
  3
ACAD_XREC_ROUNDTRIP
360
E9B
  0
DICTIONARY
  5
E9E
330
E60
100
AcDbDictionary
280
     1
281
     1
  3
ACAD_XREC_ROUNDTRIP
360
E9F
  0
DICTIONARY
  5
EA4
330
E64
100
AcDbDictionary
280
     1
281
     1
  3
ACAD_XREC_ROUNDTRIP
360
EA5
  0
DICTIONARY
  5
EA0
330
E62
100
AcDbDictionary
280
     1
281
     1
  3
ACAD_ROUNDTRIP_2008_TABLESTYLE_CELLSTYLEMAP
360
EA2
  3
ACAD_XREC_ROUNDTRIP
360
EA1
  0
DICTIONARY
  5
E72
330
E49
100
AcDbDictionary
280
     1
281
     1
  3
ACAD_XREC_ROUNDTRIP
360
E73
  0
DICTIONARY
  5
E78
330
E4C
100
AcDbDictionary
280
     1
281
     1
  3
ACAD_XREC_ROUNDTRIP
360
E79
  0
DICTIONARY
  5
E80
330
E50
100
AcDbDictionary
280
     1
281
     1
  3
ACAD_XREC_ROUNDTRIP
360
E81
  0
DICTIONARY
  5
E88
330
E54
100
AcDbDictionary
280
     1
281
     1
  3
ACAD_XREC_ROUNDTRIP
360
E89
  0
DICTIONARY
  5
E7C
330
E4E
100
AcDbDictionary
280
     1
281
     1
  3
ACAD_XREC_ROUNDTRIP
360
E7D
  0
DICTIONARY
  5
E7E
330
E4F
100
AcDbDictionary
280
     1
281
     1
  3
ACAD_XREC_ROUNDTRIP
360
E7F
  0
DICTIONARY
  5
E8E
330
E57
100
AcDbDictionary
280
     1
281
     1
  3
ACAD_XREC_ROUNDTRIP
360
E8F
  0
DICTIONARY
  5
E86
330
E53
100
AcDbDictionary
280
     1
281
     1
  3
ACAD_XREC_ROUNDTRIP
360
E87
  0
DICTIONARY
  5
E6A
330
E45
100
AcDbDictionary
280
     1
281
     1
  3
ACAD_XREC_ROUNDTRIP
360
E6B
  0
DICTIONARY
  5
E6C
330
E46
100
AcDbDictionary
280
     1
281
     1
  3
ACAD_XREC_ROUNDTRIP
360
E6D
  0
DICTIONARY
  5
E6E
330
E47
100
AcDbDictionary
280
     1
281
     1
  3
ACAD_XREC_ROUNDTRIP
360
E6F
  0
DICTIONARY
  5
E70
330
E48
100
AcDbDictionary
280
     1
281
     1
  3
ACAD_XREC_ROUNDTRIP
360
E71
  0
DICTIONARY
  5
E76
330
E4B
100
AcDbDictionary
280
     1
281
     1
  3
ACAD_XREC_ROUNDTRIP
360
E77
  0
DICTIONARY
  5
E8A
330
E55
100
AcDbDictionary
280
     1
281
     1
  3
ACAD_XREC_ROUNDTRIP
360
E8B
  0
DICTIONARY
  5
E84
330
E52
100
AcDbDictionary
280
     1
281
     1
  3
ACAD_XREC_ROUNDTRIP
360
E85
  0
DICTIONARY
  5
E8C
330
E56
100
AcDbDictionary
280
     1
281
     1
  3
ACAD_XREC_ROUNDTRIP
360
E8D
  0
DICTIONARY
  5
E7A
330
E4D
100
AcDbDictionary
280
     1
281
     1
  3
ACAD_XREC_ROUNDTRIP
360
E7B
  0
DICTIONARY
  5
E98
330
E5C
100
AcDbDictionary
280
     1
281
     1
  3
ACAD_XREC_ROUNDTRIP
360
E99
  0
DICTIONARY
  5
E96
330
E5B
100
AcDbDictionary
280
     1
281
     1
  3
ACAD_XREC_ROUNDTRIP
360
E97
  0
DICTIONARY
  5
E90
330
E58
100
AcDbDictionary
280
     1
281
     1
  3
ACAD_XREC_ROUNDTRIP
360
E91
  0
DICTIONARY
  5
E92
330
E59
100
AcDbDictionary
280
     1
281
     1
  3
ACAD_XREC_ROUNDTRIP
360
E93
  0
DICTIONARY
  5
E82
330
E51
100
AcDbDictionary
280
     1
281
     1
  3
ACAD_XREC_ROUNDTRIP
360
E83
  0
DICTIONARY
  5
E74
330
E4A
100
AcDbDictionary
280
     1
281
     1
  3
ACAD_XREC_ROUNDTRIP
360
E75
  0
DICTIONARY
  5
E94
330
E5A
100
AcDbDictionary
280
     1
281
     1
  3
ACAD_XREC_ROUNDTRIP
360
E95
  0
XRECORD
  5
E9D
102
{ACAD_REACTORS
330
E9C
102
}
330
E9C
100
AcDbXrecord
280
     1
102
MATERIAL
148
0.0
149
0.0
149
0.0
 93
        0
 94
      127
282
     0
 72
     1
 77
     1
171
     1
175
     1
179
     1
273
     0
  0
XRECORD
  5
E9B
102
{ACAD_REACTORS
330
E9A
102
}
330
E9A
100
AcDbXrecord
280
     1
102
MATERIAL
148
0.0
149
0.0
149
0.0
 93
        0
 94
      127
282
     0
 72
     1
 77
     1
171
     1
175
     1
179
     1
273
     0
  0
XRECORD
  5
E9F
102
{ACAD_REACTORS
330
E9E
102
}
330
E9E
100
AcDbXrecord
280
     1
102
MATERIAL
148
0.0
149
0.0
149
0.0
 93
        0
 94
      127
282
     0
 72
     1
 77
     1
171
     1
175
     1
179
     1
273
     0
  0
XRECORD
  5
EA5
102
{ACAD_REACTORS
330
EA4
102
}
330
EA4
100
AcDbXrecord
280
     1
102
ACAD_ROUNDTRIP_2010_MLEADER_STYLE
  0
CELLSTYLEMAP
  5
EA2
102
{ACAD_REACTORS
330
EA0
102
}
330
EA0
100
AcDbCellStyleMap
 90
        3
300
CELLSTYLE
  1
TABLEFORMAT_BEGIN
 90
        5
170
     1
 91
        0
 92
    32768
 62
   257
 93
        1
300
CONTENTFORMAT
  1
CONTENTFORMAT_BEGIN
 90
        0
 91
        0
 92
        4
 93
        0
300

 40
0.0
140
1.0
 94
        5
 62
     0
340
11
144
0.25
309
CONTENTFORMAT_END
171
     1
301
MARGIN
  1
CELLMARGIN_BEGIN
 40
0.06
 40
0.06
 40
0.06
 40
0.06
 40
0.06
 40
0.06
309
CELLMARGIN_END
 94
        6
 95
        1
302
GRIDFORMAT
  1
GRIDFORMAT_BEGIN
 90
        0
 91
        1
 62
     0
 92
       -2
340
14
 93
        0
 40
0.045
309
GRIDFORMAT_END
 95
        2
302
GRIDFORMAT
  1
GRIDFORMAT_BEGIN
 90
        0
 91
        1
 62
     0
 92
       -2
340
14
 93
        0
 40
0.045
309
GRIDFORMAT_END
 95
        4
302
GRIDFORMAT
  1
GRIDFORMAT_BEGIN
 90
        0
 91
        1
 62
     0
 92
       -2
340
14
 93
        0
 40
0.045
309
GRIDFORMAT_END
 95
        8
302
GRIDFORMAT
  1
GRIDFORMAT_BEGIN
 90
        0
 91
        1
 62
     0
 92
       -2
340
14
 93
        0
 40
0.045
309
GRIDFORMAT_END
 95
       16
302
GRIDFORMAT
  1
GRIDFORMAT_BEGIN
 90
        0
 91
        1
 62
     0
 92
       -2
340
14
 93
        0
 40
0.045
309
GRIDFORMAT_END
 95
       32
302
GRIDFORMAT
  1
GRIDFORMAT_BEGIN
 90
        0
 91
        1
 62
     0
 92
       -2
340
14
 93
        0
 40
0.045
309
GRIDFORMAT_END
309
TABLEFORMAT_END
  1
CELLSTYLE_BEGIN
 90
        1
 91
        1
300
_TITLE
309
CELLSTYLE_END
300
CELLSTYLE
  1
TABLEFORMAT_BEGIN
 90
        5
170
     1
 91
        0
 92
        0
 62
   257
 93
        1
300
CONTENTFORMAT
  1
CONTENTFORMAT_BEGIN
 90
        0
 91
        0
 92
        4
 93
        0
300

 40
0.0
140
1.0
 94
        5
 62
     0
340
11
144
0.18
309
CONTENTFORMAT_END
171
     1
301
MARGIN
  1
CELLMARGIN_BEGIN
 40
0.06
 40
0.06
 40
0.06
 40
0.06
 40
0.06
 40
0.06
309
CELLMARGIN_END
 94
        6
 95
        1
302
GRIDFORMAT
  1
GRIDFORMAT_BEGIN
 90
        0
 91
        1
 62
     0
 92
       -2
340
14
 93
        0
 40
0.045
309
GRIDFORMAT_END
 95
        2
302
GRIDFORMAT
  1
GRIDFORMAT_BEGIN
 90
        0
 91
        1
 62
     0
 92
       -2
340
14
 93
        0
 40
0.045
309
GRIDFORMAT_END
 95
        4
302
GRIDFORMAT
  1
GRIDFORMAT_BEGIN
 90
        0
 91
        1
 62
     0
 92
       -2
340
14
 93
        0
 40
0.045
309
GRIDFORMAT_END
 95
        8
302
GRIDFORMAT
  1
GRIDFORMAT_BEGIN
 90
        0
 91
        1
 62
     0
 92
       -2
340
14
 93
        0
 40
0.045
309
GRIDFORMAT_END
 95
       16
302
GRIDFORMAT
  1
GRIDFORMAT_BEGIN
 90
        0
 91
        1
 62
     0
 92
       -2
340
14
 93
        0
 40
0.045
309
GRIDFORMAT_END
 95
       32
302
GRIDFORMAT
  1
GRIDFORMAT_BEGIN
 90
        0
 91
        1
 62
     0
 92
       -2
340
14
 93
        0
 40
0.045
309
GRIDFORMAT_END
309
TABLEFORMAT_END
  1
CELLSTYLE_BEGIN
 90
        2
 91
        1
300
_HEADER
309
CELLSTYLE_END
300
CELLSTYLE
  1
TABLEFORMAT_BEGIN
 90
        5
170
     1
 91
        0
 92
        0
 62
   257
 93
        1
300
CONTENTFORMAT
  1
CONTENTFORMAT_BEGIN
 90
        0
 91
        0
 92
        4
 93
        0
300

 40
0.0
140
1.0
 94
        2
 62
     0
340
11
144
0.18
309
CONTENTFORMAT_END
171
     1
301
MARGIN
  1
CELLMARGIN_BEGIN
 40
0.06
 40
0.06
 40
0.06
 40
0.06
 40
0.06
 40
0.06
309
CELLMARGIN_END
 94
        6
 95
        1
302
GRIDFORMAT
  1
GRIDFORMAT_BEGIN
 90
        0
 91
        1
 62
     0
 92
       -2
340
14
 93
        0
 40
0.045
309
GRIDFORMAT_END
 95
        2
302
GRIDFORMAT
  1
GRIDFORMAT_BEGIN
 90
        0
 91
        1
 62
     0
 92
       -2
340
14
 93
        0
 40
0.045
309
GRIDFORMAT_END
 95
        4
302
GRIDFORMAT
  1
GRIDFORMAT_BEGIN
 90
        0
 91
        1
 62
     0
 92
       -2
340
14
 93
        0
 40
0.045
309
GRIDFORMAT_END
 95
        8
302
GRIDFORMAT
  1
GRIDFORMAT_BEGIN
 90
        0
 91
        1
 62
     0
 92
       -2
340
14
 93
        0
 40
0.045
309
GRIDFORMAT_END
 95
       16
302
GRIDFORMAT
  1
GRIDFORMAT_BEGIN
 90
        0
 91
        1
 62
     0
 92
       -2
340
14
 93
        0
 40
0.045
309
GRIDFORMAT_END
 95
       32
302
GRIDFORMAT
  1
GRIDFORMAT_BEGIN
 90
        0
 91
        1
 62
     0
 92
       -2
340
14
 93
        0
 40
0.045
309
GRIDFORMAT_END
309
TABLEFORMAT_END
  1
CELLSTYLE_BEGIN
 90
        3
 91
        2
300
_DATA
309
CELLSTYLE_END
  0
XRECORD
  5
EA1
102
{ACAD_REACTORS
330
EA0
102
}
330
EA0
100
AcDbXrecord
280
     1
102
ACAD_ROUNDTRIP_PRE2007_TABLESTYLE
 90
        4
 91
        0
  1

 92
        4
 93
        0
  2

 94
        4
 95
        0
  3

  0
XRECORD
  5
E73
102
{ACAD_REACTORS
330
E72
102
}
330
E72
100
AcDbXrecord
280
     1
102
RTVSPropertyOp0
 70
     1
102
RTVSPropertyOp1
 70
     1
102
RTVSPropertyOp2
 70
     1
102
RTVSPropertyOp3
 70
     1
102
RTVSPropertyOp4
 70
     1
102
RTVSPropertyOp5
 70
     1
102
RTVSPropertyOp6
 70
     1
102
RTVSPropertyOp7
 70
     1
102
RTVSPropertyOp8
 70
     1
102
RTVSPropertyOp9
 70
     1
102
RTVSPropertyOp10
 70
     1
102
RTVSPropertyOp11
 70
     1
102
RTVSPropertyOp12
 70
     1
102
RTVSPropertyOp13
 70
     1
102
RTVSPropertyOp14
 70
     1
102
RTVSPropertyOp15
 70
     1
102
RTVSPropertyOp16
 70
     1
102
RTVSPropertyOp17
 70
     1
102
RTVSPropertyOp18
 70
     1
102
RTVSPropertyOp19
 70
     1
102
RTVSPropertyOp20
 70
     1
102
RTVSPropertyOp21
 70
     1
102
RTVSPropertyOp22
 70
     1
102
RTVSPropertyOp23
 70
     1
102
RTVSPropertyOp24
 70
     1
102
RTVSPropertyOp25
 70
     1
102
RTVSPropertyOp26
 70
     1
102
RTVSPropertyOp27
 70
     1
102
RTVSPropertyOp28
 70
     1
102
RTVSPropertyOp29
 70
     1
102
RTVSPropertyOp30
 70
     1
102
RTVSPropertyOp31
 70
     1
102
RTVSPropertyOp32
 70
     1
102
RTVSPropertyOp33
 70
     1
102
RTVSPropertyOp34
 70
     1
102
RTVSPropertyOp35
 70
     1
102
RTVSPropertyOp36
 70
     1
102
RTVSPropertyOp37
 70
     1
102
RTVSPropertyOp38
 70
     1
102
RTVSPropertyOp39
 70
     1
102
RTVSPropertyOp40
 70
     1
102
RTVSPropertyOp41
 70
     1
102
RTVSPropertyOp42
 70
     1
102
RTVSPropertyOp43
 70
     1
102
RTVSPropertyOp44
 70
     1
102
RTVSPropertyOp45
 70
     1
102
RTVSPropertyOp46
 70
     1
102
RTVSPropertyOp47
 70
     1
102
RTVSPropertyOp48
 70
     1
102
RTVSPropertyOp49
 70
     1
102
RTVSPropertyOp50
 70
     1
102
RTVSPropertyOp51
 70
     0
102
RTVSPropertyOp52
 70
     0
102
RTVSPropertyOp53
 70
     1
102
RTVSPropertyOp54
 70
     1
102
RTVSPropertyOp55
 70
     1
102
RTVSPropertyOp56
 70
     1
102
RTVSPropertyOp57
 70
     1
102
RTVSPost2010Prop28
280
     1
102
RTVSPost2010PropOp28
 70
     1
102
RTVSPost2010Prop29
280
     1
102
RTVSPost2010PropOp29
 70
     1
102
RTVSPost2010Prop30
280
     0
102
RTVSPost2010PropOp30
 70
     1
102
RTVSPost2010Prop31
280
     0
102
RTVSPost2010PropOp31
 70
     1
102
RTVSPost2010Prop32
280
     0
102
RTVSPost2010PropOp32
 70
     1
102
RTVSPost2010Prop33
280
     0
102
RTVSPost2010PropOp33
 70
     1
102
RTVSPost2010Prop34
280
     0
102
RTVSPost2010PropOp34
 70
     1
102
RTVSPost2010Prop35
280
     0
102
RTVSPost2010PropOp35
 70
     1
102
RTVSPost2010Prop36
280
     0
102
RTVSPost2010PropOp36
 70
     1
102
RTVSPost2010Prop37
 90
       50
102
RTVSPost2010PropOp37
 70
     1
102
RTVSPost2010Prop38
140
0.0
102
RTVSPost2010PropOp38
 70
     1
102
RTVSPost2010Prop39
140
1.0
102
RTVSPost2010PropOp39
 70
     1
102
RTVSPost2010Prop40
 90
        0
102
RTVSPost2010PropOp40
 70
     1
102
RTVSPost2010Prop41ColorIndex
 90
       18
102
RTVSPost2010Prop41ColorRGB
 90
        0
102
RTVSPost2010PropOp41
 70
     1
102
RTVSPost2010Prop42
 90
       50
102
RTVSPost2010PropOp42
 70
     1
102
RTVSPost2010Prop43
 90
        3
102
RTVSPost2010PropOp43
 70
     1
102
RTVSPost2010Prop44ColorIndex
 90
        5
102
RTVSPost2010Prop44ColorRGB
 90
      255
102
RTVSPost2010PropOp44
 70
     1
102
RTVSPost2010Prop45
280
     0
102
RTVSPost2010PropOp45
 70
     1
102
RTVSPost2010Prop46
 90
       50
102
RTVSPost2010PropOp46
 70
     1
102
RTVSPost2010Prop47
 90
       50
102
RTVSPost2010PropOp47
 70
     1
102
RTVSPost2010Prop48
 90
       50
102
RTVSPost2010PropOp48
 70
     1
102
RTVSPost2010Prop49
280
     0
102
RTVSPost2010PropOp49
 70
     1
102
RTVSPost2010Prop50
 90
       50
102
RTVSPost2010PropOp50
 70
     1
102
RTVSPost2010Prop51ColorIndex
 90
      256
102
RTVSPost2010Prop51ColorRGB
 90
-16777216
102
RTVSPost2010PropOp51
 70
     0
102
RTVSPost2010Prop52
140
1.0
102
RTVSPost2010PropOp52
 70
     0
102
RTVSPost2010Prop53
 90
        2
102
RTVSPost2010PropOp53
 70
     1
102
RTVSPost2010Prop54
  1
strokes_ogs.tif
102
RTVSPost2010PropOp54
 70
     1
102
RTVSPost2010Prop55
280
     0
102
RTVSPost2010PropOp55
 70
     1
102
RTVSPost2010Prop56
140
1.0
102
RTVSPost2010PropOp56
 70
     1
102
RTVSPost2010Prop57
140
1.0
102
RTVSPost2010PropOp57
 70
     1
  0
XRECORD
  5
E79
102
{ACAD_REACTORS
330
E78
102
}
330
E78
100
AcDbXrecord
280
     1
102
RTVSPropertyOp0
 70
     1
102
RTVSPropertyOp1
 70
     1
102
RTVSPropertyOp2
 70
     1
102
RTVSPropertyOp3
 70
     1
102
RTVSPropertyOp4
 70
     1
102
RTVSPropertyOp5
 70
     1
102
RTVSPropertyOp6
 70
     1
102
RTVSPropertyOp7
 70
     1
102
RTVSPropertyOp8
 70
     1
102
RTVSPropertyOp9
 70
     1
102
RTVSPropertyOp10
 70
     1
102
RTVSPropertyOp11
 70
     1
102
RTVSPropertyOp12
 70
     1
102
RTVSPropertyOp13
 70
     1
102
RTVSPropertyOp14
 70
     1
102
RTVSPropertyOp15
 70
     1
102
RTVSPropertyOp16
 70
     1
102
RTVSPropertyOp17
 70
     1
102
RTVSPropertyOp18
 70
     1
102
RTVSPropertyOp19
 70
     1
102
RTVSPropertyOp20
 70
     1
102
RTVSPropertyOp21
 70
     1
102
RTVSPropertyOp22
 70
     1
102
RTVSPropertyOp23
 70
     1
102
RTVSPropertyOp24
 70
     1
102
RTVSPropertyOp25
 70
     1
102
RTVSPropertyOp26
 70
     1
102
RTVSPropertyOp27
 70
     1
102
RTVSPropertyOp28
 70
     1
102
RTVSPropertyOp29
 70
     1
102
RTVSPropertyOp30
 70
     1
102
RTVSPropertyOp31
 70
     1
102
RTVSPropertyOp32
 70
     1
102
RTVSPropertyOp33
 70
     1
102
RTVSPropertyOp34
 70
     1
102
RTVSPropertyOp35
 70
     1
102
RTVSPropertyOp36
 70
     1
102
RTVSPropertyOp37
 70
     1
102
RTVSPropertyOp38
 70
     1
102
RTVSPropertyOp39
 70
     1
102
RTVSPropertyOp40
 70
     1
102
RTVSPropertyOp41
 70
     1
102
RTVSPropertyOp42
 70
     1
102
RTVSPropertyOp43
 70
     1
102
RTVSPropertyOp44
 70
     1
102
RTVSPropertyOp45
 70
     1
102
RTVSPropertyOp46
 70
     1
102
RTVSPropertyOp47
 70
     1
102
RTVSPropertyOp48
 70
     1
102
RTVSPropertyOp49
 70
     1
102
RTVSPropertyOp50
 70
     1
102
RTVSPropertyOp51
 70
     0
102
RTVSPropertyOp52
 70
     0
102
RTVSPropertyOp53
 70
     1
102
RTVSPropertyOp54
 70
     1
102
RTVSPropertyOp55
 70
     1
102
RTVSPropertyOp56
 70
     1
102
RTVSPropertyOp57
 70
     1
102
RTVSPost2010Prop28
280
     0
102
RTVSPost2010PropOp28
 70
     1
102
RTVSPost2010Prop29
280
     1
102
RTVSPost2010PropOp29
 70
     1
102
RTVSPost2010Prop30
280
     1
102
RTVSPost2010PropOp30
 70
     1
102
RTVSPost2010Prop31
280
     0
102
RTVSPost2010PropOp31
 70
     1
102
RTVSPost2010Prop32
280
     0
102
RTVSPost2010PropOp32
 70
     1
102
RTVSPost2010Prop33
280
     0
102
RTVSPost2010PropOp33
 70
     1
102
RTVSPost2010Prop34
280
     0
102
RTVSPost2010PropOp34
 70
     1
102
RTVSPost2010Prop35
280
     0
102
RTVSPost2010PropOp35
 70
     1
102
RTVSPost2010Prop36
280
     0
102
RTVSPost2010PropOp36
 70
     1
102
RTVSPost2010Prop37
 90
       50
102
RTVSPost2010PropOp37
 70
     1
102
RTVSPost2010Prop38
140
0.0
102
RTVSPost2010PropOp38
 70
     1
102
RTVSPost2010Prop39
140
1.0
102
RTVSPost2010PropOp39
 70
     1
102
RTVSPost2010Prop40
 90
        0
102
RTVSPost2010PropOp40
 70
     1
102
RTVSPost2010Prop41ColorIndex
 90
       18
102
RTVSPost2010Prop41ColorRGB
 90
        0
102
RTVSPost2010PropOp41
 70
     1
102
RTVSPost2010Prop42
 90
       50
102
RTVSPost2010PropOp42
 70
     1
102
RTVSPost2010Prop43
 90
        3
102
RTVSPost2010PropOp43
 70
     1
102
RTVSPost2010Prop44ColorIndex
 90
        5
102
RTVSPost2010Prop44ColorRGB
 90
      255
102
RTVSPost2010PropOp44
 70
     1
102
RTVSPost2010Prop45
280
     0
102
RTVSPost2010PropOp45
 70
     1
102
RTVSPost2010Prop46
 90
       50
102
RTVSPost2010PropOp46
 70
     1
102
RTVSPost2010Prop47
 90
       50
102
RTVSPost2010PropOp47
 70
     1
102
RTVSPost2010Prop48
 90
       50
102
RTVSPost2010PropOp48
 70
     1
102
RTVSPost2010Prop49
280
     0
102
RTVSPost2010PropOp49
 70
     1
102
RTVSPost2010Prop50
 90
       50
102
RTVSPost2010PropOp50
 70
     1
102
RTVSPost2010Prop51ColorIndex
 90
      256
102
RTVSPost2010Prop51ColorRGB
 90
-16777216
102
RTVSPost2010PropOp51
 70
     0
102
RTVSPost2010Prop52
140
1.0
102
RTVSPost2010PropOp52
 70
     0
102
RTVSPost2010Prop53
 90
        2
102
RTVSPost2010PropOp53
 70
     1
102
RTVSPost2010Prop54
  1
strokes_ogs.tif
102
RTVSPost2010PropOp54
 70
     1
102
RTVSPost2010Prop55
280
     0
102
RTVSPost2010PropOp55
 70
     1
102
RTVSPost2010Prop56
140
1.0
102
RTVSPost2010PropOp56
 70
     1
102
RTVSPost2010Prop57
140
1.0
102
RTVSPost2010PropOp57
 70
     1
  0
XRECORD
  5
E81
102
{ACAD_REACTORS
330
E80
102
}
330
E80
100
AcDbXrecord
280
     1
102
RTVSPropertyOp0
 70
     1
102
RTVSPropertyOp1
 70
     1
102
RTVSPropertyOp2
 70
     1
102
RTVSPropertyOp3
 70
     1
102
RTVSPropertyOp4
 70
     1
102
RTVSPropertyOp5
 70
     1
102
RTVSPropertyOp6
 70
     1
102
RTVSPropertyOp7
 70
     1
102
RTVSPropertyOp8
 70
     1
102
RTVSPropertyOp9
 70
     1
102
RTVSPropertyOp10
 70
     1
102
RTVSPropertyOp11
 70
     1
102
RTVSPropertyOp12
 70
     1
102
RTVSPropertyOp13
 70
     1
102
RTVSPropertyOp14
 70
     1
102
RTVSPropertyOp15
 70
     1
102
RTVSPropertyOp16
 70
     1
102
RTVSPropertyOp17
 70
     1
102
RTVSPropertyOp18
 70
     1
102
RTVSPropertyOp19
 70
     1
102
RTVSPropertyOp20
 70
     1
102
RTVSPropertyOp21
 70
     1
102
RTVSPropertyOp22
 70
     1
102
RTVSPropertyOp23
 70
     1
102
RTVSPropertyOp24
 70
     1
102
RTVSPropertyOp25
 70
     1
102
RTVSPropertyOp26
 70
     1
102
RTVSPropertyOp27
 70
     1
102
RTVSPropertyOp28
 70
     1
102
RTVSPropertyOp29
 70
     1
102
RTVSPropertyOp30
 70
     1
102
RTVSPropertyOp31
 70
     1
102
RTVSPropertyOp32
 70
     1
102
RTVSPropertyOp33
 70
     1
102
RTVSPropertyOp34
 70
     1
102
RTVSPropertyOp35
 70
     1
102
RTVSPropertyOp36
 70
     1
102
RTVSPropertyOp37
 70
     1
102
RTVSPropertyOp38
 70
     1
102
RTVSPropertyOp39
 70
     1
102
RTVSPropertyOp40
 70
     1
102
RTVSPropertyOp41
 70
     1
102
RTVSPropertyOp42
 70
     1
102
RTVSPropertyOp43
 70
     1
102
RTVSPropertyOp44
 70
     1
102
RTVSPropertyOp45
 70
     1
102
RTVSPropertyOp46
 70
     1
102
RTVSPropertyOp47
 70
     1
102
RTVSPropertyOp48
 70
     1
102
RTVSPropertyOp49
 70
     1
102
RTVSPropertyOp50
 70
     1
102
RTVSPropertyOp51
 70
     0
102
RTVSPropertyOp52
 70
     0
102
RTVSPropertyOp53
 70
     1
102
RTVSPropertyOp54
 70
     1
102
RTVSPropertyOp55
 70
     1
102
RTVSPropertyOp56
 70
     1
102
RTVSPropertyOp57
 70
     1
102
RTVSPost2010Prop28
280
     0
102
RTVSPost2010PropOp28
 70
     1
102
RTVSPost2010Prop29
280
     1
102
RTVSPost2010PropOp29
 70
     1
102
RTVSPost2010Prop30
280
     1
102
RTVSPost2010PropOp30
 70
     1
102
RTVSPost2010Prop31
280
     0
102
RTVSPost2010PropOp31
 70
     1
102
RTVSPost2010Prop32
280
     0
102
RTVSPost2010PropOp32
 70
     1
102
RTVSPost2010Prop33
280
     0
102
RTVSPost2010PropOp33
 70
     1
102
RTVSPost2010Prop34
280
     0
102
RTVSPost2010PropOp34
 70
     1
102
RTVSPost2010Prop35
280
     0
102
RTVSPost2010PropOp35
 70
     1
102
RTVSPost2010Prop36
280
     0
102
RTVSPost2010PropOp36
 70
     1
102
RTVSPost2010Prop37
 90
       50
102
RTVSPost2010PropOp37
 70
     1
102
RTVSPost2010Prop38
140
0.0
102
RTVSPost2010PropOp38
 70
     1
102
RTVSPost2010Prop39
140
1.0
102
RTVSPost2010PropOp39
 70
     1
102
RTVSPost2010Prop40
 90
        0
102
RTVSPost2010PropOp40
 70
     1
102
RTVSPost2010Prop41ColorIndex
 90
       18
102
RTVSPost2010Prop41ColorRGB
 90
        0
102
RTVSPost2010PropOp41
 70
     1
102
RTVSPost2010Prop42
 90
       50
102
RTVSPost2010PropOp42
 70
     1
102
RTVSPost2010Prop43
 90
        3
102
RTVSPost2010PropOp43
 70
     1
102
RTVSPost2010Prop44ColorIndex
 90
        5
102
RTVSPost2010Prop44ColorRGB
 90
      255
102
RTVSPost2010PropOp44
 70
     1
102
RTVSPost2010Prop45
280
     0
102
RTVSPost2010PropOp45
 70
     1
102
RTVSPost2010Prop46
 90
       50
102
RTVSPost2010PropOp46
 70
     1
102
RTVSPost2010Prop47
 90
       50
102
RTVSPost2010PropOp47
 70
     1
102
RTVSPost2010Prop48
 90
       50
102
RTVSPost2010PropOp48
 70
     1
102
RTVSPost2010Prop49
280
     0
102
RTVSPost2010PropOp49
 70
     1
102
RTVSPost2010Prop50
 90
       50
102
RTVSPost2010PropOp50
 70
     1
102
RTVSPost2010Prop51ColorIndex
 90
      256
102
RTVSPost2010Prop51ColorRGB
 90
-16777216
102
RTVSPost2010PropOp51
 70
     0
102
RTVSPost2010Prop52
140
1.0
102
RTVSPost2010PropOp52
 70
     0
102
RTVSPost2010Prop53
 90
        2
102
RTVSPost2010PropOp53
 70
     1
102
RTVSPost2010Prop54
  1
strokes_ogs.tif
102
RTVSPost2010PropOp54
 70
     1
102
RTVSPost2010Prop55
280
     0
102
RTVSPost2010PropOp55
 70
     1
102
RTVSPost2010Prop56
140
1.0
102
RTVSPost2010PropOp56
 70
     1
102
RTVSPost2010Prop57
140
1.0
102
RTVSPost2010PropOp57
 70
     1
  0
XRECORD
  5
E89
102
{ACAD_REACTORS
330
E88
102
}
330
E88
100
AcDbXrecord
280
     1
102
RTVSPropertyOp0
 70
     1
102
RTVSPropertyOp1
 70
     1
102
RTVSPropertyOp2
 70
     1
102
RTVSPropertyOp3
 70
     1
102
RTVSPropertyOp4
 70
     1
102
RTVSPropertyOp5
 70
     1
102
RTVSPropertyOp6
 70
     1
102
RTVSPropertyOp7
 70
     1
102
RTVSPropertyOp8
 70
     1
102
RTVSPropertyOp9
 70
     1
102
RTVSPropertyOp10
 70
     1
102
RTVSPropertyOp11
 70
     1
102
RTVSPropertyOp12
 70
     1
102
RTVSPropertyOp13
 70
     1
102
RTVSPropertyOp14
 70
     1
102
RTVSPropertyOp15
 70
     1
102
RTVSPropertyOp16
 70
     1
102
RTVSPropertyOp17
 70
     1
102
RTVSPropertyOp18
 70
     1
102
RTVSPropertyOp19
 70
     1
102
RTVSPropertyOp20
 70
     1
102
RTVSPropertyOp21
 70
     1
102
RTVSPropertyOp22
 70
     1
102
RTVSPropertyOp23
 70
     1
102
RTVSPropertyOp24
 70
     1
102
RTVSPropertyOp25
 70
     1
102
RTVSPropertyOp26
 70
     1
102
RTVSPropertyOp27
 70
     1
102
RTVSPropertyOp28
 70
     1
102
RTVSPropertyOp29
 70
     1
102
RTVSPropertyOp30
 70
     1
102
RTVSPropertyOp31
 70
     1
102
RTVSPropertyOp32
 70
     1
102
RTVSPropertyOp33
 70
     1
102
RTVSPropertyOp34
 70
     1
102
RTVSPropertyOp35
 70
     1
102
RTVSPropertyOp36
 70
     1
102
RTVSPropertyOp37
 70
     1
102
RTVSPropertyOp38
 70
     1
102
RTVSPropertyOp39
 70
     1
102
RTVSPropertyOp40
 70
     1
102
RTVSPropertyOp41
 70
     1
102
RTVSPropertyOp42
 70
     1
102
RTVSPropertyOp43
 70
     1
102
RTVSPropertyOp44
 70
     1
102
RTVSPropertyOp45
 70
     1
102
RTVSPropertyOp46
 70
     1
102
RTVSPropertyOp47
 70
     1
102
RTVSPropertyOp48
 70
     1
102
RTVSPropertyOp49
 70
     1
102
RTVSPropertyOp50
 70
     1
102
RTVSPropertyOp51
 70
     0
102
RTVSPropertyOp52
 70
     0
102
RTVSPropertyOp53
 70
     1
102
RTVSPropertyOp54
 70
     1
102
RTVSPropertyOp55
 70
     1
102
RTVSPropertyOp56
 70
     1
102
RTVSPropertyOp57
 70
     1
102
RTVSPost2010Prop28
280
     0
102
RTVSPost2010PropOp28
 70
     1
102
RTVSPost2010Prop29
280
     1
102
RTVSPost2010PropOp29
 70
     1
102
RTVSPost2010Prop30
280
     1
102
RTVSPost2010PropOp30
 70
     1
102
RTVSPost2010Prop31
280
     0
102
RTVSPost2010PropOp31
 70
     1
102
RTVSPost2010Prop32
280
     0
102
RTVSPost2010PropOp32
 70
     1
102
RTVSPost2010Prop33
280
     0
102
RTVSPost2010PropOp33
 70
     1
102
RTVSPost2010Prop34
280
     0
102
RTVSPost2010PropOp34
 70
     1
102
RTVSPost2010Prop35
280
     0
102
RTVSPost2010PropOp35
 70
     1
102
RTVSPost2010Prop36
280
     0
102
RTVSPost2010PropOp36
 70
     1
102
RTVSPost2010Prop37
 90
       50
102
RTVSPost2010PropOp37
 70
     1
102
RTVSPost2010Prop38
140
0.0
102
RTVSPost2010PropOp38
 70
     1
102
RTVSPost2010Prop39
140
1.0
102
RTVSPost2010PropOp39
 70
     1
102
RTVSPost2010Prop40
 90
        0
102
RTVSPost2010PropOp40
 70
     1
102
RTVSPost2010Prop41ColorIndex
 90
       18
102
RTVSPost2010Prop41ColorRGB
 90
        0
102
RTVSPost2010PropOp41
 70
     1
102
RTVSPost2010Prop42
 90
       50
102
RTVSPost2010PropOp42
 70
     1
102
RTVSPost2010Prop43
 90
        3
102
RTVSPost2010PropOp43
 70
     1
102
RTVSPost2010Prop44ColorIndex
 90
        5
102
RTVSPost2010Prop44ColorRGB
 90
      255
102
RTVSPost2010PropOp44
 70
     1
102
RTVSPost2010Prop45
280
     0
102
RTVSPost2010PropOp45
 70
     1
102
RTVSPost2010Prop46
 90
       50
102
RTVSPost2010PropOp46
 70
     1
102
RTVSPost2010Prop47
 90
       50
102
RTVSPost2010PropOp47
 70
     1
102
RTVSPost2010Prop48
 90
       50
102
RTVSPost2010PropOp48
 70
     1
102
RTVSPost2010Prop49
280
     0
102
RTVSPost2010PropOp49
 70
     1
102
RTVSPost2010Prop50
 90
       50
102
RTVSPost2010PropOp50
 70
     1
102
RTVSPost2010Prop51ColorIndex
 90
      256
102
RTVSPost2010Prop51ColorRGB
 90
-16777216
102
RTVSPost2010PropOp51
 70
     0
102
RTVSPost2010Prop52
140
1.0
102
RTVSPost2010PropOp52
 70
     0
102
RTVSPost2010Prop53
 90
        2
102
RTVSPost2010PropOp53
 70
     1
102
RTVSPost2010Prop54
  1
strokes_ogs.tif
102
RTVSPost2010PropOp54
 70
     1
102
RTVSPost2010Prop55
280
     0
102
RTVSPost2010PropOp55
 70
     1
102
RTVSPost2010Prop56
140
1.0
102
RTVSPost2010PropOp56
 70
     1
102
RTVSPost2010Prop57
140
1.0
102
RTVSPost2010PropOp57
 70
     1
  0
XRECORD
  5
E7D
102
{ACAD_REACTORS
330
E7C
102
}
330
E7C
100
AcDbXrecord
280
     1
102
RTVSPropertyOp0
 70
     1
102
RTVSPropertyOp1
 70
     1
102
RTVSPropertyOp2
 70
     1
102
RTVSPropertyOp3
 70
     1
102
RTVSPropertyOp4
 70
     1
102
RTVSPropertyOp5
 70
     1
102
RTVSPropertyOp6
 70
     1
102
RTVSPropertyOp7
 70
     1
102
RTVSPropertyOp8
 70
     1
102
RTVSPropertyOp9
 70
     1
102
RTVSPropertyOp10
 70
     1
102
RTVSPropertyOp11
 70
     1
102
RTVSPropertyOp12
 70
     1
102
RTVSPropertyOp13
 70
     1
102
RTVSPropertyOp14
 70
     1
102
RTVSPropertyOp15
 70
     1
102
RTVSPropertyOp16
 70
     1
102
RTVSPropertyOp17
 70
     1
102
RTVSPropertyOp18
 70
     1
102
RTVSPropertyOp19
 70
     1
102
RTVSPropertyOp20
 70
     1
102
RTVSPropertyOp21
 70
     1
102
RTVSPropertyOp22
 70
     1
102
RTVSPropertyOp23
 70
     1
102
RTVSPropertyOp24
 70
     1
102
RTVSPropertyOp25
 70
     1
102
RTVSPropertyOp26
 70
     1
102
RTVSPropertyOp27
 70
     1
102
RTVSPropertyOp28
 70
     1
102
RTVSPropertyOp29
 70
     1
102
RTVSPropertyOp30
 70
     1
102
RTVSPropertyOp31
 70
     1
102
RTVSPropertyOp32
 70
     1
102
RTVSPropertyOp33
 70
     1
102
RTVSPropertyOp34
 70
     1
102
RTVSPropertyOp35
 70
     1
102
RTVSPropertyOp36
 70
     1
102
RTVSPropertyOp37
 70
     1
102
RTVSPropertyOp38
 70
     1
102
RTVSPropertyOp39
 70
     1
102
RTVSPropertyOp40
 70
     1
102
RTVSPropertyOp41
 70
     1
102
RTVSPropertyOp42
 70
     1
102
RTVSPropertyOp43
 70
     1
102
RTVSPropertyOp44
 70
     1
102
RTVSPropertyOp45
 70
     1
102
RTVSPropertyOp46
 70
     1
102
RTVSPropertyOp47
 70
     1
102
RTVSPropertyOp48
 70
     1
102
RTVSPropertyOp49
 70
     1
102
RTVSPropertyOp50
 70
     1
102
RTVSPropertyOp51
 70
     0
102
RTVSPropertyOp52
 70
     0
102
RTVSPropertyOp53
 70
     1
102
RTVSPropertyOp54
 70
     1
102
RTVSPropertyOp55
 70
     1
102
RTVSPropertyOp56
 70
     1
102
RTVSPropertyOp57
 70
     1
102
RTVSPost2010Prop28
280
     0
102
RTVSPost2010PropOp28
 70
     1
102
RTVSPost2010Prop29
280
     1
102
RTVSPost2010PropOp29
 70
     1
102
RTVSPost2010Prop30
280
     1
102
RTVSPost2010PropOp30
 70
     1
102
RTVSPost2010Prop31
280
     0
102
RTVSPost2010PropOp31
 70
     1
102
RTVSPost2010Prop32
280
     0
102
RTVSPost2010PropOp32
 70
     1
102
RTVSPost2010Prop33
280
     0
102
RTVSPost2010PropOp33
 70
     1
102
RTVSPost2010Prop34
280
     0
102
RTVSPost2010PropOp34
 70
     1
102
RTVSPost2010Prop35
280
     0
102
RTVSPost2010PropOp35
 70
     1
102
RTVSPost2010Prop36
280
     0
102
RTVSPost2010PropOp36
 70
     1
102
RTVSPost2010Prop37
 90
       50
102
RTVSPost2010PropOp37
 70
     1
102
RTVSPost2010Prop38
140
0.0
102
RTVSPost2010PropOp38
 70
     1
102
RTVSPost2010Prop39
140
1.0
102
RTVSPost2010PropOp39
 70
     1
102
RTVSPost2010Prop40
 90
        0
102
RTVSPost2010PropOp40
 70
     1
102
RTVSPost2010Prop41ColorIndex
 90
       18
102
RTVSPost2010Prop41ColorRGB
 90
        0
102
RTVSPost2010PropOp41
 70
     1
102
RTVSPost2010Prop42
 90
       50
102
RTVSPost2010PropOp42
 70
     1
102
RTVSPost2010Prop43
 90
        3
102
RTVSPost2010PropOp43
 70
     1
102
RTVSPost2010Prop44ColorIndex
 90
        5
102
RTVSPost2010Prop44ColorRGB
 90
      255
102
RTVSPost2010PropOp44
 70
     1
102
RTVSPost2010Prop45
280
     0
102
RTVSPost2010PropOp45
 70
     1
102
RTVSPost2010Prop46
 90
       50
102
RTVSPost2010PropOp46
 70
     1
102
RTVSPost2010Prop47
 90
       50
102
RTVSPost2010PropOp47
 70
     1
102
RTVSPost2010Prop48
 90
       50
102
RTVSPost2010PropOp48
 70
     1
102
RTVSPost2010Prop49
280
     0
102
RTVSPost2010PropOp49
 70
     1
102
RTVSPost2010Prop50
 90
       50
102
RTVSPost2010PropOp50
 70
     1
102
RTVSPost2010Prop51ColorIndex
 90
      256
102
RTVSPost2010Prop51ColorRGB
 90
-16777216
102
RTVSPost2010PropOp51
 70
     0
102
RTVSPost2010Prop52
140
1.0
102
RTVSPost2010PropOp52
 70
     0
102
RTVSPost2010Prop53
 90
        2
102
RTVSPost2010PropOp53
 70
     1
102
RTVSPost2010Prop54
  1
strokes_ogs.tif
102
RTVSPost2010PropOp54
 70
     1
102
RTVSPost2010Prop55
280
     0
102
RTVSPost2010PropOp55
 70
     1
102
RTVSPost2010Prop56
140
1.0
102
RTVSPost2010PropOp56
 70
     1
102
RTVSPost2010Prop57
140
1.0
102
RTVSPost2010PropOp57
 70
     1
  0
XRECORD
  5
E7F
102
{ACAD_REACTORS
330
E7E
102
}
330
E7E
100
AcDbXrecord
280
     1
102
RTVSPropertyOp0
 70
     1
102
RTVSPropertyOp1
 70
     1
102
RTVSPropertyOp2
 70
     1
102
RTVSPropertyOp3
 70
     1
102
RTVSPropertyOp4
 70
     1
102
RTVSPropertyOp5
 70
     1
102
RTVSPropertyOp6
 70
     1
102
RTVSPropertyOp7
 70
     1
102
RTVSPropertyOp8
 70
     1
102
RTVSPropertyOp9
 70
     1
102
RTVSPropertyOp10
 70
     1
102
RTVSPropertyOp11
 70
     1
102
RTVSPropertyOp12
 70
     1
102
RTVSPropertyOp13
 70
     1
102
RTVSPropertyOp14
 70
     1
102
RTVSPropertyOp15
 70
     1
102
RTVSPropertyOp16
 70
     1
102
RTVSPropertyOp17
 70
     1
102
RTVSPropertyOp18
 70
     1
102
RTVSPropertyOp19
 70
     1
102
RTVSPropertyOp20
 70
     1
102
RTVSPropertyOp21
 70
     1
102
RTVSPropertyOp22
 70
     1
102
RTVSPropertyOp23
 70
     1
102
RTVSPropertyOp24
 70
     1
102
RTVSPropertyOp25
 70
     1
102
RTVSPropertyOp26
 70
     1
102
RTVSPropertyOp27
 70
     1
102
RTVSPropertyOp28
 70
     1
102
RTVSPropertyOp29
 70
     1
102
RTVSPropertyOp30
 70
     1
102
RTVSPropertyOp31
 70
     1
102
RTVSPropertyOp32
 70
     1
102
RTVSPropertyOp33
 70
     1
102
RTVSPropertyOp34
 70
     1
102
RTVSPropertyOp35
 70
     1
102
RTVSPropertyOp36
 70
     1
102
RTVSPropertyOp37
 70
     1
102
RTVSPropertyOp38
 70
     1
102
RTVSPropertyOp39
 70
     1
102
RTVSPropertyOp40
 70
     1
102
RTVSPropertyOp41
 70
     1
102
RTVSPropertyOp42
 70
     1
102
RTVSPropertyOp43
 70
     1
102
RTVSPropertyOp44
 70
     1
102
RTVSPropertyOp45
 70
     1
102
RTVSPropertyOp46
 70
     1
102
RTVSPropertyOp47
 70
     1
102
RTVSPropertyOp48
 70
     1
102
RTVSPropertyOp49
 70
     1
102
RTVSPropertyOp50
 70
     1
102
RTVSPropertyOp51
 70
     0
102
RTVSPropertyOp52
 70
     0
102
RTVSPropertyOp53
 70
     1
102
RTVSPropertyOp54
 70
     1
102
RTVSPropertyOp55
 70
     1
102
RTVSPropertyOp56
 70
     1
102
RTVSPropertyOp57
 70
     1
102
RTVSPost2010Prop28
280
     0
102
RTVSPost2010PropOp28
 70
     1
102
RTVSPost2010Prop29
280
     1
102
RTVSPost2010PropOp29
 70
     1
102
RTVSPost2010Prop30
280
     1
102
RTVSPost2010PropOp30
 70
     1
102
RTVSPost2010Prop31
280
     0
102
RTVSPost2010PropOp31
 70
     1
102
RTVSPost2010Prop32
280
     0
102
RTVSPost2010PropOp32
 70
     1
102
RTVSPost2010Prop33
280
     0
102
RTVSPost2010PropOp33
 70
     1
102
RTVSPost2010Prop34
280
     0
102
RTVSPost2010PropOp34
 70
     1
102
RTVSPost2010Prop35
280
     0
102
RTVSPost2010PropOp35
 70
     1
102
RTVSPost2010Prop36
280
     0
102
RTVSPost2010PropOp36
 70
     1
102
RTVSPost2010Prop37
 90
       50
102
RTVSPost2010PropOp37
 70
     1
102
RTVSPost2010Prop38
140
0.0
102
RTVSPost2010PropOp38
 70
     1
102
RTVSPost2010Prop39
140
1.0
102
RTVSPost2010PropOp39
 70
     1
102
RTVSPost2010Prop40
 90
        0
102
RTVSPost2010PropOp40
 70
     1
102
RTVSPost2010Prop41ColorIndex
 90
       18
102
RTVSPost2010Prop41ColorRGB
 90
        0
102
RTVSPost2010PropOp41
 70
     1
102
RTVSPost2010Prop42
 90
       50
102
RTVSPost2010PropOp42
 70
     1
102
RTVSPost2010Prop43
 90
        3
102
RTVSPost2010PropOp43
 70
     1
102
RTVSPost2010Prop44ColorIndex
 90
        5
102
RTVSPost2010Prop44ColorRGB
 90
      255
102
RTVSPost2010PropOp44
 70
     1
102
RTVSPost2010Prop45
280
     0
102
RTVSPost2010PropOp45
 70
     1
102
RTVSPost2010Prop46
 90
       50
102
RTVSPost2010PropOp46
 70
     1
102
RTVSPost2010Prop47
 90
       50
102
RTVSPost2010PropOp47
 70
     1
102
RTVSPost2010Prop48
 90
       50
102
RTVSPost2010PropOp48
 70
     1
102
RTVSPost2010Prop49
280
     0
102
RTVSPost2010PropOp49
 70
     1
102
RTVSPost2010Prop50
 90
       50
102
RTVSPost2010PropOp50
 70
     1
102
RTVSPost2010Prop51ColorIndex
 90
      256
102
RTVSPost2010Prop51ColorRGB
 90
-16777216
102
RTVSPost2010PropOp51
 70
     0
102
RTVSPost2010Prop52
140
1.0
102
RTVSPost2010PropOp52
 70
     0
102
RTVSPost2010Prop53
 90
        2
102
RTVSPost2010PropOp53
 70
     1
102
RTVSPost2010Prop54
  1
strokes_ogs.tif
102
RTVSPost2010PropOp54
 70
     1
102
RTVSPost2010Prop55
280
     0
102
RTVSPost2010PropOp55
 70
     1
102
RTVSPost2010Prop56
140
1.0
102
RTVSPost2010PropOp56
 70
     1
102
RTVSPost2010Prop57
140
1.0
102
RTVSPost2010PropOp57
 70
     1
  0
XRECORD
  5
E8F
102
{ACAD_REACTORS
330
E8E
102
}
330
E8E
100
AcDbXrecord
280
     1
102
RTVSPropertyOp0
 70
     0
102
RTVSPropertyOp1
 70
     0
102
RTVSPropertyOp2
 70
     0
102
RTVSPropertyOp3
 70
     0
102
RTVSPropertyOp4
 70
     0
102
RTVSPropertyOp5
 70
     0
102
RTVSPropertyOp6
 70
     0
102
RTVSPropertyOp7
 70
     0
102
RTVSPropertyOp8
 70
     0
102
RTVSPropertyOp9
 70
     0
102
RTVSPropertyOp10
 70
     0
102
RTVSPropertyOp11
 70
     0
102
RTVSPropertyOp12
 70
     0
102
RTVSPropertyOp13
 70
     0
102
RTVSPropertyOp14
 70
     2
102
RTVSPropertyOp15
 70
     0
102
RTVSPropertyOp16
 70
     0
102
RTVSPropertyOp17
 70
     0
102
RTVSPropertyOp18
 70
     0
102
RTVSPropertyOp19
 70
     0
102
RTVSPropertyOp20
 70
     0
102
RTVSPropertyOp21
 70
     0
102
RTVSPropertyOp22
 70
     0
102
RTVSPropertyOp23
 70
     0
102
RTVSPropertyOp24
 70
     0
102
RTVSPropertyOp25
 70
     0
102
RTVSPropertyOp26
 70
     0
102
RTVSPropertyOp27
 70
     0
102
RTVSPropertyOp28
 70
     0
102
RTVSPropertyOp29
 70
     0
102
RTVSPropertyOp30
 70
     0
102
RTVSPropertyOp31
 70
     0
102
RTVSPropertyOp32
 70
     0
102
RTVSPropertyOp33
 70
     0
102
RTVSPropertyOp34
 70
     0
102
RTVSPropertyOp35
 70
     0
102
RTVSPropertyOp36
 70
     0
102
RTVSPropertyOp37
 70
     0
102
RTVSPropertyOp38
 70
     0
102
RTVSPropertyOp39
 70
     0
102
RTVSPropertyOp40
 70
     0
102
RTVSPropertyOp41
 70
     0
102
RTVSPropertyOp42
 70
     0
102
RTVSPropertyOp43
 70
     0
102
RTVSPropertyOp44
 70
     0
102
RTVSPropertyOp45
 70
     0
102
RTVSPropertyOp46
 70
     0
102
RTVSPropertyOp47
 70
     0
102
RTVSPropertyOp48
 70
     0
102
RTVSPropertyOp49
 70
     0
102
RTVSPropertyOp50
 70
     0
102
RTVSPropertyOp51
 70
     0
102
RTVSPropertyOp52
 70
     0
102
RTVSPropertyOp53
 70
     0
102
RTVSPropertyOp54
 70
     0
102
RTVSPropertyOp55
 70
     0
102
RTVSPropertyOp56
 70
     0
102
RTVSPropertyOp57
 70
     0
102
RTVSPost2010Prop28
280
     0
102
RTVSPost2010PropOp28
 70
     0
102
RTVSPost2010Prop29
280
     1
102
RTVSPost2010PropOp29
 70
     0
102
RTVSPost2010Prop30
280
     1
102
RTVSPost2010PropOp30
 70
     0
102
RTVSPost2010Prop31
280
     0
102
RTVSPost2010PropOp31
 70
     0
102
RTVSPost2010Prop32
280
     0
102
RTVSPost2010PropOp32
 70
     0
102
RTVSPost2010Prop33
280
     0
102
RTVSPost2010PropOp33
 70
     0
102
RTVSPost2010Prop34
280
     0
102
RTVSPost2010PropOp34
 70
     0
102
RTVSPost2010Prop35
280
     0
102
RTVSPost2010PropOp35
 70
     0
102
RTVSPost2010Prop36
280
     0
102
RTVSPost2010PropOp36
 70
     0
102
RTVSPost2010Prop37
 90
       50
102
RTVSPost2010PropOp37
 70
     0
102
RTVSPost2010Prop38
140
0.0
102
RTVSPost2010PropOp38
 70
     0
102
RTVSPost2010Prop39
140
1.0
102
RTVSPost2010PropOp39
 70
     0
102
RTVSPost2010Prop40
 90
        0
102
RTVSPost2010PropOp40
 70
     0
102
RTVSPost2010Prop41ColorIndex
 90
       18
102
RTVSPost2010Prop41ColorRGB
 90
        0
102
RTVSPost2010PropOp41
 70
     0
102
RTVSPost2010Prop42
 90
       50
102
RTVSPost2010PropOp42
 70
     0
102
RTVSPost2010Prop43
 90
        3
102
RTVSPost2010PropOp43
 70
     0
102
RTVSPost2010Prop44ColorIndex
 90
        5
102
RTVSPost2010Prop44ColorRGB
 90
      255
102
RTVSPost2010PropOp44
 70
     0
102
RTVSPost2010Prop45
280
     0
102
RTVSPost2010PropOp45
 70
     0
102
RTVSPost2010Prop46
 90
       50
102
RTVSPost2010PropOp46
 70
     0
102
RTVSPost2010Prop47
 90
       50
102
RTVSPost2010PropOp47
 70
     0
102
RTVSPost2010Prop48
 90
       50
102
RTVSPost2010PropOp48
 70
     0
102
RTVSPost2010Prop49
280
     0
102
RTVSPost2010PropOp49
 70
     0
102
RTVSPost2010Prop50
 90
       50
102
RTVSPost2010PropOp50
 70
     0
102
RTVSPost2010Prop51ColorIndex
 90
      256
102
RTVSPost2010Prop51ColorRGB
 90
-16777216
102
RTVSPost2010PropOp51
 70
     0
102
RTVSPost2010Prop52
140
1.0
102
RTVSPost2010PropOp52
 70
     0
102
RTVSPost2010Prop53
 90
        2
102
RTVSPost2010PropOp53
 70
     0
102
RTVSPost2010Prop54
  1
strokes_ogs.tif
102
RTVSPost2010PropOp54
 70
     0
102
RTVSPost2010Prop55
280
     0
102
RTVSPost2010PropOp55
 70
     0
102
RTVSPost2010Prop56
140
1.0
102
RTVSPost2010PropOp56
 70
     0
102
RTVSPost2010Prop57
140
1.0
102
RTVSPost2010PropOp57
 70
     0
  0
XRECORD
  5
E87
102
{ACAD_REACTORS
330
E86
102
}
330
E86
100
AcDbXrecord
280
     1
102
RTVSPropertyOp0
 70
     1
102
RTVSPropertyOp1
 70
     1
102
RTVSPropertyOp2
 70
     1
102
RTVSPropertyOp3
 70
     1
102
RTVSPropertyOp4
 70
     1
102
RTVSPropertyOp5
 70
     1
102
RTVSPropertyOp6
 70
     1
102
RTVSPropertyOp7
 70
     1
102
RTVSPropertyOp8
 70
     1
102
RTVSPropertyOp9
 70
     1
102
RTVSPropertyOp10
 70
     1
102
RTVSPropertyOp11
 70
     1
102
RTVSPropertyOp12
 70
     1
102
RTVSPropertyOp13
 70
     1
102
RTVSPropertyOp14
 70
     1
102
RTVSPropertyOp15
 70
     1
102
RTVSPropertyOp16
 70
     1
102
RTVSPropertyOp17
 70
     1
102
RTVSPropertyOp18
 70
     1
102
RTVSPropertyOp19
 70
     1
102
RTVSPropertyOp20
 70
     1
102
RTVSPropertyOp21
 70
     1
102
RTVSPropertyOp22
 70
     1
102
RTVSPropertyOp23
 70
     1
102
RTVSPropertyOp24
 70
     1
102
RTVSPropertyOp25
 70
     1
102
RTVSPropertyOp26
 70
     1
102
RTVSPropertyOp27
 70
     1
102
RTVSPropertyOp28
 70
     1
102
RTVSPropertyOp29
 70
     1
102
RTVSPropertyOp30
 70
     1
102
RTVSPropertyOp31
 70
     1
102
RTVSPropertyOp32
 70
     1
102
RTVSPropertyOp33
 70
     1
102
RTVSPropertyOp34
 70
     1
102
RTVSPropertyOp35
 70
     1
102
RTVSPropertyOp36
 70
     1
102
RTVSPropertyOp37
 70
     1
102
RTVSPropertyOp38
 70
     1
102
RTVSPropertyOp39
 70
     1
102
RTVSPropertyOp40
 70
     1
102
RTVSPropertyOp41
 70
     1
102
RTVSPropertyOp42
 70
     1
102
RTVSPropertyOp43
 70
     1
102
RTVSPropertyOp44
 70
     1
102
RTVSPropertyOp45
 70
     1
102
RTVSPropertyOp46
 70
     1
102
RTVSPropertyOp47
 70
     1
102
RTVSPropertyOp48
 70
     1
102
RTVSPropertyOp49
 70
     1
102
RTVSPropertyOp50
 70
     1
102
RTVSPropertyOp51
 70
     0
102
RTVSPropertyOp52
 70
     0
102
RTVSPropertyOp53
 70
     1
102
RTVSPropertyOp54
 70
     1
102
RTVSPropertyOp55
 70
     1
102
RTVSPropertyOp56
 70
     1
102
RTVSPropertyOp57
 70
     1
102
RTVSPost2010Prop28
280
     0
102
RTVSPost2010PropOp28
 70
     1
102
RTVSPost2010Prop29
280
     1
102
RTVSPost2010PropOp29
 70
     1
102
RTVSPost2010Prop30
280
     1
102
RTVSPost2010PropOp30
 70
     1
102
RTVSPost2010Prop31
280
     0
102
RTVSPost2010PropOp31
 70
     1
102
RTVSPost2010Prop32
280
     0
102
RTVSPost2010PropOp32
 70
     1
102
RTVSPost2010Prop33
280
     0
102
RTVSPost2010PropOp33
 70
     1
102
RTVSPost2010Prop34
280
     0
102
RTVSPost2010PropOp34
 70
     1
102
RTVSPost2010Prop35
280
     0
102
RTVSPost2010PropOp35
 70
     1
102
RTVSPost2010Prop36
280
     0
102
RTVSPost2010PropOp36
 70
     1
102
RTVSPost2010Prop37
 90
       50
102
RTVSPost2010PropOp37
 70
     1
102
RTVSPost2010Prop38
140
0.0
102
RTVSPost2010PropOp38
 70
     1
102
RTVSPost2010Prop39
140
1.0
102
RTVSPost2010PropOp39
 70
     1
102
RTVSPost2010Prop40
 90
        0
102
RTVSPost2010PropOp40
 70
     1
102
RTVSPost2010Prop41ColorIndex
 90
       18
102
RTVSPost2010Prop41ColorRGB
 90
        0
102
RTVSPost2010PropOp41
 70
     1
102
RTVSPost2010Prop42
 90
       50
102
RTVSPost2010PropOp42
 70
     1
102
RTVSPost2010Prop43
 90
        3
102
RTVSPost2010PropOp43
 70
     1
102
RTVSPost2010Prop44ColorIndex
 90
        5
102
RTVSPost2010Prop44ColorRGB
 90
      255
102
RTVSPost2010PropOp44
 70
     1
102
RTVSPost2010Prop45
280
     0
102
RTVSPost2010PropOp45
 70
     1
102
RTVSPost2010Prop46
 90
       50
102
RTVSPost2010PropOp46
 70
     1
102
RTVSPost2010Prop47
 90
       50
102
RTVSPost2010PropOp47
 70
     1
102
RTVSPost2010Prop48
 90
       50
102
RTVSPost2010PropOp48
 70
     1
102
RTVSPost2010Prop49
280
     0
102
RTVSPost2010PropOp49
 70
     1
102
RTVSPost2010Prop50
 90
       50
102
RTVSPost2010PropOp50
 70
     1
102
RTVSPost2010Prop51ColorIndex
 90
      256
102
RTVSPost2010Prop51ColorRGB
 90
-16777216
102
RTVSPost2010PropOp51
 70
     0
102
RTVSPost2010Prop52
140
1.0
102
RTVSPost2010PropOp52
 70
     0
102
RTVSPost2010Prop53
 90
        2
102
RTVSPost2010PropOp53
 70
     1
102
RTVSPost2010Prop54
  1
strokes_ogs.tif
102
RTVSPost2010PropOp54
 70
     1
102
RTVSPost2010Prop55
280
     0
102
RTVSPost2010PropOp55
 70
     1
102
RTVSPost2010Prop56
140
1.0
102
RTVSPost2010PropOp56
 70
     1
102
RTVSPost2010Prop57
140
1.0
102
RTVSPost2010PropOp57
 70
     1
  0
XRECORD
  5
E6B
102
{ACAD_REACTORS
330
E6A
102
}
330
E6A
100
AcDbXrecord
280
     1
102
RTVSPropertyOp0
 70
     1
102
RTVSPropertyOp1
 70
     1
102
RTVSPropertyOp2
 70
     1
102
RTVSPropertyOp3
 70
     1
102
RTVSPropertyOp4
 70
     1
102
RTVSPropertyOp5
 70
     1
102
RTVSPropertyOp6
 70
     1
102
RTVSPropertyOp7
 70
     1
102
RTVSPropertyOp8
 70
     1
102
RTVSPropertyOp9
 70
     1
102
RTVSPropertyOp10
 70
     1
102
RTVSPropertyOp11
 70
     1
102
RTVSPropertyOp12
 70
     1
102
RTVSPropertyOp13
 70
     1
102
RTVSPropertyOp14
 70
     1
102
RTVSPropertyOp15
 70
     1
102
RTVSPropertyOp16
 70
     1
102
RTVSPropertyOp17
 70
     1
102
RTVSPropertyOp18
 70
     1
102
RTVSPropertyOp19
 70
     1
102
RTVSPropertyOp20
 70
     1
102
RTVSPropertyOp21
 70
     1
102
RTVSPropertyOp22
 70
     1
102
RTVSPropertyOp23
 70
     1
102
RTVSPropertyOp24
 70
     1
102
RTVSPropertyOp25
 70
     1
102
RTVSPropertyOp26
 70
     1
102
RTVSPropertyOp27
 70
     1
102
RTVSPropertyOp28
 70
     1
102
RTVSPropertyOp29
 70
     1
102
RTVSPropertyOp30
 70
     1
102
RTVSPropertyOp31
 70
     1
102
RTVSPropertyOp32
 70
     1
102
RTVSPropertyOp33
 70
     1
102
RTVSPropertyOp34
 70
     1
102
RTVSPropertyOp35
 70
     1
102
RTVSPropertyOp36
 70
     1
102
RTVSPropertyOp37
 70
     1
102
RTVSPropertyOp38
 70
     1
102
RTVSPropertyOp39
 70
     1
102
RTVSPropertyOp40
 70
     1
102
RTVSPropertyOp41
 70
     1
102
RTVSPropertyOp42
 70
     1
102
RTVSPropertyOp43
 70
     1
102
RTVSPropertyOp44
 70
     1
102
RTVSPropertyOp45
 70
     1
102
RTVSPropertyOp46
 70
     1
102
RTVSPropertyOp47
 70
     1
102
RTVSPropertyOp48
 70
     1
102
RTVSPropertyOp49
 70
     1
102
RTVSPropertyOp50
 70
     1
102
RTVSPropertyOp51
 70
     0
102
RTVSPropertyOp52
 70
     0
102
RTVSPropertyOp53
 70
     1
102
RTVSPropertyOp54
 70
     1
102
RTVSPropertyOp55
 70
     1
102
RTVSPropertyOp56
 70
     1
102
RTVSPropertyOp57
 70
     1
102
RTVSPost2010Prop28
280
     0
102
RTVSPost2010PropOp28
 70
     1
102
RTVSPost2010Prop29
280
     1
102
RTVSPost2010PropOp29
 70
     1
102
RTVSPost2010Prop30
280
     1
102
RTVSPost2010PropOp30
 70
     1
102
RTVSPost2010Prop31
280
     0
102
RTVSPost2010PropOp31
 70
     1
102
RTVSPost2010Prop32
280
     0
102
RTVSPost2010PropOp32
 70
     1
102
RTVSPost2010Prop33
280
     0
102
RTVSPost2010PropOp33
 70
     1
102
RTVSPost2010Prop34
280
     0
102
RTVSPost2010PropOp34
 70
     1
102
RTVSPost2010Prop35
280
     0
102
RTVSPost2010PropOp35
 70
     1
102
RTVSPost2010Prop36
280
     0
102
RTVSPost2010PropOp36
 70
     1
102
RTVSPost2010Prop37
 90
       50
102
RTVSPost2010PropOp37
 70
     1
102
RTVSPost2010Prop38
140
0.0
102
RTVSPost2010PropOp38
 70
     1
102
RTVSPost2010Prop39
140
1.0
102
RTVSPost2010PropOp39
 70
     1
102
RTVSPost2010Prop40
 90
        0
102
RTVSPost2010PropOp40
 70
     1
102
RTVSPost2010Prop41ColorIndex
 90
       18
102
RTVSPost2010Prop41ColorRGB
 90
        0
102
RTVSPost2010PropOp41
 70
     1
102
RTVSPost2010Prop42
 90
       50
102
RTVSPost2010PropOp42
 70
     1
102
RTVSPost2010Prop43
 90
        3
102
RTVSPost2010PropOp43
 70
     1
102
RTVSPost2010Prop44ColorIndex
 90
        5
102
RTVSPost2010Prop44ColorRGB
 90
      255
102
RTVSPost2010PropOp44
 70
     1
102
RTVSPost2010Prop45
280
     0
102
RTVSPost2010PropOp45
 70
     1
102
RTVSPost2010Prop46
 90
       50
102
RTVSPost2010PropOp46
 70
     1
102
RTVSPost2010Prop47
 90
       50
102
RTVSPost2010PropOp47
 70
     1
102
RTVSPost2010Prop48
 90
       50
102
RTVSPost2010PropOp48
 70
     1
102
RTVSPost2010Prop49
280
     0
102
RTVSPost2010PropOp49
 70
     1
102
RTVSPost2010Prop50
 90
       50
102
RTVSPost2010PropOp50
 70
     1
102
RTVSPost2010Prop51ColorIndex
 90
      256
102
RTVSPost2010Prop51ColorRGB
 90
-16777216
102
RTVSPost2010PropOp51
 70
     0
102
RTVSPost2010Prop52
140
1.0
102
RTVSPost2010PropOp52
 70
     0
102
RTVSPost2010Prop53
 90
        2
102
RTVSPost2010PropOp53
 70
     1
102
RTVSPost2010Prop54
  1
strokes_ogs.tif
102
RTVSPost2010PropOp54
 70
     1
102
RTVSPost2010Prop55
280
     0
102
RTVSPost2010PropOp55
 70
     1
102
RTVSPost2010Prop56
140
1.0
102
RTVSPost2010PropOp56
 70
     1
102
RTVSPost2010Prop57
140
1.0
102
RTVSPost2010PropOp57
 70
     1
  0
XRECORD
  5
E6D
102
{ACAD_REACTORS
330
E6C
102
}
330
E6C
100
AcDbXrecord
280
     1
102
RTVSPropertyOp0
 70
     1
102
RTVSPropertyOp1
 70
     1
102
RTVSPropertyOp2
 70
     1
102
RTVSPropertyOp3
 70
     1
102
RTVSPropertyOp4
 70
     1
102
RTVSPropertyOp5
 70
     1
102
RTVSPropertyOp6
 70
     1
102
RTVSPropertyOp7
 70
     1
102
RTVSPropertyOp8
 70
     1
102
RTVSPropertyOp9
 70
     1
102
RTVSPropertyOp10
 70
     1
102
RTVSPropertyOp11
 70
     1
102
RTVSPropertyOp12
 70
     1
102
RTVSPropertyOp13
 70
     1
102
RTVSPropertyOp14
 70
     1
102
RTVSPropertyOp15
 70
     1
102
RTVSPropertyOp16
 70
     1
102
RTVSPropertyOp17
 70
     1
102
RTVSPropertyOp18
 70
     1
102
RTVSPropertyOp19
 70
     1
102
RTVSPropertyOp20
 70
     1
102
RTVSPropertyOp21
 70
     1
102
RTVSPropertyOp22
 70
     1
102
RTVSPropertyOp23
 70
     1
102
RTVSPropertyOp24
 70
     1
102
RTVSPropertyOp25
 70
     1
102
RTVSPropertyOp26
 70
     1
102
RTVSPropertyOp27
 70
     1
102
RTVSPropertyOp28
 70
     1
102
RTVSPropertyOp29
 70
     1
102
RTVSPropertyOp30
 70
     1
102
RTVSPropertyOp31
 70
     1
102
RTVSPropertyOp32
 70
     1
102
RTVSPropertyOp33
 70
     1
102
RTVSPropertyOp34
 70
     1
102
RTVSPropertyOp35
 70
     1
102
RTVSPropertyOp36
 70
     1
102
RTVSPropertyOp37
 70
     1
102
RTVSPropertyOp38
 70
     1
102
RTVSPropertyOp39
 70
     1
102
RTVSPropertyOp40
 70
     1
102
RTVSPropertyOp41
 70
     1
102
RTVSPropertyOp42
 70
     1
102
RTVSPropertyOp43
 70
     1
102
RTVSPropertyOp44
 70
     1
102
RTVSPropertyOp45
 70
     1
102
RTVSPropertyOp46
 70
     1
102
RTVSPropertyOp47
 70
     1
102
RTVSPropertyOp48
 70
     1
102
RTVSPropertyOp49
 70
     1
102
RTVSPropertyOp50
 70
     1
102
RTVSPropertyOp51
 70
     0
102
RTVSPropertyOp52
 70
     0
102
RTVSPropertyOp53
 70
     1
102
RTVSPropertyOp54
 70
     1
102
RTVSPropertyOp55
 70
     1
102
RTVSPropertyOp56
 70
     1
102
RTVSPropertyOp57
 70
     1
102
RTVSPost2010Prop28
280
     0
102
RTVSPost2010PropOp28
 70
     1
102
RTVSPost2010Prop29
280
     1
102
RTVSPost2010PropOp29
 70
     1
102
RTVSPost2010Prop30
280
     1
102
RTVSPost2010PropOp30
 70
     1
102
RTVSPost2010Prop31
280
     0
102
RTVSPost2010PropOp31
 70
     1
102
RTVSPost2010Prop32
280
     0
102
RTVSPost2010PropOp32
 70
     1
102
RTVSPost2010Prop33
280
     0
102
RTVSPost2010PropOp33
 70
     1
102
RTVSPost2010Prop34
280
     0
102
RTVSPost2010PropOp34
 70
     1
102
RTVSPost2010Prop35
280
     0
102
RTVSPost2010PropOp35
 70
     1
102
RTVSPost2010Prop36
280
     0
102
RTVSPost2010PropOp36
 70
     1
102
RTVSPost2010Prop37
 90
       50
102
RTVSPost2010PropOp37
 70
     1
102
RTVSPost2010Prop38
140
0.0
102
RTVSPost2010PropOp38
 70
     1
102
RTVSPost2010Prop39
140
1.0
102
RTVSPost2010PropOp39
 70
     1
102
RTVSPost2010Prop40
 90
        0
102
RTVSPost2010PropOp40
 70
     1
102
RTVSPost2010Prop41ColorIndex
 90
       18
102
RTVSPost2010Prop41ColorRGB
 90
        0
102
RTVSPost2010PropOp41
 70
     1
102
RTVSPost2010Prop42
 90
       50
102
RTVSPost2010PropOp42
 70
     1
102
RTVSPost2010Prop43
 90
        3
102
RTVSPost2010PropOp43
 70
     1
102
RTVSPost2010Prop44ColorIndex
 90
        5
102
RTVSPost2010Prop44ColorRGB
 90
      255
102
RTVSPost2010PropOp44
 70
     1
102
RTVSPost2010Prop45
280
     0
102
RTVSPost2010PropOp45
 70
     1
102
RTVSPost2010Prop46
 90
       50
102
RTVSPost2010PropOp46
 70
     1
102
RTVSPost2010Prop47
 90
       50
102
RTVSPost2010PropOp47
 70
     1
102
RTVSPost2010Prop48
 90
       50
102
RTVSPost2010PropOp48
 70
     1
102
RTVSPost2010Prop49
280
     0
102
RTVSPost2010PropOp49
 70
     1
102
RTVSPost2010Prop50
 90
       50
102
RTVSPost2010PropOp50
 70
     1
102
RTVSPost2010Prop51ColorIndex
 90
      256
102
RTVSPost2010Prop51ColorRGB
 90
-16777216
102
RTVSPost2010PropOp51
 70
     0
102
RTVSPost2010Prop52
140
1.0
102
RTVSPost2010PropOp52
 70
     0
102
RTVSPost2010Prop53
 90
        2
102
RTVSPost2010PropOp53
 70
     1
102
RTVSPost2010Prop54
  1
strokes_ogs.tif
102
RTVSPost2010PropOp54
 70
     1
102
RTVSPost2010Prop55
280
     0
102
RTVSPost2010PropOp55
 70
     1
102
RTVSPost2010Prop56
140
1.0
102
RTVSPost2010PropOp56
 70
     1
102
RTVSPost2010Prop57
140
1.0
102
RTVSPost2010PropOp57
 70
     1
  0
XRECORD
  5
E6F
102
{ACAD_REACTORS
330
E6E
102
}
330
E6E
100
AcDbXrecord
280
     1
102
RTVSPropertyOp0
 70
     1
102
RTVSPropertyOp1
 70
     1
102
RTVSPropertyOp2
 70
     1
102
RTVSPropertyOp3
 70
     1
102
RTVSPropertyOp4
 70
     1
102
RTVSPropertyOp5
 70
     1
102
RTVSPropertyOp6
 70
     1
102
RTVSPropertyOp7
 70
     1
102
RTVSPropertyOp8
 70
     1
102
RTVSPropertyOp9
 70
     1
102
RTVSPropertyOp10
 70
     1
102
RTVSPropertyOp11
 70
     1
102
RTVSPropertyOp12
 70
     1
102
RTVSPropertyOp13
 70
     1
102
RTVSPropertyOp14
 70
     1
102
RTVSPropertyOp15
 70
     1
102
RTVSPropertyOp16
 70
     1
102
RTVSPropertyOp17
 70
     1
102
RTVSPropertyOp18
 70
     1
102
RTVSPropertyOp19
 70
     1
102
RTVSPropertyOp20
 70
     1
102
RTVSPropertyOp21
 70
     1
102
RTVSPropertyOp22
 70
     1
102
RTVSPropertyOp23
 70
     1
102
RTVSPropertyOp24
 70
     1
102
RTVSPropertyOp25
 70
     1
102
RTVSPropertyOp26
 70
     1
102
RTVSPropertyOp27
 70
     1
102
RTVSPropertyOp28
 70
     1
102
RTVSPropertyOp29
 70
     1
102
RTVSPropertyOp30
 70
     1
102
RTVSPropertyOp31
 70
     1
102
RTVSPropertyOp32
 70
     1
102
RTVSPropertyOp33
 70
     1
102
RTVSPropertyOp34
 70
     1
102
RTVSPropertyOp35
 70
     1
102
RTVSPropertyOp36
 70
     1
102
RTVSPropertyOp37
 70
     1
102
RTVSPropertyOp38
 70
     1
102
RTVSPropertyOp39
 70
     1
102
RTVSPropertyOp40
 70
     1
102
RTVSPropertyOp41
 70
     1
102
RTVSPropertyOp42
 70
     1
102
RTVSPropertyOp43
 70
     1
102
RTVSPropertyOp44
 70
     1
102
RTVSPropertyOp45
 70
     1
102
RTVSPropertyOp46
 70
     1
102
RTVSPropertyOp47
 70
     1
102
RTVSPropertyOp48
 70
     1
102
RTVSPropertyOp49
 70
     1
102
RTVSPropertyOp50
 70
     1
102
RTVSPropertyOp51
 70
     0
102
RTVSPropertyOp52
 70
     0
102
RTVSPropertyOp53
 70
     1
102
RTVSPropertyOp54
 70
     1
102
RTVSPropertyOp55
 70
     1
102
RTVSPropertyOp56
 70
     1
102
RTVSPropertyOp57
 70
     1
102
RTVSPost2010Prop28
280
     0
102
RTVSPost2010PropOp28
 70
     1
102
RTVSPost2010Prop29
280
     1
102
RTVSPost2010PropOp29
 70
     1
102
RTVSPost2010Prop30
280
     1
102
RTVSPost2010PropOp30
 70
     1
102
RTVSPost2010Prop31
280
     0
102
RTVSPost2010PropOp31
 70
     1
102
RTVSPost2010Prop32
280
     0
102
RTVSPost2010PropOp32
 70
     1
102
RTVSPost2010Prop33
280
     0
102
RTVSPost2010PropOp33
 70
     1
102
RTVSPost2010Prop34
280
     0
102
RTVSPost2010PropOp34
 70
     1
102
RTVSPost2010Prop35
280
     0
102
RTVSPost2010PropOp35
 70
     1
102
RTVSPost2010Prop36
280
     0
102
RTVSPost2010PropOp36
 70
     1
102
RTVSPost2010Prop37
 90
       50
102
RTVSPost2010PropOp37
 70
     1
102
RTVSPost2010Prop38
140
0.0
102
RTVSPost2010PropOp38
 70
     1
102
RTVSPost2010Prop39
140
1.0
102
RTVSPost2010PropOp39
 70
     1
102
RTVSPost2010Prop40
 90
        0
102
RTVSPost2010PropOp40
 70
     1
102
RTVSPost2010Prop41ColorIndex
 90
       18
102
RTVSPost2010Prop41ColorRGB
 90
        0
102
RTVSPost2010PropOp41
 70
     1
102
RTVSPost2010Prop42
 90
       50
102
RTVSPost2010PropOp42
 70
     1
102
RTVSPost2010Prop43
 90
        3
102
RTVSPost2010PropOp43
 70
     1
102
RTVSPost2010Prop44ColorIndex
 90
        5
102
RTVSPost2010Prop44ColorRGB
 90
      255
102
RTVSPost2010PropOp44
 70
     1
102
RTVSPost2010Prop45
280
     0
102
RTVSPost2010PropOp45
 70
     1
102
RTVSPost2010Prop46
 90
       50
102
RTVSPost2010PropOp46
 70
     1
102
RTVSPost2010Prop47
 90
       50
102
RTVSPost2010PropOp47
 70
     1
102
RTVSPost2010Prop48
 90
       50
102
RTVSPost2010PropOp48
 70
     1
102
RTVSPost2010Prop49
280
     0
102
RTVSPost2010PropOp49
 70
     1
102
RTVSPost2010Prop50
 90
       50
102
RTVSPost2010PropOp50
 70
     1
102
RTVSPost2010Prop51ColorIndex
 90
      256
102
RTVSPost2010Prop51ColorRGB
 90
-16777216
102
RTVSPost2010PropOp51
 70
     0
102
RTVSPost2010Prop52
140
1.0
102
RTVSPost2010PropOp52
 70
     0
102
RTVSPost2010Prop53
 90
        2
102
RTVSPost2010PropOp53
 70
     1
102
RTVSPost2010Prop54
  1
strokes_ogs.tif
102
RTVSPost2010PropOp54
 70
     1
102
RTVSPost2010Prop55
280
     0
102
RTVSPost2010PropOp55
 70
     1
102
RTVSPost2010Prop56
140
1.0
102
RTVSPost2010PropOp56
 70
     1
102
RTVSPost2010Prop57
140
1.0
102
RTVSPost2010PropOp57
 70
     1
  0
XRECORD
  5
E71
102
{ACAD_REACTORS
330
E70
102
}
330
E70
100
AcDbXrecord
280
     1
102
RTVSPropertyOp0
 70
     1
102
RTVSPropertyOp1
 70
     1
102
RTVSPropertyOp2
 70
     1
102
RTVSPropertyOp3
 70
     1
102
RTVSPropertyOp4
 70
     1
102
RTVSPropertyOp5
 70
     1
102
RTVSPropertyOp6
 70
     1
102
RTVSPropertyOp7
 70
     1
102
RTVSPropertyOp8
 70
     1
102
RTVSPropertyOp9
 70
     1
102
RTVSPropertyOp10
 70
     1
102
RTVSPropertyOp11
 70
     1
102
RTVSPropertyOp12
 70
     1
102
RTVSPropertyOp13
 70
     1
102
RTVSPropertyOp14
 70
     1
102
RTVSPropertyOp15
 70
     1
102
RTVSPropertyOp16
 70
     1
102
RTVSPropertyOp17
 70
     1
102
RTVSPropertyOp18
 70
     1
102
RTVSPropertyOp19
 70
     1
102
RTVSPropertyOp20
 70
     1
102
RTVSPropertyOp21
 70
     1
102
RTVSPropertyOp22
 70
     1
102
RTVSPropertyOp23
 70
     1
102
RTVSPropertyOp24
 70
     1
102
RTVSPropertyOp25
 70
     1
102
RTVSPropertyOp26
 70
     1
102
RTVSPropertyOp27
 70
     1
102
RTVSPropertyOp28
 70
     1
102
RTVSPropertyOp29
 70
     1
102
RTVSPropertyOp30
 70
     1
102
RTVSPropertyOp31
 70
     1
102
RTVSPropertyOp32
 70
     1
102
RTVSPropertyOp33
 70
     1
102
RTVSPropertyOp34
 70
     1
102
RTVSPropertyOp35
 70
     1
102
RTVSPropertyOp36
 70
     1
102
RTVSPropertyOp37
 70
     1
102
RTVSPropertyOp38
 70
     1
102
RTVSPropertyOp39
 70
     1
102
RTVSPropertyOp40
 70
     1
102
RTVSPropertyOp41
 70
     1
102
RTVSPropertyOp42
 70
     1
102
RTVSPropertyOp43
 70
     1
102
RTVSPropertyOp44
 70
     1
102
RTVSPropertyOp45
 70
     1
102
RTVSPropertyOp46
 70
     1
102
RTVSPropertyOp47
 70
     1
102
RTVSPropertyOp48
 70
     1
102
RTVSPropertyOp49
 70
     1
102
RTVSPropertyOp50
 70
     1
102
RTVSPropertyOp51
 70
     0
102
RTVSPropertyOp52
 70
     0
102
RTVSPropertyOp53
 70
     1
102
RTVSPropertyOp54
 70
     1
102
RTVSPropertyOp55
 70
     1
102
RTVSPropertyOp56
 70
     1
102
RTVSPropertyOp57
 70
     1
102
RTVSPost2010Prop28
280
     0
102
RTVSPost2010PropOp28
 70
     1
102
RTVSPost2010Prop29
280
     1
102
RTVSPost2010PropOp29
 70
     1
102
RTVSPost2010Prop30
280
     1
102
RTVSPost2010PropOp30
 70
     1
102
RTVSPost2010Prop31
280
     0
102
RTVSPost2010PropOp31
 70
     1
102
RTVSPost2010Prop32
280
     0
102
RTVSPost2010PropOp32
 70
     1
102
RTVSPost2010Prop33
280
     0
102
RTVSPost2010PropOp33
 70
     1
102
RTVSPost2010Prop34
280
     0
102
RTVSPost2010PropOp34
 70
     1
102
RTVSPost2010Prop35
280
     0
102
RTVSPost2010PropOp35
 70
     1
102
RTVSPost2010Prop36
280
     0
102
RTVSPost2010PropOp36
 70
     1
102
RTVSPost2010Prop37
 90
       50
102
RTVSPost2010PropOp37
 70
     1
102
RTVSPost2010Prop38
140
0.0
102
RTVSPost2010PropOp38
 70
     1
102
RTVSPost2010Prop39
140
1.0
102
RTVSPost2010PropOp39
 70
     1
102
RTVSPost2010Prop40
 90
        0
102
RTVSPost2010PropOp40
 70
     1
102
RTVSPost2010Prop41ColorIndex
 90
       18
102
RTVSPost2010Prop41ColorRGB
 90
        0
102
RTVSPost2010PropOp41
 70
     1
102
RTVSPost2010Prop42
 90
       50
102
RTVSPost2010PropOp42
 70
     1
102
RTVSPost2010Prop43
 90
        3
102
RTVSPost2010PropOp43
 70
     1
102
RTVSPost2010Prop44ColorIndex
 90
        5
102
RTVSPost2010Prop44ColorRGB
 90
      255
102
RTVSPost2010PropOp44
 70
     1
102
RTVSPost2010Prop45
280
     0
102
RTVSPost2010PropOp45
 70
     1
102
RTVSPost2010Prop46
 90
       50
102
RTVSPost2010PropOp46
 70
     1
102
RTVSPost2010Prop47
 90
       50
102
RTVSPost2010PropOp47
 70
     1
102
RTVSPost2010Prop48
 90
       50
102
RTVSPost2010PropOp48
 70
     1
102
RTVSPost2010Prop49
280
     0
102
RTVSPost2010PropOp49
 70
     1
102
RTVSPost2010Prop50
 90
       50
102
RTVSPost2010PropOp50
 70
     1
102
RTVSPost2010Prop51ColorIndex
 90
      256
102
RTVSPost2010Prop51ColorRGB
 90
-16777216
102
RTVSPost2010PropOp51
 70
     0
102
RTVSPost2010Prop52
140
1.0
102
RTVSPost2010PropOp52
 70
     0
102
RTVSPost2010Prop53
 90
        2
102
RTVSPost2010PropOp53
 70
     1
102
RTVSPost2010Prop54
  1
strokes_ogs.tif
102
RTVSPost2010PropOp54
 70
     1
102
RTVSPost2010Prop55
280
     0
102
RTVSPost2010PropOp55
 70
     1
102
RTVSPost2010Prop56
140
1.0
102
RTVSPost2010PropOp56
 70
     1
102
RTVSPost2010Prop57
140
1.0
102
RTVSPost2010PropOp57
 70
     1
  0
XRECORD
  5
E77
102
{ACAD_REACTORS
330
E76
102
}
330
E76
100
AcDbXrecord
280
     1
102
RTVSPropertyOp0
 70
     1
102
RTVSPropertyOp1
 70
     1
102
RTVSPropertyOp2
 70
     1
102
RTVSPropertyOp3
 70
     1
102
RTVSPropertyOp4
 70
     1
102
RTVSPropertyOp5
 70
     1
102
RTVSPropertyOp6
 70
     1
102
RTVSPropertyOp7
 70
     1
102
RTVSPropertyOp8
 70
     1
102
RTVSPropertyOp9
 70
     1
102
RTVSPropertyOp10
 70
     1
102
RTVSPropertyOp11
 70
     1
102
RTVSPropertyOp12
 70
     1
102
RTVSPropertyOp13
 70
     1
102
RTVSPropertyOp14
 70
     1
102
RTVSPropertyOp15
 70
     1
102
RTVSPropertyOp16
 70
     1
102
RTVSPropertyOp17
 70
     1
102
RTVSPropertyOp18
 70
     1
102
RTVSPropertyOp19
 70
     1
102
RTVSPropertyOp20
 70
     1
102
RTVSPropertyOp21
 70
     1
102
RTVSPropertyOp22
 70
     1
102
RTVSPropertyOp23
 70
     1
102
RTVSPropertyOp24
 70
     1
102
RTVSPropertyOp25
 70
     1
102
RTVSPropertyOp26
 70
     1
102
RTVSPropertyOp27
 70
     1
102
RTVSPropertyOp28
 70
     1
102
RTVSPropertyOp29
 70
     1
102
RTVSPropertyOp30
 70
     1
102
RTVSPropertyOp31
 70
     1
102
RTVSPropertyOp32
 70
     1
102
RTVSPropertyOp33
 70
     1
102
RTVSPropertyOp34
 70
     1
102
RTVSPropertyOp35
 70
     1
102
RTVSPropertyOp36
 70
     1
102
RTVSPropertyOp37
 70
     1
102
RTVSPropertyOp38
 70
     1
102
RTVSPropertyOp39
 70
     1
102
RTVSPropertyOp40
 70
     1
102
RTVSPropertyOp41
 70
     1
102
RTVSPropertyOp42
 70
     1
102
RTVSPropertyOp43
 70
     1
102
RTVSPropertyOp44
 70
     1
102
RTVSPropertyOp45
 70
     1
102
RTVSPropertyOp46
 70
     1
102
RTVSPropertyOp47
 70
     1
102
RTVSPropertyOp48
 70
     1
102
RTVSPropertyOp49
 70
     1
102
RTVSPropertyOp50
 70
     1
102
RTVSPropertyOp51
 70
     0
102
RTVSPropertyOp52
 70
     0
102
RTVSPropertyOp53
 70
     1
102
RTVSPropertyOp54
 70
     1
102
RTVSPropertyOp55
 70
     1
102
RTVSPropertyOp56
 70
     1
102
RTVSPropertyOp57
 70
     1
102
RTVSPost2010Prop28
280
     0
102
RTVSPost2010PropOp28
 70
     1
102
RTVSPost2010Prop29
280
     1
102
RTVSPost2010PropOp29
 70
     1
102
RTVSPost2010Prop30
280
     1
102
RTVSPost2010PropOp30
 70
     1
102
RTVSPost2010Prop31
280
     0
102
RTVSPost2010PropOp31
 70
     1
102
RTVSPost2010Prop32
280
     0
102
RTVSPost2010PropOp32
 70
     1
102
RTVSPost2010Prop33
280
     0
102
RTVSPost2010PropOp33
 70
     1
102
RTVSPost2010Prop34
280
     0
102
RTVSPost2010PropOp34
 70
     1
102
RTVSPost2010Prop35
280
     0
102
RTVSPost2010PropOp35
 70
     1
102
RTVSPost2010Prop36
280
     0
102
RTVSPost2010PropOp36
 70
     1
102
RTVSPost2010Prop37
 90
       50
102
RTVSPost2010PropOp37
 70
     1
102
RTVSPost2010Prop38
140
0.0
102
RTVSPost2010PropOp38
 70
     1
102
RTVSPost2010Prop39
140
1.0
102
RTVSPost2010PropOp39
 70
     1
102
RTVSPost2010Prop40
 90
        0
102
RTVSPost2010PropOp40
 70
     1
102
RTVSPost2010Prop41ColorIndex
 90
       18
102
RTVSPost2010Prop41ColorRGB
 90
        0
102
RTVSPost2010PropOp41
 70
     1
102
RTVSPost2010Prop42
 90
       50
102
RTVSPost2010PropOp42
 70
     1
102
RTVSPost2010Prop43
 90
        3
102
RTVSPost2010PropOp43
 70
     1
102
RTVSPost2010Prop44ColorIndex
 90
        5
102
RTVSPost2010Prop44ColorRGB
 90
      255
102
RTVSPost2010PropOp44
 70
     1
102
RTVSPost2010Prop45
280
     0
102
RTVSPost2010PropOp45
 70
     1
102
RTVSPost2010Prop46
 90
       50
102
RTVSPost2010PropOp46
 70
     1
102
RTVSPost2010Prop47
 90
       50
102
RTVSPost2010PropOp47
 70
     1
102
RTVSPost2010Prop48
 90
       50
102
RTVSPost2010PropOp48
 70
     1
102
RTVSPost2010Prop49
280
     0
102
RTVSPost2010PropOp49
 70
     1
102
RTVSPost2010Prop50
 90
       50
102
RTVSPost2010PropOp50
 70
     1
102
RTVSPost2010Prop51ColorIndex
 90
      256
102
RTVSPost2010Prop51ColorRGB
 90
-16777216
102
RTVSPost2010PropOp51
 70
     0
102
RTVSPost2010Prop52
140
1.0
102
RTVSPost2010PropOp52
 70
     0
102
RTVSPost2010Prop53
 90
        2
102
RTVSPost2010PropOp53
 70
     1
102
RTVSPost2010Prop54
  1
strokes_ogs.tif
102
RTVSPost2010PropOp54
 70
     1
102
RTVSPost2010Prop55
280
     0
102
RTVSPost2010PropOp55
 70
     1
102
RTVSPost2010Prop56
140
1.0
102
RTVSPost2010PropOp56
 70
     1
102
RTVSPost2010Prop57
140
1.0
102
RTVSPost2010PropOp57
 70
     1
  0
XRECORD
  5
E8B
102
{ACAD_REACTORS
330
E8A
102
}
330
E8A
100
AcDbXrecord
280
     1
102
RTVSPropertyOp0
 70
     0
102
RTVSPropertyOp1
 70
     0
102
RTVSPropertyOp2
 70
     0
102
RTVSPropertyOp3
 70
     0
102
RTVSPropertyOp4
 70
     0
102
RTVSPropertyOp5
 70
     0
102
RTVSPropertyOp6
 70
     0
102
RTVSPropertyOp7
 70
     0
102
RTVSPropertyOp8
 70
     0
102
RTVSPropertyOp9
 70
     0
102
RTVSPropertyOp10
 70
     0
102
RTVSPropertyOp11
 70
     0
102
RTVSPropertyOp12
 70
     0
102
RTVSPropertyOp13
 70
     0
102
RTVSPropertyOp14
 70
     2
102
RTVSPropertyOp15
 70
     0
102
RTVSPropertyOp16
 70
     0
102
RTVSPropertyOp17
 70
     0
102
RTVSPropertyOp18
 70
     0
102
RTVSPropertyOp19
 70
     0
102
RTVSPropertyOp20
 70
     0
102
RTVSPropertyOp21
 70
     0
102
RTVSPropertyOp22
 70
     0
102
RTVSPropertyOp23
 70
     0
102
RTVSPropertyOp24
 70
     0
102
RTVSPropertyOp25
 70
     0
102
RTVSPropertyOp26
 70
     0
102
RTVSPropertyOp27
 70
     0
102
RTVSPropertyOp28
 70
     0
102
RTVSPropertyOp29
 70
     0
102
RTVSPropertyOp30
 70
     0
102
RTVSPropertyOp31
 70
     0
102
RTVSPropertyOp32
 70
     0
102
RTVSPropertyOp33
 70
     0
102
RTVSPropertyOp34
 70
     0
102
RTVSPropertyOp35
 70
     0
102
RTVSPropertyOp36
 70
     0
102
RTVSPropertyOp37
 70
     0
102
RTVSPropertyOp38
 70
     0
102
RTVSPropertyOp39
 70
     0
102
RTVSPropertyOp40
 70
     0
102
RTVSPropertyOp41
 70
     0
102
RTVSPropertyOp42
 70
     0
102
RTVSPropertyOp43
 70
     0
102
RTVSPropertyOp44
 70
     0
102
RTVSPropertyOp45
 70
     0
102
RTVSPropertyOp46
 70
     0
102
RTVSPropertyOp47
 70
     0
102
RTVSPropertyOp48
 70
     0
102
RTVSPropertyOp49
 70
     0
102
RTVSPropertyOp50
 70
     0
102
RTVSPropertyOp51
 70
     0
102
RTVSPropertyOp52
 70
     0
102
RTVSPropertyOp53
 70
     0
102
RTVSPropertyOp54
 70
     0
102
RTVSPropertyOp55
 70
     0
102
RTVSPropertyOp56
 70
     0
102
RTVSPropertyOp57
 70
     0
102
RTVSPost2010Prop28
280
     0
102
RTVSPost2010PropOp28
 70
     0
102
RTVSPost2010Prop29
280
     1
102
RTVSPost2010PropOp29
 70
     0
102
RTVSPost2010Prop30
280
     1
102
RTVSPost2010PropOp30
 70
     0
102
RTVSPost2010Prop31
280
     0
102
RTVSPost2010PropOp31
 70
     0
102
RTVSPost2010Prop32
280
     0
102
RTVSPost2010PropOp32
 70
     0
102
RTVSPost2010Prop33
280
     0
102
RTVSPost2010PropOp33
 70
     0
102
RTVSPost2010Prop34
280
     0
102
RTVSPost2010PropOp34
 70
     0
102
RTVSPost2010Prop35
280
     0
102
RTVSPost2010PropOp35
 70
     0
102
RTVSPost2010Prop36
280
     0
102
RTVSPost2010PropOp36
 70
     0
102
RTVSPost2010Prop37
 90
       50
102
RTVSPost2010PropOp37
 70
     0
102
RTVSPost2010Prop38
140
0.0
102
RTVSPost2010PropOp38
 70
     0
102
RTVSPost2010Prop39
140
1.0
102
RTVSPost2010PropOp39
 70
     0
102
RTVSPost2010Prop40
 90
        0
102
RTVSPost2010PropOp40
 70
     0
102
RTVSPost2010Prop41ColorIndex
 90
       18
102
RTVSPost2010Prop41ColorRGB
 90
        0
102
RTVSPost2010PropOp41
 70
     0
102
RTVSPost2010Prop42
 90
       50
102
RTVSPost2010PropOp42
 70
     0
102
RTVSPost2010Prop43
 90
        3
102
RTVSPost2010PropOp43
 70
     0
102
RTVSPost2010Prop44ColorIndex
 90
        5
102
RTVSPost2010Prop44ColorRGB
 90
      255
102
RTVSPost2010PropOp44
 70
     0
102
RTVSPost2010Prop45
280
     0
102
RTVSPost2010PropOp45
 70
     0
102
RTVSPost2010Prop46
 90
       50
102
RTVSPost2010PropOp46
 70
     0
102
RTVSPost2010Prop47
 90
       50
102
RTVSPost2010PropOp47
 70
     0
102
RTVSPost2010Prop48
 90
       50
102
RTVSPost2010PropOp48
 70
     0
102
RTVSPost2010Prop49
280
     0
102
RTVSPost2010PropOp49
 70
     0
102
RTVSPost2010Prop50
 90
       50
102
RTVSPost2010PropOp50
 70
     0
102
RTVSPost2010Prop51ColorIndex
 90
      256
102
RTVSPost2010Prop51ColorRGB
 90
-16777216
102
RTVSPost2010PropOp51
 70
     0
102
RTVSPost2010Prop52
140
1.0
102
RTVSPost2010PropOp52
 70
     0
102
RTVSPost2010Prop53
 90
        2
102
RTVSPost2010PropOp53
 70
     0
102
RTVSPost2010Prop54
  1
strokes_ogs.tif
102
RTVSPost2010PropOp54
 70
     0
102
RTVSPost2010Prop55
280
     0
102
RTVSPost2010PropOp55
 70
     0
102
RTVSPost2010Prop56
140
1.0
102
RTVSPost2010PropOp56
 70
     0
102
RTVSPost2010Prop57
140
1.0
102
RTVSPost2010PropOp57
 70
     0
  0
XRECORD
  5
E85
102
{ACAD_REACTORS
330
E84
102
}
330
E84
100
AcDbXrecord
280
     1
102
RTVSPropertyOp0
 70
     1
102
RTVSPropertyOp1
 70
     1
102
RTVSPropertyOp2
 70
     1
102
RTVSPropertyOp3
 70
     1
102
RTVSPropertyOp4
 70
     1
102
RTVSPropertyOp5
 70
     1
102
RTVSPropertyOp6
 70
     1
102
RTVSPropertyOp7
 70
     1
102
RTVSPropertyOp8
 70
     1
102
RTVSPropertyOp9
 70
     1
102
RTVSPropertyOp10
 70
     1
102
RTVSPropertyOp11
 70
     1
102
RTVSPropertyOp12
 70
     1
102
RTVSPropertyOp13
 70
     1
102
RTVSPropertyOp14
 70
     1
102
RTVSPropertyOp15
 70
     1
102
RTVSPropertyOp16
 70
     1
102
RTVSPropertyOp17
 70
     1
102
RTVSPropertyOp18
 70
     1
102
RTVSPropertyOp19
 70
     1
102
RTVSPropertyOp20
 70
     1
102
RTVSPropertyOp21
 70
     1
102
RTVSPropertyOp22
 70
     1
102
RTVSPropertyOp23
 70
     1
102
RTVSPropertyOp24
 70
     1
102
RTVSPropertyOp25
 70
     1
102
RTVSPropertyOp26
 70
     1
102
RTVSPropertyOp27
 70
     1
102
RTVSPropertyOp28
 70
     1
102
RTVSPropertyOp29
 70
     1
102
RTVSPropertyOp30
 70
     1
102
RTVSPropertyOp31
 70
     1
102
RTVSPropertyOp32
 70
     1
102
RTVSPropertyOp33
 70
     1
102
RTVSPropertyOp34
 70
     1
102
RTVSPropertyOp35
 70
     1
102
RTVSPropertyOp36
 70
     1
102
RTVSPropertyOp37
 70
     1
102
RTVSPropertyOp38
 70
     1
102
RTVSPropertyOp39
 70
     1
102
RTVSPropertyOp40
 70
     1
102
RTVSPropertyOp41
 70
     1
102
RTVSPropertyOp42
 70
     1
102
RTVSPropertyOp43
 70
     1
102
RTVSPropertyOp44
 70
     1
102
RTVSPropertyOp45
 70
     1
102
RTVSPropertyOp46
 70
     1
102
RTVSPropertyOp47
 70
     1
102
RTVSPropertyOp48
 70
     1
102
RTVSPropertyOp49
 70
     1
102
RTVSPropertyOp50
 70
     1
102
RTVSPropertyOp51
 70
     0
102
RTVSPropertyOp52
 70
     0
102
RTVSPropertyOp53
 70
     1
102
RTVSPropertyOp54
 70
     1
102
RTVSPropertyOp55
 70
     1
102
RTVSPropertyOp56
 70
     1
102
RTVSPropertyOp57
 70
     1
102
RTVSPost2010Prop28
280
     0
102
RTVSPost2010PropOp28
 70
     1
102
RTVSPost2010Prop29
280
     1
102
RTVSPost2010PropOp29
 70
     1
102
RTVSPost2010Prop30
280
     1
102
RTVSPost2010PropOp30
 70
     1
102
RTVSPost2010Prop31
280
     0
102
RTVSPost2010PropOp31
 70
     1
102
RTVSPost2010Prop32
280
     0
102
RTVSPost2010PropOp32
 70
     1
102
RTVSPost2010Prop33
280
     0
102
RTVSPost2010PropOp33
 70
     1
102
RTVSPost2010Prop34
280
     0
102
RTVSPost2010PropOp34
 70
     1
102
RTVSPost2010Prop35
280
     0
102
RTVSPost2010PropOp35
 70
     1
102
RTVSPost2010Prop36
280
     0
102
RTVSPost2010PropOp36
 70
     1
102
RTVSPost2010Prop37
 90
       50
102
RTVSPost2010PropOp37
 70
     1
102
RTVSPost2010Prop38
140
0.0
102
RTVSPost2010PropOp38
 70
     1
102
RTVSPost2010Prop39
140
1.0
102
RTVSPost2010PropOp39
 70
     1
102
RTVSPost2010Prop40
 90
        0
102
RTVSPost2010PropOp40
 70
     1
102
RTVSPost2010Prop41ColorIndex
 90
       18
102
RTVSPost2010Prop41ColorRGB
 90
        0
102
RTVSPost2010PropOp41
 70
     1
102
RTVSPost2010Prop42
 90
       50
102
RTVSPost2010PropOp42
 70
     1
102
RTVSPost2010Prop43
 90
        3
102
RTVSPost2010PropOp43
 70
     1
102
RTVSPost2010Prop44ColorIndex
 90
        5
102
RTVSPost2010Prop44ColorRGB
 90
      255
102
RTVSPost2010PropOp44
 70
     1
102
RTVSPost2010Prop45
280
     0
102
RTVSPost2010PropOp45
 70
     1
102
RTVSPost2010Prop46
 90
       50
102
RTVSPost2010PropOp46
 70
     1
102
RTVSPost2010Prop47
 90
       50
102
RTVSPost2010PropOp47
 70
     1
102
RTVSPost2010Prop48
 90
       50
102
RTVSPost2010PropOp48
 70
     1
102
RTVSPost2010Prop49
280
     0
102
RTVSPost2010PropOp49
 70
     1
102
RTVSPost2010Prop50
 90
       50
102
RTVSPost2010PropOp50
 70
     1
102
RTVSPost2010Prop51ColorIndex
 90
      256
102
RTVSPost2010Prop51ColorRGB
 90
-16777216
102
RTVSPost2010PropOp51
 70
     0
102
RTVSPost2010Prop52
140
1.0
102
RTVSPost2010PropOp52
 70
     0
102
RTVSPost2010Prop53
 90
        2
102
RTVSPost2010PropOp53
 70
     1
102
RTVSPost2010Prop54
  1
strokes_ogs.tif
102
RTVSPost2010PropOp54
 70
     1
102
RTVSPost2010Prop55
280
     0
102
RTVSPost2010PropOp55
 70
     1
102
RTVSPost2010Prop56
140
1.0
102
RTVSPost2010PropOp56
 70
     1
102
RTVSPost2010Prop57
140
1.0
102
RTVSPost2010PropOp57
 70
     1
  0
XRECORD
  5
E8D
102
{ACAD_REACTORS
330
E8C
102
}
330
E8C
100
AcDbXrecord
280
     1
102
RTVSPropertyOp0
 70
     0
102
RTVSPropertyOp1
 70
     0
102
RTVSPropertyOp2
 70
     0
102
RTVSPropertyOp3
 70
     0
102
RTVSPropertyOp4
 70
     0
102
RTVSPropertyOp5
 70
     0
102
RTVSPropertyOp6
 70
     0
102
RTVSPropertyOp7
 70
     0
102
RTVSPropertyOp8
 70
     0
102
RTVSPropertyOp9
 70
     0
102
RTVSPropertyOp10
 70
     0
102
RTVSPropertyOp11
 70
     0
102
RTVSPropertyOp12
 70
     0
102
RTVSPropertyOp13
 70
     0
102
RTVSPropertyOp14
 70
     2
102
RTVSPropertyOp15
 70
     0
102
RTVSPropertyOp16
 70
     0
102
RTVSPropertyOp17
 70
     0
102
RTVSPropertyOp18
 70
     0
102
RTVSPropertyOp19
 70
     0
102
RTVSPropertyOp20
 70
     0
102
RTVSPropertyOp21
 70
     0
102
RTVSPropertyOp22
 70
     0
102
RTVSPropertyOp23
 70
     0
102
RTVSPropertyOp24
 70
     0
102
RTVSPropertyOp25
 70
     0
102
RTVSPropertyOp26
 70
     0
102
RTVSPropertyOp27
 70
     0
102
RTVSPropertyOp28
 70
     0
102
RTVSPropertyOp29
 70
     0
102
RTVSPropertyOp30
 70
     0
102
RTVSPropertyOp31
 70
     0
102
RTVSPropertyOp32
 70
     0
102
RTVSPropertyOp33
 70
     0
102
RTVSPropertyOp34
 70
     0
102
RTVSPropertyOp35
 70
     0
102
RTVSPropertyOp36
 70
     0
102
RTVSPropertyOp37
 70
     0
102
RTVSPropertyOp38
 70
     0
102
RTVSPropertyOp39
 70
     0
102
RTVSPropertyOp40
 70
     0
102
RTVSPropertyOp41
 70
     0
102
RTVSPropertyOp42
 70
     0
102
RTVSPropertyOp43
 70
     0
102
RTVSPropertyOp44
 70
     0
102
RTVSPropertyOp45
 70
     0
102
RTVSPropertyOp46
 70
     0
102
RTVSPropertyOp47
 70
     0
102
RTVSPropertyOp48
 70
     0
102
RTVSPropertyOp49
 70
     0
102
RTVSPropertyOp50
 70
     0
102
RTVSPropertyOp51
 70
     0
102
RTVSPropertyOp52
 70
     0
102
RTVSPropertyOp53
 70
     0
102
RTVSPropertyOp54
 70
     0
102
RTVSPropertyOp55
 70
     0
102
RTVSPropertyOp56
 70
     0
102
RTVSPropertyOp57
 70
     0
102
RTVSPost2010Prop28
280
     0
102
RTVSPost2010PropOp28
 70
     0
102
RTVSPost2010Prop29
280
     1
102
RTVSPost2010PropOp29
 70
     0
102
RTVSPost2010Prop30
280
     1
102
RTVSPost2010PropOp30
 70
     0
102
RTVSPost2010Prop31
280
     0
102
RTVSPost2010PropOp31
 70
     0
102
RTVSPost2010Prop32
280
     0
102
RTVSPost2010PropOp32
 70
     0
102
RTVSPost2010Prop33
280
     0
102
RTVSPost2010PropOp33
 70
     0
102
RTVSPost2010Prop34
280
     0
102
RTVSPost2010PropOp34
 70
     0
102
RTVSPost2010Prop35
280
     0
102
RTVSPost2010PropOp35
 70
     0
102
RTVSPost2010Prop36
280
     0
102
RTVSPost2010PropOp36
 70
     0
102
RTVSPost2010Prop37
 90
       50
102
RTVSPost2010PropOp37
 70
     0
102
RTVSPost2010Prop38
140
0.0
102
RTVSPost2010PropOp38
 70
     0
102
RTVSPost2010Prop39
140
1.0
102
RTVSPost2010PropOp39
 70
     0
102
RTVSPost2010Prop40
 90
        0
102
RTVSPost2010PropOp40
 70
     0
102
RTVSPost2010Prop41ColorIndex
 90
       18
102
RTVSPost2010Prop41ColorRGB
 90
        0
102
RTVSPost2010PropOp41
 70
     0
102
RTVSPost2010Prop42
 90
       50
102
RTVSPost2010PropOp42
 70
     0
102
RTVSPost2010Prop43
 90
        3
102
RTVSPost2010PropOp43
 70
     0
102
RTVSPost2010Prop44ColorIndex
 90
        5
102
RTVSPost2010Prop44ColorRGB
 90
      255
102
RTVSPost2010PropOp44
 70
     0
102
RTVSPost2010Prop45
280
     0
102
RTVSPost2010PropOp45
 70
     0
102
RTVSPost2010Prop46
 90
       50
102
RTVSPost2010PropOp46
 70
     0
102
RTVSPost2010Prop47
 90
       50
102
RTVSPost2010PropOp47
 70
     0
102
RTVSPost2010Prop48
 90
       50
102
RTVSPost2010PropOp48
 70
     0
102
RTVSPost2010Prop49
280
     0
102
RTVSPost2010PropOp49
 70
     0
102
RTVSPost2010Prop50
 90
       50
102
RTVSPost2010PropOp50
 70
     0
102
RTVSPost2010Prop51ColorIndex
 90
      256
102
RTVSPost2010Prop51ColorRGB
 90
-16777216
102
RTVSPost2010PropOp51
 70
     0
102
RTVSPost2010Prop52
140
1.0
102
RTVSPost2010PropOp52
 70
     0
102
RTVSPost2010Prop53
 90
        2
102
RTVSPost2010PropOp53
 70
     0
102
RTVSPost2010Prop54
  1
strokes_ogs.tif
102
RTVSPost2010PropOp54
 70
     0
102
RTVSPost2010Prop55
280
     0
102
RTVSPost2010PropOp55
 70
     0
102
RTVSPost2010Prop56
140
1.0
102
RTVSPost2010PropOp56
 70
     0
102
RTVSPost2010Prop57
140
1.0
102
RTVSPost2010PropOp57
 70
     0
  0
XRECORD
  5
E7B
102
{ACAD_REACTORS
330
E7A
102
}
330
E7A
100
AcDbXrecord
280
     1
102
RTVSPropertyOp0
 70
     1
102
RTVSPropertyOp1
 70
     1
102
RTVSPropertyOp2
 70
     1
102
RTVSPropertyOp3
 70
     1
102
RTVSPropertyOp4
 70
     1
102
RTVSPropertyOp5
 70
     1
102
RTVSPropertyOp6
 70
     1
102
RTVSPropertyOp7
 70
     1
102
RTVSPropertyOp8
 70
     1
102
RTVSPropertyOp9
 70
     1
102
RTVSPropertyOp10
 70
     1
102
RTVSPropertyOp11
 70
     1
102
RTVSPropertyOp12
 70
     1
102
RTVSPropertyOp13
 70
     1
102
RTVSPropertyOp14
 70
     1
102
RTVSPropertyOp15
 70
     1
102
RTVSPropertyOp16
 70
     1
102
RTVSPropertyOp17
 70
     1
102
RTVSPropertyOp18
 70
     1
102
RTVSPropertyOp19
 70
     1
102
RTVSPropertyOp20
 70
     1
102
RTVSPropertyOp21
 70
     1
102
RTVSPropertyOp22
 70
     1
102
RTVSPropertyOp23
 70
     1
102
RTVSPropertyOp24
 70
     1
102
RTVSPropertyOp25
 70
     1
102
RTVSPropertyOp26
 70
     1
102
RTVSPropertyOp27
 70
     1
102
RTVSPropertyOp28
 70
     1
102
RTVSPropertyOp29
 70
     1
102
RTVSPropertyOp30
 70
     1
102
RTVSPropertyOp31
 70
     1
102
RTVSPropertyOp32
 70
     1
102
RTVSPropertyOp33
 70
     1
102
RTVSPropertyOp34
 70
     1
102
RTVSPropertyOp35
 70
     1
102
RTVSPropertyOp36
 70
     1
102
RTVSPropertyOp37
 70
     1
102
RTVSPropertyOp38
 70
     1
102
RTVSPropertyOp39
 70
     1
102
RTVSPropertyOp40
 70
     1
102
RTVSPropertyOp41
 70
     1
102
RTVSPropertyOp42
 70
     1
102
RTVSPropertyOp43
 70
     1
102
RTVSPropertyOp44
 70
     1
102
RTVSPropertyOp45
 70
     1
102
RTVSPropertyOp46
 70
     1
102
RTVSPropertyOp47
 70
     1
102
RTVSPropertyOp48
 70
     1
102
RTVSPropertyOp49
 70
     1
102
RTVSPropertyOp50
 70
     1
102
RTVSPropertyOp51
 70
     0
102
RTVSPropertyOp52
 70
     0
102
RTVSPropertyOp53
 70
     1
102
RTVSPropertyOp54
 70
     1
102
RTVSPropertyOp55
 70
     1
102
RTVSPropertyOp56
 70
     1
102
RTVSPropertyOp57
 70
     1
102
RTVSPost2010Prop28
280
     0
102
RTVSPost2010PropOp28
 70
     1
102
RTVSPost2010Prop29
280
     1
102
RTVSPost2010PropOp29
 70
     1
102
RTVSPost2010Prop30
280
     1
102
RTVSPost2010PropOp30
 70
     1
102
RTVSPost2010Prop31
280
     0
102
RTVSPost2010PropOp31
 70
     1
102
RTVSPost2010Prop32
280
     0
102
RTVSPost2010PropOp32
 70
     1
102
RTVSPost2010Prop33
280
     0
102
RTVSPost2010PropOp33
 70
     1
102
RTVSPost2010Prop34
280
     0
102
RTVSPost2010PropOp34
 70
     1
102
RTVSPost2010Prop35
280
     0
102
RTVSPost2010PropOp35
 70
     1
102
RTVSPost2010Prop36
280
     0
102
RTVSPost2010PropOp36
 70
     1
102
RTVSPost2010Prop37
 90
       50
102
RTVSPost2010PropOp37
 70
     1
102
RTVSPost2010Prop38
140
0.0
102
RTVSPost2010PropOp38
 70
     1
102
RTVSPost2010Prop39
140
1.0
102
RTVSPost2010PropOp39
 70
     1
102
RTVSPost2010Prop40
 90
        0
102
RTVSPost2010PropOp40
 70
     1
102
RTVSPost2010Prop41ColorIndex
 90
       18
102
RTVSPost2010Prop41ColorRGB
 90
        0
102
RTVSPost2010PropOp41
 70
     1
102
RTVSPost2010Prop42
 90
       50
102
RTVSPost2010PropOp42
 70
     1
102
RTVSPost2010Prop43
 90
        3
102
RTVSPost2010PropOp43
 70
     1
102
RTVSPost2010Prop44ColorIndex
 90
        5
102
RTVSPost2010Prop44ColorRGB
 90
      255
102
RTVSPost2010PropOp44
 70
     1
102
RTVSPost2010Prop45
280
     0
102
RTVSPost2010PropOp45
 70
     1
102
RTVSPost2010Prop46
 90
       50
102
RTVSPost2010PropOp46
 70
     1
102
RTVSPost2010Prop47
 90
       50
102
RTVSPost2010PropOp47
 70
     1
102
RTVSPost2010Prop48
 90
       50
102
RTVSPost2010PropOp48
 70
     1
102
RTVSPost2010Prop49
280
     0
102
RTVSPost2010PropOp49
 70
     1
102
RTVSPost2010Prop50
 90
       50
102
RTVSPost2010PropOp50
 70
     1
102
RTVSPost2010Prop51ColorIndex
 90
      256
102
RTVSPost2010Prop51ColorRGB
 90
-16777216
102
RTVSPost2010PropOp51
 70
     0
102
RTVSPost2010Prop52
140
1.0
102
RTVSPost2010PropOp52
 70
     0
102
RTVSPost2010Prop53
 90
        2
102
RTVSPost2010PropOp53
 70
     1
102
RTVSPost2010Prop54
  1
strokes_ogs.tif
102
RTVSPost2010PropOp54
 70
     1
102
RTVSPost2010Prop55
280
     0
102
RTVSPost2010PropOp55
 70
     1
102
RTVSPost2010Prop56
140
1.0
102
RTVSPost2010PropOp56
 70
     1
102
RTVSPost2010Prop57
140
1.0
102
RTVSPost2010PropOp57
 70
     1
  0
XRECORD
  5
E99
102
{ACAD_REACTORS
330
E98
102
}
330
E98
100
AcDbXrecord
280
     1
102
RTVSPropertyOp0
 70
     1
102
RTVSPropertyOp1
 70
     1
102
RTVSPropertyOp2
 70
     1
102
RTVSPropertyOp3
 70
     1
102
RTVSPropertyOp4
 70
     1
102
RTVSPropertyOp5
 70
     1
102
RTVSPropertyOp6
 70
     1
102
RTVSPropertyOp7
 70
     1
102
RTVSPropertyOp8
 70
     1
102
RTVSPropertyOp9
 70
     1
102
RTVSPropertyOp10
 70
     1
102
RTVSPropertyOp11
 70
     1
102
RTVSPropertyOp12
 70
     1
102
RTVSPropertyOp13
 70
     1
102
RTVSPropertyOp14
 70
     1
102
RTVSPropertyOp15
 70
     1
102
RTVSPropertyOp16
 70
     1
102
RTVSPropertyOp17
 70
     1
102
RTVSPropertyOp18
 70
     1
102
RTVSPropertyOp19
 70
     1
102
RTVSPropertyOp20
 70
     1
102
RTVSPropertyOp21
 70
     1
102
RTVSPropertyOp22
 70
     1
102
RTVSPropertyOp23
 70
     1
102
RTVSPropertyOp24
 70
     1
102
RTVSPropertyOp25
 70
     1
102
RTVSPropertyOp26
 70
     1
102
RTVSPropertyOp27
 70
     1
102
RTVSPropertyOp28
 70
     1
102
RTVSPropertyOp29
 70
     1
102
RTVSPropertyOp30
 70
     1
102
RTVSPropertyOp31
 70
     1
102
RTVSPropertyOp32
 70
     1
102
RTVSPropertyOp33
 70
     1
102
RTVSPropertyOp34
 70
     1
102
RTVSPropertyOp35
 70
     1
102
RTVSPropertyOp36
 70
     1
102
RTVSPropertyOp37
 70
     1
102
RTVSPropertyOp38
 70
     1
102
RTVSPropertyOp39
 70
     1
102
RTVSPropertyOp40
 70
     1
102
RTVSPropertyOp41
 70
     1
102
RTVSPropertyOp42
 70
     1
102
RTVSPropertyOp43
 70
     1
102
RTVSPropertyOp44
 70
     1
102
RTVSPropertyOp45
 70
     1
102
RTVSPropertyOp46
 70
     1
102
RTVSPropertyOp47
 70
     1
102
RTVSPropertyOp48
 70
     1
102
RTVSPropertyOp49
 70
     1
102
RTVSPropertyOp50
 70
     1
102
RTVSPropertyOp51
 70
     0
102
RTVSPropertyOp52
 70
     0
102
RTVSPropertyOp53
 70
     1
102
RTVSPropertyOp54
 70
     1
102
RTVSPropertyOp55
 70
     1
102
RTVSPropertyOp56
 70
     1
102
RTVSPropertyOp57
 70
     1
102
RTVSPost2010Prop28
280
     0
102
RTVSPost2010PropOp28
 70
     1
102
RTVSPost2010Prop29
280
     1
102
RTVSPost2010PropOp29
 70
     1
102
RTVSPost2010Prop30
280
     1
102
RTVSPost2010PropOp30
 70
     1
102
RTVSPost2010Prop31
280
     0
102
RTVSPost2010PropOp31
 70
     1
102
RTVSPost2010Prop32
280
     0
102
RTVSPost2010PropOp32
 70
     1
102
RTVSPost2010Prop33
280
     0
102
RTVSPost2010PropOp33
 70
     1
102
RTVSPost2010Prop34
280
     0
102
RTVSPost2010PropOp34
 70
     1
102
RTVSPost2010Prop35
280
     0
102
RTVSPost2010PropOp35
 70
     1
102
RTVSPost2010Prop36
280
     0
102
RTVSPost2010PropOp36
 70
     1
102
RTVSPost2010Prop37
 90
       50
102
RTVSPost2010PropOp37
 70
     1
102
RTVSPost2010Prop38
140
0.0
102
RTVSPost2010PropOp38
 70
     1
102
RTVSPost2010Prop39
140
1.0
102
RTVSPost2010PropOp39
 70
     1
102
RTVSPost2010Prop40
 90
        0
102
RTVSPost2010PropOp40
 70
     1
102
RTVSPost2010Prop41ColorIndex
 90
       18
102
RTVSPost2010Prop41ColorRGB
 90
        0
102
RTVSPost2010PropOp41
 70
     1
102
RTVSPost2010Prop42
 90
       50
102
RTVSPost2010PropOp42
 70
     1
102
RTVSPost2010Prop43
 90
        3
102
RTVSPost2010PropOp43
 70
     1
102
RTVSPost2010Prop44ColorIndex
 90
        5
102
RTVSPost2010Prop44ColorRGB
 90
      255
102
RTVSPost2010PropOp44
 70
     1
102
RTVSPost2010Prop45
280
     0
102
RTVSPost2010PropOp45
 70
     1
102
RTVSPost2010Prop46
 90
       50
102
RTVSPost2010PropOp46
 70
     1
102
RTVSPost2010Prop47
 90
       50
102
RTVSPost2010PropOp47
 70
     1
102
RTVSPost2010Prop48
 90
       50
102
RTVSPost2010PropOp48
 70
     1
102
RTVSPost2010Prop49
280
     0
102
RTVSPost2010PropOp49
 70
     1
102
RTVSPost2010Prop50
 90
       50
102
RTVSPost2010PropOp50
 70
     1
102
RTVSPost2010Prop51ColorIndex
 90
      256
102
RTVSPost2010Prop51ColorRGB
 90
-16777216
102
RTVSPost2010PropOp51
 70
     0
102
RTVSPost2010Prop52
140
1.0
102
RTVSPost2010PropOp52
 70
     0
102
RTVSPost2010Prop53
 90
        2
102
RTVSPost2010PropOp53
 70
     1
102
RTVSPost2010Prop54
  1
strokes_ogs.tif
102
RTVSPost2010PropOp54
 70
     1
102
RTVSPost2010Prop55
280
     0
102
RTVSPost2010PropOp55
 70
     1
102
RTVSPost2010Prop56
140
1.0
102
RTVSPost2010PropOp56
 70
     1
102
RTVSPost2010Prop57
140
1.0
102
RTVSPost2010PropOp57
 70
     1
  0
XRECORD
  5
E97
102
{ACAD_REACTORS
330
E96
102
}
330
E96
100
AcDbXrecord
280
     1
102
RTVSPropertyOp0
 70
     1
102
RTVSPropertyOp1
 70
     1
102
RTVSPropertyOp2
 70
     1
102
RTVSPropertyOp3
 70
     1
102
RTVSPropertyOp4
 70
     1
102
RTVSPropertyOp5
 70
     1
102
RTVSPropertyOp6
 70
     1
102
RTVSPropertyOp7
 70
     1
102
RTVSPropertyOp8
 70
     1
102
RTVSPropertyOp9
 70
     1
102
RTVSPropertyOp10
 70
     1
102
RTVSPropertyOp11
 70
     1
102
RTVSPropertyOp12
 70
     1
102
RTVSPropertyOp13
 70
     1
102
RTVSPropertyOp14
 70
     1
102
RTVSPropertyOp15
 70
     1
102
RTVSPropertyOp16
 70
     1
102
RTVSPropertyOp17
 70
     1
102
RTVSPropertyOp18
 70
     1
102
RTVSPropertyOp19
 70
     1
102
RTVSPropertyOp20
 70
     1
102
RTVSPropertyOp21
 70
     1
102
RTVSPropertyOp22
 70
     1
102
RTVSPropertyOp23
 70
     1
102
RTVSPropertyOp24
 70
     1
102
RTVSPropertyOp25
 70
     1
102
RTVSPropertyOp26
 70
     1
102
RTVSPropertyOp27
 70
     1
102
RTVSPropertyOp28
 70
     1
102
RTVSPropertyOp29
 70
     1
102
RTVSPropertyOp30
 70
     1
102
RTVSPropertyOp31
 70
     1
102
RTVSPropertyOp32
 70
     1
102
RTVSPropertyOp33
 70
     1
102
RTVSPropertyOp34
 70
     1
102
RTVSPropertyOp35
 70
     1
102
RTVSPropertyOp36
 70
     1
102
RTVSPropertyOp37
 70
     1
102
RTVSPropertyOp38
 70
     1
102
RTVSPropertyOp39
 70
     1
102
RTVSPropertyOp40
 70
     1
102
RTVSPropertyOp41
 70
     1
102
RTVSPropertyOp42
 70
     1
102
RTVSPropertyOp43
 70
     1
102
RTVSPropertyOp44
 70
     1
102
RTVSPropertyOp45
 70
     1
102
RTVSPropertyOp46
 70
     1
102
RTVSPropertyOp47
 70
     1
102
RTVSPropertyOp48
 70
     1
102
RTVSPropertyOp49
 70
     1
102
RTVSPropertyOp50
 70
     1
102
RTVSPropertyOp51
 70
     0
102
RTVSPropertyOp52
 70
     0
102
RTVSPropertyOp53
 70
     1
102
RTVSPropertyOp54
 70
     1
102
RTVSPropertyOp55
 70
     1
102
RTVSPropertyOp56
 70
     1
102
RTVSPropertyOp57
 70
     1
102
RTVSPost2010Prop28
280
     0
102
RTVSPost2010PropOp28
 70
     1
102
RTVSPost2010Prop29
280
     1
102
RTVSPost2010PropOp29
 70
     1
102
RTVSPost2010Prop30
280
     1
102
RTVSPost2010PropOp30
 70
     1
102
RTVSPost2010Prop31
280
     0
102
RTVSPost2010PropOp31
 70
     1
102
RTVSPost2010Prop32
280
     0
102
RTVSPost2010PropOp32
 70
     1
102
RTVSPost2010Prop33
280
     0
102
RTVSPost2010PropOp33
 70
     1
102
RTVSPost2010Prop34
280
     0
102
RTVSPost2010PropOp34
 70
     1
102
RTVSPost2010Prop35
280
     0
102
RTVSPost2010PropOp35
 70
     1
102
RTVSPost2010Prop36
280
     0
102
RTVSPost2010PropOp36
 70
     1
102
RTVSPost2010Prop37
 90
       50
102
RTVSPost2010PropOp37
 70
     1
102
RTVSPost2010Prop38
140
0.0
102
RTVSPost2010PropOp38
 70
     1
102
RTVSPost2010Prop39
140
1.0
102
RTVSPost2010PropOp39
 70
     1
102
RTVSPost2010Prop40
 90
        0
102
RTVSPost2010PropOp40
 70
     1
102
RTVSPost2010Prop41ColorIndex
 90
       18
102
RTVSPost2010Prop41ColorRGB
 90
        0
102
RTVSPost2010PropOp41
 70
     1
102
RTVSPost2010Prop42
 90
       50
102
RTVSPost2010PropOp42
 70
     1
102
RTVSPost2010Prop43
 90
        3
102
RTVSPost2010PropOp43
 70
     1
102
RTVSPost2010Prop44ColorIndex
 90
        5
102
RTVSPost2010Prop44ColorRGB
 90
      255
102
RTVSPost2010PropOp44
 70
     1
102
RTVSPost2010Prop45
280
     0
102
RTVSPost2010PropOp45
 70
     1
102
RTVSPost2010Prop46
 90
       50
102
RTVSPost2010PropOp46
 70
     1
102
RTVSPost2010Prop47
 90
       50
102
RTVSPost2010PropOp47
 70
     1
102
RTVSPost2010Prop48
 90
       50
102
RTVSPost2010PropOp48
 70
     1
102
RTVSPost2010Prop49
280
     0
102
RTVSPost2010PropOp49
 70
     1
102
RTVSPost2010Prop50
 90
       50
102
RTVSPost2010PropOp50
 70
     1
102
RTVSPost2010Prop51ColorIndex
 90
      256
102
RTVSPost2010Prop51ColorRGB
 90
-16777216
102
RTVSPost2010PropOp51
 70
     0
102
RTVSPost2010Prop52
140
1.0
102
RTVSPost2010PropOp52
 70
     0
102
RTVSPost2010Prop53
 90
        2
102
RTVSPost2010PropOp53
 70
     1
102
RTVSPost2010Prop54
  1
strokes_ogs.tif
102
RTVSPost2010PropOp54
 70
     1
102
RTVSPost2010Prop55
280
     0
102
RTVSPost2010PropOp55
 70
     1
102
RTVSPost2010Prop56
140
1.0
102
RTVSPost2010PropOp56
 70
     1
102
RTVSPost2010Prop57
140
1.0
102
RTVSPost2010PropOp57
 70
     1
  0
XRECORD
  5
E91
102
{ACAD_REACTORS
330
E90
102
}
330
E90
100
AcDbXrecord
280
     1
102
RTVSPropertyOp0
 70
     1
102
RTVSPropertyOp1
 70
     1
102
RTVSPropertyOp2
 70
     1
102
RTVSPropertyOp3
 70
     1
102
RTVSPropertyOp4
 70
     1
102
RTVSPropertyOp5
 70
     1
102
RTVSPropertyOp6
 70
     1
102
RTVSPropertyOp7
 70
     1
102
RTVSPropertyOp8
 70
     1
102
RTVSPropertyOp9
 70
     1
102
RTVSPropertyOp10
 70
     1
102
RTVSPropertyOp11
 70
     1
102
RTVSPropertyOp12
 70
     1
102
RTVSPropertyOp13
 70
     1
102
RTVSPropertyOp14
 70
     1
102
RTVSPropertyOp15
 70
     1
102
RTVSPropertyOp16
 70
     1
102
RTVSPropertyOp17
 70
     1
102
RTVSPropertyOp18
 70
     1
102
RTVSPropertyOp19
 70
     1
102
RTVSPropertyOp20
 70
     1
102
RTVSPropertyOp21
 70
     1
102
RTVSPropertyOp22
 70
     1
102
RTVSPropertyOp23
 70
     1
102
RTVSPropertyOp24
 70
     1
102
RTVSPropertyOp25
 70
     1
102
RTVSPropertyOp26
 70
     1
102
RTVSPropertyOp27
 70
     1
102
RTVSPropertyOp28
 70
     1
102
RTVSPropertyOp29
 70
     1
102
RTVSPropertyOp30
 70
     1
102
RTVSPropertyOp31
 70
     1
102
RTVSPropertyOp32
 70
     1
102
RTVSPropertyOp33
 70
     1
102
RTVSPropertyOp34
 70
     1
102
RTVSPropertyOp35
 70
     1
102
RTVSPropertyOp36
 70
     1
102
RTVSPropertyOp37
 70
     1
102
RTVSPropertyOp38
 70
     1
102
RTVSPropertyOp39
 70
     1
102
RTVSPropertyOp40
 70
     1
102
RTVSPropertyOp41
 70
     1
102
RTVSPropertyOp42
 70
     1
102
RTVSPropertyOp43
 70
     1
102
RTVSPropertyOp44
 70
     1
102
RTVSPropertyOp45
 70
     1
102
RTVSPropertyOp46
 70
     1
102
RTVSPropertyOp47
 70
     1
102
RTVSPropertyOp48
 70
     1
102
RTVSPropertyOp49
 70
     1
102
RTVSPropertyOp50
 70
     1
102
RTVSPropertyOp51
 70
     0
102
RTVSPropertyOp52
 70
     0
102
RTVSPropertyOp53
 70
     1
102
RTVSPropertyOp54
 70
     1
102
RTVSPropertyOp55
 70
     1
102
RTVSPropertyOp56
 70
     1
102
RTVSPropertyOp57
 70
     1
102
RTVSPost2010Prop28
280
     0
102
RTVSPost2010PropOp28
 70
     1
102
RTVSPost2010Prop29
280
     1
102
RTVSPost2010PropOp29
 70
     1
102
RTVSPost2010Prop30
280
     1
102
RTVSPost2010PropOp30
 70
     1
102
RTVSPost2010Prop31
280
     0
102
RTVSPost2010PropOp31
 70
     1
102
RTVSPost2010Prop32
280
     0
102
RTVSPost2010PropOp32
 70
     1
102
RTVSPost2010Prop33
280
     0
102
RTVSPost2010PropOp33
 70
     1
102
RTVSPost2010Prop34
280
     0
102
RTVSPost2010PropOp34
 70
     1
102
RTVSPost2010Prop35
280
     0
102
RTVSPost2010PropOp35
 70
     1
102
RTVSPost2010Prop36
280
     0
102
RTVSPost2010PropOp36
 70
     1
102
RTVSPost2010Prop37
 90
       50
102
RTVSPost2010PropOp37
 70
     1
102
RTVSPost2010Prop38
140
0.0
102
RTVSPost2010PropOp38
 70
     1
102
RTVSPost2010Prop39
140
1.0
102
RTVSPost2010PropOp39
 70
     1
102
RTVSPost2010Prop40
 90
        0
102
RTVSPost2010PropOp40
 70
     1
102
RTVSPost2010Prop41ColorIndex
 90
       18
102
RTVSPost2010Prop41ColorRGB
 90
        0
102
RTVSPost2010PropOp41
 70
     1
102
RTVSPost2010Prop42
 90
       50
102
RTVSPost2010PropOp42
 70
     1
102
RTVSPost2010Prop43
 90
        3
102
RTVSPost2010PropOp43
 70
     1
102
RTVSPost2010Prop44ColorIndex
 90
        5
102
RTVSPost2010Prop44ColorRGB
 90
      255
102
RTVSPost2010PropOp44
 70
     1
102
RTVSPost2010Prop45
280
     0
102
RTVSPost2010PropOp45
 70
     1
102
RTVSPost2010Prop46
 90
       50
102
RTVSPost2010PropOp46
 70
     1
102
RTVSPost2010Prop47
 90
       50
102
RTVSPost2010PropOp47
 70
     1
102
RTVSPost2010Prop48
 90
       50
102
RTVSPost2010PropOp48
 70
     1
102
RTVSPost2010Prop49
280
     0
102
RTVSPost2010PropOp49
 70
     1
102
RTVSPost2010Prop50
 90
       50
102
RTVSPost2010PropOp50
 70
     1
102
RTVSPost2010Prop51ColorIndex
 90
      256
102
RTVSPost2010Prop51ColorRGB
 90
-16777216
102
RTVSPost2010PropOp51
 70
     0
102
RTVSPost2010Prop52
140
1.0
102
RTVSPost2010PropOp52
 70
     0
102
RTVSPost2010Prop53
 90
        2
102
RTVSPost2010PropOp53
 70
     1
102
RTVSPost2010Prop54
  1
strokes_ogs.tif
102
RTVSPost2010PropOp54
 70
     1
102
RTVSPost2010Prop55
280
     0
102
RTVSPost2010PropOp55
 70
     1
102
RTVSPost2010Prop56
140
1.0
102
RTVSPost2010PropOp56
 70
     1
102
RTVSPost2010Prop57
140
1.0
102
RTVSPost2010PropOp57
 70
     1
  0
XRECORD
  5
E93
102
{ACAD_REACTORS
330
E92
102
}
330
E92
100
AcDbXrecord
280
     1
102
RTVSPropertyOp0
 70
     1
102
RTVSPropertyOp1
 70
     1
102
RTVSPropertyOp2
 70
     1
102
RTVSPropertyOp3
 70
     1
102
RTVSPropertyOp4
 70
     1
102
RTVSPropertyOp5
 70
     1
102
RTVSPropertyOp6
 70
     1
102
RTVSPropertyOp7
 70
     1
102
RTVSPropertyOp8
 70
     1
102
RTVSPropertyOp9
 70
     1
102
RTVSPropertyOp10
 70
     1
102
RTVSPropertyOp11
 70
     1
102
RTVSPropertyOp12
 70
     1
102
RTVSPropertyOp13
 70
     1
102
RTVSPropertyOp14
 70
     1
102
RTVSPropertyOp15
 70
     1
102
RTVSPropertyOp16
 70
     1
102
RTVSPropertyOp17
 70
     1
102
RTVSPropertyOp18
 70
     1
102
RTVSPropertyOp19
 70
     1
102
RTVSPropertyOp20
 70
     1
102
RTVSPropertyOp21
 70
     1
102
RTVSPropertyOp22
 70
     1
102
RTVSPropertyOp23
 70
     1
102
RTVSPropertyOp24
 70
     1
102
RTVSPropertyOp25
 70
     1
102
RTVSPropertyOp26
 70
     1
102
RTVSPropertyOp27
 70
     1
102
RTVSPropertyOp28
 70
     1
102
RTVSPropertyOp29
 70
     1
102
RTVSPropertyOp30
 70
     1
102
RTVSPropertyOp31
 70
     1
102
RTVSPropertyOp32
 70
     1
102
RTVSPropertyOp33
 70
     1
102
RTVSPropertyOp34
 70
     1
102
RTVSPropertyOp35
 70
     1
102
RTVSPropertyOp36
 70
     1
102
RTVSPropertyOp37
 70
     1
102
RTVSPropertyOp38
 70
     1
102
RTVSPropertyOp39
 70
     1
102
RTVSPropertyOp40
 70
     1
102
RTVSPropertyOp41
 70
     1
102
RTVSPropertyOp42
 70
     1
102
RTVSPropertyOp43
 70
     1
102
RTVSPropertyOp44
 70
     1
102
RTVSPropertyOp45
 70
     1
102
RTVSPropertyOp46
 70
     1
102
RTVSPropertyOp47
 70
     1
102
RTVSPropertyOp48
 70
     1
102
RTVSPropertyOp49
 70
     1
102
RTVSPropertyOp50
 70
     1
102
RTVSPropertyOp51
 70
     0
102
RTVSPropertyOp52
 70
     0
102
RTVSPropertyOp53
 70
     1
102
RTVSPropertyOp54
 70
     1
102
RTVSPropertyOp55
 70
     1
102
RTVSPropertyOp56
 70
     1
102
RTVSPropertyOp57
 70
     1
102
RTVSPost2010Prop28
280
     0
102
RTVSPost2010PropOp28
 70
     1
102
RTVSPost2010Prop29
280
     1
102
RTVSPost2010PropOp29
 70
     1
102
RTVSPost2010Prop30
280
     1
102
RTVSPost2010PropOp30
 70
     1
102
RTVSPost2010Prop31
280
     0
102
RTVSPost2010PropOp31
 70
     1
102
RTVSPost2010Prop32
280
     0
102
RTVSPost2010PropOp32
 70
     1
102
RTVSPost2010Prop33
280
     0
102
RTVSPost2010PropOp33
 70
     1
102
RTVSPost2010Prop34
280
     0
102
RTVSPost2010PropOp34
 70
     1
102
RTVSPost2010Prop35
280
     0
102
RTVSPost2010PropOp35
 70
     1
102
RTVSPost2010Prop36
280
     0
102
RTVSPost2010PropOp36
 70
     1
102
RTVSPost2010Prop37
 90
       50
102
RTVSPost2010PropOp37
 70
     1
102
RTVSPost2010Prop38
140
0.0
102
RTVSPost2010PropOp38
 70
     1
102
RTVSPost2010Prop39
140
1.0
102
RTVSPost2010PropOp39
 70
     1
102
RTVSPost2010Prop40
 90
        0
102
RTVSPost2010PropOp40
 70
     1
102
RTVSPost2010Prop41ColorIndex
 90
       18
102
RTVSPost2010Prop41ColorRGB
 90
        0
102
RTVSPost2010PropOp41
 70
     1
102
RTVSPost2010Prop42
 90
       50
102
RTVSPost2010PropOp42
 70
     1
102
RTVSPost2010Prop43
 90
        3
102
RTVSPost2010PropOp43
 70
     1
102
RTVSPost2010Prop44ColorIndex
 90
        5
102
RTVSPost2010Prop44ColorRGB
 90
      255
102
RTVSPost2010PropOp44
 70
     1
102
RTVSPost2010Prop45
280
     0
102
RTVSPost2010PropOp45
 70
     1
102
RTVSPost2010Prop46
 90
       50
102
RTVSPost2010PropOp46
 70
     1
102
RTVSPost2010Prop47
 90
       50
102
RTVSPost2010PropOp47
 70
     1
102
RTVSPost2010Prop48
 90
       50
102
RTVSPost2010PropOp48
 70
     1
102
RTVSPost2010Prop49
280
     0
102
RTVSPost2010PropOp49
 70
     1
102
RTVSPost2010Prop50
 90
       50
102
RTVSPost2010PropOp50
 70
     1
102
RTVSPost2010Prop51ColorIndex
 90
      256
102
RTVSPost2010Prop51ColorRGB
 90
-16777216
102
RTVSPost2010PropOp51
 70
     0
102
RTVSPost2010Prop52
140
1.0
102
RTVSPost2010PropOp52
 70
     0
102
RTVSPost2010Prop53
 90
        2
102
RTVSPost2010PropOp53
 70
     1
102
RTVSPost2010Prop54
  1
strokes_ogs.tif
102
RTVSPost2010PropOp54
 70
     1
102
RTVSPost2010Prop55
280
     0
102
RTVSPost2010PropOp55
 70
     1
102
RTVSPost2010Prop56
140
1.0
102
RTVSPost2010PropOp56
 70
     1
102
RTVSPost2010Prop57
140
1.0
102
RTVSPost2010PropOp57
 70
     1
  0
XRECORD
  5
E83
102
{ACAD_REACTORS
330
E82
102
}
330
E82
100
AcDbXrecord
280
     1
102
RTVSPropertyOp0
 70
     1
102
RTVSPropertyOp1
 70
     1
102
RTVSPropertyOp2
 70
     1
102
RTVSPropertyOp3
 70
     1
102
RTVSPropertyOp4
 70
     1
102
RTVSPropertyOp5
 70
     1
102
RTVSPropertyOp6
 70
     1
102
RTVSPropertyOp7
 70
     1
102
RTVSPropertyOp8
 70
     1
102
RTVSPropertyOp9
 70
     1
102
RTVSPropertyOp10
 70
     1
102
RTVSPropertyOp11
 70
     1
102
RTVSPropertyOp12
 70
     1
102
RTVSPropertyOp13
 70
     1
102
RTVSPropertyOp14
 70
     1
102
RTVSPropertyOp15
 70
     1
102
RTVSPropertyOp16
 70
     1
102
RTVSPropertyOp17
 70
     1
102
RTVSPropertyOp18
 70
     1
102
RTVSPropertyOp19
 70
     1
102
RTVSPropertyOp20
 70
     1
102
RTVSPropertyOp21
 70
     1
102
RTVSPropertyOp22
 70
     1
102
RTVSPropertyOp23
 70
     1
102
RTVSPropertyOp24
 70
     1
102
RTVSPropertyOp25
 70
     1
102
RTVSPropertyOp26
 70
     1
102
RTVSPropertyOp27
 70
     1
102
RTVSPropertyOp28
 70
     1
102
RTVSPropertyOp29
 70
     1
102
RTVSPropertyOp30
 70
     1
102
RTVSPropertyOp31
 70
     1
102
RTVSPropertyOp32
 70
     1
102
RTVSPropertyOp33
 70
     1
102
RTVSPropertyOp34
 70
     1
102
RTVSPropertyOp35
 70
     1
102
RTVSPropertyOp36
 70
     1
102
RTVSPropertyOp37
 70
     1
102
RTVSPropertyOp38
 70
     1
102
RTVSPropertyOp39
 70
     1
102
RTVSPropertyOp40
 70
     1
102
RTVSPropertyOp41
 70
     1
102
RTVSPropertyOp42
 70
     1
102
RTVSPropertyOp43
 70
     1
102
RTVSPropertyOp44
 70
     1
102
RTVSPropertyOp45
 70
     1
102
RTVSPropertyOp46
 70
     1
102
RTVSPropertyOp47
 70
     1
102
RTVSPropertyOp48
 70
     1
102
RTVSPropertyOp49
 70
     1
102
RTVSPropertyOp50
 70
     1
102
RTVSPropertyOp51
 70
     0
102
RTVSPropertyOp52
 70
     0
102
RTVSPropertyOp53
 70
     1
102
RTVSPropertyOp54
 70
     1
102
RTVSPropertyOp55
 70
     1
102
RTVSPropertyOp56
 70
     1
102
RTVSPropertyOp57
 70
     1
102
RTVSPost2010Prop28
280
     0
102
RTVSPost2010PropOp28
 70
     1
102
RTVSPost2010Prop29
280
     1
102
RTVSPost2010PropOp29
 70
     1
102
RTVSPost2010Prop30
280
     1
102
RTVSPost2010PropOp30
 70
     1
102
RTVSPost2010Prop31
280
     0
102
RTVSPost2010PropOp31
 70
     1
102
RTVSPost2010Prop32
280
     0
102
RTVSPost2010PropOp32
 70
     1
102
RTVSPost2010Prop33
280
     0
102
RTVSPost2010PropOp33
 70
     1
102
RTVSPost2010Prop34
280
     0
102
RTVSPost2010PropOp34
 70
     1
102
RTVSPost2010Prop35
280
     0
102
RTVSPost2010PropOp35
 70
     1
102
RTVSPost2010Prop36
280
     0
102
RTVSPost2010PropOp36
 70
     1
102
RTVSPost2010Prop37
 90
       50
102
RTVSPost2010PropOp37
 70
     1
102
RTVSPost2010Prop38
140
0.0
102
RTVSPost2010PropOp38
 70
     1
102
RTVSPost2010Prop39
140
1.0
102
RTVSPost2010PropOp39
 70
     1
102
RTVSPost2010Prop40
 90
        0
102
RTVSPost2010PropOp40
 70
     1
102
RTVSPost2010Prop41ColorIndex
 90
       18
102
RTVSPost2010Prop41ColorRGB
 90
        0
102
RTVSPost2010PropOp41
 70
     1
102
RTVSPost2010Prop42
 90
       50
102
RTVSPost2010PropOp42
 70
     1
102
RTVSPost2010Prop43
 90
        3
102
RTVSPost2010PropOp43
 70
     1
102
RTVSPost2010Prop44ColorIndex
 90
        5
102
RTVSPost2010Prop44ColorRGB
 90
      255
102
RTVSPost2010PropOp44
 70
     1
102
RTVSPost2010Prop45
280
     0
102
RTVSPost2010PropOp45
 70
     1
102
RTVSPost2010Prop46
 90
       50
102
RTVSPost2010PropOp46
 70
     1
102
RTVSPost2010Prop47
 90
       50
102
RTVSPost2010PropOp47
 70
     1
102
RTVSPost2010Prop48
 90
       50
102
RTVSPost2010PropOp48
 70
     1
102
RTVSPost2010Prop49
280
     0
102
RTVSPost2010PropOp49
 70
     1
102
RTVSPost2010Prop50
 90
       50
102
RTVSPost2010PropOp50
 70
     1
102
RTVSPost2010Prop51ColorIndex
 90
      256
102
RTVSPost2010Prop51ColorRGB
 90
-16777216
102
RTVSPost2010PropOp51
 70
     0
102
RTVSPost2010Prop52
140
1.0
102
RTVSPost2010PropOp52
 70
     0
102
RTVSPost2010Prop53
 90
        2
102
RTVSPost2010PropOp53
 70
     1
102
RTVSPost2010Prop54
  1
strokes_ogs.tif
102
RTVSPost2010PropOp54
 70
     1
102
RTVSPost2010Prop55
280
     0
102
RTVSPost2010PropOp55
 70
     1
102
RTVSPost2010Prop56
140
1.0
102
RTVSPost2010PropOp56
 70
     1
102
RTVSPost2010Prop57
140
1.0
102
RTVSPost2010PropOp57
 70
     1
  0
XRECORD
  5
E75
102
{ACAD_REACTORS
330
E74
102
}
330
E74
100
AcDbXrecord
280
     1
102
RTVSPropertyOp0
 70
     1
102
RTVSPropertyOp1
 70
     1
102
RTVSPropertyOp2
 70
     1
102
RTVSPropertyOp3
 70
     1
102
RTVSPropertyOp4
 70
     1
102
RTVSPropertyOp5
 70
     1
102
RTVSPropertyOp6
 70
     1
102
RTVSPropertyOp7
 70
     1
102
RTVSPropertyOp8
 70
     1
102
RTVSPropertyOp9
 70
     1
102
RTVSPropertyOp10
 70
     1
102
RTVSPropertyOp11
 70
     1
102
RTVSPropertyOp12
 70
     1
102
RTVSPropertyOp13
 70
     1
102
RTVSPropertyOp14
 70
     1
102
RTVSPropertyOp15
 70
     1
102
RTVSPropertyOp16
 70
     1
102
RTVSPropertyOp17
 70
     1
102
RTVSPropertyOp18
 70
     1
102
RTVSPropertyOp19
 70
     1
102
RTVSPropertyOp20
 70
     1
102
RTVSPropertyOp21
 70
     1
102
RTVSPropertyOp22
 70
     1
102
RTVSPropertyOp23
 70
     1
102
RTVSPropertyOp24
 70
     1
102
RTVSPropertyOp25
 70
     1
102
RTVSPropertyOp26
 70
     1
102
RTVSPropertyOp27
 70
     1
102
RTVSPropertyOp28
 70
     1
102
RTVSPropertyOp29
 70
     1
102
RTVSPropertyOp30
 70
     1
102
RTVSPropertyOp31
 70
     1
102
RTVSPropertyOp32
 70
     1
102
RTVSPropertyOp33
 70
     1
102
RTVSPropertyOp34
 70
     1
102
RTVSPropertyOp35
 70
     1
102
RTVSPropertyOp36
 70
     1
102
RTVSPropertyOp37
 70
     1
102
RTVSPropertyOp38
 70
     1
102
RTVSPropertyOp39
 70
     1
102
RTVSPropertyOp40
 70
     1
102
RTVSPropertyOp41
 70
     1
102
RTVSPropertyOp42
 70
     1
102
RTVSPropertyOp43
 70
     1
102
RTVSPropertyOp44
 70
     1
102
RTVSPropertyOp45
 70
     1
102
RTVSPropertyOp46
 70
     1
102
RTVSPropertyOp47
 70
     1
102
RTVSPropertyOp48
 70
     1
102
RTVSPropertyOp49
 70
     1
102
RTVSPropertyOp50
 70
     1
102
RTVSPropertyOp51
 70
     0
102
RTVSPropertyOp52
 70
     0
102
RTVSPropertyOp53
 70
     1
102
RTVSPropertyOp54
 70
     1
102
RTVSPropertyOp55
 70
     1
102
RTVSPropertyOp56
 70
     1
102
RTVSPropertyOp57
 70
     1
102
RTVSPost2010Prop28
280
     0
102
RTVSPost2010PropOp28
 70
     1
102
RTVSPost2010Prop29
280
     1
102
RTVSPost2010PropOp29
 70
     1
102
RTVSPost2010Prop30
280
     1
102
RTVSPost2010PropOp30
 70
     1
102
RTVSPost2010Prop31
280
     0
102
RTVSPost2010PropOp31
 70
     1
102
RTVSPost2010Prop32
280
     0
102
RTVSPost2010PropOp32
 70
     1
102
RTVSPost2010Prop33
280
     0
102
RTVSPost2010PropOp33
 70
     1
102
RTVSPost2010Prop34
280
     0
102
RTVSPost2010PropOp34
 70
     1
102
RTVSPost2010Prop35
280
     0
102
RTVSPost2010PropOp35
 70
     1
102
RTVSPost2010Prop36
280
     0
102
RTVSPost2010PropOp36
 70
     1
102
RTVSPost2010Prop37
 90
       50
102
RTVSPost2010PropOp37
 70
     1
102
RTVSPost2010Prop38
140
0.0
102
RTVSPost2010PropOp38
 70
     1
102
RTVSPost2010Prop39
140
1.0
102
RTVSPost2010PropOp39
 70
     1
102
RTVSPost2010Prop40
 90
        0
102
RTVSPost2010PropOp40
 70
     1
102
RTVSPost2010Prop41ColorIndex
 90
       18
102
RTVSPost2010Prop41ColorRGB
 90
        0
102
RTVSPost2010PropOp41
 70
     1
102
RTVSPost2010Prop42
 90
       50
102
RTVSPost2010PropOp42
 70
     1
102
RTVSPost2010Prop43
 90
        3
102
RTVSPost2010PropOp43
 70
     1
102
RTVSPost2010Prop44ColorIndex
 90
        5
102
RTVSPost2010Prop44ColorRGB
 90
      255
102
RTVSPost2010PropOp44
 70
     1
102
RTVSPost2010Prop45
280
     0
102
RTVSPost2010PropOp45
 70
     1
102
RTVSPost2010Prop46
 90
       50
102
RTVSPost2010PropOp46
 70
     1
102
RTVSPost2010Prop47
 90
       50
102
RTVSPost2010PropOp47
 70
     1
102
RTVSPost2010Prop48
 90
       50
102
RTVSPost2010PropOp48
 70
     1
102
RTVSPost2010Prop49
280
     0
102
RTVSPost2010PropOp49
 70
     1
102
RTVSPost2010Prop50
 90
       50
102
RTVSPost2010PropOp50
 70
     1
102
RTVSPost2010Prop51ColorIndex
 90
      256
102
RTVSPost2010Prop51ColorRGB
 90
-16777216
102
RTVSPost2010PropOp51
 70
     0
102
RTVSPost2010Prop52
140
1.0
102
RTVSPost2010PropOp52
 70
     0
102
RTVSPost2010Prop53
 90
        2
102
RTVSPost2010PropOp53
 70
     1
102
RTVSPost2010Prop54
  1
strokes_ogs.tif
102
RTVSPost2010PropOp54
 70
     1
102
RTVSPost2010Prop55
280
     0
102
RTVSPost2010PropOp55
 70
     1
102
RTVSPost2010Prop56
140
1.0
102
RTVSPost2010PropOp56
 70
     1
102
RTVSPost2010Prop57
140
1.0
102
RTVSPost2010PropOp57
 70
     1
  0
XRECORD
  5
E95
102
{ACAD_REACTORS
330
E94
102
}
330
E94
100
AcDbXrecord
280
     1
102
RTVSPropertyOp0
 70
     1
102
RTVSPropertyOp1
 70
     1
102
RTVSPropertyOp2
 70
     1
102
RTVSPropertyOp3
 70
     1
102
RTVSPropertyOp4
 70
     1
102
RTVSPropertyOp5
 70
     1
102
RTVSPropertyOp6
 70
     1
102
RTVSPropertyOp7
 70
     1
102
RTVSPropertyOp8
 70
     1
102
RTVSPropertyOp9
 70
     1
102
RTVSPropertyOp10
 70
     1
102
RTVSPropertyOp11
 70
     1
102
RTVSPropertyOp12
 70
     1
102
RTVSPropertyOp13
 70
     1
102
RTVSPropertyOp14
 70
     1
102
RTVSPropertyOp15
 70
     1
102
RTVSPropertyOp16
 70
     1
102
RTVSPropertyOp17
 70
     1
102
RTVSPropertyOp18
 70
     1
102
RTVSPropertyOp19
 70
     1
102
RTVSPropertyOp20
 70
     1
102
RTVSPropertyOp21
 70
     1
102
RTVSPropertyOp22
 70
     1
102
RTVSPropertyOp23
 70
     1
102
RTVSPropertyOp24
 70
     1
102
RTVSPropertyOp25
 70
     1
102
RTVSPropertyOp26
 70
     1
102
RTVSPropertyOp27
 70
     1
102
RTVSPropertyOp28
 70
     1
102
RTVSPropertyOp29
 70
     1
102
RTVSPropertyOp30
 70
     1
102
RTVSPropertyOp31
 70
     1
102
RTVSPropertyOp32
 70
     1
102
RTVSPropertyOp33
 70
     1
102
RTVSPropertyOp34
 70
     1
102
RTVSPropertyOp35
 70
     1
102
RTVSPropertyOp36
 70
     1
102
RTVSPropertyOp37
 70
     1
102
RTVSPropertyOp38
 70
     1
102
RTVSPropertyOp39
 70
     1
102
RTVSPropertyOp40
 70
     1
102
RTVSPropertyOp41
 70
     1
102
RTVSPropertyOp42
 70
     1
102
RTVSPropertyOp43
 70
     1
102
RTVSPropertyOp44
 70
     1
102
RTVSPropertyOp45
 70
     1
102
RTVSPropertyOp46
 70
     1
102
RTVSPropertyOp47
 70
     1
102
RTVSPropertyOp48
 70
     1
102
RTVSPropertyOp49
 70
     1
102
RTVSPropertyOp50
 70
     1
102
RTVSPropertyOp51
 70
     0
102
RTVSPropertyOp52
 70
     0
102
RTVSPropertyOp53
 70
     1
102
RTVSPropertyOp54
 70
     1
102
RTVSPropertyOp55
 70
     1
102
RTVSPropertyOp56
 70
     1
102
RTVSPropertyOp57
 70
     1
102
RTVSPost2010Prop28
280
     0
102
RTVSPost2010PropOp28
 70
     1
102
RTVSPost2010Prop29
280
     1
102
RTVSPost2010PropOp29
 70
     1
102
RTVSPost2010Prop30
280
     1
102
RTVSPost2010PropOp30
 70
     1
102
RTVSPost2010Prop31
280
     0
102
RTVSPost2010PropOp31
 70
     1
102
RTVSPost2010Prop32
280
     0
102
RTVSPost2010PropOp32
 70
     1
102
RTVSPost2010Prop33
280
     0
102
RTVSPost2010PropOp33
 70
     1
102
RTVSPost2010Prop34
280
     0
102
RTVSPost2010PropOp34
 70
     1
102
RTVSPost2010Prop35
280
     0
102
RTVSPost2010PropOp35
 70
     1
102
RTVSPost2010Prop36
280
     0
102
RTVSPost2010PropOp36
 70
     1
102
RTVSPost2010Prop37
 90
       50
102
RTVSPost2010PropOp37
 70
     1
102
RTVSPost2010Prop38
140
0.0
102
RTVSPost2010PropOp38
 70
     1
102
RTVSPost2010Prop39
140
1.0
102
RTVSPost2010PropOp39
 70
     1
102
RTVSPost2010Prop40
 90
        0
102
RTVSPost2010PropOp40
 70
     1
102
RTVSPost2010Prop41ColorIndex
 90
       18
102
RTVSPost2010Prop41ColorRGB
 90
        0
102
RTVSPost2010PropOp41
 70
     1
102
RTVSPost2010Prop42
 90
       50
102
RTVSPost2010PropOp42
 70
     1
102
RTVSPost2010Prop43
 90
        3
102
RTVSPost2010PropOp43
 70
     1
102
RTVSPost2010Prop44ColorIndex
 90
        5
102
RTVSPost2010Prop44ColorRGB
 90
      255
102
RTVSPost2010PropOp44
 70
     1
102
RTVSPost2010Prop45
280
     0
102
RTVSPost2010PropOp45
 70
     1
102
RTVSPost2010Prop46
 90
       50
102
RTVSPost2010PropOp46
 70
     1
102
RTVSPost2010Prop47
 90
       50
102
RTVSPost2010PropOp47
 70
     1
102
RTVSPost2010Prop48
 90
       50
102
RTVSPost2010PropOp48
 70
     1
102
RTVSPost2010Prop49
280
     0
102
RTVSPost2010PropOp49
 70
     1
102
RTVSPost2010Prop50
 90
       50
102
RTVSPost2010PropOp50
 70
     1
102
RTVSPost2010Prop51ColorIndex
 90
      256
102
RTVSPost2010Prop51ColorRGB
 90
-16777216
102
RTVSPost2010PropOp51
 70
     0
102
RTVSPost2010Prop52
140
1.0
102
RTVSPost2010PropOp52
 70
     0
102
RTVSPost2010Prop53
 90
        2
102
RTVSPost2010PropOp53
 70
     1
102
RTVSPost2010Prop54
  1
strokes_ogs.tif
102
RTVSPost2010PropOp54
 70
     1
102
RTVSPost2010Prop55
280
     0
102
RTVSPost2010PropOp55
 70
     1
102
RTVSPost2010Prop56
140
1.0
102
RTVSPost2010PropOp56
 70
     1
102
RTVSPost2010Prop57
140
1.0
102
RTVSPost2010PropOp57
 70
     1
  0
ENDSEC
  0
EOF
