  0
SECTION
  2
HEADER
  9
$ACADVER
  1
AC1006
  9
$DWGCODEPAGE
  3
ansi_1252
  9
$INSBASE
 10
0.0
 20
0.0
 30
0.0
  9
$EXTMIN
 10
0.0
 20
0.0
  9
$EXTMAX
 10
18.0
 20
18.0
  9
$LIMMIN
 10
0.0
 20
0.0
  9
$LIMMAX
 10
420.0
 20
297.0
  9
$ORTHOMODE
 70
     0
  9
$REGENMODE
 70
     1
  9
$FILLMODE
 70
     1
  9
$QTEXTMODE
 70
     0
  9
$MIRRTEXT
 70
     0
  9
$DRAGMODE
 70
     2
  9
$LTSCALE
 40
1.0
  9
$OSMODE
 70
    37
  9
$ATTMODE
 70
     1
  9
$TEXTSIZE
 40
2.5
  9
$TRACEWID
 40
1.0
  9
$TEXTSTYLE
  7
STANDARD
  9
$CLAYER
  8
1
  9
$CELTYPE
  6
BYLAYER
  9
$CECOLOR
 62
   256
  9
$DIMSCALE
 40
1.0
  9
$DIMASZ
 40
2.5
  9
$DIMEXO
 40
0.625
  9
$DIMDLI
 40
3.75
  9
$DIMRND
 40
0.0
  9
$DIMDLE
 40
0.0
  9
$DIMEXE
 40
1.25
  9
$DIMTP
 40
0.0
  9
$DIMTM
 40
0.0
  9
$DIMTXT
 40
2.5
  9
$DIMCEN
 40
2.5
  9
$DIMTSZ
 40
0.0
  9
$DIMTOL
 70
     0
  9
$DIMLIM
 70
     0
  9
$DIMTIH
 70
     0
  9
$DIMTOH
 70
     0
  9
$DIMSE1
 70
     0
  9
$DIMSE2
 70
     0
  9
$DIMTAD
 70
     1
  9
$DIMZIN
 70
     8
  9
$DIMBLK
  1

  9
$DIMASO
 70
     1
  9
$DIMSHO
 70
     1
  9
$DIMPOST
  1

  9
$DIMAPOST
  1

  9
$DIMALT
 70
     0
  9
$DIMALTD
 70
     3
  9
$DIMALTF
 40
0.03937007874016
  9
$DIMLFAC
 40
1.0
  9
$DIMTOFL
 70
     1
  9
$DIMTVP
 40
0.0
  9
$DIMTIX
 70
     0
  9
$DIMSOXD
 70
     0
  9
$DIMSAH
 70
     0
  9
$DIMBLK1
  1

  9
$DIMBLK2
  1

  9
$LUNITS
 70
     2
  9
$LUPREC
 70
     4
  9
$SKETCHINC
 40
1.0
  9
$FILLETRAD
 40
0.0
  9
$AUNITS
 70
     0
  9
$AUPREC
 70
     0
  9
$MENU
  1
.
  9
$ELEVATION
 40
0.0
  9
$THICKNESS
 40
0.0
  9
$LIMCHECK
 70
     0
  9
$CHAMFERA
 40
0.0
  9
$CHAMFERB
 40
0.0
  9
$SKPOLY
 70
     0
  9
$TDCREATE
 40
2453353.508792488
  9
$TDUPDATE
 40
2454774.842085926
  9
$TDINDWG
 40
4895786.051922963
  9
$TDUSRTIMER
 40
4895786.051922963
  9
$USRTIMER
 70
     1
  9
$ANGBASE
 50
0.0
  9
$ANGDIR
 70
     0
  9
$PDMODE
 70
     0
  9
$PDSIZE
 40
0.0
  9
$PLINEWID
 40
0.0
  9
$COORDS
 70
     1
  9
$SPLFRAME
 70
     0
  9
$SPLINETYPE
 70
     6
  9
$SPLINESEGS
 70
     8
  9
$ATTDIA
 70
     0
  9
$ATTREQ
 70
     1
  9
$HANDLING
 70
     1
  9
$HANDSEED
  5
116
  9
$SURFTAB1
 70
     6
  9
$SURFTAB2
 70
     6
  9
$SURFTYPE
 70
     6
  9
$SURFU
 70
     6
  9
$SURFV
 70
     6
  9
$UCSNAME
  2

  9
$UCSORG
 10
0.0
 20
0.0
 30
0.0
  9
$UCSXDIR
 10
1.0
 20
0.0
 30
0.0
  9
$UCSYDIR
 10
0.0
 20
1.0
 30
0.0
  9
$USERI1
 70
     0
  9
$USERI2
 70
     0
  9
$USERI3
 70
     0
  9
$USERI4
 70
     0
  9
$USERI5
 70
     0
  9
$USERR1
 40
0.0
  9
$USERR2
 40
0.0
  9
$USERR3
 40
0.0
  9
$USERR4
 40
0.0
  9
$USERR5
 40
0.0
  9
$WORLDVIEW
 70
     1
  0
ENDSEC
  0
SECTION
  2
TABLES
  0
TABLE
  2
VPORT
 70
     1
  0
VPORT
  2
*ACTIVE
 70
     0
 10
0.0
 20
0.0
 11
1.0
 21
1.0
 12
9.664201393414187
 22
9.188563235324107
 13
0.0
 23
0.0
 14
1.0
 24
1.0
 15
1.0
 25
1.0
 16
0.0
 26
0.0
 36
1.0
 17
0.0
 27
0.0
 37
0.0
 40
19.14792532419981
 41
1.664827586206897
 42
50.0
 43
0.0
 44
0.0
 50
0.0
 51
0.0
 71
    16
 72
  1000
 73
     1
 74
     1
 75
     0
 76
     0
 77
     0
 78
     0
  0
ENDTAB
  0
TABLE
  2
LTYPE
 70
     1
  0
LTYPE
  2
CONTINUOUS
 70
     0
  3
Solid line
 72
    65
 73
     0
 40
0.0
  0
ENDTAB
  0
TABLE
  2
LAYER
 70
     3
  0
LAYER
  2
0
 70
     0
 62
     7
  6
CONTINUOUS
  0
LAYER
  2
2
 70
     0
 62
     7
  6
CONTINUOUS
  0
LAYER
  2
1
 70
     0
 62
     7
  6
CONTINUOUS
  0
ENDTAB
  0
TABLE
  2
STYLE
 70
     1
  0
STYLE
  2
STANDARD
 70
     0
 40
0.0
 41
1.0
 50
0.0
 71
     0
 42
2.5
  3
txt
  4

  0
ENDTAB
  0
TABLE
  2
VIEW
 70
     0
  0
ENDTAB
  0
TABLE
  2
UCS
 70
     0
  0
ENDTAB
  0
ENDSEC
  0
SECTION
  2
BLOCKS
  0
ENDSEC
  0
SECTION
  2
ENTITIES
  0
LINE
  5
A6
  8
2
 10
5.0
 20
18.0
 30
0.0
 11
0.0
 21
13.0
 31
0.0
  0
LINE
  5
A7
  8
2
 10
5.0
 20
18.0
 30
0.0
 11
13.0
 21
18.0
 31
0.0
  0
LINE
  5
A8
  8
2
 10
13.0
 20
18.0
 30
0.0
 11
18.0
 21
13.0
 31
0.0
  0
LINE
  5
A9
  8
2
 10
18.0
 20
13.0
 30
0.0
 11
18.0
 21
5.0
 31
0.0
  0
LINE
  5
AA
  8
2
 10
18.0
 20
5.0
 30
0.0
 11
13.0
 21
0.0
 31
0.0
  0
LINE
  5
AB
  8
2
 10
5.0
 20
0.0
 30
0.0
 11
13.0
 21
0.0
 31
0.0
  0
LINE
  5
AC
  8
2
 10
0.0
 20
5.0
 30
0.0
 11
5.0
 21
0.0
 31
0.0
  0
LINE
  5
AD
  8
2
 10
0.0
 20
13.0
 30
0.0
 11
0.0
 21
5.0
 31
0.0
  0
CIRCLE
  5
AF
  8
1
 10
1.999499560088323
 20
8.999602076088534
 30
0.0
 40
0.2506743070691964
  0
CIRCLE
  5
B0
  8
1
 62
     3
 10
3.0
 20
9.0
 30
0.0
 40
0.2506743070691964
  0
CIRCLE
  5
B1
  8
1
 62
     3
 10
3.999499560088323
 20
8.999602076088534
 30
0.0
 40
0.2506743070691964
  0
CIRCLE
  5
B2
  8
1
 62
     3
 10
5.0
 20
9.0
 30
0.0
 40
0.2506743070691968
  0
CIRCLE
  5
B3
  8
1
 62
     3
 10
6.0
 20
9.0
 30
0.0
 40
0.2506743070691968
  0
CIRCLE
  5
B4
  8
1
 62
     6
 10
9.0
 20
9.0
 30
0.0
 40
0.2506743070691968
  0
CIRCLE
  5
B5
  8
1
 62
     4
 10
11.99949956008832
 20
8.999602076088534
 30
0.0
 40
0.2506743070691968
  0
CIRCLE
  5
B6
  8
1
 62
     4
 10
13.0
 20
9.0
 30
0.0
 40
0.2506743070691968
  0
CIRCLE
  5
B7
  8
1
 62
     4
 10
13.99949956008832
 20
8.999602076088534
 30
0.0
 40
0.2506743070691968
  0
CIRCLE
  5
B8
  8
1
 62
     4
 10
15.0
 20
9.0
 30
0.0
 40
0.2506743070691968
  0
CIRCLE
  5
B9
  8
1
 10
16.0
 20
9.0
 30
0.0
 40
0.2506743070691968
  0
CIRCLE
  5
BA
  8
1
 10
1.999499560088323
 20
6.999602076088534
 30
0.0
 40
0.2506743070691964
  0
CIRCLE
  5
BB
  8
1
 10
3.0
 20
7.0
 30
0.0
 40
0.2506743070691964
  0
CIRCLE
  5
BC
  8
1
 10
3.999499560088323
 20
6.999602076088534
 30
0.0
 40
0.2506743070691964
  0
CIRCLE
  5
BD
  8
1
 10
5.0
 20
7.0
 30
0.0
 40
0.2506743070691968
  0
CIRCLE
  5
BE
  8
1
 10
6.0
 20
7.0
 30
0.0
 40
0.2506743070691968
  0
CIRCLE
  5
BF
  8
1
 62
     3
 10
1.999499560088323
 20
10.99960207608853
 30
0.0
 40
0.2506743070691964
  0
CIRCLE
  5
C0
  8
1
 10
3.0
 20
11.0
 30
0.0
 40
0.2506743070691964
  0
CIRCLE
  5
C1
  8
1
 10
3.999499560088323
 20
10.99960207608853
 30
0.0
 40
0.2506743070691964
  0
CIRCLE
  5
C2
  8
1
 10
5.0
 20
11.0
 30
0.0
 40
0.2506743070691968
  0
CIRCLE
  5
C3
  8
1
 10
6.0
 20
11.0
 30
0.0
 40
0.2506743070691968
  0
CIRCLE
  5
C4
  8
1
 10
11.99949956008832
 20
10.99960207608853
 30
0.0
 40
0.2506743070691968
  0
CIRCLE
  5
C5
  8
1
 10
13.0
 20
11.0
 30
0.0
 40
0.2506743070691968
  0
CIRCLE
  5
C6
  8
1
 10
13.99949956008832
 20
10.99960207608853
 30
0.0
 40
0.2506743070691968
  0
CIRCLE
  5
C7
  8
1
 10
15.0
 20
11.0
 30
0.0
 40
0.2506743070691968
  0
CIRCLE
  5
C8
  8
1
 10
16.0
 20
11.0
 30
0.0
 40
0.2506743070691968
  0
CIRCLE
  5
C9
  8
1
 10
11.99949956008832
 20
6.999602076088534
 30
0.0
 40
0.2506743070691968
  0
CIRCLE
  5
CA
  8
1
 10
13.0
 20
7.0
 30
0.0
 40
0.2506743070691968
  0
CIRCLE
  5
CB
  8
1
 10
13.99949956008832
 20
6.999602076088534
 30
0.0
 40
0.2506743070691968
  0
CIRCLE
  5
CC
  8
1
 10
15.0
 20
7.0
 30
0.0
 40
0.2506743070691968
  0
CIRCLE
  5
CD
  8
1
 62
     4
 10
16.0
 20
7.0
 30
0.0
 40
0.2506743070691968
  0
CIRCLE
  5
CE
  8
1
 62
     6
 10
7.0
 20
11.0
 30
0.0
 40
0.2506743070691968
  0
CIRCLE
  5
CF
  8
1
 62
     6
 10
11.0
 20
11.0
 30
0.0
 40
0.2506743070691968
  0
CIRCLE
  5
D0
  8
1
 62
     6
 10
11.0
 20
7.0
 30
0.0
 40
0.2506743070691968
  0
CIRCLE
  5
D1
  8
1
 62
     6
 10
7.0
 20
7.0
 30
0.0
 40
0.2506743070691968
  0
CIRCLE
  5
D2
  8
1
 10
10.99960207608853
 20
6.000500439911677
 30
0.0
 40
0.2506743070691968
  0
CIRCLE
  5
D3
  8
1
 10
11.0
 20
4.999999999999999
 30
0.0
 40
0.2506743070691968
  0
CIRCLE
  5
D4
  8
1
 10
10.99960207608853
 20
4.000500439911677
 30
0.0
 40
0.2506743070691968
  0
CIRCLE
  5
D5
  8
1
 10
11.0
 20
2.999999999999999
 30
0.0
 40
0.2506743070691968
  0
CIRCLE
  5
D6
  8
1
 62
     1
 10
13.0
 20
1.999999999999999
 30
0.0
 40
0.2506743070691968
  0
CIRCLE
  5
D7
  8
1
 10
8.999999999999998
 20
1.999999999999999
 30
0.0
 40
0.2506743070691968
  0
CIRCLE
  5
D8
  8
1
 10
6.999999999999999
 20
2.0
 30
0.0
 40
0.2506743070691968
  0
CIRCLE
  5
D9
  8
1
 10
6.999999999999999
 20
3.0
 30
0.0
 40
0.2506743070691968
  0
CIRCLE
  5
DA
  8
1
 62
     1
 10
9.0
 20
2.999999999999999
 30
0.0
 40
0.2506743070691968
  0
CIRCLE
  5
DB
  8
1
 62
     1
 10
8.999602076088534
 20
4.000500439911677
 30
0.0
 40
0.2506743070691968
  0
CIRCLE
  5
DC
  8
1
 62
     1
 10
9.0
 20
4.999999999999999
 30
0.0
 40
0.2506743070691968
  0
CIRCLE
  5
DD
  8
1
 62
     1
 10
8.999602076088534
 20
6.000500439911677
 30
0.0
 40
0.2506743070691968
  0
CIRCLE
  5
DE
  8
1
 10
6.999602076088534
 20
6.000500439911678
 30
0.0
 40
0.2506743070691968
  0
CIRCLE
  5
DF
  8
1
 10
7.0
 20
5.0
 30
0.0
 40
0.2506743070691968
  0
CIRCLE
  5
E0
  8
1
 10
6.999602076088533
 20
4.000500439911678
 30
0.0
 40
0.2506743070691972
  0
CIRCLE
  5
E1
  8
1
 10
6.999602076088534
 20
16.00050043991168
 30
0.0
 40
0.2506743070691968
  0
CIRCLE
  5
E2
  8
1
 10
8.999602076088534
 20
16.00050043991168
 30
0.0
 40
0.2506743070691968
  0
CIRCLE
  5
E3
  8
1
 62
     2
 10
10.99960207608853
 20
16.00050043991168
 30
0.0
 40
0.2506743070691968
  0
CIRCLE
  5
E4
  8
1
 10
11.0
 20
15.0
 30
0.0
 40
0.2506743070691968
  0
CIRCLE
  5
E5
  8
1
 10
10.99960207608853
 20
14.00050043991168
 30
0.0
 40
0.2506743070691968
  0
CIRCLE
  5
E6
  8
1
 10
11.0
 20
13.0
 30
0.0
 40
0.2506743070691968
  0
CIRCLE
  5
E7
  8
1
 10
11.0
 20
12.0
 30
0.0
 40
0.2506743070691968
  0
CIRCLE
  5
E8
  8
1
 62
     2
 10
8.999999999999998
 20
12.0
 30
0.0
 40
0.2506743070691968
  0
CIRCLE
  5
E9
  8
1
 10
6.999999999999999
 20
12.0
 30
0.0
 40
0.2506743070691968
  0
CIRCLE
  5
EA
  8
1
 10
6.999999999999999
 20
13.0
 30
0.0
 40
0.2506743070691968
  0
CIRCLE
  5
EB
  8
1
 62
     2
 10
9.0
 20
13.0
 30
0.0
 40
0.2506743070691968
  0
CIRCLE
  5
EC
  8
1
 62
     2
 10
8.999602076088534
 20
14.00050043991168
 30
0.0
 40
0.2506743070691968
  0
CIRCLE
  5
ED
  8
1
 62
     2
 10
9.0
 20
15.0
 30
0.0
 40
0.2506743070691968
  0
CIRCLE
  5
EE
  8
1
 10
7.0
 20
15.0
 30
0.0
 40
0.2506743070691968
  0
CIRCLE
  5
EF
  8
1
 10
6.999602076088533
 20
14.00050043991168
 30
0.0
 40
0.2506743070691977
  0
CIRCLE
  5
F0
  8
1
 10
16.0
 20
10.0
 30
0.0
 40
0.2506743070691968
  0
CIRCLE
  5
F1
  8
1
 10
16.0
 20
8.0
 30
0.0
 40
0.2506743070691968
  0
CIRCLE
  5
F2
  8
1
 10
8.999999999999998
 20
1.999999999999999
 30
0.0
 40
0.2506743070691968
  0
CIRCLE
  5
F3
  8
1
 62
     1
 10
6.999999999999998
 20
1.999999999999999
 30
0.0
 40
0.2506743070691968
  0
CIRCLE
  5
F4
  8
1
 10
9.999999999999998
 20
1.999999999999999
 30
0.0
 40
0.2506743070691968
  0
CIRCLE
  5
F5
  8
1
 10
7.999999999999998
 20
1.999999999999999
 30
0.0
 40
0.2506743070691968
  0
CIRCLE
  5
F6
  8
1
 10
1.999499560088323
 20
7.999602076088534
 30
0.0
 40
0.2506743070691964
  0
CIRCLE
  5
F7
  8
1
 10
1.999499560088323
 20
9.999602076088534
 30
0.0
 40
0.2506743070691964
  0
CIRCLE
  5
F8
  8
1
 10
7.999602076088534
 20
16.00050043991168
 30
0.0
 40
0.2506743070691968
  0
CIRCLE
  5
F9
  8
1
 10
9.999602076088534
 20
16.00050043991168
 30
0.0
 40
0.2506743070691968
  0
CIRCLE
  5
FA
  8
1
 62
     1
 10
14.0
 20
2.999999999999999
 30
0.0
 40
0.2506743070691968
  0
CIRCLE
  5
FB
  8
1
 62
     1
 10
15.0
 20
3.999999999999999
 30
0.0
 40
0.2506743070691968
  0
CIRCLE
  5
FC
  8
1
 62
     1
 10
16.0
 20
4.999999999999999
 30
0.0
 40
0.2506743070691986
  0
CIRCLE
  5
FD
  8
1
 10
11.0
 20
1.999999999999999
 30
0.0
 40
0.2506743070691968
  0
CIRCLE
  5
FE
  8
1
 62
     4
 10
13.0
 20
16.0
 30
0.0
 40
0.2506743070691986
  0
CIRCLE
  5
FF
  8
1
 62
     4
 10
14.0
 20
15.0
 30
0.0
 40
0.2506743070691968
  0
CIRCLE
  5
100
  8
1
 62
     4
 10
15.0
 20
14.0
 30
0.0
 40
0.2506743070691968
  0
CIRCLE
  5
101
  8
1
 62
     4
 10
16.0
 20
13.0
 30
0.0
 40
0.2506743070691986
  0
CIRCLE
  5
102
  8
1
 62
     3
 10
2.0
 20
4.999999999999998
 30
0.0
 40
0.2506743070691986
  0
CIRCLE
  5
103
  8
1
 62
     3
 10
3.0
 20
3.999999999999999
 30
0.0
 40
0.2506743070691964
  0
CIRCLE
  5
104
  8
1
 62
     3
 10
4.0
 20
2.999999999999998
 30
0.0
 40
0.2506743070691968
  0
CIRCLE
  5
105
  8
1
 62
     3
 10
5.000000000000002
 20
1.999999999999998
 30
0.0
 40
0.2506743070691966
  0
CIRCLE
  5
106
  8
1
 62
     2
 10
4.999999999999998
 20
16.0
 30
0.0
 40
0.2506743070691986
  0
CIRCLE
  5
107
  8
1
 62
     2
 10
3.999999999999998
 20
15.0
 30
0.0
 40
0.2506743070691968
  0
CIRCLE
  5
108
  8
1
 62
     2
 10
2.999999999999998
 20
14.0
 30
0.0
 40
0.2506743070691968
  0
CIRCLE
  5
109
  8
1
 62
     2
 10
1.999999999999998
 20
13.0
 30
0.0
 40
0.2506743070691968
  0
ENDSEC
  0
EOF
