  0
SECTION
  2
HEADER
  9
$ACADVER
  1
AC1006
  0
ENDSEC
  0
SECTION
  2
TABLES
  0
TABLE
  2
LTYPE
 70
    25
  0
LTYPE
  2
CONTINUOUS
 70
    64
  3
Solid line
 72
    64
 73
     0
 40
0.000000
  0
LTYPE
  2
DASHDOT
 70
    64
  3
__ . __ . __ . __ . __ . __ . __ . __ . __ . __
 72
    65
 73
     4
 40
1.000000
 49
0.500000
 49
-0.250000
 49
0.000000
 49
-0.250000
  0
LTYPE
  2
DASHED
 70
    64
  3
__ __ __ __ __ __ __ __ __ __ __ __ __ __ __ __
 72
    65
 73
     2
 40
0.750000
 49
0.500000
 49
-0.250000
  0
LTYPE
  2
DIVIDE
 70
    64
  3
____ . . ____ . . ____ . . ____ . . ____ . . __
 72
    65
 73
     6
 40
1.250000
 49
0.500000
 49
-0.250000
 49
0.000000
 49
-0.250000
 49
0.000000
 49
-0.250000
  0
LTYPE
  2
DOT
 70
    64
  3
. . . . . . . . . . . . . . . . . . . . . . . . 
 72
    65
 73
     2
 40
0.250000
 49
0.000000
 49
-0.250000
  0
ENDTAB
  0
ENDSEC
  0
SECTION
  2
BLOCKS
  0
BLOCK
  8
0
  2
Object_0
 70
    64
 10
0.000000
 20
0.000000
 30
0.000000
  0
ENDBLK
  0
ENDSEC
  0
SECTION
  2
ENTITIES
  0
INSERT
  8
Default
 62
     7
  2
Object_0
 10
-10.160000
 20
-10.160000
 30
0.000000
  0
LINE
  8
1
 62
     7
  6
DOT
 10
0.000000
 20
0.000000
 30
1.000000
 11
8.661200
 21
6.957100
 31
1.000000
  0
LINE
  8
1
 62
     7
  6
CONTINUOUS
 10
8.661200
 20
6.957100
 30
1.000000
 11
8.675800
 21
6.957100
 31
1.000000
  0
LINE
  8
1
 62
     7
  6
CONTINUOUS
 10
8.675800
 20
6.957100
 30
1.000000
 11
8.675800
 21
7.718500
 31
1.000000
  0
ARC
  8
1
 62
     7
  6
CONTINUOUS
 10
9.703700
 20
7.718500
 30
1.000000
 40
1.027860
 50
156.345407
 51
180.000000
  0
LINE
  8
1
 62
     7
  6
DOT
 10
8.762200
 20
8.130900
 30
1.000000
 11
8.994100
 21
7.972300
 31
1.000000
  0
LINE
  8
1
 62
     7
  6
CONTINUOUS
 10
8.994100
 20
7.972300
 30
1.000000
 11
8.511100
 21
8.302600
 31
1.000000
  0
ARC
  8
1
 62
     7
  6
CONTINUOUS
 10
8.774200
 20
8.666200
 30
1.000000
 40
0.448769
 50
187.528836
 51
234.110600
  0
LINE
  8
1
 62
     7
  6
DOT
 10
8.329300
 20
8.607400
 30
1.000000
 11
8.524300
 21
9.376700
 31
1.000000
  0
ARC
  8
1
 62
     7
  6
CONTINUOUS
 10
7.829900
 20
9.233600
 30
1.000000
 40
0.708999
 50
329.278780
 51
371.644343
  0
LINE
  8
1
 62
     7
  6
CONTINUOUS
 10
8.439400
 20
8.871400
 30
1.000000
 11
8.440500
 21
8.873400
 31
1.000000
  0
ARC
  8
1
 62
     7
  6
CONTINUOUS
 10
8.774200
 20
8.666200
 30
1.000000
 40
0.392825
 50
148.163151
 51
233.999435
  0
LINE
  8
1
 62
     7
  6
CONTINUOUS
 10
8.543300
 20
8.348400
 30
1.000000
 11
9.016600
 21
8.024800
 31
1.000000
  0
LINE
  8
1
 62
     7
  6
DOT
 10
9.016600
 20
8.024800
 30
1.000000
 11
8.970000
 21
7.916100
 31
1.000000
  0
LINE
  8
1
 62
     7
  6
CONTINUOUS
 10
8.970000
 20
7.916100
 30
1.000000
 11
9.029000
 21
8.053600
 31
1.000000
  0
LINE
  8
1
 62
     7
  6
CONTINUOUS
 10
9.029000
 20
8.053600
 30
1.000000
 11
9.166700
 21
8.053600
 31
1.000000
  0
ARC
  8
1
 62
     7
  6
CONTINUOUS
 10
9.171100
 20
7.886200
 30
1.000000
 40
0.167479
 50
41.877870
 51
91.505636
  0
LINE
  8
1
 62
     7
  6
CONTINUOUS
 10
9.295800
 20
7.998000
 30
1.000000
 11
9.431500
 21
7.846700
 31
1.000000
  0
ARC
  8
1
 62
     7
  6
CONTINUOUS
 10
9.403800
 20
7.821800
 30
1.000000
 40
0.037209
 50
278.500309
 51
401.952910
  0
LINE
  8
1
 62
     7
  6
CONTINUOUS
 10
9.409300
 20
7.785000
 30
1.000000
 11
9.265000
 21
7.798100
 31
1.000000
  0
LINE
  8
1
 62
     7
  6
CONTINUOUS
 10
9.265000
 20
7.798100
 30
1.000000
 11
9.265013
 21
7.798051
 31
1.000000
  0
ARC
  8
1
 62
     7
  6
CONTINUOUS
 10
9.219300
 20
7.968700
 30
1.000000
 40
0.176666
 50
228.005556
 51
284.996198
  0
LINE
  8
1
 62
     7
  6
CONTINUOUS
 10
9.101100
 20
7.837400
 30
1.000000
 11
8.970000
 21
7.916100
 31
1.000000
  0
LINE
  8
1
 62
     7
  6
DOT
 10
8.970000
 20
7.916100
 30
1.000000
 11
8.997000
 21
7.899900
 31
1.000000
  0
LINE
  8
1
 62
     7
  6
DOT
 10
8.997000
 20
7.899900
 30
1.000000
 11
8.997019
 21
7.899851
 31
1.000000
  0
ARC
  8
1
 62
     7
  6
CONTINUOUS
 10
9.011100
 20
7.862800
 30
1.000000
 40
0.039636
 50
110.809490
 51
168.208125
  0
ARC
  8
1
 62
     7
  6
CONTINUOUS
 10
9.703700
 20
7.718500
 30
1.000000
 40
0.747109
 50
168.229834
 51
191.770166
  0
LINE
  8
1
 62
     7
  6
CONTINUOUS
 10
8.972300
 20
7.566100
 30
1.000000
 11
8.972188
 21
7.566077
 31
1.000000
  0
ARC
  8
1
 62
     7
  6
CONTINUOUS
 10
9.011100
 20
7.574200
 30
1.000000
 40
0.039751
 50
191.791875
 51
288.024724
  0
LINE
  8
1
 62
     7
  6
CONTINUOUS
 10
9.023400
 20
7.536400
 30
1.000000
 11
9.114200
 21
7.565900
 31
1.000000
  0
LINE
  8
1
 62
     7
  6
DOT
 10
9.114200
 20
7.565900
 30
1.000000
 11
9.350300
 21
7.781500
 31
1.000000
  0
ARC
  8
1
 62
     7
  6
CONTINUOUS
 10
9.701700
 20
7.718500
 30
1.000000
 40
0.357003
 50
169.835830
 51
190.164170
  0
ARC
  8
1
 62
     7
  6
CONTINUOUS
 10
9.386000
 20
7.663200
 30
1.000000
 40
0.036547
 50
192.171458
 51
369.926246
  0
ARC
  8
1
 62
     7
  6
CONTINUOUS
 10
9.703700
 20
7.718500
 30
1.000000
 40
0.285930
 50
170.132476
 51
189.867524
  0
ARC
  8
1
 62
     7
  6
CONTINUOUS
 10
9.386000
 20
7.773800
 30
1.000000
 40
0.036525
 50
350.073754
 51
378.186917
  0
LINE
  8
1
 62
     7
  6
DOT
 10
9.420700
 20
7.785200
 30
1.000000
 11
9.409300
 21
7.785200
 31
1.000000
  0
LINE
  8
1
 62
     7
  6
CONTINUOUS
 10
9.409300
 20
7.785200
 30
1.000000
 11
9.539700
 21
7.787200
 31
1.000000
  0
LINE
  8
1
 62
     7
  6
DOT
 10
9.539700
 20
7.787200
 30
1.000000
 11
9.476800
 21
7.899800
 31
1.000000
  0
LINE
  8
1
 62
     7
  6
CONTINUOUS
 10
9.476800
 20
7.899800
 30
1.000000
 11
9.668100
 21
8.006800
 31
1.000000
  0
LINE
  8
1
 62
     7
  6
DOT
 10
9.668100
 20
8.006800
 30
1.000000
 11
9.740200
 21
7.718500
 31
1.000000
  0
CIRCLE
  8
1
 62
     7
  6
CONTINUOUS
 10
9.703700
 20
7.718500
 30
1.000000
 40
0.036500
  0
LINE
  8
1
 62
     7
  6
DOT
 10
9.740200
 20
7.718500
 30
1.000000
 11
9.476800
 21
7.899800
 31
1.000000
  0
LINE
  8
1
 62
     7
  6
CONTINUOUS
 10
9.476800
 20
7.899800
 30
1.000000
 11
9.643700
 21
7.601200
 31
1.000000
  0
LINE
  8
1
 62
     7
  6
CONTINUOUS
 10
9.643700
 20
7.601200
 30
1.000000
 11
9.835000
 21
7.708200
 31
1.000000
  0
LINE
  8
1
 62
     7
  6
CONTINUOUS
 10
9.835000
 20
7.708200
 30
1.000000
 11
9.668100
 21
8.006800
 31
1.000000
  0
LINE
  8
1
 62
     7
  6
DOT
 10
9.668100
 20
8.006800
 30
1.000000
 11
9.670500
 21
8.002500
 31
1.000000
  0
ARC
  8
1
 62
     7
  6
CONTINUOUS
 10
9.703700
 20
7.718500
 30
1.000000
 40
0.285913
 50
80.152220
 51
96.667694
  0
ARC
  8
1
 62
     7
  6
CONTINUOUS
 10
9.759000
 20
8.036200
 30
1.000000
 40
0.036517
 50
259.919402
 51
442.446830
  0
LINE
  8
1
 62
     7
  6
CONTINUOUS
 10
9.763800
 20
8.072400
 30
1.000000
 11
9.758600
 21
8.073300
 31
1.000000
  0
ARC
  8
1
 62
     7
  6
CONTINUOUS
 10
9.703700
 20
7.720500
 30
1.000000
 40
0.357020
 50
81.155014
 51
100.179966
  0
LINE
  8
1
 62
     7
  6
CONTINUOUS
 10
9.640600
 20
8.071900
 30
1.000000
 11
9.635700
 21
8.069800
 31
1.000000
  0
LINE
  8
1
 62
     7
  6
DOT
 10
9.635700
 20
8.069800
 30
1.000000
 11
9.668100
 21
8.006800
 31
1.000000
  0
LINE
  8
1
 62
     7
  6
CONTINUOUS
 10
9.668100
 20
8.006800
 30
1.000000
 11
9.461900
 21
8.407900
 31
1.000000
  0
LINE
  8
1
 62
     7
  6
CONTINUOUS
 10
9.461900
 20
8.407900
 30
1.000000
 11
9.524600
 21
8.436800
 31
1.000000
  0
ARC
  8
1
 62
     7
  6
CONTINUOUS
 10
9.509200
 20
8.470000
 30
1.000000
 40
0.036556
 50
294.884484
 51
474.742300
  0
LINE
  8
1
 62
     7
  6
CONTINUOUS
 10
9.493900
 20
8.503200
 30
1.000000
 11
9.428500
 21
8.473000
 31
1.000000
  0
LINE
  8
1
 62
     7
  6
CONTINUOUS
 10
9.428500
 20
8.473000
 30
1.000000
 11
9.046000
 21
9.217300
 31
1.000000
  0
LINE
  8
1
 62
     7
  6
CONTINUOUS
 10
9.046000
 20
9.217300
 30
1.000000
 11
8.866500
 21
9.566600
 31
1.000000
  0
LINE
  8
1
 62
     7
  6
DOT
 10
8.866500
 20
9.566600
 30
1.000000
 11
8.567900
 21
9.399700
 31
1.000000
  0
LINE
  8
1
 62
     7
  6
CONTINUOUS
 10
8.567900
 20
9.399700
 30
1.000000
 11
9.194900
 21
8.365000
 31
1.000000
  0
LINE
  8
1
 62
     7
  6
CONTINUOUS
 10
9.194900
 20
8.365000
 30
1.000000
 11
9.132100
 21
8.336100
 31
1.000000
  0
ARC
  8
1
 62
     7
  6
CONTINUOUS
 10
9.147400
 20
8.302900
 30
1.000000
 40
0.036556
 50
114.742300
 51
294.742300
  0
LINE
  8
1
 62
     7
  6
CONTINUOUS
 10
9.162700
 20
8.269700
 30
1.000000
 11
9.233000
 21
8.302200
 31
1.000000
  0
LINE
  8
1
 62
     7
  6
CONTINUOUS
 10
9.233000
 20
8.302200
 30
1.000000
 11
9.476800
 21
7.899800
 31
1.000000
  0
LINE
  8
1
 62
     7
  6
DOT
 10
9.476800
 20
7.899800
 30
1.000000
 11
9.273300
 21
8.235600
 31
1.000000
  0
LINE
  8
1
 62
     7
  6
CONTINUOUS
 10
9.273300
 20
8.235600
 30
1.000000
 11
9.120800
 21
8.145400
 31
1.000000
  0
ARC
  8
1
 62
     7
  6
CONTINUOUS
 10
9.147800
 20
8.101500
 30
1.000000
 40
0.051494
 50
121.592936
 51
248.467195
  0
LINE
  8
1
 62
     7
  6
DOT
 10
9.128900
 20
8.053600
 30
1.000000
 11
9.105700
 21
7.833500
 31
1.000000
  0
ARC
  8
1
 62
     7
  6
CONTINUOUS
 10
9.703700
 20
7.718500
 30
1.000000
 40
0.608942
 50
169.114473
 51
467.735710
  0
LINE
  8
1
 62
     7
  6
DOT
 10
9.518200
 20
8.298500
 30
1.000000
 11
9.119800
 21
8.279000
 31
1.000000
  0
LINE
  8
1
 62
     7
  6
CONTINUOUS
 10
9.119800
 20
8.279000
 30
1.000000
 11
8.937900
 21
8.404100
 31
1.000000
  0
ARC
  8
1
 62
     7
  6
CONTINUOUS
 10
9.703700
 20
7.718500
 30
1.000000
 40
1.027841
 50
138.162776
 51
153.183161
  0
LINE
  8
1
 62
     7
  6
DOT
 10
8.786400
 20
8.182200
 30
1.000000
 11
9.041000
 21
8.333200
 31
1.000000
  0
ARC
  8
1
 62
     7
  6
CONTINUOUS
 10
9.703700
 20
7.718500
 30
1.000000
 40
0.903905
 50
137.151952
 51
154.228704
  0
LINE
  8
1
 62
     7
  6
DOT
 10
8.889700
 20
8.111500
 30
1.000000
 11
8.866600
 21
8.059500
 31
1.000000
  0
LINE
  8
1
 62
     7
  6
DOT
 10
8.866600
 20
8.059500
 30
1.000000
 11
8.866655
 21
8.059478
 31
1.000000
  0
ARC
  8
1
 62
     7
  6
CONTINUOUS
 10
9.703700
 20
7.718500
 30
1.000000
 40
0.903831
 50
157.836046
 51
417.869633
  0
LINE
  8
1
 62
     7
  6
DOT
 10
10.184400
 20
8.483900
 30
1.000000
 11
10.080300
 21
8.540200
 31
1.000000
  0
ARC
  8
1
 62
     7
  6
CONTINUOUS
 10
9.703700
 20
7.718500
 30
1.000000
 40
0.903904
 50
65.377156
 51
80.730462
  0
LINE
  8
1
 62
     7
  6
DOT
 10
9.849300
 20
8.610600
 30
1.000000
 11
9.748100
 21
8.621300
 31
1.000000
  0
ARC
  8
1
 62
     7
  6
CONTINUOUS
 10
9.703700
 20
7.718500
 30
1.000000
 40
0.903862
 50
87.184443
 51
101.441710
  0
LINE
  8
1
 62
     7
  6
DOT
 10
9.524400
 20
8.604400
 30
1.000000
 11
9.409200
 21
7.513200
 31
1.000000
  0
ARC
  8
1
 62
     7
  6
CONTINUOUS
 10
9.641600
 20
7.656400
 30
1.000000
 40
0.272976
 50
211.640504
 51
238.359496
  0
ARC
  8
1
 62
     7
  6
CONTINUOUS
 10
9.518100
 20
7.454800
 30
1.000000
 40
0.036531
 50
237.396596
 51
417.179961
  0
ARC
  8
1
 62
     7
  6
CONTINUOUS
 10
9.621900
 20
7.636700
 30
1.000000
 40
0.172967
 50
209.054604
 51
240.945396
  0
LINE
  8
1
 62
     7
  6
CONTINUOUS
 10
9.470700
 20
7.552700
 30
1.000000
 11
9.470816
 21
7.552775
 31
1.000000
  0
ARC
  8
1
 62
     7
  6
CONTINUOUS
 10
9.440000
 20
7.533000
 30
1.000000
 40
0.036615
 50
32.688038
 51
212.735226
  0
LINE
  8
1
 62
     7
  6
DOT
 10
9.409200
 20
7.513200
 30
1.000000
 11
9.640600
 21
7.365100
 31
1.000000
  0
ARC
  8
1
 62
     7
  6
CONTINUOUS
 10
9.703700
 20
7.716500
 30
1.000000
 40
0.357003
 50
259.820034
 51
280.164170
  0
ARC
  8
1
 62
     7
  6
CONTINUOUS
 10
9.759000
 20
7.400800
 30
1.000000
 40
0.036542
 50
282.171458
 51
462.324727
  0
ARC
  8
1
 62
     7
  6
CONTINUOUS
 10
9.703700
 20
7.721100
 30
1.000000
 40
0.288537
 50
260.524620
 51
279.475380
  0
ARC
  8
1
 62
     7
  6
CONTINUOUS
 10
9.648400
 20
7.400800
 30
1.000000
 40
0.036542
 50
77.675273
 51
257.675273
  0
LINE
  8
1
 62
     7
  6
DOT
 10
9.640600
 20
7.365100
 30
1.000000
 11
9.909000
 21
7.424000
 31
1.000000
  0
ARC
  8
1
 62
     7
  6
CONTINUOUS
 10
9.705100
 20
7.717100
 30
1.000000
 40
0.357047
 50
304.825062
 51
325.174938
  0
LINE
  8
1
 62
     7
  6
CONTINUOUS
 10
9.998200
 20
7.513200
 30
1.000000
 11
9.998084
 21
7.513275
 31
1.000000
  0
ARC
  8
1
 62
     7
  6
CONTINUOUS
 10
9.967400
 20
7.533000
 30
1.000000
 40
0.036477
 50
327.264774
 51
507.311962
  0
ARC
  8
1
 62
     7
  6
CONTINUOUS
 10
9.701800
 20
7.720400
 30
1.000000
 40
0.288620
 50
305.523832
 51
324.476168
  0
LINE
  8
1
 62
     7
  6
CONTINUOUS
 10
9.869500
 20
7.485500
 30
1.000000
 11
9.869425
 21
7.485616
 31
1.000000
  0
ARC
  8
1
 62
     7
  6
CONTINUOUS
 10
9.889200
 20
7.454800
 30
1.000000
 40
0.036615
 50
122.688038
 51
302.735226
  0
LINE
  8
1
 62
     7
  6
DOT
 10
9.909000
 20
7.424000
 30
1.000000
 11
10.057100
 21
7.655500
 31
1.000000
  0
ARC
  8
1
 62
     7
  6
CONTINUOUS
 10
9.705700
 20
7.718500
 30
1.000000
 40
0.357003
 50
349.835830
 51
370.164170
  0
ARC
  8
1
 62
     7
  6
CONTINUOUS
 10
10.021400
 20
7.773800
 30
1.000000
 40
0.036542
 50
12.171458
 51
192.324727
  0
ARC
  8
1
 62
     7
  6
CONTINUOUS
 10
9.701100
 20
7.718500
 30
1.000000
 40
0.288537
 50
350.524620
 51
369.475380
  0
ARC
  8
1
 62
     7
  6
CONTINUOUS
 10
10.021400
 20
7.663200
 30
1.000000
 40
0.036521
 50
167.675273
 51
347.828542
  0
LINE
  8
1
 62
     7
  6
DOT
 10
10.057100
 20
7.655500
 30
1.000000
 11
9.998200
 21
7.923800
 31
1.000000
  0
ARC
  8
1
 62
     7
  6
CONTINUOUS
 10
9.705100
 20
7.719900
 30
1.000000
 40
0.357047
 50
34.825062
 51
55.174938
  0
LINE
  8
1
 62
     7
  6
CONTINUOUS
 10
9.909000
 20
8.013000
 30
1.000000
 11
9.908925
 21
8.012884
 31
1.000000
  0
ARC
  8
1
 62
     7
  6
CONTINUOUS
 10
9.889200
 20
7.982200
 30
1.000000
 40
0.036477
 50
57.264774
 51
237.311962
  0
ARC
  8
1
 62
     7
  6
CONTINUOUS
 10
9.701800
 20
7.716700
 30
1.000000
 40
0.288562
 50
35.507672
 51
54.464631
  0
ARC
  8
1
 62
     7
  6
CONTINUOUS
 10
9.967400
 20
7.904100
 30
1.000000
 40
0.036561
 50
212.820039
 51
392.603404
  0
LINE
  8
1
 62
     7
  6
DOT
 10
9.998200
 20
7.923800
 30
1.000000
 11
9.137100
 21
7.495400
 31
1.000000
  0
LINE
  8
1
 62
     7
  6
CONTINUOUS
 10
9.137100
 20
7.495400
 30
1.000000
 11
9.046300
 21
7.465900
 31
1.000000
  0
ARC
  8
1
 62
     7
  6
CONTINUOUS
 10
9.058600
 20
7.428200
 30
1.000000
 40
0.039701
 50
108.069430
 51
204.240906
  0
ARC
  8
1
 62
     7
  6
CONTINUOUS
 10
9.703700
 20
7.718500
 30
1.000000
 40
0.747151
 50
204.228794
 51
227.766547
  0
ARC
  8
1
 62
     7
  6
CONTINUOUS
 10
9.228200
 20
7.194700
 30
1.000000
 40
0.039746
 50
227.755425
 51
324.110408
  0
LINE
  8
1
 62
     7
  6
CONTINUOUS
 10
9.260400
 20
7.171400
 30
1.000000
 11
9.316400
 21
7.248600
 31
1.000000
  0
LINE
  8
1
 62
     7
  6
DOT
 10
9.316400
 20
7.248600
 30
1.000000
 11
9.376400
 21
7.205000
 31
1.000000
  0
LINE
  8
1
 62
     7
  6
CONTINUOUS
 10
9.376400
 20
7.205000
 30
1.000000
 11
9.320300
 21
7.127800
 31
1.000000
  0
LINE
  8
1
 62
     7
  6
CONTINUOUS
 10
9.320300
 20
7.127800
 30
1.000000
 11
9.320392
 21
7.127733
 31
1.000000
  0
ARC
  8
1
 62
     7
  6
CONTINUOUS
 10
9.352500
 20
7.104400
 30
1.000000
 40
0.039691
 50
143.993792
 51
240.076070
  0
ARC
  8
1
 62
     7
  6
CONTINUOUS
 10
9.703700
 20
7.718500
 30
1.000000
 40
0.747115
 50
240.226583
 51
263.768211
  0
ARC
  8
1
 62
     7
  6
CONTINUOUS
 10
9.626900
 20
7.015300
 30
1.000000
 40
0.039700
 50
263.787203
 51
360.000000
  0
LINE
  8
1
 62
     7
  6
CONTINUOUS
 10
9.666600
 20
7.015300
 30
1.000000
 11
9.666600
 21
7.110700
 31
1.000000
  0
LINE
  8
1
 62
     7
  6
DOT
 10
9.666600
 20
7.110700
 30
1.000000
 11
9.740800
 21
7.110700
 31
1.000000
  0
LINE
  8
1
 62
     7
  6
CONTINUOUS
 10
9.740800
 20
7.110700
 30
1.000000
 11
9.740800
 21
7.015300
 31
1.000000
  0
ARC
  8
1
 62
     7
  6
CONTINUOUS
 10
9.780500
 20
7.015300
 30
1.000000
 40
0.039733
 50
180.000000
 51
276.212797
  0
ARC
  8
1
 62
     7
  6
CONTINUOUS
 10
9.703700
 20
7.718500
 30
1.000000
 40
0.747074
 50
276.231789
 51
299.766760
  0
LINE
  8
1
 62
     7
  6
CONTINUOUS
 10
10.074600
 20
7.070000
 30
1.000000
 11
10.074681
 21
7.069859
 31
1.000000
  0
ARC
  8
1
 62
     7
  6
CONTINUOUS
 10
10.054900
 20
7.104400
 30
1.000000
 40
0.039805
 50
299.798663
 51
396.006208
  0
LINE
  8
1
 62
     7
  6
CONTINUOUS
 10
10.087100
 20
7.127800
 30
1.000000
 11
10.031000
 21
7.205000
 31
1.000000
  0
LINE
  8
1
 62
     7
  6
DOT
 10
10.031000
 20
7.205000
 30
1.000000
 11
10.090900
 21
7.248600
 31
1.000000
  0
LINE
  8
1
 62
     7
  6
CONTINUOUS
 10
10.090900
 20
7.248600
 30
1.000000
 11
10.147000
 21
7.171400
 31
1.000000
  0
LINE
  8
1
 62
     7
  6
CONTINUOUS
 10
10.147000
 20
7.171400
 30
1.000000
 11
10.147080
 21
7.171458
 31
1.000000
  0
ARC
  8
1
 62
     7
  6
CONTINUOUS
 10
10.179200
 20
7.194700
 30
1.000000
 40
0.039647
 50
215.889592
 51
312.137595
  0
ARC
  8
1
 62
     7
  6
CONTINUOUS
 10
9.703700
 20
7.718500
 30
1.000000
 40
0.747110
 50
312.227775
 51
335.771206
  0
ARC
  8
1
 62
     7
  6
CONTINUOUS
 10
10.348800
 20
7.428200
 30
1.000000
 40
0.039656
 50
335.759094
 51
431.930570
  0
LINE
  8
1
 62
     7
  6
CONTINUOUS
 10
10.361100
 20
7.465900
 30
1.000000
 11
10.270300
 21
7.495400
 31
1.000000
  0
LINE
  8
1
 62
     7
  6
DOT
 10
10.270300
 20
7.495400
 30
1.000000
 11
10.293200
 21
7.565900
 31
1.000000
  0
LINE
  8
1
 62
     7
  6
CONTINUOUS
 10
10.293200
 20
7.565900
 30
1.000000
 11
10.384000
 21
7.536400
 31
1.000000
  0
ARC
  8
1
 62
     7
  6
CONTINUOUS
 10
10.396200
 20
7.574200
 30
1.000000
 40
0.039734
 50
252.112446
 51
348.237593
  0
ARC
  8
1
 62
     7
  6
CONTINUOUS
 10
9.703700
 20
7.718500
 30
1.000000
 40
0.747109
 50
348.229834
 51
371.770166
  0
ARC
  8
1
 62
     7
  6
CONTINUOUS
 10
10.396200
 20
7.862800
 30
1.000000
 40
0.039720
 50
11.762407
 51
107.887554
  0
LINE
  8
1
 62
     7
  6
CONTINUOUS
 10
10.384000
 20
7.900600
 30
1.000000
 11
10.293200
 21
7.871100
 31
1.000000
  0
LINE
  8
1
 62
     7
  6
DOT
 10
10.293200
 20
7.871100
 30
1.000000
 11
10.270300
 21
7.941600
 31
1.000000
  0
LINE
  8
1
 62
     7
  6
CONTINUOUS
 10
10.270300
 20
7.941600
 30
1.000000
 11
10.361100
 21
7.971100
 31
1.000000
  0
ARC
  8
1
 62
     7
  6
CONTINUOUS
 10
10.348800
 20
8.008800
 30
1.000000
 40
0.039701
 50
288.069430
 51
384.240906
  0
ARC
  8
1
 62
     7
  6
CONTINUOUS
 10
9.703700
 20
7.718500
 30
1.000000
 40
0.747084
 50
24.228794
 51
47.772225
  0
LINE
  8
1
 62
     7
  6
CONTINUOUS
 10
10.205800
 20
8.271700
 30
1.000000
 11
10.205866
 21
8.271773
 31
1.000000
  0
ARC
  8
1
 62
     7
  6
CONTINUOUS
 10
10.179200
 20
8.242300
 30
1.000000
 40
0.039746
 50
47.862405
 51
144.110408
  0
LINE
  8
1
 62
     7
  6
CONTINUOUS
 10
10.147000
 20
8.265600
 30
1.000000
 11
10.090900
 21
8.188400
 31
1.000000
  0
LINE
  8
1
 62
     7
  6
DOT
 10
10.090900
 20
8.188400
 30
1.000000
 11
10.031000
 21
8.232000
 31
1.000000
  0
LINE
  8
1
 62
     7
  6
CONTINUOUS
 10
10.031000
 20
8.232000
 30
1.000000
 11
10.087100
 21
8.309200
 31
1.000000
  0
LINE
  8
1
 62
     7
  6
CONTINUOUS
 10
10.087100
 20
8.309200
 30
1.000000
 11
10.086968
 21
8.309296
 31
1.000000
  0
ARC
  8
1
 62
     7
  6
CONTINUOUS
 10
10.054900
 20
8.332600
 30
1.000000
 40
0.039642
 50
323.993792
 51
420.201337
  0
ARC
  8
1
 62
     7
  6
CONTINUOUS
 10
9.703700
 20
7.718500
 30
1.000000
 40
0.747115
 50
60.233240
 51
83.768211
  0
ARC
  8
1
 62
     7
  6
CONTINUOUS
 10
9.780500
 20
8.421700
 30
1.000000
 40
0.039700
 50
83.787203
 51
180.000000
  0
LINE
  8
1
 62
     7
  6
CONTINUOUS
 10
9.740800
 20
8.421700
 30
1.000000
 11
9.740800
 21
8.326300
 31
1.000000
  0
LINE
  8
1
 62
     7
  6
DOT
 10
9.740800
 20
8.326300
 30
1.000000
 11
9.666600
 21
8.326300
 31
1.000000
  0
LINE
  8
1
 62
     7
  6
CONTINUOUS
 10
9.666600
 20
8.326300
 30
1.000000
 11
9.666600
 21
8.421700
 31
1.000000
  0
ARC
  8
1
 62
     7
  6
CONTINUOUS
 10
9.626900
 20
8.421700
 30
1.000000
 40
0.039733
 50
0.000000
 51
96.212797
  0
ARC
  8
1
 62
     7
  6
CONTINUOUS
 10
9.703700
 20
7.718500
 30
1.000000
 40
0.747098
 50
96.231789
 51
102.845737
  0
LINE
  8
1
 62
     7
  6
DOT
 10
9.537600
 20
8.446900
 30
1.000000
 11
9.596700
 21
8.479100
 31
1.000000
  0
LINE
  8
1
 62
     7
  6
CONTINUOUS
 10
9.596700
 20
8.479100
 30
1.000000
 11
9.945100
 21
8.660400
 31
1.000000
  0
LINE
  8
1
 62
     7
  6
CONTINUOUS
 10
9.945100
 20
8.660400
 30
1.000000
 11
11.035800
 21
8.660400
 31
1.000000
  0
LINE
  8
1
 62
     7
  6
CONTINUOUS
 10
11.035800
 20
8.660400
 30
1.000000
 11
11.035786
 21
8.660459
 31
1.000000
  0
ARC
  8
1
 62
     7
  6
CONTINUOUS
 10
11.017900
 20
8.737100
 30
1.000000
 40
0.078700
 50
283.136384
 51
360.000000
  0
LINE
  8
1
 62
     7
  6
DOT
 10
11.096600
 20
8.737100
 30
1.000000
 11
10.949200
 21
8.780500
 31
1.000000
  0
ARC
  8
1
 62
     7
  6
CONTINUOUS
 10
9.703700
 20
7.718500
 30
1.000000
 40
1.636805
 50
37.578410
 51
40.453219
  0
LINE
  8
1
 62
     7
  6
CONTINUOUS
 10
11.000900
 20
8.716700
 30
1.000000
 11
9.931400
 21
8.716700
 31
1.000000
  0
LINE
  8
1
 62
     7
  6
CONTINUOUS
 10
9.931400
 20
8.716700
 30
1.000000
 11
9.570800
 21
8.529000
 31
1.000000
  0
ARC
  8
1
 62
     7
  6
CONTINUOUS
 10
9.586400
 20
8.505400
 30
1.000000
 40
0.028245
 50
123.465379
 51
291.387049
  0
LINE
  8
1
 62
     7
  6
DOT
 10
9.596700
 20
8.479100
 30
1.000000
 11
9.596700
 21
8.483900
 31
1.000000
  0
LINE
  8
1
 62
     7
  6
CONTINUOUS
 10
9.596700
 20
8.483900
 30
1.000000
 11
10.743200
 21
8.483900
 31
1.000000
  0
LINE
  8
1
 62
     7
  6
DOT
 10
10.743200
 20
8.483900
 30
1.000000
 11
10.934400
 21
8.540200
 31
1.000000
  0
LINE
  8
1
 62
     7
  6
CONTINUOUS
 10
10.934400
 20
8.540200
 30
1.000000
 11
10.934400
 21
8.660400
 31
1.000000
  0
LINE
  8
1
 62
     7
  6
DOT
 10
10.934400
 20
8.660400
 30
1.000000
 11
10.671400
 21
8.660400
 31
1.000000
  0
LINE
  8
1
 62
     7
  6
CONTINUOUS
 10
10.671400
 20
8.660400
 30
1.000000
 11
10.671400
 21
8.540200
 31
1.000000
  0
LINE
  8
1
 62
     7
  6
DOT
 10
10.671400
 20
8.540200
 30
1.000000
 11
9.714100
 21
8.540200
 31
1.000000
  0
LINE
  8
1
 62
     7
  6
CONTINUOUS
 10
9.714100
 20
8.540200
 30
1.000000
 11
11.035800
 21
8.540200
 31
1.000000
  0
LINE
  8
1
 62
     7
  6
CONTINUOUS
 10
11.035800
 20
8.540200
 30
1.000000
 11
11.035791
 21
8.540146
 31
1.000000
  0
ARC
  8
1
 62
     7
  6
CONTINUOUS
 10
11.047000
 20
8.604100
 30
1.000000
 40
0.064929
 50
260.058530
 51
319.810278
  0
LINE
  8
1
 62
     7
  6
DOT
 10
11.096600
 20
8.562200
 30
1.000000
 11
10.977200
 21
8.746700
 31
1.000000
  0
LINE
  8
1
 62
     7
  6
CONTINUOUS
 10
10.977200
 20
8.746700
 30
1.000000
 11
9.738000
 21
8.745800
 31
1.000000
  0
ARC
  8
1
 62
     7
  6
CONTINUOUS
 10
9.703700
 20
7.718500
 30
1.000000
 40
1.027887
 50
88.087691
 51
101.174378
  0
LINE
  8
1
 62
     7
  6
CONTINUOUS
 10
9.504500
 20
8.726900
 30
1.000000
 11
9.545600
 21
8.473700
 31
1.000000
  0
LINE
  8
1
 62
     7
  6
DOT
 10
9.545600
 20
8.473700
 30
1.000000
 11
11.017200
 21
8.815900
 31
1.000000
  0
ARC
  8
1
 62
     7
  6
CONTINUOUS
 10
10.703600
 20
8.732800
 30
1.000000
 40
0.324426
 50
8.454792
 51
14.841544
  0
LINE
  8
1
 62
     7
  6
CONTINUOUS
 10
11.024500
 20
8.780500
 30
1.000000
 11
9.349100
 21
8.780500
 31
1.000000
  0
LINE
  8
1
 62
     7
  6
CONTINUOUS
 10
9.349100
 20
8.780500
 30
1.000000
 11
9.349090
 21
8.780401
 31
1.000000
  0
ARC
  8
1
 62
     7
  6
CONTINUOUS
 10
9.351900
 20
8.808600
 30
1.000000
 40
0.028339
 50
95.670357
 51
264.309596
  0
LINE
  8
1
 62
     7
  6
CONTINUOUS
 10
9.349100
 20
8.836800
 30
1.000000
 11
10.663900
 21
8.836800
 31
1.000000
  0
ARC
  8
1
 62
     7
  6
CONTINUOUS
 10
10.684100
 20
9.034500
 30
1.000000
 40
0.198725
 50
264.166048
 51
308.092453
  0
LINE
  8
1
 62
     7
  6
CONTINUOUS
 10
10.806700
 20
8.878100
 30
1.000000
 11
10.806613
 21
8.878044
 31
1.000000
  0
ARC
  8
1
 62
     7
  6
CONTINUOUS
 10
10.512200
 20
8.690300
 30
1.000000
 40
0.349180
 50
32.525291
 51
67.628790
  0
LINE
  8
1
 62
     7
  6
CONTINUOUS
 10
10.645100
 20
9.013200
 30
1.000000
 11
10.705100
 21
9.013200
 31
1.000000
  0
LINE
  8
1
 62
     7
  6
DOT
 10
10.705100
 20
9.013200
 30
1.000000
 11
8.551700
 21
9.390600
 31
1.000000
  0
LINE
  8
1
 62
     7
  6
CONTINUOUS
 10
8.551700
 20
9.390600
 30
1.000000
 11
8.866500
 21
9.566600
 31
1.000000
  0
LINE
  8
1
 62
     7
  6
CONTINUOUS
 10
8.866500
 20
9.566600
 30
1.000000
 11
8.882700
 21
9.575600
 31
1.000000
  0
LINE
  8
1
 62
     7
  6
CONTINUOUS
 10
8.882700
 20
9.575600
 30
1.000000
 11
9.114200
 21
9.676000
 31
1.000000
  0
LINE
  8
1
 62
     7
  6
CONTINUOUS
 10
9.114200
 20
9.676000
 30
1.000000
 11
9.114200
 21
9.853200
 31
1.000000
  0
LINE
  8
1
 62
     7
  6
CONTINUOUS
 10
9.114200
 20
9.853200
 30
1.000000
 11
9.114200
 21
10.301700
 31
1.000000
  0
ARC
  8
1
 62
     7
  6
CONTINUOUS
 10
9.262400
 20
10.290700
 30
1.000000
 40
0.148585
 50
103.465736
 51
175.755061
  0
LINE
  8
1
 62
     7
  6
CONTINUOUS
 10
9.227800
 20
10.435200
 30
1.000000
 11
9.339400
 21
10.461900
 31
1.000000
  0
ARC
  8
1
 62
     7
  6
CONTINUOUS
 10
9.036300
 20
10.201900
 30
1.000000
 40
0.399371
 50
5.243786
 51
40.623082
  0
LINE
  8
1
 62
     7
  6
DOT
 10
9.434000
 20
10.238400
 30
1.000000
 11
8.551700
 21
9.390600
 31
1.000000
  0
LINE
  8
1
 62
     7
  6
CONTINUOUS
 10
8.551700
 20
9.390600
 30
1.000000
 11
8.462400
 21
9.550500
 31
1.000000
  0
LINE
  8
1
 62
     7
  6
CONTINUOUS
 10
8.462400
 20
9.550500
 30
1.000000
 11
8.385700
 21
9.687600
 31
1.000000
  0
LINE
  8
1
 62
     7
  6
CONTINUOUS
 10
8.385700
 20
9.687600
 30
1.000000
 11
7.829800
 21
10.681900
 31
1.000000
  0
LINE
  8
1
 62
     7
  6
CONTINUOUS
 10
7.829800
 20
10.681900
 30
1.000000
 11
7.946800
 21
10.747300
 31
1.000000
  0
ARC
  8
1
 62
     7
  6
CONTINUOUS
 10
7.636800
 20
10.074900
 30
1.000000
 40
0.740437
 50
23.133563
 51
65.248640
  0
LINE
  8
1
 62
     7
  6
CONTINUOUS
 10
8.317700
 20
10.365800
 30
1.000000
 11
8.460700
 21
10.154200
 31
1.000000
  0
ARC
  8
1
 62
     7
  6
CONTINUOUS
 10
9.137600
 20
10.577300
 30
1.000000
 40
0.798239
 50
212.007666
 51
237.124179
  0
LINE
  8
1
 62
     7
  6
CONTINUOUS
 10
8.704300
 20
9.906900
 30
1.000000
 11
9.114200
 21
9.869600
 31
1.000000
  0
LINE
  8
1
 62
     7
  6
DOT
 10
9.114200
 20
9.869600
 30
1.000000
 11
9.276000
 21
10.446700
 31
1.000000
  0
ARC
  8
1
 62
     7
  6
CONTINUOUS
 10
11.295800
 20
10.382600
 30
1.000000
 40
2.020783
 50
169.201643
 51
178.182282
  0
LINE
  8
1
 62
     7
  6
DOT
 10
9.310800
 20
10.761200
 30
1.000000
 11
9.339400
 21
10.461900
 31
1.000000
  0
LINE
  8
1
 62
     7
  6
CONTINUOUS
 10
9.339400
 20
10.461900
 30
1.000000
 11
9.322300
 21
9.923200
 31
1.000000
  0
LINE
  8
1
 62
     7
  6
CONTINUOUS
 10
9.322300
 20
9.923200
 30
1.000000
 11
9.250700
 21
9.923200
 31
1.000000
  0
LINE
  8
1
 62
     7
  6
CONTINUOUS
 10
9.250700
 20
9.923200
 30
1.000000
 11
9.250700
 21
9.857100
 31
1.000000
  0
LINE
  8
1
 62
     7
  6
DOT
 10
9.250700
 20
9.857100
 30
1.000000
 11
9.243900
 21
9.585600
 31
1.000000
  0
LINE
  8
1
 62
     7
  6
CONTINUOUS
 10
9.243900
 20
9.585600
 30
1.000000
 11
9.243900
 21
9.346900
 31
1.000000
  0
LINE
  8
1
 62
     7
  6
DOT
 10
9.243900
 20
9.346900
 30
1.000000
 11
8.281600
 21
11.673300
 31
1.000000
  0
LINE
  8
1
 62
     7
  6
CONTINUOUS
 10
8.281600
 20
11.673300
 30
1.000000
 11
7.877600
 21
11.697400
 31
1.000000
  0
LINE
  8
1
 62
     7
  6
DOT
 10
7.877600
 20
11.697400
 30
1.000000
 11
7.493500
 21
11.650100
 31
1.000000
  0
LINE
  8
1
 62
     7
  6
CONTINUOUS
 10
7.493500
 20
11.650100
 30
1.000000
 11
7.447800
 21
11.616600
 31
1.000000
  0
LINE
  8
1
 62
     7
  6
CONTINUOUS
 10
7.447800
 20
11.616600
 30
1.000000
 11
7.433700
 21
11.291500
 31
1.000000
  0
LINE
  8
1
 62
     7
  6
CONTINUOUS
 10
7.433700
 20
11.291500
 30
1.000000
 11
7.458200
 21
11.257900
 31
1.000000
  0
LINE
  8
1
 62
     7
  6
DOT
 10
7.458200
 20
11.257900
 30
1.000000
 11
7.517300
 21
10.992100
 31
1.000000
  0
LINE
  8
1
 62
     7
  6
CONTINUOUS
 10
7.517300
 20
10.992100
 30
1.000000
 11
7.549500
 21
11.166400
 31
1.000000
  0
LINE
  8
1
 62
     7
  6
DOT
 10
7.549500
 20
11.166400
 30
1.000000
 11
7.557900
 21
10.996200
 31
1.000000
  0
LINE
  8
1
 62
     7
  6
CONTINUOUS
 10
7.557900
 20
10.996200
 30
1.000000
 11
7.617300
 21
11.317900
 31
1.000000
  0
LINE
  8
1
 62
     7
  6
CONTINUOUS
 10
7.617300
 20
11.317900
 30
1.000000
 11
7.617247
 21
11.317927
 31
1.000000
  0
ARC
  8
1
 62
     7
  6
CONTINUOUS
 10
7.578000
 20
11.337600
 30
1.000000
 40
0.043902
 50
333.376662
 51
449.477957
  0
LINE
  8
1
 62
     7
  6
DOT
 10
7.578400
 20
11.381500
 30
1.000000
 11
7.221300
 21
10.845300
 31
1.000000
  0
LINE
  8
1
 62
     7
  6
CONTINUOUS
 10
7.221300
 20
10.845300
 30
1.000000
 11
7.221300
 21
10.812400
 31
1.000000
  0
ARC
  8
1
 62
     7
  6
CONTINUOUS
 10
7.261000
 20
10.811400
 30
1.000000
 40
0.039697
 50
178.557086
 51
285.786792
  0
LINE
  8
1
 62
     7
  6
CONTINUOUS
 10
7.271800
 20
10.773200
 30
1.000000
 11
7.627900
 21
10.837400
 31
1.000000
  0
ARC
  8
1
 62
     7
  6
CONTINUOUS
 10
7.649500
 20
10.751000
 30
1.000000
 40
0.089013
 50
37.835465
 51
104.036243
  0
LINE
  8
1
 62
     7
  6
CONTINUOUS
 10
7.719800
 20
10.805600
 30
1.000000
 11
7.848700
 21
10.692500
 31
1.000000
  0
LINE
  8
1
 62
     7
  6
DOT
 10
7.848700
 20
10.692500
 30
1.000000
 11
7.369800
 21
10.957500
 31
1.000000
  0
LINE
  8
1
 62
     7
  6
CONTINUOUS
 10
7.369800
 20
10.957500
 30
1.000000
 11
7.407700
 21
10.971500
 31
1.000000
  0
ARC
  8
1
 62
     7
  6
CONTINUOUS
 10
7.429700
 20
10.956800
 30
1.000000
 40
0.026428
 50
95.645877
 51
146.249874
  0
LINE
  8
1
 62
     7
  6
CONTINUOUS
 10
7.427100
 20
10.983100
 30
1.000000
 11
7.557900
 21
10.996200
 31
1.000000
  0
LINE
  8
1
 62
     7
  6
CONTINUOUS
 10
7.557900
 20
10.996200
 30
1.000000
 11
7.608900
 21
11.001300
 31
1.000000
  0
ARC
  8
1
 62
     7
  6
CONTINUOUS
 10
7.930300
 20
11.099100
 30
1.000000
 40
0.335910
 50
196.924676
 51
258.877395
  0
LINE
  8
1
 62
     7
  6
CONTINUOUS
 10
7.865500
 20
10.769500
 30
1.000000
 11
7.937900
 21
10.751400
 31
1.000000
  0
LINE
  8
1
 62
     7
  6
DOT
 10
7.937900
 20
10.751400
 30
1.000000
 11
7.608900
 21
11.001300
 31
1.000000
  0
LINE
  8
1
 62
     7
  6
DOT
 10
7.608900
 20
11.001300
 30
1.000000
 11
7.608836
 21
11.001281
 31
1.000000
  0
ARC
  8
1
 62
     7
  6
CONTINUOUS
 10
7.930300
 20
11.099100
 30
1.000000
 40
0.336017
 50
134.927657
 51
196.924676
  0
LINE
  8
1
 62
     7
  6
DOT
 10
7.693000
 20
11.337000
 30
1.000000
 11
7.783600
 21
10.238700
 31
1.000000
  0
ARC
  8
1
 62
     7
  6
CONTINUOUS
 10
7.482800
 20
10.109700
 30
1.000000
 40
0.327284
 50
23.212382
 51
103.679582
  0
ARC
  8
1
 62
     7
  6
CONTINUOUS
 10
11.451200
 20
-1.420200
 30
1.000000
 40
12.519621
 50
108.853919
 51
117.407079
  0
ARC
  8
1
 62
     7
  6
CONTINUOUS
 10
5.735000
 20
9.589200
 30
1.000000
 40
0.114964
 50
113.977676
 51
260.537678
  0
ARC
  8
1
 62
     7
  6
CONTINUOUS
 10
7.156100
 20
21.106600
 30
1.000000
 40
11.719586
 50
262.942172
 51
270.848743
  0
LINE
  8
1
 62
     7
  6
CONTINUOUS
 10
7.329700
 20
9.388300
 30
1.000000
 11
7.726800
 21
9.388300
 31
1.000000
  0
LINE
  8
1
 62
     7
  6
CONTINUOUS
 10
7.726800
 20
9.388300
 30
1.000000
 11
7.726814
 21
9.388234
 31
1.000000
  0
ARC
  8
1
 62
     7
  6
CONTINUOUS
 10
7.661400
 20
9.699100
 30
1.000000
 40
0.317674
 50
281.883083
 51
390.577109
  0
ARC
  8
1
 62
     7
  6
CONTINUOUS
 10
6.391100
 20
9.462100
 30
1.000000
 40
1.594416
 50
14.477253
 51
29.148494
  0
LINE
  8
1
 62
     7
  6
DOT
 10
7.783600
 20
10.238700
 30
1.000000
 11
7.178500
 21
10.565200
 31
1.000000
  0
LINE
  8
1
 62
     7
  6
CONTINUOUS
 10
7.178500
 20
10.565200
 30
1.000000
 11
6.393000
 21
10.141300
 31
1.000000
  0
LINE
  8
1
 62
     7
  6
CONTINUOUS
 10
6.393000
 20
10.141300
 30
1.000000
 11
6.444500
 21
10.051800
 31
1.000000
  0
LINE
  8
1
 62
     7
  6
DOT
 10
6.444500
 20
10.051800
 30
1.000000
 11
6.269600
 21
9.420600
 31
1.000000
  0
LINE
  8
1
 62
     7
  6
DOT
 10
6.269600
 20
9.420600
 30
1.000000
 11
6.269553
 21
9.420550
 31
1.000000
  0
ARC
  8
1
 62
     7
  6
CONTINUOUS
 10
6.178000
 20
9.323500
 30
1.000000
 40
0.133419
 50
346.078327
 51
406.669516
  0
LINE
  8
1
 62
     7
  6
CONTINUOUS
 10
6.307500
 20
9.291400
 30
1.000000
 11
6.390400
 21
9.007600
 31
1.000000
  0
LINE
  8
1
 62
     7
  6
DOT
 10
6.390400
 20
9.007600
 30
1.000000
 11
7.176400
 21
8.686800
 31
1.000000
  0
CIRCLE
  8
1
 62
     7
  6
CONTINUOUS
 10
6.719700
 20
8.686800
 30
1.000000
 40
0.456700
  0
LINE
  8
1
 62
     7
  6
DOT
 10
7.176400
 20
8.686800
 30
1.000000
 11
6.871900
 21
8.686800
 31
1.000000
  0
CIRCLE
  8
1
 62
     7
  6
CONTINUOUS
 10
6.719700
 20
8.686800
 30
1.000000
 40
0.152200
  0
LINE
  8
1
 62
     7
  6
DOT
 10
6.871900
 20
8.686800
 30
1.000000
 11
7.044800
 21
9.007600
 31
1.000000
  0
LINE
  8
1
 62
     7
  6
CONTINUOUS
 10
7.044800
 20
9.007600
 30
1.000000
 11
7.127700
 21
9.291400
 31
1.000000
  0
ARC
  8
1
 62
     7
  6
CONTINUOUS
 10
7.257200
 20
9.323500
 30
1.000000
 40
0.133449
 50
153.377346
 51
193.921673
  0
LINE
  8
1
 62
     7
  6
DOT
 10
7.137900
 20
9.383300
 30
1.000000
 11
7.127700
 21
9.291400
 31
1.000000
  0
LINE
  8
1
 62
     7
  6
CONTINUOUS
 10
7.127700
 20
9.291400
 30
1.000000
 11
7.805000
 21
9.048100
 31
1.000000
  0
LINE
  8
1
 62
     7
  6
CONTINUOUS
 10
7.805000
 20
9.048100
 30
1.000000
 11
7.805035
 21
9.048049
 31
1.000000
  0
ARC
  8
1
 62
     7
  6
CONTINUOUS
 10
7.720100
 20
9.171700
 30
1.000000
 40
0.150012
 50
304.484908
 51
384.412345
  0
LINE
  8
1
 62
     7
  6
CONTINUOUS
 10
7.856700
 20
9.233700
 30
1.000000
 11
7.431400
 21
9.388300
 31
1.000000
  0
LINE
  8
1
 62
     7
  6
DOT
 10
7.431400
 20
9.388300
 30
1.000000
 11
7.921600
 21
9.516900
 31
1.000000
  0
ARC
  8
1
 62
     7
  6
CONTINUOUS
 10
7.755100
 20
9.321400
 30
1.000000
 40
0.256747
 50
333.215388
 51
409.580212
  0
LINE
  8
1
 62
     7
  6
CONTINUOUS
 10
7.984300
 20
9.205700
 30
1.000000
 11
7.849800
 21
8.852100
 31
1.000000
  0
LINE
  8
1
 62
     7
  6
DOT
 10
7.849800
 20
8.852100
 30
1.000000
 11
7.805000
 21
9.048100
 31
1.000000
  0
LINE
  8
1
 62
     7
  6
CONTINUOUS
 10
7.805000
 20
9.048100
 30
1.000000
 11
7.443200
 21
8.273300
 31
1.000000
  0
LINE
  8
1
 62
     7
  6
CONTINUOUS
 10
7.443200
 20
8.273300
 30
1.000000
 11
7.068200
 21
8.391600
 31
1.000000
  0
LINE
  8
1
 62
     7
  6
DOT
 10
7.068200
 20
8.391600
 30
1.000000
 11
7.783800
 21
9.002700
 31
1.000000
  0
LINE
  8
1
 62
     7
  6
CONTINUOUS
 10
7.783800
 20
9.002700
 30
1.000000
 11
7.860700
 21
8.821500
 31
1.000000
  0
ARC
  8
1
 62
     7
  6
CONTINUOUS
 10
7.672700
 20
8.773900
 30
1.000000
 40
0.193940
 50
343.863876
 51
374.208216
  0
LINE
  8
1
 62
     7
  6
CONTINUOUS
 10
7.859000
 20
8.720000
 30
1.000000
 11
7.569700
 21
7.992200
 31
1.000000
  0
LINE
  8
1
 62
     7
  6
CONTINUOUS
 10
7.569700
 20
7.992200
 30
1.000000
 11
7.569758
 21
7.992167
 31
1.000000
  0
ARC
  8
1
 62
     7
  6
CONTINUOUS
 10
6.744600
 20
8.462000
 30
1.000000
 40
0.949541
 50
298.521851
 51
330.343440
  0
LINE
  8
1
 62
     7
  6
DOT
 10
7.198000
 20
7.627700
 30
1.000000
 11
6.767200
 21
7.578400
 31
1.000000
  0
LINE
  8
1
 62
     7
  6
CONTINUOUS
 10
6.767200
 20
7.578400
 30
1.000000
 11
7.107900
 21
7.765700
 31
1.000000
  0
ARC
  8
1
 62
     7
  6
CONTINUOUS
 10
6.744600
 20
8.462000
 30
1.000000
 40
0.785376
 50
297.553655
 51
330.343796
  0
LINE
  8
1
 62
     7
  6
CONTINUOUS
 10
7.427100
 20
8.073400
 30
1.000000
 11
7.698600
 21
8.760400
 31
1.000000
  0
ARC
  8
1
 62
     7
  6
CONTINUOUS
 10
7.664100
 20
8.774000
 30
1.000000
 40
0.037071
 50
338.485497
 51
379.705807
  0
LINE
  8
1
 62
     7
  6
CONTINUOUS
 10
7.699000
 20
8.786500
 30
1.000000
 11
7.691100
 21
8.804200
 31
1.000000
  0
LINE
  8
1
 62
     7
  6
DOT
 10
7.691100
 20
8.804200
 30
1.000000
 11
7.443200
 21
8.273300
 31
1.000000
  0
ARC
  8
1
 62
     7
  6
CONTINUOUS
 10
8.165200
 20
8.035100
 30
1.000000
 40
0.760302
 50
161.741404
 51
179.871889
  0
LINE
  8
1
 62
     7
  6
DOT
 10
7.404900
 20
8.036800
 30
1.000000
 11
7.389500
 21
8.013800
 31
1.000000
  0
LINE
  8
1
 62
     7
  6
CONTINUOUS
 10
7.389500
 20
8.013800
 30
1.000000
 11
6.809000
 21
8.200400
 31
1.000000
  0
LINE
  8
1
 62
     7
  6
CONTINUOUS
 10
6.809000
 20
8.200400
 30
1.000000
 11
6.626200
 21
8.200400
 31
1.000000
  0
LINE
  8
1
 62
     7
  6
CONTINUOUS
 10
6.626200
 20
8.200400
 30
1.000000
 11
6.029800
 21
8.008700
 31
1.000000
  0
LINE
  8
1
 62
     7
  6
DOT
 10
6.029800
 20
8.008700
 30
1.000000
 11
7.389500
 21
8.013800
 31
1.000000
  0
LINE
  8
1
 62
     7
  6
CONTINUOUS
 10
7.389500
 20
8.013800
 30
1.000000
 11
6.809000
 21
8.200400
 31
1.000000
  0
LINE
  8
1
 62
     7
  6
DOT
 10
6.809000
 20
8.200400
 30
1.000000
 11
6.029800
 21
8.008700
 31
1.000000
  0
ARC
  8
1
 62
     7
  6
CONTINUOUS
 10
5.270000
 20
8.035100
 30
1.000000
 40
0.760278
 50
358.010002
 51
378.258596
  0
LINE
  8
1
 62
     7
  6
CONTINUOUS
 10
5.992000
 20
8.273300
 30
1.000000
 11
6.367000
 21
8.391600
 31
1.000000
  0
LINE
  8
1
 62
     7
  6
DOT
 10
6.367000
 20
8.391600
 30
1.000000
 11
6.809000
 21
8.200400
 31
1.000000
  0
LINE
  8
1
 62
     7
  6
CONTINUOUS
 10
6.809000
 20
8.200400
 30
1.000000
 11
6.626200
 21
8.200400
 31
1.000000
  0
LINE
  8
1
 62
     7
  6
CONTINUOUS
 10
6.626200
 20
8.200400
 30
1.000000
 11
6.029800
 21
8.008700
 31
1.000000
  0
LINE
  8
1
 62
     7
  6
DOT
 10
6.029800
 20
8.008700
 30
1.000000
 11
6.614200
 21
8.241500
 31
1.000000
  0
LINE
  8
1
 62
     7
  6
CONTINUOUS
 10
6.614200
 20
8.241500
 30
1.000000
 11
6.626200
 21
8.200400
 31
1.000000
  0
LINE
  8
1
 62
     7
  6
DOT
 10
6.626200
 20
8.200400
 30
1.000000
 11
6.809000
 21
8.200400
 31
1.000000
  0
LINE
  8
1
 62
     7
  6
CONTINUOUS
 10
6.809000
 20
8.200400
 30
1.000000
 11
6.821000
 21
8.241500
 31
1.000000
  0
LINE
  8
1
 62
     7
  6
DOT
 10
6.821000
 20
8.241500
 30
1.000000
 11
5.992000
 21
8.273300
 31
1.000000
  0
LINE
  8
1
 62
     7
  6
CONTINUOUS
 10
5.992000
 20
8.273300
 30
1.000000
 11
5.630200
 21
9.048100
 31
1.000000
  0
LINE
  8
1
 62
     7
  6
CONTINUOUS
 10
5.630200
 20
9.048100
 30
1.000000
 11
5.630165
 21
9.048049
 31
1.000000
  0
ARC
  8
1
 62
     7
  6
CONTINUOUS
 10
5.715100
 20
9.171700
 30
1.000000
 40
0.150012
 50
155.587655
 51
235.515092
  0
LINE
  8
1
 62
     7
  6
CONTINUOUS
 10
5.578500
 20
9.233700
 30
1.000000
 11
6.125200
 21
9.432400
 31
1.000000
  0
LINE
  8
1
 62
     7
  6
DOT
 10
6.125200
 20
9.432400
 30
1.000000
 11
6.307500
 21
9.291400
 31
1.000000
  0
LINE
  8
1
 62
     7
  6
CONTINUOUS
 10
6.307500
 20
9.291400
 30
1.000000
 11
5.630200
 21
9.048100
 31
1.000000
  0
LINE
  8
1
 62
     7
  6
DOT
 10
5.630200
 20
9.048100
 30
1.000000
 11
6.029800
 21
8.008700
 31
1.000000
  0
ARC
  8
1
 62
     7
  6
CONTINUOUS
 10
6.674900
 20
8.110000
 30
1.000000
 40
0.653034
 50
188.924275
 51
245.365801
  0
LINE
  8
1
 62
     7
  6
DOT
 10
6.402700
 20
7.516400
 30
1.000000
 11
6.900800
 21
7.807600
 31
1.000000
  0
CIRCLE
  8
1
 62
     7
  6
CONTINUOUS
 10
6.715400
 20
7.807600
 30
1.000000
 40
0.185400
  0
LINE
  8
1
 62
     7
  6
DOT
 10
6.900800
 20
7.807600
 30
1.000000
 11
7.467200
 21
7.846000
 31
1.000000
  0
LINE
  8
1
 62
     7
  6
CONTINUOUS
 10
7.467200
 20
7.846000
 30
1.000000
 11
7.392600
 21
7.650000
 31
1.000000
  0
LINE
  8
1
 62
     7
  6
DOT
 10
7.392600
 20
7.650000
 30
1.000000
 11
7.510500
 21
7.663400
 31
1.000000
  0
LINE
  8
1
 62
     7
  6
CONTINUOUS
 10
7.510500
 20
7.663400
 30
1.000000
 11
6.444800
 21
7.541600
 31
1.000000
  0
LINE
  8
1
 62
     7
  6
CONTINUOUS
 10
6.444800
 20
7.541600
 30
1.000000
 11
6.444863
 21
7.541488
 31
1.000000
  0
ARC
  8
1
 62
     7
  6
CONTINUOUS
 10
6.466000
 20
7.504000
 30
1.000000
 40
0.043036
 50
119.415599
 51
253.670565
  0
LINE
  8
1
 62
     7
  6
CONTINUOUS
 10
6.453900
 20
7.462700
 30
1.000000
 11
7.478700
 21
7.579900
 31
1.000000
  0
LINE
  8
1
 62
     7
  6
DOT
 10
7.478700
 20
7.579900
 30
1.000000
 11
7.357900
 21
7.566000
 31
1.000000
  0
ARC
  8
1
 62
     7
  6
CONTINUOUS
 10
7.063700
 20
7.735600
 30
1.000000
 40
0.339549
 50
272.599497
 51
330.037472
  0
LINE
  8
1
 62
     7
  6
CONTINUOUS
 10
7.079100
 20
7.396400
 30
1.000000
 11
6.742400
 21
7.400100
 31
1.000000
  0
LINE
  8
1
 62
     7
  6
DOT
 10
6.742400
 20
7.400100
 30
1.000000
 11
7.013900
 21
7.526700
 31
1.000000
  0
LINE
  8
1
 62
     7
  6
CONTINUOUS
 10
7.013900
 20
7.526700
 30
1.000000
 11
6.844200
 21
7.433500
 31
1.000000
  0
LINE
  8
1
 62
     7
  6
CONTINUOUS
 10
6.844200
 20
7.433500
 30
1.000000
 11
6.844231
 21
7.433421
 31
1.000000
  0
ARC
  8
1
 62
     7
  6
CONTINUOUS
 10
6.494000
 20
8.330300
 30
1.000000
 40
0.962836
 50
267.916786
 51
291.330623
  0
LINE
  8
1
 62
     7
  6
CONTINUOUS
 10
6.459000
 20
7.368100
 30
1.000000
 11
4.851700
 21
7.366300
 31
1.000000
  0
LINE
  8
1
 62
     7
  6
DOT
 10
4.851700
 20
7.366300
 30
1.000000
 11
4.884500
 21
7.532300
 31
1.000000
  0
LINE
  8
1
 62
     7
  6
CONTINUOUS
 10
4.884500
 20
7.532300
 30
1.000000
 11
5.265900
 21
7.532300
 31
1.000000
  0
LINE
  8
1
 62
     7
  6
CONTINUOUS
 10
5.265900
 20
7.532300
 30
1.000000
 11
5.548100
 21
7.532300
 31
1.000000
  0
LINE
  8
1
 62
     7
  6
CONTINUOUS
 10
5.548100
 20
7.532300
 30
1.000000
 11
6.424700
 21
7.532300
 31
1.000000
  0
LINE
  8
1
 62
     7
  6
DOT
 10
6.424700
 20
7.532300
 30
1.000000
 11
5.947600
 21
7.532300
 31
1.000000
  0
LINE
  8
1
 62
     7
  6
CONTINUOUS
 10
5.947600
 20
7.532300
 30
1.000000
 11
5.947600
 21
7.745700
 31
1.000000
  0
LINE
  8
1
 62
     7
  6
CONTINUOUS
 10
5.947600
 20
7.745700
 30
1.000000
 11
5.947701
 21
7.745681
 31
1.000000
  0
ARC
  8
1
 62
     7
  6
CONTINUOUS
 10
5.741000
 20
7.784600
 30
1.000000
 40
0.210333
 50
349.336816
 51
447.302194
  0
LINE
  8
1
 62
     7
  6
CONTINUOUS
 10
5.750900
 20
7.994700
 30
1.000000
 11
5.711600
 21
8.145400
 31
1.000000
  0
ARC
  8
1
 62
     7
  6
CONTINUOUS
 10
5.505100
 20
7.987300
 30
1.000000
 40
0.260039
 50
37.438298
 51
115.707748
  0
LINE
  8
1
 62
     7
  6
DOT
 10
5.392300
 20
8.221600
 30
1.000000
 11
5.863700
 21
7.955400
 31
1.000000
  0
LINE
  8
1
 62
     7
  6
CONTINUOUS
 10
5.863700
 20
7.955400
 30
1.000000
 11
6.040500
 21
7.955400
 31
1.000000
  0
LINE
  8
1
 62
     7
  6
DOT
 10
6.040500
 20
7.955400
 30
1.000000
 11
5.644600
 21
7.532300
 31
1.000000
  0
ARC
  8
1
 62
     7
  6
CONTINUOUS
 10
5.567300
 20
7.700700
 30
1.000000
 40
0.185300
 50
294.656359
 51
450.000000
  0
LINE
  8
1
 62
     7
  6
CONTINUOUS
 10
5.567300
 20
7.886000
 30
1.000000
 11
5.239600
 21
7.885200
 31
1.000000
  0
LINE
  8
1
 62
     7
  6
DOT
 10
5.239600
 20
7.885200
 30
1.000000
 11
5.054800
 21
7.685600
 31
1.000000
  0
LINE
  8
1
 62
     7
  6
DOT
 10
5.054800
 20
7.685600
 30
1.000000
 11
5.054864
 21
7.685605
 31
1.000000
  0
ARC
  8
1
 62
     7
  6
CONTINUOUS
 10
5.239600
 20
7.699800
 30
1.000000
 40
0.185281
 50
184.393964
 51
244.693538
  0
LINE
  8
1
 62
     7
  6
DOT
 10
5.160400
 20
7.532300
 30
1.000000
 11
5.666700
 21
7.532300
 31
1.000000
  0
LINE
  8
1
 62
     7
  6
DOT
 10
5.666700
 20
7.532300
 30
1.000000
 11
5.666747
 21
7.532134
 31
1.000000
  0
ARC
  8
1
 62
     7
  6
CONTINUOUS
 10
5.610900
 20
7.728300
 30
1.000000
 40
0.203960
 50
285.891329
 51
440.061994
  0
LINE
  8
1
 62
     7
  6
CONTINUOUS
 10
5.646100
 20
7.929200
 30
1.000000
 11
5.646100
 21
7.988100
 31
1.000000
  0
LINE
  8
1
 62
     7
  6
CONTINUOUS
 10
5.646100
 20
7.988100
 30
1.000000
 11
5.475600
 21
7.988100
 31
1.000000
  0
ARC
  8
1
 62
     7
  6
CONTINUOUS
 10
5.424600
 20
8.039200
 30
1.000000
 40
0.072192
 50
258.332071
 51
314.943883
  0
ARC
  8
1
 62
     7
  6
CONTINUOUS
 10
5.423600
 20
7.571100
 30
1.000000
 40
0.397588
 50
91.960037
 51
118.892238
  0
LINE
  8
1
 62
     7
  6
DOT
 10
5.231500
 20
7.919200
 30
1.000000
 11
5.042900
 21
7.844000
 31
1.000000
  0
LINE
  8
1
 62
     7
  6
CONTINUOUS
 10
5.042900
 20
7.844000
 30
1.000000
 11
4.459400
 21
7.844000
 31
1.000000
  0
ARC
  8
1
 62
     7
  6
CONTINUOUS
 10
4.472600
 20
7.883700
 30
1.000000
 40
0.041837
 50
108.391641
 51
251.608359
  0
LINE
  8
1
 62
     7
  6
CONTINUOUS
 10
4.459400
 20
7.923400
 30
1.000000
 11
5.042900
 21
7.923400
 31
1.000000
  0
ARC
  8
1
 62
     7
  6
CONTINUOUS
 10
5.028300
 20
7.883700
 30
1.000000
 40
0.042300
 50
290.191412
 51
429.808588
  0
LINE
  8
1
 62
     7
  6
DOT
 10
5.042900
 20
7.844000
 30
1.000000
 11
4.884500
 21
7.532300
 31
1.000000
  0
LINE
  8
1
 62
     7
  6
CONTINUOUS
 10
4.884500
 20
7.532300
 30
1.000000
 11
5.054100
 21
7.685000
 31
1.000000
  0
LINE
  8
1
 62
     7
  6
CONTINUOUS
 10
5.054100
 20
7.685000
 30
1.000000
 11
5.054139
 21
7.684960
 31
1.000000
  0
ARC
  8
1
 62
     7
  6
CONTINUOUS
 10
4.389700
 20
8.372200
 30
1.000000
 40
0.955917
 50
314.033575
 51
337.273630
  0
LINE
  8
1
 62
     7
  6
CONTINUOUS
 10
5.271400
 20
8.002900
 30
1.000000
 11
5.633400
 21
8.661500
 31
1.000000
  0
ARC
  8
1
 62
     7
  6
CONTINUOUS
 10
6.008100
 20
8.515300
 30
1.000000
 40
0.402228
 50
135.644651
 51
158.685324
  0
LINE
  8
1
 62
     7
  6
DOT
 10
5.720500
 20
8.796500
 30
1.000000
 11
5.671000
 21
8.960700
 31
1.000000
  0
LINE
  8
1
 62
     7
  6
CONTINUOUS
 10
5.671000
 20
8.960700
 30
1.000000
 11
5.615400
 21
8.923400
 31
1.000000
  0
ARC
  8
1
 62
     7
  6
CONTINUOUS
 10
6.008100
 20
8.515300
 30
1.000000
 40
0.566317
 50
133.898294
 51
158.690823
  0
LINE
  8
1
 62
     7
  6
CONTINUOUS
 10
5.480500
 20
8.721100
 30
1.000000
 11
5.120000
 21
8.066300
 31
1.000000
  0
ARC
  8
1
 62
     7
  6
CONTINUOUS
 10
4.389700
 20
8.372200
 30
1.000000
 40
0.791787
 50
325.585394
 51
337.272703
  0
LINE
  8
1
 62
     7
  6
DOT
 10
5.042900
 20
7.924700
 30
1.000000
 11
4.985600
 21
7.844000
 31
1.000000
  0
LINE
  8
1
 62
     7
  6
CONTINUOUS
 10
4.985600
 20
7.844000
 30
1.000000
 11
4.722000
 21
7.606900
 31
1.000000
  0
LINE
  8
1
 62
     7
  6
CONTINUOUS
 10
4.722000
 20
7.606900
 30
1.000000
 11
4.701300
 21
7.634800
 31
1.000000
  0
LINE
  8
1
 62
     7
  6
CONTINUOUS
 10
4.701300
 20
7.634800
 30
1.000000
 11
4.565200
 21
7.844000
 31
1.000000
  0
LINE
  8
1
 62
     7
  6
DOT
 10
4.565200
 20
7.844000
 30
1.000000
 11
4.548000
 21
7.996900
 31
1.000000
  0
CIRCLE
  8
1
 62
     7
  6
CONTINUOUS
 10
4.508300
 20
7.996900
 30
1.000000
 40
0.039700
  0
LINE
  8
1
 62
     7
  6
DOT
 10
4.548000
 20
7.996900
 30
1.000000
 11
4.900300
 21
7.923400
 31
1.000000
  0
LINE
  8
1
 62
     7
  6
DOT
 10
4.900300
 20
7.923400
 30
1.000000
 11
4.900244
 21
7.923416
 31
1.000000
  0
ARC
  8
1
 62
     7
  6
CONTINUOUS
 10
10.946200
 20
6.189900
 30
1.000000
 40
6.289568
 50
152.823028
 51
164.001173
  0
ARC
  8
1
 62
     7
  6
CONTINUOUS
 10
6.010700
 20
8.638300
 30
1.000000
 40
0.784375
 50
114.614434
 51
147.252046
  0
LINE
  8
1
 62
     7
  6
CONTINUOUS
 10
5.684000
 20
9.351400
 30
1.000000
 11
5.881300
 21
9.456500
 31
1.000000
  0
LINE
  8
1
 62
     7
  6
DOT
 10
5.881300
 20
9.456500
 30
1.000000
 11
4.609800
 21
7.923400
 31
1.000000
  0
LINE
  8
1
 62
     7
  6
CONTINUOUS
 10
4.609800
 20
7.923400
 30
1.000000
 11
5.227500
 21
9.057800
 31
1.000000
  0
ARC
  8
1
 62
     7
  6
CONTINUOUS
 10
5.163000
 20
9.069400
 30
1.000000
 40
0.065555
 50
349.804631
 51
446.063834
  0
ARC
  8
1
 62
     7
  6
CONTINUOUS
 10
4.823300
 20
7.412400
 30
1.000000
 40
1.756473
 50
78.699024
 51
110.485033
  0
ARC
  8
1
 62
     7
  6
CONTINUOUS
 10
4.517200
 20
8.528500
 30
1.000000
 40
0.612714
 50
120.243648
 51
155.354829
  0
LINE
  8
1
 62
     7
  6
CONTINUOUS
 10
3.960300
 20
8.784000
 30
1.000000
 11
3.535300
 21
7.988100
 31
1.000000
  0
LINE
  8
1
 62
     7
  6
DOT
 10
3.535300
 20
7.988100
 30
1.000000
 11
3.626400
 21
8.159400
 31
1.000000
  0
LINE
  8
1
 62
     7
  6
CONTINUOUS
 10
3.626400
 20
8.159400
 30
1.000000
 11
3.849000
 21
8.159400
 31
1.000000
  0
ARC
  8
1
 62
     7
  6
CONTINUOUS
 10
3.863300
 20
8.040700
 30
1.000000
 40
0.119531
 50
342.823264
 51
456.869419
  0
ARC
  8
1
 62
     7
  6
CONTINUOUS
 10
4.082500
 20
7.973500
 30
1.000000
 40
0.109739
 50
163.100719
 51
286.899281
  0
LINE
  8
1
 62
     7
  6
CONTINUOUS
 10
4.114400
 20
7.868500
 30
1.000000
 11
4.433600
 21
7.868500
 31
1.000000
  0
LINE
  8
1
 62
     7
  6
DOT
 10
4.433600
 20
7.868500
 30
1.000000
 11
4.422900
 21
7.868500
 31
1.000000
  0
LINE
  8
1
 62
     7
  6
CONTINUOUS
 10
4.422900
 20
7.868500
 30
1.000000
 11
4.641600
 21
7.532300
 31
1.000000
  0
LINE
  8
1
 62
     7
  6
CONTINUOUS
 10
4.641600
 20
7.532300
 30
1.000000
 11
3.694900
 21
7.533600
 31
1.000000
  0
LINE
  8
1
 62
     7
  6
CONTINUOUS
 10
3.694900
 20
7.533600
 30
1.000000
 11
3.513000
 21
7.639800
 31
1.000000
  0
ARC
  8
1
 62
     7
  6
CONTINUOUS
 10
2.910500
 20
7.728300
 30
1.000000
 40
0.608978
 50
351.643696
 51
365.474675
  0
LINE
  8
1
 62
     7
  6
DOT
 10
3.516700
 20
7.786400
 30
1.000000
 11
3.271700
 21
7.739700
 31
1.000000
  0
LINE
  8
1
 62
     7
  6
CONTINUOUS
 10
3.271700
 20
7.739700
 30
1.000000
 11
3.673400
 21
7.816200
 31
1.000000
  0
LINE
  8
1
 62
     7
  6
CONTINUOUS
 10
3.673400
 20
7.816200
 30
1.000000
 11
3.673415
 21
7.816122
 31
1.000000
  0
ARC
  8
1
 62
     7
  6
CONTINUOUS
 10
3.653600
 20
7.920200
 30
1.000000
 40
0.105948
 50
280.779235
 51
331.717558
  0
LINE
  8
1
 62
     7
  6
CONTINUOUS
 10
3.746900
 20
7.870000
 30
1.000000
 11
3.791000
 21
8.062500
 31
1.000000
  0
LINE
  8
1
 62
     7
  6
DOT
 10
3.791000
 20
8.062500
 30
1.000000
 11
3.774900
 21
7.992400
 31
1.000000
  0
ARC
  8
1
 62
     7
  6
CONTINUOUS
 10
2.910500
 20
7.728300
 30
1.000000
 40
0.903842
 50
347.553701
 51
376.989476
  0
LINE
  8
1
 62
     7
  6
DOT
 10
3.793100
 20
7.533500
 30
1.000000
 11
4.186600
 21
7.533500
 31
1.000000
  0
LINE
  8
1
 62
     7
  6
DOT
 10
4.186600
 20
7.533500
 30
1.000000
 11
4.186652
 21
7.533492
 31
1.000000
  0
ARC
  8
1
 62
     7
  6
CONTINUOUS
 10
2.910500
 20
7.728300
 30
1.000000
 40
1.290936
 50
351.320653
 51
366.234814
  0
LINE
  8
1
 62
     7
  6
DOT
 10
4.193800
 20
7.868500
 30
1.000000
 11
3.953500
 21
8.119100
 31
1.000000
  0
LINE
  8
1
 62
     7
  6
CONTINUOUS
 10
3.953500
 20
8.119100
 30
1.000000
 11
3.506000
 21
7.963100
 31
1.000000
  0
LINE
  8
1
 62
     7
  6
DOT
 10
3.506000
 20
7.963100
 30
1.000000
 11
3.576300
 21
8.065000
 31
1.000000
  0
LINE
  8
1
 62
     7
  6
CONTINUOUS
 10
3.576300
 20
8.065000
 30
1.000000
 11
3.847100
 21
8.159400
 31
1.000000
  0
LINE
  8
1
 62
     7
  6
DOT
 10
3.847100
 20
8.159400
 30
1.000000
 11
4.149400
 21
7.365500
 31
1.000000
  0
LINE
  8
1
 62
     7
  6
CONTINUOUS
 10
4.149400
 20
7.365500
 30
1.000000
 11
3.695100
 21
7.364900
 31
1.000000
  0
LINE
  8
1
 62
     7
  6
CONTINUOUS
 10
3.695100
 20
7.364900
 30
1.000000
 11
3.694900
 21
7.533600
 31
1.000000
  0
LINE
  8
1
 62
     7
  6
DOT
 10
3.694900
 20
7.533600
 30
1.000000
 11
3.513000
 21
7.639800
 31
1.000000
  0
LINE
  8
1
 62
     7
  6
CONTINUOUS
 10
3.513000
 20
7.639800
 30
1.000000
 11
3.513400
 21
7.258800
 31
1.000000
  0
LINE
  8
1
 62
     7
  6
CONTINUOUS
 10
3.513400
 20
7.258800
 30
1.000000
 11
3.694900
 21
7.364900
 31
1.000000
  0
LINE
  8
1
 62
     7
  6
DOT
 10
3.694900
 20
7.364900
 30
1.000000
 11
4.551600
 21
9.219500
 31
1.000000
  0
LINE
  8
1
 62
     7
  6
CONTINUOUS
 10
4.551600
 20
9.219500
 30
1.000000
 11
4.203000
 21
9.054900
 31
1.000000
  0
LINE
  8
1
 62
     7
  6
DOT
 10
4.203000
 20
9.054900
 30
1.000000
 11
4.409200
 21
9.233100
 31
1.000000
  0
LINE
  8
1
 62
     7
  6
CONTINUOUS
 10
4.409200
 20
9.233100
 30
1.000000
 11
4.171800
 21
9.120900
 31
1.000000
  0
ARC
  8
1
 62
     7
  6
CONTINUOUS
 10
4.517200
 20
8.528500
 30
1.000000
 40
0.685783
 50
120.244409
 51
155.352068
  0
LINE
  8
1
 62
     7
  6
CONTINUOUS
 10
3.893900
 20
8.814500
 30
1.000000
 11
3.712100
 21
8.472200
 31
1.000000
  0
LINE
  8
1
 62
     7
  6
CONTINUOUS
 10
3.712100
 20
8.472200
 30
1.000000
 11
1.211000
 21
8.472200
 31
1.000000
  0
LINE
  8
1
 62
     7
  6
CONTINUOUS
 10
1.211000
 20
8.472200
 30
1.000000
 11
1.273100
 21
8.587600
 31
1.000000
  0
LINE
  8
1
 62
     7
  6
CONTINUOUS
 10
1.273100
 20
8.587600
 30
1.000000
 11
1.352700
 21
8.735600
 31
1.000000
  0
LINE
  8
1
 62
     7
  6
CONTINUOUS
 10
1.352700
 20
8.735600
 30
1.000000
 11
1.474500
 21
8.962000
 31
1.000000
  0
LINE
  8
1
 62
     7
  6
CONTINUOUS
 10
1.474500
 20
8.962000
 30
1.000000
 11
3.613000
 21
8.962000
 31
1.000000
  0
LINE
  8
1
 62
     7
  6
CONTINUOUS
 10
3.613000
 20
8.962000
 30
1.000000
 11
3.500700
 21
8.472200
 31
1.000000
  0
LINE
  8
1
 62
     7
  6
DOT
 10
3.500700
 20
8.472200
 30
1.000000
 11
3.484000
 21
8.399200
 31
1.000000
  0
LINE
  8
1
 62
     7
  6
CONTINUOUS
 10
3.484000
 20
8.399200
 30
1.000000
 11
3.400000
 21
8.033200
 31
1.000000
  0
LINE
  8
1
 62
     7
  6
DOT
 10
3.400000
 20
8.033200
 30
1.000000
 11
3.383300
 21
7.960100
 31
1.000000
  0
LINE
  8
1
 62
     7
  6
CONTINUOUS
 10
3.383300
 20
7.960100
 30
1.000000
 11
3.345100
 21
7.793600
 31
1.000000
  0
ARC
  8
1
 62
     7
  6
CONTINUOUS
 10
3.251900
 20
7.843800
 30
1.000000
 40
0.105900
 50
269.945896
 51
331.691913
  0
LINE
  8
1
 62
     7
  6
DOT
 10
3.251800
 20
7.737900
 30
1.000000
 11
3.383300
 21
7.960100
 31
1.000000
  0
LINE
  8
1
 62
     7
  6
CONTINUOUS
 10
3.383300
 20
7.960100
 30
1.000000
 11
3.345100
 21
7.793600
 31
1.000000
  0
LINE
  8
1
 62
     7
  6
DOT
 10
3.345100
 20
7.793600
 30
1.000000
 11
3.251800
 21
7.737900
 31
1.000000
  0
LINE
  8
1
 62
     7
  6
CONTINUOUS
 10
3.251800
 20
7.737900
 30
1.000000
 11
1.619600
 21
7.739200
 31
1.000000
  0
LINE
  8
1
 62
     7
  6
DOT
 10
1.619600
 20
7.739200
 30
1.000000
 11
3.345100
 21
7.793600
 31
1.000000
  0
ARC
  8
1
 62
     7
  6
CONTINUOUS
 10
3.251900
 20
7.843800
 30
1.000000
 40
0.105900
 50
269.945896
 51
331.691913
  0
LINE
  8
1
 62
     7
  6
DOT
 10
3.251800
 20
7.737900
 30
1.000000
 11
2.006700
 21
7.737900
 31
1.000000
  0
ARC
  8
1
 62
     7
  6
CONTINUOUS
 10
2.910500
 20
7.728300
 30
1.000000
 40
0.903839
 50
179.391437
 51
185.485408
  0
LINE
  8
1
 62
     7
  6
DOT
 10
2.010800
 20
7.641900
 30
1.000000
 11
2.307800
 21
7.641900
 31
1.000000
  0
ARC
  8
1
 62
     7
  6
CONTINUOUS
 10
2.910500
 20
7.728300
 30
1.000000
 40
0.608887
 50
179.030732
 51
188.158050
  0
LINE
  8
1
 62
     7
  6
DOT
 10
2.301700
 20
7.738600
 30
1.000000
 11
1.622500
 21
7.642400
 31
1.000000
  0
LINE
  8
1
 62
     7
  6
CONTINUOUS
 10
1.622500
 20
7.642400
 30
1.000000
 11
1.794600
 21
7.642200
 31
1.000000
  0
LINE
  8
1
 62
     7
  6
CONTINUOUS
 10
1.794600
 20
7.642200
 30
1.000000
 11
2.744900
 21
7.640800
 31
1.000000
  0
LINE
  8
1
 62
     7
  6
CONTINUOUS
 10
2.744900
 20
7.640800
 30
1.000000
 11
3.513000
 21
7.639800
 31
1.000000
  0
LINE
  8
1
 62
     7
  6
DOT
 10
3.513000
 20
7.639800
 30
1.000000
 11
3.513000
 21
7.258800
 31
1.000000
  0
LINE
  8
1
 62
     7
  6
CONTINUOUS
 10
3.513000
 20
7.258800
 30
1.000000
 11
1.708800
 21
7.256800
 31
1.000000
  0
LINE
  8
1
 62
     7
  6
DOT
 10
1.708800
 20
7.256800
 30
1.000000
 11
2.139100
 21
7.256800
 31
1.000000
  0
LINE
  8
1
 62
     7
  6
DOT
 10
2.139100
 20
7.256800
 30
1.000000
 11
2.139240
 21
7.256885
 31
1.000000
  0
ARC
  8
1
 62
     7
  6
CONTINUOUS
 10
2.910500
 20
7.728300
 30
1.000000
 40
0.903922
 50
211.434372
 51
336.302025
  0
LINE
  8
1
 62
     7
  6
DOT
 10
3.738200
 20
7.365000
 30
1.000000
 11
3.298000
 21
7.258600
 31
1.000000
  0
ARC
  8
1
 62
     7
  6
CONTINUOUS
 10
2.910500
 20
7.728300
 30
1.000000
 40
0.608908
 50
230.611285
 51
309.522450
  0
LINE
  8
1
 62
     7
  6
DOT
 10
2.524100
 20
7.257700
 30
1.000000
 11
1.273100
 21
8.587600
 31
1.000000
  0
ARC
  8
1
 62
     7
  6
CONTINUOUS
 10
1.425700
 20
8.697100
 30
1.000000
 40
0.187818
 50
141.702276
 51
215.661794
  0
LINE
  8
1
 62
     7
  6
DOT
 10
1.278300
 20
8.813500
 30
1.000000
 11
1.006300
 21
8.091800
 31
1.000000
  0
LINE
  8
1
 62
     7
  6
CONTINUOUS
 10
1.006300
 20
8.091800
 30
1.000000
 11
0.974800
 21
8.033200
 31
1.000000
  0
LINE
  8
1
 62
     7
  6
CONTINUOUS
 10
0.974800
 20
8.033200
 30
1.000000
 11
3.444700
 21
8.033200
 31
1.000000
  0
LINE
  8
1
 62
     7
  6
CONTINUOUS
 10
3.444700
 20
8.033200
 30
1.000000
 11
3.444700
 21
8.033088
 31
1.000000
  0
ARC
  8
1
 62
     7
  6
CONTINUOUS
 10
3.444700
 20
8.086100
 30
1.000000
 40
0.053012
 50
270.000000
 51
331.984733
  0
LINE
  8
1
 62
     7
  6
CONTINUOUS
 10
3.491500
 20
8.061200
 30
1.000000
 11
3.672000
 21
8.399200
 31
1.000000
  0
LINE
  8
1
 62
     7
  6
CONTINUOUS
 10
3.672000
 20
8.399200
 30
1.000000
 11
1.171400
 21
8.398600
 31
1.000000
  0
LINE
  8
1
 62
     7
  6
DOT
 10
1.171400
 20
8.398600
 30
1.000000
 11
0.935000
 21
7.959200
 31
1.000000
  0
LINE
  8
1
 62
     7
  6
CONTINUOUS
 10
0.935000
 20
7.959200
 30
1.000000
 11
3.488600
 21
7.960100
 31
1.000000
  0
LINE
  8
1
 62
     7
  6
DOT
 10
3.488600
 20
7.960100
 30
1.000000
 11
2.997700
 21
8.962000
 31
1.000000
  0
LINE
  8
1
 62
     7
  6
CONTINUOUS
 10
2.997700
 20
8.962000
 30
1.000000
 11
2.906100
 21
8.754000
 31
1.000000
  0
ARC
  8
1
 62
     7
  6
CONTINUOUS
 10
2.854100
 20
8.763600
 30
1.000000
 40
0.052900
 50
270.000000
 51
349.540091
  0
LINE
  8
1
 62
     7
  6
CONTINUOUS
 10
2.854100
 20
8.710700
 30
1.000000
 11
2.072700
 21
8.710700
 31
1.000000
  0
ARC
  8
1
 62
     7
  6
CONTINUOUS
 10
2.072700
 20
8.763600
 30
1.000000
 40
0.052946
 50
165.675049
 51
270.000000
  0
LINE
  8
1
 62
     7
  6
CONTINUOUS
 10
2.021400
 20
8.776700
 30
1.000000
 11
2.121500
 21
8.962000
 31
1.000000
  0
LINE
  8
1
 62
     7
  6
DOT
 10
2.121500
 20
8.962000
 30
1.000000
 11
2.230400
 21
8.821300
 31
1.000000
  0
CIRCLE
  8
1
 62
     7
  6
CONTINUOUS
 10
2.190700
 20
8.821300
 30
1.000000
 40
0.039700
  0
LINE
  8
1
 62
     7
  6
DOT
 10
2.230400
 20
8.821300
 30
1.000000
 11
2.343600
 21
8.876300
 31
1.000000
  0
LINE
  8
1
 62
     7
  6
CONTINUOUS
 10
2.343600
 20
8.876300
 30
1.000000
 11
2.291600
 21
8.760200
 31
1.000000
  0
LINE
  8
1
 62
     7
  6
CONTINUOUS
 10
2.291600
 20
8.760200
 30
1.000000
 11
2.848100
 21
8.760200
 31
1.000000
  0
LINE
  8
1
 62
     7
  6
CONTINUOUS
 10
2.848100
 20
8.760200
 30
1.000000
 11
2.897100
 21
8.876300
 31
1.000000
  0
LINE
  8
1
 62
     7
  6
CONTINUOUS
 10
2.897100
 20
8.876300
 30
1.000000
 11
2.343600
 21
8.876300
 31
1.000000
  0
LINE
  8
1
 62
     7
  6
DOT
 10
2.343600
 20
8.876300
 30
1.000000
 11
1.552700
 21
9.081300
 31
1.000000
  0
ARC
  8
1
 62
     7
  6
CONTINUOUS
 10
3.622200
 20
2.246200
 30
1.000000
 40
7.141566
 50
92.400339
 51
106.845020
  0
LINE
  8
1
 62
     7
  6
CONTINUOUS
 10
3.323100
 20
9.381500
 30
1.000000
 11
3.613000
 21
8.962000
 31
1.000000
  0
LINE
  8
1
 62
     7
  6
CONTINUOUS
 10
3.613000
 20
8.962000
 30
1.000000
 11
4.014800
 21
9.038500
 31
1.000000
  0
LINE
  8
1
 62
     7
  6
CONTINUOUS
 10
4.014800
 20
9.038500
 30
1.000000
 11
3.724800
 21
9.457900
 31
1.000000
  0
LINE
  8
1
 62
     7
  6
CONTINUOUS
 10
3.724800
 20
9.457900
 30
1.000000
 11
3.323100
 21
9.381500
 31
1.000000
  0
LINE
  8
1
 62
     7
  6
DOT
 10
3.323100
 20
9.381500
 30
1.000000
 11
3.724800
 21
9.457900
 31
1.000000
  0
ARC
  8
1
 62
     7
  6
CONTINUOUS
 10
3.585300
 20
3.810500
 30
1.000000
 40
5.649096
 50
88.584988
 51
105.558369
  0
LINE
  8
1
 62
     7
  6
DOT
 10
2.070100
 20
9.252600
 30
1.000000
 11
2.362500
 21
9.325700
 31
1.000000
  0
LINE
  8
1
 62
     7
  6
CONTINUOUS
 10
2.362500
 20
9.325700
 30
1.000000
 11
1.812100
 21
9.325700
 31
1.000000
  0
LINE
  8
1
 62
     7
  6
CONTINUOUS
 10
1.812100
 20
9.325700
 30
1.000000
 11
1.812107
 21
9.325600
 31
1.000000
  0
ARC
  8
1
 62
     7
  6
CONTINUOUS
 10
1.802800
 20
9.461700
 30
1.000000
 40
0.136417
 50
86.090935
 51
273.911930
  0
LINE
  8
1
 62
     7
  6
CONTINUOUS
 10
1.812100
 20
9.597800
 30
1.000000
 11
2.409500
 21
9.597800
 31
1.000000
  0
LINE
  8
1
 62
     7
  6
CONTINUOUS
 10
2.409500
 20
9.597800
 30
1.000000
 11
2.963700
 21
9.599000
 31
1.000000
  0
LINE
  8
1
 62
     7
  6
CONTINUOUS
 10
2.963700
 20
9.599000
 30
1.000000
 11
2.963700
 21
9.599064
 31
1.000000
  0
ARC
  8
1
 62
     7
  6
CONTINUOUS
 10
2.963800
 20
9.546100
 30
1.000000
 40
0.052964
 50
40.789034
 51
90.108309
  0
LINE
  8
1
 62
     7
  6
CONTINUOUS
 10
3.003900
 20
9.580700
 30
1.000000
 11
3.089200
 21
9.481700
 31
1.000000
  0
ARC
  8
1
 62
     7
  6
CONTINUOUS
 10
3.507700
 20
9.972700
 30
1.000000
 40
0.645155
 50
229.557646
 51
235.329560
  0
LINE
  8
1
 62
     7
  6
DOT
 10
3.140700
 20
9.442100
 30
1.000000
 11
3.273000
 21
9.451000
 31
1.000000
  0
ARC
  8
1
 62
     7
  6
CONTINUOUS
 10
3.507700
 20
9.972700
 30
1.000000
 40
0.572091
 50
229.558391
 51
245.778191
  0
LINE
  8
1
 62
     7
  6
CONTINUOUS
 10
3.136600
 20
9.537300
 30
1.000000
 11
2.987500
 21
9.712300
 31
1.000000
  0
LINE
  8
1
 62
     7
  6
DOT
 10
2.987500
 20
9.712300
 30
1.000000
 11
3.408100
 21
9.600500
 31
1.000000
  0
ARC
  8
1
 62
     7
  6
CONTINUOUS
 10
3.318700
 20
7.379800
 30
1.000000
 40
2.222474
 50
87.694656
 51
95.875281
  0
LINE
  8
1
 62
     7
  6
DOT
 10
3.091200
 20
9.590600
 30
1.000000
 11
3.004400
 21
9.580000
 31
1.000000
  0
ARC
  8
1
 62
     7
  6
CONTINUOUS
 10
3.318700
 20
7.379800
 30
1.000000
 40
2.222515
 50
98.129738
 51
118.891096
  0
LINE
  8
1
 62
     7
  6
DOT
 10
2.244900
 20
9.325700
 30
1.000000
 11
1.791300
 21
9.670800
 31
1.000000
  0
LINE
  8
1
 62
     7
  6
CONTINUOUS
 10
1.791300
 20
9.670800
 30
1.000000
 11
2.409400
 21
9.670800
 31
1.000000
  0
LINE
  8
1
 62
     7
  6
CONTINUOUS
 10
2.409400
 20
9.670800
 30
1.000000
 11
2.930900
 21
9.672000
 31
1.000000
  0
LINE
  8
1
 62
     7
  6
CONTINUOUS
 10
2.930900
 20
9.672000
 30
1.000000
 11
3.339900
 21
9.962900
 31
1.000000
  0
LINE
  8
1
 62
     7
  6
CONTINUOUS
 10
3.339900
 20
9.962900
 30
1.000000
 11
3.229000
 21
10.531000
 31
1.000000
  0
LINE
  8
1
 62
     7
  6
CONTINUOUS
 10
3.229000
 20
10.531000
 30
1.000000
 11
2.624600
 21
10.531000
 31
1.000000
  0
LINE
  8
1
 62
     7
  6
CONTINUOUS
 10
2.624600
 20
10.531000
 30
1.000000
 11
3.152800
 21
10.579400
 31
1.000000
  0
LINE
  8
1
 62
     7
  6
CONTINUOUS
 10
3.152800
 20
10.579400
 30
1.000000
 11
3.205600
 21
10.579400
 31
1.000000
  0
LINE
  8
1
 62
     7
  6
DOT
 10
3.205600
 20
10.579400
 30
1.000000
 11
3.197800
 21
10.641800
 31
1.000000
  0
LINE
  8
1
 62
     7
  6
CONTINUOUS
 10
3.197800
 20
10.641800
 30
1.000000
 11
3.090400
 21
10.641800
 31
1.000000
  0
ARC
  8
1
 62
     7
  6
CONTINUOUS
 10
3.011700
 20
11.036600
 30
1.000000
 40
0.402550
 50
236.582316
 51
281.273646
  0
ARC
  8
1
 62
     7
  6
CONTINUOUS
 10
3.011700
 20
11.036600
 30
1.000000
 40
0.402532
 50
186.920219
 51
236.582316
  0
ARC
  8
1
 62
     7
  6
CONTINUOUS
 10
2.330200
 20
10.893400
 30
1.000000
 40
0.297333
 50
18.568988
 51
46.199166
  0
LINE
  8
1
 62
     7
  6
CONTINUOUS
 10
2.536000
 20
11.108000
 30
1.000000
 11
2.515500
 21
11.102200
 31
1.000000
  0
LINE
  8
1
 62
     7
  6
CONTINUOUS
 10
2.515500
 20
11.102200
 30
1.000000
 11
2.657000
 21
10.660400
 31
1.000000
  0
LINE
  8
1
 62
     7
  6
CONTINUOUS
 10
2.657000
 20
10.660400
 30
1.000000
 11
2.409400
 21
9.670800
 31
1.000000
  0
LINE
  8
1
 62
     7
  6
DOT
 10
2.409400
 20
9.670800
 30
1.000000
 11
2.790000
 21
10.700600
 31
1.000000
  0
LINE
  8
1
 62
     7
  6
CONTINUOUS
 10
2.790000
 20
10.700600
 30
1.000000
 11
2.657000
 21
10.660400
 31
1.000000
  0
LINE
  8
1
 62
     7
  6
CONTINUOUS
 10
2.657000
 20
10.660400
 30
1.000000
 11
0.499600
 21
10.660400
 31
1.000000
  0
LINE
  8
1
 62
     7
  6
DOT
 10
0.499600
 20
10.660400
 30
1.000000
 11
0.937100
 21
10.660400
 31
1.000000
  0
LINE
  8
1
 62
     7
  6
CONTINUOUS
 10
0.937100
 20
10.660400
 30
1.000000
 11
0.937100
 21
10.498300
 31
1.000000
  0
LINE
  8
1
 62
     7
  6
CONTINUOUS
 10
0.937100
 20
10.498300
 30
1.000000
 11
1.128400
 21
10.498300
 31
1.000000
  0
LINE
  8
1
 62
     7
  6
CONTINUOUS
 10
1.128400
 20
10.498300
 30
1.000000
 11
1.128400
 21
10.660400
 31
1.000000
  0
LINE
  8
1
 62
     7
  6
DOT
 10
1.128400
 20
10.660400
 30
1.000000
 11
0.547000
 21
10.439400
 31
1.000000
  0
LINE
  8
1
 62
     7
  6
CONTINUOUS
 10
0.547000
 20
10.439400
 30
1.000000
 11
1.131400
 21
10.439400
 31
1.000000
  0
ARC
  8
1
 62
     7
  6
CONTINUOUS
 10
1.131400
 20
10.386500
 30
1.000000
 40
0.052946
 50
14.324951
 51
90.000000
  0
LINE
  8
1
 62
     7
  6
CONTINUOUS
 10
1.182700
 20
10.399600
 30
1.000000
 11
1.263500
 21
10.083900
 31
1.000000
  0
ARC
  8
1
 62
     7
  6
CONTINUOUS
 10
1.212200
 20
10.070800
 30
1.000000
 40
0.052900
 50
270.000000
 51
374.324951
  0
LINE
  8
1
 62
     7
  6
CONTINUOUS
 10
1.212200
 20
10.017900
 30
1.000000
 11
0.637400
 21
10.017900
 31
1.000000
  0
LINE
  8
1
 62
     7
  6
DOT
 10
0.637400
 20
10.017900
 30
1.000000
 11
0.619500
 21
10.101200
 31
1.000000
  0
LINE
  8
1
 62
     7
  6
CONTINUOUS
 10
0.619500
 20
10.101200
 30
1.000000
 11
1.010700
 21
10.101200
 31
1.000000
  0
LINE
  8
1
 62
     7
  6
CONTINUOUS
 10
1.010700
 20
10.101200
 30
1.000000
 11
1.010700
 21
10.361000
 31
1.000000
  0
LINE
  8
1
 62
     7
  6
CONTINUOUS
 10
1.010700
 20
10.361000
 30
1.000000
 11
0.563800
 21
10.361000
 31
1.000000
  0
LINE
  8
1
 62
     7
  6
DOT
 10
0.563800
 20
10.361000
 30
1.000000
 11
2.011400
 21
10.660400
 31
1.000000
  0
LINE
  8
1
 62
     7
  6
CONTINUOUS
 10
2.011400
 20
10.660400
 30
1.000000
 11
2.011400
 21
10.498300
 31
1.000000
  0
LINE
  8
1
 62
     7
  6
CONTINUOUS
 10
2.011400
 20
10.498300
 30
1.000000
 11
2.192900
 21
10.498300
 31
1.000000
  0
LINE
  8
1
 62
     7
  6
CONTINUOUS
 10
2.192900
 20
10.498300
 30
1.000000
 11
2.192900
 21
10.660400
 31
1.000000
  0
LINE
  8
1
 62
     7
  6
DOT
 10
2.192900
 20
10.660400
 30
1.000000
 11
2.139400
 21
10.777700
 31
1.000000
  0
CIRCLE
  8
1
 62
     7
  6
CONTINUOUS
 10
2.099700
 20
10.777700
 30
1.000000
 40
0.039700
  0
LINE
  8
1
 62
     7
  6
DOT
 10
2.139400
 20
10.777700
 30
1.000000
 11
2.709100
 21
11.549200
 31
1.000000
  0
ARC
  8
1
 62
     7
  6
CONTINUOUS
 10
2.916700
 20
11.376000
 30
1.000000
 40
0.270404
 50
140.161868
 51
256.744921
  0
LINE
  8
1
 62
     7
  6
CONTINUOUS
 10
2.854700
 20
11.112800
 30
1.000000
 11
3.229000
 21
10.877300
 31
1.000000
  0
ARC
  8
1
 62
     7
  6
CONTINUOUS
 10
3.180200
 20
10.752200
 30
1.000000
 40
0.134232
 50
38.466490
 51
68.689844
  0
LINE
  8
1
 62
     7
  6
DOT
 10
3.285300
 20
10.835700
 30
1.000000
 11
3.312000
 21
10.105800
 31
1.000000
  0
ARC
  8
1
 62
     7
  6
CONTINUOUS
 10
3.222100
 20
11.046100
 30
1.000000
 40
0.944574
 50
275.461323
 51
301.241510
  0
ARC
  8
1
 62
     7
  6
CONTINUOUS
 10
4.229100
 20
9.654800
 30
1.000000
 40
0.779809
 50
128.130816
 51
131.537742
  0
LINE
  8
1
 62
     7
  6
DOT
 10
3.747600
 20
10.268200
 30
1.000000
 11
4.265100
 21
10.433800
 31
1.000000
  0
LINE
  8
1
 62
     7
  6
DOT
 10
4.265100
 20
10.433800
 30
1.000000
 11
4.265071
 21
10.433855
 31
1.000000
  0
ARC
  8
1
 62
     7
  6
CONTINUOUS
 10
4.315700
 20
10.338400
 30
1.000000
 40
0.108050
 50
117.941404
 51
187.605156
  0
ARC
  8
1
 62
     7
  6
CONTINUOUS
 10
4.783000
 20
10.169000
 30
1.000000
 40
0.594954
 50
164.889309
 51
212.675049
  0
LINE
  8
1
 62
     7
  6
DOT
 10
4.282200
 20
9.847800
 30
1.000000
 11
3.333700
 21
9.995000
 31
1.000000
  0
ARC
  8
1
 62
     7
  6
CONTINUOUS
 10
3.608100
 20
8.490900
 30
1.000000
 40
1.528911
 50
70.319455
 51
100.339035
  0
LINE
  8
1
 62
     7
  6
CONTINUOUS
 10
4.123000
 20
9.930500
 30
1.000000
 11
4.123040
 21
9.930568
 31
1.000000
  0
ARC
  8
1
 62
     7
  6
CONTINUOUS
 10
4.931200
 20
11.291300
 30
1.000000
 40
1.582629
 50
239.293274
 51
289.796288
  0
ARC
  8
1
 62
     7
  6
CONTINUOUS
 10
7.021500
 20
7.600200
 30
1.000000
 40
2.695317
 50
104.248659
 51
125.216674
  0
LINE
  8
1
 62
     7
  6
DOT
 10
6.358100
 20
10.212600
 30
1.000000
 11
5.688300
 21
9.694200
 31
1.000000
  0
ARC
  8
1
 62
     7
  6
CONTINUOUS
 10
5.867900
 20
9.250100
 30
1.000000
 40
0.479079
 50
112.019069
 51
160.680040
  0
ARC
  8
1
 62
     7
  6
CONTINUOUS
 10
4.638600
 20
10.891800
 30
1.000000
 40
1.674518
 50
236.052756
 51
297.654635
  0
ARC
  8
1
 62
     7
  6
CONTINUOUS
 10
2.949900
 20
7.721700
 30
1.000000
 40
1.933885
 50
67.065171
 51
87.403761
  0
LINE
  8
1
 62
     7
  6
DOT
 10
3.037500
 20
9.653600
 30
1.000000
 11
8.771400
 21
9.063800
 31
1.000000
  0
ARC
  8
1
 62
     7
  6
CONTINUOUS
 10
9.703700
 20
7.718500
 30
1.000000
 40
1.636774
 50
124.722164
 51
143.864534
  0
LINE
  8
1
 62
     7
  6
DOT
 10
8.381800
 20
8.683700
 30
1.000000
 11
6.821500
 21
10.035400
 31
1.000000
  0
LINE
  8
1
 62
     7
  6
DOT
 10
6.821500
 20
10.035400
 30
1.000000
 11
6.821550
 21
10.035450
 31
1.000000
  0
ARC
  8
1
 62
     7
  6
CONTINUOUS
 10
6.848500
 20
10.062500
 30
1.000000
 40
0.038184
 50
81.869898
 51
225.105907
  0
LINE
  8
1
 62
     7
  6
CONTINUOUS
 10
6.853900
 20
10.100300
 30
1.000000
 11
6.886300
 21
10.100300
 31
1.000000
  0
LINE
  8
1
 62
     7
  6
CONTINUOUS
 10
6.886300
 20
10.100300
 30
1.000000
 11
6.853900
 21
10.003000
 31
1.000000
  0
LINE
  8
1
 62
     7
  6
CONTINUOUS
 10
6.853900
 20
10.003000
 30
1.000000
 11
6.843100
 21
9.970600
 31
1.000000
  0
ARC
  8
1
 62
     7
  6
CONTINUOUS
 10
6.508100
 20
10.093100
 30
1.000000
 40
0.356692
 50
321.979907
 51
339.913967
  0
ARC
  8
1
 62
     7
  6
CONTINUOUS
 10
6.779600
 20
9.896300
 30
1.000000
 40
0.024792
 50
157.469021
 51
292.530979
  0
ARC
  8
1
 62
     7
  6
CONTINUOUS
 10
6.766100
 20
9.904400
 30
1.000000
 40
0.009504
 50
278.471145
 51
531.528855
  0
LINE
  8
1
 62
     7
  6
DOT
 10
6.767500
 20
9.895000
 30
1.000000
 11
6.799900
 21
9.949000
 31
1.000000
  0
LINE
  8
1
 62
     7
  6
CONTINUOUS
 10
6.799900
 20
9.949000
 30
1.000000
 11
6.810700
 21
9.959800
 31
1.000000
  0
LINE
  8
1
 62
     7
  6
CONTINUOUS
 10
6.810700
 20
9.959800
 30
1.000000
 11
6.832300
 21
9.970600
 31
1.000000
  0
LINE
  8
1
 62
     7
  6
CONTINUOUS
 10
6.832300
 20
9.970600
 30
1.000000
 11
6.929500
 21
10.003000
 31
1.000000
  0
LINE
  8
1
 62
     7
  6
CONTINUOUS
 10
6.929500
 20
10.003000
 30
1.000000
 11
6.929523
 21
10.002950
 31
1.000000
  0
ARC
  8
1
 62
     7
  6
CONTINUOUS
 10
6.826500
 20
10.227200
 30
1.000000
 40
0.246783
 50
294.674582
 51
316.395580
  0
ARC
  8
1
 62
     7
  6
CONTINUOUS
 10
6.993200
 20
10.077500
 30
1.000000
 40
0.023754
 50
300.343249
 51
509.656751
  0
ARC
  8
1
 62
     7
  6
CONTINUOUS
 10
7.156400
 20
9.943600
 30
1.000000
 40
0.234546
 50
141.542353
 51
165.329796
  0
LINE
  8
1
 62
     7
  6
CONTINUOUS
 10
6.929500
 20
10.003000
 30
1.000000
 11
6.918700
 21
9.970600
 31
1.000000
  0
LINE
  8
1
 62
     7
  6
CONTINUOUS
 10
6.918700
 20
9.970600
 30
1.000000
 11
6.907900
 21
9.927400
 31
1.000000
  0
LINE
  8
1
 62
     7
  6
CONTINUOUS
 10
6.907900
 20
9.927400
 30
1.000000
 11
6.907900
 21
9.895000
 31
1.000000
  0
ARC
  8
1
 62
     7
  6
CONTINUOUS
 10
6.937600
 20
9.903000
 30
1.000000
 40
0.030723
 50
195.075406
 51
322.272222
  0
LINE
  8
1
 62
     7
  6
CONTINUOUS
 10
6.961900
 20
9.884200
 30
1.000000
 11
6.983600
 21
9.905800
 31
1.000000
  0
LINE
  8
1
 62
     7
  6
DOT
 10
6.983600
 20
9.905800
 30
1.000000
 11
7.113200
 21
9.938200
 31
1.000000
  0
ARC
  8
1
 62
     7
  6
CONTINUOUS
 10
7.068100
 20
9.924300
 30
1.000000
 40
0.047148
 50
17.129507
 51
100.880937
  0
ARC
  8
1
 62
     7
  6
CONTINUOUS
 10
7.078100
 20
9.908500
 30
1.000000
 40
0.064912
 50
106.927513
 51
163.072487
  0
LINE
  8
1
 62
     7
  6
CONTINUOUS
 10
7.016000
 20
9.927400
 30
1.000000
 11
7.015931
 21
9.927414
 31
1.000000
  0
ARC
  8
1
 62
     7
  6
CONTINUOUS
 10
7.060900
 20
9.918300
 30
1.000000
 40
0.045884
 50
168.542904
 51
311.996494
  0
LINE
  8
1
 62
     7
  6
CONTINUOUS
 10
7.091600
 20
9.884200
 30
1.000000
 11
7.102400
 21
9.905800
 31
1.000000
  0
LINE
  8
1
 62
     7
  6
CONTINUOUS
 10
7.102400
 20
9.905800
 30
1.000000
 11
7.113200
 21
9.938200
 31
1.000000
  0
LINE
  8
1
 62
     7
  6
CONTINUOUS
 10
7.113200
 20
9.938200
 30
1.000000
 11
7.102400
 21
9.905800
 31
1.000000
  0
LINE
  8
1
 62
     7
  6
CONTINUOUS
 10
7.102400
 20
9.905800
 30
1.000000
 11
7.102485
 21
9.905778
 31
1.000000
  0
ARC
  8
1
 62
     7
  6
CONTINUOUS
 10
7.126400
 20
9.899700
 30
1.000000
 40
0.024676
 50
165.739288
 51
321.086351
  0
LINE
  8
1
 62
     7
  6
CONTINUOUS
 10
7.145600
 20
9.884200
 30
1.000000
 11
7.156400
 21
9.895000
 31
1.000000
  0
LINE
  8
1
 62
     7
  6
CONTINUOUS
 10
7.156400
 20
9.895000
 30
1.000000
 11
7.178000
 21
9.927400
 31
1.000000
  0
LINE
  8
1
 62
     7
  6
CONTINUOUS
 10
7.178000
 20
9.927400
 30
1.000000
 11
7.199600
 21
9.959800
 31
1.000000
  0
LINE
  8
1
 62
     7
  6
CONTINUOUS
 10
7.199600
 20
9.959800
 30
1.000000
 11
7.199668
 21
9.959745
 31
1.000000
  0
ARC
  8
1
 62
     7
  6
CONTINUOUS
 10
7.218900
 20
9.944300
 30
1.000000
 40
0.024666
 50
345.682069
 51
501.231746
  0
LINE
  8
1
 62
     7
  6
CONTINUOUS
 10
7.242800
 20
9.938200
 30
1.000000
 11
7.221200
 21
9.873400
 31
1.000000
  0
LINE
  8
1
 62
     7
  6
CONTINUOUS
 10
7.221200
 20
9.873400
 30
1.000000
 11
7.242800
 21
9.938200
 31
1.000000
  0
LINE
  8
1
 62
     7
  6
CONTINUOUS
 10
7.242800
 20
9.938200
 30
1.000000
 11
7.242871
 21
9.938155
 31
1.000000
  0
ARC
  8
1
 62
     7
  6
CONTINUOUS
 10
7.302300
 20
9.900400
 30
1.000000
 40
0.070407
 50
94.398705
 51
147.572445
  0
LINE
  8
1
 62
     7
  6
CONTINUOUS
 10
7.296900
 20
9.970600
 30
1.000000
 11
7.286100
 21
9.938200
 31
1.000000
  0
LINE
  8
1
 62
     7
  6
CONTINUOUS
 10
7.286100
 20
9.938200
 30
1.000000
 11
7.285960
 21
9.938195
 31
1.000000
  0
ARC
  8
1
 62
     7
  6
CONTINUOUS
 10
7.309200
 20
9.939100
 30
1.000000
 40
0.023257
 50
182.231175
 51
329.796762
  0
LINE
  8
1
 62
     7
  6
CONTINUOUS
 10
7.329300
 20
9.927400
 30
1.000000
 11
7.350900
 21
9.959800
 31
1.000000
  0
LINE
  8
1
 62
     7
  6
CONTINUOUS
 10
7.350900
 20
9.959800
 30
1.000000
 11
7.372500
 21
10.003000
 31
1.000000
  0
LINE
  8
1
 62
     7
  6
CONTINUOUS
 10
7.372500
 20
10.003000
 30
1.000000
 11
7.423300
 21
10.084700
 31
1.000000
  0
LINE
  8
1
 62
     7
  6
CONTINUOUS
 10
7.423300
 20
10.084700
 30
1.000000
 11
7.423484
 21
10.084625
 31
1.000000
  0
ARC
  8
1
 62
     7
  6
CONTINUOUS
 10
7.413000
 20
10.088900
 30
1.000000
 40
0.011323
 50
337.815987
 51
522.525226
  0
LINE
  8
1
 62
     7
  6
CONTINUOUS
 10
7.402200
 20
10.092300
 30
1.000000
 11
7.372500
 21
10.003000
 31
1.000000
  0
LINE
  8
1
 62
     7
  6
CONTINUOUS
 10
7.372500
 20
10.003000
 30
1.000000
 11
7.340100
 21
9.905800
 31
1.000000
  0
ARC
  8
1
 62
     7
  6
CONTINUOUS
 10
7.359000
 20
9.895000
 30
1.000000
 40
0.021768
 50
150.255119
 51
277.125016
  0
LINE
  8
1
 62
     7
  6
CONTINUOUS
 10
7.361700
 20
9.873400
 30
1.000000
 11
7.437300
 21
9.895000
 31
1.000000
  0
ARC
  8
1
 62
     7
  6
CONTINUOUS
 10
7.418400
 20
9.957100
 30
1.000000
 40
0.064912
 50
286.927513
 51
343.072487
  0
ARC
  8
1
 62
     7
  6
CONTINUOUS
 10
7.458900
 20
9.949000
 30
1.000000
 40
0.024150
 50
333.434949
 51
423.434949
  0
LINE
  8
1
 62
     7
  6
CONTINUOUS
 10
7.469700
 20
9.970600
 30
1.000000
 11
7.458900
 21
9.970600
 31
1.000000
  0
ARC
  8
1
 62
     7
  6
CONTINUOUS
 10
7.477800
 20
9.908500
 30
1.000000
 40
0.064912
 50
106.927513
 51
163.072487
  0
LINE
  8
1
 62
     7
  6
CONTINUOUS
 10
7.415700
 20
9.927400
 30
1.000000
 11
7.415767
 21
9.927383
 31
1.000000
  0
ARC
  8
1
 62
     7
  6
CONTINUOUS
 10
7.460900
 20
9.915700
 30
1.000000
 40
0.046620
 50
165.487543
 51
294.860977
  0
ARC
  8
1
 62
     7
  6
CONTINUOUS
 10
7.372500
 20
10.035400
 30
1.000000
 40
0.194700
 50
303.690068
 51
340.559965
  0
LINE
  8
1
 62
     7
  6
CONTINUOUS
 10
7.556100
 20
9.970600
 30
1.000000
 11
7.534500
 21
9.905800
 31
1.000000
  0
ARC
  8
1
 62
     7
  6
CONTINUOUS
 10
7.553400
 20
9.895000
 30
1.000000
 40
0.021768
 50
150.255119
 51
277.125016
  0
LINE
  8
1
 62
     7
  6
CONTINUOUS
 10
7.556100
 20
9.873400
 30
1.000000
 11
7.556106
 21
9.873316
 31
1.000000
  0
ARC
  8
1
 62
     7
  6
CONTINUOUS
 10
7.550700
 20
9.943600
 30
1.000000
 40
0.070492
 50
274.398705
 51
327.572445
  0
LINE
  8
1
 62
     7
  6
CONTINUOUS
 10
7.610200
 20
9.905800
 30
1.000000
 11
7.631800
 21
9.938200
 31
1.000000
  0
LINE
  8
1
 62
     7
  6
CONTINUOUS
 10
7.631800
 20
9.938200
 30
1.000000
 11
7.642600
 21
9.970600
 31
1.000000
  0
LINE
  8
1
 62
     7
  6
CONTINUOUS
 10
7.642600
 20
9.970600
 30
1.000000
 11
7.631800
 21
9.938200
 31
1.000000
  0
LINE
  8
1
 62
     7
  6
CONTINUOUS
 10
7.631800
 20
9.938200
 30
1.000000
 11
7.577700
 21
9.776200
 31
1.000000
  0
LINE
  8
1
 62
     7
  6
CONTINUOUS
 10
7.577700
 20
9.776200
 30
1.000000
 11
7.566900
 21
9.754500
 31
1.000000
  0
LINE
  8
1
 62
     7
  6
CONTINUOUS
 10
7.566900
 20
9.754500
 30
1.000000
 11
7.566852
 21
9.754563
 31
1.000000
  0
ARC
  8
1
 62
     7
  6
CONTINUOUS
 10
7.554300
 20
9.770800
 30
1.000000
 40
0.020523
 50
164.744881
 51
307.704243
  0
ARC
  8
1
 62
     7
  6
CONTINUOUS
 10
7.642600
 20
9.749100
 30
1.000000
 40
0.111416
 50
112.813698
 51
165.926349
  0
LINE
  8
1
 62
     7
  6
CONTINUOUS
 10
7.599400
 20
9.851800
 30
1.000000
 11
7.642600
 21
9.873400
 31
1.000000
  0
ARC
  8
1
 62
     7
  6
CONTINUOUS
 10
7.604800
 20
9.965200
 30
1.000000
 40
0.099278
 50
292.380135
 51
337.619865
  0
LINE
  8
1
 62
     7
  6
DOT
 10
7.696600
 20
9.927400
 30
1.000000
 11
6.602300
 21
9.720200
 31
1.000000
  0
LINE
  8
1
 62
     7
  6
CONTINUOUS
 10
6.602300
 20
9.720200
 30
1.000000
 11
6.591500
 21
9.698500
 31
1.000000
  0
ARC
  8
1
 62
     7
  6
CONTINUOUS
 10
6.569900
 20
9.709300
 30
1.000000
 40
0.024194
 50
153.223135
 51
333.434949
  0
ARC
  8
1
 62
     7
  6
CONTINUOUS
 10
6.628800
 20
9.689500
 30
1.000000
 40
0.086143
 50
100.501166
 51
159.124827
  0
ARC
  8
1
 62
     7
  6
CONTINUOUS
 10
6.642000
 20
9.699800
 30
1.000000
 40
0.079768
 50
6.839921
 51
111.228204
  0
LINE
  8
1
 62
     7
  6
CONTINUOUS
 10
6.721200
 20
9.709300
 30
1.000000
 11
6.721101
 21
9.709288
 31
1.000000
  0
ARC
  8
1
 62
     7
  6
CONTINUOUS
 10
6.542900
 20
9.687700
 30
1.000000
 40
0.179504
 50
313.781125
 51
366.907388
  0
ARC
  8
1
 62
     7
  6
CONTINUOUS
 10
6.628200
 20
9.612400
 30
1.000000
 40
0.066844
 50
209.287716
 51
305.617449
  0
ARC
  8
1
 62
     7
  6
CONTINUOUS
 10
6.537500
 20
9.541900
 30
1.000000
 40
0.049786
 50
49.398705
 51
102.528808
  0
ARC
  8
1
 62
     7
  6
CONTINUOUS
 10
6.537500
 20
9.568900
 30
1.000000
 40
0.024150
 50
116.565051
 51
296.565051
  0
ARC
  8
1
 62
     7
  6
CONTINUOUS
 10
6.491400
 20
9.649600
 30
1.000000
 40
0.117069
 50
299.083128
 51
341.317421
  0
ARC
  8
1
 62
     7
  6
CONTINUOUS
 10
7.290900
 20
9.427900
 30
1.000000
 40
0.712844
 50
152.902950
 51
165.024054
  0
LINE
  8
1
 62
     7
  6
CONTINUOUS
 10
6.656300
 20
9.752600
 30
1.000000
 11
6.667100
 21
9.763400
 31
1.000000
  0
LINE
  8
1
 62
     7
  6
DOT
 10
6.667100
 20
9.763400
 30
1.000000
 11
6.818400
 21
9.612100
 31
1.000000
  0
ARC
  8
1
 62
     7
  6
CONTINUOUS
 10
6.773300
 20
9.598200
 30
1.000000
 40
0.047148
 50
17.129507
 51
100.880937
  0
ARC
  8
1
 62
     7
  6
CONTINUOUS
 10
6.783300
 20
9.582400
 30
1.000000
 40
0.064912
 50
106.927513
 51
163.072487
  0
LINE
  8
1
 62
     7
  6
CONTINUOUS
 10
6.721200
 20
9.601300
 30
1.000000
 11
6.721131
 21
9.601314
 31
1.000000
  0
ARC
  8
1
 62
     7
  6
CONTINUOUS
 10
6.766100
 20
9.592200
 30
1.000000
 40
0.045884
 50
168.542904
 51
311.996494
  0
LINE
  8
1
 62
     7
  6
CONTINUOUS
 10
6.796800
 20
9.558100
 30
1.000000
 11
6.807600
 21
9.579700
 31
1.000000
  0
LINE
  8
1
 62
     7
  6
CONTINUOUS
 10
6.807600
 20
9.579700
 30
1.000000
 11
6.818400
 21
9.612100
 31
1.000000
  0
LINE
  8
1
 62
     7
  6
CONTINUOUS
 10
6.818400
 20
9.612100
 30
1.000000
 11
6.807600
 21
9.579700
 31
1.000000
  0
LINE
  8
1
 62
     7
  6
CONTINUOUS
 10
6.807600
 20
9.579700
 30
1.000000
 11
6.807685
 21
9.579678
 31
1.000000
  0
ARC
  8
1
 62
     7
  6
CONTINUOUS
 10
6.831600
 20
9.573600
 30
1.000000
 40
0.024676
 50
165.739288
 51
321.086351
  0
LINE
  8
1
 62
     7
  6
CONTINUOUS
 10
6.850800
 20
9.558100
 30
1.000000
 11
6.861600
 21
9.568900
 31
1.000000
  0
LINE
  8
1
 62
     7
  6
CONTINUOUS
 10
6.861600
 20
9.568900
 30
1.000000
 11
6.890400
 21
9.612100
 31
1.000000
  0
LINE
  8
1
 62
     7
  6
CONTINUOUS
 10
6.890400
 20
9.612100
 30
1.000000
 11
6.904300
 21
9.642700
 31
1.000000
  0
LINE
  8
1
 62
     7
  6
CONTINUOUS
 10
6.904300
 20
9.642700
 30
1.000000
 11
6.890400
 21
9.612100
 31
1.000000
  0
LINE
  8
1
 62
     7
  6
CONTINUOUS
 10
6.890400
 20
9.612100
 30
1.000000
 11
6.883200
 21
9.590500
 31
1.000000
  0
ARC
  8
1
 62
     7
  6
CONTINUOUS
 10
6.920300
 20
9.584600
 30
1.000000
 40
0.037595
 50
170.963940
 51
262.818274
  0
ARC
  8
1
 62
     7
  6
CONTINUOUS
 10
6.906600
 20
9.623500
 30
1.000000
 40
0.076730
 50
276.736011
 51
375.883854
  0
LINE
  8
1
 62
     7
  6
CONTINUOUS
 10
6.980400
 20
9.644500
 30
1.000000
 11
6.991200
 21
9.601300
 31
1.000000
  0
ARC
  8
1
 62
     7
  6
CONTINUOUS
 10
7.007400
 20
9.606700
 30
1.000000
 40
0.017076
 50
198.434949
 51
288.434949
  0
LINE
  8
1
 62
     7
  6
CONTINUOUS
 10
7.012800
 20
9.590500
 30
1.000000
 11
7.012836
 21
9.590424
 31
1.000000
  0
ARC
  8
1
 62
     7
  6
CONTINUOUS
 10
6.978800
 20
9.662000
 30
1.000000
 40
0.079256
 50
295.432231
 51
347.243798
  0
LINE
  8
1
 62
     7
  6
CONTINUOUS
 10
7.056100
 20
9.644500
 30
1.000000
 11
7.034500
 21
9.579700
 31
1.000000
  0
ARC
  8
1
 62
     7
  6
CONTINUOUS
 10
7.053400
 20
9.568900
 30
1.000000
 40
0.021768
 50
150.255119
 51
277.125016
  0
ARC
  8
1
 62
     7
  6
CONTINUOUS
 10
7.014200
 20
9.643200
 30
1.000000
 40
0.104654
 50
293.601164
 51
336.398836
  0
ARC
  8
1
 62
     7
  6
CONTINUOUS
 10
7.172200
 20
9.582400
 30
1.000000
 40
0.064912
 50
106.927513
 51
163.072487
  0
ARC
  8
1
 62
     7
  6
CONTINUOUS
 10
7.162200
 20
9.598200
 30
1.000000
 40
0.047193
 50
17.129507
 51
100.880937
  0
ARC
  8
1
 62
     7
  6
CONTINUOUS
 10
7.162200
 20
9.598200
 30
1.000000
 40
0.047148
 50
17.129507
 51
100.880937
  0
ARC
  8
1
 62
     7
  6
CONTINUOUS
 10
7.172200
 20
9.582400
 30
1.000000
 40
0.064912
 50
106.927513
 51
163.072487
  0
LINE
  8
1
 62
     7
  6
CONTINUOUS
 10
7.110100
 20
9.601300
 30
1.000000
 11
7.110031
 21
9.601314
 31
1.000000
  0
ARC
  8
1
 62
     7
  6
CONTINUOUS
 10
7.155000
 20
9.592200
 30
1.000000
 40
0.045884
 50
168.542904
 51
311.996494
  0
LINE
  8
1
 62
     7
  6
CONTINUOUS
 10
7.185700
 20
9.558100
 30
1.000000
 11
7.196500
 21
9.579700
 31
1.000000
  0
LINE
  8
1
 62
     7
  6
CONTINUOUS
 10
7.196500
 20
9.579700
 30
1.000000
 11
7.281300
 21
9.758700
 31
1.000000
  0
ARC
  8
1
 62
     7
  6
CONTINUOUS
 10
7.269300
 20
9.760200
 30
1.000000
 40
0.012077
 50
352.874984
 51
514.495861
  0
LINE
  8
1
 62
     7
  6
CONTINUOUS
 10
7.258400
 20
9.765400
 30
1.000000
 11
7.207300
 21
9.612100
 31
1.000000
  0
LINE
  8
1
 62
     7
  6
CONTINUOUS
 10
7.207300
 20
9.612100
 30
1.000000
 11
7.196500
 21
9.579700
 31
1.000000
  0
LINE
  8
1
 62
     7
  6
CONTINUOUS
 10
7.196500
 20
9.579700
 30
1.000000
 11
7.196585
 21
9.579678
 31
1.000000
  0
ARC
  8
1
 62
     7
  6
CONTINUOUS
 10
7.220500
 20
9.573600
 30
1.000000
 40
0.024676
 50
165.739288
 51
321.086351
  0
LINE
  8
1
 62
     7
  6
CONTINUOUS
 10
7.239700
 20
9.558100
 30
1.000000
 11
7.250500
 21
9.568900
 31
1.000000
  0
LINE
  8
1
 62
     7
  6
CONTINUOUS
 10
7.250500
 20
9.568900
 30
1.000000
 11
7.272100
 21
9.601300
 31
1.000000
  0
LINE
  8
1
 62
     7
  6
CONTINUOUS
 10
7.272100
 20
9.601300
 30
1.000000
 11
7.293700
 21
9.633700
 31
1.000000
  0
LINE
  8
1
 62
     7
  6
CONTINUOUS
 10
7.293700
 20
9.633700
 30
1.000000
 11
7.304500
 21
9.655300
 31
1.000000
  0
LINE
  8
1
 62
     7
  6
CONTINUOUS
 10
7.304500
 20
9.655300
 30
1.000000
 11
7.304500
 21
9.633700
 31
1.000000
  0
LINE
  8
1
 62
     7
  6
CONTINUOUS
 10
7.304500
 20
9.633700
 30
1.000000
 11
7.326200
 21
9.612100
 31
1.000000
  0
LINE
  8
1
 62
     7
  6
CONTINUOUS
 10
7.326200
 20
9.612100
 30
1.000000
 11
7.326146
 21
9.612050
 31
1.000000
  0
ARC
  8
1
 62
     7
  6
CONTINUOUS
 10
7.295500
 20
9.583900
 30
1.000000
 40
0.041612
 50
298.412661
 51
402.569550
  0
LINE
  8
1
 62
     7
  6
CONTINUOUS
 10
7.315300
 20
9.547300
 30
1.000000
 11
7.293700
 21
9.547300
 31
1.000000
  0
LINE
  8
1
 62
     7
  6
CONTINUOUS
 10
7.293700
 20
9.547300
 30
1.000000
 11
7.272100
 21
9.558100
 31
1.000000
  0
LINE
  8
1
 62
     7
  6
CONTINUOUS
 10
7.272100
 20
9.558100
 30
1.000000
 11
7.293700
 21
9.547300
 31
1.000000
  0
LINE
  8
1
 62
     7
  6
CONTINUOUS
 10
7.293700
 20
9.547300
 30
1.000000
 11
7.315300
 21
9.547300
 31
1.000000
  0
ARC
  8
1
 62
     7
  6
CONTINUOUS
 10
7.331600
 20
9.617500
 30
1.000000
 40
0.072045
 50
256.927916
 51
347.005383
  0
ARC
  8
1
 62
     7
  6
CONTINUOUS
 10
7.463900
 20
9.582400
 30
1.000000
 40
0.064912
 50
106.927513
 51
163.072487
  0
LINE
  8
1
 62
     7
  6
CONTINUOUS
 10
7.445000
 20
9.644500
 30
1.000000
 11
7.444988
 21
9.644563
 31
1.000000
  0
ARC
  8
1
 62
     7
  6
CONTINUOUS
 10
7.453900
 20
9.598200
 30
1.000000
 40
0.047212
 50
73.637854
 51
100.880937
  0
LINE
  8
1
 62
     7
  6
CONTINUOUS
 10
7.467200
 20
9.643500
 30
1.000000
 11
7.467182
 21
9.643438
 31
1.000000
  0
ARC
  8
1
 62
     7
  6
CONTINUOUS
 10
7.453900
 20
9.598200
 30
1.000000
 40
0.047148
 50
73.637854
 51
100.880937
  0
ARC
  8
1
 62
     7
  6
CONTINUOUS
 10
7.463900
 20
9.582400
 30
1.000000
 40
0.064912
 50
106.927513
 51
163.072487
  0
LINE
  8
1
 62
     7
  6
CONTINUOUS
 10
7.401800
 20
9.601300
 30
1.000000
 11
7.401731
 21
9.601314
 31
1.000000
  0
ARC
  8
1
 62
     7
  6
CONTINUOUS
 10
7.446700
 20
9.592200
 30
1.000000
 40
0.045884
 50
168.542904
 51
311.996494
  0
ARC
  8
1
 62
     7
  6
CONTINUOUS
 10
7.436100
 20
9.605900
 30
1.000000
 40
0.063205
 50
310.827565
 51
365.629412
  0
ARC
  8
1
 62
     7
  6
CONTINUOUS
 10
7.453900
 20
9.598200
 30
1.000000
 40
0.047212
 50
17.129507
 51
73.637854
  0
ARC
  8
1
 62
     7
  6
CONTINUOUS
 10
7.486400
 20
9.618800
 30
1.000000
 40
0.031325
 50
127.858921
 51
192.350255
  0
ARC
  8
1
 62
     7
  6
CONTINUOUS
 10
7.500900
 20
9.626000
 30
1.000000
 40
0.047148
 50
197.129507
 51
280.880937
  0
ARC
  8
1
 62
     7
  6
CONTINUOUS
 10
7.474700
 20
9.668800
 30
1.000000
 40
0.095764
 50
291.501434
 51
338.498566
  0
LINE
  8
1
 62
     7
  6
CONTINUOUS
 10
7.563800
 20
9.633700
 30
1.000000
 11
7.563868
 21
9.633645
 31
1.000000
  0
ARC
  8
1
 62
     7
  6
CONTINUOUS
 10
7.583100
 20
9.618200
 30
1.000000
 40
0.024666
 50
345.682069
 51
501.231746
  0
LINE
  8
1
 62
     7
  6
CONTINUOUS
 10
7.607000
 20
9.612100
 30
1.000000
 11
7.585400
 21
9.547300
 31
1.000000
  0
LINE
  8
1
 62
     7
  6
CONTINUOUS
 10
7.585400
 20
9.547300
 30
1.000000
 11
7.607000
 21
9.612100
 31
1.000000
  0
LINE
  8
1
 62
     7
  6
CONTINUOUS
 10
7.607000
 20
9.612100
 30
1.000000
 11
7.607071
 21
9.612055
 31
1.000000
  0
ARC
  8
1
 62
     7
  6
CONTINUOUS
 10
7.666500
 20
9.574300
 30
1.000000
 40
0.070407
 50
94.398705
 51
147.572445
  0
ARC
  8
1
 62
     7
  6
CONTINUOUS
 10
7.650300
 20
9.622900
 30
1.000000
 40
0.024150
 50
333.434949
 51
423.434949
  0
LINE
  8
1
 62
     7
  6
CONTINUOUS
 10
7.671900
 20
9.612100
 30
1.000000
 11
7.661100
 21
9.579700
 31
1.000000
  0
LINE
  8
1
 62
     7
  6
CONTINUOUS
 10
7.661100
 20
9.579700
 30
1.000000
 11
7.661015
 21
9.579722
 31
1.000000
  0
ARC
  8
1
 62
     7
  6
CONTINUOUS
 10
7.685000
 20
9.573600
 30
1.000000
 40
0.024754
 50
165.682069
 51
321.231746
  0
LINE
  8
1
 62
     7
  6
CONTINUOUS
 10
7.704300
 20
9.558100
 30
1.000000
 11
7.715100
 21
9.568900
 31
1.000000
  0
LINE
  8
1
 62
     7
  6
CONTINUOUS
 10
7.715100
 20
9.568900
 30
1.000000
 11
7.736700
 21
9.601300
 31
1.000000
  0
LINE
  8
1
 62
     7
  6
DOT
 10
7.736700
 20
9.601300
 30
1.000000
 11
7.077700
 21
9.687700
 31
1.000000
  0
LINE
  8
1
 62
     7
  6
CONTINUOUS
 10
7.077700
 20
9.687700
 30
1.000000
 11
7.088500
 21
9.698500
 31
1.000000
  0
LINE
  8
1
 62
     7
  6
CONTINUOUS
 10
7.088500
 20
9.698500
 30
1.000000
 11
7.077700
 21
9.709300
 31
1.000000
  0
LINE
  8
1
 62
     7
  6
CONTINUOUS
 10
7.077700
 20
9.709300
 30
1.000000
 11
7.066900
 21
9.698500
 31
1.000000
  0
LINE
  8
1
 62
     7
  6
CONTINUOUS
 10
7.066900
 20
9.698500
 30
1.000000
 11
7.077700
 21
9.687700
 31
1.000000
  0
LINE
  8
1
 62
     7
  6
DOT
 10
7.077700
 20
9.687700
 30
1.000000
 11
7.221300
 21
10.845300
 31
1.000000
  0
LINE
  8
1
 62
     7
  6
CONTINUOUS
 10
7.221300
 20
10.845300
 30
1.000000
 11
7.256600
 21
10.879800
 31
1.000000
  0
LINE
  8
1
 62
     7
  6
CONTINUOUS
 10
7.256600
 20
10.879800
 30
1.000000
 11
7.327300
 21
10.879800
 31
1.000000
  0
LINE
  8
1
 62
     7
  6
CONTINUOUS
 10
7.327300
 20
10.879800
 30
1.000000
 11
7.369800
 21
10.957500
 31
1.000000
  0
LINE
  8
1
 62
     7
  6
DOT
 10
7.369800
 20
10.957500
 30
1.000000
 11
7.203000
 21
10.889500
 31
1.000000
  0
LINE
  8
1
 62
     7
  6
CONTINUOUS
 10
7.203000
 20
10.889500
 30
1.000000
 11
7.239000
 21
10.932800
 31
1.000000
  0
LINE
  8
1
 62
     7
  6
CONTINUOUS
 10
7.239000
 20
10.932800
 30
1.000000
 11
7.369800
 21
10.957500
 31
1.000000
  0
LINE
  8
1
 62
     7
  6
DOT
 10
7.369800
 20
10.957500
 30
1.000000
 11
7.231600
 21
10.593900
 31
1.000000
  0
LINE
  8
1
 62
     7
  6
CONTINUOUS
 10
7.231600
 20
10.593900
 30
1.000000
 11
7.611700
 21
10.799000
 31
1.000000
  0
LINE
  8
1
 62
     7
  6
CONTINUOUS
 10
7.611700
 20
10.799000
 30
1.000000
 11
7.720200
 21
10.614300
 31
1.000000
  0
LINE
  8
1
 62
     7
  6
CONTINUOUS
 10
7.720200
 20
10.614300
 30
1.000000
 11
7.901200
 21
10.306300
 31
1.000000
  0
LINE
  8
1
 62
     7
  6
CONTINUOUS
 10
7.901200
 20
10.306300
 30
1.000000
 11
7.779400
 21
10.248000
 31
1.000000
  0
LINE
  8
1
 62
     7
  6
DOT
 10
7.779400
 20
10.248000
 30
1.000000
 11
7.182700
 21
11.187700
 31
1.000000
  0
LINE
  8
1
 62
     7
  6
DOT
 10
7.182700
 20
11.187700
 30
1.000000
 11
7.182664
 21
11.187794
 31
1.000000
  0
ARC
  8
1
 62
     7
  6
CONTINUOUS
 10
7.214100
 20
11.105100
 30
1.000000
 40
0.088467
 50
23.870427
 51
110.814064
  0
ARC
  8
1
 62
     7
  6
CONTINUOUS
 10
7.010200
 20
11.009100
 30
1.000000
 40
0.313864
 50
348.718708
 51
384.833798
  0
LINE
  8
1
 62
     7
  6
DOT
 10
7.318000
 20
10.947700
 30
1.000000
 11
10.030900
 21
6.487100
 31
1.000000
  0
LINE
  8
1
 62
     7
  6
CONTINUOUS
 10
10.030900
 20
6.487100
 30
1.000000
 11
9.372900
 21
6.488100
 31
1.000000
  0
LINE
  8
1
 62
     7
  6
DOT
 10
9.372900
 20
6.488100
 30
1.000000
 11
5.641300
 21
7.087900
 31
1.000000
  0
LINE
  8
1
 62
     7
  6
CONTINUOUS
 10
5.641300
 20
7.087900
 30
1.000000
 11
5.641600
 21
7.287900
 31
1.000000
  0
LINE
  8
1
 62
     7
  6
CONTINUOUS
 10
5.641600
 20
7.287900
 30
1.000000
 11
5.160900
 21
7.288600
 31
1.000000
  0
LINE
  8
1
 62
     7
  6
CONTINUOUS
 10
5.160900
 20
7.288600
 30
1.000000
 11
5.160899
 21
7.288688
 31
1.000000
  0
ARC
  8
1
 62
     7
  6
CONTINUOUS
 10
5.151300
 20
7.947400
 30
1.000000
 40
0.658782
 50
242.832062
 51
270.834852
  0
LINE
  8
1
 62
     7
  6
CONTINUOUS
 10
4.850500
 20
7.361300
 30
1.000000
 11
4.153100
 21
7.360500
 31
1.000000
  0
ARC
  8
1
 62
     7
  6
CONTINUOUS
 10
2.910500
 20
7.728300
 30
1.000000
 40
1.295902
 50
288.836218
 51
343.511653
  0
LINE
  8
1
 62
     7
  6
CONTINUOUS
 10
3.328900
 20
6.501800
 30
1.000000
 11
9.281800
 21
6.493200
 31
1.000000
  0
ARC
  8
1
 62
     7
  6
CONTINUOUS
 10
9.703700
 20
7.718500
 30
1.000000
 40
1.295914
 50
216.256215
 51
251.000193
  0
LINE
  8
1
 62
     7
  6
CONTINUOUS
 10
8.658700
 20
6.952100
 30
1.000000
 11
8.061900
 21
6.952100
 31
1.000000
  0
LINE
  8
1
 62
     7
  6
CONTINUOUS
 10
8.061900
 20
6.952100
 30
1.000000
 11
8.061900
 21
7.718500
 31
1.000000
  0
ARC
  8
1
 62
     7
  6
CONTINUOUS
 10
9.703700
 20
7.718500
 30
1.000000
 40
1.641766
 50
147.173350
 51
180.000000
  0
ARC
  8
1
 62
     7
  6
CONTINUOUS
 10
8.774200
 20
8.666200
 30
1.000000
 40
0.453750
 50
149.733565
 51
187.305117
  0
ARC
  8
1
 62
     7
  6
CONTINUOUS
 10
7.829900
 20
9.233600
 30
1.000000
 40
0.647968
 50
328.485762
 51
369.702180
  0
LINE
  8
1
 62
     7
  6
CONTINUOUS
 10
8.468600
 20
9.342800
 30
1.000000
 11
8.292800
 21
9.253500
 31
1.000000
  0
LINE
  8
1
 62
     7
  6
CONTINUOUS
 10
8.292800
 20
9.253500
 30
1.000000
 11
8.292000
 21
9.260700
 31
1.000000
  0
ARC
  8
1
 62
     7
  6
CONTINUOUS
 10
8.580500
 20
9.291100
 30
1.000000
 40
0.290064
 50
115.549118
 51
186.015209
  0
LINE
  8
1
 62
     7
  6
CONTINUOUS
 10
8.455400
 20
9.552800
 30
1.000000
 11
8.384600
 21
9.679400
 31
1.000000
  0
LINE
  8
1
 62
     7
  6
CONTINUOUS
 10
8.384600
 20
9.679400
 30
1.000000
 11
8.279000
 21
9.574000
 31
1.000000
  0
ARC
  8
1
 62
     7
  6
CONTINUOUS
 10
9.030900
 20
9.010200
 30
1.000000
 40
0.939820
 50
143.136199
 51
163.755646
  0
LINE
  8
1
 62
     7
  6
CONTINUOUS
 10
8.128600
 20
9.273100
 30
1.000000
 11
7.518100
 21
7.669300
 31
1.000000
  0
LINE
  8
1
 62
     7
  6
CONTINUOUS
 10
7.518100
 20
7.669300
 30
1.000000
 11
7.630200
 21
7.682200
 31
1.000000
  0
LINE
  8
1
 62
     7
  6
CONTINUOUS
 10
7.630200
 20
7.682200
 30
1.000000
 11
7.631100
 21
7.681900
 31
1.000000
  0
LINE
  8
1
 62
     7
  6
CONTINUOUS
 10
7.631100
 20
7.681900
 30
1.000000
 11
7.631077
 21
7.681818
 31
1.000000
  0
ARC
  8
1
 62
     7
  6
CONTINUOUS
 10
7.617800
 20
7.635700
 30
1.000000
 40
0.047991
 50
299.182160
 51
433.940013
  0
LINE
  8
1
 62
     7
  6
CONTINUOUS
 10
7.641200
 20
7.593800
 30
1.000000
 11
7.640300
 21
7.593300
 31
1.000000
  0
LINE
  8
1
 62
     7
  6
CONTINUOUS
 10
7.640300
 20
7.593300
 30
1.000000
 11
7.482300
 21
7.575200
 31
1.000000
  0
LINE
  8
1
 62
     7
  6
CONTINUOUS
 10
7.482300
 20
7.575200
 30
1.000000
 11
7.466600
 21
7.534000
 31
1.000000
  0
LINE
  8
1
 62
     7
  6
CONTINUOUS
 10
7.466600
 20
7.534000
 30
1.000000
 11
7.466538
 21
7.534031
 31
1.000000
  0
ARC
  8
1
 62
     7
  6
CONTINUOUS
 10
7.063700
 20
7.735600
 30
1.000000
 40
0.450453
 50
272.570218
 51
333.417886
  0
LINE
  8
1
 62
     7
  6
CONTINUOUS
 10
7.083900
 20
7.285600
 30
1.000000
 11
6.122400
 21
7.287100
 31
1.000000
  0
LINE
  8
1
 62
     7
  6
CONTINUOUS
 10
6.122400
 20
7.287100
 30
1.000000
 11
5.641600
 21
7.287900
 31
1.000000
  0
LINE
  8
1
 62
     7
  6
DOT
 10
5.641600
 20
7.287900
 30
1.000000
 11
3.237700
 21
6.496900
 31
1.000000
  0
LINE
  8
1
 62
     7
  6
CONTINUOUS
 10
3.237700
 20
6.496900
 30
1.000000
 11
2.579800
 21
6.497800
 31
1.000000
  0
LINE
  8
1
 62
     7
  6
DOT
 10
2.579800
 20
6.497800
 30
1.000000
 11
0.875000
 21
4.000300
 31
1.000000
  0
LINE
  8
1
 62
     7
  6
CONTINUOUS
 10
0.875000
 20
4.000300
 30
1.000000
 11
1.075000
 21
4.000000
 31
1.000000
  0
LINE
  8
1
 62
     7
  6
CONTINUOUS
 10
1.075000
 20
4.000000
 30
1.000000
 11
1.078600
 21
6.505000
 31
1.000000
  0
LINE
  8
1
 62
     7
  6
CONTINUOUS
 10
1.078600
 20
6.505000
 30
1.000000
 11
2.488600
 21
6.503000
 31
1.000000
  0
ARC
  8
1
 62
     7
  6
CONTINUOUS
 10
2.910500
 20
7.728300
 30
1.000000
 40
1.295922
 50
201.578096
 51
251.000193
  0
LINE
  8
1
 62
     7
  6
CONTINUOUS
 10
1.705400
 20
7.251700
 30
1.000000
 11
1.302600
 21
7.251300
 31
1.000000
  0
LINE
  8
1
 62
     7
  6
CONTINUOUS
 10
1.302600
 20
7.251300
 30
1.000000
 11
0.726900
 21
7.304000
 31
1.000000
  0
LINE
  8
1
 62
     7
  6
CONTINUOUS
 10
0.726900
 20
7.304000
 30
1.000000
 11
0.726600
 21
7.593800
 31
1.000000
  0
LINE
  8
1
 62
     7
  6
CONTINUOUS
 10
0.726600
 20
7.593800
 30
1.000000
 11
1.302600
 21
7.647900
 31
1.000000
  0
LINE
  8
1
 62
     7
  6
CONTINUOUS
 10
1.302600
 20
7.647900
 30
1.000000
 11
1.617100
 21
7.647400
 31
1.000000
  0
ARC
  8
1
 62
     7
  6
CONTINUOUS
 10
2.910500
 20
7.728300
 30
1.000000
 40
1.295913
 50
179.739144
 51
183.579092
  0
LINE
  8
1
 62
     7
  6
CONTINUOUS
 10
1.614600
 20
7.734200
 30
1.000000
 11
0.994000
 21
7.734700
 31
1.000000
  0
LINE
  8
1
 62
     7
  6
CONTINUOUS
 10
0.994000
 20
7.734700
 30
1.000000
 11
0.994000
 21
7.734776
 31
1.000000
  0
ARC
  8
1
 62
     7
  6
CONTINUOUS
 10
0.994100
 20
7.845600
 30
1.000000
 40
0.110824
 50
151.723755
 51
269.948336
  0
LINE
  8
1
 62
     7
  6
CONTINUOUS
 10
0.896500
 20
7.898100
 30
1.000000
 11
0.926600
 21
7.954200
 31
1.000000
  0
LINE
  8
1
 62
     7
  6
CONTINUOUS
 10
0.926600
 20
7.954200
 30
1.000000
 11
0.776200
 21
7.954200
 31
1.000000
  0
ARC
  8
1
 62
     7
  6
CONTINUOUS
 10
0.782800
 20
7.995900
 30
1.000000
 40
0.042251
 50
99.261676
 51
261.006208
  0
LINE
  8
1
 62
     7
  6
CONTINUOUS
 10
0.776000
 20
8.037600
 30
1.000000
 11
1.003000
 21
8.096100
 31
1.000000
  0
LINE
  8
1
 62
     7
  6
CONTINUOUS
 10
1.003000
 20
8.096100
 30
1.000000
 11
1.163000
 21
8.393600
 31
1.000000
  0
LINE
  8
1
 62
     7
  6
CONTINUOUS
 10
1.163000
 20
8.393600
 30
1.000000
 11
1.013000
 21
8.393600
 31
1.000000
  0
ARC
  8
1
 62
     7
  6
CONTINUOUS
 10
1.019600
 20
8.435300
 30
1.000000
 40
0.042267
 50
99.395466
 51
261.006208
  0
LINE
  8
1
 62
     7
  6
CONTINUOUS
 10
1.012700
 20
8.477000
 30
1.000000
 11
1.239300
 21
8.535400
 31
1.000000
  0
LINE
  8
1
 62
     7
  6
CONTINUOUS
 10
1.239300
 20
8.535400
 30
1.000000
 11
1.264700
 21
8.582600
 31
1.000000
  0
LINE
  8
1
 62
     7
  6
CONTINUOUS
 10
1.264700
 20
8.582600
 30
1.000000
 11
1.214700
 21
8.582600
 31
1.000000
  0
LINE
  8
1
 62
     7
  6
CONTINUOUS
 10
1.214700
 20
8.582600
 30
1.000000
 11
1.213200
 21
8.584700
 31
1.000000
  0
ARC
  8
1
 62
     7
  6
CONTINUOUS
 10
1.369900
 20
8.697100
 30
1.000000
 40
0.192800
 50
141.697561
 51
215.651654
  0
LINE
  8
1
 62
     7
  6
CONTINUOUS
 10
1.218600
 20
8.816600
 30
1.000000
 11
1.220100
 21
8.818500
 31
1.000000
  0
LINE
  8
1
 62
     7
  6
CONTINUOUS
 10
1.220100
 20
8.818500
 30
1.000000
 11
1.314900
 21
8.818500
 31
1.000000
  0
LINE
  8
1
 62
     7
  6
CONTINUOUS
 10
1.314900
 20
8.818500
 30
1.000000
 11
1.352700
 21
8.746300
 31
1.000000
  0
LINE
  8
1
 62
     7
  6
CONTINUOUS
 10
1.352700
 20
8.746300
 30
1.000000
 11
1.470300
 21
8.964800
 31
1.000000
  0
LINE
  8
1
 62
     7
  6
CONTINUOUS
 10
1.470300
 20
8.964800
 30
1.000000
 11
1.549400
 21
9.085400
 31
1.000000
  0
LINE
  8
1
 62
     7
  6
CONTINUOUS
 10
1.549400
 20
9.085400
 30
1.000000
 11
1.550900
 21
9.086000
 31
1.000000
  0
LINE
  8
1
 62
     7
  6
CONTINUOUS
 10
1.550900
 20
9.086000
 30
1.000000
 11
1.550935
 21
9.085910
 31
1.000000
  0
ARC
  8
1
 62
     7
  6
CONTINUOUS
 10
3.585300
 20
3.810500
 30
1.000000
 40
5.654077
 50
105.924377
 51
111.088220
  0
LINE
  8
1
 62
     7
  6
CONTINUOUS
 10
2.034000
 20
9.247600
 30
1.000000
 11
1.817300
 21
9.247800
 31
1.000000
  0
LINE
  8
1
 62
     7
  6
CONTINUOUS
 10
1.817300
 20
9.247800
 30
1.000000
 11
1.817306
 21
9.247719
 31
1.000000
  0
ARC
  8
1
 62
     7
  6
CONTINUOUS
 10
1.802800
 20
9.461700
 30
1.000000
 40
0.214472
 50
107.978755
 51
273.878073
  0
LINE
  8
1
 62
     7
  6
CONTINUOUS
 10
1.736600
 20
9.665700
 30
1.000000
 11
0.707800
 21
9.665800
 31
1.000000
  0
LINE
  8
1
 62
     7
  6
CONTINUOUS
 10
0.707800
 20
9.665800
 30
1.000000
 11
0.494300
 21
10.661400
 31
1.000000
  0
LINE
  8
1
 62
     7
  6
CONTINUOUS
 10
0.494300
 20
10.661400
 30
1.000000
 11
0.637900
 21
10.876700
 31
1.000000
  0
LINE
  8
1
 62
     7
  6
CONTINUOUS
 10
0.637900
 20
10.876700
 30
1.000000
 11
0.639500
 21
10.877200
 31
1.000000
  0
LINE
  8
1
 62
     7
  6
CONTINUOUS
 10
0.639500
 20
10.877200
 30
1.000000
 11
0.639474
 21
10.877276
 31
1.000000
  0
ARC
  8
1
 62
     7
  6
CONTINUOUS
 10
2.140900
 20
6.396400
 30
1.000000
 40
4.725731
 50
85.459580
 51
108.524666
  0
LINE
  8
1
 62
     7
  6
CONTINUOUS
 10
2.515000
 20
11.107300
 30
1.000000
 11
2.526100
 21
11.110400
 31
1.000000
  0
LINE
  8
1
 62
     7
  6
CONTINUOUS
 10
2.526100
 20
11.110400
 30
1.000000
 11
2.526144
 21
11.110449
 31
1.000000
  0
ARC
  8
1
 62
     7
  6
CONTINUOUS
 10
2.330200
 20
10.893400
 30
1.000000
 40
0.292411
 50
47.925382
 51
74.813622
  0
ARC
  8
1
 62
     7
  6
CONTINUOUS
 10
2.415900
 20
11.209300
 30
1.000000
 40
0.034943
 50
142.441405
 51
254.888840
  0
LINE
  8
1
 62
     7
  6
CONTINUOUS
 10
2.388200
 20
11.230600
 30
1.000000
 11
2.607800
 21
11.517200
 31
1.000000
  0
LINE
  8
1
 62
     7
  6
CONTINUOUS
 10
2.607800
 20
11.517200
 30
1.000000
 11
2.607861
 21
11.517169
 31
1.000000
  0
ARC
  8
1
 62
     7
  6
CONTINUOUS
 10
2.678700
 20
11.481300
 30
1.000000
 40
0.079402
 50
66.469786
 51
153.144764
  0
LINE
  8
1
 62
     7
  6
CONTINUOUS
 10
2.710400
 20
11.554100
 30
1.000000
 11
2.710392
 21
11.554030
 31
1.000000
  0
ARC
  8
1
 62
     7
  6
CONTINUOUS
 10
2.625200
 20
10.762800
 30
1.000000
 40
0.795803
 50
32.723546
 51
83.854586
  0
LINE
  8
1
 62
     7
  6
CONTINUOUS
 10
3.294700
 20
11.193000
 30
1.000000
 11
3.632600
 21
11.055200
 31
1.000000
  0
ARC
  8
1
 62
     7
  6
CONTINUOUS
 10
3.602400
 20
10.943100
 30
1.000000
 40
0.116116
 50
284.921882
 51
434.922347
  0
LINE
  8
1
 62
     7
  6
CONTINUOUS
 10
3.632300
 20
10.830900
 30
1.000000
 11
3.631700
 21
10.830700
 31
1.000000
  0
LINE
  8
1
 62
     7
  6
CONTINUOUS
 10
3.631700
 20
10.830700
 30
1.000000
 11
3.295200
 21
10.830700
 31
1.000000
  0
LINE
  8
1
 62
     7
  6
CONTINUOUS
 10
3.295200
 20
10.830700
 30
1.000000
 11
3.295281
 21
10.830755
 31
1.000000
  0
ARC
  8
1
 62
     7
  6
CONTINUOUS
 10
3.180200
 20
10.752200
 30
1.000000
 40
0.139336
 50
304.739365
 51
394.317785
  0
LINE
  8
1
 62
     7
  6
CONTINUOUS
 10
3.259600
 20
10.637700
 30
1.000000
 11
3.258300
 21
10.636800
 31
1.000000
  0
LINE
  8
1
 62
     7
  6
CONTINUOUS
 10
3.258300
 20
10.636800
 30
1.000000
 11
3.203500
 21
10.636800
 31
1.000000
  0
LINE
  8
1
 62
     7
  6
CONTINUOUS
 10
3.203500
 20
10.636800
 30
1.000000
 11
3.210000
 21
10.584400
 31
1.000000
  0
LINE
  8
1
 62
     7
  6
CONTINUOUS
 10
3.210000
 20
10.584400
 30
1.000000
 11
3.589200
 21
10.584400
 31
1.000000
  0
ARC
  8
1
 62
     7
  6
CONTINUOUS
 10
3.589200
 20
10.473500
 30
1.000000
 40
0.110891
 50
13.560043
 51
90.000000
  0
LINE
  8
1
 62
     7
  6
CONTINUOUS
 10
3.697000
 20
10.499500
 30
1.000000
 11
3.750700
 21
10.276900
 31
1.000000
  0
LINE
  8
1
 62
     7
  6
CONTINUOUS
 10
3.750700
 20
10.276900
 30
1.000000
 11
3.750639
 21
10.276979
 31
1.000000
  0
ARC
  8
1
 62
     7
  6
CONTINUOUS
 10
4.229100
 20
9.654800
 30
1.000000
 40
0.784876
 50
87.451468
 51
127.560579
  0
LINE
  8
1
 62
     7
  6
CONTINUOUS
 10
4.264000
 20
10.438900
 30
1.000000
 11
4.264028
 21
10.438845
 31
1.000000
  0
ARC
  8
1
 62
     7
  6
CONTINUOUS
 10
4.315700
 20
10.338400
 30
1.000000
 40
0.112957
 50
47.439698
 51
117.222552
  0
ARC
  8
1
 62
     7
  6
CONTINUOUS
 10
5.262500
 20
11.226300
 30
1.000000
 40
1.185394
 50
222.753923
 51
284.410207
  0
LINE
  8
1
 62
     7
  6
CONTINUOUS
 10
5.557500
 20
10.078200
 30
1.000000
 11
6.232400
 21
10.272600
 31
1.000000
  0
ARC
  8
1
 62
     7
  6
CONTINUOUS
 10
6.263000
 20
10.166000
 30
1.000000
 40
0.110913
 50
26.102998
 51
106.016359
  0
LINE
  8
1
 62
     7
  6
CONTINUOUS
 10
6.362600
 20
10.214800
 30
1.000000
 11
6.388500
 21
10.161800
 31
1.000000
  0
LINE
  8
1
 62
     7
  6
CONTINUOUS
 10
6.388500
 20
10.161800
 30
1.000000
 11
6.391300
 21
10.269100
 31
1.000000
  0
LINE
  8
1
 62
     7
  6
CONTINUOUS
 10
6.391300
 20
10.269100
 30
1.000000
 11
6.752000
 21
10.518400
 31
1.000000
  0
LINE
  8
1
 62
     7
  6
CONTINUOUS
 10
6.752000
 20
10.518400
 30
1.000000
 11
6.795500
 21
10.478200
 31
1.000000
  0
LINE
  8
1
 62
     7
  6
CONTINUOUS
 10
6.795500
 20
10.478200
 30
1.000000
 11
7.016300
 21
10.596800
 31
1.000000
  0
LINE
  8
1
 62
     7
  6
CONTINUOUS
 10
7.016300
 20
10.596800
 30
1.000000
 11
7.177600
 21
10.570400
 31
1.000000
  0
LINE
  8
1
 62
     7
  6
CONTINUOUS
 10
7.177600
 20
10.570400
 30
1.000000
 11
7.228300
 21
10.597800
 31
1.000000
  0
LINE
  8
1
 62
     7
  6
CONTINUOUS
 10
7.228300
 20
10.597800
 30
1.000000
 11
7.228340
 21
10.597767
 31
1.000000
  0
ARC
  8
1
 62
     7
  6
CONTINUOUS
 10
7.679900
 20
10.218000
 30
1.000000
 40
0.590025
 50
96.696221
 51
139.935838
  0
LINE
  8
1
 62
     7
  6
CONTINUOUS
 10
7.611100
 20
10.804000
 30
1.000000
 11
7.614400
 21
10.804400
 31
1.000000
  0
LINE
  8
1
 62
     7
  6
CONTINUOUS
 10
7.614400
 20
10.804400
 30
1.000000
 11
7.722000
 21
10.621200
 31
1.000000
  0
LINE
  8
1
 62
     7
  6
CONTINUOUS
 10
7.722000
 20
10.621200
 30
1.000000
 11
7.812300
 21
10.677000
 31
1.000000
  0
LINE
  8
1
 62
     7
  6
CONTINUOUS
 10
7.812300
 20
10.677000
 30
1.000000
 11
7.695000
 21
10.786300
 31
1.000000
  0
ARC
  8
1
 62
     7
  6
CONTINUOUS
 10
7.649500
 20
10.751000
 30
1.000000
 40
0.057603
 50
37.805175
 51
104.373983
  0
LINE
  8
1
 62
     7
  6
CONTINUOUS
 10
7.635200
 20
10.806800
 30
1.000000
 11
7.280100
 21
10.742900
 31
1.000000
  0
LINE
  8
1
 62
     7
  6
CONTINUOUS
 10
7.280100
 20
10.742900
 30
1.000000
 11
7.280121
 21
10.742825
 31
1.000000
  0
ARC
  8
1
 62
     7
  6
CONTINUOUS
 10
7.261000
 20
10.811400
 30
1.000000
 40
0.071191
 50
182.898577
 51
285.580178
  0
LINE
  8
1
 62
     7
  6
CONTINUOUS
 10
7.189900
 20
10.807800
 30
1.000000
 11
7.134700
 21
10.754000
 31
1.000000
  0
ARC
  8
1
 62
     7
  6
CONTINUOUS
 10
7.108900
 20
10.728600
 30
1.000000
 40
0.036180
 50
153.222481
 51
404.552386
  0
LINE
  8
1
 62
     7
  6
CONTINUOUS
 10
7.076600
 20
10.744900
 30
1.000000
 11
7.076900
 21
10.745400
 31
1.000000
  0
LINE
  8
1
 62
     7
  6
CONTINUOUS
 10
7.076900
 20
10.745400
 30
1.000000
 11
7.194600
 21
10.887100
 31
1.000000
  0
LINE
  8
1
 62
     7
  6
CONTINUOUS
 10
7.194600
 20
10.887100
 30
1.000000
 11
7.144600
 21
10.904300
 31
1.000000
  0
LINE
  8
1
 62
     7
  6
CONTINUOUS
 10
7.144600
 20
10.904300
 30
1.000000
 11
6.760100
 21
10.839400
 31
1.000000
  0
LINE
  8
1
 62
     7
  6
CONTINUOUS
 10
6.760100
 20
10.839400
 30
1.000000
 11
6.758900
 21
10.839900
 31
1.000000
  0
ARC
  8
1
 62
     7
  6
CONTINUOUS
 10
6.793800
 20
10.930200
 30
1.000000
 40
0.096858
 50
125.757728
 51
248.869007
  0
LINE
  8
1
 62
     7
  6
CONTINUOUS
 10
6.737200
 20
11.008800
 30
1.000000
 11
6.738100
 21
11.009500
 31
1.000000
  0
LINE
  8
1
 62
     7
  6
CONTINUOUS
 10
6.738100
 20
11.009500
 30
1.000000
 11
7.120400
 21
11.074000
 31
1.000000
  0
LINE
  8
1
 62
     7
  6
CONTINUOUS
 10
7.120400
 20
11.074000
 30
1.000000
 11
7.141500
 21
11.163900
 31
1.000000
  0
LINE
  8
1
 62
     7
  6
CONTINUOUS
 10
7.141500
 20
11.163900
 30
1.000000
 11
7.142300
 21
11.164800
 31
1.000000
  0
LINE
  8
1
 62
     7
  6
CONTINUOUS
 10
7.142300
 20
11.164800
 30
1.000000
 11
7.142261
 21
11.164833
 31
1.000000
  0
ARC
  8
1
 62
     7
  6
CONTINUOUS
 10
7.214100
 20
11.105100
 30
1.000000
 40
0.093428
 50
111.209226
 51
140.257279
  0
LINE
  8
1
 62
     7
  6
CONTINUOUS
 10
7.180300
 20
11.192200
 30
1.000000
 11
7.288400
 21
11.269400
 31
1.000000
  0
ARC
  8
1
 62
     7
  6
CONTINUOUS
 10
7.306700
 20
11.243800
 30
1.000000
 40
0.031466
 50
44.871246
 51
125.558844
  0
LINE
  8
1
 62
     7
  6
CONTINUOUS
 10
7.329000
 20
11.266000
 30
1.000000
 11
7.429600
 21
11.164500
 31
1.000000
  0
ARC
  8
1
 62
     7
  6
CONTINUOUS
 10
7.444800
 20
11.179700
 30
1.000000
 40
0.021470
 50
225.000000
 51
277.224316
  0
LINE
  8
1
 62
     7
  6
CONTINUOUS
 10
7.447500
 20
11.158400
 30
1.000000
 11
7.545200
 21
11.170900
 31
1.000000
  0
LINE
  8
1
 62
     7
  6
CONTINUOUS
 10
7.545200
 20
11.170900
 30
1.000000
 11
7.573800
 21
11.325900
 31
1.000000
  0
LINE
  8
1
 62
     7
  6
CONTINUOUS
 10
7.573800
 20
11.325900
 30
1.000000
 11
7.573893
 21
11.325886
 31
1.000000
  0
ARC
  8
1
 62
     7
  6
CONTINUOUS
 10
7.561900
 20
11.327700
 30
1.000000
 40
0.012130
 50
351.398615
 51
434.703453
  0
LINE
  8
1
 62
     7
  6
CONTINUOUS
 10
7.565100
 20
11.339400
 30
1.000000
 11
7.497900
 21
11.360600
 31
1.000000
  0
LINE
  8
1
 62
     7
  6
CONTINUOUS
 10
7.497900
 20
11.360600
 30
1.000000
 11
7.500700
 21
11.359700
 31
1.000000
  0
LINE
  8
1
 62
     7
  6
CONTINUOUS
 10
7.500700
 20
11.359700
 30
1.000000
 11
7.502000
 21
11.364900
 31
1.000000
  0
ARC
  8
1
 62
     7
  6
CONTINUOUS
 10
6.952700
 20
11.501100
 30
1.000000
 40
0.565969
 50
334.304235
 51
346.074252
  0
LINE
  8
1
 62
     7
  6
CONTINUOUS
 10
7.462700
 20
11.255700
 30
1.000000
 11
7.461300
 21
11.252900
 31
1.000000
  0
LINE
  8
1
 62
     7
  6
CONTINUOUS
 10
7.461300
 20
11.252900
 30
1.000000
 11
7.414900
 21
11.252900
 31
1.000000
  0
LINE
  8
1
 62
     7
  6
CONTINUOUS
 10
7.414900
 20
11.252900
 30
1.000000
 11
7.414200
 21
11.253100
 31
1.000000
  0
ARC
  8
1
 62
     7
  6
CONTINUOUS
 10
7.425900
 20
11.288000
 30
1.000000
 40
0.036844
 50
171.100135
 51
251.466605
  0
LINE
  8
1
 62
     7
  6
CONTINUOUS
 10
7.389500
 20
11.293700
 30
1.000000
 11
7.403600
 21
11.617800
 31
1.000000
  0
ARC
  8
1
 62
     7
  6
CONTINUOUS
 10
7.433500
 20
11.624700
 30
1.000000
 40
0.030637
 50
82.874984
 51
192.994617
  0
LINE
  8
1
 62
     7
  6
CONTINUOUS
 10
7.437300
 20
11.655100
 30
1.000000
 11
7.497300
 21
11.655100
 31
1.000000
  0
LINE
  8
1
 62
     7
  6
CONTINUOUS
 10
7.497300
 20
11.655100
 30
1.000000
 11
7.498300
 21
11.651400
 31
1.000000
  0
LINE
  8
1
 62
     7
  6
CONTINUOUS
 10
7.498300
 20
11.651400
 30
1.000000
 11
7.498383
 21
11.651423
 31
1.000000
  0
ARC
  8
1
 62
     7
  6
CONTINUOUS
 10
6.952700
 20
11.501100
 30
1.000000
 40
0.566009
 50
350.532685
 51
375.401632
  0
LINE
  8
1
 62
     7
  6
CONTINUOUS
 10
7.511000
 20
11.408000
 30
1.000000
 11
7.512700
 21
11.407500
 31
1.000000
  0
LINE
  8
1
 62
     7
  6
CONTINUOUS
 10
7.512700
 20
11.407500
 30
1.000000
 11
7.580200
 21
11.386200
 31
1.000000
  0
LINE
  8
1
 62
     7
  6
CONTINUOUS
 10
7.580200
 20
11.386200
 30
1.000000
 11
7.691800
 21
11.342800
 31
1.000000
  0
LINE
  8
1
 62
     7
  6
CONTINUOUS
 10
7.691800
 20
11.342800
 30
1.000000
 11
7.691735
 21
11.342867
 31
1.000000
  0
ARC
  8
1
 62
     7
  6
CONTINUOUS
 10
7.930300
 20
11.099100
 30
1.000000
 40
0.341080
 50
103.824385
 51
134.382152
  0
LINE
  8
1
 62
     7
  6
CONTINUOUS
 10
7.848800
 20
11.430300
 30
1.000000
 11
7.872500
 21
11.696600
 31
1.000000
  0
LINE
  8
1
 62
     7
  6
CONTINUOUS
 10
7.872500
 20
11.696600
 30
1.000000
 11
7.570900
 21
12.428900
 31
1.000000
  0
LINE
  8
1
 62
     7
  6
CONTINUOUS
 10
7.570900
 20
12.428900
 30
1.000000
 11
7.570963
 21
12.428927
 31
1.000000
  0
ARC
  8
1
 62
     7
  6
CONTINUOUS
 10
7.770100
 20
12.515300
 30
1.000000
 40
0.217062
 50
140.008547
 51
203.448063
  0
ARC
  8
1
 62
     7
  6
CONTINUOUS
 10
7.627900
 20
12.634600
 30
1.000000
 40
0.031454
 50
32.932231
 51
140.031127
  0
LINE
  8
1
 62
     7
  6
CONTINUOUS
 10
7.654300
 20
12.651700
 30
1.000000
 11
8.286400
 21
11.675000
 31
1.000000
  0
LINE
  8
1
 62
     7
  6
CONTINUOUS
 10
8.286400
 20
11.675000
 30
1.000000
 11
8.286500
 21
11.673900
 31
1.000000
  0
ARC
  8
1
 62
     7
  6
CONTINUOUS
 10
8.443600
 20
11.694200
 30
1.000000
 40
0.158359
 50
187.362794
 51
257.490814
  0
LINE
  8
1
 62
     7
  6
CONTINUOUS
 10
8.409300
 20
11.539600
 30
1.000000
 11
8.411400
 21
11.539100
 31
1.000000
  0
LINE
  8
1
 62
     7
  6
CONTINUOUS
 10
8.411400
 20
11.539100
 30
1.000000
 11
8.538400
 21
11.321400
 31
1.000000
  0
LINE
  8
1
 62
     7
  6
CONTINUOUS
 10
8.538400
 20
11.321400
 30
1.000000
 11
9.336400
 21
10.856300
 31
1.000000
  0
LINE
  8
1
 62
     7
  6
CONTINUOUS
 10
9.336400
 20
10.856300
 30
1.000000
 11
9.335500
 21
10.852600
 31
1.000000
  0
ARC
  8
1
 62
     7
  6
CONTINUOUS
 10
11.295800
 20
10.382600
 30
1.000000
 40
2.015821
 50
166.517312
 51
169.137124
  0
ARC
  8
1
 62
     7
  6
CONTINUOUS
 10
8.825900
 20
10.371000
 30
1.000000
 40
0.627339
 50
347.769373
 51
398.612739
  0
ARC
  8
1
 62
     7
  6
CONTINUOUS
 10
9.036300
 20
10.201900
 30
1.000000
 40
0.404371
 50
317.054348
 51
365.136696
  0
ARC
  8
1
 62
     7
  6
CONTINUOUS
 10
11.295800
 20
10.382600
 30
1.000000
 40
2.015847
 50
193.080047
 51
193.590918
  0
LINE
  8
1
 62
     7
  6
CONTINUOUS
 10
9.336400
 20
9.908900
 30
1.000000
 11
9.336600
 21
9.908300
 31
1.000000
  0
LINE
  8
1
 62
     7
  6
CONTINUOUS
 10
9.336600
 20
9.908300
 30
1.000000
 11
9.336600
 21
9.907700
 31
1.000000
  0
LINE
  8
1
 62
     7
  6
CONTINUOUS
 10
9.336600
 20
9.907700
 30
1.000000
 11
9.336543
 21
9.907700
 31
1.000000
  0
ARC
  8
1
 62
     7
  6
CONTINUOUS
 10
9.278600
 20
9.907700
 30
1.000000
 40
0.057943
 50
264.751856
 51
360.000000
  0
LINE
  8
1
 62
     7
  6
CONTINUOUS
 10
9.273300
 20
9.850000
 30
1.000000
 11
9.255700
 21
9.851600
 31
1.000000
  0
LINE
  8
1
 62
     7
  6
CONTINUOUS
 10
9.255700
 20
9.851600
 30
1.000000
 11
9.255700
 21
9.841000
 31
1.000000
  0
LINE
  8
1
 62
     7
  6
CONTINUOUS
 10
9.255700
 20
9.841000
 30
1.000000
 11
9.248900
 21
9.732100
 31
1.000000
  0
LINE
  8
1
 62
     7
  6
CONTINUOUS
 10
9.248900
 20
9.732100
 30
1.000000
 11
9.248900
 21
9.587300
 31
1.000000
  0
LINE
  8
1
 62
     7
  6
CONTINUOUS
 10
9.248900
 20
9.587300
 30
1.000000
 11
9.248946
 21
9.587336
 31
1.000000
  0
ARC
  8
1
 62
     7
  6
CONTINUOUS
 10
9.092800
 20
9.466300
 30
1.000000
 40
0.197563
 50
321.679886
 51
397.780844
  0
LINE
  8
1
 62
     7
  6
CONTINUOUS
 10
9.247800
 20
9.343800
 30
1.000000
 11
9.246300
 21
9.341900
 31
1.000000
  0
LINE
  8
1
 62
     7
  6
CONTINUOUS
 10
9.246300
 20
9.341900
 30
1.000000
 11
9.112000
 21
9.341900
 31
1.000000
  0
LINE
  8
1
 62
     7
  6
CONTINUOUS
 10
9.112000
 20
9.341900
 30
1.000000
 11
9.110600
 21
9.343500
 31
1.000000
  0
ARC
  8
1
 62
     7
  6
CONTINUOUS
 10
9.241200
 20
9.466300
 30
1.000000
 40
0.179270
 50
137.418873
 51
223.236914
  0
LINE
  8
1
 62
     7
  6
CONTINUOUS
 10
9.109200
 20
9.587600
 30
1.000000
 11
9.109200
 21
9.668400
 31
1.000000
  0
LINE
  8
1
 62
     7
  6
CONTINUOUS
 10
9.109200
 20
9.668400
 30
1.000000
 11
8.884900
 21
9.571100
 31
1.000000
  0
LINE
  8
1
 62
     7
  6
CONTINUOUS
 10
8.884900
 20
9.571100
 30
1.000000
 11
8.873100
 21
9.564600
 31
1.000000
  0
LINE
  8
1
 62
     7
  6
CONTINUOUS
 10
8.873100
 20
9.564600
 30
1.000000
 11
9.048300
 21
9.223800
 31
1.000000
  0
ARC
  8
1
 62
     7
  6
CONTINUOUS
 10
9.703700
 20
7.718500
 30
1.000000
 40
1.641776
 50
52.339274
 51
113.528065
  0
LINE
  8
1
 62
     7
  6
CONTINUOUS
 10
10.706800
 20
9.018200
 30
1.000000
 11
10.868100
 21
9.018200
 31
1.000000
  0
LINE
  8
1
 62
     7
  6
CONTINUOUS
 10
10.868100
 20
9.018200
 30
1.000000
 11
10.869300
 21
9.017600
 31
1.000000
  0
ARC
  8
1
 62
     7
  6
CONTINUOUS
 10
10.703600
 20
8.732800
 30
1.000000
 40
0.329470
 50
15.491530
 51
59.808650
  0
LINE
  8
1
 62
     7
  6
CONTINUOUS
 10
11.021100
 20
8.820800
 30
1.000000
 11
11.021098
 21
8.820739
 31
1.000000
  0
ARC
  8
1
 62
     7
  6
CONTINUOUS
 10
11.017900
 20
8.737100
 30
1.000000
 40
0.083700
 50
0.000000
 51
87.810547
  0
LINE
  8
1
 62
     7
  6
CONTINUOUS
 10
11.101600
 20
8.737100
 30
1.000000
 11
11.101600
 21
8.560600
 31
1.000000
  0
ARC
  8
1
 62
     7
  6
CONTINUOUS
 10
11.017900
 20
8.560600
 30
1.000000
 40
0.083685
 50
283.122910
 51
360.000000
  0
LINE
  8
1
 62
     7
  6
CONTINUOUS
 10
11.036900
 20
8.479100
 30
1.000000
 11
11.036400
 21
8.478900
 31
1.000000
  0
LINE
  8
1
 62
     7
  6
CONTINUOUS
 10
11.036400
 20
8.478900
 30
1.000000
 11
10.753100
 21
8.478900
 31
1.000000
  0
ARC
  8
1
 62
     7
  6
CONTINUOUS
 10
9.703700
 20
7.718500
 30
1.000000
 40
1.295902
 50
288.836218
 51
395.927257
  0
LINE
  8
1
 62
     7
  6
CONTINUOUS
 10
10.122100
 20
6.492000
 30
1.000000
 11
11.160600
 21
6.490500
 31
1.000000
  0
LINE
  8
1
 62
     7
  6
CONTINUOUS
 10
11.160600
 20
6.490500
 30
1.000000
 11
11.157000
 21
3.980500
 31
1.000000
  0
LINE
  8
1
 62
     7
  6
CONTINUOUS
 10
11.157000
 20
3.980500
 30
1.000000
 11
1.080000
 21
3.995000
 31
1.000000
  0
ENDSEC
  0
EOF
