  0
SECTION
  2
HEADER
  9
$ACADVER
  1
AC1014
  9
$ACADMAINTVER
 70
     0
  9
$DWGCODEPAGE
  3
ANSI_1252
  9
$INSBASE
 10
0.0
 20
0.0
 30
0.0
  9
$EXTMIN
 10
129.595961
 20
-31.238415
 30
0.0
  9
$EXTMAX
 10
441.85332
 20
414.733402
 30
0.0
  9
$LIMMIN
 10
0.0
 20
0.0
  9
$LIMMAX
 10
420.0
 20
297.0
  9
$ORTHOMODE
 70
     1
  9
$REGENMODE
 70
     1
  9
$FILLMODE
 70
     1
  9
$QTEXTMODE
 70
     0
  9
$MIRRTEXT
 70
     1
  9
$DRAGMODE
 70
     2
  9
$LTSCALE
 40
1.0
  9
$OSMODE
 70
    39
  9
$ATTMODE
 70
     1
  9
$TEXTSIZE
 40
2.5
  9
$TRACEWID
 40
1.0
  9
$TEXTSTYLE
  7
STANDARD
  9
$CLAYER
  8
0
  9
$CELTYPE
  6
BYLAYER
  9
$CECOLOR
 62
   256
  9
$CELTSCALE
 40
1.0
  9
$DELOBJ
 70
     1
  9
$DISPSILH
 70
     0
  9
$DIMSCALE
 40
1.0
  9
$DIMASZ
 40
2.5
  9
$DIMEXO
 40
0.625
  9
$DIMDLI
 40
3.75
  9
$DIMRND
 40
0.0
  9
$DIMDLE
 40
0.0
  9
$DIMEXE
 40
1.25
  9
$DIMTP
 40
0.0
  9
$DIMTM
 40
0.0
  9
$DIMTXT
 40
2.5
  9
$DIMCEN
 40
2.5
  9
$DIMTSZ
 40
0.0
  9
$DIMTOL
 70
     0
  9
$DIMLIM
 70
     0
  9
$DIMTIH
 70
     0
  9
$DIMTOH
 70
     0
  9
$DIMSE1
 70
     0
  9
$DIMSE2
 70
     0
  9
$DIMTAD
 70
     1
  9
$DIMZIN
 70
     8
  9
$DIMBLK
  1

  9
$DIMASO
 70
     1
  9
$DIMSHO
 70
     1
  9
$DIMPOST
  1

  9
$DIMAPOST
  1

  9
$DIMALT
 70
     0
  9
$DIMALTD
 70
     4
  9
$DIMALTF
 40
0.0394
  9
$DIMLFAC
 40
1.0
  9
$DIMTOFL
 70
     1
  9
$DIMTVP
 40
0.0
  9
$DIMTIX
 70
     0
  9
$DIMSOXD
 70
     0
  9
$DIMSAH
 70
     0
  9
$DIMBLK1
  1

  9
$DIMBLK2
  1

  9
$DIMSTYLE
  2
STANDARD
  9
$DIMCLRD
 70
     0
  9
$DIMCLRE
 70
     0
  9
$DIMCLRT
 70
     0
  9
$DIMTFAC
 40
1.0
  9
$DIMGAP
 40
0.625
  9
$DIMJUST
 70
     0
  9
$DIMSD1
 70
     0
  9
$DIMSD2
 70
     0
  9
$DIMTOLJ
 70
     1
  9
$DIMTZIN
 70
     0
  9
$DIMALTZ
 70
     0
  9
$DIMALTTZ
 70
     0
  9
$DIMFIT
 70
     3
  9
$DIMUPT
 70
     0
  9
$DIMUNIT
 70
     8
  9
$DIMDEC
 70
     4
  9
$DIMTDEC
 70
     4
  9
$DIMALTU
 70
     8
  9
$DIMALTTD
 70
     4
  9
$DIMTXSTY
  7
STANDARD
  9
$DIMAUNIT
 70
     0
  9
$LUNITS
 70
     2
  9
$LUPREC
 70
     4
  9
$SKETCHINC
 40
1.0
  9
$FILLETRAD
 40
10.0
  9
$AUNITS
 70
     0
  9
$AUPREC
 70
     0
  9
$MENU
  1
.
  9
$ELEVATION
 40
0.0
  9
$PELEVATION
 40
0.0
  9
$THICKNESS
 40
0.0
  9
$LIMCHECK
 70
     0
  9
$BLIPMODE
 70
     0
  9
$CHAMFERA
 40
10.0
  9
$CHAMFERB
 40
10.0
  9
$CHAMFERC
 40
20.0
  9
$CHAMFERD
 40
0.0
  9
$SKPOLY
 70
     0
  9
$TDCREATE
 40
2455318.606509502
  9
$TDUPDATE
 40
2455318.606509502
  9
$TDINDWG
 40
0.0000000000
  9
$TDUSRTIMER
 40
0.0000000000
  9
$USRTIMER
 70
     1
  9
$ANGBASE
 50
0.0
  9
$ANGDIR
 70
     0
  9
$PDMODE
 70
     0
  9
$PDSIZE
 40
0.0
  9
$PLINEWID
 40
0.0
  9
$COORDS
 70
     1
  9
$SPLFRAME
 70
     0
  9
$SPLINETYPE
 70
     6
  9
$SPLINESEGS
 70
     8
  9
$ATTDIA
 70
     0
  9
$ATTREQ
 70
     1
  9
$HANDLING
 70
     1
  9
$HANDSEED
  5
DE7
  9
$SURFTAB1
 70
     6
  9
$SURFTAB2
 70
     6
  9
$SURFTYPE
 70
     6
  9
$SURFU
 70
     6
  9
$SURFV
 70
     6
  9
$UCSNAME
  2

  9
$UCSORG
 10
0.0
 20
0.0
 30
0.0
  9
$UCSXDIR
 10
1.0
 20
0.0
 30
0.0
  9
$UCSYDIR
 10
0.0
 20
1.0
 30
0.0
  9
$PUCSNAME
  2

  9
$PUCSORG
 10
0.0
 20
0.0
 30
0.0
  9
$PUCSXDIR
 10
1.0
 20
0.0
 30
0.0
  9
$PUCSYDIR
 10
0.0
 20
1.0
 30
0.0
  9
$USERI1
 70
     0
  9
$USERI2
 70
     0
  9
$USERI3
 70
     0
  9
$USERI4
 70
     0
  9
$USERI5
 70
     0
  9
$USERR1
 40
0.0
  9
$USERR2
 40
0.0
  9
$USERR3
 40
0.0
  9
$USERR4
 40
0.0
  9
$USERR5
 40
0.0
  9
$WORLDVIEW
 70
     1
  9
$SHADEDGE
 70
     3
  9
$SHADEDIF
 70
    70
  9
$TILEMODE
 70
     1
  9
$MAXACTVP
 70
    48
  9
$PINSBASE
 10
0.0
 20
0.0
 30
0.0
  9
$PLIMCHECK
 70
     0
  9
$PEXTMIN
 10
1.000000E+20
 20
1.000000E+20
 30
1.000000E+20
  9
$PEXTMAX
 10
-1.000000E+20
 20
-1.000000E+20
 30
-1.000000E+20
  9
$PLIMMIN
 10
0.0
 20
0.0
  9
$PLIMMAX
 10
420.0
 20
297.0
  9
$UNITMODE
 70
     0
  9
$VISRETAIN
 70
     1
  9
$PLINEGEN
 70
     0
  9
$PSLTSCALE
 70
     1
  9
$TREEDEPTH
 70
  3020
  9
$PICKSTYLE
 70
     1
  9
$CMLSTYLE
  2
STANDARD
  9
$CMLJUST
 70
     0
  9
$CMLSCALE
 40
20.0
  9
$PROXYGRAPHICS
 70
     1
  9
$MEASUREMENT
 70
     1
  0
ENDSEC
  0
SECTION
  2
CLASSES
  0
ENDSEC
  0
SECTION
  2
TABLES
  0
TABLE
  2
VPORT
  5
8
100
AcDbSymbolTable
 70
     2
  0
VPORT
  5
DE6
100
AcDbSymbolTableRecord
100
AcDbViewportTableRecord
  2
*ACTIVE
 70
     0
 10
0.0
 20
0.0
 11
1.0
 21
1.0
 12
255.017762
 22
142.292977
 13
0.0
 23
0.0
 14
10.0
 24
10.0
 15
10.0
 25
10.0
 16
0.0
 26
0.0
 36
1.0
 17
0.0
 27
0.0
 37
0.0
 40
160.060695
 41
1.873381
 42
50.0
 43
0.0
 44
0.0
 50
0.0
 51
0.0
 71
     0
 72
   100
 73
     1
 74
     1
 75
     0
 76
     0
 77
     0
 78
     0
  0
ENDTAB
  0
TABLE
  2
LTYPE
  5
5
100
AcDbSymbolTable
 70
     1
  0
LTYPE
  5
12
100
AcDbSymbolTableRecord
100
AcDbLinetypeTableRecord
  2
BYBLOCK
 70
     0
  3

 72
    65
 73
     0
 40
0.0
  0
LTYPE
  5
13
100
AcDbSymbolTableRecord
100
AcDbLinetypeTableRecord
  2
BYLAYER
 70
     0
  3

 72
    65
 73
     0
 40
0.0
  0
LTYPE
  5
14
100
AcDbSymbolTableRecord
100
AcDbLinetypeTableRecord
  2
CONTINUOUS
 70
     0
  3
Solid line
 72
    65
 73
     0
 40
0.0
  0
ENDTAB
  0
TABLE
  2
LAYER
  5
2
100
AcDbSymbolTable
 70
     1
  0
LAYER
  5
E
100
AcDbSymbolTableRecord
100
AcDbLayerTableRecord
  2
0
 70
     0
 62
     7
  6
CONTINUOUS
  0
ENDTAB
  0
TABLE
  2
STYLE
  5
3
100
AcDbSymbolTable
 70
     1
  0
STYLE
  5
F
100
AcDbSymbolTableRecord
100
AcDbTextStyleTableRecord
  2
STANDARD
 70
     0
 40
0.0
 41
1.0
 50
0.0
 71
     0
 42
2.5
  3
txt
  4

  0
ENDTAB
  0
TABLE
  2
VIEW
  5
6
100
AcDbSymbolTable
 70
     0
  0
ENDTAB
  0
TABLE
  2
UCS
  5
7
100
AcDbSymbolTable
 70
     0
  0
ENDTAB
  0
TABLE
  2
APPID
  5
9
100
AcDbSymbolTable
 70
     1
  0
APPID
  5
10
100
AcDbSymbolTableRecord
100
AcDbRegAppTableRecord
  2
ACAD
 70
     0
  0
ENDTAB
  0
TABLE
  2
DIMSTYLE
  5
A
100
AcDbSymbolTable
 70
     1
  0
DIMSTYLE
105
1D
100
AcDbSymbolTableRecord
100
AcDbDimStyleTableRecord
  2
STANDARD
 70
     0
  3

  4

  5

  6

  7

 40
1.0
 41
0.18
 42
0.0625
 43
0.38
 44
0.18
 45
0.0
 46
0.0
 47
0.0
 48
0.0
140
0.18
141
0.09
142
0.0
143
25.4
144
1.0
145
0.0
146
1.0
147
0.09
 71
     0
 72
     0
 73
     1
 74
     1
 75
     0
 76
     0
 77
     0
 78
     0
170
     0
171
     2
172
     0
173
     0
174
     0
175
     0
176
     0
177
     0
178
     0
270
     2
271
     4
272
     4
273
     2
274
     2
340
F
275
     0
280
     0
281
     0
282
     0
283
     1
284
     0
285
     0
286
     0
287
     3
288
     0
  0
ENDTAB
  0
TABLE
  2
BLOCK_RECORD
  5
1
100
AcDbSymbolTable
 70
     0
  0
BLOCK_RECORD
  5
18
100
AcDbSymbolTableRecord
100
AcDbBlockTableRecord
  2
*MODEL_SPACE
  0
BLOCK_RECORD
  5
15
100
AcDbSymbolTableRecord
100
AcDbBlockTableRecord
  2
*PAPER_SPACE
  0
ENDTAB
  0
ENDSEC
  0
SECTION
  2
BLOCKS
  0
BLOCK
  5
19
100
AcDbEntity
  8
0
100
AcDbBlockBegin
  2
*MODEL_SPACE
 70
     0
 10
0.0
 20
0.0
 30
0.0
  3
*MODEL_SPACE
  1

  0
ENDBLK
  5
1A
100
AcDbEntity
  8
0
100
AcDbBlockEnd
  0
BLOCK
  5
16
100
AcDbEntity
 67
     1
  8
0
100
AcDbBlockBegin
  2
*PAPER_SPACE
 70
     0
 10
0.0
 20
0.0
 30
0.0
  3
*PAPER_SPACE
  1

  0
ENDBLK
  5
17
100
AcDbEntity
 67
     1
  8
0
100
AcDbBlockEnd
  0
ENDSEC
  0
SECTION
  2
ENTITIES
  0
LINE
  5
E1
100
AcDbEntity
  8
0
100
AcDbLine
 10
236.121193
 20
199.817959
 30
0.0
 11
232.588702
 21
203.292961
 31
0.0
  0
LINE
  5
E2
100
AcDbEntity
  8
0
100
AcDbLine
 10
237.243244
 20
200.958573
 30
0.0
 11
233.710754
 21
204.433576
 31
0.0
  0
LINE
  5
E5
100
AcDbEntity
  8
0
100
AcDbLine
 10
234.466955
 20
196.057482
 30
0.0
 11
229.670228
 21
197.300676
 31
0.0
  0
LINE
  5
E6
100
AcDbEntity
  8
0
100
AcDbLine
 10
234.868373
 20
197.606308
 30
0.0
 11
230.071646
 21
198.849503
 31
0.0
  0
LINE
  5
EA
100
AcDbEntity
  8
0
100
AcDbLine
 10
234.487808
 20
193.515726
 30
0.0
 11
229.456971
 21
192.123384
 31
0.0
  0
LINE
  5
101
100
AcDbEntity
  8
0
100
AcDbLine
 10
249.70786
 20
197.728049
 30
0.0
 11
254.738696
 21
199.12039
 31
0.0
  0
LINE
  5
105
100
AcDbEntity
  8
0
100
AcDbLine
 10
247.278309
 20
201.040899
 30
0.0
 11
250.753311
 21
204.57339
 31
0.0
  0
LINE
  5
106
100
AcDbEntity
  8
0
100
AcDbLine
 10
248.418923
 20
199.918848
 30
0.0
 11
251.893925
 21
203.451339
 31
0.0
  0
LINE
  5
109
100
AcDbEntity
  8
0
100
AcDbLine
 10
243.517831
 20
202.695137
 30
0.0
 11
244.761026
 21
207.491865
 31
0.0
  0
LINE
  5
10A
100
AcDbEntity
  8
0
100
AcDbLine
 10
245.066658
 20
202.293719
 30
0.0
 11
246.309853
 21
207.090447
 31
0.0
  0
LINE
  5
10D
100
AcDbEntity
  8
0
100
AcDbLine
 10
239.434043
 20
202.24751
 30
0.0
 11
238.112318
 21
207.023195
 31
0.0
  0
LINE
  5
10E
100
AcDbEntity
  8
0
100
AcDbLine
 10
240.976075
 20
202.674285
 30
0.0
 11
239.65435
 21
207.44997
 31
0.0
  0
ARC
  5
120
100
AcDbEntity
  8
0
100
AcDbCircle
 10
228.613546
 20
202.610102
 30
0.0
 40
3.0
100
AcDbArc
 50
294.73883
 51
6.20124
  0
ARC
  5
121
100
AcDbEntity
  8
0
100
AcDbCircle
 10
227.072046
 20
198.800494
 30
0.0
 40
3.0
100
AcDbArc
 50
309.73883
 51
330.004025
  0
ARC
  5
122
100
AcDbEntity
  8
0
100
AcDbCircle
 10
226.569071
 20
194.721725
 30
0.0
 40
3.0
100
AcDbArc
 50
320.623286
 51
36.20124
  0
ARC
  5
125
100
AcDbEntity
  8
0
100
AcDbCircle
 10
231.08852
 20
205.890932
 30
0.0
 40
3.0
100
AcDbArc
 50
279.73883
 51
300.004025
  0
ARC
  5
126
100
AcDbEntity
  8
0
100
AcDbCircle
 10
234.328302
 20
208.4194
 30
0.0
 40
3.0
100
AcDbArc
 50
264.73883
 51
336.20124
  0
ARC
  5
127
100
AcDbEntity
  8
0
100
AcDbCircle
 10
238.112107
 20
210.023195
 30
0.0
 40
3.0
100
AcDbArc
 50
249.73883
 51
270.004025
  0
ARC
  5
128
100
AcDbEntity
  8
0
100
AcDbCircle
 10
242.182075
 20
210.593022
 30
0.0
 40
3.0
100
AcDbArc
 50
234.73883
 51
306.20124
  0
ARC
  5
129
100
AcDbEntity
  8
0
100
AcDbCircle
 10
246.260844
 20
210.090046
 30
0.0
 40
3.0
100
AcDbArc
 50
219.73883
 51
240.004025
  0
ARC
  5
12A
100
AcDbEntity
  8
0
100
AcDbCircle
 10
250.070452
 20
208.548546
 30
0.0
 40
3.0
100
AcDbArc
 50
204.73883
 51
276.20124
  0
ARC
  5
12B
100
AcDbEntity
  8
0
100
AcDbCircle
 10
253.351282
 20
206.073573
 30
0.0
 40
3.0
100
AcDbArc
 50
189.73883
 51
210.004025
  0
ARC
  5
12C
100
AcDbEntity
  8
0
100
AcDbCircle
 10
255.87975
 20
202.83379
 30
0.0
 40
3.0
100
AcDbArc
 50
174.73883
 51
250.316785
  0
ARC
  5
12D
100
AcDbEntity
  8
0
100
AcDbCircle
 10
257.738667
 20
199.133478
 30
0.0
 40
3.0
100
AcDbArc
 50
163.030165
 51
180.249956
  0
ARC
  5
134
100
AcDbEntity
  8
0
100
AcDbCircle
 10
226.87715
 20
190.592201
 30
0.0
 40
3.0
100
AcDbArc
 50
140.623286
 51
158.908098
  0
ARC
  5
135
100
AcDbEntity
  8
0
100
AcDbCircle
 10
226.569071
 20
194.721725
 30
0.0
 40
3.0
100
AcDbArc
 50
129.73883
 51
227.909905
  0
ARC
  5
136
100
AcDbEntity
  8
0
100
AcDbCircle
 10
227.072046
 20
198.800494
 30
0.0
 40
3.0
100
AcDbArc
 50
114.73883
 51
216.20124
  0
ARC
  5
137
100
AcDbEntity
  8
0
100
AcDbCircle
 10
228.613546
 20
202.610102
 30
0.0
 40
3.0
100
AcDbArc
 50
99.73883
 51
201.20124
  0
ARC
  5
138
100
AcDbEntity
  8
0
100
AcDbCircle
 10
231.08852
 20
205.890932
 30
0.0
 40
3.0
100
AcDbArc
 50
84.73883
 51
186.20124
  0
ARC
  5
139
100
AcDbEntity
  8
0
100
AcDbCircle
 10
234.328302
 20
208.4194
 30
0.0
 40
3.0
100
AcDbArc
 50
69.73883
 51
171.20124
  0
ARC
  5
13A
100
AcDbEntity
  8
0
100
AcDbCircle
 10
238.112107
 20
210.023195
 30
0.0
 40
3.0
100
AcDbArc
 50
54.73883
 51
156.20124
  0
ARC
  5
13B
100
AcDbEntity
  8
0
100
AcDbCircle
 10
242.182075
 20
210.593022
 30
0.0
 40
3.0
100
AcDbArc
 50
39.73883
 51
141.20124
  0
ARC
  5
13C
100
AcDbEntity
  8
0
100
AcDbCircle
 10
246.260844
 20
210.090046
 30
0.0
 40
3.0
100
AcDbArc
 50
24.73883
 51
126.20124
  0
ARC
  5
13D
100
AcDbEntity
  8
0
100
AcDbCircle
 10
250.070452
 20
208.548546
 30
0.0
 40
3.0
100
AcDbArc
 50
9.73883
 51
111.20124
  0
ARC
  5
13E
100
AcDbEntity
  8
0
100
AcDbCircle
 10
253.351282
 20
206.073573
 30
0.0
 40
3.0
100
AcDbArc
 50
354.73883
 51
96.20124
  0
ARC
  5
13F
100
AcDbEntity
  8
0
100
AcDbCircle
 10
255.87975
 20
202.83379
 30
0.0
 40
3.0
100
AcDbArc
 50
343.030165
 51
81.20124
  0
ARC
  5
143
100
AcDbEntity
  8
0
100
AcDbCircle
 10
257.738667
 20
199.133478
 30
0.0
 40
3.0
100
AcDbArc
 50
51.710214
 51
70.316785
  0
CIRCLE
  5
147
100
AcDbEntity
  8
0
100
AcDbCircle
 10
227.072046
 20
198.800494
 30
0.0
 40
1.3
  0
CIRCLE
  5
148
100
AcDbEntity
  8
0
100
AcDbCircle
 10
226.87715
 20
190.592201
 30
0.0
 40
1.3
  0
CIRCLE
  5
14B
100
AcDbEntity
  8
0
100
AcDbCircle
 10
227.18523
 20
186.462676
 30
0.0
 40
1.3
  0
CIRCLE
  5
14C
100
AcDbEntity
  8
0
100
AcDbCircle
 10
226.569071
 20
194.721725
 30
0.0
 40
1.3
  0
CIRCLE
  5
14D
100
AcDbEntity
  8
0
100
AcDbCircle
 10
228.613546
 20
202.610102
 30
0.0
 40
1.3
  0
CIRCLE
  5
14E
100
AcDbEntity
  8
0
100
AcDbCircle
 10
231.08852
 20
205.890932
 30
0.0
 40
1.3
  0
CIRCLE
  5
14F
100
AcDbEntity
  8
0
100
AcDbCircle
 10
234.328302
 20
208.4194
 30
0.0
 40
1.3
  0
CIRCLE
  5
150
100
AcDbEntity
  8
0
100
AcDbCircle
 10
238.112107
 20
210.023195
 30
0.0
 40
1.3
  0
CIRCLE
  5
151
100
AcDbEntity
  8
0
100
AcDbCircle
 10
242.182075
 20
210.593022
 30
0.0
 40
1.3
  0
CIRCLE
  5
152
100
AcDbEntity
  8
0
100
AcDbCircle
 10
246.260844
 20
210.090046
 30
0.0
 40
1.3
  0
CIRCLE
  5
153
100
AcDbEntity
  8
0
100
AcDbCircle
 10
250.070452
 20
208.548546
 30
0.0
 40
1.3
  0
CIRCLE
  5
154
100
AcDbEntity
  8
0
100
AcDbCircle
 10
253.351282
 20
206.073573
 30
0.0
 40
1.3
  0
CIRCLE
  5
155
100
AcDbEntity
  8
0
100
AcDbCircle
 10
255.87975
 20
202.83379
 30
0.0
 40
1.3
  0
CIRCLE
  5
156
100
AcDbEntity
  8
0
100
AcDbCircle
 10
257.738667
 20
199.133478
 30
0.0
 40
1.3
  0
CIRCLE
  5
157
100
AcDbEntity
  8
0
100
AcDbCircle
 10
259.597585
 20
195.433166
 30
0.0
 40
1.3
  0
ARC
  5
158
100
AcDbEntity
  8
0
100
AcDbCircle
 10
226.87715
 20
190.592201
 30
0.0
 40
3.0
100
AcDbArc
 50
30.690115
 51
47.909905
  0
ARC
  5
159
100
AcDbEntity
  8
0
100
AcDbCircle
 10
227.072046
 20
198.800494
 30
0.0
 40
3.0
100
AcDbArc
 50
0.936045
 51
21.20124
  0
ARC
  5
15A
100
AcDbEntity
  8
0
100
AcDbCircle
 10
231.08852
 20
205.890932
 30
0.0
 40
3.0
100
AcDbArc
 50
330.936045
 51
351.20124
  0
ARC
  5
15B
100
AcDbEntity
  8
0
100
AcDbCircle
 10
238.112107
 20
210.023195
 30
0.0
 40
3.0
100
AcDbArc
 50
300.936045
 51
321.20124
  0
ARC
  5
15C
100
AcDbEntity
  8
0
100
AcDbCircle
 10
246.260844
 20
210.090046
 30
0.0
 40
3.0
100
AcDbArc
 50
270.936045
 51
291.20124
  0
ARC
  5
15D
100
AcDbEntity
  8
0
100
AcDbCircle
 10
253.351282
 20
206.073573
 30
0.0
 40
3.0
100
AcDbArc
 50
240.936045
 51
261.20124
  0
ARC
  5
15F
100
AcDbEntity
  8
0
100
AcDbCircle
 10
242.311221
 20
194.850871
 30
0.0
 40
7.936524
100
AcDbArc
 50
171.255263
 51
189.684807
  0
ARC
  5
160
100
AcDbEntity
  8
0
100
AcDbCircle
 10
242.311221
 20
194.850871
 30
0.0
 40
7.936524
100
AcDbArc
 50
141.255263
 51
159.684807
  0
ARC
  5
161
100
AcDbEntity
  8
0
100
AcDbCircle
 10
242.311221
 20
194.850871
 30
0.0
 40
7.936524
100
AcDbArc
 50
111.255263
 51
129.684807
  0
ARC
  5
162
100
AcDbEntity
  8
0
100
AcDbCircle
 10
242.311221
 20
194.850871
 30
0.0
 40
7.936524
100
AcDbArc
 50
81.255263
 51
99.684807
  0
ARC
  5
163
100
AcDbEntity
  8
0
100
AcDbCircle
 10
242.311221
 20
194.850871
 30
0.0
 40
7.936524
100
AcDbArc
 50
51.255263
 51
69.684807
  0
ARC
  5
164
100
AcDbEntity
  8
0
100
AcDbCircle
 10
242.311221
 20
194.850871
 30
0.0
 40
7.936524
100
AcDbArc
 50
21.255263
 51
39.684807
  0
CIRCLE
  5
165
100
AcDbEntity
  8
0
100
AcDbCircle
 10
261.456502
 20
199.133478
 30
0.0
 40
1.3
  0
CIRCLE
  5
166
100
AcDbEntity
  8
0
100
AcDbCircle
 10
292.123123
 20
198.800494
 30
0.0
 40
1.3
  0
ARC
  5
167
100
AcDbEntity
  8
0
100
AcDbCircle
 10
292.123123
 20
198.800494
 30
0.0
 40
3.0
100
AcDbArc
 50
323.79876
 51
65.26117
  0
LINE
  5
168
100
AcDbEntity
  8
0
100
AcDbLine
 10
283.073976
 20
199.817959
 30
0.0
 11
286.606467
 21
203.292961
 31
0.0
  0
LINE
  5
169
100
AcDbEntity
  8
0
100
AcDbLine
 10
284.326796
 20
197.606308
 30
0.0
 11
289.123524
 21
198.849503
 31
0.0
  0
ARC
  5
16A
100
AcDbEntity
  8
0
100
AcDbCircle
 10
290.581623
 20
202.610102
 30
0.0
 40
3.0
100
AcDbArc
 50
173.79876
 51
245.26117
  0
LINE
  5
16B
100
AcDbEntity
  8
0
100
AcDbLine
 10
284.728214
 20
196.057482
 30
0.0
 11
289.524942
 21
197.300676
 31
0.0
  0
ARC
  5
16C
100
AcDbEntity
  8
0
100
AcDbCircle
 10
292.123123
 20
198.800494
 30
0.0
 40
3.0
100
AcDbArc
 50
158.79876
 51
179.063955
  0
ARC
  5
16D
100
AcDbEntity
  8
0
100
AcDbCircle
 10
292.123123
 20
198.800494
 30
0.0
 40
3.0
100
AcDbArc
 50
209.995975
 51
230.26117
  0
ARC
  5
16E
100
AcDbEntity
  8
0
100
AcDbCircle
 10
276.883948
 20
194.850871
 30
0.0
 40
7.936524
100
AcDbArc
 50
20.315193
 51
38.744737
  0
LINE
  5
16F
100
AcDbEntity
  8
0
100
AcDbLine
 10
269.48731
 20
197.728049
 30
0.0
 11
264.456473
 21
199.12039
 31
0.0
  0
LINE
  5
170
100
AcDbEntity
  8
0
100
AcDbLine
 10
270.776246
 20
199.918848
 30
0.0
 11
267.301244
 21
203.451339
 31
0.0
  0
ARC
  5
171
100
AcDbEntity
  8
0
100
AcDbCircle
 10
276.883948
 20
194.850871
 30
0.0
 40
7.936524
100
AcDbArc
 50
140.315193
 51
158.744737
  0
ARC
  5
172
100
AcDbEntity
  8
0
100
AcDbCircle
 10
263.315419
 20
202.83379
 30
0.0
 40
3.0
100
AcDbArc
 50
289.683215
 51
5.26117
  0
ARC
  5
173
100
AcDbEntity
  8
0
100
AcDbCircle
 10
261.456502
 20
199.133478
 30
0.0
 40
3.0
100
AcDbArc
 50
359.750044
 51
16.969835
  0
ARC
  5
174
100
AcDbEntity
  8
0
100
AcDbCircle
 10
276.883948
 20
194.850871
 30
0.0
 40
7.936524
100
AcDbArc
 50
350.315193
 51
8.744737
  0
CIRCLE
  5
175
100
AcDbEntity
  8
0
100
AcDbCircle
 10
292.626098
 20
194.721725
 30
0.0
 40
1.3
  0
ARC
  5
176
100
AcDbEntity
  8
0
100
AcDbCircle
 10
292.626098
 20
194.721725
 30
0.0
 40
3.0
100
AcDbArc
 50
312.090095
 51
50.26117
  0
ARC
  5
177
100
AcDbEntity
  8
0
100
AcDbCircle
 10
292.626098
 20
194.721725
 30
0.0
 40
3.0
100
AcDbArc
 50
143.79876
 51
219.376714
  0
CIRCLE
  5
178
100
AcDbEntity
  8
0
100
AcDbCircle
 10
292.00994
 20
186.462676
 30
0.0
 40
1.3
  0
CIRCLE
  5
179
100
AcDbEntity
  8
0
100
AcDbCircle
 10
292.318019
 20
190.592201
 30
0.0
 40
1.3
  0
ARC
  5
17A
100
AcDbEntity
  8
0
100
AcDbCircle
 10
292.318019
 20
190.592201
 30
0.0
 40
3.0
100
AcDbArc
 50
21.091902
 51
39.376714
  0
LINE
  5
17B
100
AcDbEntity
  8
0
100
AcDbLine
 10
284.707362
 20
193.515726
 30
0.0
 11
289.738198
 21
192.123384
 31
0.0
  0
ARC
  5
17C
100
AcDbEntity
  8
0
100
AcDbCircle
 10
292.318019
 20
190.592201
 30
0.0
 40
3.0
100
AcDbArc
 50
132.090095
 51
149.309885
  0
ARC
  5
17D
100
AcDbEntity
  8
0
100
AcDbCircle
 10
276.883948
 20
194.850871
 30
0.0
 40
7.936524
100
AcDbArc
 50
80.315193
 51
98.744737
  0
CIRCLE
  5
17E
100
AcDbEntity
  8
0
100
AcDbCircle
 10
277.013094
 20
210.593022
 30
0.0
 40
1.3
  0
ARC
  5
17F
100
AcDbEntity
  8
0
100
AcDbCircle
 10
277.013094
 20
210.593022
 30
0.0
 40
3.0
100
AcDbArc
 50
38.79876
 51
140.26117
  0
ARC
  5
180
100
AcDbEntity
  8
0
100
AcDbCircle
 10
277.013094
 20
210.593022
 30
0.0
 40
3.0
100
AcDbArc
 50
233.79876
 51
305.26117
  0
ARC
  5
181
100
AcDbEntity
  8
0
100
AcDbCircle
 10
290.581623
 20
202.610102
 30
0.0
 40
3.0
100
AcDbArc
 50
338.79876
 51
80.26117
  0
LINE
  5
182
100
AcDbEntity
  8
0
100
AcDbLine
 10
278.219094
 20
202.674285
 30
0.0
 11
279.540819
 21
207.44997
 31
0.0
  0
LINE
  5
183
100
AcDbEntity
  8
0
100
AcDbLine
 10
279.761126
 20
202.24751
 30
0.0
 11
281.082851
 21
207.023195
 31
0.0
  0
CIRCLE
  5
184
100
AcDbEntity
  8
0
100
AcDbCircle
 10
288.10665
 20
205.890932
 30
0.0
 40
1.3
  0
ARC
  5
185
100
AcDbEntity
  8
0
100
AcDbCircle
 10
284.866867
 20
208.4194
 30
0.0
 40
3.0
100
AcDbArc
 50
203.79876
 51
275.26117
  0
ARC
  5
186
100
AcDbEntity
  8
0
100
AcDbCircle
 10
288.10665
 20
205.890932
 30
0.0
 40
3.0
100
AcDbArc
 50
353.79876
 51
95.26117
  0
LINE
  5
187
100
AcDbEntity
  8
0
100
AcDbLine
 10
281.951925
 20
200.958573
 30
0.0
 11
285.484416
 21
204.433576
 31
0.0
  0
CIRCLE
  5
188
100
AcDbEntity
  8
0
100
AcDbCircle
 10
290.581623
 20
202.610102
 30
0.0
 40
1.3
  0
ARC
  5
189
100
AcDbEntity
  8
0
100
AcDbCircle
 10
288.10665
 20
205.890932
 30
0.0
 40
3.0
100
AcDbArc
 50
188.79876
 51
209.063955
  0
ARC
  5
18A
100
AcDbEntity
  8
0
100
AcDbCircle
 10
288.10665
 20
205.890932
 30
0.0
 40
3.0
100
AcDbArc
 50
239.995975
 51
260.26117
  0
ARC
  5
18B
100
AcDbEntity
  8
0
100
AcDbCircle
 10
276.883948
 20
194.850871
 30
0.0
 40
7.936524
100
AcDbArc
 50
50.315193
 51
68.744737
  0
CIRCLE
  5
18C
100
AcDbEntity
  8
0
100
AcDbCircle
 10
284.866867
 20
208.4194
 30
0.0
 40
1.3
  0
ARC
  5
18D
100
AcDbEntity
  8
0
100
AcDbCircle
 10
284.866867
 20
208.4194
 30
0.0
 40
3.0
100
AcDbArc
 50
8.79876
 51
110.26117
  0
ARC
  5
18E
100
AcDbEntity
  8
0
100
AcDbCircle
 10
281.083062
 20
210.023195
 30
0.0
 40
3.0
100
AcDbArc
 50
23.79876
 51
125.26117
  0
CIRCLE
  5
18F
100
AcDbEntity
  8
0
100
AcDbCircle
 10
281.083062
 20
210.023195
 30
0.0
 40
1.3
  0
ARC
  5
190
100
AcDbEntity
  8
0
100
AcDbCircle
 10
281.083062
 20
210.023195
 30
0.0
 40
3.0
100
AcDbArc
 50
269.995975
 51
290.26117
  0
ARC
  5
191
100
AcDbEntity
  8
0
100
AcDbCircle
 10
281.083062
 20
210.023195
 30
0.0
 40
3.0
100
AcDbArc
 50
218.79876
 51
239.063955
  0
LINE
  5
192
100
AcDbEntity
  8
0
100
AcDbLine
 10
274.128511
 20
202.293719
 30
0.0
 11
272.885317
 21
207.090447
 31
0.0
  0
LINE
  5
193
100
AcDbEntity
  8
0
100
AcDbLine
 10
275.677338
 20
202.695137
 30
0.0
 11
274.434143
 21
207.491865
 31
0.0
  0
CIRCLE
  5
194
100
AcDbEntity
  8
0
100
AcDbCircle
 10
265.843887
 20
206.073573
 30
0.0
 40
1.3
  0
ARC
  5
195
100
AcDbEntity
  8
0
100
AcDbCircle
 10
265.843887
 20
206.073573
 30
0.0
 40
3.0
100
AcDbArc
 50
83.79876
 51
185.26117
  0
ARC
  5
196
100
AcDbEntity
  8
0
100
AcDbCircle
 10
269.124717
 20
208.548546
 30
0.0
 40
3.0
100
AcDbArc
 50
263.79876
 51
335.26117
  0
ARC
  5
197
100
AcDbEntity
  8
0
100
AcDbCircle
 10
276.883948
 20
194.850871
 30
0.0
 40
7.936524
100
AcDbArc
 50
110.315193
 51
128.744737
  0
ARC
  5
198
100
AcDbEntity
  8
0
100
AcDbCircle
 10
265.843887
 20
206.073573
 30
0.0
 40
3.0
100
AcDbArc
 50
329.995975
 51
350.26117
  0
LINE
  5
199
100
AcDbEntity
  8
0
100
AcDbLine
 10
271.91686
 20
201.040899
 30
0.0
 11
268.441858
 21
204.57339
 31
0.0
  0
CIRCLE
  5
19A
100
AcDbEntity
  8
0
100
AcDbCircle
 10
263.315419
 20
202.83379
 30
0.0
 40
1.3
  0
ARC
  5
19B
100
AcDbEntity
  8
0
100
AcDbCircle
 10
265.843887
 20
206.073573
 30
0.0
 40
3.0
100
AcDbArc
 50
278.79876
 51
299.063955
  0
CIRCLE
  5
19C
100
AcDbEntity
  8
0
100
AcDbCircle
 10
269.124717
 20
208.548546
 30
0.0
 40
1.3
  0
ARC
  5
19D
100
AcDbEntity
  8
0
100
AcDbCircle
 10
269.124717
 20
208.548546
 30
0.0
 40
3.0
100
AcDbArc
 50
68.79876
 51
170.26117
  0
ARC
  5
19E
100
AcDbEntity
  8
0
100
AcDbCircle
 10
272.934326
 20
210.090046
 30
0.0
 40
3.0
100
AcDbArc
 50
53.79876
 51
155.26117
  0
ARC
  5
19F
100
AcDbEntity
  8
0
100
AcDbCircle
 10
272.934326
 20
210.090046
 30
0.0
 40
3.0
100
AcDbArc
 50
248.79876
 51
269.063955
  0
CIRCLE
  5
1A0
100
AcDbEntity
  8
0
100
AcDbCircle
 10
272.934326
 20
210.090046
 30
0.0
 40
1.3
  0
ARC
  5
1A1
100
AcDbEntity
  8
0
100
AcDbCircle
 10
272.934326
 20
210.090046
 30
0.0
 40
3.0
100
AcDbArc
 50
299.995975
 51
320.26117
  0
ARC
  5
1A2
100
AcDbEntity
  8
0
100
AcDbCircle
 10
263.315419
 20
202.83379
 30
0.0
 40
3.0
100
AcDbArc
 50
98.79876
 51
196.969835
  0
ARC
  5
1A3
100
AcDbEntity
  8
0
100
AcDbCircle
 10
261.456502
 20
199.133478
 30
0.0
 40
3.0
100
AcDbArc
 50
109.683215
 51
128.289786
  0
LINE
  5
1A5
100
AcDbEntity
  8
0
100
AcDbLine
 10
313.451603
 20
178.8945
 30
0.0
 11
318.31508
 21
179.843564
 31
0.0
  0
ARC
  5
1A6
100
AcDbEntity
  8
0
100
AcDbCircle
 10
319.99927
 20
183.508488
 30
0.0
 40
3.0
100
AcDbArc
 50
170.310786
 51
241.773196
  0
ARC
  5
1A7
100
AcDbEntity
  8
0
100
AcDbCircle
 10
319.99927
 20
183.508488
 30
0.0
 40
3.0
100
AcDbArc
 50
335.310786
 51
76.773196
  0
ARC
  5
1A8
100
AcDbEntity
  8
0
100
AcDbCircle
 10
321.560037
 20
175.510339
 30
0.0
 40
3.0
100
AcDbArc
 50
140.310786
 51
211.773196
  0
ARC
  5
1A9
100
AcDbEntity
  8
0
100
AcDbCircle
 10
320.743653
 20
171.482578
 30
0.0
 40
3.0
100
AcDbArc
 50
290.310786
 51
31.773196
  0
CIRCLE
  5
1AA
100
AcDbEntity
  8
0
100
AcDbCircle
 10
320.743653
 20
171.482578
 30
0.0
 40
1.3
  0
LINE
  5
1AB
100
AcDbEntity
  8
0
100
AcDbLine
 10
313.758049
 20
177.324121
 30
0.0
 11
318.621526
 21
178.273184
 31
0.0
  0
LINE
  5
1AC
100
AcDbEntity
  8
0
100
AcDbLine
 10
313.062797
 20
173.275131
 30
0.0
 11
317.749223
 21
171.665305
 31
0.0
  0
LINE
  5
1AD
100
AcDbEntity
  8
0
100
AcDbLine
 10
311.642962
 20
171.166808
 30
0.0
 11
315.070447
 21
167.229769
 31
0.0
  0
ARC
  5
1AE
100
AcDbEntity
  8
0
100
AcDbCircle
 10
318.912626
 20
167.803355
 30
0.0
 40
3.0
100
AcDbArc
 50
110.310786
 51
185.888741
  0
CIRCLE
  5
1AF
100
AcDbEntity
  8
0
100
AcDbCircle
 10
316.377173
 20
164.529312
 30
0.0
 40
1.3
  0
ARC
  5
1B0
100
AcDbEntity
  8
0
100
AcDbCircle
 10
316.377173
 20
164.529312
 30
0.0
 40
3.0
100
AcDbArc
 50
98.602121
 51
115.821911
  0
CIRCLE
  5
1B1
100
AcDbEntity
  8
0
100
AcDbCircle
 10
318.912626
 20
167.803355
 30
0.0
 40
1.3
  0
ARC
  5
1B2
100
AcDbEntity
  8
0
100
AcDbCircle
 10
318.912626
 20
167.803355
 30
0.0
 40
3.0
100
AcDbArc
 50
278.602121
 51
16.773196
  0
ARC
  5
1B3
100
AcDbEntity
  8
0
100
AcDbCircle
 10
320.743653
 20
171.482578
 30
0.0
 40
3.0
100
AcDbArc
 50
176.508001
 51
196.773196
  0
ARC
  5
1B4
100
AcDbEntity
  8
0
100
AcDbCircle
 10
305.854905
 20
176.596983
 30
0.0
 40
7.936524
100
AcDbArc
 50
316.827219
 51
335.256763
  0
LINE
  5
1B5
100
AcDbEntity
  8
0
100
AcDbLine
 10
313.582597
 20
174.788342
 30
0.0
 11
318.269023
 21
173.178517
 31
0.0
  0
ARC
  5
1B6
100
AcDbEntity
  8
0
100
AcDbCircle
 10
320.743653
 20
171.482578
 30
0.0
 40
3.0
100
AcDbArc
 50
125.310786
 51
145.575981
  0
ARC
  5
1B7
100
AcDbEntity
  8
0
100
AcDbCircle
 10
305.854905
 20
176.596983
 30
0.0
 40
7.936524
100
AcDbArc
 50
346.827219
 51
5.256763
  0
ARC
  5
1B8
100
AcDbEntity
  8
0
100
AcDbCircle
 10
321.560037
 20
175.510339
 30
0.0
 40
3.0
100
AcDbArc
 50
305.310786
 51
46.773196
  0
ARC
  5
1B9
100
AcDbEntity
  8
0
100
AcDbCircle
 10
321.306142
 20
179.612153
 30
0.0
 40
3.0
100
AcDbArc
 50
320.310786
 51
61.773196
  0
CIRCLE
  5
1BA
100
AcDbEntity
  8
0
100
AcDbCircle
 10
321.560037
 20
175.510339
 30
0.0
 40
1.3
  0
ARC
  5
1BB
100
AcDbEntity
  8
0
100
AcDbCircle
 10
321.306142
 20
179.612153
 30
0.0
 40
3.0
100
AcDbArc
 50
155.310786
 51
175.575981
  0
CIRCLE
  5
1BC
100
AcDbEntity
  8
0
100
AcDbCircle
 10
321.306142
 20
179.612153
 30
0.0
 40
1.3
  0
ARC
  5
1BD
100
AcDbEntity
  8
0
100
AcDbCircle
 10
321.306142
 20
179.612153
 30
0.0
 40
3.0
100
AcDbArc
 50
206.508001
 51
226.773196
  0
ARC
  5
1BE
100
AcDbEntity
  8
0
100
AcDbCircle
 10
306.941549
 20
192.302115
 30
0.0
 40
3.0
100
AcDbArc
 50
35.310786
 51
136.773196
  0
CIRCLE
  5
1BF
100
AcDbEntity
  8
0
100
AcDbCircle
 10
302.839735
 20
192.04822
 30
0.0
 40
1.3
  0
ARC
  5
1C0
100
AcDbEntity
  8
0
100
AcDbCircle
 10
310.96931
 20
191.485732
 30
0.0
 40
3.0
100
AcDbArc
 50
20.310786
 51
121.773196
  0
ARC
  5
1C1
100
AcDbEntity
  8
0
100
AcDbCircle
 10
314.648532
 20
189.654704
 30
0.0
 40
3.0
100
AcDbArc
 50
200.310786
 51
271.773196
  0
CIRCLE
  5
1C2
100
AcDbEntity
  8
0
100
AcDbCircle
 10
310.96931
 20
191.485732
 30
0.0
 40
1.3
  0
LINE
  5
1C3
100
AcDbEntity
  8
0
100
AcDbLine
 10
311.28508
 20
182.38504
 30
0.0
 11
315.022443
 21
185.638692
 31
0.0
  0
LINE
  5
1C4
100
AcDbEntity
  8
0
100
AcDbLine
 10
312.335659
 20
181.178275
 30
0.0
 11
316.073022
 21
184.431926
 31
0.0
  0
LINE
  5
1C5
100
AcDbEntity
  8
0
100
AcDbLine
 10
309.176757
 20
183.804875
 30
0.0
 11
310.786582
 21
188.491302
 31
0.0
  0
ARC
  5
1C6
100
AcDbEntity
  8
0
100
AcDbCircle
 10
305.854905
 20
176.596983
 30
0.0
 40
7.936524
100
AcDbArc
 50
76.827219
 51
95.256763
  0
LINE
  5
1C7
100
AcDbEntity
  8
0
100
AcDbLine
 10
307.663546
 20
184.324675
 30
0.0
 11
309.273371
 21
189.011102
 31
0.0
  0
ARC
  5
1C8
100
AcDbEntity
  8
0
100
AcDbCircle
 10
305.854905
 20
176.596983
 30
0.0
 40
7.936524
100
AcDbArc
 50
16.827219
 51
35.256763
  0
ARC
  5
1C9
100
AcDbEntity
  8
0
100
AcDbCircle
 10
305.854905
 20
176.596983
 30
0.0
 40
7.936524
100
AcDbArc
 50
46.827219
 51
65.256763
  0
ARC
  5
1CA
100
AcDbEntity
  8
0
100
AcDbCircle
 10
306.941549
 20
192.302115
 30
0.0
 40
3.0
100
AcDbArc
 50
230.310786
 51
301.773196
  0
LINE
  5
1CB
100
AcDbEntity
  8
0
100
AcDbLine
 10
305.127767
 20
184.500127
 30
0.0
 11
304.178703
 21
189.363604
 31
0.0
  0
ARC
  5
1CC
100
AcDbEntity
  8
0
100
AcDbCircle
 10
302.839735
 20
192.04822
 30
0.0
 40
3.0
100
AcDbArc
 50
296.508001
 51
316.773196
  0
ARC
  5
1CD
100
AcDbEntity
  8
0
100
AcDbCircle
 10
310.96931
 20
191.485732
 30
0.0
 40
3.0
100
AcDbArc
 50
215.310786
 51
235.575981
  0
ARC
  5
1CE
100
AcDbEntity
  8
0
100
AcDbCircle
 10
310.96931
 20
191.485732
 30
0.0
 40
3.0
100
AcDbArc
 50
266.508001
 51
286.773196
  0
CIRCLE
  5
1CF
100
AcDbEntity
  8
0
100
AcDbCircle
 10
306.941549
 20
192.302115
 30
0.0
 40
1.3
  0
ARC
  5
1D0
100
AcDbEntity
  8
0
100
AcDbCircle
 10
317.728484
 20
186.933815
 30
0.0
 40
3.0
100
AcDbArc
 50
350.310786
 51
91.773196
  0
ARC
  5
1D1
100
AcDbEntity
  8
0
100
AcDbCircle
 10
314.648532
 20
189.654704
 30
0.0
 40
3.0
100
AcDbArc
 50
5.310786
 51
106.773196
  0
CIRCLE
  5
1D2
100
AcDbEntity
  8
0
100
AcDbCircle
 10
314.648532
 20
189.654704
 30
0.0
 40
1.3
  0
ARC
  5
1D3
100
AcDbEntity
  8
0
100
AcDbCircle
 10
317.728484
 20
186.933815
 30
0.0
 40
3.0
100
AcDbArc
 50
236.508001
 51
256.773196
  0
CIRCLE
  5
1D4
100
AcDbEntity
  8
0
100
AcDbCircle
 10
319.99927
 20
183.508488
 30
0.0
 40
1.3
  0
ARC
  5
1D5
100
AcDbEntity
  8
0
100
AcDbCircle
 10
317.728484
 20
186.933815
 30
0.0
 40
3.0
100
AcDbArc
 50
185.310786
 51
205.575981
  0
CIRCLE
  5
1D6
100
AcDbEntity
  8
0
100
AcDbCircle
 10
317.728484
 20
186.933815
 30
0.0
 40
1.3
  0
ARC
  5
1D7
100
AcDbEntity
  8
0
100
AcDbCircle
 10
316.377173
 20
164.529312
 30
0.0
 40
3.0
100
AcDbArc
 50
347.28217
 51
5.888741
  0
ARC
  5
1D8
100
AcDbEntity
  8
0
100
AcDbCircle
 10
298.9434
 20
190.741348
 30
0.0
 40
3.0
100
AcDbArc
 50
256.195241
 51
331.773196
  0
ARC
  5
1D9
100
AcDbEntity
  8
0
100
AcDbCircle
 10
298.9434
 20
190.741348
 30
0.0
 40
3.0
100
AcDbArc
 50
65.310786
 51
163.481861
  0
CIRCLE
  5
1DA
100
AcDbEntity
  8
0
100
AcDbCircle
 10
298.9434
 20
190.741348
 30
0.0
 40
1.3
  0
ARC
  5
1DB
100
AcDbEntity
  8
0
100
AcDbCircle
 10
305.854905
 20
176.596983
 30
0.0
 40
7.936524
100
AcDbArc
 50
106.827219
 51
125.256763
  0
LINE
  5
1DC
100
AcDbEntity
  8
0
100
AcDbLine
 10
303.557388
 20
184.193681
 30
0.0
 11
302.608324
 21
189.057158
 31
0.0
  0
ARC
  5
1DD
100
AcDbEntity
  8
0
100
AcDbCircle
 10
302.839735
 20
192.04822
 30
0.0
 40
3.0
100
AcDbArc
 50
245.310786
 51
265.575981
  0
ARC
  5
1DE
100
AcDbEntity
  8
0
100
AcDbCircle
 10
302.839735
 20
192.04822
 30
0.0
 40
3.0
100
AcDbArc
 50
50.310786
 51
151.773196
  0
ARC
  5
1DF
100
AcDbEntity
  8
0
100
AcDbCircle
 10
295.351368
 20
188.680962
 30
0.0
 40
3.0
100
AcDbArc
 50
76.195241
 51
94.480054
  0
CIRCLE
  5
1E0
100
AcDbEntity
  8
0
100
AcDbCircle
 10
295.351368
 20
188.680962
 30
0.0
 40
1.3
  0
LINE
  5
1E1
100
AcDbEntity
  8
0
100
AcDbLine
 10
301.273613
 20
183.077738
 30
0.0
 11
297.846128
 21
187.014777
 31
0.0
  0
ARC
  5
1E2
100
AcDbEntity
  8
0
100
AcDbCircle
 10
295.351368
 20
188.680962
 30
0.0
 40
3.0
100
AcDbArc
 50
326.262071
 51
343.481861
  0
CIRCLE
  5
1E3
100
AcDbEntity
  8
0
100
AcDbCircle
 10
313.84172
 20
161.255268
 30
0.0
 40
1.3
  0
ARC
  5
1E4
100
AcDbEntity
  8
0
100
AcDbCircle
 10
216.355434
 20
192.04822
 30
0.0
 40
3.0
100
AcDbArc
 50
28.226804
 51
129.689214
  0
ARC
  5
1E5
100
AcDbEntity
  8
0
100
AcDbCircle
 10
208.22586
 20
191.485732
 30
0.0
 40
3.0
100
AcDbArc
 50
58.226804
 51
159.689214
  0
ARC
  5
1E6
100
AcDbEntity
  8
0
100
AcDbCircle
 10
212.25362
 20
192.302115
 30
0.0
 40
3.0
100
AcDbArc
 50
43.226804
 51
144.689214
  0
ARC
  5
1E7
100
AcDbEntity
  8
0
100
AcDbCircle
 10
212.25362
 20
192.302115
 30
0.0
 40
3.0
100
AcDbArc
 50
238.226804
 51
309.689214
  0
LINE
  5
1E8
100
AcDbEntity
  8
0
100
AcDbLine
 10
211.531623
 20
184.324675
 30
0.0
 11
209.921798
 21
189.011102
 31
0.0
  0
LINE
  5
1E9
100
AcDbEntity
  8
0
100
AcDbLine
 10
217.921556
 20
183.077738
 30
0.0
 11
221.349041
 21
187.014777
 31
0.0
  0
ARC
  5
1EA
100
AcDbEntity
  8
0
100
AcDbCircle
 10
213.340265
 20
176.596983
 30
0.0
 40
7.936524
100
AcDbArc
 50
54.743237
 51
73.172781
  0
CIRCLE
  5
1EB
100
AcDbEntity
  8
0
100
AcDbCircle
 10
220.251769
 20
190.741348
 30
0.0
 40
1.3
  0
ARC
  5
1EC
100
AcDbEntity
  8
0
100
AcDbCircle
 10
220.251769
 20
190.741348
 30
0.0
 40
3.0
100
AcDbArc
 50
208.226804
 51
283.804759
  0
CIRCLE
  5
1ED
100
AcDbEntity
  8
0
100
AcDbCircle
 10
223.843801
 20
188.680962
 30
0.0
 40
1.3
  0
ARC
  5
1EE
100
AcDbEntity
  8
0
100
AcDbCircle
 10
223.843801
 20
188.680962
 30
0.0
 40
3.0
100
AcDbArc
 50
196.518139
 51
213.737929
  0
ARC
  5
1EF
100
AcDbEntity
  8
0
100
AcDbCircle
 10
220.251769
 20
190.741348
 30
0.0
 40
3.0
100
AcDbArc
 50
16.518139
 51
114.689214
  0
ARC
  5
1F0
100
AcDbEntity
  8
0
100
AcDbCircle
 10
216.355434
 20
192.04822
 30
0.0
 40
3.0
100
AcDbArc
 50
274.424019
 51
294.689214
  0
LINE
  5
1F1
100
AcDbEntity
  8
0
100
AcDbLine
 10
214.067402
 20
184.500127
 30
0.0
 11
215.016466
 21
189.363604
 31
0.0
  0
LINE
  5
1F2
100
AcDbEntity
  8
0
100
AcDbLine
 10
215.637782
 20
184.193681
 30
0.0
 11
216.586845
 21
189.057158
 31
0.0
  0
ARC
  5
1F3
100
AcDbEntity
  8
0
100
AcDbCircle
 10
213.340265
 20
176.596983
 30
0.0
 40
7.936524
100
AcDbArc
 50
84.743237
 51
103.172781
  0
ARC
  5
1F4
100
AcDbEntity
  8
0
100
AcDbCircle
 10
216.355434
 20
192.04822
 30
0.0
 40
3.0
100
AcDbArc
 50
223.226804
 51
243.491999
  0
CIRCLE
  5
1F5
100
AcDbEntity
  8
0
100
AcDbCircle
 10
216.355434
 20
192.04822
 30
0.0
 40
1.3
  0
CIRCLE
  5
1F6
100
AcDbEntity
  8
0
100
AcDbCircle
 10
212.25362
 20
192.302115
 30
0.0
 40
1.3
  0
ARC
  5
1F7
100
AcDbEntity
  8
0
100
AcDbCircle
 10
213.340265
 20
176.596983
 30
0.0
 40
7.936524
100
AcDbArc
 50
114.743237
 51
133.172781
  0
LINE
  5
1F8
100
AcDbEntity
  8
0
100
AcDbLine
 10
206.85951
 20
181.178275
 30
0.0
 11
203.122147
 21
184.431926
 31
0.0
  0
LINE
  5
1F9
100
AcDbEntity
  8
0
100
AcDbLine
 10
207.910089
 20
182.38504
 30
0.0
 11
204.172726
 21
185.638692
 31
0.0
  0
ARC
  5
1FA
100
AcDbEntity
  8
0
100
AcDbCircle
 10
213.340265
 20
176.596983
 30
0.0
 40
7.936524
100
AcDbArc
 50
144.743237
 51
163.172781
  0
ARC
  5
1FB
100
AcDbEntity
  8
0
100
AcDbCircle
 10
208.22586
 20
191.485732
 30
0.0
 40
3.0
100
AcDbArc
 50
304.424019
 51
324.689214
  0
ARC
  5
1FC
100
AcDbEntity
  8
0
100
AcDbCircle
 10
204.546637
 20
189.654704
 30
0.0
 40
3.0
100
AcDbArc
 50
268.226804
 51
339.689214
  0
ARC
  5
1FD
100
AcDbEntity
  8
0
100
AcDbCircle
 10
208.22586
 20
191.485732
 30
0.0
 40
3.0
100
AcDbArc
 50
253.226804
 51
273.491999
  0
LINE
  5
1FE
100
AcDbEntity
  8
0
100
AcDbLine
 10
210.018412
 20
183.804875
 30
0.0
 11
208.408587
 21
188.491302
 31
0.0
  0
CIRCLE
  5
1FF
100
AcDbEntity
  8
0
100
AcDbCircle
 10
208.22586
 20
191.485732
 30
0.0
 40
1.3
  0
ARC
  5
200
100
AcDbEntity
  8
0
100
AcDbCircle
 10
223.843801
 20
188.680962
 30
0.0
 40
3.0
100
AcDbArc
 50
85.519946
 51
103.804759
  0
CIRCLE
  5
201
100
AcDbEntity
  8
0
100
AcDbCircle
 10
199.195899
 20
183.508488
 30
0.0
 40
1.3
  0
ARC
  5
202
100
AcDbEntity
  8
0
100
AcDbCircle
 10
199.195899
 20
183.508488
 30
0.0
 40
3.0
100
AcDbArc
 50
103.226804
 51
204.689214
  0
ARC
  5
203
100
AcDbEntity
  8
0
100
AcDbCircle
 10
199.195899
 20
183.508488
 30
0.0
 40
3.0
100
AcDbArc
 50
298.226804
 51
9.689214
  0
LINE
  5
204
100
AcDbEntity
  8
0
100
AcDbLine
 10
205.437121
 20
177.324121
 30
0.0
 11
200.573644
 21
178.273184
 31
0.0
  0
LINE
  5
205
100
AcDbEntity
  8
0
100
AcDbLine
 10
205.743566
 20
178.8945
 30
0.0
 11
200.880089
 21
179.843564
 31
0.0
  0
ARC
  5
206
100
AcDbEntity
  8
0
100
AcDbCircle
 10
213.340265
 20
176.596983
 30
0.0
 40
7.936524
100
AcDbArc
 50
174.743237
 51
193.172781
  0
ARC
  5
207
100
AcDbEntity
  8
0
100
AcDbCircle
 10
197.889028
 20
179.612153
 30
0.0
 40
3.0
100
AcDbArc
 50
313.226804
 51
333.491999
  0
ARC
  5
208
100
AcDbEntity
  8
0
100
AcDbCircle
 10
197.635132
 20
175.510339
 30
0.0
 40
3.0
100
AcDbArc
 50
133.226804
 51
234.689214
  0
CIRCLE
  5
209
100
AcDbEntity
  8
0
100
AcDbCircle
 10
197.635132
 20
175.510339
 30
0.0
 40
1.3
  0
ARC
  5
20A
100
AcDbEntity
  8
0
100
AcDbCircle
 10
197.635132
 20
175.510339
 30
0.0
 40
3.0
100
AcDbArc
 50
328.226804
 51
39.689214
  0
CIRCLE
  5
20B
100
AcDbEntity
  8
0
100
AcDbCircle
 10
197.889028
 20
179.612153
 30
0.0
 40
1.3
  0
ARC
  5
20C
100
AcDbEntity
  8
0
100
AcDbCircle
 10
197.889028
 20
179.612153
 30
0.0
 40
3.0
100
AcDbArc
 50
4.424019
 51
24.689214
  0
ARC
  5
20D
100
AcDbEntity
  8
0
100
AcDbCircle
 10
197.889028
 20
179.612153
 30
0.0
 40
3.0
100
AcDbArc
 50
118.226804
 51
219.689214
  0
CIRCLE
  5
20E
100
AcDbEntity
  8
0
100
AcDbCircle
 10
201.466686
 20
186.933815
 30
0.0
 40
1.3
  0
ARC
  5
20F
100
AcDbEntity
  8
0
100
AcDbCircle
 10
201.466686
 20
186.933815
 30
0.0
 40
3.0
100
AcDbArc
 50
283.226804
 51
303.491999
  0
ARC
  5
210
100
AcDbEntity
  8
0
100
AcDbCircle
 10
204.546637
 20
189.654704
 30
0.0
 40
3.0
100
AcDbArc
 50
73.226804
 51
174.689214
  0
CIRCLE
  5
211
100
AcDbEntity
  8
0
100
AcDbCircle
 10
204.546637
 20
189.654704
 30
0.0
 40
1.3
  0
ARC
  5
212
100
AcDbEntity
  8
0
100
AcDbCircle
 10
201.466686
 20
186.933815
 30
0.0
 40
3.0
100
AcDbArc
 50
334.424019
 51
354.689214
  0
ARC
  5
213
100
AcDbEntity
  8
0
100
AcDbCircle
 10
201.466686
 20
186.933815
 30
0.0
 40
3.0
100
AcDbArc
 50
88.226804
 51
189.689214
  0
ARC
  5
214
100
AcDbEntity
  8
0
100
AcDbCircle
 10
213.340265
 20
176.596983
 30
0.0
 40
7.936524
100
AcDbArc
 50
204.743237
 51
223.172781
  0
LINE
  5
215
100
AcDbEntity
  8
0
100
AcDbLine
 10
206.132372
 20
173.275131
 30
0.0
 11
201.445946
 21
171.665305
 31
0.0
  0
CIRCLE
  5
216
100
AcDbEntity
  8
0
100
AcDbCircle
 10
198.451516
 20
171.482578
 30
0.0
 40
1.3
  0
ARC
  5
217
100
AcDbEntity
  8
0
100
AcDbCircle
 10
198.451516
 20
171.482578
 30
0.0
 40
3.0
100
AcDbArc
 50
148.226804
 51
249.689214
  0
ARC
  5
218
100
AcDbEntity
  8
0
100
AcDbCircle
 10
200.282543
 20
167.803355
 30
0.0
 40
3.0
100
AcDbArc
 50
354.111259
 51
69.689214
  0
LINE
  5
219
100
AcDbEntity
  8
0
100
AcDbLine
 10
207.552207
 20
171.166808
 30
0.0
 11
204.124722
 21
167.229769
 31
0.0
  0
ARC
  5
21A
100
AcDbEntity
  8
0
100
AcDbCircle
 10
202.817996
 20
164.529312
 30
0.0
 40
3.0
100
AcDbArc
 50
64.178089
 51
81.397879
  0
ARC
  5
21B
100
AcDbEntity
  8
0
100
AcDbCircle
 10
200.282543
 20
167.803355
 30
0.0
 40
3.0
100
AcDbArc
 50
163.226804
 51
261.397879
  0
ARC
  5
21C
100
AcDbEntity
  8
0
100
AcDbCircle
 10
198.451516
 20
171.482578
 30
0.0
 40
3.0
100
AcDbArc
 50
343.226804
 51
3.491999
  0
CIRCLE
  5
21D
100
AcDbEntity
  8
0
100
AcDbCircle
 10
200.282543
 20
167.803355
 30
0.0
 40
1.3
  0
LINE
  5
21E
100
AcDbEntity
  8
0
100
AcDbLine
 10
205.612572
 20
174.788342
 30
0.0
 11
200.926146
 21
173.178517
 31
0.0
  0
ARC
  5
21F
100
AcDbEntity
  8
0
100
AcDbCircle
 10
198.451516
 20
171.482578
 30
0.0
 40
3.0
100
AcDbArc
 50
34.424019
 51
54.689214
  0
CIRCLE
  5
220
100
AcDbEntity
  8
0
100
AcDbCircle
 10
205.35345
 20
161.255268
 30
0.0
 40
1.3
  0
CIRCLE
  5
221
100
AcDbEntity
  8
0
100
AcDbCircle
 10
202.817996
 20
164.529312
 30
0.0
 40
1.3
  0
ARC
  5
222
100
AcDbEntity
  8
0
100
AcDbCircle
 10
202.817996
 20
164.529312
 30
0.0
 40
3.0
100
AcDbArc
 50
174.111259
 51
192.71783
  0
ARC
  5
224
100
AcDbEntity
  8
0
100
AcDbCircle
 10
317.981955
 20
161.175662
 30
0.0
 40
3.0
100
AcDbArc
 50
18.272208
 51
63.861741
  0
ARC
  5
225
100
AcDbEntity
  8
0
100
AcDbCircle
 10
321.635371
 20
159.226191
 30
0.0
 40
3.0
100
AcDbArc
 50
9.103337
 51
105.558827
  0
CIRCLE
  5
226
100
AcDbEntity
  8
0
100
AcDbCircle
 10
321.635371
 20
159.226191
 30
0.0
 40
1.3
  0
CIRCLE
  5
227
100
AcDbEntity
  8
0
100
AcDbCircle
 10
317.981955
 20
161.175662
 30
0.0
 40
1.3
  0
LINE
  5
22B
100
AcDbEntity
  8
0
100
AcDbLine
 10
340.67815
 20
152.772817
 30
0.0
 11
339.434955
 21
157.569545
 31
0.0
  0
ARC
  5
22C
100
AcDbEntity
  8
0
100
AcDbCircle
 10
342.013906
 20
160.670702
 30
0.0
 40
3.0
100
AcDbArc
 50
233.79876
 51
305.26117
  0
ARC
  5
22D
100
AcDbEntity
  8
0
100
AcDbCircle
 10
342.013906
 20
160.670702
 30
0.0
 40
3.0
100
AcDbArc
 50
38.79876
 51
140.26117
  0
ARC
  5
22E
100
AcDbEntity
  8
0
100
AcDbCircle
 10
334.125529
 20
158.626227
 30
0.0
 40
3.0
100
AcDbArc
 50
263.79876
 51
335.26117
  0
ARC
  5
22F
100
AcDbEntity
  8
0
100
AcDbCircle
 10
330.844699
 20
156.151253
 30
0.0
 40
3.0
100
AcDbArc
 50
83.79876
 51
185.26117
  0
CIRCLE
  5
230
100
AcDbEntity
  8
0
100
AcDbCircle
 10
330.844699
 20
156.151253
 30
0.0
 40
1.3
  0
LINE
  5
231
100
AcDbEntity
  8
0
100
AcDbLine
 10
339.129323
 20
152.371399
 30
0.0
 11
337.886129
 21
157.168127
 31
0.0
  0
LINE
  5
232
100
AcDbEntity
  8
0
100
AcDbLine
 10
335.777058
 20
149.996528
 30
0.0
 11
332.302056
 21
153.529019
 31
0.0
  0
LINE
  5
233
100
AcDbEntity
  8
0
100
AcDbLine
 10
334.488122
 20
147.805729
 30
0.0
 11
329.457285
 21
149.198071
 31
0.0
  0
ARC
  5
234
100
AcDbEntity
  8
0
100
AcDbCircle
 10
328.316231
 20
152.911471
 30
0.0
 40
3.0
100
AcDbArc
 50
289.683215
 51
5.26117
  0
CIRCLE
  5
235
100
AcDbEntity
  8
0
100
AcDbCircle
 10
326.457314
 20
149.211158
 30
0.0
 40
1.3
  0
ARC
  5
236
100
AcDbEntity
  8
0
100
AcDbCircle
 10
326.457314
 20
149.211158
 30
0.0
 40
3.0
100
AcDbArc
 50
359.750044
 51
16.969835
  0
CIRCLE
  5
237
100
AcDbEntity
  8
0
100
AcDbCircle
 10
328.316231
 20
152.911471
 30
0.0
 40
1.3
  0
ARC
  5
238
100
AcDbEntity
  8
0
100
AcDbCircle
 10
328.316231
 20
152.911471
 30
0.0
 40
3.0
100
AcDbArc
 50
98.79876
 51
196.969835
  0
ARC
  5
239
100
AcDbEntity
  8
0
100
AcDbCircle
 10
330.844699
 20
156.151253
 30
0.0
 40
3.0
100
AcDbArc
 50
278.79876
 51
299.063955
  0
ARC
  5
23A
100
AcDbEntity
  8
0
100
AcDbCircle
 10
341.88476
 20
144.928552
 30
0.0
 40
7.936524
100
AcDbArc
 50
140.315193
 51
158.744737
  0
LINE
  5
23B
100
AcDbEntity
  8
0
100
AcDbLine
 10
336.917672
 20
151.11858
 30
0.0
 11
333.44267
 21
154.651071
 31
0.0
  0
ARC
  5
23C
100
AcDbEntity
  8
0
100
AcDbCircle
 10
330.844699
 20
156.151253
 30
0.0
 40
3.0
100
AcDbArc
 50
329.995975
 51
350.26117
  0
ARC
  5
23D
100
AcDbEntity
  8
0
100
AcDbCircle
 10
341.88476
 20
144.928552
 30
0.0
 40
7.936524
100
AcDbArc
 50
110.315193
 51
128.744737
  0
ARC
  5
23E
100
AcDbEntity
  8
0
100
AcDbCircle
 10
334.125529
 20
158.626227
 30
0.0
 40
3.0
100
AcDbArc
 50
68.79876
 51
170.26117
  0
ARC
  5
23F
100
AcDbEntity
  8
0
100
AcDbCircle
 10
337.935138
 20
160.167727
 30
0.0
 40
3.0
100
AcDbArc
 50
53.79876
 51
155.26117
  0
CIRCLE
  5
240
100
AcDbEntity
  8
0
100
AcDbCircle
 10
334.125529
 20
158.626227
 30
0.0
 40
1.3
  0
ARC
  5
241
100
AcDbEntity
  8
0
100
AcDbCircle
 10
337.935138
 20
160.167727
 30
0.0
 40
3.0
100
AcDbArc
 50
299.995975
 51
320.26117
  0
CIRCLE
  5
242
100
AcDbEntity
  8
0
100
AcDbCircle
 10
337.935138
 20
160.167727
 30
0.0
 40
1.3
  0
ARC
  5
243
100
AcDbEntity
  8
0
100
AcDbCircle
 10
337.935138
 20
160.167727
 30
0.0
 40
3.0
100
AcDbArc
 50
248.79876
 51
269.063955
  0
ARC
  5
244
100
AcDbEntity
  8
0
100
AcDbCircle
 10
367.840547
 20
142.1259
 30
0.0
 40
3.0
100
AcDbArc
 50
50.310786
 51
151.773196
  0
ARC
  5
245
100
AcDbEntity
  8
0
100
AcDbCircle
 10
375.970122
 20
141.563412
 30
0.0
 40
3.0
100
AcDbArc
 50
20.310786
 51
121.773196
  0
ARC
  5
246
100
AcDbEntity
  8
0
100
AcDbCircle
 10
371.942361
 20
142.379796
 30
0.0
 40
3.0
100
AcDbArc
 50
35.310786
 51
136.773196
  0
ARC
  5
247
100
AcDbEntity
  8
0
100
AcDbCircle
 10
357.62691
 20
144.799406
 30
0.0
 40
3.0
100
AcDbArc
 50
143.79876
 51
219.376714
  0
ARC
  5
248
100
AcDbEntity
  8
0
100
AcDbCircle
 10
357.62691
 20
144.799406
 30
0.0
 40
3.0
100
AcDbArc
 50
312.090095
 51
50.26117
  0
CIRCLE
  5
249
100
AcDbEntity
  8
0
100
AcDbCircle
 10
357.62691
 20
144.799406
 30
0.0
 40
1.3
  0
ARC
  5
24A
100
AcDbEntity
  8
0
100
AcDbCircle
 10
341.88476
 20
144.928552
 30
0.0
 40
7.936524
100
AcDbArc
 50
350.315193
 51
8.744737
  0
ARC
  5
24B
100
AcDbEntity
  8
0
100
AcDbCircle
 10
371.942361
 20
142.379796
 30
0.0
 40
3.0
100
AcDbArc
 50
230.310786
 51
301.773196
  0
LINE
  5
24C
100
AcDbEntity
  8
0
100
AcDbLine
 10
372.664358
 20
134.402356
 30
0.0
 11
374.274183
 21
139.088782
 31
0.0
  0
CIRCLE
  5
24D
100
AcDbEntity
  8
0
100
AcDbCircle
 10
357.318831
 20
140.669881
 30
0.0
 40
1.3
  0
CIRCLE
  5
24E
100
AcDbEntity
  8
0
100
AcDbCircle
 10
357.010752
 20
136.540357
 30
0.0
 40
1.3
  0
LINE
  5
24F
100
AcDbEntity
  8
0
100
AcDbLine
 10
349.708174
 20
143.593406
 30
0.0
 11
354.73901
 21
142.201065
 31
0.0
  0
ARC
  5
250
100
AcDbEntity
  8
0
100
AcDbCircle
 10
357.318831
 20
140.669881
 30
0.0
 40
3.0
100
AcDbArc
 50
132.090095
 51
149.309885
  0
LINE
  5
251
100
AcDbEntity
  8
0
100
AcDbLine
 10
366.274425
 20
133.155418
 30
0.0
 11
362.84694
 21
137.092457
 31
0.0
  0
ARC
  5
252
100
AcDbEntity
  8
0
100
AcDbCircle
 10
370.855717
 20
126.674663
 30
0.0
 40
7.936524
100
AcDbArc
 50
106.827219
 51
125.256763
  0
CIRCLE
  5
253
100
AcDbEntity
  8
0
100
AcDbCircle
 10
363.944212
 20
140.819029
 30
0.0
 40
1.3
  0
ARC
  5
254
100
AcDbEntity
  8
0
100
AcDbCircle
 10
363.944212
 20
140.819029
 30
0.0
 40
3.0
100
AcDbArc
 50
256.195241
 51
331.773196
  0
CIRCLE
  5
255
100
AcDbEntity
  8
0
100
AcDbCircle
 10
360.35218
 20
138.758642
 30
0.0
 40
1.3
  0
ARC
  5
256
100
AcDbEntity
  8
0
100
AcDbCircle
 10
360.35218
 20
138.758642
 30
0.0
 40
3.0
100
AcDbArc
 50
326.262071
 51
343.481861
  0
ARC
  5
257
100
AcDbEntity
  8
0
100
AcDbCircle
 10
363.944212
 20
140.819029
 30
0.0
 40
3.0
100
AcDbArc
 50
65.310786
 51
163.481861
  0
ARC
  5
258
100
AcDbEntity
  8
0
100
AcDbCircle
 10
360.35218
 20
138.758642
 30
0.0
 40
3.0
100
AcDbArc
 50
76.195241
 51
94.480054
  0
ARC
  5
259
100
AcDbEntity
  8
0
100
AcDbCircle
 10
357.318831
 20
140.669881
 30
0.0
 40
3.0
100
AcDbArc
 50
21.091902
 51
39.376714
  0
ARC
  5
25A
100
AcDbEntity
  8
0
100
AcDbCircle
 10
367.840547
 20
142.1259
 30
0.0
 40
3.0
100
AcDbArc
 50
245.310786
 51
265.575981
  0
LINE
  5
25B
100
AcDbEntity
  8
0
100
AcDbLine
 10
370.128579
 20
134.577807
 30
0.0
 11
369.179515
 21
139.441284
 31
0.0
  0
LINE
  5
25C
100
AcDbEntity
  8
0
100
AcDbLine
 10
368.5582
 20
134.271362
 30
0.0
 11
367.609136
 21
139.134839
 31
0.0
  0
ARC
  5
25D
100
AcDbEntity
  8
0
100
AcDbCircle
 10
370.855717
 20
126.674663
 30
0.0
 40
7.936524
100
AcDbArc
 50
76.827219
 51
95.256763
  0
ARC
  5
25E
100
AcDbEntity
  8
0
100
AcDbCircle
 10
367.840547
 20
142.1259
 30
0.0
 40
3.0
100
AcDbArc
 50
296.508001
 51
316.773196
  0
CIRCLE
  5
25F
100
AcDbEntity
  8
0
100
AcDbCircle
 10
367.840547
 20
142.1259
 30
0.0
 40
1.3
  0
CIRCLE
  5
260
100
AcDbEntity
  8
0
100
AcDbCircle
 10
371.942361
 20
142.379796
 30
0.0
 40
1.3
  0
ARC
  5
261
100
AcDbEntity
  8
0
100
AcDbCircle
 10
370.855717
 20
126.674663
 30
0.0
 40
7.936524
100
AcDbArc
 50
46.827219
 51
65.256763
  0
LINE
  5
262
100
AcDbEntity
  8
0
100
AcDbLine
 10
377.336471
 20
131.255955
 30
0.0
 11
381.073834
 21
134.509607
 31
0.0
  0
LINE
  5
263
100
AcDbEntity
  8
0
100
AcDbLine
 10
376.285892
 20
132.462721
 30
0.0
 11
380.023255
 21
135.716373
 31
0.0
  0
ARC
  5
264
100
AcDbEntity
  8
0
100
AcDbCircle
 10
370.855717
 20
126.674663
 30
0.0
 40
7.936524
100
AcDbArc
 50
16.827219
 51
35.256763
  0
ARC
  5
265
100
AcDbEntity
  8
0
100
AcDbCircle
 10
375.970122
 20
141.563412
 30
0.0
 40
3.0
100
AcDbArc
 50
215.310786
 51
235.575981
  0
ARC
  5
266
100
AcDbEntity
  8
0
100
AcDbCircle
 10
379.649344
 20
139.732385
 30
0.0
 40
3.0
100
AcDbArc
 50
200.310786
 51
271.773196
  0
ARC
  5
267
100
AcDbEntity
  8
0
100
AcDbCircle
 10
375.970122
 20
141.563412
 30
0.0
 40
3.0
100
AcDbArc
 50
266.508001
 51
286.773196
  0
LINE
  5
268
100
AcDbEntity
  8
0
100
AcDbLine
 10
374.177569
 20
133.882556
 30
0.0
 11
375.787394
 21
138.568982
 31
0.0
  0
CIRCLE
  5
269
100
AcDbEntity
  8
0
100
AcDbCircle
 10
375.970122
 20
141.563412
 30
0.0
 40
1.3
  0
ARC
  5
26A
100
AcDbEntity
  8
0
100
AcDbCircle
 10
355.582435
 20
152.687783
 30
0.0
 40
3.0
100
AcDbArc
 50
338.79876
 51
80.26117
  0
CIRCLE
  5
26B
100
AcDbEntity
  8
0
100
AcDbCircle
 10
357.123935
 20
148.878174
 30
0.0
 40
1.3
  0
ARC
  5
26C
100
AcDbEntity
  8
0
100
AcDbCircle
 10
353.107462
 20
155.968613
 30
0.0
 40
3.0
100
AcDbArc
 50
353.79876
 51
95.26117
  0
ARC
  5
26D
100
AcDbEntity
  8
0
100
AcDbCircle
 10
349.867679
 20
158.497081
 30
0.0
 40
3.0
100
AcDbArc
 50
203.79876
 51
275.26117
  0
CIRCLE
  5
26E
100
AcDbEntity
  8
0
100
AcDbCircle
 10
353.107462
 20
155.968613
 30
0.0
 40
1.3
  0
LINE
  5
26F
100
AcDbEntity
  8
0
100
AcDbLine
 10
344.761938
 20
152.32519
 30
0.0
 11
346.083663
 21
157.100876
 31
0.0
  0
LINE
  5
270
100
AcDbEntity
  8
0
100
AcDbLine
 10
343.219906
 20
152.751965
 30
0.0
 11
344.541631
 21
157.527651
 31
0.0
  0
LINE
  5
271
100
AcDbEntity
  8
0
100
AcDbLine
 10
346.952737
 20
151.036254
 30
0.0
 11
350.485228
 21
154.511256
 31
0.0
  0
ARC
  5
272
100
AcDbEntity
  8
0
100
AcDbCircle
 10
341.88476
 20
144.928552
 30
0.0
 40
7.936524
100
AcDbArc
 50
20.315193
 51
38.744737
  0
LINE
  5
273
100
AcDbEntity
  8
0
100
AcDbLine
 10
348.074788
 20
149.89564
 30
0.0
 11
351.607279
 21
153.370642
 31
0.0
  0
ARC
  5
274
100
AcDbEntity
  8
0
100
AcDbCircle
 10
341.88476
 20
144.928552
 30
0.0
 40
7.936524
100
AcDbArc
 50
80.315193
 51
98.744737
  0
ARC
  5
275
100
AcDbEntity
  8
0
100
AcDbCircle
 10
341.88476
 20
144.928552
 30
0.0
 40
7.936524
100
AcDbArc
 50
50.315193
 51
68.744737
  0
ARC
  5
276
100
AcDbEntity
  8
0
100
AcDbCircle
 10
355.582435
 20
152.687783
 30
0.0
 40
3.0
100
AcDbArc
 50
173.79876
 51
245.26117
  0
LINE
  5
277
100
AcDbEntity
  8
0
100
AcDbLine
 10
349.729026
 20
146.135162
 30
0.0
 11
354.525754
 21
147.378357
 31
0.0
  0
LINE
  5
278
100
AcDbEntity
  8
0
100
AcDbLine
 10
349.327608
 20
147.683989
 30
0.0
 11
354.124336
 21
148.927183
 31
0.0
  0
ARC
  5
279
100
AcDbEntity
  8
0
100
AcDbCircle
 10
357.123935
 20
148.878174
 30
0.0
 40
3.0
100
AcDbArc
 50
209.995975
 51
230.26117
  0
ARC
  5
27A
100
AcDbEntity
  8
0
100
AcDbCircle
 10
357.123935
 20
148.878174
 30
0.0
 40
3.0
100
AcDbArc
 50
158.79876
 51
179.063955
  0
ARC
  5
27B
100
AcDbEntity
  8
0
100
AcDbCircle
 10
353.107462
 20
155.968613
 30
0.0
 40
3.0
100
AcDbArc
 50
239.995975
 51
260.26117
  0
ARC
  5
27C
100
AcDbEntity
  8
0
100
AcDbCircle
 10
353.107462
 20
155.968613
 30
0.0
 40
3.0
100
AcDbArc
 50
188.79876
 51
209.063955
  0
CIRCLE
  5
27D
100
AcDbEntity
  8
0
100
AcDbCircle
 10
355.582435
 20
152.687783
 30
0.0
 40
1.3
  0
ARC
  5
27E
100
AcDbEntity
  8
0
100
AcDbCircle
 10
346.083874
 20
160.100876
 30
0.0
 40
3.0
100
AcDbArc
 50
23.79876
 51
125.26117
  0
ARC
  5
27F
100
AcDbEntity
  8
0
100
AcDbCircle
 10
349.867679
 20
158.497081
 30
0.0
 40
3.0
100
AcDbArc
 50
8.79876
 51
110.26117
  0
CIRCLE
  5
280
100
AcDbEntity
  8
0
100
AcDbCircle
 10
349.867679
 20
158.497081
 30
0.0
 40
1.3
  0
ARC
  5
281
100
AcDbEntity
  8
0
100
AcDbCircle
 10
346.083874
 20
160.100876
 30
0.0
 40
3.0
100
AcDbArc
 50
218.79876
 51
239.063955
  0
CIRCLE
  5
282
100
AcDbEntity
  8
0
100
AcDbCircle
 10
342.013906
 20
160.670702
 30
0.0
 40
1.3
  0
ARC
  5
283
100
AcDbEntity
  8
0
100
AcDbCircle
 10
346.083874
 20
160.100876
 30
0.0
 40
3.0
100
AcDbArc
 50
269.995975
 51
290.26117
  0
CIRCLE
  5
284
100
AcDbEntity
  8
0
100
AcDbCircle
 10
346.083874
 20
160.100876
 30
0.0
 40
1.3
  0
ARC
  5
285
100
AcDbEntity
  8
0
100
AcDbCircle
 10
357.123935
 20
148.878174
 30
0.0
 40
3.0
100
AcDbArc
 50
323.79876
 51
65.26117
  0
ARC
  5
286
100
AcDbEntity
  8
0
100
AcDbCircle
 10
370.855717
 20
126.674663
 30
0.0
 40
7.936524
100
AcDbArc
 50
316.827219
 51
335.256763
  0
LINE
  5
287
100
AcDbEntity
  8
0
100
AcDbLine
 10
378.063609
 20
123.352811
 30
0.0
 11
382.750035
 21
121.742986
 31
0.0
  0
CIRCLE
  5
288
100
AcDbEntity
  8
0
100
AcDbCircle
 10
385.744465
 20
121.560258
 30
0.0
 40
1.3
  0
ARC
  5
289
100
AcDbEntity
  8
0
100
AcDbCircle
 10
385.744465
 20
121.560258
 30
0.0
 40
3.0
100
AcDbArc
 50
290.310786
 51
31.773196
  0
CIRCLE
  5
28A
100
AcDbEntity
  8
0
100
AcDbCircle
 10
381.377985
 20
114.606992
 30
0.0
 40
1.3
  0
ARC
  5
28B
100
AcDbEntity
  8
0
100
AcDbCircle
 10
383.913438
 20
117.881036
 30
0.0
 40
3.0
100
AcDbArc
 50
110.310786
 51
185.888741
  0
LINE
  5
28C
100
AcDbEntity
  8
0
100
AcDbLine
 10
376.643774
 20
121.244488
 30
0.0
 11
380.071259
 21
117.307449
 31
0.0
  0
ARC
  5
28D
100
AcDbEntity
  8
0
100
AcDbCircle
 10
381.377985
 20
114.606992
 30
0.0
 40
3.0
100
AcDbArc
 50
98.602121
 51
115.821911
  0
ARC
  5
28E
100
AcDbEntity
  8
0
100
AcDbCircle
 10
383.913438
 20
117.881036
 30
0.0
 40
3.0
100
AcDbArc
 50
278.602121
 51
16.773196
  0
ARC
  5
28F
100
AcDbEntity
  8
0
100
AcDbCircle
 10
385.744465
 20
121.560258
 30
0.0
 40
3.0
100
AcDbArc
 50
176.508001
 51
196.773196
  0
CIRCLE
  5
290
100
AcDbEntity
  8
0
100
AcDbCircle
 10
383.913438
 20
117.881036
 30
0.0
 40
1.3
  0
CIRCLE
  5
291
100
AcDbEntity
  8
0
100
AcDbCircle
 10
385.000082
 20
133.586168
 30
0.0
 40
1.3
  0
ARC
  5
292
100
AcDbEntity
  8
0
100
AcDbCircle
 10
385.000082
 20
133.586168
 30
0.0
 40
3.0
100
AcDbArc
 50
335.310786
 51
76.773196
  0
ARC
  5
293
100
AcDbEntity
  8
0
100
AcDbCircle
 10
385.000082
 20
133.586168
 30
0.0
 40
3.0
100
AcDbArc
 50
170.310786
 51
241.773196
  0
LINE
  5
294
100
AcDbEntity
  8
0
100
AcDbLine
 10
378.583409
 20
124.866022
 30
0.0
 11
383.269836
 21
123.256197
 31
0.0
  0
LINE
  5
295
100
AcDbEntity
  8
0
100
AcDbLine
 10
378.758861
 20
127.401801
 30
0.0
 11
383.622338
 21
128.350865
 31
0.0
  0
LINE
  5
296
100
AcDbEntity
  8
0
100
AcDbLine
 10
378.452415
 20
128.97218
 30
0.0
 11
383.315892
 21
129.921244
 31
0.0
  0
ARC
  5
297
100
AcDbEntity
  8
0
100
AcDbCircle
 10
370.855717
 20
126.674663
 30
0.0
 40
7.936524
100
AcDbArc
 50
346.827219
 51
5.256763
  0
ARC
  5
298
100
AcDbEntity
  8
0
100
AcDbCircle
 10
386.306954
 20
129.689833
 30
0.0
 40
3.0
100
AcDbArc
 50
206.508001
 51
226.773196
  0
ARC
  5
299
100
AcDbEntity
  8
0
100
AcDbCircle
 10
386.560849
 20
125.588019
 30
0.0
 40
3.0
100
AcDbArc
 50
305.310786
 51
46.773196
  0
CIRCLE
  5
29A
100
AcDbEntity
  8
0
100
AcDbCircle
 10
386.560849
 20
125.588019
 30
0.0
 40
1.3
  0
ARC
  5
29B
100
AcDbEntity
  8
0
100
AcDbCircle
 10
385.744465
 20
121.560258
 30
0.0
 40
3.0
100
AcDbArc
 50
125.310786
 51
145.575981
  0
ARC
  5
29C
100
AcDbEntity
  8
0
100
AcDbCircle
 10
386.560849
 20
125.588019
 30
0.0
 40
3.0
100
AcDbArc
 50
140.310786
 51
211.773196
  0
CIRCLE
  5
29D
100
AcDbEntity
  8
0
100
AcDbCircle
 10
386.306954
 20
129.689833
 30
0.0
 40
1.3
  0
ARC
  5
29E
100
AcDbEntity
  8
0
100
AcDbCircle
 10
386.306954
 20
129.689833
 30
0.0
 40
3.0
100
AcDbArc
 50
155.310786
 51
175.575981
  0
ARC
  5
29F
100
AcDbEntity
  8
0
100
AcDbCircle
 10
386.306954
 20
129.689833
 30
0.0
 40
3.0
100
AcDbArc
 50
320.310786
 51
61.773196
  0
CIRCLE
  5
2A0
100
AcDbEntity
  8
0
100
AcDbCircle
 10
382.729296
 20
137.011495
 30
0.0
 40
1.3
  0
ARC
  5
2A1
100
AcDbEntity
  8
0
100
AcDbCircle
 10
382.729296
 20
137.011495
 30
0.0
 40
3.0
100
AcDbArc
 50
236.508001
 51
256.773196
  0
ARC
  5
2A2
100
AcDbEntity
  8
0
100
AcDbCircle
 10
379.649344
 20
139.732385
 30
0.0
 40
3.0
100
AcDbArc
 50
5.310786
 51
106.773196
  0
CIRCLE
  5
2A3
100
AcDbEntity
  8
0
100
AcDbCircle
 10
379.649344
 20
139.732385
 30
0.0
 40
1.3
  0
ARC
  5
2A4
100
AcDbEntity
  8
0
100
AcDbCircle
 10
382.729296
 20
137.011495
 30
0.0
 40
3.0
100
AcDbArc
 50
185.310786
 51
205.575981
  0
ARC
  5
2A5
100
AcDbEntity
  8
0
100
AcDbCircle
 10
382.729296
 20
137.011495
 30
0.0
 40
3.0
100
AcDbArc
 50
350.310786
 51
91.773196
  0
ARC
  5
2A6
100
AcDbEntity
  8
0
100
AcDbCircle
 10
326.457314
 20
149.211158
 30
0.0
 40
3.0
100
AcDbArc
 50
109.683215
 51
128.309547
  0
ARC
  5
2A8
100
AcDbEntity
  8
0
100
AcDbCircle
 10
381.377985
 20
114.606992
 30
0.0
 40
3.0
100
AcDbArc
 50
347.28217
 51
5.888741
  0
CIRCLE
  5
2A9
100
AcDbEntity
  8
0
100
AcDbCircle
 10
378.842532
 20
111.332948
 30
0.0
 40
1.3
  0
LINE
  5
2AD
100
AcDbEntity
  8
0
100
AcDbLine
 10
389.597585
 20
73.184432
 30
0.0
 11
389.597585
 21
112.869743
 31
0.0
  0
ARC
  5
2AE
100
AcDbEntity
  8
0
100
AcDbCircle
 10
387.123002
 20
111.173736
 30
0.0
 40
3.0
100
AcDbArc
 50
34.370715
 51
132.54179
  0
ARC
  5
2AF
100
AcDbEntity
  8
0
100
AcDbCircle
 10
382.982767
 20
111.253342
 30
0.0
 40
3.0
100
AcDbArc
 50
45.255171
 51
63.861741
  0
CIRCLE
  5
2B0
100
AcDbEntity
  8
0
100
AcDbCircle
 10
382.982767
 20
111.253342
 30
0.0
 40
1.3
  0
CIRCLE
  5
2B1
100
AcDbEntity
  8
0
100
AcDbCircle
 10
387.123002
 20
111.173736
 30
0.0
 40
1.3
  0
LINE
  5
2B3
100
AcDbEntity
  8
0
100
AcDbLine
 10
324.597585
 20
73.684432
 30
0.0
 11
324.597585
 21
150.881909
 31
0.0
  0
CIRCLE
  5
33D
100
AcDbEntity
  8
0
100
AcDbCircle
 10
201.213214
 20
161.175662
 30
0.0
 40
1.3
  0
LINE
  5
33F
100
AcDbEntity
  8
0
100
AcDbLine
 10
129.597585
 20
73.184432
 30
0.0
 11
389.597585
 21
73.184432
 31
0.0
  0
LINE
  5
656
100
AcDbEntity
  8
0
100
AcDbLine
 10
324.597585
 20
151.565178
 30
0.0
 11
324.597585
 21
159.700837
 31
0.0
  0
ARC
  5
657
100
AcDbEntity
  8
0
100
AcDbCircle
 10
177.310409
 20
144.928552
 30
0.0
 40
7.936524
100
AcDbArc
 50
21.255263
 51
39.684807
  0
LINE
  5
658
100
AcDbEntity
  8
0
100
AcDbLine
 10
184.707047
 20
147.805729
 30
0.0
 11
189.737884
 21
149.198071
 31
0.0
  0
ARC
  5
659
100
AcDbEntity
  8
0
100
AcDbCircle
 10
162.071234
 20
148.878174
 30
0.0
 40
3.0
100
AcDbArc
 50
114.73883
 51
216.20124
  0
ARC
  5
65A
100
AcDbEntity
  8
0
100
AcDbCircle
 10
177.310409
 20
144.928552
 30
0.0
 40
7.936524
100
AcDbArc
 50
141.255263
 51
159.684807
  0
LINE
  5
65B
100
AcDbEntity
  8
0
100
AcDbLine
 10
169.867561
 20
147.683989
 30
0.0
 11
165.070834
 21
148.927183
 31
0.0
  0
CIRCLE
  5
65C
100
AcDbEntity
  8
0
100
AcDbCircle
 10
162.071234
 20
148.878174
 30
0.0
 40
1.3
  0
LINE
  5
65D
100
AcDbEntity
  8
0
100
AcDbLine
 10
129.597585
 20
73.184432
 30
0.0
 11
129.597585
 21
112.869743
 31
0.0
  0
ARC
  5
65E
100
AcDbEntity
  8
0
100
AcDbCircle
 10
143.225048
 20
141.563412
 30
0.0
 40
3.0
100
AcDbArc
 50
304.424019
 51
324.689214
  0
ARC
  5
65F
100
AcDbEntity
  8
0
100
AcDbCircle
 10
147.252808
 20
142.379796
 30
0.0
 40
3.0
100
AcDbArc
 50
43.226804
 51
144.689214
  0
LINE
  5
660
100
AcDbEntity
  8
0
100
AcDbLine
 10
146.530811
 20
134.402356
 30
0.0
 11
144.920986
 21
139.088782
 31
0.0
  0
CIRCLE
  5
661
100
AcDbEntity
  8
0
100
AcDbCircle
 10
161.876338
 20
140.669881
 30
0.0
 40
1.3
  0
CIRCLE
  5
662
100
AcDbEntity
  8
0
100
AcDbCircle
 10
161.568259
 20
144.799406
 30
0.0
 40
1.3
  0
CIRCLE
  5
663
100
AcDbEntity
  8
0
100
AcDbCircle
 10
162.184418
 20
136.540357
 30
0.0
 40
1.3
  0
ARC
  5
664
100
AcDbEntity
  8
0
100
AcDbCircle
 10
161.876338
 20
140.669881
 30
0.0
 40
3.0
100
AcDbArc
 50
30.690115
 51
47.909905
  0
LINE
  5
665
100
AcDbEntity
  8
0
100
AcDbLine
 10
169.486996
 20
143.593406
 30
0.0
 11
164.456159
 21
142.201065
 31
0.0
  0
LINE
  5
666
100
AcDbEntity
  8
0
100
AcDbLine
 10
169.466143
 20
146.135162
 30
0.0
 11
164.669416
 21
147.378357
 31
0.0
  0
ARC
  5
667
100
AcDbEntity
  8
0
100
AcDbCircle
 10
177.310409
 20
144.928552
 30
0.0
 40
7.936524
100
AcDbArc
 50
171.255263
 51
189.684807
  0
ARC
  5
668
100
AcDbEntity
  8
0
100
AcDbCircle
 10
162.071234
 20
148.878174
 30
0.0
 40
3.0
100
AcDbArc
 50
309.73883
 51
330.004025
  0
ARC
  5
669
100
AcDbEntity
  8
0
100
AcDbCircle
 10
161.568259
 20
144.799406
 30
0.0
 40
3.0
100
AcDbArc
 50
320.623286
 51
36.20124
  0
LINE
  5
66A
100
AcDbEntity
  8
0
100
AcDbLine
 10
152.920744
 20
133.155418
 30
0.0
 11
156.348229
 21
137.092457
 31
0.0
  0
LINE
  5
66B
100
AcDbEntity
  8
0
100
AcDbLine
 10
150.63697
 20
134.271362
 30
0.0
 11
151.586033
 21
139.134839
 31
0.0
  0
LINE
  5
66C
100
AcDbEntity
  8
0
100
AcDbLine
 10
149.06659
 20
134.577807
 30
0.0
 11
150.015654
 21
139.441284
 31
0.0
  0
ARC
  5
66D
100
AcDbEntity
  8
0
100
AcDbCircle
 10
148.339453
 20
126.674663
 30
0.0
 40
7.936524
100
AcDbArc
 50
54.743237
 51
73.172781
  0
ARC
  5
66E
100
AcDbEntity
  8
0
100
AcDbCircle
 10
148.339453
 20
126.674663
 30
0.0
 40
7.936524
100
AcDbArc
 50
84.743237
 51
103.172781
  0
ARC
  5
66F
100
AcDbEntity
  8
0
100
AcDbCircle
 10
155.250957
 20
140.819029
 30
0.0
 40
3.0
100
AcDbArc
 50
208.226804
 51
283.804759
  0
ARC
  5
670
100
AcDbEntity
  8
0
100
AcDbCircle
 10
151.354622
 20
142.1259
 30
0.0
 40
3.0
100
AcDbArc
 50
28.226804
 51
129.689214
  0
ARC
  5
671
100
AcDbEntity
  8
0
100
AcDbCircle
 10
155.250957
 20
140.819029
 30
0.0
 40
3.0
100
AcDbArc
 50
16.518139
 51
114.689214
  0
ARC
  5
672
100
AcDbEntity
  8
0
100
AcDbCircle
 10
161.568259
 20
144.799406
 30
0.0
 40
3.0
100
AcDbArc
 50
129.73883
 51
227.909905
  0
ARC
  5
673
100
AcDbEntity
  8
0
100
AcDbCircle
 10
161.876338
 20
140.669881
 30
0.0
 40
3.0
100
AcDbArc
 50
140.623286
 51
158.908098
  0
ARC
  5
674
100
AcDbEntity
  8
0
100
AcDbCircle
 10
158.842989
 20
138.758642
 30
0.0
 40
3.0
100
AcDbArc
 50
85.519946
 51
103.804759
  0
CIRCLE
  5
675
100
AcDbEntity
  8
0
100
AcDbCircle
 10
158.842989
 20
138.758642
 30
0.0
 40
1.3
  0
CIRCLE
  5
676
100
AcDbEntity
  8
0
100
AcDbCircle
 10
155.250957
 20
140.819029
 30
0.0
 40
1.3
  0
ARC
  5
677
100
AcDbEntity
  8
0
100
AcDbCircle
 10
158.842989
 20
138.758642
 30
0.0
 40
3.0
100
AcDbArc
 50
196.518139
 51
213.737929
  0
CIRCLE
  5
678
100
AcDbEntity
  8
0
100
AcDbCircle
 10
147.252808
 20
142.379796
 30
0.0
 40
1.3
  0
CIRCLE
  5
679
100
AcDbEntity
  8
0
100
AcDbCircle
 10
151.354622
 20
142.1259
 30
0.0
 40
1.3
  0
ARC
  5
67A
100
AcDbEntity
  8
0
100
AcDbCircle
 10
151.354622
 20
142.1259
 30
0.0
 40
3.0
100
AcDbArc
 50
223.226804
 51
243.491999
  0
ARC
  5
67B
100
AcDbEntity
  8
0
100
AcDbCircle
 10
151.354622
 20
142.1259
 30
0.0
 40
3.0
100
AcDbArc
 50
274.424019
 51
294.689214
  0
ARC
  5
67C
100
AcDbEntity
  8
0
100
AcDbCircle
 10
147.252808
 20
142.379796
 30
0.0
 40
3.0
100
AcDbArc
 50
238.226804
 51
309.689214
  0
ARC
  5
67D
100
AcDbEntity
  8
0
100
AcDbCircle
 10
132.63432
 20
125.588019
 30
0.0
 40
3.0
100
AcDbArc
 50
328.226804
 51
39.689214
  0
CIRCLE
  5
67E
100
AcDbEntity
  8
0
100
AcDbCircle
 10
132.63432
 20
125.588019
 30
0.0
 40
1.3
  0
ARC
  5
67F
100
AcDbEntity
  8
0
100
AcDbCircle
 10
132.63432
 20
125.588019
 30
0.0
 40
3.0
100
AcDbArc
 50
133.226804
 51
234.689214
  0
ARC
  5
680
100
AcDbEntity
  8
0
100
AcDbCircle
 10
148.339453
 20
126.674663
 30
0.0
 40
7.936524
100
AcDbArc
 50
174.743237
 51
193.172781
  0
ARC
  5
681
100
AcDbEntity
  8
0
100
AcDbCircle
 10
136.212402
 20
111.253342
 30
0.0
 40
3.0
100
AcDbArc
 50
116.138259
 51
134.744829
  0
CIRCLE
  5
682
100
AcDbEntity
  8
0
100
AcDbCircle
 10
137.817184
 20
114.606992
 30
0.0
 40
1.3
  0
ARC
  5
683
100
AcDbEntity
  8
0
100
AcDbCircle
 10
132.072167
 20
111.173736
 30
0.0
 40
3.0
100
AcDbArc
 50
47.45821
 51
145.629285
  0
CIRCLE
  5
684
100
AcDbEntity
  8
0
100
AcDbCircle
 10
136.212402
 20
111.253342
 30
0.0
 40
1.3
  0
CIRCLE
  5
685
100
AcDbEntity
  8
0
100
AcDbCircle
 10
140.352637
 20
111.332948
 30
0.0
 40
1.3
  0
CIRCLE
  5
686
100
AcDbEntity
  8
0
100
AcDbCircle
 10
132.072167
 20
111.173736
 30
0.0
 40
1.3
  0
LINE
  5
687
100
AcDbEntity
  8
0
100
AcDbLine
 10
140.61176
 20
124.866022
 30
0.0
 11
135.925334
 21
123.256197
 31
0.0
  0
ARC
  5
688
100
AcDbEntity
  8
0
100
AcDbCircle
 10
135.281731
 20
117.881036
 30
0.0
 40
3.0
100
AcDbArc
 50
354.111259
 51
69.689214
  0
LINE
  5
689
100
AcDbEntity
  8
0
100
AcDbLine
 10
141.13156
 20
123.352811
 30
0.0
 11
136.445134
 21
121.742986
 31
0.0
  0
LINE
  5
68A
100
AcDbEntity
  8
0
100
AcDbLine
 10
142.551395
 20
121.244488
 30
0.0
 11
139.12391
 21
117.307449
 31
0.0
  0
ARC
  5
68B
100
AcDbEntity
  8
0
100
AcDbCircle
 10
137.817184
 20
114.606992
 30
0.0
 40
3.0
100
AcDbArc
 50
64.178089
 51
81.397879
  0
ARC
  5
68C
100
AcDbEntity
  8
0
100
AcDbCircle
 10
148.339453
 20
126.674663
 30
0.0
 40
7.936524
100
AcDbArc
 50
204.743237
 51
223.172781
  0
ARC
  5
68D
100
AcDbEntity
  8
0
100
AcDbCircle
 10
133.450704
 20
121.560258
 30
0.0
 40
3.0
100
AcDbArc
 50
148.226804
 51
249.689214
  0
ARC
  5
68E
100
AcDbEntity
  8
0
100
AcDbCircle
 10
135.281731
 20
117.881036
 30
0.0
 40
3.0
100
AcDbArc
 50
163.226804
 51
261.397879
  0
CIRCLE
  5
68F
100
AcDbEntity
  8
0
100
AcDbCircle
 10
135.281731
 20
117.881036
 30
0.0
 40
1.3
  0
ARC
  5
690
100
AcDbEntity
  8
0
100
AcDbCircle
 10
137.817184
 20
114.606992
 30
0.0
 40
3.0
100
AcDbArc
 50
174.111259
 51
192.71783
  0
CIRCLE
  5
691
100
AcDbEntity
  8
0
100
AcDbCircle
 10
133.450704
 20
121.560258
 30
0.0
 40
1.3
  0
ARC
  5
692
100
AcDbEntity
  8
0
100
AcDbCircle
 10
133.450704
 20
121.560258
 30
0.0
 40
3.0
100
AcDbArc
 50
34.424019
 51
54.689214
  0
ARC
  5
693
100
AcDbEntity
  8
0
100
AcDbCircle
 10
133.450704
 20
121.560258
 30
0.0
 40
3.0
100
AcDbArc
 50
343.226804
 51
3.491999
  0
ARC
  5
694
100
AcDbEntity
  8
0
100
AcDbCircle
 10
134.195087
 20
133.586168
 30
0.0
 40
3.0
100
AcDbArc
 50
103.226804
 51
204.689214
  0
ARC
  5
695
100
AcDbEntity
  8
0
100
AcDbCircle
 10
136.465874
 20
137.011495
 30
0.0
 40
3.0
100
AcDbArc
 50
88.226804
 51
189.689214
  0
CIRCLE
  5
696
100
AcDbEntity
  8
0
100
AcDbCircle
 10
136.465874
 20
137.011495
 30
0.0
 40
1.3
  0
LINE
  5
697
100
AcDbEntity
  8
0
100
AcDbLine
 10
145.0176
 20
133.882556
 30
0.0
 11
143.407775
 21
138.568982
 31
0.0
  0
ARC
  5
698
100
AcDbEntity
  8
0
100
AcDbCircle
 10
139.545825
 20
139.732385
 30
0.0
 40
3.0
100
AcDbArc
 50
268.226804
 51
339.689214
  0
LINE
  5
699
100
AcDbEntity
  8
0
100
AcDbLine
 10
140.742754
 20
128.97218
 30
0.0
 11
135.879277
 21
129.921244
 31
0.0
  0
LINE
  5
69A
100
AcDbEntity
  8
0
100
AcDbLine
 10
140.436309
 20
127.401801
 30
0.0
 11
135.572832
 21
128.350865
 31
0.0
  0
ARC
  5
69B
100
AcDbEntity
  8
0
100
AcDbCircle
 10
134.195087
 20
133.586168
 30
0.0
 40
3.0
100
AcDbArc
 50
298.226804
 51
9.689214
  0
ARC
  5
69C
100
AcDbEntity
  8
0
100
AcDbCircle
 10
148.339453
 20
126.674663
 30
0.0
 40
7.936524
100
AcDbArc
 50
144.743237
 51
163.172781
  0
LINE
  5
69D
100
AcDbEntity
  8
0
100
AcDbLine
 10
142.909277
 20
132.462721
 30
0.0
 11
139.171914
 21
135.716373
 31
0.0
  0
LINE
  5
69E
100
AcDbEntity
  8
0
100
AcDbLine
 10
141.858698
 20
131.255955
 30
0.0
 11
138.121335
 21
134.509607
 31
0.0
  0
ARC
  5
69F
100
AcDbEntity
  8
0
100
AcDbCircle
 10
148.339453
 20
126.674663
 30
0.0
 40
7.936524
100
AcDbArc
 50
114.743237
 51
133.172781
  0
ARC
  5
6A0
100
AcDbEntity
  8
0
100
AcDbCircle
 10
136.465874
 20
137.011495
 30
0.0
 40
3.0
100
AcDbArc
 50
334.424019
 51
354.689214
  0
ARC
  5
6A1
100
AcDbEntity
  8
0
100
AcDbCircle
 10
136.465874
 20
137.011495
 30
0.0
 40
3.0
100
AcDbArc
 50
283.226804
 51
303.491999
  0
ARC
  5
6A2
100
AcDbEntity
  8
0
100
AcDbCircle
 10
132.888216
 20
129.689833
 30
0.0
 40
3.0
100
AcDbArc
 50
118.226804
 51
219.689214
  0
CIRCLE
  5
6A3
100
AcDbEntity
  8
0
100
AcDbCircle
 10
132.888216
 20
129.689833
 30
0.0
 40
1.3
  0
ARC
  5
6A4
100
AcDbEntity
  8
0
100
AcDbCircle
 10
132.888216
 20
129.689833
 30
0.0
 40
3.0
100
AcDbArc
 50
4.424019
 51
24.689214
  0
ARC
  5
6A5
100
AcDbEntity
  8
0
100
AcDbCircle
 10
132.888216
 20
129.689833
 30
0.0
 40
3.0
100
AcDbArc
 50
313.226804
 51
333.491999
  0
CIRCLE
  5
6A6
100
AcDbEntity
  8
0
100
AcDbCircle
 10
134.195087
 20
133.586168
 30
0.0
 40
1.3
  0
ARC
  5
6A7
100
AcDbEntity
  8
0
100
AcDbCircle
 10
139.545825
 20
139.732385
 30
0.0
 40
3.0
100
AcDbArc
 50
73.226804
 51
174.689214
  0
CIRCLE
  5
6A8
100
AcDbEntity
  8
0
100
AcDbCircle
 10
143.225048
 20
141.563412
 30
0.0
 40
1.3
  0
ARC
  5
6A9
100
AcDbEntity
  8
0
100
AcDbCircle
 10
143.225048
 20
141.563412
 30
0.0
 40
3.0
100
AcDbArc
 50
58.226804
 51
159.689214
  0
ARC
  5
6AA
100
AcDbEntity
  8
0
100
AcDbCircle
 10
143.225048
 20
141.563412
 30
0.0
 40
3.0
100
AcDbArc
 50
253.226804
 51
273.491999
  0
CIRCLE
  5
6AB
100
AcDbEntity
  8
0
100
AcDbCircle
 10
139.545825
 20
139.732385
 30
0.0
 40
1.3
  0
CIRCLE
  5
6AC
100
AcDbEntity
  8
0
100
AcDbCircle
 10
177.181263
 20
160.670702
 30
0.0
 40
1.3
  0
ARC
  5
6AD
100
AcDbEntity
  8
0
100
AcDbCircle
 10
177.310409
 20
144.928552
 30
0.0
 40
7.936524
100
AcDbArc
 50
81.255263
 51
99.684807
  0
ARC
  5
6AE
100
AcDbEntity
  8
0
100
AcDbCircle
 10
177.181263
 20
160.670702
 30
0.0
 40
3.0
100
AcDbArc
 50
39.73883
 51
141.20124
  0
ARC
  5
6AF
100
AcDbEntity
  8
0
100
AcDbCircle
 10
177.181263
 20
160.670702
 30
0.0
 40
3.0
100
AcDbArc
 50
234.73883
 51
306.20124
  0
CIRCLE
  5
6B0
100
AcDbEntity
  8
0
100
AcDbCircle
 10
181.260032
 20
160.167727
 30
0.0
 40
1.3
  0
ARC
  5
6B1
100
AcDbEntity
  8
0
100
AcDbCircle
 10
185.06964
 20
158.626227
 30
0.0
 40
3.0
100
AcDbArc
 50
9.73883
 51
111.20124
  0
CIRCLE
  5
6B2
100
AcDbEntity
  8
0
100
AcDbCircle
 10
185.06964
 20
158.626227
 30
0.0
 40
1.3
  0
LINE
  5
6B3
100
AcDbEntity
  8
0
100
AcDbLine
 10
183.418111
 20
149.996528
 30
0.0
 11
186.893113
 21
153.529019
 31
0.0
  0
CIRCLE
  5
6B4
100
AcDbEntity
  8
0
100
AcDbCircle
 10
190.878938
 20
152.911471
 30
0.0
 40
1.3
  0
ARC
  5
6B5
100
AcDbEntity
  8
0
100
AcDbCircle
 10
188.35047
 20
156.151253
 30
0.0
 40
3.0
100
AcDbArc
 50
240.936045
 51
261.20124
  0
ARC
  5
6B6
100
AcDbEntity
  8
0
100
AcDbCircle
 10
192.737855
 20
149.211158
 30
0.0
 40
3.0
100
AcDbArc
 50
163.030165
 51
180.249956
  0
ARC
  5
6B7
100
AcDbEntity
  8
0
100
AcDbCircle
 10
190.878938
 20
152.911471
 30
0.0
 40
3.0
100
AcDbArc
 50
174.73883
 51
250.316785
  0
ARC
  5
6B8
100
AcDbEntity
  8
0
100
AcDbCircle
 10
188.35047
 20
156.151253
 30
0.0
 40
3.0
100
AcDbArc
 50
354.73883
 51
96.20124
  0
CIRCLE
  5
6B9
100
AcDbEntity
  8
0
100
AcDbCircle
 10
188.35047
 20
156.151253
 30
0.0
 40
1.3
  0
LINE
  5
6BA
100
AcDbEntity
  8
0
100
AcDbLine
 10
182.277497
 20
151.11858
 30
0.0
 11
185.752499
 21
154.651071
 31
0.0
  0
LINE
  5
6BB
100
AcDbEntity
  8
0
100
AcDbLine
 10
180.065846
 20
152.371399
 30
0.0
 11
181.309041
 21
157.168127
 31
0.0
  0
LINE
  5
6BC
100
AcDbEntity
  8
0
100
AcDbLine
 10
178.517019
 20
152.772817
 30
0.0
 11
179.760214
 21
157.569545
 31
0.0
  0
ARC
  5
6BD
100
AcDbEntity
  8
0
100
AcDbCircle
 10
177.310409
 20
144.928552
 30
0.0
 40
7.936524
100
AcDbArc
 50
51.255263
 51
69.684807
  0
ARC
  5
6BE
100
AcDbEntity
  8
0
100
AcDbCircle
 10
181.260032
 20
160.167727
 30
0.0
 40
3.0
100
AcDbArc
 50
270.936045
 51
291.20124
  0
ARC
  5
6BF
100
AcDbEntity
  8
0
100
AcDbCircle
 10
185.06964
 20
158.626227
 30
0.0
 40
3.0
100
AcDbArc
 50
204.73883
 51
276.20124
  0
ARC
  5
6C0
100
AcDbEntity
  8
0
100
AcDbCircle
 10
188.35047
 20
156.151253
 30
0.0
 40
3.0
100
AcDbArc
 50
189.73883
 51
210.004025
  0
ARC
  5
6C1
100
AcDbEntity
  8
0
100
AcDbCircle
 10
181.260032
 20
160.167727
 30
0.0
 40
3.0
100
AcDbArc
 50
219.73883
 51
240.004025
  0
ARC
  5
6C2
100
AcDbEntity
  8
0
100
AcDbCircle
 10
181.260032
 20
160.167727
 30
0.0
 40
3.0
100
AcDbArc
 50
24.73883
 51
126.20124
  0
ARC
  5
6C3
100
AcDbEntity
  8
0
100
AcDbCircle
 10
163.612734
 20
152.687783
 30
0.0
 40
3.0
100
AcDbArc
 50
99.73883
 51
201.20124
  0
CIRCLE
  5
6C4
100
AcDbEntity
  8
0
100
AcDbCircle
 10
173.111295
 20
160.100876
 30
0.0
 40
1.3
  0
ARC
  5
6C5
100
AcDbEntity
  8
0
100
AcDbCircle
 10
169.32749
 20
158.497081
 30
0.0
 40
3.0
100
AcDbArc
 50
69.73883
 51
171.20124
  0
CIRCLE
  5
6C6
100
AcDbEntity
  8
0
100
AcDbCircle
 10
169.32749
 20
158.497081
 30
0.0
 40
1.3
  0
LINE
  5
6C7
100
AcDbEntity
  8
0
100
AcDbLine
 10
171.120381
 20
149.89564
 30
0.0
 11
167.58789
 21
153.370642
 31
0.0
  0
LINE
  5
6C8
100
AcDbEntity
  8
0
100
AcDbLine
 10
172.242432
 20
151.036254
 30
0.0
 11
168.709942
 21
154.511256
 31
0.0
  0
ARC
  5
6C9
100
AcDbEntity
  8
0
100
AcDbCircle
 10
169.32749
 20
158.497081
 30
0.0
 40
3.0
100
AcDbArc
 50
264.73883
 51
336.20124
  0
LINE
  5
6CA
100
AcDbEntity
  8
0
100
AcDbLine
 10
175.975263
 20
152.751965
 30
0.0
 11
174.653538
 21
157.527651
 31
0.0
  0
LINE
  5
6CB
100
AcDbEntity
  8
0
100
AcDbLine
 10
174.433231
 20
152.32519
 30
0.0
 11
173.111506
 21
157.100876
 31
0.0
  0
ARC
  5
6CC
100
AcDbEntity
  8
0
100
AcDbCircle
 10
177.310409
 20
144.928552
 30
0.0
 40
7.936524
100
AcDbArc
 50
111.255263
 51
129.684807
  0
ARC
  5
6CD
100
AcDbEntity
  8
0
100
AcDbCircle
 10
173.111295
 20
160.100876
 30
0.0
 40
3.0
100
AcDbArc
 50
300.936045
 51
321.20124
  0
ARC
  5
6CE
100
AcDbEntity
  8
0
100
AcDbCircle
 10
173.111295
 20
160.100876
 30
0.0
 40
3.0
100
AcDbArc
 50
249.73883
 51
270.004025
  0
ARC
  5
6CF
100
AcDbEntity
  8
0
100
AcDbCircle
 10
163.612734
 20
152.687783
 30
0.0
 40
3.0
100
AcDbArc
 50
294.73883
 51
6.20124
  0
ARC
  5
6D0
100
AcDbEntity
  8
0
100
AcDbCircle
 10
166.087708
 20
155.968613
 30
0.0
 40
3.0
100
AcDbArc
 50
279.73883
 51
300.004025
  0
ARC
  5
6D1
100
AcDbEntity
  8
0
100
AcDbCircle
 10
162.071234
 20
148.878174
 30
0.0
 40
3.0
100
AcDbArc
 50
0.936045
 51
21.20124
  0
CIRCLE
  5
6D2
100
AcDbEntity
  8
0
100
AcDbCircle
 10
163.612734
 20
152.687783
 30
0.0
 40
1.3
  0
ARC
  5
6D3
100
AcDbEntity
  8
0
100
AcDbCircle
 10
166.087708
 20
155.968613
 30
0.0
 40
3.0
100
AcDbArc
 50
84.73883
 51
186.20124
  0
CIRCLE
  5
6D4
100
AcDbEntity
  8
0
100
AcDbCircle
 10
166.087708
 20
155.968613
 30
0.0
 40
1.3
  0
ARC
  5
6D5
100
AcDbEntity
  8
0
100
AcDbCircle
 10
166.087708
 20
155.968613
 30
0.0
 40
3.0
100
AcDbArc
 50
330.936045
 51
351.20124
  0
ARC
  5
6D6
100
AcDbEntity
  8
0
100
AcDbCircle
 10
173.111295
 20
160.100876
 30
0.0
 40
3.0
100
AcDbArc
 50
54.73883
 51
156.20124
  0
LINE
  5
6D7
100
AcDbEntity
  8
0
100
AcDbLine
 10
194.597585
 20
73.684432
 30
0.0
 11
194.597585
 21
150.881909
 31
0.0
  0
CIRCLE
  5
6D8
100
AcDbEntity
  8
0
100
AcDbCircle
 10
192.737855
 20
149.211158
 30
0.0
 40
1.3
  0
ARC
  5
6D9
100
AcDbEntity
  8
0
100
AcDbCircle
 10
192.737855
 20
149.211158
 30
0.0
 40
3.0
100
AcDbArc
 50
51.690453
 51
70.316785
  0
ARC
  5
6DA
100
AcDbEntity
  8
0
100
AcDbCircle
 10
190.878938
 20
152.911471
 30
0.0
 40
3.0
100
AcDbArc
 50
343.030165
 51
81.20124
  0
ARC
  5
6DC
100
AcDbEntity
  8
0
100
AcDbCircle
 10
201.213214
 20
161.175662
 30
0.0
 40
3.0
100
AcDbArc
 50
116.138259
 51
161.727792
  0
ARC
  5
6DD
100
AcDbEntity
  8
0
100
AcDbCircle
 10
197.559798
 20
159.226191
 30
0.0
 40
3.0
100
AcDbArc
 50
74.441173
 51
170.896663
  0
CIRCLE
  5
6DE
100
AcDbEntity
  8
0
100
AcDbCircle
 10
197.559798
 20
159.226191
 30
0.0
 40
1.3
  0
LINE
  5
6DF
100
AcDbEntity
  8
0
100
AcDbLine
 10
194.597585
 20
151.565178
 30
0.0
 11
194.597585
 21
159.700837
 31
0.0
  0
ARC
  5
9F7
100
AcDbEntity
  8
0
100
AcDbCircle
 10
423.111271
 20
144.928552
 30
0.0
 40
7.936524
100
AcDbArc
 50
140.315193
 51
158.744737
  0
LINE
  5
9F8
100
AcDbEntity
  8
0
100
AcDbLine
 10
415.714632
 20
147.805729
 30
0.0
 11
410.683796
 21
149.198071
 31
0.0
  0
ARC
  5
9F9
100
AcDbEntity
  8
0
100
AcDbCircle
 10
438.350446
 20
148.878174
 30
0.0
 40
3.0
100
AcDbArc
 50
323.79876
 51
65.26117
  0
ARC
  5
9FA
100
AcDbEntity
  8
0
100
AcDbCircle
 10
423.111271
 20
144.928552
 30
0.0
 40
7.936524
100
AcDbArc
 50
20.315193
 51
38.744737
  0
LINE
  5
9FB
100
AcDbEntity
  8
0
100
AcDbLine
 10
430.554118
 20
147.683989
 30
0.0
 11
435.350846
 21
148.927183
 31
0.0
  0
CIRCLE
  5
9FC
100
AcDbEntity
  8
0
100
AcDbCircle
 10
438.350446
 20
148.878174
 30
0.0
 40
1.3
  0
CIRCLE
  5
A03
100
AcDbEntity
  8
0
100
AcDbCircle
 10
423.240417
 20
160.670702
 30
0.0
 40
1.3
  0
ARC
  5
A04
100
AcDbEntity
  8
0
100
AcDbCircle
 10
423.111271
 20
144.928552
 30
0.0
 40
7.936524
100
AcDbArc
 50
80.315193
 51
98.744737
  0
ARC
  5
A05
100
AcDbEntity
  8
0
100
AcDbCircle
 10
423.240417
 20
160.670702
 30
0.0
 40
3.0
100
AcDbArc
 50
38.79876
 51
140.26117
  0
ARC
  5
A06
100
AcDbEntity
  8
0
100
AcDbCircle
 10
423.240417
 20
160.670702
 30
0.0
 40
3.0
100
AcDbArc
 50
233.79876
 51
305.26117
  0
CIRCLE
  5
A07
100
AcDbEntity
  8
0
100
AcDbCircle
 10
419.161648
 20
160.167727
 30
0.0
 40
1.3
  0
ARC
  5
A08
100
AcDbEntity
  8
0
100
AcDbCircle
 10
415.35204
 20
158.626227
 30
0.0
 40
3.0
100
AcDbArc
 50
68.79876
 51
170.26117
  0
CIRCLE
  5
A09
100
AcDbEntity
  8
0
100
AcDbCircle
 10
415.35204
 20
158.626227
 30
0.0
 40
1.3
  0
LINE
  5
A0A
100
AcDbEntity
  8
0
100
AcDbLine
 10
417.003569
 20
149.996528
 30
0.0
 11
413.528567
 21
153.529019
 31
0.0
  0
CIRCLE
  5
A0B
100
AcDbEntity
  8
0
100
AcDbCircle
 10
409.542742
 20
152.911471
 30
0.0
 40
1.3
  0
ARC
  5
A0C
100
AcDbEntity
  8
0
100
AcDbCircle
 10
412.07121
 20
156.151253
 30
0.0
 40
3.0
100
AcDbArc
 50
278.79876
 51
299.063955
  0
ARC
  5
A0D
100
AcDbEntity
  8
0
100
AcDbCircle
 10
407.683825
 20
149.211158
 30
0.0
 40
3.0
100
AcDbArc
 50
359.750044
 51
16.969835
  0
ARC
  5
A0E
100
AcDbEntity
  8
0
100
AcDbCircle
 10
409.542742
 20
152.911471
 30
0.0
 40
3.0
100
AcDbArc
 50
289.683215
 51
5.26117
  0
ARC
  5
A0F
100
AcDbEntity
  8
0
100
AcDbCircle
 10
412.07121
 20
156.151253
 30
0.0
 40
3.0
100
AcDbArc
 50
83.79876
 51
185.26117
  0
CIRCLE
  5
A10
100
AcDbEntity
  8
0
100
AcDbCircle
 10
412.07121
 20
156.151253
 30
0.0
 40
1.3
  0
LINE
  5
A11
100
AcDbEntity
  8
0
100
AcDbLine
 10
418.144183
 20
151.11858
 30
0.0
 11
414.669181
 21
154.651071
 31
0.0
  0
LINE
  5
A12
100
AcDbEntity
  8
0
100
AcDbLine
 10
420.355834
 20
152.371399
 30
0.0
 11
419.112639
 21
157.168127
 31
0.0
  0
LINE
  5
A13
100
AcDbEntity
  8
0
100
AcDbLine
 10
421.90466
 20
152.772817
 30
0.0
 11
420.661466
 21
157.569545
 31
0.0
  0
ARC
  5
A14
100
AcDbEntity
  8
0
100
AcDbCircle
 10
423.111271
 20
144.928552
 30
0.0
 40
7.936524
100
AcDbArc
 50
110.315193
 51
128.744737
  0
ARC
  5
A15
100
AcDbEntity
  8
0
100
AcDbCircle
 10
419.161648
 20
160.167727
 30
0.0
 40
3.0
100
AcDbArc
 50
248.79876
 51
269.063955
  0
ARC
  5
A16
100
AcDbEntity
  8
0
100
AcDbCircle
 10
415.35204
 20
158.626227
 30
0.0
 40
3.0
100
AcDbArc
 50
263.79876
 51
335.26117
  0
ARC
  5
A17
100
AcDbEntity
  8
0
100
AcDbCircle
 10
412.07121
 20
156.151253
 30
0.0
 40
3.0
100
AcDbArc
 50
329.995975
 51
350.26117
  0
ARC
  5
A18
100
AcDbEntity
  8
0
100
AcDbCircle
 10
419.161648
 20
160.167727
 30
0.0
 40
3.0
100
AcDbArc
 50
299.995975
 51
320.26117
  0
ARC
  5
A19
100
AcDbEntity
  8
0
100
AcDbCircle
 10
419.161648
 20
160.167727
 30
0.0
 40
3.0
100
AcDbArc
 50
53.79876
 51
155.26117
  0
ARC
  5
A1A
100
AcDbEntity
  8
0
100
AcDbCircle
 10
436.808946
 20
152.687783
 30
0.0
 40
3.0
100
AcDbArc
 50
338.79876
 51
80.26117
  0
CIRCLE
  5
A1B
100
AcDbEntity
  8
0
100
AcDbCircle
 10
427.310385
 20
160.100876
 30
0.0
 40
1.3
  0
ARC
  5
A1C
100
AcDbEntity
  8
0
100
AcDbCircle
 10
431.09419
 20
158.497081
 30
0.0
 40
3.0
100
AcDbArc
 50
8.79876
 51
110.26117
  0
CIRCLE
  5
A1D
100
AcDbEntity
  8
0
100
AcDbCircle
 10
431.09419
 20
158.497081
 30
0.0
 40
1.3
  0
LINE
  5
A1E
100
AcDbEntity
  8
0
100
AcDbLine
 10
429.301299
 20
149.89564
 30
0.0
 11
432.83379
 21
153.370642
 31
0.0
  0
LINE
  5
A1F
100
AcDbEntity
  8
0
100
AcDbLine
 10
428.179247
 20
151.036254
 30
0.0
 11
431.711738
 21
154.511256
 31
0.0
  0
ARC
  5
A20
100
AcDbEntity
  8
0
100
AcDbCircle
 10
431.09419
 20
158.497081
 30
0.0
 40
3.0
100
AcDbArc
 50
203.79876
 51
275.26117
  0
LINE
  5
A21
100
AcDbEntity
  8
0
100
AcDbLine
 10
424.446416
 20
152.751965
 30
0.0
 11
425.768142
 21
157.527651
 31
0.0
  0
LINE
  5
A22
100
AcDbEntity
  8
0
100
AcDbLine
 10
425.988448
 20
152.32519
 30
0.0
 11
427.310174
 21
157.100876
 31
0.0
  0
ARC
  5
A23
100
AcDbEntity
  8
0
100
AcDbCircle
 10
423.111271
 20
144.928552
 30
0.0
 40
7.936524
100
AcDbArc
 50
50.315193
 51
68.744737
  0
ARC
  5
A24
100
AcDbEntity
  8
0
100
AcDbCircle
 10
427.310385
 20
160.100876
 30
0.0
 40
3.0
100
AcDbArc
 50
218.79876
 51
239.063955
  0
ARC
  5
A25
100
AcDbEntity
  8
0
100
AcDbCircle
 10
427.310385
 20
160.100876
 30
0.0
 40
3.0
100
AcDbArc
 50
269.995975
 51
290.26117
  0
ARC
  5
A26
100
AcDbEntity
  8
0
100
AcDbCircle
 10
436.808946
 20
152.687783
 30
0.0
 40
3.0
100
AcDbArc
 50
173.79876
 51
245.26117
  0
ARC
  5
A27
100
AcDbEntity
  8
0
100
AcDbCircle
 10
434.333972
 20
155.968613
 30
0.0
 40
3.0
100
AcDbArc
 50
239.995975
 51
260.26117
  0
ARC
  5
A28
100
AcDbEntity
  8
0
100
AcDbCircle
 10
438.350446
 20
148.878174
 30
0.0
 40
3.0
100
AcDbArc
 50
158.79876
 51
179.063955
  0
CIRCLE
  5
A29
100
AcDbEntity
  8
0
100
AcDbCircle
 10
436.808946
 20
152.687783
 30
0.0
 40
1.3
  0
ARC
  5
A2A
100
AcDbEntity
  8
0
100
AcDbCircle
 10
434.333972
 20
155.968613
 30
0.0
 40
3.0
100
AcDbArc
 50
353.79876
 51
95.26117
  0
CIRCLE
  5
A2B
100
AcDbEntity
  8
0
100
AcDbCircle
 10
434.333972
 20
155.968613
 30
0.0
 40
1.3
  0
ARC
  5
A2C
100
AcDbEntity
  8
0
100
AcDbCircle
 10
434.333972
 20
155.968613
 30
0.0
 40
3.0
100
AcDbArc
 50
188.79876
 51
209.063955
  0
ARC
  5
A2D
100
AcDbEntity
  8
0
100
AcDbCircle
 10
427.310385
 20
160.100876
 30
0.0
 40
3.0
100
AcDbArc
 50
23.79876
 51
125.26117
  0
ARC
  5
A2E
100
AcDbEntity
  8
0
100
AcDbCircle
 10
409.542742
 20
152.911471
 30
0.0
 40
3.0
100
AcDbArc
 50
98.79876
 51
200.26117
  0
ARC
  5
A3E
100
AcDbEntity
  8
0
100
AcDbCircle
 10
438.853421
 20
144.799406
 30
0.0
 40
3.0
100
AcDbArc
 50
308.79876
 51
50.26117
  0
CIRCLE
  5
A3F
100
AcDbEntity
  8
0
100
AcDbCircle
 10
438.853421
 20
144.799406
 30
0.0
 40
1.3
  0
CIRCLE
  5
A40
100
AcDbEntity
  8
0
100
AcDbCircle
 10
438.283595
 20
140.729438
 30
0.0
 40
1.3
  0
LINE
  5
A41
100
AcDbEntity
  8
0
100
AcDbLine
 10
430.934684
 20
143.593406
 30
0.0
 11
435.71037
 21
142.271681
 31
0.0
  0
ARC
  5
A42
100
AcDbEntity
  8
0
100
AcDbCircle
 10
438.283595
 20
140.729438
 30
0.0
 40
3.0
100
AcDbArc
 50
128.79876
 51
149.063955
  0
ARC
  5
A43
100
AcDbEntity
  8
0
100
AcDbCircle
 10
438.853421
 20
144.799406
 30
0.0
 40
3.0
100
AcDbArc
 50
143.79876
 51
215.26117
  0
LINE
  5
A44
100
AcDbEntity
  8
0
100
AcDbLine
 10
430.955536
 20
146.135162
 30
0.0
 11
435.752264
 21
147.378357
 31
0.0
  0
ARC
  5
A45
100
AcDbEntity
  8
0
100
AcDbCircle
 10
423.111271
 20
144.928552
 30
0.0
 40
7.936524
100
AcDbArc
 50
350.315193
 51
8.744737
  0
ARC
  5
A46
100
AcDbEntity
  8
0
100
AcDbCircle
 10
438.350446
 20
148.878174
 30
0.0
 40
3.0
100
AcDbArc
 50
209.995975
 51
230.26117
  0
ARC
  5
A4B
100
AcDbEntity
  8
0
100
AcDbCircle
 10
415.128352
 20
131.360023
 30
0.0
 40
3.0
100
AcDbArc
 50
188.79876
 51
290.26117
  0
ARC
  5
A4C
100
AcDbEntity
  8
0
100
AcDbCircle
 10
430.870502
 20
131.230877
 30
0.0
 40
3.0
100
AcDbArc
 50
83.79876
 51
155.26117
  0
ARC
  5
A4D
100
AcDbEntity
  8
0
100
AcDbCircle
 10
423.111271
 20
144.928552
 30
0.0
 40
7.936524
100
AcDbArc
 50
290.315193
 51
308.744737
  0
CIRCLE
  5
A4E
100
AcDbEntity
  8
0
100
AcDbCircle
 10
430.870502
 20
131.230877
 30
0.0
 40
1.3
  0
ARC
  5
A4F
100
AcDbEntity
  8
0
100
AcDbCircle
 10
422.982125
 20
129.186402
 30
0.0
 40
3.0
100
AcDbArc
 50
218.79876
 51
320.26117
  0
CIRCLE
  5
A50
100
AcDbEntity
  8
0
100
AcDbCircle
 10
427.060893
 20
129.689377
 30
0.0
 40
1.3
  0
ARC
  5
A51
100
AcDbEntity
  8
0
100
AcDbCircle
 10
422.982125
 20
129.186402
 30
0.0
 40
3.0
100
AcDbArc
 50
53.79876
 51
125.26117
  0
LINE
  5
A52
100
AcDbEntity
  8
0
100
AcDbLine
 10
421.776125
 20
137.105138
 30
0.0
 11
420.4544
 21
132.329453
 31
0.0
  0
LINE
  5
A53
100
AcDbEntity
  8
0
100
AcDbLine
 10
420.234093
 20
137.531913
 30
0.0
 11
418.912368
 21
132.756228
 31
0.0
  0
CIRCLE
  5
A54
100
AcDbEntity
  8
0
100
AcDbCircle
 10
422.982125
 20
129.186402
 30
0.0
 40
1.3
  0
ARC
  5
A55
100
AcDbEntity
  8
0
100
AcDbCircle
 10
415.128352
 20
131.360023
 30
0.0
 40
3.0
100
AcDbArc
 50
23.79876
 51
99.376714
  0
CIRCLE
  5
A56
100
AcDbEntity
  8
0
100
AcDbCircle
 10
415.128352
 20
131.360023
 30
0.0
 40
1.3
  0
ARC
  5
A57
100
AcDbEntity
  8
0
100
AcDbCircle
 10
418.912157
 20
129.756228
 30
0.0
 40
3.0
100
AcDbArc
 50
89.995975
 51
110.26117
  0
CIRCLE
  5
A58
100
AcDbEntity
  8
0
100
AcDbCircle
 10
418.912157
 20
129.756228
 30
0.0
 40
1.3
  0
ARC
  5
A59
100
AcDbEntity
  8
0
100
AcDbCircle
 10
418.912157
 20
129.756228
 30
0.0
 40
3.0
100
AcDbArc
 50
203.79876
 51
305.26117
  0
ARC
  5
A5A
100
AcDbEntity
  8
0
100
AcDbCircle
 10
418.912157
 20
129.756228
 30
0.0
 40
3.0
100
AcDbArc
 50
38.79876
 51
59.063955
  0
LINE
  5
A5B
100
AcDbEntity
  8
0
100
AcDbLine
 10
425.866708
 20
137.485704
 30
0.0
 11
427.109902
 21
132.688976
 31
0.0
  0
LINE
  5
A5C
100
AcDbEntity
  8
0
100
AcDbLine
 10
424.317881
 20
137.084286
 30
0.0
 11
425.561076
 21
132.287558
 31
0.0
  0
ARC
  5
A5D
100
AcDbEntity
  8
0
100
AcDbCircle
 10
423.111271
 20
144.928552
 30
0.0
 40
7.936524
100
AcDbArc
 50
260.315193
 51
278.744737
  0
ARC
  5
A5E
100
AcDbEntity
  8
0
100
AcDbCircle
 10
427.060893
 20
129.689377
 30
0.0
 40
3.0
100
AcDbArc
 50
119.995975
 51
140.26117
  0
ARC
  5
A5F
100
AcDbEntity
  8
0
100
AcDbCircle
 10
427.060893
 20
129.689377
 30
0.0
 40
3.0
100
AcDbArc
 50
68.79876
 51
89.063955
  0
ARC
  5
A60
100
AcDbEntity
  8
0
100
AcDbCircle
 10
436.6798
 20
136.945633
 30
0.0
 40
3.0
100
AcDbArc
 50
278.79876
 51
20.26117
  0
CIRCLE
  5
A61
100
AcDbEntity
  8
0
100
AcDbCircle
 10
434.151332
 20
133.70585
 30
0.0
 40
1.3
  0
ARC
  5
A62
100
AcDbEntity
  8
0
100
AcDbCircle
 10
438.283595
 20
140.729438
 30
0.0
 40
3.0
100
AcDbArc
 50
179.995975
 51
200.26117
  0
LINE
  5
A63
100
AcDbEntity
  8
0
100
AcDbLine
 10
430.507909
 20
142.051374
 30
0.0
 11
435.283595
 21
140.729649
 31
0.0
  0
CIRCLE
  5
A64
100
AcDbEntity
  8
0
100
AcDbCircle
 10
436.6798
 20
136.945633
 30
0.0
 40
1.3
  0
LINE
  5
A65
100
AcDbEntity
  8
0
100
AcDbLine
 10
429.218973
 20
139.860575
 30
0.0
 11
432.693975
 21
136.328084
 31
0.0
  0
LINE
  5
A66
100
AcDbEntity
  8
0
100
AcDbLine
 10
428.078359
 20
138.738524
 30
0.0
 11
431.553361
 21
135.206033
 31
0.0
  0
ARC
  5
A67
100
AcDbEntity
  8
0
100
AcDbCircle
 10
423.111271
 20
144.928552
 30
0.0
 40
7.936524
100
AcDbArc
 50
320.315193
 51
338.744737
  0
ARC
  5
A68
100
AcDbEntity
  8
0
100
AcDbCircle
 10
434.151332
 20
133.70585
 30
0.0
 40
3.0
100
AcDbArc
 50
98.79876
 51
119.063955
  0
ARC
  5
A69
100
AcDbEntity
  8
0
100
AcDbCircle
 10
434.151332
 20
133.70585
 30
0.0
 40
3.0
100
AcDbArc
 50
149.995975
 51
170.26117
  0
ARC
  5
A6A
100
AcDbEntity
  8
0
100
AcDbCircle
 10
436.6798
 20
136.945633
 30
0.0
 40
3.0
100
AcDbArc
 50
113.79876
 51
185.26117
  0
ARC
  5
A6B
100
AcDbEntity
  8
0
100
AcDbCircle
 10
438.283595
 20
140.729438
 30
0.0
 40
3.0
100
AcDbArc
 50
293.79876
 51
35.26117
  0
ARC
  5
A6C
100
AcDbEntity
  8
0
100
AcDbCircle
 10
430.870502
 20
131.230877
 30
0.0
 40
3.0
100
AcDbArc
 50
248.79876
 51
350.26117
  0
ARC
  5
A6D
100
AcDbEntity
  8
0
100
AcDbCircle
 10
427.060893
 20
129.689377
 30
0.0
 40
3.0
100
AcDbArc
 50
233.79876
 51
335.26117
  0
ARC
  5
A6E
100
AcDbEntity
  8
0
100
AcDbCircle
 10
434.151332
 20
133.70585
 30
0.0
 40
3.0
100
AcDbArc
 50
263.79876
 51
5.26117
  0
LINE
  5
A6F
100
AcDbEntity
  8
0
100
AcDbLine
 10
418.043294
 20
138.82085
 30
0.0
 11
414.322073
 21
135.160188
 31
0.0
  0
ARC
  5
A70
100
AcDbEntity
  8
0
100
AcDbCircle
 10
423.111271
 20
144.928552
 30
0.0
 40
7.936524
100
AcDbArc
 50
230.315193
 51
248.744737
  0
ARC
  5
A71
100
AcDbEntity
  8
0
100
AcDbCircle
 10
411.706118
 20
133.69159
 30
0.0
 40
3.0
100
AcDbArc
 50
12.090095
 51
29.309885
  0
ARC
  5
A74
100
AcDbEntity
  8
0
100
AcDbCircle
 10
411.888569
 20
133.888491
 30
0.0
 40
3.0
100
AcDbArc
 50
173.79876
 51
275.26117
  0
CIRCLE
  5
A75
100
AcDbEntity
  8
0
100
AcDbCircle
 10
411.888569
 20
133.888491
 30
0.0
 40
1.3
  0
ARC
  5
A76
100
AcDbEntity
  8
0
100
AcDbCircle
 10
411.888569
 20
133.888491
 30
0.0
 40
3.0
100
AcDbArc
 50
59.995975
 51
80.26117
  0
LINE
  5
A77
100
AcDbEntity
  8
0
100
AcDbLine
 10
416.921243
 20
139.961464
 30
0.0
 11
413.388752
 21
136.486462
 31
0.0
  0
ARC
  5
A78
100
AcDbEntity
  8
0
100
AcDbCircle
 10
423.111271
 20
144.928552
 30
0.0
 40
7.936524
100
AcDbArc
 50
200.315193
 51
218.744737
  0
LINE
  5
A79
100
AcDbEntity
  8
0
100
AcDbLine
 10
415.668423
 20
142.173115
 30
0.0
 11
410.871695
 21
140.92992
 31
0.0
  0
ARC
  5
A7A
100
AcDbEntity
  8
0
100
AcDbCircle
 10
407.872096
 20
140.978929
 30
0.0
 40
3.0
100
AcDbArc
 50
338.79876
 51
359.063955
  0
ARC
  5
A7B
100
AcDbEntity
  8
0
100
AcDbCircle
 10
409.413596
 20
137.169321
 30
0.0
 40
3.0
100
AcDbArc
 50
353.79876
 51
65.26117
  0
CIRCLE
  5
A7C
100
AcDbEntity
  8
0
100
AcDbCircle
 10
409.413596
 20
137.169321
 30
0.0
 40
1.3
  0
ARC
  5
A7D
100
AcDbEntity
  8
0
100
AcDbCircle
 10
409.413596
 20
137.169321
 30
0.0
 40
3.0
100
AcDbArc
 50
158.79876
 51
260.26117
  0
ARC
  5
A7E
100
AcDbEntity
  8
0
100
AcDbCircle
 10
407.872096
 20
140.978929
 30
0.0
 40
3.0
100
AcDbArc
 50
143.79876
 51
245.26117
  0
CIRCLE
  5
A7F
100
AcDbEntity
  8
0
100
AcDbCircle
 10
407.872096
 20
140.978929
 30
0.0
 40
1.3
  0
ARC
  5
A80
100
AcDbEntity
  8
0
100
AcDbCircle
 10
407.369121
 20
145.057698
 30
0.0
 40
3.0
100
AcDbArc
 50
323.79876
 51
35.26117
  0
LINE
  5
A81
100
AcDbEntity
  8
0
100
AcDbLine
 10
415.267005
 20
143.721941
 30
0.0
 11
410.470277
 21
142.478747
 31
0.0
  0
CIRCLE
  5
A82
100
AcDbEntity
  8
0
100
AcDbCircle
 10
407.369121
 20
145.057698
 30
0.0
 40
1.3
  0
ARC
  5
A83
100
AcDbEntity
  8
0
100
AcDbCircle
 10
407.938947
 20
149.127666
 30
0.0
 40
3.0
100
AcDbArc
 50
308.79876
 51
329.063955
  0
ARC
  5
A84
100
AcDbEntity
  8
0
100
AcDbCircle
 10
407.872096
 20
140.978929
 30
0.0
 40
3.0
100
AcDbArc
 50
29.995975
 51
50.26117
  0
LINE
  5
A85
100
AcDbEntity
  8
0
100
AcDbLine
 10
415.287857
 20
146.263697
 30
0.0
 11
410.512172
 21
147.585423
 31
0.0
  0
ARC
  5
A86
100
AcDbEntity
  8
0
100
AcDbCircle
 10
423.111271
 20
144.928552
 30
0.0
 40
7.936524
100
AcDbArc
 50
170.315193
 51
188.744737
  0
ARC
  5
A87
100
AcDbEntity
  8
0
100
AcDbCircle
 10
407.369121
 20
145.057698
 30
0.0
 40
3.0
100
AcDbArc
 50
128.79876
 51
230.26117
  0
ARC
  5
A8A
100
AcDbEntity
  8
0
100
AcDbCircle
 10
407.938947
 20
149.127666
 30
0.0
 40
3.0
100
AcDbArc
 50
113.79876
 51
215.26117
  0
CIRCLE
  5
A8B
100
AcDbEntity
  8
0
100
AcDbCircle
 10
407.938947
 20
149.127666
 30
0.0
 40
1.3
  0
CIRCLE
  5
BF5
100
AcDbEntity
  8
0
100
AcDbCircle
 10
244.296114
 20
173.276309
 30
0.0
 40
1.3
  0
CIRCLE
  5
BF7
100
AcDbEntity
  8
0
100
AcDbCircle
 10
274.707613
 20
173.026817
 30
0.0
 40
1.3
  0
LINE
  5
BF8
100
AcDbEntity
  8
0
100
AcDbLine
 10
266.911286
 20
171.832631
 30
0.0
 11
271.708014
 21
173.075826
 31
0.0
  0
ARC
  5
BF9
100
AcDbEntity
  8
0
100
AcDbCircle
 10
259.468438
 20
169.077195
 30
0.0
 40
7.936524
100
AcDbArc
 50
20.315193
 51
38.744737
  0
LINE
  5
BFB
100
AcDbEntity
  8
0
100
AcDbLine
 10
252.0718
 20
171.954372
 30
0.0
 11
247.040964
 21
173.346714
 31
0.0
  0
ARC
  5
BFC
100
AcDbEntity
  8
0
100
AcDbCircle
 10
259.468438
 20
169.077195
 30
0.0
 40
7.936524
100
AcDbArc
 50
140.315193
 51
158.744737
  0
CIRCLE
  5
BFD
100
AcDbEntity
  8
0
100
AcDbCircle
 10
243.726288
 20
169.206341
 30
0.0
 40
1.3
  0
CIRCLE
  5
BFE
100
AcDbEntity
  8
0
100
AcDbCircle
 10
244.229263
 20
165.127572
 30
0.0
 40
1.3
  0
CIRCLE
  5
C04
100
AcDbEntity
  8
0
100
AcDbCircle
 10
275.210589
 20
168.948048
 30
0.0
 40
1.3
  0
ARC
  5
C05
100
AcDbEntity
  8
0
100
AcDbCircle
 10
259.468438
 20
169.077195
 30
0.0
 40
7.936524
100
AcDbArc
 50
260.315193
 51
278.744737
  0
CIRCLE
  5
C06
100
AcDbEntity
  8
0
100
AcDbCircle
 10
259.339292
 20
153.335044
 30
0.0
 40
1.3
  0
ARC
  5
C07
100
AcDbEntity
  8
0
100
AcDbCircle
 10
259.339292
 20
153.335044
 30
0.0
 40
3.0
100
AcDbArc
 50
53.79876
 51
125.26117
  0
CIRCLE
  5
C09
100
AcDbEntity
  8
0
100
AcDbCircle
 10
245.770763
 20
161.317963
 30
0.0
 40
1.3
  0
ARC
  5
C0A
100
AcDbEntity
  8
0
100
AcDbCircle
 10
245.770763
 20
161.317963
 30
0.0
 40
3.0
100
AcDbArc
 50
353.79876
 51
65.26117
  0
LINE
  5
C0B
100
AcDbEntity
  8
0
100
AcDbLine
 10
253.27841
 20
164.110107
 30
0.0
 11
249.74592
 21
160.635104
 31
0.0
  0
LINE
  5
C0C
100
AcDbEntity
  8
0
100
AcDbLine
 10
254.400462
 20
162.969493
 30
0.0
 11
250.679241
 21
159.308831
 31
0.0
  0
LINE
  5
C0D
100
AcDbEntity
  8
0
100
AcDbLine
 10
256.591261
 20
161.680556
 30
0.0
 11
255.269535
 21
156.904871
 31
0.0
  0
LINE
  5
C0E
100
AcDbEntity
  8
0
100
AcDbLine
 10
258.133293
 20
161.253781
 30
0.0
 11
256.811567
 21
156.478096
 31
0.0
  0
CIRCLE
  5
C10
100
AcDbEntity
  8
0
100
AcDbCircle
 10
251.485519
 20
155.508666
 30
0.0
 40
1.3
  0
ARC
  5
C11
100
AcDbEntity
  8
0
100
AcDbCircle
 10
251.485519
 20
155.508666
 30
0.0
 40
3.0
100
AcDbArc
 50
23.79876
 51
99.376714
  0
CIRCLE
  5
C13
100
AcDbEntity
  8
0
100
AcDbCircle
 10
248.245737
 20
158.037134
 30
0.0
 40
1.3
  0
ARC
  5
C14
100
AcDbEntity
  8
0
100
AcDbCircle
 10
248.245737
 20
158.037134
 30
0.0
 40
3.0
100
AcDbArc
 50
59.995975
 51
80.26117
  0
ARC
  5
C15
100
AcDbEntity
  8
0
100
AcDbCircle
 10
248.063286
 20
157.840232
 30
0.0
 40
3.0
100
AcDbArc
 50
12.090095
 51
29.309885
  0
CIRCLE
  5
C17
100
AcDbEntity
  8
0
100
AcDbCircle
 10
255.269324
 20
153.904871
 30
0.0
 40
1.3
  0
ARC
  5
C18
100
AcDbEntity
  8
0
100
AcDbCircle
 10
255.269324
 20
153.904871
 30
0.0
 40
3.0
100
AcDbArc
 50
89.995975
 51
110.26117
  0
ARC
  5
C19
100
AcDbEntity
  8
0
100
AcDbCircle
 10
255.269324
 20
153.904871
 30
0.0
 40
3.0
100
AcDbArc
 50
38.79876
 51
59.063955
  0
LINE
  5
C1A
100
AcDbEntity
  8
0
100
AcDbLine
 10
251.645025
 20
170.41234
 30
0.0
 11
246.869339
 21
171.734066
 31
0.0
  0
LINE
  5
C1B
100
AcDbEntity
  8
0
100
AcDbLine
 10
251.624173
 20
167.870584
 30
0.0
 11
246.827445
 21
166.627389
 31
0.0
  0
LINE
  5
C1C
100
AcDbEntity
  8
0
100
AcDbLine
 10
252.025591
 20
166.321758
 30
0.0
 11
247.228863
 21
165.078563
 31
0.0
  0
ARC
  5
C1D
100
AcDbEntity
  8
0
100
AcDbCircle
 10
244.229263
 20
165.127572
 30
0.0
 40
3.0
100
AcDbArc
 50
29.995975
 51
50.26117
  0
ARC
  5
C1E
100
AcDbEntity
  8
0
100
AcDbCircle
 10
244.229263
 20
165.127572
 30
0.0
 40
3.0
100
AcDbArc
 50
338.79876
 51
359.063955
  0
ARC
  5
C1F
100
AcDbEntity
  8
0
100
AcDbCircle
 10
244.296114
 20
173.276309
 30
0.0
 40
3.0
100
AcDbArc
 50
308.79876
 51
329.063955
  0
ARC
  5
C20
100
AcDbEntity
  8
0
100
AcDbCircle
 10
243.726288
 20
169.206341
 30
0.0
 40
3.0
100
AcDbArc
 50
323.79876
 51
35.26117
  0
ARC
  5
C21
100
AcDbEntity
  8
0
100
AcDbCircle
 10
259.468438
 20
169.077195
 30
0.0
 40
7.936524
100
AcDbArc
 50
230.315193
 51
248.744737
  0
ARC
  5
C22
100
AcDbEntity
  8
0
100
AcDbCircle
 10
259.468438
 20
169.077195
 30
0.0
 40
7.936524
100
AcDbArc
 50
200.315193
 51
218.744737
  0
ARC
  5
C23
100
AcDbEntity
  8
0
100
AcDbCircle
 10
259.468438
 20
169.077195
 30
0.0
 40
7.936524
100
AcDbArc
 50
170.315193
 51
188.744737
  0
ARC
  5
C24
100
AcDbEntity
  8
0
100
AcDbCircle
 10
273.036967
 20
161.094276
 30
0.0
 40
3.0
100
AcDbArc
 50
113.79876
 51
185.26117
  0
LINE
  5
C25
100
AcDbEntity
  8
0
100
AcDbLine
 10
264.435526
 20
162.887166
 30
0.0
 11
267.910529
 21
159.354676
 31
0.0
  0
LINE
  5
C26
100
AcDbEntity
  8
0
100
AcDbLine
 10
265.57614
 20
164.009218
 30
0.0
 11
269.051143
 21
160.476727
 31
0.0
  0
CIRCLE
  5
C27
100
AcDbEntity
  8
0
100
AcDbCircle
 10
273.036967
 20
161.094276
 30
0.0
 40
1.3
  0
LINE
  5
C28
100
AcDbEntity
  8
0
100
AcDbLine
 10
260.675049
 20
161.232929
 30
0.0
 11
261.918244
 21
156.436201
 31
0.0
  0
LINE
  5
C29
100
AcDbEntity
  8
0
100
AcDbLine
 10
262.223875
 20
161.634347
 30
0.0
 11
263.46707
 21
156.837619
 31
0.0
  0
ARC
  5
C2B
100
AcDbEntity
  8
0
100
AcDbCircle
 10
270.508499
 20
157.854493
 30
0.0
 40
3.0
100
AcDbArc
 50
149.995975
 51
170.26117
  0
CIRCLE
  5
C2C
100
AcDbEntity
  8
0
100
AcDbCircle
 10
267.22767
 20
155.379519
 30
0.0
 40
1.3
  0
CIRCLE
  5
C2E
100
AcDbEntity
  8
0
100
AcDbCircle
 10
263.418061
 20
153.83802
 30
0.0
 40
1.3
  0
ARC
  5
C2F
100
AcDbEntity
  8
0
100
AcDbCircle
 10
263.418061
 20
153.83802
 30
0.0
 40
3.0
100
AcDbArc
 50
68.79876
 51
89.063955
  0
ARC
  5
C30
100
AcDbEntity
  8
0
100
AcDbCircle
 10
263.418061
 20
153.83802
 30
0.0
 40
3.0
100
AcDbArc
 50
119.995975
 51
140.26117
  0
ARC
  5
C31
100
AcDbEntity
  8
0
100
AcDbCircle
 10
267.22767
 20
155.379519
 30
0.0
 40
3.0
100
AcDbArc
 50
83.79876
 51
155.26117
  0
ARC
  5
C33
100
AcDbEntity
  8
0
100
AcDbCircle
 10
270.508499
 20
157.854493
 30
0.0
 40
3.0
100
AcDbArc
 50
98.79876
 51
119.063955
  0
CIRCLE
  5
C34
100
AcDbEntity
  8
0
100
AcDbCircle
 10
270.508499
 20
157.854493
 30
0.0
 40
1.3
  0
LINE
  5
C35
100
AcDbEntity
  8
0
100
AcDbLine
 10
266.865077
 20
166.200017
 30
0.0
 11
271.640762
 21
164.878291
 31
0.0
  0
LINE
  5
C36
100
AcDbEntity
  8
0
100
AcDbLine
 10
267.312704
 20
170.283805
 30
0.0
 11
272.109432
 21
171.527
 31
0.0
  0
LINE
  5
C37
100
AcDbEntity
  8
0
100
AcDbLine
 10
267.291852
 20
167.742049
 30
0.0
 11
272.067537
 21
166.420324
 31
0.0
  0
ARC
  5
C38
100
AcDbEntity
  8
0
100
AcDbCircle
 10
259.468438
 20
169.077195
 30
0.0
 40
7.936524
100
AcDbArc
 50
290.315193
 51
308.744737
  0
ARC
  5
C39
100
AcDbEntity
  8
0
100
AcDbCircle
 10
259.468438
 20
169.077195
 30
0.0
 40
7.936524
100
AcDbArc
 50
320.315193
 51
338.744737
  0
ARC
  5
C3A
100
AcDbEntity
  8
0
100
AcDbCircle
 10
259.468438
 20
169.077195
 30
0.0
 40
7.936524
100
AcDbArc
 50
350.315193
 51
8.744737
  0
ARC
  5
C3B
100
AcDbEntity
  8
0
100
AcDbCircle
 10
274.640762
 20
164.878081
 30
0.0
 40
3.0
100
AcDbArc
 50
128.79876
 51
149.063955
  0
ARC
  5
C3C
100
AcDbEntity
  8
0
100
AcDbCircle
 10
274.640762
 20
164.878081
 30
0.0
 40
3.0
100
AcDbArc
 50
179.995975
 51
200.26117
  0
CIRCLE
  5
C3D
100
AcDbEntity
  8
0
100
AcDbCircle
 10
274.640762
 20
164.878081
 30
0.0
 40
1.3
  0
ARC
  5
C3E
100
AcDbEntity
  8
0
100
AcDbCircle
 10
274.707613
 20
173.026817
 30
0.0
 40
3.0
100
AcDbArc
 50
209.995975
 51
230.26117
  0
ARC
  5
C3F
100
AcDbEntity
  8
0
100
AcDbCircle
 10
275.210589
 20
168.948048
 30
0.0
 40
3.0
100
AcDbArc
 50
143.79876
 51
215.26117
  0
ARC
  5
C43
100
AcDbEntity
  8
0
100
AcDbCircle
 10
259.597585
 20
184.819345
 30
0.0
 40
3.0
100
AcDbArc
 50
233.79876
 51
305.26117
  0
ARC
  5
C45
100
AcDbEntity
  8
0
100
AcDbCircle
 10
259.468438
 20
169.077195
 30
0.0
 40
7.936524
100
AcDbArc
 50
80.315193
 51
98.744737
  0
CIRCLE
  5
C46
100
AcDbEntity
  8
0
100
AcDbCircle
 10
259.597585
 20
184.819345
 30
0.0
 40
1.3
  0
CIRCLE
  5
C48
100
AcDbEntity
  8
0
100
AcDbCircle
 10
255.518816
 20
184.31637
 30
0.0
 40
1.3
  0
ARC
  5
C49
100
AcDbEntity
  8
0
100
AcDbCircle
 10
251.709207
 20
182.77487
 30
0.0
 40
3.0
100
AcDbArc
 50
263.79876
 51
335.26117
  0
LINE
  5
C4A
100
AcDbEntity
  8
0
100
AcDbLine
 10
254.50135
 20
175.267223
 30
0.0
 11
251.026348
 21
178.799713
 31
0.0
  0
LINE
  5
C4B
100
AcDbEntity
  8
0
100
AcDbLine
 10
253.360736
 20
174.145171
 30
0.0
 11
249.885734
 21
177.677662
 31
0.0
  0
CIRCLE
  5
C4C
100
AcDbEntity
  8
0
100
AcDbCircle
 10
251.709207
 20
182.77487
 30
0.0
 40
1.3
  0
ARC
  5
C4D
100
AcDbEntity
  8
0
100
AcDbCircle
 10
245.89991
 20
177.060114
 30
0.0
 40
3.0
100
AcDbArc
 50
289.683215
 51
5.26117
  0
ARC
  5
C4E
100
AcDbEntity
  8
0
100
AcDbCircle
 10
244.040992
 20
173.359801
 30
0.0
 40
3.0
100
AcDbArc
 50
359.750044
 51
16.969835
  0
CIRCLE
  5
C4F
100
AcDbEntity
  8
0
100
AcDbCircle
 10
245.89991
 20
177.060114
 30
0.0
 40
1.3
  0
ARC
  5
C50
100
AcDbEntity
  8
0
100
AcDbCircle
 10
248.428377
 20
180.299896
 30
0.0
 40
3.0
100
AcDbArc
 50
278.79876
 51
299.063955
  0
CIRCLE
  5
C51
100
AcDbEntity
  8
0
100
AcDbCircle
 10
248.428377
 20
180.299896
 30
0.0
 40
1.3
  0
ARC
  5
C53
100
AcDbEntity
  8
0
100
AcDbCircle
 10
248.428377
 20
180.299896
 30
0.0
 40
3.0
100
AcDbArc
 50
329.995975
 51
350.26117
  0
LINE
  5
C54
100
AcDbEntity
  8
0
100
AcDbLine
 10
258.261828
 20
176.92146
 30
0.0
 11
257.018633
 21
181.718188
 31
0.0
  0
LINE
  5
C55
100
AcDbEntity
  8
0
100
AcDbLine
 10
256.713002
 20
176.520042
 30
0.0
 11
255.469807
 21
181.31677
 31
0.0
  0
ARC
  5
C56
100
AcDbEntity
  8
0
100
AcDbCircle
 10
259.468438
 20
169.077195
 30
0.0
 40
7.936524
100
AcDbArc
 50
110.315193
 51
128.744737
  0
ARC
  5
C57
100
AcDbEntity
  8
0
100
AcDbCircle
 10
255.518816
 20
184.31637
 30
0.0
 40
3.0
100
AcDbArc
 50
248.79876
 51
269.063955
  0
ARC
  5
C58
100
AcDbEntity
  8
0
100
AcDbCircle
 10
255.518816
 20
184.31637
 30
0.0
 40
3.0
100
AcDbArc
 50
299.995975
 51
320.26117
  0
CIRCLE
  5
C5B
100
AcDbEntity
  8
0
100
AcDbCircle
 10
263.667552
 20
184.249519
 30
0.0
 40
1.3
  0
ARC
  5
C5C
100
AcDbEntity
  8
0
100
AcDbCircle
 10
270.69114
 20
180.117256
 30
0.0
 40
3.0
100
AcDbArc
 50
188.79876
 51
209.063955
  0
LINE
  5
C5D
100
AcDbEntity
  8
0
100
AcDbLine
 10
264.536415
 20
175.184897
 30
0.0
 11
268.068906
 21
178.659899
 31
0.0
  0
LINE
  5
C5E
100
AcDbEntity
  8
0
100
AcDbLine
 10
265.658467
 20
174.044283
 30
0.0
 11
269.190957
 21
177.519285
 31
0.0
  0
CIRCLE
  5
C5F
100
AcDbEntity
  8
0
100
AcDbCircle
 10
267.451357
 20
182.645723
 30
0.0
 40
1.3
  0
LINE
  5
C60
100
AcDbEntity
  8
0
100
AcDbLine
 10
262.345616
 20
176.473833
 30
0.0
 11
263.667342
 21
181.249519
 31
0.0
  0
LINE
  5
C61
100
AcDbEntity
  8
0
100
AcDbLine
 10
260.803584
 20
176.900608
 30
0.0
 11
262.125309
 21
181.676294
 31
0.0
  0
ARC
  5
C62
100
AcDbEntity
  8
0
100
AcDbCircle
 10
259.468438
 20
169.077195
 30
0.0
 40
7.936524
100
AcDbArc
 50
50.315193
 51
68.744737
  0
ARC
  5
C63
100
AcDbEntity
  8
0
100
AcDbCircle
 10
263.667552
 20
184.249519
 30
0.0
 40
3.0
100
AcDbArc
 50
269.995975
 51
290.26117
  0
ARC
  5
C64
100
AcDbEntity
  8
0
100
AcDbCircle
 10
263.667552
 20
184.249519
 30
0.0
 40
3.0
100
AcDbArc
 50
218.79876
 51
239.063955
  0
ARC
  5
C65
100
AcDbEntity
  8
0
100
AcDbCircle
 10
267.451357
 20
182.645723
 30
0.0
 40
3.0
100
AcDbArc
 50
203.79876
 51
275.26117
  0
CIRCLE
  5
C66
100
AcDbEntity
  8
0
100
AcDbCircle
 10
273.166114
 20
176.836426
 30
0.0
 40
1.3
  0
ARC
  5
C67
100
AcDbEntity
  8
0
100
AcDbCircle
 10
274.707613
 20
173.026817
 30
0.0
 40
3.0
100
AcDbArc
 50
158.79876
 51
179.063955
  0
ARC
  5
C68
100
AcDbEntity
  8
0
100
AcDbCircle
 10
270.69114
 20
180.117256
 30
0.0
 40
3.0
100
AcDbArc
 50
239.995975
 51
260.26117
  0
ARC
  5
C69
100
AcDbEntity
  8
0
100
AcDbCircle
 10
273.166114
 20
176.836426
 30
0.0
 40
3.0
100
AcDbArc
 50
173.79876
 51
245.26117
  0
CIRCLE
  5
C6A
100
AcDbEntity
  8
0
100
AcDbCircle
 10
270.69114
 20
180.117256
 30
0.0
 40
1.3
  0
CIRCLE
  5
D98
100
AcDbEntity
  8
0
100
AcDbCircle
 10
178.697751
 20
114.800438
 30
0.0
 40
1.3
  0
ARC
  5
D99
100
AcDbEntity
  8
0
100
AcDbCircle
 10
181.226484
 20
111.560862
 30
0.0
 40
3.0
100
AcDbArc
 50
174.74352
 51
250.321475
  0
LINE
  5
D9A
100
AcDbEntity
  8
0
100
AcDbLine
 10
175.055011
 20
106.454616
 30
0.0
 11
180.085734
 21
107.847369
 31
0.0
  0
ARC
  5
D9B
100
AcDbEntity
  8
0
100
AcDbCircle
 10
153.960298
 20
111.334943
 30
0.0
 40
3.0
100
AcDbArc
 50
294.74352
 51
6.20593
  0
LINE
  5
D9C
100
AcDbEntity
  8
0
100
AcDbLine
 10
161.468174
 20
108.543414
 30
0.0
 11
157.935399
 21
112.018127
 31
0.0
  0
LINE
  5
D9D
100
AcDbEntity
  8
0
100
AcDbLine
 10
173.765896
 20
108.645309
 30
0.0
 11
177.240609
 21
112.178084
 31
0.0
  0
ARC
  5
D9E
100
AcDbEntity
  8
0
100
AcDbCircle
 10
167.658608
 20
103.576833
 30
0.0
 40
7.936524
100
AcDbArc
 50
111.259953
 51
129.689497
  0
ARC
  5
D9F
100
AcDbEntity
  8
0
100
AcDbCircle
 10
167.658608
 20
103.576833
 30
0.0
 40
7.936524
100
AcDbArc
 50
51.259953
 51
69.689497
  0
LINE
  5
DA0
100
AcDbEntity
  8
0
100
AcDbLine
 10
172.62519
 20
109.767267
 30
0.0
 11
176.099903
 21
113.300043
 31
0.0
  0
LINE
  5
DA1
100
AcDbEntity
  8
0
100
AcDbLine
 10
162.590132
 20
109.68412
 30
0.0
 11
159.057357
 21
113.158833
 31
0.0
  0
LINE
  5
DA2
100
AcDbEntity
  8
0
100
AcDbLine
 10
160.215535
 20
106.33166
 30
0.0
 11
155.418706
 21
107.574463
 31
0.0
  0
ARC
  5
DA3
100
AcDbEntity
  8
0
100
AcDbCircle
 10
152.41911
 20
107.525208
 30
0.0
 40
3.0
100
AcDbArc
 50
0.940735
 51
21.20593
  0
ARC
  5
DA4
100
AcDbEntity
  8
0
100
AcDbCircle
 10
167.658608
 20
103.576833
 30
0.0
 40
7.936524
100
AcDbArc
 50
141.259953
 51
159.689497
  0
ARC
  5
DA5
100
AcDbEntity
  8
0
100
AcDbCircle
 10
167.658608
 20
103.576833
 30
0.0
 40
7.936524
100
AcDbArc
 50
21.259953
 51
39.689497
  0
ARC
  5
DA6
100
AcDbEntity
  8
0
100
AcDbCircle
 10
159.674579
 20
117.144708
 30
0.0
 40
3.0
100
AcDbArc
 50
264.74352
 51
336.20593
  0
CIRCLE
  5
DA7
100
AcDbEntity
  8
0
100
AcDbCircle
 10
153.960298
 20
111.334943
 30
0.0
 40
1.3
  0
CIRCLE
  5
DA8
100
AcDbEntity
  8
0
100
AcDbCircle
 10
156.435003
 20
114.615975
 30
0.0
 40
1.3
  0
ARC
  5
DA9
100
AcDbEntity
  8
0
100
AcDbCircle
 10
156.435003
 20
114.615975
 30
0.0
 40
3.0
100
AcDbArc
 50
279.74352
 51
300.008715
  0
ARC
  5
DAA
100
AcDbEntity
  8
0
100
AcDbCircle
 10
156.435003
 20
114.615975
 30
0.0
 40
3.0
100
AcDbArc
 50
330.940735
 51
351.20593
  0
CIRCLE
  5
DAB
100
AcDbEntity
  8
0
100
AcDbCircle
 10
159.674579
 20
117.144708
 30
0.0
 40
1.3
  0
LINE
  5
DAC
100
AcDbEntity
  8
0
100
AcDbLine
 10
164.780825
 20
110.973236
 30
0.0
 11
163.458709
 21
115.748813
 31
0.0
  0
LINE
  5
DAD
100
AcDbEntity
  8
0
100
AcDbLine
 10
166.322822
 20
111.400137
 30
0.0
 11
165.000706
 21
116.175714
 31
0.0
  0
LINE
  5
DAE
100
AcDbEntity
  8
0
100
AcDbLine
 10
168.864577
 20
111.421197
 30
0.0
 11
170.107379
 21
116.218027
 31
0.0
  0
ARC
  5
DAF
100
AcDbEntity
  8
0
100
AcDbCircle
 10
167.658608
 20
103.576833
 30
0.0
 40
7.936524
100
AcDbArc
 50
81.259953
 51
99.689497
  0
ARC
  5
DB0
100
AcDbEntity
  8
0
100
AcDbCircle
 10
167.528174
 20
119.318972
 30
0.0
 40
3.0
100
AcDbArc
 50
234.74352
 51
306.20593
  0
ARC
  5
DB1
100
AcDbEntity
  8
0
100
AcDbCircle
 10
163.458252
 20
118.748813
 30
0.0
 40
3.0
100
AcDbArc
 50
300.940735
 51
321.20593
  0
CIRCLE
  5
DB2
100
AcDbEntity
  8
0
100
AcDbCircle
 10
163.458252
 20
118.748813
 30
0.0
 40
1.3
  0
ARC
  5
DB3
100
AcDbEntity
  8
0
100
AcDbCircle
 10
163.458252
 20
118.748813
 30
0.0
 40
3.0
100
AcDbArc
 50
249.74352
 51
270.008715
  0
ARC
  5
DB4
100
AcDbEntity
  8
0
100
AcDbCircle
 10
171.606984
 20
118.816331
 30
0.0
 40
3.0
100
AcDbArc
 50
219.74352
 51
240.008715
  0
CIRCLE
  5
DB5
100
AcDbEntity
  8
0
100
AcDbCircle
 10
167.528174
 20
119.318972
 30
0.0
 40
1.3
  0
ARC
  5
DB6
100
AcDbEntity
  8
0
100
AcDbCircle
 10
175.416718
 20
117.275143
 30
0.0
 40
3.0
100
AcDbArc
 50
204.74352
 51
276.20593
  0
LINE
  5
DB7
100
AcDbEntity
  8
0
100
AcDbLine
 10
170.413436
 20
111.019906
 30
0.0
 11
171.656238
 21
115.816735
 31
0.0
  0
ARC
  5
DB8
100
AcDbEntity
  8
0
100
AcDbCircle
 10
178.697751
 20
114.800438
 30
0.0
 40
3.0
100
AcDbArc
 50
189.74352
 51
210.008715
  0
ARC
  5
DB9
100
AcDbEntity
  8
0
100
AcDbCircle
 10
178.697751
 20
114.800438
 30
0.0
 40
3.0
100
AcDbArc
 50
240.940735
 51
261.20593
  0
CIRCLE
  5
DBA
100
AcDbEntity
  8
0
100
AcDbCircle
 10
175.416718
 20
117.275143
 30
0.0
 40
1.3
  0
ARC
  5
DBB
100
AcDbEntity
  8
0
100
AcDbCircle
 10
171.606984
 20
118.816331
 30
0.0
 40
3.0
100
AcDbArc
 50
270.940735
 51
291.20593
  0
CIRCLE
  5
DBC
100
AcDbEntity
  8
0
100
AcDbCircle
 10
171.606984
 20
118.816331
 30
0.0
 40
1.3
  0
ARC
  5
DBD
100
AcDbEntity
  8
0
100
AcDbCircle
 10
183.085704
 20
107.860702
 30
0.0
 40
3.0
100
AcDbArc
 50
163.034855
 51
180.254645
  0
CIRCLE
  5
DBE
100
AcDbEntity
  8
0
100
AcDbCircle
 10
181.226484
 20
111.560862
 30
0.0
 40
1.3
  0
LINE
  5
DBF
100
AcDbEntity
  8
0
100
AcDbLine
 10
344.137435
 20
106.450895
 30
0.0
 11
339.106599
 21
107.843236
 31
0.0
  0
ARC
  5
DC0
100
AcDbEntity
  8
0
100
AcDbCircle
 10
337.965544
 20
111.556636
 30
0.0
 40
3.0
100
AcDbArc
 50
289.683215
 51
5.26117
  0
CIRCLE
  5
DC1
100
AcDbEntity
  8
0
100
AcDbCircle
 10
340.494012
 20
114.796419
 30
0.0
 40
1.3
  0
ARC
  5
DC2
100
AcDbEntity
  8
0
100
AcDbCircle
 10
336.106627
 20
107.856324
 30
0.0
 40
3.0
100
AcDbArc
 50
359.750044
 51
16.969835
  0
CIRCLE
  5
DC3
100
AcDbEntity
  8
0
100
AcDbCircle
 10
337.965544
 20
111.556636
 30
0.0
 40
1.3
  0
LINE
  5
DC4
100
AcDbEntity
  8
0
100
AcDbLine
 10
356.60205
 20
109.681419
 30
0.0
 11
360.134541
 21
113.156422
 31
0.0
  0
LINE
  5
DC5
100
AcDbEntity
  8
0
100
AcDbLine
 10
346.566985
 20
109.763745
 30
0.0
 11
343.091983
 21
113.296236
 31
0.0
  0
ARC
  5
DC6
100
AcDbEntity
  8
0
100
AcDbCircle
 10
351.534073
 20
103.573717
 30
0.0
 40
7.936524
100
AcDbArc
 50
110.315193
 51
128.744737
  0
ARC
  5
DC7
100
AcDbEntity
  8
0
100
AcDbCircle
 10
351.534073
 20
103.573717
 30
0.0
 40
7.936524
100
AcDbArc
 50
50.315193
 51
68.744737
  0
LINE
  5
DC8
100
AcDbEntity
  8
0
100
AcDbLine
 10
345.426371
 20
108.641694
 30
0.0
 11
341.951369
 21
112.174185
 31
0.0
  0
LINE
  5
DC9
100
AcDbEntity
  8
0
100
AcDbLine
 10
357.724102
 20
108.540805
 30
0.0
 11
361.256592
 21
112.015807
 31
0.0
  0
ARC
  5
DCA
100
AcDbEntity
  8
0
100
AcDbCircle
 10
365.231748
 20
111.332948
 30
0.0
 40
3.0
100
AcDbArc
 50
173.79876
 51
245.26117
  0
ARC
  5
DCB
100
AcDbEntity
  8
0
100
AcDbCircle
 10
351.534073
 20
103.573717
 30
0.0
 40
7.936524
100
AcDbArc
 50
140.315193
 51
158.744737
  0
LINE
  5
DCC
100
AcDbEntity
  8
0
100
AcDbLine
 10
358.976921
 20
106.329154
 30
0.0
 11
363.773649
 21
107.572349
 31
0.0
  0
ARC
  5
DCD
100
AcDbEntity
  8
0
100
AcDbCircle
 10
351.534073
 20
103.573717
 30
0.0
 40
7.936524
100
AcDbArc
 50
20.315193
 51
38.744737
  0
ARC
  5
DCE
100
AcDbEntity
  8
0
100
AcDbCircle
 10
366.773248
 20
107.52334
 30
0.0
 40
3.0
100
AcDbArc
 50
158.79876
 51
179.063955
  0
ARC
  5
DCF
100
AcDbEntity
  8
0
100
AcDbCircle
 10
355.733187
 20
118.746041
 30
0.0
 40
3.0
100
AcDbArc
 50
269.995975
 51
290.26117
  0
CIRCLE
  5
DD0
100
AcDbEntity
  8
0
100
AcDbCircle
 10
355.733187
 20
118.746041
 30
0.0
 40
1.3
  0
LINE
  5
DD1
100
AcDbEntity
  8
0
100
AcDbLine
 10
348.778637
 20
111.016565
 30
0.0
 11
347.535442
 21
115.813293
 31
0.0
  0
CIRCLE
  5
DD2
100
AcDbEntity
  8
0
100
AcDbCircle
 10
347.584451
 20
118.812892
 30
0.0
 40
1.3
  0
ARC
  5
DD3
100
AcDbEntity
  8
0
100
AcDbCircle
 10
343.774842
 20
117.271392
 30
0.0
 40
3.0
100
AcDbArc
 50
263.79876
 51
335.26117
  0
ARC
  5
DD4
100
AcDbEntity
  8
0
100
AcDbCircle
 10
340.494012
 20
114.796419
 30
0.0
 40
3.0
100
AcDbArc
 50
278.79876
 51
299.063955
  0
ARC
  5
DD5
100
AcDbEntity
  8
0
100
AcDbCircle
 10
340.494012
 20
114.796419
 30
0.0
 40
3.0
100
AcDbArc
 50
329.995975
 51
350.26117
  0
CIRCLE
  5
DD6
100
AcDbEntity
  8
0
100
AcDbCircle
 10
343.774842
 20
117.271392
 30
0.0
 40
1.3
  0
ARC
  5
DD7
100
AcDbEntity
  8
0
100
AcDbCircle
 10
347.584451
 20
118.812892
 30
0.0
 40
3.0
100
AcDbArc
 50
248.79876
 51
269.063955
  0
LINE
  5
DD8
100
AcDbEntity
  8
0
100
AcDbLine
 10
350.327463
 20
111.417983
 30
0.0
 11
349.084268
 21
116.214711
 31
0.0
  0
LINE
  5
DD9
100
AcDbEntity
  8
0
100
AcDbLine
 10
352.869219
 20
111.397131
 30
0.0
 11
354.190944
 21
116.172816
 31
0.0
  0
LINE
  5
DDA
100
AcDbEntity
  8
0
100
AcDbLine
 10
354.411251
 20
110.970356
 30
0.0
 11
355.732977
 21
115.746041
 31
0.0
  0
ARC
  5
DDB
100
AcDbEntity
  8
0
100
AcDbCircle
 10
351.534073
 20
103.573717
 30
0.0
 40
7.936524
100
AcDbArc
 50
80.315193
 51
98.744737
  0
ARC
  5
DDC
100
AcDbEntity
  8
0
100
AcDbCircle
 10
351.66322
 20
119.315867
 30
0.0
 40
3.0
100
AcDbArc
 50
233.79876
 51
305.26117
  0
CIRCLE
  5
DDD
100
AcDbEntity
  8
0
100
AcDbCircle
 10
351.66322
 20
119.315867
 30
0.0
 40
1.3
  0
ARC
  5
DDE
100
AcDbEntity
  8
0
100
AcDbCircle
 10
347.584451
 20
118.812892
 30
0.0
 40
3.0
100
AcDbArc
 50
299.995975
 51
320.26117
  0
ARC
  5
DDF
100
AcDbEntity
  8
0
100
AcDbCircle
 10
355.733187
 20
118.746041
 30
0.0
 40
3.0
100
AcDbArc
 50
218.79876
 51
239.063955
  0
CIRCLE
  5
DE0
100
AcDbEntity
  8
0
100
AcDbCircle
 10
365.231748
 20
111.332948
 30
0.0
 40
1.3
  0
ARC
  5
DE1
100
AcDbEntity
  8
0
100
AcDbCircle
 10
359.516992
 20
117.142246
 30
0.0
 40
3.0
100
AcDbArc
 50
203.79876
 51
275.26117
  0
CIRCLE
  5
DE2
100
AcDbEntity
  8
0
100
AcDbCircle
 10
362.756775
 20
114.613778
 30
0.0
 40
1.3
  0
ARC
  5
DE3
100
AcDbEntity
  8
0
100
AcDbCircle
 10
362.756775
 20
114.613778
 30
0.0
 40
3.0
100
AcDbArc
 50
188.79876
 51
209.063955
  0
ARC
  5
DE4
100
AcDbEntity
  8
0
100
AcDbCircle
 10
362.756775
 20
114.613778
 30
0.0
 40
3.0
100
AcDbArc
 50
239.995975
 51
260.26117
  0
CIRCLE
  5
DE5
100
AcDbEntity
  8
0
100
AcDbCircle
 10
359.516992
 20
117.142246
 30
0.0
 40
1.3
  0
ENDSEC
  0
SECTION
  2
OBJECTS
  0
DICTIONARY
  5
C
100
AcDbDictionary
  3
ACAD_GROUP
350
D
  3
ACAD_MLINESTYLE
350
1B
  0
DICTIONARY
  5
D
102
{ACAD_REACTORS
330
C
102
}
100
AcDbDictionary
  0
DICTIONARY
  5
1B
102
{ACAD_REACTORS
330
C
102
}
100
AcDbDictionary
  3
STANDARD
350
1C
  0
MLINESTYLE
  5
1C
102
{ACAD_REACTORS
330
1B
102
}
100
AcDbMlineStyle
  2
STANDARD
 70
     0
  3

 62
   256
 51
90.0
 52
90.0
 71
     2
 49
0.5
 62
   256
  6
BYLAYER
 49
-0.5
 62
   256
  6
BYLAYER
  0
ENDSEC
  0
EOF
