  0
SECTION
  2
HEADER
  9
$ACADVER
  1
AC1009
  9
$LIMMIN
 10
-35.87172
 20
-2.585668
  9
$LIMMAX
 10
92.00513
 20
93.32197
  0
ENDSEC
  0
SECTION
  2
TABLES
  0
TABLE
  2
LTYPE
 70
     4
  0
LTYPE
  2
CONTINUOUS
 70
     0
  3
Solid line
 72
    65
 73
     0
 40
0.000000
  0
LTYPE
  2
HIDDEN
 70
     0
  3
 _ _ _ _ _ _ _ _ _ _ _
 72
    65
 73
     2
 40
0.375000
 49
0.250000
 49
-0.125000
  0
LTYPE
  2
DASHED
 70
     0
  3
 ___ ___ ___ ___ ___ ___ ___ 
 72
    65
 73
     2
 40
0.750000
 49
0.500000
 49
-0.250000
  0
LTYPE
  2
CENTER
 70
     0
  3
___ _ ___ _ ___ _ ___
 72
    65
 73
     4
 40
2.000000
 49
1.250000
 49
-0.250000
 49
0.250000
 49
-0.250000
  0
LTYPE
  2
BORDER
 70
     0
  3
___ ___ . ___ ___ . ___ ___
 72
    65
 73
     6
 40
1.750000
 49
0.500000
 49
-0.250000
 49
0.500000
 49
-0.250000
 49
0.000000
 49
-0.250000
  0
LTYPE
  2
DOT
 70
     0
  3
.................
 72
    65
 73
     2
 40
0.250000
 49
0.000000
 49
-0.250000
  0
LTYPE
  2
DASHDOT
 70
     0
  3
__ . __ . __ . __
 72
    65
 73
     4
 40
1.000000
 49
0.500000
 49
-0.250000
 49
0.000000
 49
-0.250000
  0
LTYPE
  2
DIVIDE
 70
     0
  3
___ .. ___ .. ___ .. ___
 72
    65
 73
     6
 40
1.250000
 49
0.500000
 49
-0.250000
 49
0.000000
 49
-0.250000
 49
0.000000
 49
-0.250000
  0
ENDTAB
  0
TABLE
  2
LAYER
 70
     8
  0
LAYER
  2
BLACK
 70
     0
 62
     0
  6
CONTINUOUS
  0
LAYER
  2
WHITE
 70
     0
 62
     7
  6
CONTINUOUS
  0
LAYER
  2
RED
 70
     0
 62
     1
  6
CONTINUOUS
  0
LAYER
  2
YELLOW
 70
     0
 62
     2
  6
CONTINUOUS
  0
LAYER
  2
GREEN
 70
     0
 62
     3
  6
CONTINUOUS
  0
LAYER
  2
CYAN
 70
     0
 62
     4
  6
CONTINUOUS
  0
LAYER
  2
BLUE
 70
     0
 62
     5
  6
CONTINUOUS
  0
LAYER
  2
MAGENTA
 70
     0
 62
     6
  6
CONTINUOUS
  0
ENDTAB
  0
ENDSEC
  0
SECTION
  2
BLOCKS
  0
ENDSEC
  0
SECTION
  2
ENTITIES
 0
LINE
 8
WHITE
 10
45.1058
 20
75.124
 30
0.0000
 11
42.5259
 21
75.0595
 31
0.0000
 6
CONTINUOUS
 0
LINE
 8
WHITE
 10
42.5259
 20
75.0595
 30
0.0000
 11
42.2034
 21
74.2211
 31
0.0000
 6
CONTINUOUS
 0
LINE
 8
WHITE
 10
42.2034
 20
74.2211
 30
0.0000
 11
42.4291
 21
73.6729
 31
0.0000
 6
CONTINUOUS
 0
LINE
 8
WHITE
 10
42.4291
 20
73.6729
 30
0.0000
 11
42.5259
 21
73.1569
 31
0.0000
 6
CONTINUOUS
 0
LINE
 8
WHITE
 10
42.5259
 20
73.1569
 30
0.0000
 11
41.1714
 21
72.9634
 31
0.0000
 6
CONTINUOUS
 0
LINE
 8
WHITE
 10
41.1714
 20
72.9634
 30
0.0000
 11
41.4473
 21
72.3946
 31
0.0000
 6
CONTINUOUS
 0
LINE
 8
WHITE
 10
37.4629
 20
74.5113
 30
0.0000
 11
38.1401
 21
73.7374
 31
0.0000
 6
CONTINUOUS
 0
LINE
 8
WHITE
 10
38.1401
 20
73.7374
 30
0.0000
 11
38.8173
 21
73.3826
 31
0.0000
 6
CONTINUOUS
 0
LINE
 8
WHITE
 10
38.8173
 20
73.3826
 30
0.0000
 11
38.4626
 21
72.6409
 31
0.0000
 6
CONTINUOUS
 0
LINE
 8
WHITE
 10
38.4626
 20
72.6409
 30
0.0000
 11
39.1049
 21
72.4061
 31
0.0000
 6
CONTINUOUS
 0
LINE
 8
WHITE
 10
39.1049
 20
72.4061
 30
0.0000
 11
38.9895
 21
72.3023
 31
0.0000
 6
CONTINUOUS
 0
LINE
 8
WHITE
 10
39.7848
 20
67.0297
 30
0.0000
 11
39.2365
 21
67.3844
 31
0.0000
 6
CONTINUOUS
 0
LINE
 8
WHITE
 10
39.2365
 20
67.3844
 30
0.0000
 11
39.0108
 21
68.0939
 31
0.0000
 6
CONTINUOUS
 0
LINE
 8
WHITE
 10
39.0108
 20
68.0939
 30
0.0000
 11
40.1395
 21
68.3841
 31
0.0000
 6
CONTINUOUS
 0
LINE
 8
WHITE
 10
40.1395
 20
68.3841
 30
0.0000
 11
39.9472
 21
69.1176
 31
0.0000
 6
CONTINUOUS
 0
LINE
 8
WHITE
 10
45.5895
 20
69.1903
 30
0.0000
 11
43.8803
 21
69.0936
 31
0.0000
 6
CONTINUOUS
 0
LINE
 8
WHITE
 10
43.8803
 20
69.0936
 30
0.0000
 11
43.6546
 21
69.0936
 31
0.0000
 6
CONTINUOUS
 0
LINE
 8
WHITE
 10
43.6546
 20
69.0936
 30
0.0000
 11
43.3321
 21
69.6096
 31
0.0000
 6
CONTINUOUS
 0
LINE
 8
WHITE
 10
43.3321
 20
69.6096
 30
0.0000
 11
42.4291
 21
69.6096
 31
0.0000
 6
CONTINUOUS
 0
LINE
 8
WHITE
 10
42.4291
 20
69.6096
 30
0.0000
 11
41.9319
 21
69.8445
 31
0.0000
 6
CONTINUOUS
 0
LINE
 8
WHITE
 10
51.5025
 20
59.5545
 30
0.0000
 11
51.4643
 21
58.9733
 31
0.0000
 6
CONTINUOUS
 0
LINE
 8
WHITE
 10
51.4643
 20
58.9733
 30
0.0000
 11
51.3787
 21
58.716
 31
0.0000
 6
CONTINUOUS
 0
LINE
 8
WHITE
 10
51.3787
 20
58.716
 30
0.0000
 11
51.2644
 21
58.4873
 31
0.0000
 6
CONTINUOUS
 0
LINE
 8
WHITE
 10
51.2644
 20
58.4873
 30
0.0000
 11
51.1215
 21
58.0965
 31
0.0000
 6
CONTINUOUS
 0
LINE
 8
WHITE
 10
51.1215
 20
58.0965
 30
0.0000
 11
51.0547
 21
57.6964
 31
0.0000
 6
CONTINUOUS
 0
LINE
 8
WHITE
 10
51.0547
 20
57.6964
 30
0.0000
 11
51.0071
 21
57.3056
 31
0.0000
 6
CONTINUOUS
 0
LINE
 8
WHITE
 10
51.0071
 20
57.3056
 30
0.0000
 11
50.9021
 21
56.9434
 31
0.0000
 6
CONTINUOUS
 0
LINE
 8
WHITE
 10
50.9021
 20
56.9434
 30
0.0000
 11
50.6925
 21
56.4386
 31
0.0000
 6
CONTINUOUS
 0
LINE
 8
WHITE
 10
50.6925
 20
56.4386
 30
0.0000
 11
50.5403
 21
55.9241
 31
0.0000
 6
CONTINUOUS
 0
LINE
 8
WHITE
 10
50.5403
 20
55.9241
 30
0.0000
 11
50.4068
 21
54.8756
 31
0.0000
 6
CONTINUOUS
 0
LINE
 8
WHITE
 10
50.4068
 20
54.8756
 30
0.0000
 11
50.445
 21
53.8181
 31
0.0000
 6
CONTINUOUS
 0
LINE
 8
WHITE
 10
50.445
 20
53.8181
 30
0.0000
 11
50.6355
 21
52.7602
 31
0.0000
 6
CONTINUOUS
 0
LINE
 8
WHITE
 10
50.6355
 20
52.7602
 30
0.0000
 11
50.9021
 21
51.7121
 31
0.0000
 6
CONTINUOUS
 0
LINE
 8
WHITE
 10
50.9021
 20
51.7121
 30
0.0000
 11
51.2261
 21
50.6737
 31
0.0000
 6
CONTINUOUS
 0
LINE
 8
WHITE
 10
51.2261
 20
50.6737
 30
0.0000
 11
51.8359
 21
48.6728
 31
0.0000
 6
CONTINUOUS
 0
LINE
 8
WHITE
 10
51.8359
 20
48.6728
 30
0.0000
 11
51.8741
 21
47.8339
 31
0.0000
 6
CONTINUOUS
 0
LINE
 8
WHITE
 10
51.8741
 20
47.8339
 30
0.0000
 11
51.9026
 21
46.3189
 31
0.0000
 6
CONTINUOUS
 0
LINE
 8
WHITE
 10
51.9026
 20
46.3189
 30
0.0000
 11
51.96
 21
45.4136
 31
0.0000
 6
CONTINUOUS
 0
LINE
 8
WHITE
 10
51.96
 20
45.4136
 30
0.0000
 11
52.0744
 21
44.4705
 31
0.0000
 6
CONTINUOUS
 0
LINE
 8
WHITE
 10
52.0744
 20
44.4705
 30
0.0000
 11
52.2555
 21
43.5367
 31
0.0000
 6
CONTINUOUS
 0
LINE
 8
WHITE
 10
52.2555
 20
43.5367
 30
0.0000
 11
52.5315
 21
42.6409
 31
0.0000
 6
CONTINUOUS
 0
LINE
 8
WHITE
 10
52.5315
 20
42.6409
 30
0.0000
 11
52.8555
 21
42.0787
 31
0.0000
 6
CONTINUOUS
 0
LINE
 8
WHITE
 10
52.8555
 20
42.0787
 30
0.0000
 11
53.3036
 21
41.6213
 31
0.0000
 6
CONTINUOUS
 0
LINE
 8
WHITE
 10
53.3036
 20
41.6213
 30
0.0000
 11
53.5609
 21
41.4499
 31
0.0000
 6
CONTINUOUS
 0
LINE
 8
WHITE
 10
53.5609
 20
41.4499
 30
0.0000
 11
53.8466
 21
41.3257
 31
0.0000
 6
CONTINUOUS
 0
LINE
 8
WHITE
 10
53.8466
 20
41.3257
 30
0.0000
 11
54.4755
 21
41.2211
 31
0.0000
 6
CONTINUOUS
 0
LINE
 8
WHITE
 10
35.9794
 20
71.0285
 30
0.0000
 11
37.1081
 21
71.9959
 31
0.0000
 6
CONTINUOUS
 0
LINE
 8
WHITE
 10
37.1081
 20
71.9959
 30
0.0000
 11
37.7854
 21
71.351
 31
0.0000
 6
CONTINUOUS
 0
LINE
 8
WHITE
 10
37.7854
 20
71.351
 30
0.0000
 11
38.4241
 21
71.3791
 31
0.0000
 6
CONTINUOUS
 0
LINE
 8
WHITE
 10
4.6121
 20
59.6115
 30
0.0000
 11
4.65
 21
59.0588
 31
0.0000
 6
CONTINUOUS
 0
LINE
 8
WHITE
 10
4.65
 20
59.0588
 30
0.0000
 11
5.0025
 21
58.1726
 31
0.0000
 6
CONTINUOUS
 0
LINE
 8
WHITE
 10
5.0025
 20
58.1726
 30
0.0000
 11
5.0693
 21
57.7725
 31
0.0000
 6
CONTINUOUS
 0
LINE
 8
WHITE
 10
5.0693
 20
57.7725
 30
0.0000
 11
5.116899
 21
57.3817
 31
0.0000
 6
CONTINUOUS
 0
LINE
 8
WHITE
 10
5.116899
 20
57.3817
 30
0.0000
 11
5.2121
 21
57.039
 31
0.0000
 6
CONTINUOUS
 0
LINE
 8
WHITE
 10
5.2121
 20
57.039
 30
0.0000
 11
5.4218
 21
56.5241
 31
0.0000
 6
CONTINUOUS
 0
LINE
 8
WHITE
 10
5.4218
 20
56.5241
 30
0.0000
 11
5.574399
 21
56.0003
 31
0.0000
 6
CONTINUOUS
 0
LINE
 8
WHITE
 10
5.574399
 20
56.0003
 30
0.0000
 11
5.7079
 21
54.9521
 31
0.0000
 6
CONTINUOUS
 0
LINE
 8
WHITE
 10
5.7079
 20
54.9521
 30
0.0000
 11
5.6602
 21
53.8943
 31
0.0000
 6
CONTINUOUS
 0
LINE
 8
WHITE
 10
5.6602
 20
53.8943
 30
0.0000
 11
5.469399
 21
52.8368
 31
0.0000
 6
CONTINUOUS
 0
LINE
 8
WHITE
 10
5.469399
 20
52.8368
 30
0.0000
 11
5.193399
 21
51.7886
 31
0.0000
 6
CONTINUOUS
 0
LINE
 8
WHITE
 10
5.193399
 20
51.7886
 30
0.0000
 11
4.878799
 21
50.7499
 31
0.0000
 6
CONTINUOUS
 0
LINE
 8
WHITE
 10
4.878799
 20
50.7499
 30
0.0000
 11
4.278399
 21
48.7298
 31
0.0000
 6
CONTINUOUS
 0
LINE
 8
WHITE
 10
4.278399
 20
48.7298
 30
0.0000
 11
4.078499
 21
47.7386
 31
0.0000
 6
CONTINUOUS
 0
LINE
 8
WHITE
 10
4.078499
 20
47.7386
 30
0.0000
 11
3.992599
 21
46.8907
 31
0.0000
 6
CONTINUOUS
 0
LINE
 8
WHITE
 10
3.992599
 20
46.8907
 30
0.0000
 11
3.992599
 21
45.4901
 31
0.0000
 6
CONTINUOUS
 0
LINE
 8
WHITE
 10
3.992599
 20
45.4901
 30
0.0000
 11
4.001999
 21
44.8612
 31
0.0000
 6
CONTINUOUS
 0
LINE
 8
WHITE
 10
4.001999
 20
44.8612
 30
0.0000
 11
3.964099
 21
44.2133
 31
0.0000
 6
CONTINUOUS
 0
LINE
 8
WHITE
 10
3.964099
 20
44.2133
 30
0.0000
 11
3.8306
 21
43.5079
 31
0.0000
 6
CONTINUOUS
 0
LINE
 8
WHITE
 10
3.8306
 20
43.5079
 30
0.0000
 11
3.5827
 21
42.7076
 31
0.0000
 6
CONTINUOUS
 0
LINE
 8
WHITE
 10
3.5827
 20
42.7076
 30
0.0000
 11
3.2588
 21
42.1358
 31
0.0000
 6
CONTINUOUS
 0
LINE
 8
WHITE
 10
3.2588
 20
42.1358
 30
0.0000
 11
2.820399
 21
41.688
 31
0.0000
 6
CONTINUOUS
 0
LINE
 8
WHITE
 10
2.820399
 20
41.688
 30
0.0000
 11
2.5631
 21
41.526
 31
0.0000
 6
CONTINUOUS
 0
LINE
 8
WHITE
 10
2.5631
 20
41.526
 30
0.0000
 11
2.2774
 21
41.4023
 31
0.0000
 6
CONTINUOUS
 0
LINE
 8
WHITE
 10
2.2774
 20
41.4023
 30
0.0000
 11
1.6676
 21
41.307
 31
0.0000
 6
CONTINUOUS
 0
LINE
 8
WHITE
 10
4.850299
 20
51.2167
 30
0.0000
 11
4.7737
 21
51.4549
 31
0.0000
 6
CONTINUOUS
 0
LINE
 8
WHITE
 10
4.7737
 20
51.4549
 30
0.0000
 11
4.669099
 21
51.6645
 31
0.0000
 6
CONTINUOUS
 0
LINE
 8
WHITE
 10
4.669099
 20
51.6645
 30
0.0000
 11
4.5071
 21
51.798
 31
0.0000
 6
CONTINUOUS
 0
LINE
 8
WHITE
 10
4.5071
 20
51.798
 30
0.0000
 11
4.278399
 21
51.798
 31
0.0000
 6
CONTINUOUS
 0
LINE
 8
WHITE
 10
4.278399
 20
51.798
 30
0.0000
 11
4.116399
 21
52.3699
 31
0.0000
 6
CONTINUOUS
 0
LINE
 8
WHITE
 10
4.116399
 20
52.3699
 30
0.0000
 11
3.992599
 21
52.5983
 31
0.0000
 6
CONTINUOUS
 0
LINE
 8
WHITE
 10
3.992599
 20
52.5983
 30
0.0000
 11
3.820899
 21
52.7985
 31
0.0000
 6
CONTINUOUS
 0
LINE
 8
WHITE
 10
3.820899
 20
52.7985
 30
0.0000
 11
3.4493
 21
53.2275
 31
0.0000
 6
CONTINUOUS
 0
LINE
 8
WHITE
 10
3.4493
 20
53.2275
 30
0.0000
 11
3.239599
 21
53.7323
 31
0.0000
 6
CONTINUOUS
 0
LINE
 8
WHITE
 10
3.239599
 20
53.7323
 30
0.0000
 11
3.1256
 21
54.285
 31
0.0000
 6
CONTINUOUS
 0
LINE
 8
WHITE
 10
3.1256
 20
54.285
 30
0.0000
 11
3.087399
 21
54.8854
 31
0.0000
 6
CONTINUOUS
 0
LINE
 8
WHITE
 10
3.087399
 20
54.8854
 30
0.0000
 11
3.0776
 21
56.1146
 31
0.0000
 6
CONTINUOUS
 0
LINE
 8
WHITE
 10
3.0776
 20
56.1146
 30
0.0000
 11
3.0206
 21
56.7244
 31
0.0000
 6
CONTINUOUS
 0
LINE
 8
WHITE
 10
3.0206
 20
56.7244
 30
0.0000
 11
2.8777
 21
57.3056
 31
0.0000
 6
CONTINUOUS
 0
LINE
 8
WHITE
 10
2.8777
 20
57.3056
 30
0.0000
 11
2.687299
 21
57.963
 31
0.0000
 6
CONTINUOUS
 0
LINE
 8
WHITE
 10
2.687299
 20
57.963
 30
0.0000
 11
2.582299
 21
58.6871
 31
0.0000
 6
CONTINUOUS
 0
LINE
 8
WHITE
 10
2.582299
 20
58.6871
 30
0.0000
 11
2.648999
 21
59.4304
 31
0.0000
 6
CONTINUOUS
 0
LINE
 8
WHITE
 10
2.648999
 20
59.4304
 30
0.0000
 11
2.7727
 21
59.802
 31
0.0000
 6
CONTINUOUS
 0
LINE
 8
WHITE
 10
2.7727
 20
59.802
 30
0.0000
 11
2.973
 21
60.1549
 31
0.0000
 6
CONTINUOUS
 0
LINE
 8
WHITE
 10
2.973
 20
60.1549
 30
0.0000
 11
3.0776
 21
60.3739
 31
0.0000
 6
CONTINUOUS
 0
LINE
 8
WHITE
 10
3.0776
 20
60.3739
 30
0.0000
 11
3.087399
 21
60.5929
 31
0.0000
 6
CONTINUOUS
 0
LINE
 8
WHITE
 10
3.087399
 20
60.5929
 30
0.0000
 11
2.9539
 21
61.0695
 31
0.0000
 6
CONTINUOUS
 0
LINE
 8
WHITE
 10
2.9539
 20
61.0695
 30
0.0000
 11
2.8301
 21
61.5364
 31
0.0000
 6
CONTINUOUS
 0
LINE
 8
WHITE
 10
2.8301
 20
61.5364
 30
0.0000
 11
2.839499
 21
61.7651
 31
0.0000
 6
CONTINUOUS
 0
LINE
 8
WHITE
 10
2.839499
 20
61.7651
 30
0.0000
 11
2.944499
 21
61.9748
 31
0.0000
 6
CONTINUOUS
 0
LINE
 8
WHITE
 10
2.944499
 20
61.9748
 30
0.0000
 11
3.0682
 21
62.1938
 31
0.0000
 6
CONTINUOUS
 0
LINE
 8
WHITE
 10
3.0682
 20
62.1938
 30
0.0000
 11
3.144399
 21
62.4131
 31
0.0000
 6
CONTINUOUS
 0
LINE
 8
WHITE
 10
3.144399
 20
62.4131
 30
0.0000
 11
3.173199
 21
62.8515
 31
0.0000
 6
CONTINUOUS
 0
LINE
 8
WHITE
 10
3.173199
 20
62.8515
 30
0.0000
 11
3.0968
 21
63.6709
 31
0.0000
 6
CONTINUOUS
 0
LINE
 8
WHITE
 10
3.0968
 20
63.6709
 30
0.0000
 11
3.144399
 21
63.8231
 31
0.0000
 6
CONTINUOUS
 0
LINE
 8
WHITE
 10
3.144399
 20
63.8231
 30
0.0000
 11
3.2685
 21
63.8805
 31
0.0000
 6
CONTINUOUS
 0
LINE
 8
WHITE
 10
3.2685
 20
63.8805
 30
0.0000
 11
3.401599
 21
63.8899
 31
0.0000
 6
CONTINUOUS
 0
LINE
 8
WHITE
 10
3.401599
 20
63.8899
 30
0.0000
 11
3.487499
 21
63.9472
 31
0.0000
 6
CONTINUOUS
 0
LINE
 8
WHITE
 10
3.487499
 20
63.9472
 30
0.0000
 11
3.5636
 21
64.1569
 31
0.0000
 6
CONTINUOUS
 0
LINE
 8
WHITE
 10
3.5636
 20
64.1569
 30
0.0000
 11
3.459
 21
64.233
 31
0.0000
 6
CONTINUOUS
 0
LINE
 8
WHITE
 10
3.459
 20
64.233
 30
0.0000
 11
3.2685
 21
64.2904
 31
0.0000
 6
CONTINUOUS
 0
LINE
 8
WHITE
 10
3.2685
 20
64.2904
 30
0.0000
 11
3.0968
 21
64.4333
 31
0.0000
 6
CONTINUOUS
 0
LINE
 8
WHITE
 10
3.0968
 20
64.4333
 30
0.0000
 11
3.420799
 21
64.4235
 31
0.0000
 6
CONTINUOUS
 0
LINE
 8
WHITE
 10
3.420799
 20
64.4235
 30
0.0000
 11
3.544899
 21
64.4426
 31
0.0000
 6
CONTINUOUS
 0
LINE
 8
WHITE
 10
3.544899
 20
64.4426
 30
0.0000
 11
3.544899
 21
64.5476
 31
0.0000
 6
CONTINUOUS
 0
LINE
 8
WHITE
 10
3.544899
 20
64.5476
 30
0.0000
 11
3.420799
 21
64.662
 31
0.0000
 6
CONTINUOUS
 0
LINE
 8
WHITE
 10
3.420799
 20
64.662
 30
0.0000
 11
3.2209
 21
64.6905
 31
0.0000
 6
CONTINUOUS
 0
LINE
 8
WHITE
 10
3.2209
 20
64.6905
 30
0.0000
 11
2.7634
 21
64.6714
 31
0.0000
 6
CONTINUOUS
 0
LINE
 8
WHITE
 10
2.7634
 20
64.6714
 30
0.0000
 11
2.9254
 21
64.8334
 31
0.0000
 6
CONTINUOUS
 0
LINE
 8
WHITE
 10
2.9254
 20
64.8334
 30
0.0000
 11
3.1159
 21
64.938
 31
0.0000
 6
CONTINUOUS
 0
LINE
 8
WHITE
 10
3.1159
 20
64.938
 30
0.0000
 11
3.544899
 21
65.0336
 31
0.0000
 6
CONTINUOUS
 0
LINE
 8
WHITE
 10
3.544899
 20
65.0336
 30
0.0000
 11
4.001999
 21
65.0524
 31
0.0000
 6
CONTINUOUS
 0
LINE
 8
WHITE
 10
4.001999
 20
65.0524
 30
0.0000
 11
4.459499
 21
65.1
 31
0.0000
 6
CONTINUOUS
 0
LINE
 8
WHITE
 10
4.459499
 20
65.1
 30
0.0000
 11
4.1831
 21
65.3096
 31
0.0000
 6
CONTINUOUS
 0
LINE
 8
WHITE
 10
4.1831
 20
65.3096
 30
0.0000
 11
3.8591
 21
65.4716
 31
0.0000
 6
CONTINUOUS
 0
LINE
 8
WHITE
 10
3.8591
 20
65.4716
 30
0.0000
 11
3.5827
 21
65.6813
 31
0.0000
 6
CONTINUOUS
 0
LINE
 8
WHITE
 10
3.5827
 20
65.6813
 30
0.0000
 11
3.487499
 21
65.8339
 31
0.0000
 6
CONTINUOUS
 0
LINE
 8
WHITE
 10
3.487499
 20
65.8339
 30
0.0000
 11
3.4305
 21
66.0341
 31
0.0000
 6
CONTINUOUS
 0
LINE
 8
WHITE
 10
3.4305
 20
66.0341
 30
0.0000
 11
3.6877
 21
66.0341
 31
0.0000
 6
CONTINUOUS
 0
LINE
 8
WHITE
 10
3.6877
 20
66.0341
 30
0.0000
 11
3.782999
 21
66.072
 31
0.0000
 6
CONTINUOUS
 0
LINE
 8
WHITE
 10
3.782999
 20
66.072
 30
0.0000
 11
3.849699
 21
66.1864
 31
0.0000
 6
CONTINUOUS
 0
LINE
 8
WHITE
 10
3.849699
 20
66.1864
 30
0.0000
 11
3.621
 21
66.1864
 31
0.0000
 6
CONTINUOUS
 0
LINE
 8
WHITE
 10
3.621
 20
66.1864
 30
0.0000
 11
3.506599
 21
66.234
 31
0.0000
 6
CONTINUOUS
 0
LINE
 8
WHITE
 10
3.506599
 20
66.234
 30
0.0000
 11
3.4305
 21
66.3675
 31
0.0000
 6
CONTINUOUS
 0
LINE
 8
WHITE
 10
3.4305
 20
66.3675
 30
0.0000
 11
3.6877
 21
66.3866
 31
0.0000
 6
CONTINUOUS
 0
LINE
 8
WHITE
 10
3.6877
 20
66.3866
 30
0.0000
 11
3.944999
 21
66.4343
 31
0.0000
 6
CONTINUOUS
 0
LINE
 8
WHITE
 10
3.944999
 20
66.4343
 30
0.0000
 11
3.944999
 21
66.6154
 31
0.0000
 6
CONTINUOUS
 0
LINE
 8
WHITE
 10
3.944999
 20
66.6154
 30
0.0000
 11
3.887599
 21
66.72
 31
0.0000
 6
CONTINUOUS
 0
LINE
 8
WHITE
 10
3.887599
 20
66.72
 30
0.0000
 11
3.792399
 21
66.7774
 31
0.0000
 6
CONTINUOUS
 0
LINE
 8
WHITE
 10
3.792399
 20
66.7774
 30
0.0000
 11
3.6686
 21
66.8059
 31
0.0000
 6
CONTINUOUS
 0
LINE
 8
WHITE
 10
3.6686
 20
66.8059
 30
0.0000
 11
3.4305
 21
66.825
 31
0.0000
 6
CONTINUOUS
 0
LINE
 8
WHITE
 10
3.4305
 20
66.825
 30
0.0000
 11
3.344599
 21
66.8629
 31
0.0000
 6
CONTINUOUS
 0
LINE
 8
WHITE
 10
3.344599
 20
66.8629
 30
0.0000
 11
3.3064
 21
66.9488
 31
0.0000
 6
CONTINUOUS
 0
LINE
 8
WHITE
 10
3.3064
 20
66.9488
 30
0.0000
 11
3.3064
 21
67.0534
 31
0.0000
 6
CONTINUOUS
 0
LINE
 8
WHITE
 10
3.3064
 20
67.0534
 30
0.0000
 11
3.3638
 21
67.1107
 31
0.0000
 6
CONTINUOUS
 0
LINE
 8
WHITE
 10
3.3638
 20
67.1107
 30
0.0000
 11
3.544899
 21
67.149
 31
0.0000
 6
CONTINUOUS
 0
LINE
 8
WHITE
 10
3.544899
 20
67.149
 30
0.0000
 11
3.744699
 21
67.1869
 31
0.0000
 6
CONTINUOUS
 0
LINE
 8
WHITE
 10
3.744699
 20
67.1869
 30
0.0000
 11
3.820899
 21
67.2536
 31
0.0000
 6
CONTINUOUS
 0
LINE
 8
WHITE
 10
3.820899
 20
67.2536
 30
0.0000
 11
3.849699
 21
67.368
 31
0.0000
 6
CONTINUOUS
 0
LINE
 8
WHITE
 10
3.849699
 20
67.368
 30
0.0000
 11
3.677999
 21
67.3774
 31
0.0000
 6
CONTINUOUS
 0
LINE
 8
WHITE
 10
3.677999
 20
67.3774
 30
0.0000
 11
3.621
 21
67.4347
 31
0.0000
 6
CONTINUOUS
 0
LINE
 8
WHITE
 10
3.621
 20
67.4347
 30
0.0000
 11
3.611299
 21
67.5491
 31
0.0000
 6
CONTINUOUS
 0
LINE
 8
WHITE
 10
3.611299
 20
67.5491
 30
0.0000
 11
3.744699
 21
67.5585
 31
0.0000
 6
CONTINUOUS
 0
LINE
 8
WHITE
 10
3.744699
 20
67.5585
 30
0.0000
 11
3.849699
 21
67.6159
 31
0.0000
 6
CONTINUOUS
 0
LINE
 8
WHITE
 10
3.849699
 20
67.6159
 30
0.0000
 11
3.706899
 21
67.7014
 31
0.0000
 6
CONTINUOUS
 0
LINE
 8
WHITE
 10
3.706899
 20
67.7014
 30
0.0000
 11
3.544899
 21
67.7111
 31
0.0000
 6
CONTINUOUS
 0
LINE
 8
WHITE
 10
3.544899
 20
67.7111
 30
0.0000
 11
3.392299
 21
67.692
 31
0.0000
 6
CONTINUOUS
 0
LINE
 8
WHITE
 10
3.392299
 20
67.692
 30
0.0000
 11
3.3064
 21
67.7302
 31
0.0000
 6
CONTINUOUS
 0
LINE
 8
WHITE
 10
3.3064
 20
67.7302
 30
0.0000
 11
3.3255
 21
67.8157
 31
0.0000
 6
CONTINUOUS
 0
LINE
 8
WHITE
 10
3.3255
 20
67.8157
 30
0.0000
 11
3.4305
 21
67.854
 31
0.0000
 6
CONTINUOUS
 0
LINE
 8
WHITE
 10
3.4305
 20
67.854
 30
0.0000
 11
3.5827
 21
67.8825
 31
0.0000
 6
CONTINUOUS
 0
LINE
 8
WHITE
 10
3.5827
 20
67.8825
 30
0.0000
 11
3.697099
 21
67.9493
 31
0.0000
 6
CONTINUOUS
 0
LINE
 8
WHITE
 10
3.697099
 20
67.9493
 30
0.0000
 11
3.277899
 21
67.9493
 31
0.0000
 6
CONTINUOUS
 0
LINE
 8
WHITE
 10
3.277899
 20
67.9493
 30
0.0000
 11
3.487499
 21
68.1495
 31
0.0000
 6
CONTINUOUS
 0
LINE
 8
WHITE
 10
3.487499
 20
68.1495
 30
0.0000
 11
3.754499
 21
68.2639
 31
0.0000
 6
CONTINUOUS
 0
LINE
 8
WHITE
 10
3.754499
 20
68.2639
 30
0.0000
 11
4.0211
 21
68.34
 31
0.0000
 6
CONTINUOUS
 0
LINE
 8
WHITE
 10
4.0211
 20
68.34
 30
0.0000
 11
4.278399
 21
68.4638
 31
0.0000
 6
CONTINUOUS
 0
LINE
 8
WHITE
 10
4.278399
 20
68.4638
 30
0.0000
 11
3.9735
 21
68.4068
 31
0.0000
 6
CONTINUOUS
 0
LINE
 8
WHITE
 10
3.9735
 20
68.4068
 30
0.0000
 11
3.401599
 21
68.178
 31
0.0000
 6
CONTINUOUS
 0
LINE
 8
WHITE
 10
3.401599
 20
68.178
 30
0.0000
 11
3.0968
 21
68.1304
 31
0.0000
 6
CONTINUOUS
 0
LINE
 8
WHITE
 10
3.0968
 20
68.1304
 30
0.0000
 11
3.459
 21
68.5305
 31
0.0000
 6
CONTINUOUS
 0
LINE
 8
WHITE
 10
3.459
 20
68.5305
 30
0.0000
 11
3.6877
 21
68.6831
 31
0.0000
 6
CONTINUOUS
 0
LINE
 8
WHITE
 10
3.6877
 20
68.6831
 30
0.0000
 11
3.944999
 21
68.7971
 31
0.0000
 6
CONTINUOUS
 0
LINE
 8
WHITE
 10
3.944999
 20
68.7971
 30
0.0000
 11
3.792399
 21
68.7971
 31
0.0000
 6
CONTINUOUS
 0
LINE
 8
WHITE
 10
3.792399
 20
68.7971
 30
0.0000
 11
3.487499
 21
68.7019
 31
0.0000
 6
CONTINUOUS
 0
LINE
 8
WHITE
 10
3.487499
 20
68.7019
 30
0.0000
 11
3.3352
 21
68.7019
 31
0.0000
 6
CONTINUOUS
 0
LINE
 8
WHITE
 10
2.486999
 20
50.5211
 30
0.0000
 11
2.325
 21
50.5973
 31
0.0000
 6
CONTINUOUS
 0
LINE
 8
WHITE
 10
2.325
 20
50.5973
 30
0.0000
 11
2.210599
 21
50.6737
 31
0.0000
 6
CONTINUOUS
 0
LINE
 8
WHITE
 10
2.210599
 20
50.6737
 30
0.0000
 11
2.163
 21
50.8927
 31
0.0000
 6
CONTINUOUS
 0
LINE
 8
WHITE
 10
2.163
 20
50.8927
 30
0.0000
 11
2.0678
 21
51.0071
 31
0.0000
 6
CONTINUOUS
 0
LINE
 8
WHITE
 10
2.0678
 20
51.0071
 30
0.0000
 11
1.8866
 21
51.0547
 31
0.0000
 6
CONTINUOUS
 0
LINE
 8
WHITE
 10
1.8866
 20
51.0547
 30
0.0000
 11
1.8105
 21
51.1406
 31
0.0000
 6
CONTINUOUS
 0
LINE
 8
WHITE
 10
1.8105
 20
51.1406
 30
0.0000
 11
1.7723
 21
51.2452
 31
0.0000
 6
CONTINUOUS
 0
LINE
 8
WHITE
 10
1.7723
 20
51.2452
 30
0.0000
 11
1.696099
 21
51.3405
 31
0.0000
 6
CONTINUOUS
 0
LINE
 8
WHITE
 10
1.696099
 20
51.3405
 30
0.0000
 11
1.677
 21
51.4357
 31
0.0000
 6
CONTINUOUS
 0
LINE
 8
WHITE
 10
1.677
 20
51.4357
 30
0.0000
 11
1.753499
 21
51.5501
 31
0.0000
 6
CONTINUOUS
 0
LINE
 8
WHITE
 10
1.753499
 20
51.5501
 30
0.0000
 11
1.8199
 21
51.6645
 31
0.0000
 6
CONTINUOUS
 0
LINE
 8
WHITE
 10
1.8199
 20
51.6645
 30
0.0000
 11
1.8199
 21
51.7597
 31
0.0000
 6
CONTINUOUS
 0
LINE
 8
WHITE
 10
1.8199
 20
51.7597
 30
0.0000
 11
1.639099
 21
51.7695
 31
0.0000
 6
CONTINUOUS
 0
LINE
 8
WHITE
 10
1.639099
 20
51.7695
 30
0.0000
 11
1.5341
 21
51.7695
 31
0.0000
 6
CONTINUOUS
 0
LINE
 8
WHITE
 10
1.5341
 20
51.7695
 30
0.0000
 11
1.457999
 21
51.8265
 31
0.0000
 6
CONTINUOUS
 0
LINE
 8
WHITE
 10
1.457999
 20
51.8265
 30
0.0000
 11
1.457999
 21
51.9885
 31
0.0000
 6
CONTINUOUS
 0
LINE
 8
WHITE
 10
1.457999
 20
51.9885
 30
0.0000
 11
1.429499
 21
52.1602
 31
0.0000
 6
CONTINUOUS
 0
LINE
 8
WHITE
 10
1.429499
 20
52.1602
 30
0.0000
 11
1.200799
 21
52.1981
 31
0.0000
 6
CONTINUOUS
 0
LINE
 8
WHITE
 10
1.200799
 20
52.1981
 30
0.0000
 11
1.0864
 21
52.2079
 31
0.0000
 6
CONTINUOUS
 0
LINE
 8
WHITE
 10
1.0864
 20
52.2079
 30
0.0000
 11
1.029
 21
52.2746
 31
0.0000
 6
CONTINUOUS
 0
LINE
 8
WHITE
 10
1.029
 20
52.2746
 30
0.0000
 11
.9146
 21
52.608
 31
0.0000
 6
CONTINUOUS
 0
LINE
 8
WHITE
 10
.9146
 20
52.608
 30
0.0000
 11
.7148
 21
52.8937
 31
0.0000
 6
CONTINUOUS
 0
LINE
 8
WHITE
 10
.7148
 20
52.8937
 30
0.0000
 11
.5051
 21
53.1701
 31
0.0000
 6
CONTINUOUS
 0
LINE
 8
WHITE
 10
.5051
 20
53.1701
 30
0.0000
 11
.3334
 21
53.4656
 31
0.0000
 6
CONTINUOUS
 0
LINE
 8
WHITE
 10
6.7939
 20
47.0051
 30
0.0000
 11
6.984799
 21
47.0528
 31
0.0000
 6
CONTINUOUS
 0
LINE
 8
WHITE
 10
6.984799
 20
47.0528
 30
0.0000
 11
7.0991
 21
47.148
 31
0.0000
 6
CONTINUOUS
 0
LINE
 8
WHITE
 10
7.0991
 20
47.148
 30
0.0000
 11
7.1753
 21
47.4529
 31
0.0000
 6
CONTINUOUS
 0
LINE
 8
WHITE
 10
7.1753
 20
47.4529
 30
0.0000
 11
7.213099
 21
47.8054
 31
0.0000
 6
CONTINUOUS
 0
LINE
 8
WHITE
 10
7.213099
 20
47.8054
 30
0.0000
 11
7.2705
 21
47.9674
 31
0.0000
 6
CONTINUOUS
 0
LINE
 8
WHITE
 10
7.2705
 20
47.9674
 30
0.0000
 11
7.394299
 21
48.1009
 31
0.0000
 6
CONTINUOUS
 0
LINE
 8
WHITE
 10
7.394299
 20
48.1009
 30
0.0000
 11
7.394299
 21
47.796
 31
0.0000
 6
CONTINUOUS
 0
LINE
 8
WHITE
 10
7.394299
 20
47.796
 30
0.0000
 11
7.3564
 21
47.4911
 31
0.0000
 6
CONTINUOUS
 0
LINE
 8
WHITE
 10
7.3564
 20
47.4911
 30
0.0000
 11
7.337299
 21
47.2433
 31
0.0000
 6
CONTINUOUS
 0
LINE
 8
WHITE
 10
7.337299
 20
47.2433
 30
0.0000
 11
7.365799
 21
47.148
 31
0.0000
 6
CONTINUOUS
 0
LINE
 8
WHITE
 10
7.365799
 20
47.148
 30
0.0000
 11
7.422699
 21
47.1004
 31
0.0000
 6
CONTINUOUS
 0
LINE
 8
WHITE
 10
7.422699
 20
47.1004
 30
0.0000
 11
7.546899
 21
47.0528
 31
0.0000
 6
CONTINUOUS
 0
LINE
 8
WHITE
 10
7.546899
 20
47.0528
 30
0.0000
 11
7.603899
 21
47.0812
 31
0.0000
 6
CONTINUOUS
 0
LINE
 8
WHITE
 10
7.603899
 20
47.0812
 30
0.0000
 11
7.6324
 21
47.2717
 31
0.0000
 6
CONTINUOUS
 0
LINE
 8
WHITE
 10
7.6324
 20
47.2717
 30
0.0000
 11
7.6324
 21
47.5388
 31
0.0000
 6
CONTINUOUS
 0
LINE
 8
WHITE
 10
7.6324
 20
47.5388
 30
0.0000
 11
7.6612
 21
47.6625
 31
0.0000
 6
CONTINUOUS
 0
LINE
 8
WHITE
 10
7.6612
 20
47.6625
 30
0.0000
 11
7.728
 21
47.7675
 31
0.0000
 6
CONTINUOUS
 0
LINE
 8
WHITE
 10
7.728
 20
47.7675
 30
0.0000
 11
7.756499
 21
47.4146
 31
0.0000
 6
CONTINUOUS
 0
LINE
 8
WHITE
 10
7.756499
 20
47.4146
 30
0.0000
 11
7.708899
 21
47.0145
 31
0.0000
 6
CONTINUOUS
 0
LINE
 8
WHITE
 10
7.708899
 20
47.0145
 30
0.0000
 11
7.728
 21
46.7287
 31
0.0000
 6
CONTINUOUS
 0
LINE
 8
WHITE
 10
7.728
 20
46.7287
 30
0.0000
 11
7.8041
 21
46.6811
 31
0.0000
 6
CONTINUOUS
 0
LINE
 8
WHITE
 10
7.8041
 20
46.6811
 30
0.0000
 11
7.947
 21
46.7381
 31
0.0000
 6
CONTINUOUS
 0
LINE
 8
WHITE
 10
7.947
 20
46.7381
 30
0.0000
 11
8.080499
 21
46.881
 31
0.0000
 6
CONTINUOUS
 0
LINE
 8
WHITE
 10
8.080499
 20
46.881
 30
0.0000
 11
8.166
 21
47.0719
 31
0.0000
 6
CONTINUOUS
 0
LINE
 8
WHITE
 10
8.166
 20
47.0719
 30
0.0000
 11
8.2136
 21
47.5102
 31
0.0000
 6
CONTINUOUS
 0
LINE
 8
WHITE
 10
8.2136
 20
47.5102
 30
0.0000
 11
8.261599
 21
47.9959
 31
0.0000
 6
CONTINUOUS
 0
LINE
 8
WHITE
 10
8.261599
 20
47.9959
 30
0.0000
 11
8.3471
 21
48.2246
 31
0.0000
 6
CONTINUOUS
 0
LINE
 8
WHITE
 10
8.3471
 20
48.2246
 30
0.0000
 11
8.489999
 21
48.4342
 31
0.0000
 6
CONTINUOUS
 0
LINE
 8
WHITE
 10
8.489999
 20
48.4342
 30
0.0000
 11
8.4806
 21
47.796
 31
0.0000
 6
CONTINUOUS
 0
LINE
 8
WHITE
 10
8.4806
 20
47.796
 30
0.0000
 11
8.4806
 21
47.472
 31
0.0000
 6
CONTINUOUS
 0
LINE
 8
WHITE
 10
8.4806
 20
47.472
 30
0.0000
 11
8.5759
 21
47.1574
 31
0.0000
 6
CONTINUOUS
 0
LINE
 8
WHITE
 10
8.5759
 20
47.1574
 30
0.0000
 11
8.633299
 21
47.3483
 31
0.0000
 6
CONTINUOUS
 0
LINE
 8
WHITE
 10
8.633299
 20
47.3483
 30
0.0000
 11
8.7285
 21
47.4911
 31
0.0000
 6
CONTINUOUS
 0
LINE
 8
WHITE
 10
8.7285
 20
47.4911
 30
0.0000
 11
8.7472
 21
47.367
 31
0.0000
 6
CONTINUOUS
 0
LINE
 8
WHITE
 10
8.7472
 20
47.367
 30
0.0000
 11
8.6996
 21
47.205
 31
0.0000
 6
CONTINUOUS
 0
LINE
 8
WHITE
 10
8.6996
 20
47.205
 30
0.0000
 11
8.7094
 21
47.0906
 31
0.0000
 6
CONTINUOUS
 0
LINE
 8
WHITE
 10
8.7094
 20
47.0906
 30
0.0000
 11
8.8808
 21
47.1289
 31
0.0000
 6
CONTINUOUS
 0
LINE
 8
WHITE
 10
8.8808
 20
47.1289
 30
0.0000
 11
9.052499
 21
47.3291
 31
0.0000
 6
CONTINUOUS
 0
LINE
 8
WHITE
 10
9.052499
 20
47.3291
 30
0.0000
 11
9.1665
 21
47.4435
 31
0.0000
 6
CONTINUOUS
 0
LINE
 8
WHITE
 10
9.1665
 20
47.4435
 30
0.0000
 11
9.338299
 21
47.4911
 31
0.0000
 6
CONTINUOUS
 0
LINE
 8
WHITE
 10
9.338299
 20
47.4911
 30
0.0000
 11
9.395299
 21
47.1574
 31
0.0000
 6
CONTINUOUS
 0
LINE
 8
WHITE
 10
9.395299
 20
47.1574
 30
0.0000
 11
10.3646
 21
47.7409
 31
0.0000
 6
CONTINUOUS
 0
LINE
 8
WHITE
 10
6.8228
 20
47.31
 30
0.0000
 11
6.6131
 21
45.9761
 31
0.0000
 6
CONTINUOUS
 0
LINE
 8
WHITE
 10
6.6131
 20
45.9761
 30
0.0000
 11
6.660799
 21
44.7563
 31
0.0000
 6
CONTINUOUS
 0
LINE
 8
WHITE
 10
6.660799
 20
44.7563
 30
0.0000
 11
6.7939
 21
43.7366
 31
0.0000
 6
CONTINUOUS
 0
LINE
 8
WHITE
 10
6.7939
 20
43.7366
 30
0.0000
 11
7.013299
 21
42.5839
 31
0.0000
 6
CONTINUOUS
 0
LINE
 8
WHITE
 10
7.013299
 20
42.5839
 30
0.0000
 11
7.337299
 21
41.3925
 31
0.0000
 6
CONTINUOUS
 0
LINE
 8
WHITE
 10
7.337299
 20
41.3925
 30
0.0000
 11
7.775599
 21
40.2686
 31
0.0000
 6
CONTINUOUS
 0
LINE
 8
WHITE
 10
7.775599
 20
40.2686
 30
0.0000
 11
8.032899
 21
39.7635
 31
0.0000
 6
CONTINUOUS
 0
LINE
 8
WHITE
 10
8.032899
 20
39.7635
 30
0.0000
 11
8.337699
 21
39.3064
 31
0.0000
 6
CONTINUOUS
 0
LINE
 8
WHITE
 10
8.337699
 20
39.3064
 30
0.0000
 11
8.6617
 21
38.9059
 31
0.0000
 6
CONTINUOUS
 0
LINE
 8
WHITE
 10
8.6617
 20
38.9059
 30
0.0000
 11
9.033399
 21
38.5916
 31
0.0000
 6
CONTINUOUS
 0
LINE
 8
WHITE
 10
9.033399
 20
38.5916
 30
0.0000
 11
9.6716
 21
38.2103
 31
0.0000
 6
CONTINUOUS
 0
LINE
 8
WHITE
 10
9.6716
 20
38.2103
 30
0.0000
 11
10.3958
 21
37.9245
 31
0.0000
 6
CONTINUOUS
 0
LINE
 8
WHITE
 10
10.3958
 20
37.9245
 30
0.0000
 11
11.2155
 21
37.7434
 31
0.0000
 6
CONTINUOUS
 0
LINE
 8
WHITE
 10
11.2155
 20
37.7434
 30
0.0000
 11
12.1207
 21
37.6864
 31
0.0000
 6
CONTINUOUS
 0
LINE
 8
WHITE
 10
12.1207
 20
37.6864
 30
0.0000
 11
13.6451
 21
37.6766
 31
0.0000
 6
CONTINUOUS
 0
LINE
 8
WHITE
 10
13.6451
 20
37.6766
 30
0.0000
 11
15.2554
 21
37.7242
 31
0.0000
 6
CONTINUOUS
 0
LINE
 8
WHITE
 10
15.2554
 20
37.7242
 30
0.0000
 11
16.8278
 21
37.8862
 31
0.0000
 6
CONTINUOUS
 0
LINE
 8
WHITE
 10
16.8278
 20
37.8862
 30
0.0000
 11
17.5519
 21
38.0389
 31
0.0000
 6
CONTINUOUS
 0
LINE
 8
WHITE
 10
17.5519
 20
38.0389
 30
0.0000
 11
18.219
 21
38.2579
 31
0.0000
 6
CONTINUOUS
 0
LINE
 8
WHITE
 10
18.219
 20
38.2579
 30
0.0000
 11
18.5621
 21
38.4296
 31
0.0000
 6
CONTINUOUS
 0
LINE
 8
WHITE
 10
18.5621
 20
38.4296
 30
0.0000
 11
18.9338
 21
38.6869
 31
0.0000
 6
CONTINUOUS
 0
LINE
 8
WHITE
 10
18.9338
 20
38.6869
 30
0.0000
 11
19.6388
 21
39.2873
 31
0.0000
 6
CONTINUOUS
 0
LINE
 8
WHITE
 10
19.6388
 20
39.2873
 30
0.0000
 11
20.0389
 21
39.63
 31
0.0000
 6
CONTINUOUS
 0
LINE
 8
WHITE
 10
20.0389
 20
39.63
 30
0.0000
 11
20.8586
 21
40.221
 31
0.0000
 6
CONTINUOUS
 0
LINE
 8
WHITE
 10
20.8586
 20
40.221
 30
0.0000
 11
21.249
 21
40.5641
 31
0.0000
 6
CONTINUOUS
 0
LINE
 8
WHITE
 10
21.249
 20
40.5641
 30
0.0000
 11
21.6683
 21
41.0974
 31
0.0000
 6
CONTINUOUS
 0
LINE
 8
WHITE
 10
21.6683
 20
41.0974
 30
0.0000
 11
22.059
 21
41.8215
 31
0.0000
 6
CONTINUOUS
 0
LINE
 8
WHITE
 10
22.059
 20
41.8215
 30
0.0000
 11
22.8214
 21
43.6414
 31
0.0000
 6
CONTINUOUS
 0
LINE
 8
WHITE
 10
22.8214
 20
43.6414
 30
0.0000
 11
23.2024
 21
44.5466
 31
0.0000
 6
CONTINUOUS
 0
LINE
 8
WHITE
 10
23.2024
 20
44.5466
 30
0.0000
 11
23.5264
 21
45.4136
 31
0.0000
 6
CONTINUOUS
 0
LINE
 8
WHITE
 10
23.5264
 20
45.4136
 30
0.0000
 11
23.7551
 21
46.2334
 31
0.0000
 6
CONTINUOUS
 0
LINE
 8
WHITE
 10
23.7551
 20
46.2334
 30
0.0000
 11
23.8886
 21
47.0336
 31
0.0000
 6
CONTINUOUS
 0
LINE
 8
WHITE
 10
23.8886
 20
47.0336
 30
0.0000
 11
23.8886
 21
47.796
 31
0.0000
 6
CONTINUOUS
 0
LINE
 8
WHITE
 10
23.8886
 20
47.796
 30
0.0000
 11
23.736
 21
48.5393
 31
0.0000
 6
CONTINUOUS
 0
LINE
 8
WHITE
 10
23.736
 20
48.5393
 30
0.0000
 11
23.4217
 21
49.2825
 31
0.0000
 6
CONTINUOUS
 0
LINE
 8
WHITE
 10
23.4217
 20
49.2825
 30
0.0000
 11
22.9073
 21
50.0066
 31
0.0000
 6
CONTINUOUS
 0
LINE
 8
WHITE
 10
22.9073
 20
50.0066
 30
0.0000
 11
22.0211
 21
50.931
 31
0.0000
 6
CONTINUOUS
 0
LINE
 8
WHITE
 10
22.0211
 20
50.931
 30
0.0000
 11
21.4684
 21
51.4072
 31
0.0000
 6
CONTINUOUS
 0
LINE
 8
WHITE
 10
21.4684
 20
51.4072
 30
0.0000
 11
20.8586
 21
51.855
 31
0.0000
 6
CONTINUOUS
 0
LINE
 8
WHITE
 10
20.8586
 20
51.855
 30
0.0000
 11
20.22
 21
52.2364
 31
0.0000
 6
CONTINUOUS
 0
LINE
 8
WHITE
 10
20.22
 20
52.2364
 30
0.0000
 11
19.5529
 21
52.5412
 31
0.0000
 6
CONTINUOUS
 0
LINE
 8
WHITE
 10
19.5529
 20
52.5412
 30
0.0000
 11
18.8955
 21
52.7224
 31
0.0000
 6
CONTINUOUS
 0
LINE
 8
WHITE
 10
18.8955
 20
52.7224
 30
0.0000
 11
18.2475
 21
52.7602
 31
0.0000
 6
CONTINUOUS
 0
LINE
 8
WHITE
 10
18.2475
 20
52.7602
 30
0.0000
 11
15.246
 21
52.503
 31
0.0000
 6
CONTINUOUS
 0
LINE
 8
WHITE
 10
15.246
 20
52.503
 30
0.0000
 11
13.6073
 21
52.3125
 31
0.0000
 6
CONTINUOUS
 0
LINE
 8
WHITE
 10
13.6073
 20
52.3125
 30
0.0000
 11
12.3112
 21
51.9409
 31
0.0000
 6
CONTINUOUS
 0
LINE
 8
WHITE
 10
12.3112
 20
51.9409
 30
0.0000
 11
11.0344
 21
51.5216
 31
0.0000
 6
CONTINUOUS
 0
LINE
 8
WHITE
 10
11.0344
 20
51.5216
 30
0.0000
 11
10.272
 21
51.3026
 31
0.0000
 6
CONTINUOUS
 0
LINE
 8
WHITE
 10
10.272
 20
51.3026
 30
0.0000
 11
9.5479
 21
51.0262
 31
0.0000
 6
CONTINUOUS
 0
LINE
 8
WHITE
 10
9.5479
 20
51.0262
 30
0.0000
 11
8.8905
 21
50.6925
 31
0.0000
 6
CONTINUOUS
 0
LINE
 8
WHITE
 10
8.8905
 20
50.6925
 30
0.0000
 11
8.2995
 21
50.2639
 31
0.0000
 6
CONTINUOUS
 0
LINE
 8
WHITE
 10
8.2995
 20
50.2639
 30
0.0000
 11
7.784999
 21
49.7396
 31
0.0000
 6
CONTINUOUS
 0
LINE
 8
WHITE
 10
7.784999
 20
49.7396
 30
0.0000
 11
7.365799
 21
49.0823
 31
0.0000
 6
CONTINUOUS
 0
LINE
 8
WHITE
 10
7.365799
 20
49.0823
 30
0.0000
 11
7.0418
 21
48.282
 31
0.0000
 6
CONTINUOUS
 0
LINE
 8
WHITE
 10
7.0418
 20
48.282
 30
0.0000
 11
6.8228
 21
47.31
 31
0.0000
 6
CONTINUOUS
 0
LINE
 8
WHITE
 10
7.213099
 20
48.2535
 30
0.0000
 11
7.079999
 21
48.2629
 31
0.0000
 6
CONTINUOUS
 0
LINE
 8
WHITE
 10
7.079999
 20
48.2629
 30
0.0000
 11
6.974999
 21
48.1868
 31
0.0000
 6
CONTINUOUS
 0
LINE
 8
WHITE
 10
6.974999
 20
48.1868
 30
0.0000
 11
6.974999
 21
48.339
 31
0.0000
 6
CONTINUOUS
 0
LINE
 8
WHITE
 10
6.974999
 20
48.339
 30
0.0000
 11
6.870399
 21
48.2629
 31
0.0000
 6
CONTINUOUS
 0
LINE
 8
WHITE
 10
6.870399
 20
48.2629
 30
0.0000
 11
6.756
 21
48.2437
 31
0.0000
 6
CONTINUOUS
 0
LINE
 8
WHITE
 10
6.756
 20
48.2437
 30
0.0000
 11
6.5464
 21
48.282
 31
0.0000
 6
CONTINUOUS
 0
LINE
 8
WHITE
 10
6.5464
 20
48.282
 30
0.0000
 11
6.4699
 21
48.3581
 31
0.0000
 6
CONTINUOUS
 0
LINE
 8
WHITE
 10
6.4699
 20
48.3581
 30
0.0000
 11
6.460499
 21
48.4631
 31
0.0000
 6
CONTINUOUS
 0
LINE
 8
WHITE
 10
6.460499
 20
48.4631
 30
0.0000
 11
6.460499
 21
48.6728
 31
0.0000
 6
CONTINUOUS
 0
LINE
 8
WHITE
 10
6.460499
 20
48.6728
 30
0.0000
 11
6.317599
 21
48.6915
 31
0.0000
 6
CONTINUOUS
 0
LINE
 8
WHITE
 10
6.317599
 20
48.6915
 30
0.0000
 11
6.127099
 21
48.6728
 31
0.0000
 6
CONTINUOUS
 0
LINE
 8
WHITE
 10
6.127099
 20
48.6728
 30
0.0000
 11
6.250899
 21
48.8059
 31
0.0000
 6
CONTINUOUS
 0
LINE
 8
WHITE
 10
6.250899
 20
48.8059
 30
0.0000
 11
6.3368
 21
48.9776
 31
0.0000
 6
CONTINUOUS
 0
LINE
 8
WHITE
 10
6.3368
 20
48.9776
 30
0.0000
 11
6.422299
 21
49.1396
 31
0.0000
 6
CONTINUOUS
 0
LINE
 8
WHITE
 10
6.422299
 20
49.1396
 30
0.0000
 11
6.5464
 21
49.2825
 31
0.0000
 6
CONTINUOUS
 0
LINE
 8
WHITE
 10
6.5464
 20
49.2825
 30
0.0000
 11
6.355899
 21
49.2251
 31
0.0000
 6
CONTINUOUS
 0
LINE
 8
WHITE
 10
6.355899
 20
49.2251
 30
0.0000
 11
6.164999
 21
49.1396
 31
0.0000
 6
CONTINUOUS
 0
LINE
 8
WHITE
 10
6.164999
 20
49.1396
 30
0.0000
 11
5.9843
 21
49.0538
 31
0.0000
 6
CONTINUOUS
 0
LINE
 8
WHITE
 10
5.9843
 20
49.0538
 30
0.0000
 11
5.793399
 21
49.0061
 31
0.0000
 6
CONTINUOUS
 0
LINE
 8
WHITE
 10
5.793399
 20
49.0061
 30
0.0000
 11
5.888599
 21
49.1299
 31
0.0000
 6
CONTINUOUS
 0
LINE
 8
WHITE
 10
5.888599
 20
49.1299
 30
0.0000
 11
5.9745
 21
49.2825
 31
0.0000
 6
CONTINUOUS
 0
LINE
 8
WHITE
 10
5.9745
 20
49.2825
 30
0.0000
 11
5.793399
 21
49.2443
 31
0.0000
 6
CONTINUOUS
 0
LINE
 8
WHITE
 10
5.793399
 20
49.2443
 30
0.0000
 11
5.612599
 21
49.1681
 31
0.0000
 6
CONTINUOUS
 0
LINE
 8
WHITE
 10
5.612599
 20
49.1681
 30
0.0000
 11
5.4506
 21
49.1108
 31
0.0000
 6
CONTINUOUS
 0
LINE
 8
WHITE
 10
5.4506
 20
49.1108
 30
0.0000
 11
5.3074
 21
49.1299
 31
0.0000
 6
CONTINUOUS
 0
LINE
 8
WHITE
 10
5.3074
 20
49.1299
 30
0.0000
 11
5.193399
 21
49.2634
 31
0.0000
 6
CONTINUOUS
 0
LINE
 8
WHITE
 10
5.193399
 20
49.2634
 30
0.0000
 11
5.2504
 21
49.4348
 31
0.0000
 6
CONTINUOUS
 0
LINE
 8
WHITE
 10
5.2504
 20
49.4348
 30
0.0000
 11
5.355
 21
49.6065
 31
0.0000
 6
CONTINUOUS
 0
LINE
 8
WHITE
 10
5.355
 20
49.6065
 30
0.0000
 11
5.3933
 21
49.7685
 31
0.0000
 6
CONTINUOUS
 0
LINE
 8
WHITE
 10
5.3933
 20
49.7685
 30
0.0000
 11
5.364699
 21
49.9016
 31
0.0000
 6
CONTINUOUS
 0
LINE
 8
WHITE
 10
5.364699
 20
49.9016
 30
0.0000
 11
5.3074
 21
49.9684
 31
0.0000
 6
CONTINUOUS
 0
LINE
 8
WHITE
 10
5.3074
 20
49.9684
 30
0.0000
 11
5.155099
 21
49.959
 31
0.0000
 6
CONTINUOUS
 0
LINE
 8
WHITE
 10
5.155099
 20
49.959
 30
0.0000
 11
4.9646
 21
49.8446
 31
0.0000
 6
CONTINUOUS
 0
LINE
 8
WHITE
 10
4.9646
 20
49.8446
 30
0.0000
 11
4.7929
 21
49.7685
 31
0.0000
 6
CONTINUOUS
 0
LINE
 8
WHITE
 10
12.5209
 20
53.4941
 30
0.0000
 11
12.2921
 21
53.5418
 31
0.0000
 6
CONTINUOUS
 0
LINE
 8
WHITE
 10
12.2921
 20
53.5418
 30
0.0000
 11
12.111
 21
53.4656
 31
0.0000
 6
CONTINUOUS
 0
LINE
 8
WHITE
 10
12.111
 20
53.4656
 30
0.0000
 11
11.9873
 21
53.3227
 31
0.0000
 6
CONTINUOUS
 0
LINE
 8
WHITE
 10
11.9873
 20
53.3227
 30
0.0000
 11
11.9111
 21
53.1893
 31
0.0000
 6
CONTINUOUS
 0
LINE
 8
WHITE
 10
11.9111
 20
53.1893
 30
0.0000
 11
11.8823
 21
53.0179
 31
0.0000
 6
CONTINUOUS
 0
LINE
 8
WHITE
 10
11.8823
 20
53.0179
 30
0.0000
 11
11.9299
 21
52.8937
 31
0.0000
 6
CONTINUOUS
 0
LINE
 8
WHITE
 10
11.9299
 20
52.8937
 30
0.0000
 11
12.0443
 21
52.8176
 31
0.0000
 6
CONTINUOUS
 0
LINE
 8
WHITE
 10
12.0443
 20
52.8176
 30
0.0000
 11
12.1969
 21
52.7794
 31
0.0000
 6
CONTINUOUS
 0
LINE
 8
WHITE
 10
12.1969
 20
52.7794
 30
0.0000
 11
12.5494
 21
52.7794
 31
0.0000
 6
CONTINUOUS
 0
LINE
 8
WHITE
 10
12.5494
 20
52.7794
 30
0.0000
 11
12.8164
 21
52.8844
 31
0.0000
 6
CONTINUOUS
 0
LINE
 8
WHITE
 10
12.8164
 20
52.8844
 30
0.0000
 11
12.9019
 21
53.0179
 31
0.0000
 6
CONTINUOUS
 0
LINE
 8
WHITE
 10
12.9019
 20
53.0179
 30
0.0000
 11
12.8543
 21
53.1795
 31
0.0000
 6
CONTINUOUS
 0
LINE
 8
WHITE
 10
12.8543
 20
53.1795
 30
0.0000
 11
12.5209
 21
53.4941
 31
0.0000
 6
CONTINUOUS
 0
LINE
 8
WHITE
 10
15.0928
 20
55.1637
 30
0.0000
 11
16.8025
 21
55.6522
 31
0.0000
 6
CONTINUOUS
 0
LINE
 8
WHITE
 10
16.8025
 20
55.6522
 30
0.0000
 11
17.1688
 21
57.6061
 31
0.0000
 6
CONTINUOUS
 0
LINE
 8
WHITE
 10
17.1688
 20
57.6061
 30
0.0000
 11
22.2978
 21
61.3918
 31
0.0000
 6
CONTINUOUS
 0
LINE
 8
WHITE
 10
22.2978
 20
61.3918
 30
0.0000
 11
18.8785
 21
63.1014
 31
0.0000
 6
CONTINUOUS
 0
LINE
 8
WHITE
 10
18.8785
 20
63.1014
 30
0.0000
 11
21.8093
 21
65.5438
 31
0.0000
 6
CONTINUOUS
 0
LINE
 8
WHITE
 10
21.8093
 20
65.5438
 30
0.0000
 11
24.8623
 21
66.8871
 31
0.0000
 6
CONTINUOUS
 0
LINE
 8
WHITE
 10
14.4836
 20
37.6579
 30
0.0000
 11
14.1979
 21
37.2863
 31
0.0000
 6
CONTINUOUS
 0
LINE
 8
WHITE
 10
14.1979
 20
37.2863
 30
0.0000
 11
13.8739
 21
37.029
 31
0.0000
 6
CONTINUOUS
 0
LINE
 8
WHITE
 10
13.8739
 20
37.029
 30
0.0000
 11
13.5214
 21
36.8381
 31
0.0000
 6
CONTINUOUS
 0
LINE
 8
WHITE
 10
13.5214
 20
36.8381
 30
0.0000
 11
13.14
 21
36.7144
 31
0.0000
 6
CONTINUOUS
 0
LINE
 8
WHITE
 10
13.14
 20
36.7144
 30
0.0000
 11
12.3589
 21
36.5239
 31
0.0000
 6
CONTINUOUS
 0
LINE
 8
WHITE
 10
12.3589
 20
36.5239
 30
0.0000
 11
11.6059
 21
36.2858
 31
0.0000
 6
CONTINUOUS
 0
LINE
 8
WHITE
 10
11.6059
 20
36.2858
 30
0.0000
 11
10.9676
 21
36.057
 31
0.0000
 6
CONTINUOUS
 0
LINE
 8
WHITE
 10
10.9676
 20
36.057
 30
0.0000
 11
10.3103
 21
35.895
 31
0.0000
 6
CONTINUOUS
 0
LINE
 8
WHITE
 10
10.3103
 20
35.895
 30
0.0000
 11
9.6623
 21
35.7139
 31
0.0000
 6
CONTINUOUS
 0
LINE
 8
WHITE
 10
9.6623
 20
35.7139
 30
0.0000
 11
9.033399
 21
35.409
 31
0.0000
 6
CONTINUOUS
 0
LINE
 8
WHITE
 10
9.033399
 20
35.409
 30
0.0000
 11
8.938099
 21
35.304
 31
0.0000
 6
CONTINUOUS
 0
LINE
 8
WHITE
 10
8.938099
 20
35.304
 30
0.0000
 11
8.8808
 21
35.1709
 31
0.0000
 6
CONTINUOUS
 0
LINE
 8
WHITE
 10
8.8808
 20
35.1709
 30
0.0000
 11
8.861599
 21
34.8563
 31
0.0000
 6
CONTINUOUS
 0
LINE
 8
WHITE
 10
8.861599
 20
34.8563
 30
0.0000
 11
8.909299
 21
34.1415
 31
0.0000
 6
CONTINUOUS
 0
LINE
 8
WHITE
 10
8.909299
 20
34.1415
 30
0.0000
 11
8.814
 21
33.951
 31
0.0000
 6
CONTINUOUS
 0
LINE
 8
WHITE
 10
8.814
 20
33.951
 30
0.0000
 11
8.652
 21
33.894
 31
0.0000
 6
CONTINUOUS
 0
LINE
 8
WHITE
 10
8.652
 20
33.894
 30
0.0000
 11
8.471199
 21
33.8651
 31
0.0000
 6
CONTINUOUS
 0
LINE
 8
WHITE
 10
8.471199
 20
33.8651
 30
0.0000
 11
8.3093
 21
33.8081
 31
0.0000
 6
CONTINUOUS
 0
LINE
 8
WHITE
 10
8.3093
 20
33.8081
 30
0.0000
 11
8.1758
 21
33.5891
 31
0.0000
 6
CONTINUOUS
 0
LINE
 8
WHITE
 10
8.1758
 20
33.5891
 30
0.0000
 11
8.156599
 21
33.3604
 31
0.0000
 6
CONTINUOUS
 0
LINE
 8
WHITE
 10
8.156599
 20
33.3604
 30
0.0000
 11
8.2327
 21
33.141
 31
0.0000
 6
CONTINUOUS
 0
LINE
 8
WHITE
 10
8.2327
 20
33.141
 30
0.0000
 11
8.3948
 21
32.9599
 31
0.0000
 6
CONTINUOUS
 0
LINE
 8
WHITE
 10
8.3948
 20
32.9599
 30
0.0000
 11
8.194899
 21
32.8646
 31
0.0000
 6
CONTINUOUS
 0
LINE
 8
WHITE
 10
8.194899
 20
32.8646
 30
0.0000
 11
8.0899
 21
32.8361
 31
0.0000
 6
CONTINUOUS
 0
LINE
 8
WHITE
 10
8.0899
 20
32.8361
 30
0.0000
 11
7.9755
 21
32.8646
 31
0.0000
 6
CONTINUOUS
 0
LINE
 8
WHITE
 10
7.9755
 20
32.8646
 30
0.0000
 11
8.109
 21
32.76
 31
0.0000
 6
CONTINUOUS
 0
LINE
 8
WHITE
 10
8.109
 20
32.76
 30
0.0000
 11
8.118399
 21
32.6074
 31
0.0000
 6
CONTINUOUS
 0
LINE
 8
WHITE
 10
8.118399
 20
32.6074
 30
0.0000
 11
7.947
 21
32.3216
 31
0.0000
 6
CONTINUOUS
 0
LINE
 8
WHITE
 10
7.947
 20
32.3216
 30
0.0000
 11
7.889999
 21
32.2358
 31
0.0000
 6
CONTINUOUS
 0
LINE
 8
WHITE
 10
7.889999
 20
32.2358
 30
0.0000
 11
7.8994
 21
32.1503
 31
0.0000
 6
CONTINUOUS
 0
LINE
 8
WHITE
 10
7.8994
 20
32.1503
 30
0.0000
 11
8.032899
 21
31.9883
 31
0.0000
 6
CONTINUOUS
 0
LINE
 8
WHITE
 10
8.032899
 20
31.9883
 30
0.0000
 11
8.204299
 21
31.8356
 31
0.0000
 6
CONTINUOUS
 0
LINE
 8
WHITE
 10
8.204299
 20
31.8356
 30
0.0000
 11
8.270999
 21
31.6834
 31
0.0000
 6
CONTINUOUS
 0
LINE
 8
WHITE
 10
8.270999
 20
31.6834
 30
0.0000
 11
8.204299
 21
31.464
 31
0.0000
 6
CONTINUOUS
 0
LINE
 8
WHITE
 10
8.204299
 20
31.464
 30
0.0000
 11
8.099599
 21
31.2829
 31
0.0000
 6
CONTINUOUS
 0
LINE
 8
WHITE
 10
8.099599
 20
31.2829
 30
0.0000
 11
7.842
 21
30.978
 31
0.0000
 6
CONTINUOUS
 0
LINE
 8
WHITE
 10
7.842
 20
30.978
 30
0.0000
 11
7.7374
 21
30.8257
 31
0.0000
 6
CONTINUOUS
 0
LINE
 8
WHITE
 10
7.7374
 20
30.8257
 30
0.0000
 11
7.670599
 21
30.6446
 31
0.0000
 6
CONTINUOUS
 0
LINE
 8
WHITE
 10
7.670599
 20
30.6446
 30
0.0000
 11
7.6612
 21
30.4444
 31
0.0000
 6
CONTINUOUS
 0
LINE
 8
WHITE
 10
7.6612
 20
30.4444
 30
0.0000
 11
7.728
 21
30.1969
 31
0.0000
 6
CONTINUOUS
 0
LINE
 8
WHITE
 10
11.5204
 20
41.8594
 30
0.0000
 11
11.1773
 21
41.5736
 31
0.0000
 6
CONTINUOUS
 0
LINE
 8
WHITE
 10
11.1773
 20
41.5736
 30
0.0000
 11
10.9106
 21
41.2211
 31
0.0000
 6
CONTINUOUS
 0
LINE
 8
WHITE
 10
10.9106
 20
41.2211
 30
0.0000
 11
10.7865
 21
40.8499
 31
0.0000
 6
CONTINUOUS
 0
LINE
 8
WHITE
 10
10.7865
 20
40.8499
 30
0.0000
 11
10.7865
 21
40.6688
 31
0.0000
 6
CONTINUOUS
 0
LINE
 8
WHITE
 10
10.7865
 20
40.6688
 30
0.0000
 11
10.8532
 21
40.4974
 31
0.0000
 6
CONTINUOUS
 0
LINE
 8
WHITE
 10
10.8532
 20
40.4974
 30
0.0000
 11
11.1105
 21
40.1449
 31
0.0000
 6
CONTINUOUS
 0
LINE
 8
WHITE
 10
11.1105
 20
40.1449
 30
0.0000
 11
11.4728
 21
39.8494
 31
0.0000
 6
CONTINUOUS
 0
LINE
 8
WHITE
 10
11.4728
 20
39.8494
 30
0.0000
 11
11.9014
 21
39.6491
 31
0.0000
 6
CONTINUOUS
 0
LINE
 8
WHITE
 10
11.9014
 20
39.6491
 30
0.0000
 11
12.3683
 21
39.5636
 31
0.0000
 6
CONTINUOUS
 0
LINE
 8
WHITE
 10
12.3683
 20
39.5636
 30
0.0000
 11
12.8925
 21
39.6397
 31
0.0000
 6
CONTINUOUS
 0
LINE
 8
WHITE
 10
12.8925
 20
39.6397
 30
0.0000
 11
13.3594
 21
39.8685
 31
0.0000
 6
CONTINUOUS
 0
LINE
 8
WHITE
 10
13.3594
 20
39.8685
 30
0.0000
 11
13.7119
 21
40.2495
 31
0.0000
 6
CONTINUOUS
 0
LINE
 8
WHITE
 10
13.7119
 20
40.2495
 30
0.0000
 11
13.8169
 21
40.4974
 31
0.0000
 6
CONTINUOUS
 0
LINE
 8
WHITE
 10
13.8169
 20
40.4974
 30
0.0000
 11
13.8833
 21
40.7738
 31
0.0000
 6
CONTINUOUS
 0
LINE
 8
WHITE
 10
13.8833
 20
40.7738
 30
0.0000
 11
15.0649
 21
40.545
 31
0.0000
 6
CONTINUOUS
 0
LINE
 8
WHITE
 10
15.0649
 20
40.545
 30
0.0000
 11
15.5606
 21
40.5352
 31
0.0000
 6
CONTINUOUS
 0
LINE
 8
WHITE
 10
15.5606
 20
40.5352
 30
0.0000
 11
15.732
 21
40.5829
 31
0.0000
 6
CONTINUOUS
 0
LINE
 8
WHITE
 10
15.732
 20
40.5829
 30
0.0000
 11
15.8179
 21
40.6879
 31
0.0000
 6
CONTINUOUS
 0
LINE
 8
WHITE
 10
15.8179
 20
40.6879
 30
0.0000
 11
15.5891
 21
40.2019
 31
0.0000
 6
CONTINUOUS
 0
LINE
 8
WHITE
 10
15.5891
 20
40.2019
 30
0.0000
 11
15.3127
 21
39.7444
 31
0.0000
 6
CONTINUOUS
 0
LINE
 8
WHITE
 10
15.3127
 20
39.7444
 30
0.0000
 11
15.084
 21
39.2775
 31
0.0000
 6
CONTINUOUS
 0
LINE
 8
WHITE
 10
15.084
 20
39.2775
 30
0.0000
 11
14.9696
 21
38.7439
 31
0.0000
 6
CONTINUOUS
 0
LINE
 8
WHITE
 10
14.9696
 20
38.7439
 30
0.0000
 11
15.4748
 21
38.8582
 31
0.0000
 6
CONTINUOUS
 0
LINE
 8
WHITE
 10
15.4748
 20
38.8582
 30
0.0000
 11
15.9034
 21
39.1155
 31
0.0000
 6
CONTINUOUS
 0
LINE
 8
WHITE
 10
15.9034
 20
39.1155
 30
0.0000
 11
16.3133
 21
39.411
 31
0.0000
 6
CONTINUOUS
 0
LINE
 8
WHITE
 10
16.3133
 20
39.411
 30
0.0000
 11
16.7325
 21
39.6874
 31
0.0000
 6
CONTINUOUS
 0
LINE
 8
WHITE
 10
16.7325
 20
39.6874
 30
0.0000
 11
16.9995
 21
39.9353
 31
0.0000
 6
CONTINUOUS
 0
LINE
 8
WHITE
 10
16.9995
 20
39.9353
 30
0.0000
 11
17.2185
 21
40.2304
 31
0.0000
 6
CONTINUOUS
 0
LINE
 8
WHITE
 10
17.2185
 20
40.2304
 30
0.0000
 11
17.3899
 21
40.5259
 31
0.0000
 6
CONTINUOUS
 0
LINE
 8
WHITE
 10
17.3899
 20
40.5259
 30
0.0000
 11
17.5042
 21
40.8784
 31
0.0000
 6
CONTINUOUS
 0
LINE
 8
WHITE
 10
17.5042
 20
40.8784
 30
0.0000
 11
17.6186
 21
41.202
 31
0.0000
 6
CONTINUOUS
 0
LINE
 8
WHITE
 10
17.6186
 20
41.202
 30
0.0000
 11
17.7904
 21
41.4308
 31
0.0000
 6
CONTINUOUS
 0
LINE
 8
WHITE
 10
17.7904
 20
41.4308
 30
0.0000
 11
18.705
 21
42.0026
 31
0.0000
 6
CONTINUOUS
 0
LINE
 8
WHITE
 10
18.705
 20
42.0026
 30
0.0000
 11
19.6056
 21
42.5225
 31
0.0000
 6
CONTINUOUS
 0
LINE
 8
WHITE
 10
10.8532
 20
40.3545
 30
0.0000
 11
10.6721
 21
40.4498
 31
0.0000
 6
CONTINUOUS
 0
LINE
 8
WHITE
 10
10.6721
 20
40.4498
 30
0.0000
 11
10.2626
 21
40.5067
 31
0.0000
 6
CONTINUOUS
 0
LINE
 8
WHITE
 10
10.2626
 20
40.5067
 30
0.0000
 11
10.0909
 21
40.6211
 31
0.0000
 6
CONTINUOUS
 0
LINE
 8
WHITE
 10
10.0909
 20
40.6211
 30
0.0000
 11
10.0815
 21
40.4115
 31
0.0000
 6
CONTINUOUS
 0
LINE
 8
WHITE
 10
10.0815
 20
40.4115
 30
0.0000
 11
10.053
 21
40.3354
 31
0.0000
 6
CONTINUOUS
 0
LINE
 8
WHITE
 10
10.053
 20
40.3354
 30
0.0000
 11
10.0054
 21
40.3162
 31
0.0000
 6
CONTINUOUS
 0
LINE
 8
WHITE
 10
10.0054
 20
40.3162
 30
0.0000
 11
9.5288
 21
40.3639
 31
0.0000
 6
CONTINUOUS
 0
LINE
 8
WHITE
 10
9.5288
 20
40.3639
 30
0.0000
 11
9.3667
 21
40.3447
 31
0.0000
 6
CONTINUOUS
 0
LINE
 8
WHITE
 10
9.3667
 20
40.3447
 30
0.0000
 11
9.243
 21
40.2304
 31
0.0000
 6
CONTINUOUS
 0
LINE
 8
WHITE
 10
9.243
 20
40.2304
 30
0.0000
 11
9.1478
 21
39.9161
 31
0.0000
 6
CONTINUOUS
 0
LINE
 8
WHITE
 10
9.1478
 20
39.9161
 30
0.0000
 11
9.100099
 21
39.5539
 31
0.0000
 6
CONTINUOUS
 0
LINE
 8
WHITE
 10
9.100099
 20
39.5539
 30
0.0000
 11
8.975999
 21
39.2299
 31
0.0000
 6
CONTINUOUS
 0
LINE
 8
WHITE
 10
8.975999
 20
39.2299
 30
0.0000
 11
8.8429
 21
39.1061
 31
0.0000
 6
CONTINUOUS
 0
LINE
 8
WHITE
 10
8.8429
 20
39.1061
 30
0.0000
 11
8.6426
 21
39.0202
 31
0.0000
 6
CONTINUOUS
 0
LINE
 8
WHITE
 10
3.9735
 20
45.795
 30
0.0000
 11
3.9068
 21
45.9761
 31
0.0000
 6
CONTINUOUS
 0
LINE
 8
WHITE
 10
3.9068
 20
45.9761
 30
0.0000
 11
3.878299
 21
46.1857
 31
0.0000
 6
CONTINUOUS
 0
LINE
 8
WHITE
 10
3.878299
 20
46.1857
 30
0.0000
 11
3.849699
 21
46.1284
 31
0.0000
 6
CONTINUOUS
 0
LINE
 8
WHITE
 10
3.849699
 20
46.1284
 30
0.0000
 11
3.820899
 21
46.2521
 31
0.0000
 6
CONTINUOUS
 0
LINE
 8
WHITE
 10
3.820899
 20
46.2521
 30
0.0000
 11
3.7256
 21
46.2236
 31
0.0000
 6
CONTINUOUS
 0
LINE
 8
WHITE
 10
3.7256
 20
46.2236
 30
0.0000
 11
3.6401
 21
46.2143
 31
0.0000
 6
CONTINUOUS
 0
LINE
 8
WHITE
 10
3.6401
 20
46.2143
 30
0.0000
 11
3.5827
 21
46.2998
 31
0.0000
 6
CONTINUOUS
 0
LINE
 8
WHITE
 10
3.5827
 20
46.2998
 30
0.0000
 11
3.5734
 21
46.3954
 31
0.0000
 6
CONTINUOUS
 0
LINE
 8
WHITE
 10
3.5734
 20
46.3954
 30
0.0000
 11
3.5827
 21
46.6144
 31
0.0000
 6
CONTINUOUS
 0
LINE
 8
WHITE
 10
3.5827
 20
46.6144
 30
0.0000
 11
3.459
 21
46.5191
 31
0.0000
 6
CONTINUOUS
 0
LINE
 8
WHITE
 10
3.459
 20
46.5191
 30
0.0000
 11
3.401599
 21
46.5953
 31
0.0000
 6
CONTINUOUS
 0
LINE
 8
WHITE
 10
3.401599
 20
46.5953
 30
0.0000
 11
3.401599
 21
46.6905
 31
0.0000
 6
CONTINUOUS
 0
LINE
 8
WHITE
 10
3.401599
 20
46.6905
 30
0.0000
 11
3.4305
 21
46.881
 31
0.0000
 6
CONTINUOUS
 0
LINE
 8
WHITE
 10
3.4305
 20
46.881
 30
0.0000
 11
3.2018
 21
46.8431
 31
0.0000
 6
CONTINUOUS
 0
LINE
 8
WHITE
 10
3.2018
 20
46.8431
 30
0.0000
 11
3.087399
 21
46.9766
 31
0.0000
 6
CONTINUOUS
 0
LINE
 8
WHITE
 10
3.087399
 20
46.9766
 30
0.0000
 11
3.001499
 21
47.1863
 31
0.0000
 6
CONTINUOUS
 0
LINE
 8
WHITE
 10
3.001499
 20
47.1863
 30
0.0000
 11
2.8777
 21
47.4053
 31
0.0000
 6
CONTINUOUS
 0
LINE
 8
WHITE
 10
2.8777
 20
47.4053
 30
0.0000
 11
2.706399
 21
47.4622
 31
0.0000
 6
CONTINUOUS
 0
LINE
 8
WHITE
 10
2.706399
 20
47.4622
 30
0.0000
 11
2.610699
 21
47.4814
 31
0.0000
 6
CONTINUOUS
 0
LINE
 8
WHITE
 10
2.610699
 20
47.4814
 30
0.0000
 11
2.544399
 21
47.5196
 31
0.0000
 6
CONTINUOUS
 0
LINE
 8
WHITE
 10
2.544399
 20
47.5196
 30
0.0000
 11
2.5155
 21
47.7675
 31
0.0000
 6
CONTINUOUS
 0
LINE
 8
WHITE
 10
2.5155
 20
47.7675
 30
0.0000
 11
2.3726
 21
47.8912
 31
0.0000
 6
CONTINUOUS
 0
LINE
 8
WHITE
 10
2.3726
 20
47.8912
 30
0.0000
 11
2.248899
 21
48.0341
 31
0.0000
 6
CONTINUOUS
 0
LINE
 8
WHITE
 10
2.248899
 20
48.0341
 30
0.0000
 11
2.229799
 21
48.4249
 31
0.0000
 6
CONTINUOUS
 0
LINE
 8
WHITE
 10
2.229799
 20
48.4249
 30
0.0000
 11
2.153599
 21
48.768
 31
0.0000
 6
CONTINUOUS
 0
LINE
 8
WHITE
 10
2.153599
 20
48.768
 30
0.0000
 11
1.8866
 21
49.149
 31
0.0000
 6
CONTINUOUS
 0
LINE
 8
WHITE
 10
1.8866
 20
49.149
 30
0.0000
 11
1.829599
 21
49.3395
 31
0.0000
 6
CONTINUOUS
 0
LINE
 8
WHITE
 10
1.829599
 20
49.3395
 30
0.0000
 11
1.8199
 21
49.578
 31
0.0000
 6
CONTINUOUS
 0
LINE
 8
WHITE
 10
1.8199
 20
49.578
 30
0.0000
 11
1.8487
 21
49.7494
 31
0.0000
 6
CONTINUOUS
 0
LINE
 8
WHITE
 10
1.8487
 20
49.7494
 30
0.0000
 11
1.934299
 21
49.9016
 31
0.0000
 6
CONTINUOUS
 0
LINE
 8
WHITE
 10
1.934299
 20
49.9016
 30
0.0000
 11
2.210599
 21
50.1593
 31
0.0000
 6
CONTINUOUS
 0
LINE
 8
WHITE
 10
2.210599
 20
50.1593
 30
0.0000
 11
2.325
 21
50.283
 31
0.0000
 6
CONTINUOUS
 0
LINE
 8
WHITE
 10
2.325
 20
50.283
 30
0.0000
 11
2.401099
 21
50.4165
 31
0.0000
 6
CONTINUOUS
 0
LINE
 8
WHITE
 10
2.401099
 20
50.4165
 30
0.0000
 11
2.4964
 21
50.5211
 31
0.0000
 6
CONTINUOUS
 0
LINE
 8
WHITE
 10
2.4964
 20
50.5211
 30
0.0000
 11
2.6681
 21
50.5211
 31
0.0000
 6
CONTINUOUS
 0
LINE
 8
WHITE
 10
2.6681
 20
50.5211
 30
0.0000
 11
2.734899
 21
51.0165
 31
0.0000
 6
CONTINUOUS
 0
LINE
 8
WHITE
 10
2.734899
 20
51.0165
 30
0.0000
 11
2.868
 21
51.2074
 31
0.0000
 6
CONTINUOUS
 0
LINE
 8
WHITE
 10
2.868
 20
51.2074
 30
0.0000
 11
3.1256
 21
51.312
 31
0.0000
 6
CONTINUOUS
 0
LINE
 8
WHITE
 10
3.1256
 20
51.312
 30
0.0000
 11
3.087399
 21
51.7121
 31
0.0000
 6
CONTINUOUS
 0
LINE
 8
WHITE
 10
3.087399
 20
51.7121
 30
0.0000
 11
3.1256
 21
51.8839
 31
0.0000
 6
CONTINUOUS
 0
LINE
 8
WHITE
 10
3.1256
 20
51.8839
 30
0.0000
 11
3.1826
 21
51.9791
 31
0.0000
 6
CONTINUOUS
 0
LINE
 8
WHITE
 10
3.1826
 20
51.9791
 30
0.0000
 11
3.382899
 21
52.1505
 31
0.0000
 6
CONTINUOUS
 0
LINE
 8
WHITE
 10
3.382899
 20
52.1505
 30
0.0000
 11
3.459
 21
52.3792
 31
0.0000
 6
CONTINUOUS
 0
LINE
 8
WHITE
 10
3.459
 20
52.3792
 30
0.0000
 11
3.506599
 21
52.6174
 31
0.0000
 6
CONTINUOUS
 0
LINE
 8
WHITE
 10
3.506599
 20
52.6174
 30
0.0000
 11
3.6401
 21
52.827
 31
0.0000
 6
CONTINUOUS
 0
LINE
 8
WHITE
 10
3.6401
 20
52.827
 30
0.0000
 11
3.6686
 21
52.8368
 31
0.0000
 6
CONTINUOUS
 0
LINE
 8
WHITE
 10
3.6686
 20
52.8368
 30
0.0000
 11
3.6686
 21
52.7985
 31
0.0000
 6
CONTINUOUS
 0
LINE
 8
WHITE
 10
3.001499
 20
32.7124
 30
0.0000
 11
3.792399
 21
32.2073
 31
0.0000
 6
CONTINUOUS
 0
LINE
 8
WHITE
 10
3.792399
 20
32.2073
 30
0.0000
 11
5.7649
 21
31.0448
 31
0.0000
 6
CONTINUOUS
 0
LINE
 8
WHITE
 10
5.7649
 20
31.0448
 30
0.0000
 11
7.0226
 21
30.4065
 31
0.0000
 6
CONTINUOUS
 0
LINE
 8
WHITE
 10
7.0226
 20
30.4065
 30
0.0000
 11
8.3569
 21
29.8155
 31
0.0000
 6
CONTINUOUS
 0
LINE
 8
WHITE
 10
8.3569
 20
29.8155
 30
0.0000
 11
8.4045
 21
29.787
 31
0.0000
 6
CONTINUOUS
 0
LINE
 8
WHITE
 10
8.4045
 20
29.787
 30
0.0000
 11
9.747699
 21
29.3295
 31
0.0000
 6
CONTINUOUS
 0
LINE
 8
WHITE
 10
9.747699
 20
29.3295
 30
0.0000
 11
10.5212
 21
29.1738
 31
0.0000
 6
CONTINUOUS
 0
LINE
 8
WHITE
 10
6.8797
 20
30.3206
 30
0.0000
 11
6.860599
 21
28.653
 31
0.0000
 6
CONTINUOUS
 0
LINE
 8
WHITE
 10
6.860599
 20
28.653
 30
0.0000
 11
6.8797
 21
27.0521
 31
0.0000
 6
CONTINUOUS
 0
LINE
 8
WHITE
 10
6.8797
 20
27.0521
 30
0.0000
 11
7.016399
 21
25.7643
 31
0.0000
 6
CONTINUOUS
 0
LINE
 8
WHITE
 10
10.5769
 20
28.9294
 30
0.0000
 11
10.7486
 21
28.4719
 31
0.0000
 6
CONTINUOUS
 0
LINE
 8
WHITE
 10
10.7486
 20
28.4719
 30
0.0000
 11
10.8818
 21
27.9859
 31
0.0000
 6
CONTINUOUS
 0
LINE
 8
WHITE
 10
10.8818
 20
27.9859
 30
0.0000
 11
11.0723
 21
26.9666
 31
0.0000
 6
CONTINUOUS
 0
LINE
 8
WHITE
 10
11.0723
 20
26.9666
 30
0.0000
 11
11.3201
 21
25.9755
 31
0.0000
 6
CONTINUOUS
 0
LINE
 8
WHITE
 10
11.3201
 20
25.9755
 30
0.0000
 11
11.5204
 21
25.5371
 31
0.0000
 6
CONTINUOUS
 0
LINE
 8
WHITE
 10
11.5204
 20
25.5371
 30
0.0000
 11
11.787
 21
25.137
 31
0.0000
 6
CONTINUOUS
 0
LINE
 8
WHITE
 10
11.787
 20
25.137
 30
0.0000
 11
11.9588
 21
25.137
 31
0.0000
 6
CONTINUOUS
 0
LINE
 8
WHITE
 10
11.9588
 20
25.137
 30
0.0000
 11
12.0634
 21
25.2608
 31
0.0000
 6
CONTINUOUS
 0
LINE
 8
WHITE
 10
12.0634
 20
25.2608
 30
0.0000
 11
12.0825
 21
25.5371
 31
0.0000
 6
CONTINUOUS
 0
LINE
 8
WHITE
 10
12.0825
 20
25.5371
 30
0.0000
 11
11.9681
 21
25.9564
 31
0.0000
 6
CONTINUOUS
 0
LINE
 8
WHITE
 10
11.9681
 20
25.9564
 30
0.0000
 11
11.9111
 21
26.3471
 31
0.0000
 6
CONTINUOUS
 0
LINE
 8
WHITE
 10
11.9111
 20
26.3471
 30
0.0000
 11
11.9014
 21
27.0904
 31
0.0000
 6
CONTINUOUS
 0
LINE
 8
WHITE
 10
11.9014
 20
27.0904
 30
0.0000
 11
11.949
 21
27.8336
 31
0.0000
 6
CONTINUOUS
 0
LINE
 8
WHITE
 10
11.949
 20
27.8336
 30
0.0000
 11
11.9299
 21
28.5484
 31
0.0000
 6
CONTINUOUS
 0
LINE
 8
WHITE
 10
11.9299
 20
28.5484
 30
0.0000
 11
11.8538
 21
28.8818
 31
0.0000
 6
CONTINUOUS
 0
LINE
 8
WHITE
 10
11.8538
 20
28.8818
 30
0.0000
 11
11.7015
 21
29.1964
 31
0.0000
 6
CONTINUOUS
 0
LINE
 8
WHITE
 10
11.7015
 20
29.1964
 30
0.0000
 11
11.4919
 21
29.3771
 31
0.0000
 6
CONTINUOUS
 0
LINE
 8
WHITE
 10
11.4919
 20
29.3771
 30
0.0000
 11
11.1773
 21
29.463
 31
0.0000
 6
CONTINUOUS
 0
LINE
 8
WHITE
 10
11.1773
 20
29.463
 30
0.0000
 11
10.4531
 21
29.4724
 31
0.0000
 6
CONTINUOUS
 0
LINE
 8
WHITE
 10
10.4531
 20
29.4724
 30
0.0000
 11
10.5769
 21
28.9294
 31
0.0000
 6
CONTINUOUS
 0
LINE
 8
WHITE
 10
11.9681
 20
28.4149
 30
0.0000
 11
12.5876
 21
27.9195
 31
0.0000
 6
CONTINUOUS
 0
LINE
 8
WHITE
 10
12.5876
 20
27.9195
 30
0.0000
 11
12.9019
 21
27.4811
 31
0.0000
 6
CONTINUOUS
 0
LINE
 8
WHITE
 10
12.9019
 20
27.4811
 30
0.0000
 11
13.1115
 21
26.9475
 31
0.0000
 6
CONTINUOUS
 0
LINE
 8
WHITE
 10
13.1115
 20
26.9475
 30
0.0000
 11
13.2544
 21
26.3471
 31
0.0000
 6
CONTINUOUS
 0
LINE
 8
WHITE
 10
13.2544
 20
26.3471
 30
0.0000
 11
13.3594
 21
25.0226
 31
0.0000
 6
CONTINUOUS
 0
LINE
 8
WHITE
 10
13.3594
 20
25.0226
 30
0.0000
 11
13.3594
 21
23.6505
 31
0.0000
 6
CONTINUOUS
 0
LINE
 8
WHITE
 10
13.3594
 20
23.6505
 30
0.0000
 11
13.407
 21
22.3736
 31
0.0000
 6
CONTINUOUS
 0
LINE
 8
WHITE
 10
13.407
 20
22.3736
 30
0.0000
 11
13.4929
 21
21.8209
 31
0.0000
 6
CONTINUOUS
 0
LINE
 8
WHITE
 10
13.4929
 20
21.8209
 30
0.0000
 11
13.6358
 21
21.354
 31
0.0000
 6
CONTINUOUS
 0
LINE
 8
WHITE
 10
13.6358
 20
21.354
 30
0.0000
 11
13.8739
 21
20.9824
 31
0.0000
 6
CONTINUOUS
 0
LINE
 8
WHITE
 10
13.8739
 20
20.9824
 30
0.0000
 11
14.1979
 21
20.7251
 31
0.0000
 6
CONTINUOUS
 0
LINE
 8
WHITE
 10
31.7021
 20
37.6864
 30
0.0000
 11
31.8641
 21
38.4199
 31
0.0000
 6
CONTINUOUS
 0
LINE
 8
WHITE
 10
31.8641
 20
38.4199
 30
0.0000
 11
31.9594
 21
39.1538
 31
0.0000
 6
CONTINUOUS
 0
LINE
 8
WHITE
 10
31.9594
 20
39.1538
 30
0.0000
 11
31.9976
 21
39.897
 31
0.0000
 6
CONTINUOUS
 0
LINE
 8
WHITE
 10
31.9976
 20
39.897
 30
0.0000
 11
31.9691
 21
40.6309
 31
0.0000
 6
CONTINUOUS
 0
LINE
 8
WHITE
 10
31.9691
 20
40.6309
 30
0.0000
 11
31.8833
 21
41.3546
 31
0.0000
 6
CONTINUOUS
 0
LINE
 8
WHITE
 10
31.8833
 20
41.3546
 30
0.0000
 11
31.7306
 21
42.0787
 31
0.0000
 6
CONTINUOUS
 0
LINE
 8
WHITE
 10
31.7306
 20
42.0787
 30
0.0000
 11
31.521
 21
42.7744
 31
0.0000
 6
CONTINUOUS
 0
LINE
 8
WHITE
 10
31.521
 20
42.7744
 30
0.0000
 11
31.2446
 21
43.4603
 31
0.0000
 6
CONTINUOUS
 0
LINE
 8
WHITE
 10
31.2446
 20
43.4603
 30
0.0000
 11
31.1209
 21
43.5844
 31
0.0000
 6
CONTINUOUS
 0
LINE
 8
WHITE
 10
31.1209
 20
43.5844
 30
0.0000
 11
30.9686
 21
43.7081
 31
0.0000
 6
CONTINUOUS
 0
LINE
 8
WHITE
 10
30.9686
 20
43.7081
 30
0.0000
 11
30.7493
 21
44.1656
 31
0.0000
 6
CONTINUOUS
 0
LINE
 8
WHITE
 10
30.7493
 20
44.1656
 30
0.0000
 11
30.5494
 21
44.6325
 31
0.0000
 6
CONTINUOUS
 0
LINE
 8
WHITE
 10
30.5494
 20
44.6325
 30
0.0000
 11
30.4635
 21
45.0896
 31
0.0000
 6
CONTINUOUS
 0
LINE
 8
WHITE
 10
30.4635
 20
45.0896
 30
0.0000
 11
30.492
 21
45.3281
 31
0.0000
 6
CONTINUOUS
 0
LINE
 8
WHITE
 10
30.492
 20
45.3281
 30
0.0000
 11
30.5779
 21
45.5565
 31
0.0000
 6
CONTINUOUS
 0
LINE
 8
WHITE
 10
30.5779
 20
45.5565
 30
0.0000
 11
30.7016
 21
45.7759
 31
0.0000
 6
CONTINUOUS
 0
LINE
 8
WHITE
 10
30.7016
 20
45.7759
 30
0.0000
 11
30.7875
 21
46.0331
 31
0.0000
 6
CONTINUOUS
 0
LINE
 8
WHITE
 10
34.7509
 20
40.3545
 30
0.0000
 11
34.8274
 21
41.5354
 31
0.0000
 6
CONTINUOUS
 0
LINE
 8
WHITE
 10
34.8274
 20
41.5354
 30
0.0000
 11
34.7798
 21
42.1358
 31
0.0000
 6
CONTINUOUS
 0
LINE
 8
WHITE
 10
34.7798
 20
42.1358
 30
0.0000
 11
34.6939
 21
42.4121
 31
0.0000
 6
CONTINUOUS
 0
LINE
 8
WHITE
 10
34.6939
 20
42.4121
 30
0.0000
 11
34.5701
 21
42.6409
 31
0.0000
 6
CONTINUOUS
 0
LINE
 8
WHITE
 10
34.5701
 20
42.6409
 30
0.0000
 11
34.1126
 21
43.1839
 31
0.0000
 6
CONTINUOUS
 0
LINE
 8
WHITE
 10
34.1126
 20
43.1839
 30
0.0000
 11
33.7886
 21
43.6605
 31
0.0000
 6
CONTINUOUS
 0
LINE
 8
WHITE
 10
33.7886
 20
43.6605
 30
0.0000
 11
33.4838
 21
44.2226
 31
0.0000
 6
CONTINUOUS
 0
LINE
 8
WHITE
 10
33.4838
 20
44.2226
 30
0.0000
 11
33.1024
 21
44.718
 31
0.0000
 6
CONTINUOUS
 0
LINE
 8
WHITE
 10
33.1024
 20
44.718
 30
0.0000
 11
32.8451
 21
44.8991
 31
0.0000
 6
CONTINUOUS
 0
LINE
 8
WHITE
 10
32.8451
 20
44.8991
 30
0.0000
 11
32.5403
 21
45.0041
 31
0.0000
 6
CONTINUOUS
 0
LINE
 8
WHITE
 10
34.5412
 20
42.6409
 30
0.0000
 11
34.5034
 21
42.8599
 31
0.0000
 6
CONTINUOUS
 0
LINE
 8
WHITE
 10
34.5034
 20
42.8599
 30
0.0000
 11
34.5221
 21
42.9742
 31
0.0000
 6
CONTINUOUS
 0
LINE
 8
WHITE
 10
34.5221
 20
42.9742
 30
0.0000
 11
34.6271
 21
43.0125
 31
0.0000
 6
CONTINUOUS
 0
LINE
 8
WHITE
 10
34.6271
 20
43.0125
 30
0.0000
 11
34.875
 21
43.0031
 31
0.0000
 6
CONTINUOUS
 0
LINE
 8
WHITE
 10
34.875
 20
43.0031
 30
0.0000
 11
34.7798
 21
43.1745
 31
0.0000
 6
CONTINUOUS
 0
LINE
 8
WHITE
 10
34.7798
 20
43.1745
 30
0.0000
 11
34.7798
 21
43.3365
 31
0.0000
 6
CONTINUOUS
 0
LINE
 8
WHITE
 10
34.7798
 20
43.3365
 30
0.0000
 11
34.9035
 21
43.4411
 31
0.0000
 6
CONTINUOUS
 0
LINE
 8
WHITE
 10
34.9035
 20
43.4411
 30
0.0000
 11
35.0846
 21
43.4891
 31
0.0000
 6
CONTINUOUS
 0
LINE
 8
WHITE
 10
35.0846
 20
43.4891
 30
0.0000
 11
35.418
 21
43.5176
 31
0.0000
 6
CONTINUOUS
 0
LINE
 8
WHITE
 10
37.2054
 20
42.6473
 30
0.0000
 11
36.9618
 21
42.7374
 31
0.0000
 6
CONTINUOUS
 0
LINE
 8
WHITE
 10
36.9618
 20
42.7374
 30
0.0000
 11
36.1005
 21
42.9567
 31
0.0000
 6
CONTINUOUS
 0
LINE
 8
WHITE
 10
32.9595
 20
43.7081
 30
0.0000
 11
32.7596
 21
43.9271
 31
0.0000
 6
CONTINUOUS
 0
LINE
 8
WHITE
 10
32.7596
 20
43.9271
 30
0.0000
 11
32.6164
 21
44.2133
 31
0.0000
 6
CONTINUOUS
 0
LINE
 8
WHITE
 10
32.6164
 20
44.2133
 30
0.0000
 11
32.4926
 21
44.5084
 31
0.0000
 6
CONTINUOUS
 0
LINE
 8
WHITE
 10
32.4926
 20
44.5084
 30
0.0000
 11
32.3591
 21
44.7656
 31
0.0000
 6
CONTINUOUS
 0
LINE
 8
WHITE
 10
32.3591
 20
44.7656
 30
0.0000
 11
32.0835
 21
45.2516
 31
0.0000
 6
CONTINUOUS
 0
LINE
 8
WHITE
 10
32.0835
 20
45.2516
 30
0.0000
 11
31.8259
 21
45.6998
 31
0.0000
 6
CONTINUOUS
 0
LINE
 8
WHITE
 10
31.8259
 20
45.6998
 30
0.0000
 11
31.6639
 21
45.8805
 31
0.0000
 6
CONTINUOUS
 0
LINE
 8
WHITE
 10
31.6639
 20
45.8805
 30
0.0000
 11
31.4542
 21
46.0046
 31
0.0000
 6
CONTINUOUS
 0
LINE
 8
WHITE
 10
31.4542
 20
46.0046
 30
0.0000
 11
31.197
 21
46.0523
 31
0.0000
 6
CONTINUOUS
 0
LINE
 8
WHITE
 10
31.197
 20
46.0523
 30
0.0000
 11
30.8543
 21
46.0046
 31
0.0000
 6
CONTINUOUS
 0
LINE
 8
WHITE
 10
30.8543
 20
46.0046
 30
0.0000
 11
30.978
 21
46.3189
 31
0.0000
 6
CONTINUOUS
 0
LINE
 8
WHITE
 10
30.978
 20
46.3189
 30
0.0000
 11
30.921
 21
46.5285
 31
0.0000
 6
CONTINUOUS
 0
LINE
 8
WHITE
 10
30.921
 20
46.5285
 30
0.0000
 11
30.7301
 21
46.6905
 31
0.0000
 6
CONTINUOUS
 0
LINE
 8
WHITE
 10
30.7301
 20
46.6905
 30
0.0000
 11
30.4252
 21
46.881
 31
0.0000
 6
CONTINUOUS
 0
LINE
 8
WHITE
 10
30.4252
 20
46.881
 30
0.0000
 11
30.3397
 21
47.0528
 31
0.0000
 6
CONTINUOUS
 0
LINE
 8
WHITE
 10
30.3397
 20
47.0528
 30
0.0000
 11
30.3397
 21
47.2815
 31
0.0000
 6
CONTINUOUS
 0
LINE
 8
WHITE
 10
30.3397
 20
47.2815
 30
0.0000
 11
30.111
 21
47.2717
 31
0.0000
 6
CONTINUOUS
 0
LINE
 8
WHITE
 10
30.111
 20
47.2717
 30
0.0000
 11
29.9393
 21
47.31
 31
0.0000
 6
CONTINUOUS
 0
LINE
 8
WHITE
 10
29.9393
 20
47.31
 30
0.0000
 11
29.5298
 21
47.7007
 31
0.0000
 6
CONTINUOUS
 0
LINE
 8
WHITE
 10
29.5298
 20
47.7007
 30
0.0000
 11
29.2057
 21
48.0626
 31
0.0000
 6
CONTINUOUS
 0
LINE
 8
WHITE
 10
29.2057
 20
48.0626
 30
0.0000
 11
29.034
 21
48.177
 31
0.0000
 6
CONTINUOUS
 0
LINE
 8
WHITE
 10
29.034
 20
48.177
 30
0.0000
 11
28.8532
 21
48.2344
 31
0.0000
 6
CONTINUOUS
 0
LINE
 8
WHITE
 10
28.8532
 20
48.2344
 30
0.0000
 11
28.6436
 21
48.1868
 31
0.0000
 6
CONTINUOUS
 0
LINE
 8
WHITE
 10
28.6436
 20
48.1868
 30
0.0000
 11
28.3958
 21
48.0341
 31
0.0000
 6
CONTINUOUS
 0
LINE
 8
WHITE
 10
32.5976
 20
45.0326
 30
0.0000
 11
32.8927
 21
45.2708
 31
0.0000
 6
CONTINUOUS
 0
LINE
 8
WHITE
 10
32.8927
 20
45.2708
 30
0.0000
 11
33.1024
 21
45.5471
 31
0.0000
 6
CONTINUOUS
 0
LINE
 8
WHITE
 10
33.1024
 20
45.5471
 30
0.0000
 11
33.3026
 21
45.8329
 31
0.0000
 6
CONTINUOUS
 0
LINE
 8
WHITE
 10
33.3026
 20
45.8329
 30
0.0000
 11
33.5692
 21
46.0999
 31
0.0000
 6
CONTINUOUS
 0
LINE
 8
WHITE
 10
33.5692
 20
46.0999
 30
0.0000
 11
33.6266
 21
46.2334
 31
0.0000
 6
CONTINUOUS
 0
LINE
 8
WHITE
 10
33.6266
 20
46.2334
 30
0.0000
 11
33.6266
 21
46.662
 31
0.0000
 6
CONTINUOUS
 0
LINE
 8
WHITE
 10
33.6266
 20
46.662
 30
0.0000
 11
33.6934
 21
46.881
 31
0.0000
 6
CONTINUOUS
 0
LINE
 8
WHITE
 10
33.6934
 20
46.881
 30
0.0000
 11
33.7886
 21
46.8049
 31
0.0000
 6
CONTINUOUS
 0
LINE
 8
WHITE
 10
33.7886
 20
46.8049
 30
0.0000
 11
33.8933
 21
46.7764
 31
0.0000
 6
CONTINUOUS
 0
LINE
 8
WHITE
 10
33.8933
 20
46.7764
 30
0.0000
 11
34.0841
 21
46.824
 31
0.0000
 6
CONTINUOUS
 0
LINE
 8
WHITE
 10
34.0841
 20
46.824
 30
0.0000
 11
34.2079
 21
46.9384
 31
0.0000
 6
CONTINUOUS
 0
LINE
 8
WHITE
 10
34.2079
 20
46.9384
 30
0.0000
 11
34.2649
 21
47.0719
 31
0.0000
 6
CONTINUOUS
 0
LINE
 8
WHITE
 10
34.2649
 20
47.0719
 30
0.0000
 11
34.2746
 21
47.3861
 31
0.0000
 6
CONTINUOUS
 0
LINE
 8
WHITE
 10
34.2746
 20
47.3861
 30
0.0000
 11
34.2461
 21
47.6816
 31
0.0000
 6
CONTINUOUS
 0
LINE
 8
WHITE
 10
34.2461
 20
47.6816
 30
0.0000
 11
34.2649
 21
47.8151
 31
0.0000
 6
CONTINUOUS
 0
LINE
 8
WHITE
 10
34.2649
 20
47.8151
 30
0.0000
 11
34.3222
 21
47.9198
 31
0.0000
 6
CONTINUOUS
 0
LINE
 8
WHITE
 10
34.3222
 20
47.9198
 30
0.0000
 11
34.4843
 21
48.0341
 31
0.0000
 6
CONTINUOUS
 0
LINE
 8
WHITE
 10
34.4843
 20
48.0341
 30
0.0000
 11
34.6556
 21
48.1009
 31
0.0000
 6
CONTINUOUS
 0
LINE
 8
WHITE
 10
34.6556
 20
48.1009
 30
0.0000
 11
35.037
 21
48.0915
 31
0.0000
 6
CONTINUOUS
 0
LINE
 8
WHITE
 10
35.037
 20
48.0915
 30
0.0000
 11
35.4371
 21
48.015
 31
0.0000
 6
CONTINUOUS
 0
LINE
 8
WHITE
 10
35.4371
 20
48.015
 30
0.0000
 11
35.8372
 21
47.9771
 31
0.0000
 6
CONTINUOUS
 0
LINE
 8
WHITE
 10
35.8372
 20
47.9771
 30
0.0000
 11
35.8372
 21
48.0818
 31
0.0000
 6
CONTINUOUS
 0
LINE
 8
WHITE
 10
35.8372
 20
48.0818
 30
0.0000
 11
35.9325
 21
48.2914
 31
0.0000
 6
CONTINUOUS
 0
LINE
 8
WHITE
 10
35.9325
 20
48.2914
 30
0.0000
 11
35.9325
 21
48.3964
 31
0.0000
 6
CONTINUOUS
 0
LINE
 8
WHITE
 10
35.9325
 20
48.3964
 30
0.0000
 11
36.0277
 21
48.3675
 31
0.0000
 6
CONTINUOUS
 0
LINE
 8
WHITE
 10
36.0277
 20
48.3675
 30
0.0000
 11
36.0851
 21
48.3105
 31
0.0000
 6
CONTINUOUS
 0
LINE
 8
WHITE
 10
36.0851
 20
48.3105
 30
0.0000
 11
36.1136
 21
48.1391
 31
0.0000
 6
CONTINUOUS
 0
LINE
 8
WHITE
 10
36.1136
 20
48.1391
 30
0.0000
 11
36.1328
 21
47.9771
 31
0.0000
 6
CONTINUOUS
 0
LINE
 8
WHITE
 10
36.1328
 20
47.9771
 30
0.0000
 11
36.1804
 21
47.9295
 31
0.0000
 6
CONTINUOUS
 0
LINE
 8
WHITE
 10
36.1804
 20
47.9295
 30
0.0000
 11
36.2662
 21
47.9198
 31
0.0000
 6
CONTINUOUS
 0
LINE
 8
WHITE
 10
36.2662
 20
47.9198
 30
0.0000
 11
36.39
 21
47.9959
 31
0.0000
 6
CONTINUOUS
 0
LINE
 8
WHITE
 10
36.39
 20
47.9959
 30
0.0000
 11
36.4759
 21
48.1579
 31
0.0000
 6
CONTINUOUS
 0
LINE
 8
WHITE
 10
36.4759
 20
48.1579
 30
0.0000
 11
36.5711
 21
48.282
 31
0.0000
 6
CONTINUOUS
 0
LINE
 8
WHITE
 10
36.5711
 20
48.282
 30
0.0000
 11
36.7519
 21
48.282
 31
0.0000
 6
CONTINUOUS
 0
LINE
 8
WHITE
 10
36.7519
 20
48.282
 30
0.0000
 11
36.7616
 21
48.1391
 31
0.0000
 6
CONTINUOUS
 0
LINE
 8
WHITE
 10
36.7616
 20
48.1391
 30
0.0000
 11
36.7807
 21
48.0056
 31
0.0000
 6
CONTINUOUS
 0
LINE
 8
WHITE
 10
36.7807
 20
48.0056
 30
0.0000
 11
36.9236
 21
47.958
 31
0.0000
 6
CONTINUOUS
 0
LINE
 8
WHITE
 10
36.9236
 20
47.958
 30
0.0000
 11
37.0665
 21
48.0056
 31
0.0000
 6
CONTINUOUS
 0
LINE
 8
WHITE
 10
37.0665
 20
48.0056
 30
0.0000
 11
37.3522
 21
48.1579
 31
0.0000
 6
CONTINUOUS
 0
LINE
 8
WHITE
 10
37.3522
 20
48.1579
 30
0.0000
 11
37.362
 21
47.9674
 31
0.0000
 6
CONTINUOUS
 0
LINE
 8
WHITE
 10
37.362
 20
47.9674
 30
0.0000
 11
37.4475
 21
47.796
 31
0.0000
 6
CONTINUOUS
 0
LINE
 8
WHITE
 10
37.4475
 20
47.796
 30
0.0000
 11
37.5619
 21
47.958
 31
0.0000
 6
CONTINUOUS
 0
LINE
 8
WHITE
 10
37.5619
 20
47.958
 30
0.0000
 11
37.6954
 21
48.0532
 31
0.0000
 6
CONTINUOUS
 0
LINE
 8
WHITE
 10
37.6954
 20
48.0532
 30
0.0000
 11
38.0003
 21
48.0532
 31
0.0000
 6
CONTINUOUS
 0
LINE
 8
WHITE
 10
38.0003
 20
48.0532
 30
0.0000
 11
38.3434
 21
47.9104
 31
0.0000
 6
CONTINUOUS
 0
LINE
 8
WHITE
 10
38.3434
 20
47.9104
 30
0.0000
 11
38.6006
 21
47.7532
 31
0.0000
 6
CONTINUOUS
 0
LINE
 8
WHITE
 10
28.272
 20
42.4598
 30
0.0000
 11
28.224
 21
42.9934
 31
0.0000
 6
CONTINUOUS
 0
LINE
 8
WHITE
 10
28.224
 20
42.9934
 30
0.0000
 11
28.11
 21
43.5079
 31
0.0000
 6
CONTINUOUS
 0
LINE
 8
WHITE
 10
28.11
 20
43.5079
 30
0.0000
 11
28.0144
 21
44.0321
 31
0.0000
 6
CONTINUOUS
 0
LINE
 8
WHITE
 10
28.0144
 20
44.0321
 30
0.0000
 11
28.0335
 21
44.5849
 31
0.0000
 6
CONTINUOUS
 0
LINE
 8
WHITE
 10
28.0335
 20
44.5849
 30
0.0000
 11
28.1194
 21
44.6801
 31
0.0000
 6
CONTINUOUS
 0
LINE
 8
WHITE
 10
28.1194
 20
44.6801
 30
0.0000
 11
28.2431
 21
44.6992
 31
0.0000
 6
CONTINUOUS
 0
LINE
 8
WHITE
 10
28.2431
 20
44.6992
 30
0.0000
 11
28.167
 21
45.042
 31
0.0000
 6
CONTINUOUS
 0
LINE
 8
WHITE
 10
28.167
 20
45.042
 30
0.0000
 11
28.1764
 21
45.3851
 31
0.0000
 6
CONTINUOUS
 0
LINE
 8
WHITE
 10
28.1764
 20
45.3851
 30
0.0000
 11
28.2146
 21
46.0331
 31
0.0000
 6
CONTINUOUS
 0
LINE
 8
WHITE
 10
28.2146
 20
46.0331
 30
0.0000
 11
28.2338
 21
46.5476
 31
0.0000
 6
CONTINUOUS
 0
LINE
 8
WHITE
 10
28.2338
 20
46.5476
 30
0.0000
 11
28.3005
 21
47.1386
 31
0.0000
 6
CONTINUOUS
 0
LINE
 8
WHITE
 10
28.3005
 20
47.1386
 30
0.0000
 11
28.3196
 21
47.6625
 31
0.0000
 6
CONTINUOUS
 0
LINE
 8
WHITE
 10
28.3196
 20
47.6625
 30
0.0000
 11
28.2814
 21
47.8627
 31
0.0000
 6
CONTINUOUS
 0
LINE
 8
WHITE
 10
28.2814
 20
47.8627
 30
0.0000
 11
28.1861
 21
48.0056
 31
0.0000
 6
CONTINUOUS
 0
LINE
 8
WHITE
 10
28.1861
 20
48.0056
 30
0.0000
 11
27.9383
 21
48.1579
 31
0.0000
 6
CONTINUOUS
 0
LINE
 8
WHITE
 10
27.9383
 20
48.1579
 30
0.0000
 11
27.7286
 21
48.1961
 31
0.0000
 6
CONTINUOUS
 0
LINE
 8
WHITE
 10
27.7286
 20
48.1961
 30
0.0000
 11
27.5475
 21
48.1485
 31
0.0000
 6
CONTINUOUS
 0
LINE
 8
WHITE
 10
27.5475
 20
48.1485
 30
0.0000
 11
27.3761
 21
48.0247
 31
0.0000
 6
CONTINUOUS
 0
LINE
 8
WHITE
 10
27.3761
 20
48.0247
 30
0.0000
 11
27.0428
 21
47.6625
 31
0.0000
 6
CONTINUOUS
 0
LINE
 8
WHITE
 10
27.0428
 20
47.6625
 30
0.0000
 11
26.6423
 21
47.2815
 31
0.0000
 6
CONTINUOUS
 0
LINE
 8
WHITE
 10
26.6423
 20
47.2815
 30
0.0000
 11
26.4615
 21
47.2433
 31
0.0000
 6
CONTINUOUS
 0
LINE
 8
WHITE
 10
26.4615
 20
47.2433
 30
0.0000
 11
26.2421
 21
47.2526
 31
0.0000
 6
CONTINUOUS
 0
LINE
 8
WHITE
 10
26.2421
 20
47.2526
 30
0.0000
 11
26.2421
 21
47.0145
 31
0.0000
 6
CONTINUOUS
 0
LINE
 8
WHITE
 10
26.2421
 20
47.0145
 30
0.0000
 11
26.1566
 21
46.8525
 31
0.0000
 6
CONTINUOUS
 0
LINE
 8
WHITE
 10
26.1566
 20
46.8525
 30
0.0000
 11
25.8514
 21
46.662
 31
0.0000
 6
CONTINUOUS
 0
LINE
 8
WHITE
 10
25.8514
 20
46.662
 30
0.0000
 11
25.6609
 21
46.5
 31
0.0000
 6
CONTINUOUS
 0
LINE
 8
WHITE
 10
25.6609
 20
46.5
 30
0.0000
 11
25.6039
 21
46.2904
 31
0.0000
 6
CONTINUOUS
 0
LINE
 8
WHITE
 10
25.6039
 20
46.2904
 30
0.0000
 11
25.7276
 21
45.9761
 31
0.0000
 6
CONTINUOUS
 0
LINE
 8
WHITE
 10
25.7276
 20
45.9761
 30
0.0000
 11
25.3845
 21
46.014
 31
0.0000
 6
CONTINUOUS
 0
LINE
 8
WHITE
 10
25.3845
 20
46.014
 30
0.0000
 11
25.1179
 21
45.9664
 31
0.0000
 6
CONTINUOUS
 0
LINE
 8
WHITE
 10
25.1179
 20
45.9664
 30
0.0000
 11
24.9176
 21
45.852
 31
0.0000
 6
CONTINUOUS
 0
LINE
 8
WHITE
 10
24.9176
 20
45.852
 30
0.0000
 11
24.7556
 21
45.6709
 31
0.0000
 6
CONTINUOUS
 0
LINE
 8
WHITE
 10
24.7556
 20
45.6709
 30
0.0000
 11
24.4984
 21
45.2137
 31
0.0000
 6
CONTINUOUS
 0
LINE
 8
WHITE
 10
24.4984
 20
45.2137
 30
0.0000
 11
24.2126
 21
44.7371
 31
0.0000
 6
CONTINUOUS
 0
LINE
 8
WHITE
 10
24.2126
 20
44.7371
 30
0.0000
 11
23.9363
 21
44.394
 31
0.0000
 6
CONTINUOUS
 0
LINE
 8
WHITE
 10
23.9363
 20
44.394
 30
0.0000
 11
23.574
 21
44.0606
 31
0.0000
 6
CONTINUOUS
 0
LINE
 8
WHITE
 10
23.574
 20
44.0606
 30
0.0000
 11
22.8214
 21
43.4891
 31
0.0000
 6
CONTINUOUS
 0
LINE
 8
WHITE
 10
24.546
 20
37.5911
 30
0.0000
 11
24.3938
 21
38.3246
 31
0.0000
 6
CONTINUOUS
 0
LINE
 8
WHITE
 10
24.3938
 20
38.3246
 30
0.0000
 11
24.327
 21
39.0585
 31
0.0000
 6
CONTINUOUS
 0
LINE
 8
WHITE
 10
24.327
 20
39.0585
 30
0.0000
 11
24.3364
 21
39.7826
 31
0.0000
 6
CONTINUOUS
 0
LINE
 8
WHITE
 10
24.3364
 20
39.7826
 30
0.0000
 11
24.4125
 21
40.5165
 31
0.0000
 6
CONTINUOUS
 0
LINE
 8
WHITE
 10
24.4125
 20
40.5165
 30
0.0000
 11
24.5558
 21
41.2211
 31
0.0000
 6
CONTINUOUS
 0
LINE
 8
WHITE
 10
24.5558
 20
41.2211
 30
0.0000
 11
24.7556
 21
41.9359
 31
0.0000
 6
CONTINUOUS
 0
LINE
 8
WHITE
 10
24.7556
 20
41.9359
 30
0.0000
 11
25.0035
 21
42.6315
 31
0.0000
 6
CONTINUOUS
 0
LINE
 8
WHITE
 10
25.0035
 20
42.6315
 30
0.0000
 11
25.3084
 21
43.308
 31
0.0000
 6
CONTINUOUS
 0
LINE
 8
WHITE
 10
25.3084
 20
43.308
 30
0.0000
 11
25.5754
 21
43.5176
 31
0.0000
 6
CONTINUOUS
 0
LINE
 8
WHITE
 10
25.5754
 20
43.5176
 30
0.0000
 11
25.9946
 21
44.4607
 31
0.0000
 6
CONTINUOUS
 0
LINE
 8
WHITE
 10
25.9946
 20
44.4607
 30
0.0000
 11
26.0801
 21
44.9276
 31
0.0000
 6
CONTINUOUS
 0
LINE
 8
WHITE
 10
26.0801
 20
44.9276
 30
0.0000
 11
26.061
 21
45.1661
 31
0.0000
 6
CONTINUOUS
 0
LINE
 8
WHITE
 10
26.061
 20
45.1661
 30
0.0000
 11
25.9755
 21
45.4042
 31
0.0000
 6
CONTINUOUS
 0
LINE
 8
WHITE
 10
25.9755
 20
45.4042
 30
0.0000
 11
25.8326
 21
45.6232
 31
0.0000
 6
CONTINUOUS
 0
LINE
 8
WHITE
 10
25.8326
 20
45.6232
 30
0.0000
 11
25.7561
 21
45.8903
 31
0.0000
 6
CONTINUOUS
 0
LINE
 8
WHITE
 10
23.3074
 20
44.7945
 30
0.0000
 11
23.031
 21
45.0517
 31
0.0000
 6
CONTINUOUS
 0
LINE
 8
WHITE
 10
23.031
 20
45.0517
 30
0.0000
 11
22.869
 21
45.3566
 31
0.0000
 6
CONTINUOUS
 0
LINE
 8
WHITE
 10
22.869
 20
45.3566
 30
0.0000
 11
22.7261
 21
45.6806
 31
0.0000
 6
CONTINUOUS
 0
LINE
 8
WHITE
 10
22.7261
 20
45.6806
 30
0.0000
 11
22.488
 21
45.9472
 31
0.0000
 6
CONTINUOUS
 0
LINE
 8
WHITE
 10
22.488
 20
45.9472
 30
0.0000
 11
22.4306
 21
46.0999
 31
0.0000
 6
CONTINUOUS
 0
LINE
 8
WHITE
 10
22.4306
 20
46.0999
 30
0.0000
 11
22.4404
 21
46.3095
 31
0.0000
 6
CONTINUOUS
 0
LINE
 8
WHITE
 10
22.4404
 20
46.3095
 30
0.0000
 11
22.4404
 21
46.5285
 31
0.0000
 6
CONTINUOUS
 0
LINE
 8
WHITE
 10
22.4404
 20
46.5285
 30
0.0000
 11
22.3639
 21
46.7381
 31
0.0000
 6
CONTINUOUS
 0
LINE
 8
WHITE
 10
22.3639
 20
46.7381
 30
0.0000
 11
22.2686
 21
46.6526
 31
0.0000
 6
CONTINUOUS
 0
LINE
 8
WHITE
 10
22.2686
 20
46.6526
 30
0.0000
 11
22.1543
 21
46.6429
 31
0.0000
 6
CONTINUOUS
 0
LINE
 8
WHITE
 10
22.1543
 20
46.6429
 30
0.0000
 11
21.9735
 21
46.7002
 31
0.0000
 6
CONTINUOUS
 0
LINE
 8
WHITE
 10
21.9735
 20
46.7002
 30
0.0000
 11
21.8494
 21
46.8146
 31
0.0000
 6
CONTINUOUS
 0
LINE
 8
WHITE
 10
21.8494
 20
46.8146
 30
0.0000
 11
21.7924
 21
46.9575
 31
0.0000
 6
CONTINUOUS
 0
LINE
 8
WHITE
 10
21.7924
 20
46.9575
 30
0.0000
 11
21.7826
 21
47.2624
 31
0.0000
 6
CONTINUOUS
 0
LINE
 8
WHITE
 10
21.7826
 20
47.2624
 30
0.0000
 11
21.8115
 21
47.5579
 31
0.0000
 6
CONTINUOUS
 0
LINE
 8
WHITE
 10
21.8115
 20
47.5579
 30
0.0000
 11
21.7924
 21
47.691
 31
0.0000
 6
CONTINUOUS
 0
LINE
 8
WHITE
 10
21.7924
 20
47.691
 30
0.0000
 11
21.7256
 21
47.796
 31
0.0000
 6
CONTINUOUS
 0
LINE
 8
WHITE
 10
21.7256
 20
47.796
 30
0.0000
 11
21.573
 21
47.9104
 31
0.0000
 6
CONTINUOUS
 0
LINE
 8
WHITE
 10
21.573
 20
47.9104
 30
0.0000
 11
21.4016
 21
47.958
 31
0.0000
 6
CONTINUOUS
 0
LINE
 8
WHITE
 10
21.4016
 20
47.958
 30
0.0000
 11
21.0109
 21
47.9483
 31
0.0000
 6
CONTINUOUS
 0
LINE
 8
WHITE
 10
21.0109
 20
47.9483
 30
0.0000
 11
20.601
 21
47.8627
 31
0.0000
 6
CONTINUOUS
 0
LINE
 8
WHITE
 10
20.601
 20
47.8627
 30
0.0000
 11
20.1818
 21
47.8245
 31
0.0000
 6
CONTINUOUS
 0
LINE
 8
WHITE
 10
20.1818
 20
47.8245
 30
0.0000
 11
20.1915
 21
47.9483
 31
0.0000
 6
CONTINUOUS
 0
LINE
 8
WHITE
 10
20.1915
 20
47.9483
 30
0.0000
 11
20.1341
 21
48.0435
 31
0.0000
 6
CONTINUOUS
 0
LINE
 8
WHITE
 10
20.1341
 20
48.0435
 30
0.0000
 11
20.0865
 21
48.1485
 31
0.0000
 6
CONTINUOUS
 0
LINE
 8
WHITE
 10
20.0865
 20
48.1485
 30
0.0000
 11
20.0963
 21
48.2535
 31
0.0000
 6
CONTINUOUS
 0
LINE
 8
WHITE
 10
20.0963
 20
48.2535
 30
0.0000
 11
19.9913
 21
48.2246
 31
0.0000
 6
CONTINUOUS
 0
LINE
 8
WHITE
 10
19.9913
 20
48.2246
 30
0.0000
 11
19.9436
 21
48.177
 31
0.0000
 6
CONTINUOUS
 0
LINE
 8
WHITE
 10
19.9436
 20
48.177
 30
0.0000
 11
19.9151
 21
48.0056
 31
0.0000
 6
CONTINUOUS
 0
LINE
 8
WHITE
 10
19.9151
 20
48.0056
 30
0.0000
 11
19.896
 21
47.8436
 31
0.0000
 6
CONTINUOUS
 0
LINE
 8
WHITE
 10
19.896
 20
47.8436
 30
0.0000
 11
19.8484
 21
47.7863
 31
0.0000
 6
CONTINUOUS
 0
LINE
 8
WHITE
 10
19.8484
 20
47.7863
 30
0.0000
 11
19.7625
 21
47.7675
 31
0.0000
 6
CONTINUOUS
 0
LINE
 8
WHITE
 10
19.7625
 20
47.7675
 30
0.0000
 11
19.6388
 21
47.8627
 31
0.0000
 6
CONTINUOUS
 0
LINE
 8
WHITE
 10
19.6388
 20
47.8627
 30
0.0000
 11
19.5529
 21
48.0247
 31
0.0000
 6
CONTINUOUS
 0
LINE
 8
WHITE
 10
19.5529
 20
48.0247
 30
0.0000
 11
19.4483
 21
48.1676
 31
0.0000
 6
CONTINUOUS
 0
LINE
 8
WHITE
 10
19.4483
 20
48.1676
 30
0.0000
 11
19.2765
 21
48.1579
 31
0.0000
 6
CONTINUOUS
 0
LINE
 8
WHITE
 10
19.2765
 20
48.1579
 30
0.0000
 11
19.2578
 21
48.015
 31
0.0000
 6
CONTINUOUS
 0
LINE
 8
WHITE
 10
19.2578
 20
48.015
 30
0.0000
 11
19.248
 21
47.853
 31
0.0000
 6
CONTINUOUS
 0
LINE
 8
WHITE
 10
19.248
 20
47.853
 30
0.0000
 11
19.1051
 21
47.8151
 31
0.0000
 6
CONTINUOUS
 0
LINE
 8
WHITE
 10
19.1051
 20
47.8151
 30
0.0000
 11
18.9716
 21
47.8627
 31
0.0000
 6
CONTINUOUS
 0
LINE
 8
WHITE
 10
18.9716
 20
47.8627
 30
0.0000
 11
18.6668
 21
48.0056
 31
0.0000
 6
CONTINUOUS
 0
LINE
 8
WHITE
 10
18.6668
 20
48.0056
 30
0.0000
 11
18.6953
 21
47.9104
 31
0.0000
 6
CONTINUOUS
 0
LINE
 8
WHITE
 10
18.6953
 20
47.9104
 30
0.0000
 11
18.6668
 21
47.8245
 31
0.0000
 6
CONTINUOUS
 0
LINE
 8
WHITE
 10
18.6668
 20
47.8245
 30
0.0000
 11
18.5813
 21
47.6722
 31
0.0000
 6
CONTINUOUS
 0
LINE
 8
WHITE
 10
18.5813
 20
47.6722
 30
0.0000
 11
18.3427
 21
47.9674
 31
0.0000
 6
CONTINUOUS
 0
LINE
 8
WHITE
 10
18.3427
 20
47.9674
 30
0.0000
 11
18.1999
 21
48.0341
 31
0.0000
 6
CONTINUOUS
 0
LINE
 8
WHITE
 10
18.1999
 20
48.0341
 30
0.0000
 11
18.057
 21
48.0532
 31
0.0000
 6
CONTINUOUS
 0
LINE
 8
WHITE
 10
18.057
 20
48.0532
 30
0.0000
 11
17.733
 21
47.9959
 31
0.0000
 6
CONTINUOUS
 0
LINE
 8
WHITE
 10
17.733
 20
47.9959
 30
0.0000
 11
17.3996
 21
47.8245
 31
0.0000
 6
CONTINUOUS
 0
LINE
 8
WHITE
 10
23.2121
 20
44.7945
 30
0.0000
 11
22.9166
 21
44.6992
 31
0.0000
 6
CONTINUOUS
 0
LINE
 8
WHITE
 10
22.9166
 20
44.6992
 30
0.0000
 11
22.6976
 21
44.5373
 31
0.0000
 6
CONTINUOUS
 0
LINE
 8
WHITE
 10
22.6976
 20
44.5373
 30
0.0000
 11
22.5356
 21
44.3179
 31
0.0000
 6
CONTINUOUS
 0
LINE
 8
WHITE
 10
22.5356
 20
44.3179
 30
0.0000
 11
22.4213
 21
44.0704
 31
0.0000
 6
CONTINUOUS
 0
LINE
 8
WHITE
 10
22.4213
 20
44.0704
 30
0.0000
 11
22.221
 21
43.5367
 31
0.0000
 6
CONTINUOUS
 0
LINE
 8
WHITE
 10
22.221
 20
43.5367
 30
0.0000
 11
22.0972
 21
43.2791
 31
0.0000
 6
CONTINUOUS
 0
LINE
 8
WHITE
 10
22.0972
 20
43.2791
 30
0.0000
 11
21.9446
 21
43.0695
 31
0.0000
 6
CONTINUOUS
 0
LINE
 8
WHITE
 10
21.9446
 20
43.0695
 30
0.0000
 11
21.5539
 21
42.4121
 31
0.0000
 6
CONTINUOUS
 0
LINE
 8
WHITE
 10
21.5539
 20
42.4121
 30
0.0000
 11
21.1823
 21
41.7641
 31
0.0000
 6
CONTINUOUS
 0
LINE
 8
WHITE
 10
21.1823
 20
41.7641
 30
0.0000
 11
20.7919
 21
41.1259
 31
0.0000
 6
CONTINUOUS
 0
LINE
 8
WHITE
 10
20.7919
 20
41.1259
 30
0.0000
 11
20.5822
 21
40.8214
 31
0.0000
 6
CONTINUOUS
 0
LINE
 8
WHITE
 10
20.5822
 20
40.8214
 30
0.0000
 11
20.4773
 21
40.4974
 31
0.0000
 6
CONTINUOUS
 0
LINE
 8
WHITE
 10
20.4773
 20
40.4974
 30
0.0000
 11
20.3059
 21
39.8017
 31
0.0000
 6
CONTINUOUS
 0
LINE
 8
WHITE
 10
21.516
 20
42.4598
 30
0.0000
 11
21.5636
 21
42.8122
 31
0.0000
 6
CONTINUOUS
 0
LINE
 8
WHITE
 10
21.5636
 20
42.8122
 30
0.0000
 11
21.5351
 21
42.9266
 31
0.0000
 6
CONTINUOUS
 0
LINE
 8
WHITE
 10
21.5351
 20
42.9266
 30
0.0000
 11
21.1823
 21
42.8888
 31
0.0000
 6
CONTINUOUS
 0
LINE
 8
WHITE
 10
21.1823
 20
42.8888
 30
0.0000
 11
21.2779
 21
43.041
 31
0.0000
 6
CONTINUOUS
 0
LINE
 8
WHITE
 10
21.2779
 20
43.041
 30
0.0000
 11
21.2779
 21
43.2221
 31
0.0000
 6
CONTINUOUS
 0
LINE
 8
WHITE
 10
21.2779
 20
43.2221
 30
0.0000
 11
21.1729
 21
43.2983
 31
0.0000
 6
CONTINUOUS
 0
LINE
 8
WHITE
 10
21.1729
 20
43.2983
 30
0.0000
 11
21.0394
 21
43.3271
 31
0.0000
 6
CONTINUOUS
 0
LINE
 8
WHITE
 10
21.0394
 20
43.3271
 30
0.0000
 11
20.763
 21
43.3365
 31
0.0000
 6
CONTINUOUS
 0
LINE
 8
WHITE
 10
18.7718
 20
42.4695
 30
0.0000
 11
19.6294
 21
42.5363
 31
0.0000
 6
CONTINUOUS
 0
LINE
 8
WHITE
 10
19.6294
 20
42.5363
 30
0.0000
 11
20.4105
 21
43.0793
 31
0.0000
 6
CONTINUOUS
 0
LINE
 8
WHITE
 10
20.4105
 20
43.0793
 30
0.0000
 11
20.6869
 21
43.3556
 31
0.0000
 6
CONTINUOUS
 0
LINE
 8
WHITE
 10
20.6869
 20
43.3556
 30
0.0000
 11
20.8774
 21
43.6414
 31
0.0000
 6
CONTINUOUS
 0
LINE
 8
WHITE
 10
20.8774
 20
43.6414
 30
0.0000
 11
21.0015
 21
44.0036
 31
0.0000
 6
CONTINUOUS
 0
LINE
 8
WHITE
 10
21.0015
 20
44.0036
 30
0.0000
 11
21.03
 21
44.3561
 31
0.0000
 6
CONTINUOUS
 0
LINE
 8
WHITE
 10
21.03
 20
44.3561
 30
0.0000
 11
21.0015
 21
44.6992
 31
0.0000
 6
CONTINUOUS
 0
LINE
 8
WHITE
 10
21.0015
 20
44.6992
 30
0.0000
 11
20.8965
 21
45.0326
 31
0.0000
 6
CONTINUOUS
 0
LINE
 8
WHITE
 10
20.8965
 20
45.0326
 30
0.0000
 11
20.7251
 21
45.3566
 31
0.0000
 6
CONTINUOUS
 0
LINE
 8
WHITE
 10
20.7251
 20
45.3566
 30
0.0000
 11
20.5057
 21
45.6709
 31
0.0000
 6
CONTINUOUS
 0
LINE
 8
WHITE
 10
20.5057
 20
45.6709
 30
0.0000
 11
19.9245
 21
46.2619
 31
0.0000
 6
CONTINUOUS
 0
LINE
 8
WHITE
 10
19.9245
 20
46.2619
 30
0.0000
 11
19.2004
 21
46.7955
 31
0.0000
 6
CONTINUOUS
 0
LINE
 8
WHITE
 10
19.2004
 20
46.7955
 30
0.0000
 11
18.3904
 21
47.2815
 31
0.0000
 6
CONTINUOUS
 0
LINE
 8
WHITE
 10
18.3904
 20
47.2815
 30
0.0000
 11
17.5425
 21
47.691
 31
0.0000
 6
CONTINUOUS
 0
LINE
 8
WHITE
 10
17.5425
 20
47.691
 30
0.0000
 11
16.704
 21
48.0341
 31
0.0000
 6
CONTINUOUS
 0
LINE
 8
WHITE
 10
16.704
 20
48.0341
 30
0.0000
 11
15.7035
 21
48.3964
 31
0.0000
 6
CONTINUOUS
 0
LINE
 8
WHITE
 10
15.7035
 20
48.3964
 30
0.0000
 11
15.3698
 21
48.4631
 31
0.0000
 6
CONTINUOUS
 0
LINE
 8
WHITE
 10
15.3698
 20
48.4631
 30
0.0000
 11
14.9696
 21
48.4534
 31
0.0000
 6
CONTINUOUS
 0
LINE
 8
WHITE
 10
35.853
 20
55.408
 30
0.0000
 11
34.5097
 21
57.1176
 31
0.0000
 6
CONTINUOUS
 0
LINE
 8
WHITE
 10
34.5097
 20
57.1176
 30
0.0000
 11
31.2125
 21
61.0254
 31
0.0000
 6
CONTINUOUS
 0
LINE
 8
WHITE
 10
31.2125
 20
61.0254
 30
0.0000
 11
34.6318
 21
61.8802
 31
0.0000
 6
CONTINUOUS
 0
LINE
 8
WHITE
 10
34.6318
 20
61.8802
 30
0.0000
 11
31.7009
 21
64.8111
 31
0.0000
 6
CONTINUOUS
 0
LINE
 8
WHITE
 10
31.7009
 20
64.8111
 30
0.0000
 11
24.8623
 21
65.9102
 31
0.0000
 6
CONTINUOUS
 0
LINE
 8
WHITE
 10
24.8623
 20
65.9102
 30
0.0000
 11
24.8623
 21
68.5968
 31
0.0000
 6
CONTINUOUS
 0
LINE
 8
WHITE
 10
24.8623
 20
68.5968
 30
0.0000
 11
25.2287
 21
69.6958
 31
0.0000
 6
CONTINUOUS
 0
LINE
 8
WHITE
 10
25.2287
 20
69.6958
 30
0.0000
 11
26.4498
 21
71.4055
 31
0.0000
 6
CONTINUOUS
 0
LINE
 8
WHITE
 10
26.4498
 20
71.4055
 30
0.0000
 11
23.519
 21
73.2373
 31
0.0000
 6
CONTINUOUS
 0
LINE
 8
WHITE
 10
23.519
 20
73.2373
 30
0.0000
 11
22.1757
 21
74.7027
 31
0.0000
 6
CONTINUOUS
 0
LINE
 8
WHITE
 10
22.1757
 20
74.7027
 30
0.0000
 11
20.466
 21
74.5806
 31
0.0000
 6
CONTINUOUS
 0
LINE
 8
WHITE
 10
20.466
 20
74.5806
 30
0.0000
 11
21.3209
 21
76.5345
 31
0.0000
 6
CONTINUOUS
 0
LINE
 8
WHITE
 10
21.3209
 20
76.5345
 30
0.0000
 11
18.7564
 21
79.8316
 31
0.0000
 6
CONTINUOUS
 0
LINE
 8
WHITE
 10
41.2972
 20
48.6728
 30
0.0000
 11
41.0685
 21
48.5771
 31
0.0000
 6
CONTINUOUS
 0
LINE
 8
WHITE
 10
41.0685
 20
48.5771
 30
0.0000
 11
40.8113
 21
48.5486
 31
0.0000
 6
CONTINUOUS
 0
LINE
 8
WHITE
 10
40.8113
 20
48.5486
 30
0.0000
 11
40.5064
 21
48.4916
 31
0.0000
 6
CONTINUOUS
 0
LINE
 8
WHITE
 10
40.5064
 20
48.4916
 30
0.0000
 11
39.5059
 21
48.1294
 31
0.0000
 6
CONTINUOUS
 0
LINE
 8
WHITE
 10
39.5059
 20
48.1294
 30
0.0000
 11
38.6674
 21
47.7863
 31
0.0000
 6
CONTINUOUS
 0
LINE
 8
WHITE
 10
38.6674
 20
47.7863
 30
0.0000
 11
37.8191
 21
47.367
 31
0.0000
 6
CONTINUOUS
 0
LINE
 8
WHITE
 10
37.8191
 20
47.367
 30
0.0000
 11
37.0095
 21
46.8907
 31
0.0000
 6
CONTINUOUS
 0
LINE
 8
WHITE
 10
37.0095
 20
46.8907
 30
0.0000
 11
36.2948
 21
46.3477
 31
0.0000
 6
CONTINUOUS
 0
LINE
 8
WHITE
 10
36.2948
 20
46.3477
 30
0.0000
 11
35.7135
 21
45.7567
 31
0.0000
 6
CONTINUOUS
 0
LINE
 8
WHITE
 10
35.7135
 20
45.7567
 30
0.0000
 11
35.4941
 21
45.4519
 31
0.0000
 6
CONTINUOUS
 0
LINE
 8
WHITE
 10
35.4941
 20
45.4519
 30
0.0000
 11
35.3227
 21
45.1279
 31
0.0000
 6
CONTINUOUS
 0
LINE
 8
WHITE
 10
35.3227
 20
45.1279
 30
0.0000
 11
35.2178
 21
44.7945
 31
0.0000
 6
CONTINUOUS
 0
LINE
 8
WHITE
 10
35.2178
 20
44.7945
 30
0.0000
 11
35.1799
 21
44.442
 31
0.0000
 6
CONTINUOUS
 0
LINE
 8
WHITE
 10
35.1799
 20
44.442
 30
0.0000
 11
35.2084
 21
44.0989
 31
0.0000
 6
CONTINUOUS
 0
LINE
 8
WHITE
 10
35.2084
 20
44.0989
 30
0.0000
 11
35.3227
 21
43.7366
 31
0.0000
 6
CONTINUOUS
 0
LINE
 8
WHITE
 10
35.3227
 20
43.7366
 30
0.0000
 11
35.5132
 21
43.4411
 31
0.0000
 6
CONTINUOUS
 0
LINE
 8
WHITE
 10
35.5132
 20
43.4411
 30
0.0000
 11
35.799
 21
43.1651
 31
0.0000
 6
CONTINUOUS
 0
LINE
 8
WHITE
 10
35.799
 20
43.1651
 30
0.0000
 11
36.5711
 21
42.6315
 31
0.0000
 6
CONTINUOUS
 0
LINE
 8
WHITE
 10
36.5711
 20
42.6315
 30
0.0000
 11
37.4858
 21
42.0881
 31
0.0000
 6
CONTINUOUS
 0
LINE
 8
WHITE
 10
37.4858
 20
42.0881
 30
0.0000
 11
38.3816
 21
41.526
 31
0.0000
 6
CONTINUOUS
 0
LINE
 8
WHITE
 10
38.3816
 20
41.526
 30
0.0000
 11
38.5721
 21
41.2879
 31
0.0000
 6
CONTINUOUS
 0
LINE
 8
WHITE
 10
38.5721
 20
41.2879
 30
0.0000
 11
38.6865
 21
40.9736
 31
0.0000
 6
CONTINUOUS
 0
LINE
 8
WHITE
 10
38.6865
 20
40.9736
 30
0.0000
 11
38.8009
 21
40.6211
 31
0.0000
 6
CONTINUOUS
 0
LINE
 8
WHITE
 10
38.8009
 20
40.6211
 30
0.0000
 11
38.9914
 21
40.3162
 31
0.0000
 6
CONTINUOUS
 0
LINE
 8
WHITE
 10
38.9914
 20
40.3162
 30
0.0000
 11
39.2104
 21
40.0208
 31
0.0000
 6
CONTINUOUS
 0
LINE
 8
WHITE
 10
39.2104
 20
40.0208
 30
0.0000
 11
39.4774
 21
39.7732
 31
0.0000
 6
CONTINUOUS
 0
LINE
 8
WHITE
 10
39.4774
 20
39.7732
 30
0.0000
 11
39.8869
 21
39.5063
 31
0.0000
 6
CONTINUOUS
 0
LINE
 8
WHITE
 10
39.8869
 20
39.5063
 30
0.0000
 11
40.2968
 21
39.2107
 31
0.0000
 6
CONTINUOUS
 0
LINE
 8
WHITE
 10
40.2968
 20
39.2107
 30
0.0000
 11
40.7351
 21
38.9633
 31
0.0000
 6
CONTINUOUS
 0
LINE
 8
WHITE
 10
40.7351
 20
38.9633
 30
0.0000
 11
41.2305
 21
38.868
 31
0.0000
 6
CONTINUOUS
 0
LINE
 8
WHITE
 10
41.2305
 20
38.868
 30
0.0000
 11
41.1259
 21
39.3728
 31
0.0000
 6
CONTINUOUS
 0
LINE
 8
WHITE
 10
41.1259
 20
39.3728
 30
0.0000
 11
40.8874
 21
39.8396
 31
0.0000
 6
CONTINUOUS
 0
LINE
 8
WHITE
 10
40.8874
 20
39.8396
 30
0.0000
 11
40.611
 21
40.2971
 31
0.0000
 6
CONTINUOUS
 0
LINE
 8
WHITE
 10
40.611
 20
40.2971
 30
0.0000
 11
40.3826
 21
40.7738
 31
0.0000
 6
CONTINUOUS
 0
LINE
 8
WHITE
 10
40.3826
 20
40.7738
 30
0.0000
 11
40.4779
 21
40.6785
 31
0.0000
 6
CONTINUOUS
 0
LINE
 8
WHITE
 10
40.4779
 20
40.6785
 30
0.0000
 11
40.6399
 21
40.6309
 31
0.0000
 6
CONTINUOUS
 0
LINE
 8
WHITE
 10
40.6399
 20
40.6309
 30
0.0000
 11
41.1352
 21
40.6403
 31
0.0000
 6
CONTINUOUS
 0
LINE
 8
WHITE
 10
41.1352
 20
40.6403
 30
0.0000
 11
42.3263
 21
40.869
 31
0.0000
 6
CONTINUOUS
 0
LINE
 8
WHITE
 10
42.3263
 20
40.869
 30
0.0000
 11
42.3836
 21
40.5829
 31
0.0000
 6
CONTINUOUS
 0
LINE
 8
WHITE
 10
42.3836
 20
40.5829
 30
0.0000
 11
42.498
 21
40.3447
 31
0.0000
 6
CONTINUOUS
 0
LINE
 8
WHITE
 10
42.498
 20
40.3447
 30
0.0000
 11
42.8408
 21
39.9637
 31
0.0000
 6
CONTINUOUS
 0
LINE
 8
WHITE
 10
42.8408
 20
39.9637
 30
0.0000
 11
43.308
 21
39.735
 31
0.0000
 6
CONTINUOUS
 0
LINE
 8
WHITE
 10
43.308
 20
39.735
 30
0.0000
 11
43.8413
 21
39.6491
 31
0.0000
 6
CONTINUOUS
 0
LINE
 8
WHITE
 10
43.8413
 20
39.6491
 30
0.0000
 11
44.3085
 21
39.7444
 31
0.0000
 6
CONTINUOUS
 0
LINE
 8
WHITE
 10
44.3085
 20
39.7444
 30
0.0000
 11
44.7371
 21
39.9446
 31
0.0000
 6
CONTINUOUS
 0
LINE
 8
WHITE
 10
44.7371
 20
39.9446
 30
0.0000
 11
45.0896
 21
40.2304
 31
0.0000
 6
CONTINUOUS
 0
LINE
 8
WHITE
 10
45.0896
 20
40.2304
 30
0.0000
 11
45.3566
 21
40.5926
 31
0.0000
 6
CONTINUOUS
 0
LINE
 8
WHITE
 10
45.3566
 20
40.5926
 30
0.0000
 11
45.4136
 21
40.764
 31
0.0000
 6
CONTINUOUS
 0
LINE
 8
WHITE
 10
45.4136
 20
40.764
 30
0.0000
 11
45.4234
 21
40.9451
 31
0.0000
 6
CONTINUOUS
 0
LINE
 8
WHITE
 10
45.4234
 20
40.9451
 30
0.0000
 11
45.2899
 21
41.307
 31
0.0000
 6
CONTINUOUS
 0
LINE
 8
WHITE
 10
45.2899
 20
41.307
 30
0.0000
 11
45.0326
 21
41.6689
 31
0.0000
 6
CONTINUOUS
 0
LINE
 8
WHITE
 10
45.0326
 20
41.6689
 30
0.0000
 11
44.6895
 21
41.9453
 31
0.0000
 6
CONTINUOUS
 0
LINE
 8
WHITE
 10
44.6895
 20
41.9453
 30
0.0000
 11
44.5845
 21
41.9738
 31
0.0000
 6
CONTINUOUS
 0
LINE
 8
WHITE
 10
44.5845
 20
41.9738
 30
0.0000
 11
44.499
 21
41.9359
 31
0.0000
 6
CONTINUOUS
 0
LINE
 8
WHITE
 10
42.7455
 20
53.3415
 30
0.0000
 11
42.4215
 21
53.0273
 31
0.0000
 6
CONTINUOUS
 0
LINE
 8
WHITE
 10
42.4215
 20
53.0273
 30
0.0000
 11
42.3739
 21
52.8653
 31
0.0000
 6
CONTINUOUS
 0
LINE
 8
WHITE
 10
42.3739
 20
52.8653
 30
0.0000
 11
42.4789
 21
52.7317
 31
0.0000
 6
CONTINUOUS
 0
LINE
 8
WHITE
 10
42.4789
 20
52.7317
 30
0.0000
 11
42.7455
 21
52.6365
 31
0.0000
 6
CONTINUOUS
 0
LINE
 8
WHITE
 10
42.7455
 20
52.6365
 30
0.0000
 11
43.098
 21
52.6271
 31
0.0000
 6
CONTINUOUS
 0
LINE
 8
WHITE
 10
43.098
 20
52.6271
 30
0.0000
 11
43.2506
 21
52.665
 31
0.0000
 6
CONTINUOUS
 0
LINE
 8
WHITE
 10
43.2506
 20
52.665
 30
0.0000
 11
43.3556
 21
52.7509
 31
0.0000
 6
CONTINUOUS
 0
LINE
 8
WHITE
 10
43.3556
 20
52.7509
 30
0.0000
 11
43.3935
 21
52.8653
 31
0.0000
 6
CONTINUOUS
 0
LINE
 8
WHITE
 10
43.3935
 20
52.8653
 30
0.0000
 11
43.3556
 21
53.0366
 31
0.0000
 6
CONTINUOUS
 0
LINE
 8
WHITE
 10
43.3556
 20
53.0366
 30
0.0000
 11
43.2983
 21
53.1701
 31
0.0000
 6
CONTINUOUS
 0
LINE
 8
WHITE
 10
43.2983
 20
53.1701
 30
0.0000
 11
43.1647
 21
53.313
 31
0.0000
 6
CONTINUOUS
 0
LINE
 8
WHITE
 10
43.1647
 20
53.313
 30
0.0000
 11
42.984
 21
53.3895
 31
0.0000
 6
CONTINUOUS
 0
LINE
 8
WHITE
 10
42.984
 20
53.3895
 30
0.0000
 11
42.7455
 21
53.3415
 31
0.0000
 6
CONTINUOUS
 0
LINE
 8
WHITE
 10
48.9011
 20
48.1868
 30
0.0000
 11
49.0346
 21
48.1868
 31
0.0000
 6
CONTINUOUS
 0
LINE
 8
WHITE
 10
49.0346
 20
48.1868
 30
0.0000
 11
49.1392
 21
48.1009
 31
0.0000
 6
CONTINUOUS
 0
LINE
 8
WHITE
 10
49.1392
 20
48.1009
 30
0.0000
 11
49.1392
 21
48.282
 31
0.0000
 6
CONTINUOUS
 0
LINE
 8
WHITE
 10
49.1392
 20
48.282
 30
0.0000
 11
49.2443
 21
48.1961
 31
0.0000
 6
CONTINUOUS
 0
LINE
 8
WHITE
 10
49.2443
 20
48.1961
 30
0.0000
 11
49.3586
 21
48.1676
 31
0.0000
 6
CONTINUOUS
 0
LINE
 8
WHITE
 10
49.3586
 20
48.1676
 30
0.0000
 11
49.5682
 21
48.2152
 31
0.0000
 6
CONTINUOUS
 0
LINE
 8
WHITE
 10
49.5682
 20
48.2152
 30
0.0000
 11
49.6541
 21
48.2723
 31
0.0000
 6
CONTINUOUS
 0
LINE
 8
WHITE
 10
49.6541
 20
48.2723
 30
0.0000
 11
49.6635
 21
48.3772
 31
0.0000
 6
CONTINUOUS
 0
LINE
 8
WHITE
 10
49.6635
 20
48.3772
 30
0.0000
 11
49.6541
 21
48.4916
 31
0.0000
 6
CONTINUOUS
 0
LINE
 8
WHITE
 10
49.6541
 20
48.4916
 30
0.0000
 11
49.692
 21
48.5869
 31
0.0000
 6
CONTINUOUS
 0
LINE
 8
WHITE
 10
49.692
 20
48.5869
 30
0.0000
 11
49.8064
 21
48.6251
 31
0.0000
 6
CONTINUOUS
 0
LINE
 8
WHITE
 10
49.8064
 20
48.6251
 30
0.0000
 11
49.9875
 21
48.6154
 31
0.0000
 6
CONTINUOUS
 0
LINE
 8
WHITE
 10
49.9875
 20
48.6154
 30
0.0000
 11
49.8731
 21
48.7489
 31
0.0000
 6
CONTINUOUS
 0
LINE
 8
WHITE
 10
49.8731
 20
48.7489
 30
0.0000
 11
49.7017
 21
49.0729
 31
0.0000
 6
CONTINUOUS
 0
LINE
 8
WHITE
 10
49.7017
 20
49.0729
 30
0.0000
 11
49.5682
 21
49.1872
 31
0.0000
 6
CONTINUOUS
 0
LINE
 8
WHITE
 10
49.5682
 20
49.1872
 30
0.0000
 11
49.7587
 21
49.1396
 31
0.0000
 6
CONTINUOUS
 0
LINE
 8
WHITE
 10
49.7587
 20
49.1396
 30
0.0000
 11
49.9492
 21
49.0538
 31
0.0000
 6
CONTINUOUS
 0
LINE
 8
WHITE
 10
49.9492
 20
49.0538
 30
0.0000
 11
50.1304
 21
48.9776
 31
0.0000
 6
CONTINUOUS
 0
LINE
 8
WHITE
 10
50.1304
 20
48.9776
 30
0.0000
 11
50.3209
 21
48.9487
 31
0.0000
 6
CONTINUOUS
 0
LINE
 8
WHITE
 10
50.3209
 20
48.9487
 30
0.0000
 11
50.2256
 21
49.0538
 31
0.0000
 6
CONTINUOUS
 0
LINE
 8
WHITE
 10
50.2256
 20
49.0538
 30
0.0000
 11
50.1686
 21
49.1872
 31
0.0000
 6
CONTINUOUS
 0
LINE
 8
WHITE
 10
50.1686
 20
49.1872
 30
0.0000
 11
50.34
 21
49.149
 31
0.0000
 6
CONTINUOUS
 0
LINE
 8
WHITE
 10
50.34
 20
49.149
 30
0.0000
 11
50.502
 21
49.0823
 31
0.0000
 6
CONTINUOUS
 0
LINE
 8
WHITE
 10
50.502
 20
49.0823
 30
0.0000
 11
50.664
 21
49.0346
 31
0.0000
 6
CONTINUOUS
 0
LINE
 8
WHITE
 10
50.664
 20
49.0346
 30
0.0000
 11
50.8069
 21
49.0631
 31
0.0000
 6
CONTINUOUS
 0
LINE
 8
WHITE
 10
50.8069
 20
49.0631
 30
0.0000
 11
50.9213
 21
49.2064
 31
0.0000
 6
CONTINUOUS
 0
LINE
 8
WHITE
 10
50.9213
 20
49.2064
 30
0.0000
 11
50.8642
 21
49.3777
 31
0.0000
 6
CONTINUOUS
 0
LINE
 8
WHITE
 10
50.8642
 20
49.3777
 30
0.0000
 11
50.7593
 21
49.5491
 31
0.0000
 6
CONTINUOUS
 0
LINE
 8
WHITE
 10
50.7593
 20
49.5491
 30
0.0000
 11
50.721
 21
49.7017
 31
0.0000
 6
CONTINUOUS
 0
LINE
 8
WHITE
 10
50.721
 20
49.7017
 30
0.0000
 11
50.7499
 21
49.8446
 31
0.0000
 6
CONTINUOUS
 0
LINE
 8
WHITE
 10
50.7499
 20
49.8446
 30
0.0000
 11
50.8069
 21
49.9114
 31
0.0000
 6
CONTINUOUS
 0
LINE
 8
WHITE
 10
50.8069
 20
49.9114
 30
0.0000
 11
50.9689
 21
49.8922
 31
0.0000
 6
CONTINUOUS
 0
LINE
 8
WHITE
 10
50.9689
 20
49.8922
 30
0.0000
 11
51.15
 21
49.7876
 31
0.0000
 6
CONTINUOUS
 0
LINE
 8
WHITE
 10
51.15
 20
49.7876
 30
0.0000
 11
51.3214
 21
49.7017
 31
0.0000
 6
CONTINUOUS
 0
LINE
 8
WHITE
 10
49.0823
 20
47.1289
 30
0.0000
 11
48.9011
 21
47.1765
 31
0.0000
 6
CONTINUOUS
 0
LINE
 8
WHITE
 10
48.9011
 20
47.1765
 30
0.0000
 11
48.8059
 21
47.2717
 31
0.0000
 6
CONTINUOUS
 0
LINE
 8
WHITE
 10
48.8059
 20
47.2717
 30
0.0000
 11
48.7774
 21
47.5864
 31
0.0000
 6
CONTINUOUS
 0
LINE
 8
WHITE
 10
48.7774
 20
47.5864
 30
0.0000
 11
48.7867
 21
47.9389
 31
0.0000
 6
CONTINUOUS
 0
LINE
 8
WHITE
 10
48.7867
 20
47.9389
 30
0.0000
 11
48.7391
 21
48.0915
 31
0.0000
 6
CONTINUOUS
 0
LINE
 8
WHITE
 10
48.7391
 20
48.0915
 30
0.0000
 11
48.6247
 21
48.2152
 31
0.0000
 6
CONTINUOUS
 0
LINE
 8
WHITE
 10
48.6247
 20
48.2152
 30
0.0000
 11
48.6821
 21
47.6243
 31
0.0000
 6
CONTINUOUS
 0
LINE
 8
WHITE
 10
48.6821
 20
47.6243
 30
0.0000
 11
48.6915
 21
47.3768
 31
0.0000
 6
CONTINUOUS
 0
LINE
 8
WHITE
 10
48.6915
 20
47.3768
 30
0.0000
 11
48.5962
 21
47.2148
 31
0.0000
 6
CONTINUOUS
 0
LINE
 8
WHITE
 10
48.5962
 20
47.2148
 30
0.0000
 11
48.4819
 21
47.1863
 31
0.0000
 6
CONTINUOUS
 0
LINE
 8
WHITE
 10
48.4819
 20
47.1863
 30
0.0000
 11
48.4151
 21
47.2241
 31
0.0000
 6
CONTINUOUS
 0
LINE
 8
WHITE
 10
48.4151
 20
47.2241
 30
0.0000
 11
48.3866
 21
47.4146
 31
0.0000
 6
CONTINUOUS
 0
LINE
 8
WHITE
 10
48.3866
 20
47.4146
 30
0.0000
 11
48.3866
 21
47.6816
 31
0.0000
 6
CONTINUOUS
 0
LINE
 8
WHITE
 10
48.3866
 20
47.6816
 30
0.0000
 11
48.3581
 21
47.796
 31
0.0000
 6
CONTINUOUS
 0
LINE
 8
WHITE
 10
48.3581
 20
47.796
 30
0.0000
 11
48.2914
 21
47.8819
 31
0.0000
 6
CONTINUOUS
 0
LINE
 8
WHITE
 10
48.2914
 20
47.8819
 30
0.0000
 11
48.2629
 21
47.529
 31
0.0000
 6
CONTINUOUS
 0
LINE
 8
WHITE
 10
48.2629
 20
47.529
 30
0.0000
 11
48.3199
 21
47.1386
 31
0.0000
 6
CONTINUOUS
 0
LINE
 8
WHITE
 10
48.3199
 20
47.1386
 30
0.0000
 11
48.3105
 21
46.8623
 31
0.0000
 6
CONTINUOUS
 0
LINE
 8
WHITE
 10
48.3105
 20
46.8623
 30
0.0000
 11
48.2437
 21
46.824
 31
0.0000
 6
CONTINUOUS
 0
LINE
 8
WHITE
 10
48.2437
 20
46.824
 30
0.0000
 11
48.1103
 21
46.881
 31
0.0000
 6
CONTINUOUS
 0
LINE
 8
WHITE
 10
48.1103
 20
46.881
 30
0.0000
 11
47.958
 21
47.0243
 31
0.0000
 6
CONTINUOUS
 0
LINE
 8
WHITE
 10
47.958
 20
47.0243
 30
0.0000
 11
47.8721
 21
47.205
 31
0.0000
 6
CONTINUOUS
 0
LINE
 8
WHITE
 10
47.8721
 20
47.205
 30
0.0000
 11
47.8147
 21
47.6531
 31
0.0000
 6
CONTINUOUS
 0
LINE
 8
WHITE
 10
47.8147
 20
47.6531
 30
0.0000
 11
47.7578
 21
48.1294
 31
0.0000
 6
CONTINUOUS
 0
LINE
 8
WHITE
 10
47.7578
 20
48.1294
 30
0.0000
 11
47.6816
 21
48.3581
 31
0.0000
 6
CONTINUOUS
 0
LINE
 8
WHITE
 10
47.6816
 20
48.3581
 30
0.0000
 11
47.5388
 21
48.5486
 31
0.0000
 6
CONTINUOUS
 0
LINE
 8
WHITE
 10
47.5388
 20
48.5486
 30
0.0000
 11
47.5481
 21
47.9295
 31
0.0000
 6
CONTINUOUS
 0
LINE
 8
WHITE
 10
47.5481
 20
47.9295
 30
0.0000
 11
47.5388
 21
47.6149
 31
0.0000
 6
CONTINUOUS
 0
LINE
 8
WHITE
 10
47.5388
 20
47.6149
 30
0.0000
 11
47.4431
 21
47.31
 31
0.0000
 6
CONTINUOUS
 0
LINE
 8
WHITE
 10
47.4431
 20
47.31
 30
0.0000
 11
47.4053
 21
47.4911
 31
0.0000
 6
CONTINUOUS
 0
LINE
 8
WHITE
 10
47.4053
 20
47.4911
 30
0.0000
 11
47.2909
 21
47.6434
 31
0.0000
 6
CONTINUOUS
 0
LINE
 8
WHITE
 10
47.2909
 20
47.6434
 30
0.0000
 11
47.2717
 21
47.5102
 31
0.0000
 6
CONTINUOUS
 0
LINE
 8
WHITE
 10
47.2717
 20
47.5102
 30
0.0000
 11
47.3194
 21
47.3483
 31
0.0000
 6
CONTINUOUS
 0
LINE
 8
WHITE
 10
47.3194
 20
47.3483
 30
0.0000
 11
47.3194
 21
47.2433
 31
0.0000
 6
CONTINUOUS
 0
LINE
 8
WHITE
 10
47.3194
 20
47.2433
 30
0.0000
 11
47.1382
 21
47.2815
 31
0.0000
 6
CONTINUOUS
 0
LINE
 8
WHITE
 10
47.1382
 20
47.2815
 30
0.0000
 11
46.9763
 21
47.4814
 31
0.0000
 6
CONTINUOUS
 0
LINE
 8
WHITE
 10
46.9763
 20
47.4814
 30
0.0000
 11
46.8525
 21
47.5958
 31
0.0000
 6
CONTINUOUS
 0
LINE
 8
WHITE
 10
46.8525
 20
47.5958
 30
0.0000
 11
46.6905
 21
47.6434
 31
0.0000
 6
CONTINUOUS
 0
LINE
 8
WHITE
 10
46.6905
 20
47.6434
 30
0.0000
 11
46.662
 21
47.472
 31
0.0000
 6
CONTINUOUS
 0
LINE
 8
WHITE
 10
46.662
 20
47.472
 30
0.0000
 11
46.6238
 21
47.31
 31
0.0000
 6
CONTINUOUS
 0
LINE
 8
WHITE
 10
49.1108
 20
47.1289
 30
0.0000
 11
48.882
 21
48.0915
 31
0.0000
 6
CONTINUOUS
 0
LINE
 8
WHITE
 10
48.882
 20
48.0915
 30
0.0000
 11
48.558
 21
48.8918
 31
0.0000
 6
CONTINUOUS
 0
LINE
 8
WHITE
 10
48.558
 20
48.8918
 30
0.0000
 11
48.1294
 21
49.5491
 31
0.0000
 6
CONTINUOUS
 0
LINE
 8
WHITE
 10
48.1294
 20
49.5491
 30
0.0000
 11
47.6149
 21
50.0734
 31
0.0000
 6
CONTINUOUS
 0
LINE
 8
WHITE
 10
47.6149
 20
50.0734
 30
0.0000
 11
47.0239
 21
50.4926
 31
0.0000
 6
CONTINUOUS
 0
LINE
 8
WHITE
 10
47.0239
 20
50.4926
 30
0.0000
 11
46.3665
 21
50.8357
 31
0.0000
 6
CONTINUOUS
 0
LINE
 8
WHITE
 10
46.3665
 20
50.8357
 30
0.0000
 11
45.6424
 21
51.1121
 31
0.0000
 6
CONTINUOUS
 0
LINE
 8
WHITE
 10
45.6424
 20
51.1121
 30
0.0000
 11
44.8706
 21
51.3405
 31
0.0000
 6
CONTINUOUS
 0
LINE
 8
WHITE
 10
44.8706
 20
51.3405
 30
0.0000
 11
42.2978
 21
52.1314
 31
0.0000
 6
CONTINUOUS
 0
LINE
 8
WHITE
 10
42.2978
 20
52.1314
 30
0.0000
 11
40.6778
 21
52.3031
 31
0.0000
 6
CONTINUOUS
 0
LINE
 8
WHITE
 10
40.6778
 20
52.3031
 30
0.0000
 11
37.686
 21
52.5506
 31
0.0000
 6
CONTINUOUS
 0
LINE
 8
WHITE
 10
37.686
 20
52.5506
 30
0.0000
 11
37.0283
 21
52.5221
 31
0.0000
 6
CONTINUOUS
 0
LINE
 8
WHITE
 10
37.0283
 20
52.5221
 30
0.0000
 11
36.3709
 21
52.3507
 31
0.0000
 6
CONTINUOUS
 0
LINE
 8
WHITE
 10
36.3709
 20
52.3507
 30
0.0000
 11
35.7037
 21
52.0459
 31
0.0000
 6
CONTINUOUS
 0
LINE
 8
WHITE
 10
35.7037
 20
52.0459
 30
0.0000
 11
35.0749
 21
51.6645
 31
0.0000
 6
CONTINUOUS
 0
LINE
 8
WHITE
 10
35.0749
 20
51.6645
 30
0.0000
 11
34.4651
 21
51.2167
 31
0.0000
 6
CONTINUOUS
 0
LINE
 8
WHITE
 10
34.4651
 20
51.2167
 30
0.0000
 11
33.9221
 21
50.7308
 31
0.0000
 6
CONTINUOUS
 0
LINE
 8
WHITE
 10
33.9221
 20
50.7308
 30
0.0000
 11
33.0262
 21
49.797
 31
0.0000
 6
CONTINUOUS
 0
LINE
 8
WHITE
 10
33.0262
 20
49.797
 30
0.0000
 11
32.5211
 21
49.0631
 31
0.0000
 6
CONTINUOUS
 0
LINE
 8
WHITE
 10
32.5211
 20
49.0631
 30
0.0000
 11
32.2166
 21
48.3296
 31
0.0000
 6
CONTINUOUS
 0
LINE
 8
WHITE
 10
32.2166
 20
48.3296
 30
0.0000
 11
32.0737
 21
47.5864
 31
0.0000
 6
CONTINUOUS
 0
LINE
 8
WHITE
 10
32.0737
 20
47.5864
 30
0.0000
 11
32.0737
 21
46.8146
 31
0.0000
 6
CONTINUOUS
 0
LINE
 8
WHITE
 10
32.0737
 20
46.8146
 30
0.0000
 11
32.2073
 21
46.0238
 31
0.0000
 6
CONTINUOUS
 0
LINE
 8
WHITE
 10
32.2073
 20
46.0238
 30
0.0000
 11
32.4259
 21
45.204
 31
0.0000
 6
CONTINUOUS
 0
LINE
 8
WHITE
 10
32.4259
 20
45.204
 30
0.0000
 11
32.7405
 21
44.337
 31
0.0000
 6
CONTINUOUS
 0
LINE
 8
WHITE
 10
32.7405
 20
44.337
 30
0.0000
 11
33.1121
 21
43.4318
 31
0.0000
 6
CONTINUOUS
 0
LINE
 8
WHITE
 10
33.1121
 20
43.4318
 30
0.0000
 11
33.4646
 21
42.5171
 31
0.0000
 6
CONTINUOUS
 0
LINE
 8
WHITE
 10
33.4646
 20
42.5171
 30
0.0000
 11
33.741
 21
41.7165
 31
0.0000
 6
CONTINUOUS
 0
LINE
 8
WHITE
 10
33.741
 20
41.7165
 30
0.0000
 11
34.1029
 21
41.0021
 31
0.0000
 6
CONTINUOUS
 0
LINE
 8
WHITE
 10
34.1029
 20
41.0021
 30
0.0000
 11
34.3605
 21
40.6688
 31
0.0000
 6
CONTINUOUS
 0
LINE
 8
WHITE
 10
34.3605
 20
40.6688
 30
0.0000
 11
34.6841
 21
40.3545
 31
0.0000
 6
CONTINUOUS
 0
LINE
 8
WHITE
 10
34.6841
 20
40.3545
 30
0.0000
 11
35.4656
 21
39.7635
 31
0.0000
 6
CONTINUOUS
 0
LINE
 8
WHITE
 10
35.4656
 20
39.7635
 30
0.0000
 11
36.2662
 21
39.1346
 31
0.0000
 6
CONTINUOUS
 0
LINE
 8
WHITE
 10
36.2662
 20
39.1346
 30
0.0000
 11
36.8475
 21
38.5819
 31
0.0000
 6
CONTINUOUS
 0
LINE
 8
WHITE
 10
36.8475
 20
38.5819
 30
0.0000
 11
37.2285
 21
38.2867
 31
0.0000
 6
CONTINUOUS
 0
LINE
 8
WHITE
 10
37.2285
 20
38.2867
 30
0.0000
 11
37.686
 21
38.0483
 31
0.0000
 6
CONTINUOUS
 0
LINE
 8
WHITE
 10
37.686
 20
38.0483
 30
0.0000
 11
38.3625
 21
37.8293
 31
0.0000
 6
CONTINUOUS
 0
LINE
 8
WHITE
 10
38.3625
 20
37.8293
 30
0.0000
 11
39.0866
 21
37.6766
 31
0.0000
 6
CONTINUOUS
 0
LINE
 8
WHITE
 10
39.0866
 20
37.6766
 30
0.0000
 11
40.659
 21
37.5052
 31
0.0000
 6
CONTINUOUS
 0
LINE
 8
WHITE
 10
40.659
 20
37.5052
 30
0.0000
 11
42.2595
 21
37.467
 31
0.0000
 6
CONTINUOUS
 0
LINE
 8
WHITE
 10
42.2595
 20
37.467
 30
0.0000
 11
43.7749
 21
37.467
 31
0.0000
 6
CONTINUOUS
 0
LINE
 8
WHITE
 10
43.7749
 20
37.467
 30
0.0000
 11
44.6895
 21
37.5337
 31
0.0000
 6
CONTINUOUS
 0
LINE
 8
WHITE
 10
44.6895
 20
37.5337
 30
0.0000
 11
45.5089
 21
37.7149
 31
0.0000
 6
CONTINUOUS
 0
LINE
 8
WHITE
 10
45.5089
 20
37.7149
 30
0.0000
 11
46.2428
 21
37.9913
 31
0.0000
 6
CONTINUOUS
 0
LINE
 8
WHITE
 10
46.2428
 20
37.9913
 30
0.0000
 11
46.9001
 21
38.382
 31
0.0000
 6
CONTINUOUS
 0
LINE
 8
WHITE
 10
46.9001
 20
38.382
 30
0.0000
 11
47.2717
 21
38.706
 31
0.0000
 6
CONTINUOUS
 0
LINE
 8
WHITE
 10
47.2717
 20
38.706
 30
0.0000
 11
47.5958
 21
39.0968
 31
0.0000
 6
CONTINUOUS
 0
LINE
 8
WHITE
 10
47.5958
 20
39.0968
 30
0.0000
 11
47.8912
 21
39.5636
 31
0.0000
 6
CONTINUOUS
 0
LINE
 8
WHITE
 10
47.8912
 20
39.5636
 30
0.0000
 11
48.1579
 21
40.0684
 31
0.0000
 6
CONTINUOUS
 0
LINE
 8
WHITE
 10
48.1579
 20
40.0684
 30
0.0000
 11
48.5869
 21
41.1926
 31
0.0000
 6
CONTINUOUS
 0
LINE
 8
WHITE
 10
48.5869
 20
41.1926
 30
0.0000
 11
48.9109
 21
42.3836
 31
0.0000
 6
CONTINUOUS
 0
LINE
 8
WHITE
 10
48.9109
 20
42.3836
 30
0.0000
 11
49.1299
 21
43.5367
 31
0.0000
 6
CONTINUOUS
 0
LINE
 8
WHITE
 10
49.1299
 20
43.5367
 30
0.0000
 11
49.2634
 21
44.5466
 31
0.0000
 6
CONTINUOUS
 0
LINE
 8
WHITE
 10
49.2634
 20
44.5466
 30
0.0000
 11
49.3204
 21
45.7665
 31
0.0000
 6
CONTINUOUS
 0
LINE
 8
WHITE
 10
49.3204
 20
45.7665
 30
0.0000
 11
49.1108
 21
47.1289
 31
0.0000
 6
CONTINUOUS
 0
LINE
 8
WHITE
 10
51.2929
 20
51.1598
 30
0.0000
 11
51.3787
 21
51.3881
 31
0.0000
 6
CONTINUOUS
 0
LINE
 8
WHITE
 10
51.3787
 20
51.3881
 30
0.0000
 11
51.4931
 21
51.6075
 31
0.0000
 6
CONTINUOUS
 0
LINE
 8
WHITE
 10
51.4931
 20
51.6075
 30
0.0000
 11
51.6645
 21
51.741
 31
0.0000
 6
CONTINUOUS
 0
LINE
 8
WHITE
 10
51.6645
 20
51.741
 30
0.0000
 11
51.9026
 21
51.7313
 31
0.0000
 6
CONTINUOUS
 0
LINE
 8
WHITE
 10
51.9026
 20
51.7313
 30
0.0000
 11
52.0553
 21
52.3125
 31
0.0000
 6
CONTINUOUS
 0
LINE
 8
WHITE
 10
52.0553
 20
52.3125
 30
0.0000
 11
52.179
 21
52.5412
 31
0.0000
 6
CONTINUOUS
 0
LINE
 8
WHITE
 10
52.179
 20
52.5412
 30
0.0000
 11
52.3507
 21
52.7317
 31
0.0000
 6
CONTINUOUS
 0
LINE
 8
WHITE
 10
52.3507
 20
52.7317
 30
0.0000
 11
52.7224
 21
53.1795
 31
0.0000
 6
CONTINUOUS
 0
LINE
 8
WHITE
 10
52.7224
 20
53.1795
 30
0.0000
 11
52.932
 21
53.6846
 31
0.0000
 6
CONTINUOUS
 0
LINE
 8
WHITE
 10
52.932
 20
53.6846
 30
0.0000
 11
53.0366
 21
54.2374
 31
0.0000
 6
CONTINUOUS
 0
LINE
 8
WHITE
 10
53.0366
 20
54.2374
 30
0.0000
 11
53.0749
 21
54.828
 31
0.0000
 6
CONTINUOUS
 0
LINE
 8
WHITE
 10
53.0749
 20
54.828
 30
0.0000
 11
53.0749
 21
56.0573
 31
0.0000
 6
CONTINUOUS
 0
LINE
 8
WHITE
 10
53.0749
 20
56.0573
 30
0.0000
 11
53.1225
 21
56.6674
 31
0.0000
 6
CONTINUOUS
 0
LINE
 8
WHITE
 10
53.1225
 20
56.6674
 30
0.0000
 11
53.2654
 21
57.2486
 31
0.0000
 6
CONTINUOUS
 0
LINE
 8
WHITE
 10
53.2654
 20
57.2486
 30
0.0000
 11
53.475
 21
57.9154
 31
0.0000
 6
CONTINUOUS
 0
LINE
 8
WHITE
 10
53.475
 20
57.9154
 30
0.0000
 11
53.5796
 21
58.6395
 31
0.0000
 6
CONTINUOUS
 0
LINE
 8
WHITE
 10
53.5796
 20
58.6395
 30
0.0000
 11
53.5703
 21
59.0111
 31
0.0000
 6
CONTINUOUS
 0
LINE
 8
WHITE
 10
53.5703
 20
59.0111
 30
0.0000
 11
53.5132
 21
59.3828
 31
0.0000
 6
CONTINUOUS
 0
LINE
 8
WHITE
 10
53.5132
 20
59.3828
 30
0.0000
 11
53.3798
 21
59.745
 31
0.0000
 6
CONTINUOUS
 0
LINE
 8
WHITE
 10
53.3798
 20
59.745
 30
0.0000
 11
53.1701
 21
60.0975
 31
0.0000
 6
CONTINUOUS
 0
LINE
 8
WHITE
 10
53.1701
 20
60.0975
 30
0.0000
 11
53.0749
 21
60.3169
 31
0.0000
 6
CONTINUOUS
 0
LINE
 8
WHITE
 10
53.0749
 20
60.3169
 30
0.0000
 11
53.0749
 21
60.555
 31
0.0000
 6
CONTINUOUS
 0
LINE
 8
WHITE
 10
53.0749
 20
60.555
 30
0.0000
 11
53.2178
 21
61.0313
 31
0.0000
 6
CONTINUOUS
 0
LINE
 8
WHITE
 10
53.2178
 20
61.0313
 30
0.0000
 11
53.3513
 21
61.4981
 31
0.0000
 6
CONTINUOUS
 0
LINE
 8
WHITE
 10
53.3513
 20
61.4981
 30
0.0000
 11
53.3321
 21
61.7077
 31
0.0000
 6
CONTINUOUS
 0
LINE
 8
WHITE
 10
53.3321
 20
61.7077
 30
0.0000
 11
53.2369
 21
61.9174
 31
0.0000
 6
CONTINUOUS
 0
LINE
 8
WHITE
 10
53.2369
 20
61.9174
 30
0.0000
 11
53.1034
 21
62.1367
 31
0.0000
 6
CONTINUOUS
 0
LINE
 8
WHITE
 10
53.1034
 20
62.1367
 30
0.0000
 11
53.0273
 21
62.3464
 31
0.0000
 6
CONTINUOUS
 0
LINE
 8
WHITE
 10
53.0273
 20
62.3464
 30
0.0000
 11
52.9984
 21
62.7848
 31
0.0000
 6
CONTINUOUS
 0
LINE
 8
WHITE
 10
52.9984
 20
62.7848
 30
0.0000
 11
53.0842
 21
63.6135
 31
0.0000
 6
CONTINUOUS
 0
LINE
 8
WHITE
 10
53.0842
 20
63.6135
 30
0.0000
 11
53.0175
 21
63.7661
 31
0.0000
 6
CONTINUOUS
 0
LINE
 8
WHITE
 10
53.0175
 20
63.7661
 30
0.0000
 11
52.8937
 21
63.8137
 31
0.0000
 6
CONTINUOUS
 0
LINE
 8
WHITE
 10
52.8937
 20
63.8137
 30
0.0000
 11
52.77
 21
63.8329
 31
0.0000
 6
CONTINUOUS
 0
LINE
 8
WHITE
 10
52.77
 20
63.8329
 30
0.0000
 11
52.6841
 21
63.8805
 31
0.0000
 6
CONTINUOUS
 0
LINE
 8
WHITE
 10
52.6841
 20
63.8805
 30
0.0000
 11
52.608
 21
64.0995
 31
0.0000
 6
CONTINUOUS
 0
LINE
 8
WHITE
 10
52.608
 20
64.0995
 30
0.0000
 11
52.7126
 21
64.176
 31
0.0000
 6
CONTINUOUS
 0
LINE
 8
WHITE
 10
52.7126
 20
64.176
 30
0.0000
 11
52.9031
 21
64.2236
 31
0.0000
 6
CONTINUOUS
 0
LINE
 8
WHITE
 10
52.9031
 20
64.2236
 30
0.0000
 11
53.0842
 21
64.3665
 31
0.0000
 6
CONTINUOUS
 0
LINE
 8
WHITE
 10
53.0842
 20
64.3665
 30
0.0000
 11
52.7509
 21
64.3759
 31
0.0000
 6
CONTINUOUS
 0
LINE
 8
WHITE
 10
52.7509
 20
64.3759
 30
0.0000
 11
52.6365
 21
64.4141
 31
0.0000
 6
CONTINUOUS
 0
LINE
 8
WHITE
 10
52.6365
 20
64.4141
 30
0.0000
 11
52.6268
 21
64.5187
 31
0.0000
 6
CONTINUOUS
 0
LINE
 8
WHITE
 10
52.6268
 20
64.5187
 30
0.0000
 11
52.7411
 21
64.614
 31
0.0000
 6
CONTINUOUS
 0
LINE
 8
WHITE
 10
52.7411
 20
64.614
 30
0.0000
 11
52.9414
 21
64.6331
 31
0.0000
 6
CONTINUOUS
 0
LINE
 8
WHITE
 10
52.9414
 20
64.6331
 30
0.0000
 11
53.418
 21
64.614
 31
0.0000
 6
CONTINUOUS
 0
LINE
 8
WHITE
 10
53.418
 20
64.614
 30
0.0000
 11
53.2463
 21
64.776
 31
0.0000
 6
CONTINUOUS
 0
LINE
 8
WHITE
 10
53.2463
 20
64.776
 30
0.0000
 11
53.0464
 21
64.881
 31
0.0000
 6
CONTINUOUS
 0
LINE
 8
WHITE
 10
53.0464
 20
64.881
 30
0.0000
 11
52.608
 21
64.9762
 31
0.0000
 6
CONTINUOUS
 0
LINE
 8
WHITE
 10
52.608
 20
64.9762
 30
0.0000
 11
52.1505
 21
64.9954
 31
0.0000
 6
CONTINUOUS
 0
LINE
 8
WHITE
 10
52.1505
 20
64.9954
 30
0.0000
 11
51.7219
 21
65.0336
 31
0.0000
 6
CONTINUOUS
 0
LINE
 8
WHITE
 10
51.7219
 20
65.0336
 30
0.0000
 11
51.9885
 21
65.2526
 31
0.0000
 6
CONTINUOUS
 0
LINE
 8
WHITE
 10
51.9885
 20
65.2526
 30
0.0000
 11
52.2934
 21
65.424
 31
0.0000
 6
CONTINUOUS
 0
LINE
 8
WHITE
 10
52.2934
 20
65.424
 30
0.0000
 11
52.5697
 21
65.6336
 31
0.0000
 6
CONTINUOUS
 0
LINE
 8
WHITE
 10
52.5697
 20
65.6336
 30
0.0000
 11
52.665
 21
65.7862
 31
0.0000
 6
CONTINUOUS
 0
LINE
 8
WHITE
 10
52.665
 20
65.7862
 30
0.0000
 11
52.7224
 21
65.9767
 31
0.0000
 6
CONTINUOUS
 0
LINE
 8
WHITE
 10
52.7224
 20
65.9767
 30
0.0000
 11
52.4839
 21
65.9674
 31
0.0000
 6
CONTINUOUS
 0
LINE
 8
WHITE
 10
52.4839
 20
65.9674
 30
0.0000
 11
52.3886
 21
66.015
 31
0.0000
 6
CONTINUOUS
 0
LINE
 8
WHITE
 10
52.3886
 20
66.015
 30
0.0000
 11
52.3219
 21
66.1294
 31
0.0000
 6
CONTINUOUS
 0
LINE
 8
WHITE
 10
52.3219
 20
66.1294
 30
0.0000
 11
52.5506
 21
66.1481
 31
0.0000
 6
CONTINUOUS
 0
LINE
 8
WHITE
 10
52.5506
 20
66.1481
 30
0.0000
 11
52.6556
 21
66.1961
 31
0.0000
 6
CONTINUOUS
 0
LINE
 8
WHITE
 10
52.6556
 20
66.1961
 30
0.0000
 11
52.7224
 21
66.3101
 31
0.0000
 6
CONTINUOUS
 0
LINE
 8
WHITE
 10
52.7224
 20
66.3101
 30
0.0000
 11
52.5889
 21
66.3007
 31
0.0000
 6
CONTINUOUS
 0
LINE
 8
WHITE
 10
52.5889
 20
66.3007
 30
0.0000
 11
52.4745
 21
66.339
 31
0.0000
 6
CONTINUOUS
 0
LINE
 8
WHITE
 10
52.4745
 20
66.339
 30
0.0000
 11
52.2364
 21
66.396
 31
0.0000
 6
CONTINUOUS
 0
LINE
 8
WHITE
 10
52.2364
 20
66.396
 30
0.0000
 11
52.2364
 21
66.5771
 31
0.0000
 6
CONTINUOUS
 0
LINE
 8
WHITE
 10
52.2364
 20
66.5771
 30
0.0000
 11
52.2934
 21
66.6724
 31
0.0000
 6
CONTINUOUS
 0
LINE
 8
WHITE
 10
52.2934
 20
66.6724
 30
0.0000
 11
52.503
 21
66.7485
 31
0.0000
 6
CONTINUOUS
 0
LINE
 8
WHITE
 10
52.503
 20
66.7485
 30
0.0000
 11
52.7411
 21
66.7583
 31
0.0000
 6
CONTINUOUS
 0
LINE
 8
WHITE
 10
52.7411
 20
66.7583
 30
0.0000
 11
52.827
 21
66.7961
 31
0.0000
 6
CONTINUOUS
 0
LINE
 8
WHITE
 10
52.827
 20
66.7961
 30
0.0000
 11
52.8653
 21
66.882
 31
0.0000
 6
CONTINUOUS
 0
LINE
 8
WHITE
 10
52.8653
 20
66.882
 30
0.0000
 11
52.8555
 21
66.9964
 31
0.0000
 6
CONTINUOUS
 0
LINE
 8
WHITE
 10
52.8555
 20
66.9964
 30
0.0000
 11
52.7985
 21
67.0534
 31
0.0000
 6
CONTINUOUS
 0
LINE
 8
WHITE
 10
52.7985
 20
67.0534
 30
0.0000
 11
52.608
 21
67.101
 31
0.0000
 6
CONTINUOUS
 0
LINE
 8
WHITE
 10
52.608
 20
67.101
 30
0.0000
 11
52.4171
 21
67.1393
 31
0.0000
 6
CONTINUOUS
 0
LINE
 8
WHITE
 10
52.4171
 20
67.1393
 30
0.0000
 11
52.3507
 21
67.1966
 31
0.0000
 6
CONTINUOUS
 0
LINE
 8
WHITE
 10
52.3507
 20
67.1966
 30
0.0000
 11
52.3219
 21
67.311
 31
0.0000
 6
CONTINUOUS
 0
LINE
 8
WHITE
 10
52.3219
 20
67.311
 30
0.0000
 11
52.4839
 21
67.3204
 31
0.0000
 6
CONTINUOUS
 0
LINE
 8
WHITE
 10
52.4839
 20
67.3204
 30
0.0000
 11
52.5412
 21
67.368
 31
0.0000
 6
CONTINUOUS
 0
LINE
 8
WHITE
 10
52.5412
 20
67.368
 30
0.0000
 11
52.5697
 21
67.4917
 31
0.0000
 6
CONTINUOUS
 0
LINE
 8
WHITE
 10
52.5697
 20
67.4917
 30
0.0000
 11
52.4363
 21
67.5015
 31
0.0000
 6
CONTINUOUS
 0
LINE
 8
WHITE
 10
52.4363
 20
67.5015
 30
0.0000
 11
52.3219
 21
67.5776
 31
0.0000
 6
CONTINUOUS
 0
LINE
 8
WHITE
 10
52.3219
 20
67.5776
 30
0.0000
 11
52.4651
 21
67.6538
 31
0.0000
 6
CONTINUOUS
 0
LINE
 8
WHITE
 10
52.4651
 20
67.6538
 30
0.0000
 11
52.6268
 21
67.6538
 31
0.0000
 6
CONTINUOUS
 0
LINE
 8
WHITE
 10
52.6268
 20
67.6538
 30
0.0000
 11
52.77
 21
67.6346
 31
0.0000
 6
CONTINUOUS
 0
LINE
 8
WHITE
 10
52.77
 20
67.6346
 30
0.0000
 11
52.8368
 21
67.6729
 31
0.0000
 6
CONTINUOUS
 0
LINE
 8
WHITE
 10
52.8368
 20
67.6729
 30
0.0000
 11
52.8368
 21
67.749
 31
0.0000
 6
CONTINUOUS
 0
LINE
 8
WHITE
 10
52.8368
 20
67.749
 30
0.0000
 11
52.7411
 21
67.7966
 31
0.0000
 6
CONTINUOUS
 0
LINE
 8
WHITE
 10
52.7411
 20
67.7966
 30
0.0000
 11
52.5983
 21
67.8349
 31
0.0000
 6
CONTINUOUS
 0
LINE
 8
WHITE
 10
52.5983
 20
67.8349
 30
0.0000
 11
52.4745
 21
67.911
 31
0.0000
 6
CONTINUOUS
 0
LINE
 8
WHITE
 10
52.4745
 20
67.911
 30
0.0000
 11
52.9031
 21
67.911
 31
0.0000
 6
CONTINUOUS
 0
LINE
 8
WHITE
 10
52.9031
 20
67.911
 30
0.0000
 11
52.6841
 21
68.1019
 31
0.0000
 6
CONTINUOUS
 0
LINE
 8
WHITE
 10
52.6841
 20
68.1019
 30
0.0000
 11
52.4269
 21
68.2065
 31
0.0000
 6
CONTINUOUS
 0
LINE
 8
WHITE
 10
52.4269
 20
68.2065
 30
0.0000
 11
52.1505
 21
68.2826
 31
0.0000
 6
CONTINUOUS
 0
LINE
 8
WHITE
 10
52.1505
 20
68.2826
 30
0.0000
 11
51.9026
 21
68.397
 31
0.0000
 6
CONTINUOUS
 0
LINE
 8
WHITE
 10
51.9026
 20
68.397
 30
0.0000
 11
52.1981
 21
68.3494
 31
0.0000
 6
CONTINUOUS
 0
LINE
 8
WHITE
 10
52.1981
 20
68.3494
 30
0.0000
 11
52.4839
 21
68.235
 31
0.0000
 6
CONTINUOUS
 0
LINE
 8
WHITE
 10
52.4839
 20
68.235
 30
0.0000
 11
52.7602
 21
68.1206
 31
0.0000
 6
CONTINUOUS
 0
LINE
 8
WHITE
 10
52.7602
 20
68.1206
 30
0.0000
 11
53.0842
 21
68.0636
 31
0.0000
 6
CONTINUOUS
 0
LINE
 8
WHITE
 10
53.0842
 20
68.0636
 30
0.0000
 11
52.6935
 21
68.4638
 31
0.0000
 6
CONTINUOUS
 0
LINE
 8
WHITE
 10
52.6935
 20
68.4638
 30
0.0000
 11
52.2364
 21
68.7308
 31
0.0000
 6
CONTINUOUS
 0
LINE
 8
WHITE
 10
52.2364
 20
68.7308
 30
0.0000
 11
52.3792
 21
68.7401
 31
0.0000
 6
CONTINUOUS
 0
LINE
 8
WHITE
 10
52.3792
 20
68.7401
 30
0.0000
 11
52.6556
 21
68.664
 31
0.0000
 6
CONTINUOUS
 0
LINE
 8
WHITE
 10
52.6556
 20
68.664
 30
0.0000
 11
52.8079
 21
68.6734
 31
0.0000
 6
CONTINUOUS
 0
LINE
 8
WHITE
 10
53.6846
 20
50.4641
 30
0.0000
 11
53.8372
 21
50.5496
 31
0.0000
 6
CONTINUOUS
 0
LINE
 8
WHITE
 10
53.8372
 20
50.5496
 30
0.0000
 11
53.961
 21
50.6449
 31
0.0000
 6
CONTINUOUS
 0
LINE
 8
WHITE
 10
53.961
 20
50.6449
 30
0.0000
 11
54.0086
 21
50.8545
 31
0.0000
 6
CONTINUOUS
 0
LINE
 8
WHITE
 10
54.0086
 20
50.8545
 30
0.0000
 11
54.1133
 21
50.9786
 31
0.0000
 6
CONTINUOUS
 0
LINE
 8
WHITE
 10
54.1133
 20
50.9786
 30
0.0000
 11
54.285
 21
51.0071
 31
0.0000
 6
CONTINUOUS
 0
LINE
 8
WHITE
 10
54.285
 20
51.0071
 30
0.0000
 11
54.3611
 21
51.093
 31
0.0000
 6
CONTINUOUS
 0
LINE
 8
WHITE
 10
54.3611
 20
51.093
 30
0.0000
 11
54.3896
 21
51.1976
 31
0.0000
 6
CONTINUOUS
 0
LINE
 8
WHITE
 10
54.3896
 20
51.1976
 30
0.0000
 11
54.447
 21
51.2835
 31
0.0000
 6
CONTINUOUS
 0
LINE
 8
WHITE
 10
54.447
 20
51.2835
 30
0.0000
 11
54.4849
 21
51.3787
 31
0.0000
 6
CONTINUOUS
 0
LINE
 8
WHITE
 10
54.4849
 20
51.3787
 30
0.0000
 11
54.3518
 21
51.6075
 31
0.0000
 6
CONTINUOUS
 0
LINE
 8
WHITE
 10
54.3518
 20
51.6075
 30
0.0000
 11
54.3518
 21
51.7028
 31
0.0000
 6
CONTINUOUS
 0
LINE
 8
WHITE
 10
54.3518
 20
51.7028
 30
0.0000
 11
54.4087
 21
51.7313
 31
0.0000
 6
CONTINUOUS
 0
LINE
 8
WHITE
 10
54.4087
 20
51.7313
 30
0.0000
 11
54.6281
 21
51.7121
 31
0.0000
 6
CONTINUOUS
 0
LINE
 8
WHITE
 10
54.6281
 20
51.7121
 30
0.0000
 11
54.7136
 21
51.7597
 31
0.0000
 6
CONTINUOUS
 0
LINE
 8
WHITE
 10
54.7136
 20
51.7597
 30
0.0000
 11
54.6945
 21
51.9315
 31
0.0000
 6
CONTINUOUS
 0
LINE
 8
WHITE
 10
54.6945
 20
51.9315
 30
0.0000
 11
54.6945
 21
52.017
 31
0.0000
 6
CONTINUOUS
 0
LINE
 8
WHITE
 10
54.6945
 20
52.017
 30
0.0000
 11
54.7519
 21
52.0935
 31
0.0000
 6
CONTINUOUS
 0
LINE
 8
WHITE
 10
54.7519
 20
52.0935
 30
0.0000
 11
54.9521
 21
52.1505
 31
0.0000
 6
CONTINUOUS
 0
LINE
 8
WHITE
 10
54.9521
 20
52.1505
 30
0.0000
 11
55.0568
 21
52.1602
 31
0.0000
 6
CONTINUOUS
 0
LINE
 8
WHITE
 10
55.0568
 20
52.1602
 30
0.0000
 11
55.1141
 21
52.2173
 31
0.0000
 6
CONTINUOUS
 0
LINE
 8
WHITE
 10
55.1141
 20
52.2173
 30
0.0000
 11
55.2473
 21
52.5604
 31
0.0000
 6
CONTINUOUS
 0
LINE
 8
WHITE
 10
55.2473
 20
52.5604
 30
0.0000
 11
55.4378
 21
52.8461
 31
0.0000
 6
CONTINUOUS
 0
LINE
 8
WHITE
 10
55.4378
 20
52.8461
 30
0.0000
 11
55.638
 21
53.1131
 31
0.0000
 6
CONTINUOUS
 0
LINE
 8
WHITE
 10
55.638
 20
53.1131
 30
0.0000
 11
55.8094
 21
53.3989
 31
0.0000
 6
CONTINUOUS
 0
LINE
 8
WHITE
 10
52.0838
 20
45.795
 30
0.0000
 11
52.1411
 21
45.7852
 31
0.0000
 6
CONTINUOUS
 0
LINE
 8
WHITE
 10
52.1411
 20
45.7852
 30
0.0000
 11
52.1981
 21
45.7376
 31
0.0000
 6
CONTINUOUS
 0
LINE
 8
WHITE
 10
52.1981
 20
45.7376
 30
0.0000
 11
52.2743
 21
45.9281
 31
0.0000
 6
CONTINUOUS
 0
LINE
 8
WHITE
 10
52.2743
 20
45.9281
 30
0.0000
 11
52.2934
 21
46.1284
 31
0.0000
 6
CONTINUOUS
 0
LINE
 8
WHITE
 10
52.2934
 20
46.1284
 30
0.0000
 11
52.284
 21
46.0901
 31
0.0000
 6
CONTINUOUS
 0
LINE
 8
WHITE
 10
52.284
 20
46.0901
 30
0.0000
 11
52.3219
 21
46.0999
 31
0.0000
 6
CONTINUOUS
 0
LINE
 8
WHITE
 10
52.3219
 20
46.0999
 30
0.0000
 11
52.3219
 21
46.2143
 31
0.0000
 6
CONTINUOUS
 0
LINE
 8
WHITE
 10
52.3219
 20
46.2143
 30
0.0000
 11
52.446
 21
46.1666
 31
0.0000
 6
CONTINUOUS
 0
LINE
 8
WHITE
 10
52.446
 20
46.1666
 30
0.0000
 11
52.5315
 21
46.1857
 31
0.0000
 6
CONTINUOUS
 0
LINE
 8
WHITE
 10
52.5315
 20
46.1857
 30
0.0000
 11
52.5889
 21
46.2713
 31
0.0000
 6
CONTINUOUS
 0
LINE
 8
WHITE
 10
52.5889
 20
46.2713
 30
0.0000
 11
52.5983
 21
46.3571
 31
0.0000
 6
CONTINUOUS
 0
LINE
 8
WHITE
 10
52.5983
 20
46.3571
 30
0.0000
 11
52.5983
 21
46.5476
 31
0.0000
 6
CONTINUOUS
 0
LINE
 8
WHITE
 10
52.5983
 20
46.5476
 30
0.0000
 11
52.6841
 21
46.4618
 31
0.0000
 6
CONTINUOUS
 0
LINE
 8
WHITE
 10
52.6841
 20
46.4618
 30
0.0000
 11
52.7602
 21
46.5382
 31
0.0000
 6
CONTINUOUS
 0
LINE
 8
WHITE
 10
52.7602
 20
46.5382
 30
0.0000
 11
52.7602
 21
46.6335
 31
0.0000
 6
CONTINUOUS
 0
LINE
 8
WHITE
 10
52.7602
 20
46.6335
 30
0.0000
 11
52.7509
 21
46.824
 31
0.0000
 6
CONTINUOUS
 0
LINE
 8
WHITE
 10
52.7509
 20
46.824
 30
0.0000
 11
52.9699
 21
46.7858
 31
0.0000
 6
CONTINUOUS
 0
LINE
 8
WHITE
 10
52.9699
 20
46.7858
 30
0.0000
 11
53.094
 21
46.9192
 31
0.0000
 6
CONTINUOUS
 0
LINE
 8
WHITE
 10
53.094
 20
46.9192
 30
0.0000
 11
53.1701
 21
47.1386
 31
0.0000
 6
CONTINUOUS
 0
LINE
 8
WHITE
 10
53.1701
 20
47.1386
 30
0.0000
 11
53.2939
 21
47.3385
 31
0.0000
 6
CONTINUOUS
 0
LINE
 8
WHITE
 10
53.2939
 20
47.3385
 30
0.0000
 11
53.475
 21
47.4053
 31
0.0000
 6
CONTINUOUS
 0
LINE
 8
WHITE
 10
53.475
 20
47.4053
 30
0.0000
 11
53.5609
 21
47.4338
 31
0.0000
 6
CONTINUOUS
 0
LINE
 8
WHITE
 10
53.5609
 20
47.4338
 30
0.0000
 11
53.6276
 21
47.4911
 31
0.0000
 6
CONTINUOUS
 0
LINE
 8
WHITE
 10
53.6276
 20
47.4911
 30
0.0000
 11
53.6276
 21
47.5958
 31
0.0000
 6
CONTINUOUS
 0
LINE
 8
WHITE
 10
53.6276
 20
47.5958
 30
0.0000
 11
53.6561
 21
47.7007
 31
0.0000
 6
CONTINUOUS
 0
LINE
 8
WHITE
 10
53.6561
 20
47.7007
 30
0.0000
 11
53.799
 21
47.8436
 31
0.0000
 6
CONTINUOUS
 0
LINE
 8
WHITE
 10
53.799
 20
47.8436
 30
0.0000
 11
53.8657
 21
47.9006
 31
0.0000
 6
CONTINUOUS
 0
LINE
 8
WHITE
 10
53.8657
 20
47.9006
 30
0.0000
 11
53.9036
 21
47.9771
 31
0.0000
 6
CONTINUOUS
 0
LINE
 8
WHITE
 10
53.9036
 20
47.9771
 30
0.0000
 11
53.9134
 21
48.3581
 31
0.0000
 6
CONTINUOUS
 0
LINE
 8
WHITE
 10
53.9134
 20
48.3581
 30
0.0000
 11
53.9419
 21
48.5486
 31
0.0000
 6
CONTINUOUS
 0
LINE
 8
WHITE
 10
53.9419
 20
48.5486
 30
0.0000
 11
54.018
 21
48.7013
 31
0.0000
 6
CONTINUOUS
 0
LINE
 8
WHITE
 10
54.018
 20
48.7013
 30
0.0000
 11
54.2944
 21
49.1014
 31
0.0000
 6
CONTINUOUS
 0
LINE
 8
WHITE
 10
54.2944
 20
49.1014
 30
0.0000
 11
54.3518
 21
49.2919
 31
0.0000
 6
CONTINUOUS
 0
LINE
 8
WHITE
 10
54.3518
 20
49.2919
 30
0.0000
 11
54.3518
 21
49.5206
 31
0.0000
 6
CONTINUOUS
 0
LINE
 8
WHITE
 10
54.3518
 20
49.5206
 30
0.0000
 11
54.2276
 21
49.8446
 31
0.0000
 6
CONTINUOUS
 0
LINE
 8
WHITE
 10
54.2276
 20
49.8446
 30
0.0000
 11
53.961
 21
50.1019
 31
0.0000
 6
CONTINUOUS
 0
LINE
 8
WHITE
 10
53.961
 20
50.1019
 30
0.0000
 11
53.856
 21
50.2163
 31
0.0000
 6
CONTINUOUS
 0
LINE
 8
WHITE
 10
53.856
 20
50.2163
 30
0.0000
 11
53.7799
 21
50.3591
 31
0.0000
 6
CONTINUOUS
 0
LINE
 8
WHITE
 10
53.7799
 20
50.3591
 30
0.0000
 11
53.6752
 21
50.4641
 31
0.0000
 6
CONTINUOUS
 0
LINE
 8
WHITE
 10
53.6752
 20
50.4641
 30
0.0000
 11
53.5035
 21
50.4641
 31
0.0000
 6
CONTINUOUS
 0
LINE
 8
WHITE
 10
53.5035
 20
50.4641
 30
0.0000
 11
53.4274
 21
50.9786
 31
0.0000
 6
CONTINUOUS
 0
LINE
 8
WHITE
 10
53.4274
 20
50.9786
 30
0.0000
 11
53.3036
 21
51.1598
 31
0.0000
 6
CONTINUOUS
 0
LINE
 8
WHITE
 10
53.3036
 20
51.1598
 30
0.0000
 11
53.0558
 21
51.2452
 31
0.0000
 6
CONTINUOUS
 0
LINE
 8
WHITE
 10
53.0558
 20
51.2452
 30
0.0000
 11
53.0842
 21
51.6551
 31
0.0000
 6
CONTINUOUS
 0
LINE
 8
WHITE
 10
53.0842
 20
51.6551
 30
0.0000
 11
53.0366
 21
51.8171
 31
0.0000
 6
CONTINUOUS
 0
LINE
 8
WHITE
 10
53.0366
 20
51.8171
 30
0.0000
 11
52.9605
 21
51.9124
 31
0.0000
 6
CONTINUOUS
 0
LINE
 8
WHITE
 10
52.9605
 20
51.9124
 30
0.0000
 11
52.7794
 21
52.0935
 31
0.0000
 6
CONTINUOUS
 0
LINE
 8
WHITE
 10
52.7794
 20
52.0935
 30
0.0000
 11
52.7126
 21
52.3125
 31
0.0000
 6
CONTINUOUS
 0
LINE
 8
WHITE
 10
52.7126
 20
52.3125
 30
0.0000
 11
52.665
 21
52.5506
 31
0.0000
 6
CONTINUOUS
 0
LINE
 8
WHITE
 10
52.665
 20
52.5506
 30
0.0000
 11
52.5315
 21
52.7602
 31
0.0000
 6
CONTINUOUS
 0
LINE
 8
WHITE
 10
52.5315
 20
52.7602
 30
0.0000
 11
52.4936
 21
52.77
 31
0.0000
 6
CONTINUOUS
 0
LINE
 8
WHITE
 10
52.4936
 20
52.77
 30
0.0000
 11
52.503
 21
52.7317
 31
0.0000
 6
CONTINUOUS
 0
LINE
 8
WHITE
 10
45.1755
 20
40.4974
 30
0.0000
 11
45.366
 21
40.5829
 31
0.0000
 6
CONTINUOUS
 0
LINE
 8
WHITE
 10
45.366
 20
40.5829
 30
0.0000
 11
45.5756
 21
40.602
 31
0.0000
 6
CONTINUOUS
 0
LINE
 8
WHITE
 10
45.5756
 20
40.602
 30
0.0000
 11
45.7661
 21
40.6309
 31
0.0000
 6
CONTINUOUS
 0
LINE
 8
WHITE
 10
45.7661
 20
40.6309
 30
0.0000
 11
45.9281
 21
40.7449
 31
0.0000
 6
CONTINUOUS
 0
LINE
 8
WHITE
 10
45.9281
 20
40.7449
 30
0.0000
 11
45.9379
 21
40.545
 31
0.0000
 6
CONTINUOUS
 0
LINE
 8
WHITE
 10
45.9379
 20
40.545
 30
0.0000
 11
45.9664
 21
40.4689
 31
0.0000
 6
CONTINUOUS
 0
LINE
 8
WHITE
 10
45.9664
 20
40.4689
 30
0.0000
 11
46.0234
 21
40.44
 31
0.0000
 6
CONTINUOUS
 0
LINE
 8
WHITE
 10
46.0234
 20
40.44
 30
0.0000
 11
46.4903
 21
40.5165
 31
0.0000
 6
CONTINUOUS
 0
LINE
 8
WHITE
 10
46.4903
 20
40.5165
 30
0.0000
 11
46.6714
 21
40.4974
 31
0.0000
 6
CONTINUOUS
 0
LINE
 8
WHITE
 10
46.6714
 20
40.4974
 30
0.0000
 11
46.8049
 21
40.383
 31
0.0000
 6
CONTINUOUS
 0
LINE
 8
WHITE
 10
46.8049
 20
40.383
 30
0.0000
 11
46.9001
 21
40.0305
 31
0.0000
 6
CONTINUOUS
 0
LINE
 8
WHITE
 10
46.9001
 20
40.0305
 30
0.0000
 11
46.986
 21
39.6112
 31
0.0000
 6
CONTINUOUS
 0
LINE
 8
WHITE
 10
46.986
 20
39.6112
 30
0.0000
 11
47.1382
 21
39.2299
 31
0.0000
 6
CONTINUOUS
 0
LINE
 8
WHITE
 10
47.1382
 20
39.2299
 30
0.0000
 11
47.2811
 21
39.087
 31
0.0000
 6
CONTINUOUS
 0
LINE
 8
WHITE
 10
47.2811
 20
39.087
 30
0.0000
 11
47.472
 21
38.9824
 31
0.0000
 6
CONTINUOUS
 0
LINE
 8
WHITE
 10
42.0787
 20
37.5337
 30
0.0000
 11
42.3645
 21
37.1719
 31
0.0000
 6
CONTINUOUS
 0
LINE
 8
WHITE
 10
42.3645
 20
37.1719
 30
0.0000
 11
42.6788
 21
36.924
 31
0.0000
 6
CONTINUOUS
 0
LINE
 8
WHITE
 10
42.6788
 20
36.924
 30
0.0000
 11
43.0219
 21
36.762
 31
0.0000
 6
CONTINUOUS
 0
LINE
 8
WHITE
 10
43.0219
 20
36.762
 30
0.0000
 11
43.3841
 21
36.6476
 31
0.0000
 6
CONTINUOUS
 0
LINE
 8
WHITE
 10
43.3841
 20
36.6476
 30
0.0000
 11
44.1367
 21
36.5048
 31
0.0000
 6
CONTINUOUS
 0
LINE
 8
WHITE
 10
44.1367
 20
36.5048
 30
0.0000
 11
44.5084
 21
36.4189
 31
0.0000
 6
CONTINUOUS
 0
LINE
 8
WHITE
 10
44.5084
 20
36.4189
 30
0.0000
 11
44.8706
 21
36.2858
 31
0.0000
 6
CONTINUOUS
 0
LINE
 8
WHITE
 10
44.8706
 20
36.2858
 30
0.0000
 11
45.4995
 21
36.057
 31
0.0000
 6
CONTINUOUS
 0
LINE
 8
WHITE
 10
45.4995
 20
36.057
 30
0.0000
 11
46.1377
 21
35.895
 31
0.0000
 6
CONTINUOUS
 0
LINE
 8
WHITE
 10
46.1377
 20
35.895
 30
0.0000
 11
46.7858
 21
35.6947
 31
0.0000
 6
CONTINUOUS
 0
LINE
 8
WHITE
 10
46.7858
 20
35.6947
 30
0.0000
 11
47.4146
 21
35.3805
 31
0.0000
 6
CONTINUOUS
 0
LINE
 8
WHITE
 10
47.4146
 20
35.3805
 30
0.0000
 11
47.5196
 21
35.2755
 31
0.0000
 6
CONTINUOUS
 0
LINE
 8
WHITE
 10
47.5196
 20
35.2755
 30
0.0000
 11
47.5864
 21
35.142
 31
0.0000
 6
CONTINUOUS
 0
LINE
 8
WHITE
 10
47.5864
 20
35.142
 30
0.0000
 11
47.6051
 21
34.8278
 31
0.0000
 6
CONTINUOUS
 0
LINE
 8
WHITE
 10
47.6051
 20
34.8278
 30
0.0000
 11
47.5673
 21
34.4655
 31
0.0000
 6
CONTINUOUS
 0
LINE
 8
WHITE
 10
47.5673
 20
34.4655
 30
0.0000
 11
47.5673
 21
34.1036
 31
0.0000
 6
CONTINUOUS
 0
LINE
 8
WHITE
 10
47.5673
 20
34.1036
 30
0.0000
 11
47.6434
 21
33.9416
 31
0.0000
 6
CONTINUOUS
 0
LINE
 8
WHITE
 10
47.6434
 20
33.9416
 30
0.0000
 11
47.8054
 21
33.8749
 31
0.0000
 6
CONTINUOUS
 0
LINE
 8
WHITE
 10
47.8054
 20
33.8749
 30
0.0000
 11
47.9959
 21
33.8464
 31
0.0000
 6
CONTINUOUS
 0
LINE
 8
WHITE
 10
47.9959
 20
33.8464
 30
0.0000
 11
48.1388
 21
33.7796
 31
0.0000
 6
CONTINUOUS
 0
LINE
 8
WHITE
 10
48.1388
 20
33.7796
 30
0.0000
 11
48.2723
 21
33.57
 31
0.0000
 6
CONTINUOUS
 0
LINE
 8
WHITE
 10
48.2723
 20
33.57
 30
0.0000
 11
48.2914
 21
33.3413
 31
0.0000
 6
CONTINUOUS
 0
LINE
 8
WHITE
 10
48.2914
 20
33.3413
 30
0.0000
 11
48.2152
 21
33.1125
 31
0.0000
 6
CONTINUOUS
 0
LINE
 8
WHITE
 10
48.2152
 20
33.1125
 30
0.0000
 11
48.0532
 21
32.922
 31
0.0000
 6
CONTINUOUS
 0
LINE
 8
WHITE
 10
48.0532
 20
32.922
 30
0.0000
 11
48.2629
 21
32.8552
 31
0.0000
 6
CONTINUOUS
 0
LINE
 8
WHITE
 10
48.2629
 20
32.8552
 30
0.0000
 11
48.4725
 21
32.8361
 31
0.0000
 6
CONTINUOUS
 0
LINE
 8
WHITE
 10
48.4725
 20
32.8361
 30
0.0000
 11
48.339
 21
32.7315
 31
0.0000
 6
CONTINUOUS
 0
LINE
 8
WHITE
 10
48.339
 20
32.7315
 30
0.0000
 11
48.3484
 21
32.5789
 31
0.0000
 6
CONTINUOUS
 0
LINE
 8
WHITE
 10
48.3484
 20
32.5789
 30
0.0000
 11
48.5393
 21
32.2931
 31
0.0000
 6
CONTINUOUS
 0
LINE
 8
WHITE
 10
48.5393
 20
32.2931
 30
0.0000
 11
48.5771
 21
32.2073
 31
0.0000
 6
CONTINUOUS
 0
LINE
 8
WHITE
 10
48.5771
 20
32.2073
 30
0.0000
 11
48.5677
 21
32.1214
 31
0.0000
 6
CONTINUOUS
 0
LINE
 8
WHITE
 10
48.5677
 20
32.1214
 30
0.0000
 11
48.4342
 21
31.9785
 31
0.0000
 6
CONTINUOUS
 0
LINE
 8
WHITE
 10
48.4342
 20
31.9785
 30
0.0000
 11
48.2723
 21
31.8356
 31
0.0000
 6
CONTINUOUS
 0
LINE
 8
WHITE
 10
48.2723
 20
31.8356
 30
0.0000
 11
48.2055
 21
31.6834
 31
0.0000
 6
CONTINUOUS
 0
LINE
 8
WHITE
 10
48.2055
 20
31.6834
 30
0.0000
 11
48.2723
 21
31.4546
 31
0.0000
 6
CONTINUOUS
 0
LINE
 8
WHITE
 10
48.2723
 20
31.4546
 30
0.0000
 11
48.3866
 21
31.2735
 31
0.0000
 6
CONTINUOUS
 0
LINE
 8
WHITE
 10
48.3866
 20
31.2735
 30
0.0000
 11
48.6345
 21
30.9686
 31
0.0000
 6
CONTINUOUS
 0
LINE
 8
WHITE
 10
48.6345
 20
30.9686
 30
0.0000
 11
48.7391
 21
30.816
 31
0.0000
 6
CONTINUOUS
 0
LINE
 8
WHITE
 10
48.7391
 20
30.816
 30
0.0000
 11
48.8059
 21
30.6446
 31
0.0000
 6
CONTINUOUS
 0
LINE
 8
WHITE
 10
48.8059
 20
30.6446
 30
0.0000
 11
48.8152
 21
30.4444
 31
0.0000
 6
CONTINUOUS
 0
LINE
 8
WHITE
 10
48.8152
 20
30.4444
 30
0.0000
 11
48.7489
 21
30.1969
 31
0.0000
 6
CONTINUOUS
 0
LINE
 8
WHITE
 10
45.69
 20
28.9294
 30
0.0000
 11
45.8137
 21
29.4724
 31
0.0000
 6
CONTINUOUS
 0
LINE
 8
WHITE
 10
45.8137
 20
29.4724
 30
0.0000
 11
45.0896
 21
29.4724
 31
0.0000
 6
CONTINUOUS
 0
LINE
 8
WHITE
 10
45.0896
 20
29.4724
 30
0.0000
 11
44.7754
 21
29.3962
 31
0.0000
 6
CONTINUOUS
 0
LINE
 8
WHITE
 10
44.7754
 20
29.3962
 30
0.0000
 11
44.5658
 21
29.2342
 31
0.0000
 6
CONTINUOUS
 0
LINE
 8
WHITE
 10
44.5658
 20
29.2342
 30
0.0000
 11
44.4131
 21
28.9009
 31
0.0000
 6
CONTINUOUS
 0
LINE
 8
WHITE
 10
44.4131
 20
28.9009
 30
0.0000
 11
44.337
 21
28.5671
 31
0.0000
 6
CONTINUOUS
 0
LINE
 8
WHITE
 10
44.337
 20
28.5671
 30
0.0000
 11
44.3085
 21
27.8528
 31
0.0000
 6
CONTINUOUS
 0
LINE
 8
WHITE
 10
44.3085
 20
27.8528
 30
0.0000
 11
44.3655
 21
27.1189
 31
0.0000
 6
CONTINUOUS
 0
LINE
 8
WHITE
 10
44.3655
 20
27.1189
 30
0.0000
 11
44.3561
 21
26.3854
 31
0.0000
 6
CONTINUOUS
 0
LINE
 8
WHITE
 10
44.3561
 20
26.3854
 30
0.0000
 11
44.2987
 21
25.9849
 31
0.0000
 6
CONTINUOUS
 0
LINE
 8
WHITE
 10
44.2987
 20
25.9849
 30
0.0000
 11
44.1844
 21
25.5562
 31
0.0000
 6
CONTINUOUS
 0
LINE
 8
WHITE
 10
44.1844
 20
25.5562
 30
0.0000
 11
44.2035
 21
25.2799
 31
0.0000
 6
CONTINUOUS
 0
LINE
 8
WHITE
 10
44.2035
 20
25.2799
 30
0.0000
 11
44.3085
 21
25.1464
 31
0.0000
 6
CONTINUOUS
 0
LINE
 8
WHITE
 10
44.3085
 20
25.1464
 30
0.0000
 11
44.4799
 21
25.137
 31
0.0000
 6
CONTINUOUS
 0
LINE
 8
WHITE
 10
44.4799
 20
25.137
 30
0.0000
 11
44.7465
 21
25.5371
 31
0.0000
 6
CONTINUOUS
 0
LINE
 8
WHITE
 10
44.7465
 20
25.5371
 30
0.0000
 11
44.9468
 21
25.9755
 31
0.0000
 6
CONTINUOUS
 0
LINE
 8
WHITE
 10
44.9468
 20
25.9755
 30
0.0000
 11
45.1946
 21
26.9666
 31
0.0000
 6
CONTINUOUS
 0
LINE
 8
WHITE
 10
45.1946
 20
26.9666
 30
0.0000
 11
45.3851
 21
27.9859
 31
0.0000
 6
CONTINUOUS
 0
LINE
 8
WHITE
 10
45.3851
 20
27.9859
 30
0.0000
 11
45.5186
 21
28.4719
 31
0.0000
 6
CONTINUOUS
 0
LINE
 8
WHITE
 10
45.5186
 20
28.4719
 30
0.0000
 11
45.69
 21
28.9294
 31
0.0000
 6
CONTINUOUS
 0
LINE
 8
WHITE
 10
45.7341
 20
29.123
 30
0.0000
 11
46.3762
 21
29.2725
 31
0.0000
 6
CONTINUOUS
 0
LINE
 8
WHITE
 10
46.3762
 20
29.2725
 30
0.0000
 11
47.7101
 21
29.7488
 31
0.0000
 6
CONTINUOUS
 0
LINE
 8
WHITE
 10
47.7101
 20
29.7488
 30
0.0000
 11
49.0631
 21
30.3491
 31
0.0000
 6
CONTINUOUS
 0
LINE
 8
WHITE
 10
49.0631
 20
30.3491
 30
0.0000
 11
50.3685
 21
31.0065
 31
0.0000
 6
CONTINUOUS
 0
LINE
 8
WHITE
 10
50.3685
 20
31.0065
 30
0.0000
 11
52.446
 21
32.1788
 31
0.0000
 6
CONTINUOUS
 0
LINE
 8
WHITE
 10
52.446
 20
32.1788
 30
0.0000
 11
53.2939
 21
32.6839
 31
0.0000
 6
CONTINUOUS
 0
LINE
 8
WHITE
 10
53.2939
 20
32.6839
 30
0.0000
 11
53.4465
 21
32.7409
 31
0.0000
 6
CONTINUOUS
 0
LINE
 8
WHITE
 10
47.4146
 20
29.4724
 30
0.0000
 11
47.205
 21
28.3958
 31
0.0000
 6
CONTINUOUS
 0
LINE
 8
WHITE
 10
47.205
 20
28.3958
 30
0.0000
 11
46.8716
 21
27.2333
 31
0.0000
 6
CONTINUOUS
 0
LINE
 8
WHITE
 10
46.8716
 20
27.2333
 30
0.0000
 11
46.4426
 21
26.0231
 31
0.0000
 6
CONTINUOUS
 0
LINE
 8
WHITE
 10
46.4426
 20
26.0231
 30
0.0000
 11
45.9281
 21
24.7845
 31
0.0000
 6
CONTINUOUS
 0
LINE
 8
WHITE
 10
45.9281
 20
24.7845
 30
0.0000
 11
44.7656
 21
22.3642
 31
0.0000
 6
CONTINUOUS
 0
LINE
 8
WHITE
 10
44.7656
 20
22.3642
 30
0.0000
 11
43.5938
 21
20.2297
 31
0.0000
 6
CONTINUOUS
 0
LINE
 8
WHITE
 10
43.5938
 20
20.2297
 30
0.0000
 11
43.098
 21
19.5532
 31
0.0000
 6
CONTINUOUS
 0
LINE
 8
WHITE
 10
43.098
 20
19.5532
 30
0.0000
 11
42.3454
 21
18.6574
 31
0.0000
 6
CONTINUOUS
 0
LINE
 8
WHITE
 10
42.3454
 20
18.6574
 30
0.0000
 11
41.8835
 21
18.161
 31
0.0000
 6
CONTINUOUS
 0
LINE
 8
WHITE
 10
49.8653
 20
26.4059
 30
0.0000
 11
49.9016
 21
26.7473
 31
0.0000
 6
CONTINUOUS
 0
LINE
 8
WHITE
 10
49.9016
 20
26.7473
 30
0.0000
 11
49.9016
 21
26.9569
 31
0.0000
 6
CONTINUOUS
 0
LINE
 8
WHITE
 10
49.9016
 20
26.9569
 30
0.0000
 11
49.9875
 21
30.2921
 31
0.0000
 6
CONTINUOUS
 0
LINE
 8
WHITE
 10
49.9875
 20
30.2921
 30
0.0000
 11
49.9477
 21
30.7946
 31
0.0000
 6
CONTINUOUS
 0
LINE
 8
WHITE
 10
45.0517
 20
19.0196
 30
0.0000
 11
45.8329
 21
20.7251
 31
0.0000
 6
CONTINUOUS
 0
LINE
 8
WHITE
 10
45.8329
 20
20.7251
 30
0.0000
 11
46.5382
 21
22.4498
 31
0.0000
 6
CONTINUOUS
 0
LINE
 8
WHITE
 10
46.5382
 20
22.4498
 30
0.0000
 11
47.1382
 21
24.222
 31
0.0000
 6
CONTINUOUS
 0
LINE
 8
WHITE
 10
47.1382
 20
24.222
 30
0.0000
 11
47.5958
 21
26.0801
 31
0.0000
 6
CONTINUOUS
 0
LINE
 8
WHITE
 10
47.5958
 20
26.0801
 30
0.0000
 11
47.8721
 21
27.5573
 31
0.0000
 6
CONTINUOUS
 0
LINE
 8
WHITE
 10
47.8721
 20
27.5573
 30
0.0000
 11
48.0626
 21
29.0055
 31
0.0000
 6
CONTINUOUS
 0
LINE
 8
WHITE
 10
48.0626
 20
29.0055
 30
0.0000
 11
48.0994
 21
29.9215
 31
0.0000
 6
CONTINUOUS
 0
LINE
 8
WHITE
 10
42.3739
 20
20.5538
 30
0.0000
 11
42.6217
 21
20.8777
 31
0.0000
 6
CONTINUOUS
 0
LINE
 8
WHITE
 10
42.6217
 20
20.8777
 30
0.0000
 11
42.7837
 21
21.3255
 31
0.0000
 6
CONTINUOUS
 0
LINE
 8
WHITE
 10
42.7837
 20
21.3255
 30
0.0000
 11
42.8696
 21
21.8783
 31
0.0000
 6
CONTINUOUS
 0
LINE
 8
WHITE
 10
42.8696
 20
21.8783
 30
0.0000
 11
42.8981
 21
23.2028
 31
0.0000
 6
CONTINUOUS
 0
LINE
 8
WHITE
 10
42.8981
 20
23.2028
 30
0.0000
 11
42.879
 21
24.6701
 31
0.0000
 6
CONTINUOUS
 0
LINE
 8
WHITE
 10
42.879
 20
24.6701
 30
0.0000
 11
42.9457
 21
26.109
 31
0.0000
 6
CONTINUOUS
 0
LINE
 8
WHITE
 10
42.9457
 20
26.109
 30
0.0000
 11
43.0695
 21
26.757
 31
0.0000
 6
CONTINUOUS
 0
LINE
 8
WHITE
 10
43.0695
 20
26.757
 30
0.0000
 11
43.2791
 21
27.3191
 31
0.0000
 6
CONTINUOUS
 0
LINE
 8
WHITE
 10
43.2791
 20
27.3191
 30
0.0000
 11
43.5938
 21
27.7954
 31
0.0000
 6
CONTINUOUS
 0
LINE
 8
WHITE
 10
43.5938
 20
27.7954
 30
0.0000
 11
44.0224
 21
28.1385
 31
0.0000
 6
CONTINUOUS
 0
LINE
 8
WHITE
 10
44.0224
 20
28.1385
 30
0.0000
 11
44.175
 21
28.2911
 31
0.0000
 6
CONTINUOUS
 0
LINE
 8
WHITE
 10
44.175
 20
28.2911
 30
0.0000
 11
44.3326
 21
28.4562
 31
0.0000
 6
CONTINUOUS
 0
LINE
 8
WHITE
 10
42.1166
 20
21.135
 30
0.0000
 11
42.0787
 21
21.3446
 31
0.0000
 6
CONTINUOUS
 0
LINE
 8
WHITE
 10
42.0787
 20
21.3446
 30
0.0000
 11
41.9929
 21
21.5066
 31
0.0000
 6
CONTINUOUS
 0
LINE
 8
WHITE
 10
41.9929
 20
21.5066
 30
0.0000
 11
41.745
 21
21.6495
 31
0.0000
 6
CONTINUOUS
 0
LINE
 8
WHITE
 10
41.745
 20
21.6495
 30
0.0000
 11
41.4686
 21
21.678
 31
0.0000
 6
CONTINUOUS
 0
LINE
 8
WHITE
 10
41.4686
 20
21.678
 30
0.0000
 11
41.2211
 21
21.621
 31
0.0000
 6
CONTINUOUS
 0
LINE
 8
WHITE
 10
41.2211
 20
21.621
 30
0.0000
 11
41.0209
 21
21.4684
 31
0.0000
 6
CONTINUOUS
 0
LINE
 8
WHITE
 10
41.0209
 20
21.4684
 30
0.0000
 11
41.0115
 21
21.3349
 31
0.0000
 6
CONTINUOUS
 0
LINE
 8
WHITE
 10
41.0115
 20
21.3349
 30
0.0000
 11
41.0494
 21
21.2018
 31
0.0000
 6
CONTINUOUS
 0
LINE
 8
WHITE
 10
41.0494
 20
21.2018
 30
0.0000
 11
41.1544
 21
21.3731
 31
0.0000
 6
CONTINUOUS
 0
LINE
 8
WHITE
 10
41.1544
 20
21.3731
 30
0.0000
 11
41.2781
 21
21.4778
 31
0.0000
 6
CONTINUOUS
 0
LINE
 8
WHITE
 10
41.2781
 20
21.4778
 30
0.0000
 11
41.5736
 21
21.5351
 31
0.0000
 6
CONTINUOUS
 0
LINE
 8
WHITE
 10
41.5736
 20
21.5351
 30
0.0000
 11
41.8691
 21
21.4016
 31
0.0000
 6
CONTINUOUS
 0
LINE
 8
WHITE
 10
41.8691
 20
21.4016
 30
0.0000
 11
42.1166
 21
21.135
 31
0.0000
 6
CONTINUOUS
 0
LINE
 8
WHITE
 10
41.7902
 20
18.6203
 30
0.0000
 11
41.85
 21
18.4954
 31
0.0000
 6
CONTINUOUS
 0
LINE
 8
WHITE
 10
41.85
 20
18.4954
 30
0.0000
 11
41.8879
 21
18.2475
 31
0.0000
 6
CONTINUOUS
 0
LINE
 8
WHITE
 10
41.8879
 20
18.2475
 30
0.0000
 11
41.8594
 21
17.6854
 31
0.0000
 6
CONTINUOUS
 0
LINE
 8
WHITE
 10
41.8594
 20
17.6854
 30
0.0000
 11
41.7165
 21
17.1424
 31
0.0000
 6
CONTINUOUS
 0
LINE
 8
WHITE
 10
41.7165
 20
17.1424
 30
0.0000
 11
41.5354
 21
16.7422
 31
0.0000
 6
CONTINUOUS
 0
LINE
 8
WHITE
 10
41.5354
 20
16.7422
 30
0.0000
 11
41.3925
 21
16.5514
 31
0.0000
 6
CONTINUOUS
 0
LINE
 8
WHITE
 10
41.3925
 20
16.5514
 30
0.0000
 11
41.2211
 21
16.4276
 31
0.0000
 6
CONTINUOUS
 0
LINE
 8
WHITE
 10
41.2211
 20
16.4276
 30
0.0000
 11
41.0209
 21
16.3706
 31
0.0000
 6
CONTINUOUS
 0
LINE
 8
WHITE
 10
41.0209
 20
16.3706
 30
0.0000
 11
40.8019
 21
16.3706
 31
0.0000
 6
CONTINUOUS
 0
LINE
 8
WHITE
 10
40.8019
 20
16.3706
 30
0.0000
 11
40.3252
 21
16.542
 31
0.0000
 6
CONTINUOUS
 0
LINE
 8
WHITE
 10
41.3313
 20
18.7052
 30
0.0000
 11
41.4975
 21
18.648
 31
0.0000
 6
CONTINUOUS
 0
LINE
 8
WHITE
 10
41.4975
 20
18.648
 30
0.0000
 11
41.8024
 21
18.6191
 31
0.0000
 6
CONTINUOUS
 0
LINE
 8
WHITE
 10
41.8024
 20
18.6191
 30
0.0000
 11
42.069
 21
18.7811
 31
0.0000
 6
CONTINUOUS
 0
LINE
 8
WHITE
 10
42.069
 20
18.7811
 30
0.0000
 11
42.2595
 21
19.1051
 31
0.0000
 6
CONTINUOUS
 0
LINE
 8
WHITE
 10
42.2595
 20
19.1051
 30
0.0000
 11
42.3836
 21
19.6196
 31
0.0000
 6
CONTINUOUS
 0
LINE
 8
WHITE
 10
42.3836
 20
19.6196
 30
0.0000
 11
42.393
 21
20.1724
 31
0.0000
 6
CONTINUOUS
 0
LINE
 8
WHITE
 10
42.393
 20
20.1724
 30
0.0000
 11
42.2693
 21
20.7345
 31
0.0000
 6
CONTINUOUS
 0
LINE
 8
WHITE
 10
42.2693
 20
20.7345
 30
0.0000
 11
42.0214
 21
21.2587
 31
0.0000
 6
CONTINUOUS
 0
LINE
 8
WHITE
 10
42.0214
 20
21.2587
 30
0.0000
 11
41.8309
 21
21.4301
 31
0.0000
 6
CONTINUOUS
 0
LINE
 8
WHITE
 10
41.8309
 20
21.4301
 30
0.0000
 11
41.583
 21
21.5254
 31
0.0000
 6
CONTINUOUS
 0
LINE
 8
WHITE
 10
41.583
 20
21.5254
 30
0.0000
 11
41.3355
 21
21.5066
 31
0.0000
 6
CONTINUOUS
 0
LINE
 8
WHITE
 10
41.3355
 20
21.5066
 30
0.0000
 11
41.1446
 21
21.354
 31
0.0000
 6
CONTINUOUS
 0
LINE
 8
WHITE
 10
41.1446
 20
21.354
 30
0.0000
 11
41.0065
 21
21.0337
 31
0.0000
 6
CONTINUOUS
 0
LINE
 8
WHITE
 10
40.935
 20
21.135
 30
0.0000
 11
40.8686
 21
21.3349
 31
0.0000
 6
CONTINUOUS
 0
LINE
 8
WHITE
 10
40.8686
 20
21.3349
 30
0.0000
 11
40.7636
 21
21.459
 31
0.0000
 6
CONTINUOUS
 0
LINE
 8
WHITE
 10
40.7636
 20
21.459
 30
0.0000
 11
40.6208
 21
21.5254
 31
0.0000
 6
CONTINUOUS
 0
LINE
 8
WHITE
 10
40.6208
 20
21.5254
 30
0.0000
 11
40.4494
 21
21.5445
 31
0.0000
 6
CONTINUOUS
 0
LINE
 8
WHITE
 10
40.4494
 20
21.5445
 30
0.0000
 11
40.0871
 21
21.4875
 31
0.0000
 6
CONTINUOUS
 0
LINE
 8
WHITE
 10
40.0871
 20
21.4875
 30
0.0000
 11
39.7537
 21
21.3825
 31
0.0000
 6
CONTINUOUS
 0
LINE
 8
WHITE
 10
39.7537
 20
21.3825
 30
0.0000
 11
39.6581
 21
21.2873
 31
0.0000
 6
CONTINUOUS
 0
LINE
 8
WHITE
 10
39.6581
 20
21.2873
 30
0.0000
 11
39.6488
 21
21.1159
 31
0.0000
 6
CONTINUOUS
 0
LINE
 8
WHITE
 10
39.6488
 20
21.1159
 30
0.0000
 11
39.7822
 21
20.7158
 31
0.0000
 6
CONTINUOUS
 0
LINE
 8
WHITE
 10
39.7822
 20
20.7158
 30
0.0000
 11
39.9727
 21
21.1159
 31
0.0000
 6
CONTINUOUS
 0
LINE
 8
WHITE
 10
39.9727
 20
21.1159
 30
0.0000
 11
40.2491
 21
21.3255
 31
0.0000
 6
CONTINUOUS
 0
LINE
 8
WHITE
 10
40.2491
 20
21.3255
 30
0.0000
 11
40.5825
 21
21.3349
 31
0.0000
 6
CONTINUOUS
 0
LINE
 8
WHITE
 10
40.5825
 20
21.3349
 30
0.0000
 11
40.935
 21
21.135
 31
0.0000
 6
CONTINUOUS
 0
LINE
 8
WHITE
 10
40.1156
 20
23.4124
 30
0.0000
 11
40.5349
 21
22.5833
 31
0.0000
 6
CONTINUOUS
 0
LINE
 8
WHITE
 10
40.5349
 20
22.5833
 30
0.0000
 11
40.6875
 21
22.1449
 31
0.0000
 6
CONTINUOUS
 0
LINE
 8
WHITE
 10
40.6875
 20
22.1449
 30
0.0000
 11
40.7828
 21
21.6874
 31
0.0000
 6
CONTINUOUS
 0
LINE
 8
WHITE
 10
39.4774
 20
20.8395
 30
0.0000
 11
39.3724
 21
21.1061
 31
0.0000
 6
CONTINUOUS
 0
LINE
 8
WHITE
 10
39.3724
 20
21.1061
 30
0.0000
 11
39.1819
 21
21.2494
 31
0.0000
 6
CONTINUOUS
 0
LINE
 8
WHITE
 10
39.1819
 20
21.2494
 30
0.0000
 11
38.934
 21
21.297
 31
0.0000
 6
CONTINUOUS
 0
LINE
 8
WHITE
 10
38.934
 20
21.297
 30
0.0000
 11
38.6576
 21
21.2587
 31
0.0000
 6
CONTINUOUS
 0
LINE
 8
WHITE
 10
38.6576
 20
21.2587
 30
0.0000
 11
38.4671
 21
21.2205
 31
0.0000
 6
CONTINUOUS
 0
LINE
 8
WHITE
 10
38.4671
 20
21.2205
 30
0.0000
 11
38.2957
 21
21.135
 31
0.0000
 6
CONTINUOUS
 0
LINE
 8
WHITE
 10
38.2957
 20
21.135
 30
0.0000
 11
38.229
 21
21.03
 31
0.0000
 6
CONTINUOUS
 0
LINE
 8
WHITE
 10
38.229
 20
21.03
 30
0.0000
 11
38.2005
 21
20.8965
 31
0.0000
 6
CONTINUOUS
 0
LINE
 8
WHITE
 10
38.2005
 20
20.8965
 30
0.0000
 11
38.2384
 21
20.5916
 31
0.0000
 6
CONTINUOUS
 0
LINE
 8
WHITE
 10
38.2384
 20
20.5916
 30
0.0000
 11
38.5245
 21
20.8301
 31
0.0000
 6
CONTINUOUS
 0
LINE
 8
WHITE
 10
38.5245
 20
20.8301
 30
0.0000
 11
38.8196
 21
21.0015
 31
0.0000
 6
CONTINUOUS
 0
LINE
 8
WHITE
 10
38.8196
 20
21.0015
 30
0.0000
 11
39.1343
 21
21.0206
 31
0.0000
 6
CONTINUOUS
 0
LINE
 8
WHITE
 10
39.1343
 20
21.0206
 30
0.0000
 11
39.2963
 21
20.9632
 31
0.0000
 6
CONTINUOUS
 0
LINE
 8
WHITE
 10
39.2963
 20
20.9632
 30
0.0000
 11
39.4774
 21
20.8395
 31
0.0000
 6
CONTINUOUS
 0
LINE
 8
WHITE
 10
39.3821
 20
26.7188
 30
0.0000
 11
39.5059
 21
25.9279
 31
0.0000
 6
CONTINUOUS
 0
LINE
 8
WHITE
 10
39.5059
 20
25.9279
 30
0.0000
 11
39.6296
 21
25.5562
 31
0.0000
 6
CONTINUOUS
 0
LINE
 8
WHITE
 10
39.6296
 20
25.5562
 30
0.0000
 11
39.8393
 21
25.2323
 31
0.0000
 6
CONTINUOUS
 0
LINE
 8
WHITE
 10
39.8393
 20
25.2323
 30
0.0000
 11
40.3159
 21
24.6034
 31
0.0000
 6
CONTINUOUS
 0
LINE
 8
WHITE
 10
40.3159
 20
24.6034
 30
0.0000
 11
40.659
 21
23.9363
 31
0.0000
 6
CONTINUOUS
 0
LINE
 8
WHITE
 10
40.659
 20
23.9363
 30
0.0000
 11
40.9256
 21
23.2312
 31
0.0000
 6
CONTINUOUS
 0
LINE
 8
WHITE
 10
40.9256
 20
23.2312
 30
0.0000
 11
41.1446
 21
22.5071
 31
0.0000
 6
CONTINUOUS
 0
LINE
 8
WHITE
 10
38.448
 20
24.2318
 30
0.0000
 11
38.877
 21
23.0407
 31
0.0000
 6
CONTINUOUS
 0
LINE
 8
WHITE
 10
38.877
 20
23.0407
 30
0.0000
 11
39.2963
 21
21.9259
 31
0.0000
 6
CONTINUOUS
 0
LINE
 8
WHITE
 10
39.2963
 20
21.9259
 30
0.0000
 11
39.3248
 21
21.7065
 31
0.0000
 6
CONTINUOUS
 0
LINE
 8
WHITE
 10
39.3248
 20
21.7065
 30
0.0000
 11
39.3533
 21
21.4684
 31
0.0000
 6
CONTINUOUS
 0
LINE
 8
WHITE
 10
38.1146
 20
20.6869
 30
0.0000
 11
38.0764
 21
21.0776
 31
0.0000
 6
CONTINUOUS
 0
LINE
 8
WHITE
 10
38.0764
 20
21.0776
 30
0.0000
 11
37.905
 21
21.2779
 31
0.0000
 6
CONTINUOUS
 0
LINE
 8
WHITE
 10
37.905
 20
21.2779
 30
0.0000
 11
37.6001
 21
21.354
 31
0.0000
 6
CONTINUOUS
 0
LINE
 8
WHITE
 10
37.6001
 20
21.354
 30
0.0000
 11
37.1711
 21
21.354
 31
0.0000
 6
CONTINUOUS
 0
LINE
 8
WHITE
 10
37.1711
 20
21.354
 30
0.0000
 11
36.8663
 21
21.2681
 31
0.0000
 6
CONTINUOUS
 0
LINE
 8
WHITE
 10
36.8663
 20
21.2681
 30
0.0000
 11
36.609
 21
21.0968
 31
0.0000
 6
CONTINUOUS
 0
LINE
 8
WHITE
 10
36.609
 20
21.0968
 30
0.0000
 11
36.5329
 21
20.9824
 31
0.0000
 6
CONTINUOUS
 0
LINE
 8
WHITE
 10
36.5329
 20
20.9824
 30
0.0000
 11
36.5044
 21
20.8489
 31
0.0000
 6
CONTINUOUS
 0
LINE
 8
WHITE
 10
36.5044
 20
20.8489
 30
0.0000
 11
36.5138
 21
20.706
 31
0.0000
 6
CONTINUOUS
 0
LINE
 8
WHITE
 10
36.5138
 20
20.706
 30
0.0000
 11
36.5996
 21
20.5631
 31
0.0000
 6
CONTINUOUS
 0
LINE
 8
WHITE
 10
36.5996
 20
20.5631
 30
0.0000
 11
36.7901
 21
20.8777
 31
0.0000
 6
CONTINUOUS
 0
LINE
 8
WHITE
 10
36.7901
 20
20.8777
 30
0.0000
 11
36.9997
 21
21.0776
 31
0.0000
 6
CONTINUOUS
 0
LINE
 8
WHITE
 10
36.9997
 20
21.0776
 30
0.0000
 11
37.2191
 21
21.1635
 31
0.0000
 6
CONTINUOUS
 0
LINE
 8
WHITE
 10
37.2191
 20
21.1635
 30
0.0000
 11
37.4381
 21
21.1729
 31
0.0000
 6
CONTINUOUS
 0
LINE
 8
WHITE
 10
37.4381
 20
21.1729
 30
0.0000
 11
37.6384
 21
21.1061
 31
0.0000
 6
CONTINUOUS
 0
LINE
 8
WHITE
 10
37.6384
 20
21.1061
 30
0.0000
 11
37.8289
 21
20.9921
 31
0.0000
 6
CONTINUOUS
 0
LINE
 8
WHITE
 10
37.8289
 20
20.9921
 30
0.0000
 11
38.1146
 21
20.6869
 31
0.0000
 6
CONTINUOUS
 0
LINE
 8
WHITE
 10
37.6571
 20
22.4119
 30
0.0000
 11
37.9526
 21
21.9161
 31
0.0000
 6
CONTINUOUS
 0
LINE
 8
WHITE
 10
37.9526
 20
21.9161
 30
0.0000
 11
38.0764
 21
21.6495
 31
0.0000
 6
CONTINUOUS
 0
LINE
 8
WHITE
 10
38.0764
 20
21.6495
 30
0.0000
 11
38.1431
 21
21.354
 31
0.0000
 6
CONTINUOUS
 0
LINE
 8
WHITE
 10
40.0204
 20
18.3525
 30
0.0000
 11
40.4111
 21
18.057
 31
0.0000
 6
CONTINUOUS
 0
LINE
 8
WHITE
 10
40.4111
 20
18.057
 30
0.0000
 11
40.5923
 21
18.0094
 31
0.0000
 6
CONTINUOUS
 0
LINE
 8
WHITE
 10
40.5923
 20
18.0094
 30
0.0000
 11
40.7636
 21
18.0191
 31
0.0000
 6
CONTINUOUS
 0
LINE
 8
WHITE
 10
40.7636
 20
18.0191
 30
0.0000
 11
40.9162
 21
18.0761
 31
0.0000
 6
CONTINUOUS
 0
LINE
 8
WHITE
 10
40.9162
 20
18.0761
 30
0.0000
 11
41.0591
 21
18.1905
 31
0.0000
 6
CONTINUOUS
 0
LINE
 8
WHITE
 10
41.0591
 20
18.1905
 30
0.0000
 11
41.2972
 21
18.5621
 31
0.0000
 6
CONTINUOUS
 0
LINE
 8
WHITE
 10
41.2972
 20
18.5621
 30
0.0000
 11
41.4401
 21
19.1625
 31
0.0000
 6
CONTINUOUS
 0
LINE
 8
WHITE
 10
41.4401
 20
19.1625
 30
0.0000
 11
41.4401
 21
19.8008
 31
0.0000
 6
CONTINUOUS
 0
LINE
 8
WHITE
 10
41.4401
 20
19.8008
 30
0.0000
 11
41.2972
 21
20.4296
 31
0.0000
 6
CONTINUOUS
 0
LINE
 8
WHITE
 10
41.2972
 20
20.4296
 30
0.0000
 11
41.0209
 21
21.0206
 31
0.0000
 6
CONTINUOUS
 0
LINE
 8
WHITE
 10
41.0209
 20
21.0206
 30
0.0000
 11
40.8019
 21
21.2205
 31
0.0000
 6
CONTINUOUS
 0
LINE
 8
WHITE
 10
40.8019
 20
21.2205
 30
0.0000
 11
40.5255
 21
21.3255
 31
0.0000
 6
CONTINUOUS
 0
LINE
 8
WHITE
 10
40.5255
 20
21.3255
 30
0.0000
 11
40.2394
 21
21.3064
 31
0.0000
 6
CONTINUOUS
 0
LINE
 8
WHITE
 10
40.2394
 20
21.3064
 30
0.0000
 11
40.0204
 21
21.135
 31
0.0000
 6
CONTINUOUS
 0
LINE
 8
WHITE
 10
40.0204
 20
21.135
 30
0.0000
 11
39.8107
 21
20.6584
 31
0.0000
 6
CONTINUOUS
 0
LINE
 8
WHITE
 10
39.8107
 20
20.6584
 30
0.0000
 11
39.7531
 21
20.3468
 31
0.0000
 6
CONTINUOUS
 0
LINE
 8
WHITE
 10
40.3061
 20
18.1364
 30
0.0000
 11
40.335
 21
18.0761
 31
0.0000
 6
CONTINUOUS
 0
LINE
 8
WHITE
 10
40.335
 20
18.0761
 30
0.0000
 11
40.3729
 21
17.8189
 31
0.0000
 6
CONTINUOUS
 0
LINE
 8
WHITE
 10
40.3729
 20
17.8189
 30
0.0000
 11
40.3444
 21
17.2568
 31
0.0000
 6
CONTINUOUS
 0
LINE
 8
WHITE
 10
40.3444
 20
17.2568
 30
0.0000
 11
40.2015
 21
16.7231
 31
0.0000
 6
CONTINUOUS
 0
LINE
 8
WHITE
 10
40.2015
 20
16.7231
 30
0.0000
 11
40.0204
 21
16.323
 31
0.0000
 6
CONTINUOUS
 0
LINE
 8
WHITE
 10
40.0204
 20
16.323
 30
0.0000
 11
39.8775
 21
16.1228
 31
0.0000
 6
CONTINUOUS
 0
LINE
 8
WHITE
 10
39.8775
 20
16.1228
 30
0.0000
 11
39.7061
 21
15.999
 31
0.0000
 6
CONTINUOUS
 0
LINE
 8
WHITE
 10
39.7061
 20
15.999
 30
0.0000
 11
39.5059
 21
15.9416
 31
0.0000
 6
CONTINUOUS
 0
LINE
 8
WHITE
 10
39.5059
 20
15.9416
 30
0.0000
 11
39.2865
 21
15.9514
 31
0.0000
 6
CONTINUOUS
 0
LINE
 8
WHITE
 10
39.2865
 20
15.9514
 30
0.0000
 11
38.8103
 21
16.1134
 31
0.0000
 6
CONTINUOUS
 0
LINE
 8
WHITE
 10
38.448
 20
17.7428
 30
0.0000
 11
38.6674
 21
17.5425
 31
0.0000
 6
CONTINUOUS
 0
LINE
 8
WHITE
 10
38.6674
 20
17.5425
 30
0.0000
 11
38.8864
 21
17.4187
 31
0.0000
 6
CONTINUOUS
 0
LINE
 8
WHITE
 10
38.8864
 20
17.4187
 30
0.0000
 11
39.0866
 21
17.3614
 31
0.0000
 6
CONTINUOUS
 0
LINE
 8
WHITE
 10
39.0866
 20
17.3614
 30
0.0000
 11
39.2865
 21
17.3711
 31
0.0000
 6
CONTINUOUS
 0
LINE
 8
WHITE
 10
39.2865
 20
17.3711
 30
0.0000
 11
39.4583
 21
17.4379
 31
0.0000
 6
CONTINUOUS
 0
LINE
 8
WHITE
 10
39.4583
 20
17.4379
 30
0.0000
 11
39.6202
 21
17.571
 31
0.0000
 6
CONTINUOUS
 0
LINE
 8
WHITE
 10
39.6202
 20
17.571
 30
0.0000
 11
39.8681
 21
17.9903
 31
0.0000
 6
CONTINUOUS
 0
LINE
 8
WHITE
 10
39.8681
 20
17.9903
 30
0.0000
 11
40.0395
 21
18.6574
 31
0.0000
 6
CONTINUOUS
 0
LINE
 8
WHITE
 10
40.0395
 20
18.6574
 30
0.0000
 11
40.0395
 21
19.3815
 31
0.0000
 6
CONTINUOUS
 0
LINE
 8
WHITE
 10
40.0395
 20
19.3815
 30
0.0000
 11
39.8775
 21
20.0869
 31
0.0000
 6
CONTINUOUS
 0
LINE
 8
WHITE
 10
39.8775
 20
20.0869
 30
0.0000
 11
39.5629
 21
20.7443
 31
0.0000
 6
CONTINUOUS
 0
LINE
 8
WHITE
 10
39.5629
 20
20.7443
 30
0.0000
 11
39.3248
 21
20.9824
 31
0.0000
 6
CONTINUOUS
 0
LINE
 8
WHITE
 10
39.3248
 20
20.9824
 30
0.0000
 11
39.0105
 21
21.1061
 31
0.0000
 6
CONTINUOUS
 0
LINE
 8
WHITE
 10
39.0105
 20
21.1061
 30
0.0000
 11
38.6865
 21
21.0776
 31
0.0000
 6
CONTINUOUS
 0
LINE
 8
WHITE
 10
38.6865
 20
21.0776
 30
0.0000
 11
38.448
 21
20.8965
 31
0.0000
 6
CONTINUOUS
 0
LINE
 8
WHITE
 10
38.448
 20
20.8965
 30
0.0000
 11
38.2957
 21
20.6299
 31
0.0000
 6
CONTINUOUS
 0
LINE
 8
WHITE
 10
38.5526
 20
17.6473
 30
0.0000
 11
38.6198
 21
17.3903
 31
0.0000
 6
CONTINUOUS
 0
LINE
 8
WHITE
 10
38.6198
 20
17.3903
 30
0.0000
 11
38.7626
 21
16.704
 31
0.0000
 6
CONTINUOUS
 0
LINE
 8
WHITE
 10
38.7626
 20
16.704
 30
0.0000
 11
38.7911
 21
16.38
 31
0.0000
 6
CONTINUOUS
 0
LINE
 8
WHITE
 10
38.7911
 20
16.38
 30
0.0000
 11
38.7533
 21
16.0658
 31
0.0000
 6
CONTINUOUS
 0
LINE
 8
WHITE
 10
38.7533
 20
16.0658
 30
0.0000
 11
38.6482
 21
15.7703
 31
0.0000
 6
CONTINUOUS
 0
LINE
 8
WHITE
 10
38.6482
 20
15.7703
 30
0.0000
 11
38.448
 21
15.5033
 31
0.0000
 6
CONTINUOUS
 0
LINE
 8
WHITE
 10
38.448
 20
15.5033
 30
0.0000
 11
38.2481
 21
15.3319
 31
0.0000
 6
CONTINUOUS
 0
LINE
 8
WHITE
 10
38.2481
 20
15.3319
 30
0.0000
 11
38.0194
 21
15.2175
 31
0.0000
 6
CONTINUOUS
 0
LINE
 8
WHITE
 10
38.0194
 20
15.2175
 30
0.0000
 11
37.524
 21
15.1316
 31
0.0000
 6
CONTINUOUS
 0
LINE
 8
WHITE
 10
37.524
 20
15.1316
 30
0.0000
 11
37.2855
 21
15.1793
 31
0.0000
 6
CONTINUOUS
 0
LINE
 8
WHITE
 10
37.2855
 20
15.1793
 30
0.0000
 11
37.0759
 21
15.2749
 31
0.0000
 6
CONTINUOUS
 0
LINE
 8
WHITE
 10
37.0759
 20
15.2749
 30
0.0000
 11
36.9045
 21
15.4365
 31
0.0000
 6
CONTINUOUS
 0
LINE
 8
WHITE
 10
41.3257
 20
16.4468
 30
0.0000
 11
41.0209
 21
16.38
 31
0.0000
 6
CONTINUOUS
 0
LINE
 8
WHITE
 10
41.0209
 20
16.38
 30
0.0000
 11
40.7254
 21
16.38
 31
0.0000
 6
CONTINUOUS
 0
LINE
 8
WHITE
 10
40.7254
 20
16.38
 30
0.0000
 11
40.4396
 21
16.4374
 31
0.0000
 6
CONTINUOUS
 0
LINE
 8
WHITE
 10
40.4396
 20
16.4374
 30
0.0000
 11
40.173
 21
16.5611
 31
0.0000
 6
CONTINUOUS
 0
LINE
 8
WHITE
 10
40.173
 20
16.5611
 30
0.0000
 11
40.2585
 21
16.3894
 31
0.0000
 6
CONTINUOUS
 0
LINE
 8
WHITE
 10
40.2585
 20
16.3894
 30
0.0000
 11
40.3826
 21
16.2465
 31
0.0000
 6
CONTINUOUS
 0
LINE
 8
WHITE
 10
40.3826
 20
16.2465
 30
0.0000
 11
40.5446
 21
16.1513
 31
0.0000
 6
CONTINUOUS
 0
LINE
 8
WHITE
 10
40.5446
 20
16.1513
 30
0.0000
 11
40.716
 21
16.1036
 31
0.0000
 6
CONTINUOUS
 0
LINE
 8
WHITE
 10
40.716
 20
16.1036
 30
0.0000
 11
41.0591
 21
16.161
 31
0.0000
 6
CONTINUOUS
 0
LINE
 8
WHITE
 10
41.0591
 20
16.161
 30
0.0000
 11
41.2114
 21
16.2656
 31
0.0000
 6
CONTINUOUS
 0
LINE
 8
WHITE
 10
41.2114
 20
16.2656
 30
0.0000
 11
41.3257
 21
16.4468
 31
0.0000
 6
CONTINUOUS
 0
LINE
 8
WHITE
 10
39.8966
 20
16.0466
 30
0.0000
 11
39.6011
 21
15.9608
 31
0.0000
 6
CONTINUOUS
 0
LINE
 8
WHITE
 10
39.6011
 20
15.9608
 30
0.0000
 11
39.2865
 21
15.9323
 31
0.0000
 6
CONTINUOUS
 0
LINE
 8
WHITE
 10
39.2865
 20
15.9323
 30
0.0000
 11
39.0007
 21
15.9799
 31
0.0000
 6
CONTINUOUS
 0
LINE
 8
WHITE
 10
39.0007
 20
15.9799
 30
0.0000
 11
38.7533
 21
16.1134
 31
0.0000
 6
CONTINUOUS
 0
LINE
 8
WHITE
 10
38.7533
 20
16.1134
 30
0.0000
 11
38.8009
 21
15.9038
 31
0.0000
 6
CONTINUOUS
 0
LINE
 8
WHITE
 10
38.8009
 20
15.9038
 30
0.0000
 11
38.9531
 21
15.7703
 31
0.0000
 6
CONTINUOUS
 0
LINE
 8
WHITE
 10
38.9531
 20
15.7703
 30
0.0000
 11
39.3533
 21
15.6559
 31
0.0000
 6
CONTINUOUS
 0
LINE
 8
WHITE
 10
39.3533
 20
15.6559
 30
0.0000
 11
39.5344
 21
15.6653
 31
0.0000
 6
CONTINUOUS
 0
LINE
 8
WHITE
 10
39.5344
 20
15.6653
 30
0.0000
 11
39.6964
 21
15.7511
 31
0.0000
 6
CONTINUOUS
 0
LINE
 8
WHITE
 10
39.6964
 20
15.7511
 30
0.0000
 11
39.8201
 21
15.8846
 31
0.0000
 6
CONTINUOUS
 0
LINE
 8
WHITE
 10
39.8201
 20
15.8846
 30
0.0000
 11
39.8966
 21
16.0466
 31
0.0000
 6
CONTINUOUS
 0
LINE
 8
WHITE
 10
38.5054
 20
15.4748
 30
0.0000
 11
38.1337
 21
15.2843
 31
0.0000
 6
CONTINUOUS
 0
LINE
 8
WHITE
 10
38.1337
 20
15.2843
 30
0.0000
 11
37.7145
 21
15.1699
 31
0.0000
 6
CONTINUOUS
 0
LINE
 8
WHITE
 10
37.7145
 20
15.1699
 30
0.0000
 11
37.3046
 21
15.1793
 31
0.0000
 6
CONTINUOUS
 0
LINE
 8
WHITE
 10
37.3046
 20
15.1793
 30
0.0000
 11
37.1141
 21
15.2366
 31
0.0000
 6
CONTINUOUS
 0
LINE
 8
WHITE
 10
37.1141
 20
15.2366
 30
0.0000
 11
36.933
 21
15.351
 31
0.0000
 6
CONTINUOUS
 0
LINE
 8
WHITE
 10
36.933
 20
15.351
 30
0.0000
 11
37.0665
 21
15.084
 31
0.0000
 6
CONTINUOUS
 0
LINE
 8
WHITE
 10
37.0665
 20
15.084
 30
0.0000
 11
37.3144
 21
14.9509
 31
0.0000
 6
CONTINUOUS
 0
LINE
 8
WHITE
 10
37.3144
 20
14.9509
 30
0.0000
 11
37.6001
 21
14.9033
 31
0.0000
 6
CONTINUOUS
 0
LINE
 8
WHITE
 10
37.6001
 20
14.9033
 30
0.0000
 11
37.8668
 21
14.9317
 31
0.0000
 6
CONTINUOUS
 0
LINE
 8
WHITE
 10
37.8668
 20
14.9317
 30
0.0000
 11
38.1052
 21
15.0173
 31
0.0000
 6
CONTINUOUS
 0
LINE
 8
WHITE
 10
38.1052
 20
15.0173
 30
0.0000
 11
38.3051
 21
15.1508
 31
0.0000
 6
CONTINUOUS
 0
LINE
 8
WHITE
 10
38.3051
 20
15.1508
 30
0.0000
 11
38.4671
 21
15.3319
 31
0.0000
 6
CONTINUOUS
 0
LINE
 8
WHITE
 10
38.4671
 20
15.3319
 30
0.0000
 11
38.5624
 21
15.5985
 31
0.0000
 6
CONTINUOUS
 0
LINE
 8
WHITE
 10
38.5624
 20
15.5985
 30
0.0000
 11
38.5054
 21
15.4748
 31
0.0000
 6
CONTINUOUS
 0
LINE
 8
WHITE
 10
38.3242
 20
13.4453
 30
0.0000
 11
38.715
 21
14.5695
 31
0.0000
 6
CONTINUOUS
 0
LINE
 8
WHITE
 10
38.715
 20
14.5695
 30
0.0000
 11
38.8579
 21
15.1222
 31
0.0000
 6
CONTINUOUS
 0
LINE
 8
WHITE
 10
38.8579
 20
15.1222
 30
0.0000
 11
38.8387
 21
15.7129
 31
0.0000
 6
CONTINUOUS
 0
LINE
 8
WHITE
 10
44.1465
 20
16.8945
 30
0.0000
 11
44.175
 21
17.1041
 31
0.0000
 6
CONTINUOUS
 0
LINE
 8
WHITE
 10
44.175
 20
17.1041
 30
0.0000
 11
44.2894
 21
17.247
 31
0.0000
 6
CONTINUOUS
 0
LINE
 8
WHITE
 10
44.2894
 20
17.247
 30
0.0000
 11
44.5658
 21
17.5042
 31
0.0000
 6
CONTINUOUS
 0
LINE
 8
WHITE
 10
36.7234
 20
5.536099
 30
0.0000
 11
36.5899
 21
5.269499
 31
0.0000
 6
CONTINUOUS
 0
LINE
 8
WHITE
 10
36.5899
 20
5.269499
 30
0.0000
 11
36.3802
 21
5.0981
 31
0.0000
 6
CONTINUOUS
 0
LINE
 8
WHITE
 10
36.3802
 20
5.0981
 30
0.0000
 11
36.1043
 21
5.0314
 31
0.0000
 6
CONTINUOUS
 0
LINE
 8
WHITE
 10
36.1043
 20
5.0314
 30
0.0000
 11
35.8088
 21
5.1075
 31
0.0000
 6
CONTINUOUS
 0
LINE
 8
WHITE
 10
35.8088
 20
5.1075
 30
0.0000
 11
35.685
 21
5.2504
 31
0.0000
 6
CONTINUOUS
 0
LINE
 8
WHITE
 10
35.685
 20
5.2504
 30
0.0000
 11
35.685
 21
5.412399
 31
0.0000
 6
CONTINUOUS
 0
LINE
 8
WHITE
 10
36.6281
 20
5.3171
 30
0.0000
 11
36.39
 21
5.650499
 31
0.0000
 6
CONTINUOUS
 0
LINE
 8
WHITE
 10
36.39
 20
5.650499
 30
0.0000
 11
36.2089
 21
5.7746
 31
0.0000
 6
CONTINUOUS
 0
LINE
 8
WHITE
 10
36.2089
 20
5.7746
 30
0.0000
 11
35.9993
 21
5.727
 31
0.0000
 6
CONTINUOUS
 0
LINE
 8
WHITE
 10
35.9993
 20
5.727
 30
0.0000
 11
35.8181
 21
5.584099
 31
0.0000
 6
CONTINUOUS
 0
LINE
 8
WHITE
 10
35.8181
 20
5.584099
 30
0.0000
 11
35.685
 21
5.412399
 31
0.0000
 6
CONTINUOUS
 0
LINE
 8
WHITE
 10
35.685
 20
5.412399
 30
0.0000
 11
35.6752
 21
5.2504
 31
0.0000
 6
CONTINUOUS
 0
LINE
 8
WHITE
 10
35.6752
 20
5.2504
 30
0.0000
 11
35.7803
 21
5.1075
 31
0.0000
 6
CONTINUOUS
 0
LINE
 8
WHITE
 10
35.7803
 20
5.1075
 30
0.0000
 11
36.0184
 21
5.0314
 31
0.0000
 6
CONTINUOUS
 0
LINE
 8
WHITE
 10
36.0184
 20
5.0314
 30
0.0000
 11
36.2565
 21
5.0408
 31
0.0000
 6
CONTINUOUS
 0
LINE
 8
WHITE
 10
36.2565
 20
5.0408
 30
0.0000
 11
36.4759
 21
5.145699
 31
0.0000
 6
CONTINUOUS
 0
LINE
 8
WHITE
 10
36.4759
 20
5.145699
 30
0.0000
 11
36.6281
 21
5.3171
 31
0.0000
 6
CONTINUOUS
 0
LINE
 8
WHITE
 10
33.5029
 20
1.505599
 30
0.0000
 11
32.5024
 21
1.505599
 31
0.0000
 6
CONTINUOUS
 0
LINE
 8
WHITE
 10
32.5024
 20
1.505599
 30
0.0000
 11
32.007
 21
1.562999
 31
0.0000
 6
CONTINUOUS
 0
LINE
 8
WHITE
 10
32.007
 20
1.562999
 30
0.0000
 11
31.5023
 21
1.677
 31
0.0000
 6
CONTINUOUS
 0
LINE
 8
WHITE
 10
31.5023
 20
1.677
 30
0.0000
 11
31.035
 21
1.8581
 31
0.0000
 6
CONTINUOUS
 0
LINE
 8
WHITE
 10
31.035
 20
1.8581
 30
0.0000
 11
30.6157
 21
2.125099
 31
0.0000
 6
CONTINUOUS
 0
LINE
 8
WHITE
 10
30.6157
 20
2.125099
 30
0.0000
 11
30.2539
 21
2.486999
 31
0.0000
 6
CONTINUOUS
 0
LINE
 8
WHITE
 10
30.2539
 20
2.486999
 30
0.0000
 11
29.9681
 21
2.9539
 31
0.0000
 6
CONTINUOUS
 0
LINE
 8
WHITE
 10
28.3672
 20
5.231299
 30
0.0000
 11
28.2907
 21
4.421599
 31
0.0000
 6
CONTINUOUS
 0
LINE
 8
WHITE
 10
28.2907
 20
4.421599
 30
0.0000
 11
28.0909
 21
3.6784
 31
0.0000
 6
CONTINUOUS
 0
LINE
 8
WHITE
 10
28.0909
 20
3.6784
 30
0.0000
 11
27.7763
 21
3.001499
 31
0.0000
 6
CONTINUOUS
 0
LINE
 8
WHITE
 10
27.7763
 20
3.001499
 30
0.0000
 11
27.357
 21
2.4202
 31
0.0000
 6
CONTINUOUS
 0
LINE
 8
WHITE
 10
27.357
 20
2.4202
 30
0.0000
 11
26.8234
 21
1.944
 31
0.0000
 6
CONTINUOUS
 0
LINE
 8
WHITE
 10
26.8234
 20
1.944
 30
0.0000
 11
26.1851
 21
1.6009
 31
0.0000
 6
CONTINUOUS
 0
LINE
 8
WHITE
 10
26.1851
 20
1.6009
 30
0.0000
 11
25.461
 21
1.391299
 31
0.0000
 6
CONTINUOUS
 0
LINE
 8
WHITE
 10
25.461
 20
1.391299
 30
0.0000
 11
24.6412
 21
1.353
 31
0.0000
 6
CONTINUOUS
 0
LINE
 8
WHITE
 10
20.811
 20
5.822299
 30
0.0000
 11
20.6299
 21
5.9558
 31
0.0000
 6
CONTINUOUS
 0
LINE
 8
WHITE
 10
20.6299
 20
5.9558
 30
0.0000
 11
20.4296
 21
6.003399
 31
0.0000
 6
CONTINUOUS
 0
LINE
 8
WHITE
 10
20.4296
 20
6.003399
 30
0.0000
 11
20.2485
 21
5.898399
 31
0.0000
 6
CONTINUOUS
 0
LINE
 8
WHITE
 10
20.2485
 20
5.898399
 30
0.0000
 11
20.0771
 21
5.6887
 31
0.0000
 6
CONTINUOUS
 0
LINE
 8
WHITE
 10
20.0771
 20
5.6887
 30
0.0000
 11
20.001
 21
5.565
 31
0.0000
 6
CONTINUOUS
 0
LINE
 8
WHITE
 10
20.001
 20
5.565
 30
0.0000
 11
20.1533
 21
5.374499
 31
0.0000
 6
CONTINUOUS
 0
LINE
 8
WHITE
 10
20.1533
 20
5.374499
 30
0.0000
 11
20.3629
 21
5.2789
 31
0.0000
 6
CONTINUOUS
 0
LINE
 8
WHITE
 10
20.3629
 20
5.2789
 30
0.0000
 11
20.601
 21
5.269499
 31
0.0000
 6
CONTINUOUS
 0
LINE
 8
WHITE
 10
20.601
 20
5.269499
 30
0.0000
 11
20.8489
 21
5.3554
 31
0.0000
 6
CONTINUOUS
 0
LINE
 8
WHITE
 10
20.8489
 20
5.3554
 30
0.0000
 11
20.9539
 21
5.4885
 31
0.0000
 6
CONTINUOUS
 0
LINE
 8
WHITE
 10
19.8769
 20
5.7746
 30
0.0000
 11
20.0197
 21
5.507599
 31
0.0000
 6
CONTINUOUS
 0
LINE
 8
WHITE
 10
20.0197
 20
5.507599
 30
0.0000
 11
20.2485
 21
5.326499
 31
0.0000
 6
CONTINUOUS
 0
LINE
 8
WHITE
 10
20.2485
 20
5.326499
 30
0.0000
 11
20.5249
 21
5.260099
 31
0.0000
 6
CONTINUOUS
 0
LINE
 8
WHITE
 10
20.5249
 20
5.260099
 30
0.0000
 11
20.8204
 21
5.3554
 31
0.0000
 6
CONTINUOUS
 0
LINE
 8
WHITE
 10
20.8204
 20
5.3554
 30
0.0000
 11
20.9539
 21
5.4791
 31
0.0000
 6
CONTINUOUS
 0
LINE
 8
WHITE
 10
20.9539
 20
5.4791
 30
0.0000
 11
20.9441
 21
5.650499
 31
0.0000
 6
CONTINUOUS
 0
LINE
 8
WHITE
 10
20.9441
 20
5.650499
 30
0.0000
 11
20.811
 21
5.822299
 31
0.0000
 6
CONTINUOUS
 0
LINE
 8
WHITE
 10
20.811
 20
5.822299
 30
0.0000
 11
20.6201
 21
5.9558
 31
0.0000
 6
CONTINUOUS
 0
LINE
 8
WHITE
 10
20.6201
 20
5.9558
 30
0.0000
 11
20.4105
 21
6.003399
 31
0.0000
 6
CONTINUOUS
 0
LINE
 8
WHITE
 10
20.4105
 20
6.003399
 30
0.0000
 11
20.2106
 21
5.898399
 31
0.0000
 6
CONTINUOUS
 0
LINE
 8
WHITE
 10
24.3938
 20
11.1679
 30
0.0000
 11
24.3079
 21
11.4251
 31
0.0000
 6
CONTINUOUS
 0
LINE
 8
WHITE
 10
24.3079
 20
11.4251
 30
0.0000
 11
24.1841
 21
11.6539
 31
0.0000
 6
CONTINUOUS
 0
LINE
 8
WHITE
 10
24.1841
 20
11.6539
 30
0.0000
 11
23.8886
 21
12.0731
 31
0.0000
 6
CONTINUOUS
 0
LINE
 8
WHITE
 10
23.8886
 20
12.0731
 30
0.0000
 11
23.7551
 21
12.3112
 31
0.0000
 6
CONTINUOUS
 0
LINE
 8
WHITE
 10
23.7551
 20
12.3112
 30
0.0000
 11
23.6599
 21
12.597
 31
0.0000
 6
CONTINUOUS
 0
LINE
 8
WHITE
 10
23.6599
 20
12.597
 30
0.0000
 11
23.6216
 21
12.9401
 31
0.0000
 6
CONTINUOUS
 0
LINE
 8
WHITE
 10
23.6216
 20
12.9401
 30
0.0000
 11
23.6696
 21
13.3785
 31
0.0000
 6
CONTINUOUS
 0
LINE
 8
WHITE
 10
23.6696
 20
13.3785
 30
0.0000
 11
23.6408
 21
13.569
 31
0.0000
 6
CONTINUOUS
 0
LINE
 8
WHITE
 10
23.6408
 20
13.569
 30
0.0000
 11
23.6408
 21
13.8645
 31
0.0000
 6
CONTINUOUS
 0
LINE
 8
WHITE
 10
21.8779
 20
11.8635
 30
0.0000
 11
21.8017
 21
11.9111
 31
0.0000
 6
CONTINUOUS
 0
LINE
 8
WHITE
 10
21.8017
 20
11.9111
 30
0.0000
 11
21.7826
 21
11.9873
 31
0.0000
 6
CONTINUOUS
 0
LINE
 8
WHITE
 10
21.7826
 20
11.9873
 30
0.0000
 11
21.7541
 21
12.0634
 31
0.0000
 6
CONTINUOUS
 0
LINE
 8
WHITE
 10
21.7541
 20
12.0634
 30
0.0000
 11
21.6971
 21
12.111
 31
0.0000
 6
CONTINUOUS
 0
LINE
 8
WHITE
 10
21.4586
 20
12.7781
 30
0.0000
 11
21.3349
 21
12.9495
 31
0.0000
 6
CONTINUOUS
 0
LINE
 8
WHITE
 10
21.3349
 20
12.9495
 30
0.0000
 11
21.2587
 21
13.1306
 31
0.0000
 6
CONTINUOUS
 0
LINE
 8
WHITE
 10
21.2587
 20
13.1306
 30
0.0000
 11
21.2205
 21
13.5307
 31
0.0000
 6
CONTINUOUS
 0
LINE
 8
WHITE
 10
21.2205
 20
13.5307
 30
0.0000
 11
21.192
 21
13.9313
 31
0.0000
 6
CONTINUOUS
 0
LINE
 8
WHITE
 10
21.192
 20
13.9313
 30
0.0000
 11
21.1346
 21
14.1218
 31
0.0000
 6
CONTINUOUS
 0
LINE
 8
WHITE
 10
21.1346
 20
14.1218
 30
0.0000
 11
21.03
 21
14.2931
 31
0.0000
 6
CONTINUOUS
 0
LINE
 8
WHITE
 10
23.9456
 20
14.0835
 30
0.0000
 11
24.0983
 21
13.7119
 31
0.0000
 6
CONTINUOUS
 0
LINE
 8
WHITE
 10
24.0983
 20
13.7119
 30
0.0000
 11
24.327
 21
13.3785
 31
0.0000
 6
CONTINUOUS
 0
LINE
 8
WHITE
 10
24.327
 20
13.3785
 30
0.0000
 11
24.4605
 21
13.2641
 31
0.0000
 6
CONTINUOUS
 0
LINE
 8
WHITE
 10
24.4605
 20
13.2641
 30
0.0000
 11
24.6225
 21
13.188
 31
0.0000
 6
CONTINUOUS
 0
LINE
 8
WHITE
 10
24.6225
 20
13.188
 30
0.0000
 11
24.8032
 21
13.1783
 31
0.0000
 6
CONTINUOUS
 0
LINE
 8
WHITE
 10
24.8032
 20
13.1783
 30
0.0000
 11
25.0035
 21
13.2259
 31
0.0000
 6
CONTINUOUS
 0
LINE
 8
WHITE
 10
25.0035
 20
13.2259
 30
0.0000
 11
25.137
 21
13.35
 31
0.0000
 6
CONTINUOUS
 0
LINE
 8
WHITE
 10
25.137
 20
13.35
 30
0.0000
 11
25.2131
 21
13.5405
 31
0.0000
 6
CONTINUOUS
 0
LINE
 8
WHITE
 10
25.2131
 20
13.5405
 30
0.0000
 11
25.3369
 21
13.9883
 31
0.0000
 6
CONTINUOUS
 0
LINE
 8
WHITE
 10
25.3369
 20
13.9883
 30
0.0000
 11
25.1558
 21
13.6834
 31
0.0000
 6
CONTINUOUS
 0
LINE
 8
WHITE
 10
25.1558
 20
13.6834
 30
0.0000
 11
24.8798
 21
13.4738
 31
0.0000
 6
CONTINUOUS
 0
LINE
 8
WHITE
 10
24.8798
 20
13.4738
 30
0.0000
 11
24.546
 21
13.4168
 31
0.0000
 6
CONTINUOUS
 0
LINE
 8
WHITE
 10
24.546
 20
13.4168
 30
0.0000
 11
24.3746
 21
13.4453
 31
0.0000
 6
CONTINUOUS
 0
LINE
 8
WHITE
 10
24.3746
 20
13.4453
 30
0.0000
 11
24.2126
 21
13.5307
 31
0.0000
 6
CONTINUOUS
 0
LINE
 8
WHITE
 10
24.2126
 20
13.5307
 30
0.0000
 11
24.1268
 21
13.6451
 31
0.0000
 6
CONTINUOUS
 0
LINE
 8
WHITE
 10
24.1268
 20
13.6451
 30
0.0000
 11
24.0791
 21
13.7884
 31
0.0000
 6
CONTINUOUS
 0
LINE
 8
WHITE
 10
24.0791
 20
13.7884
 30
0.0000
 11
23.9456
 21
14.0835
 31
0.0000
 6
CONTINUOUS
 0
LINE
 8
WHITE
 10
21.6397
 20
14.4075
 30
0.0000
 11
21.6971
 21
14.0835
 31
0.0000
 6
CONTINUOUS
 0
LINE
 8
WHITE
 10
21.6971
 20
14.0835
 30
0.0000
 11
21.8779
 21
13.7884
 31
0.0000
 6
CONTINUOUS
 0
LINE
 8
WHITE
 10
21.8779
 20
13.7884
 30
0.0000
 11
22.0972
 21
13.5881
 31
0.0000
 6
CONTINUOUS
 0
LINE
 8
WHITE
 10
22.0972
 20
13.5881
 30
0.0000
 11
22.2784
 21
13.5307
 31
0.0000
 6
CONTINUOUS
 0
LINE
 8
WHITE
 10
22.2784
 20
13.5307
 30
0.0000
 11
22.65
 21
13.6928
 31
0.0000
 6
CONTINUOUS
 0
LINE
 8
WHITE
 10
22.65
 20
13.6928
 30
0.0000
 11
22.8975
 21
13.8547
 31
0.0000
 6
CONTINUOUS
 0
LINE
 8
WHITE
 10
22.8975
 20
13.8547
 30
0.0000
 11
23.0595
 21
14.0644
 31
0.0000
 6
CONTINUOUS
 0
LINE
 8
WHITE
 10
23.0595
 20
14.0644
 30
0.0000
 11
23.1836
 21
14.322
 31
0.0000
 6
CONTINUOUS
 0
LINE
 8
WHITE
 10
23.1836
 20
14.322
 30
0.0000
 11
23.0501
 21
14.1311
 31
0.0000
 6
CONTINUOUS
 0
LINE
 8
WHITE
 10
23.0501
 20
14.1311
 30
0.0000
 11
22.8784
 21
14.0074
 31
0.0000
 6
CONTINUOUS
 0
LINE
 8
WHITE
 10
22.8784
 20
14.0074
 30
0.0000
 11
22.6687
 21
13.9313
 31
0.0000
 6
CONTINUOUS
 0
LINE
 8
WHITE
 10
22.6687
 20
13.9313
 30
0.0000
 11
22.4498
 21
13.9121
 31
0.0000
 6
CONTINUOUS
 0
LINE
 8
WHITE
 10
22.4498
 20
13.9121
 30
0.0000
 11
22.2116
 21
13.9504
 31
0.0000
 6
CONTINUOUS
 0
LINE
 8
WHITE
 10
22.2116
 20
13.9504
 30
0.0000
 11
21.9922
 21
14.0456
 31
0.0000
 6
CONTINUOUS
 0
LINE
 8
WHITE
 10
21.9922
 20
14.0456
 30
0.0000
 11
21.8017
 21
14.1979
 31
0.0000
 6
CONTINUOUS
 0
LINE
 8
WHITE
 10
21.8017
 20
14.1979
 30
0.0000
 11
21.6397
 21
14.4075
 31
0.0000
 6
CONTINUOUS
 0
LINE
 8
WHITE
 10
19.6961
 20
15.1129
 30
0.0000
 11
19.734
 21
14.9509
 31
0.0000
 6
CONTINUOUS
 0
LINE
 8
WHITE
 10
19.734
 20
14.9509
 30
0.0000
 11
19.8199
 21
14.8174
 31
0.0000
 6
CONTINUOUS
 0
LINE
 8
WHITE
 10
19.8199
 20
14.8174
 30
0.0000
 11
20.0678
 21
14.598
 31
0.0000
 6
CONTINUOUS
 0
LINE
 8
WHITE
 10
20.0678
 20
14.598
 30
0.0000
 11
20.1818
 21
14.5028
 31
0.0000
 6
CONTINUOUS
 0
LINE
 8
WHITE
 10
20.1818
 20
14.5028
 30
0.0000
 11
20.3059
 21
14.4743
 31
0.0000
 6
CONTINUOUS
 0
LINE
 8
WHITE
 10
20.3059
 20
14.4743
 30
0.0000
 11
20.544
 21
14.5504
 31
0.0000
 6
CONTINUOUS
 0
LINE
 8
WHITE
 10
20.544
 20
14.5504
 30
0.0000
 11
21.0015
 21
14.865
 31
0.0000
 6
CONTINUOUS
 0
LINE
 8
WHITE
 10
21.0015
 20
14.865
 30
0.0000
 11
20.6678
 21
14.7889
 31
0.0000
 6
CONTINUOUS
 0
LINE
 8
WHITE
 10
20.6678
 20
14.7889
 30
0.0000
 11
20.3152
 21
14.7982
 31
0.0000
 6
CONTINUOUS
 0
LINE
 8
WHITE
 10
20.3152
 20
14.7982
 30
0.0000
 11
19.9819
 21
14.8935
 31
0.0000
 6
CONTINUOUS
 0
LINE
 8
WHITE
 10
19.9819
 20
14.8935
 30
0.0000
 11
19.6961
 21
15.1129
 31
0.0000
 6
CONTINUOUS
 0
LINE
 8
WHITE
 10
23.3644
 20
16.7134
 30
0.0000
 11
23.5076
 21
16.4085
 31
0.0000
 6
CONTINUOUS
 0
LINE
 8
WHITE
 10
23.5076
 20
16.4085
 30
0.0000
 11
23.5931
 21
16.056
 31
0.0000
 6
CONTINUOUS
 0
LINE
 8
WHITE
 10
23.5931
 20
16.056
 30
0.0000
 11
23.6216
 21
15.3127
 31
0.0000
 6
CONTINUOUS
 0
LINE
 8
WHITE
 10
23.6216
 20
15.3127
 30
0.0000
 11
23.5553
 21
14.9509
 31
0.0000
 6
CONTINUOUS
 0
LINE
 8
WHITE
 10
23.5553
 20
14.9509
 30
0.0000
 11
23.4217
 21
14.6171
 31
0.0000
 6
CONTINUOUS
 0
LINE
 8
WHITE
 10
23.4217
 20
14.6171
 30
0.0000
 11
23.2312
 21
14.322
 31
0.0000
 6
CONTINUOUS
 0
LINE
 8
WHITE
 10
23.2312
 20
14.322
 30
0.0000
 11
22.974
 21
14.0835
 31
0.0000
 6
CONTINUOUS
 0
LINE
 8
WHITE
 10
22.974
 20
14.0835
 30
0.0000
 11
22.6024
 21
13.9024
 31
0.0000
 6
CONTINUOUS
 0
LINE
 8
WHITE
 10
22.6024
 20
13.9024
 30
0.0000
 11
22.2686
 21
13.8836
 31
0.0000
 6
CONTINUOUS
 0
LINE
 8
WHITE
 10
22.2686
 20
13.8836
 30
0.0000
 11
21.9735
 21
13.998
 31
0.0000
 6
CONTINUOUS
 0
LINE
 8
WHITE
 10
21.9735
 20
13.998
 30
0.0000
 11
21.7159
 21
14.217
 31
0.0000
 6
CONTINUOUS
 0
LINE
 8
WHITE
 10
21.7159
 20
14.217
 30
0.0000
 11
21.4969
 21
14.5125
 31
0.0000
 6
CONTINUOUS
 0
LINE
 8
WHITE
 10
21.4969
 20
14.5125
 30
0.0000
 11
21.3158
 21
14.865
 31
0.0000
 6
CONTINUOUS
 0
LINE
 8
WHITE
 10
21.3158
 20
14.865
 30
0.0000
 11
21.0968
 21
15.6274
 31
0.0000
 6
CONTINUOUS
 0
LINE
 8
WHITE
 10
21.0968
 20
15.6274
 30
0.0000
 11
20.9441
 21
16.1989
 31
0.0000
 6
CONTINUOUS
 0
LINE
 8
WHITE
 10
20.9441
 20
16.1989
 30
0.0000
 11
20.9156
 21
16.5229
 31
0.0000
 6
CONTINUOUS
 0
LINE
 8
WHITE
 10
24.5745
 20
16.7422
 30
0.0000
 11
24.489
 21
17.6284
 31
0.0000
 6
CONTINUOUS
 0
LINE
 8
WHITE
 10
24.489
 20
17.6284
 30
0.0000
 11
24.489
 21
18.7433
 31
0.0000
 6
CONTINUOUS
 0
LINE
 8
WHITE
 10
24.489
 20
18.7433
 30
0.0000
 11
24.4699
 21
19.3339
 31
0.0000
 6
CONTINUOUS
 0
LINE
 8
WHITE
 10
24.4699
 20
19.3339
 30
0.0000
 11
24.4031
 21
19.896
 31
0.0000
 6
CONTINUOUS
 0
LINE
 8
WHITE
 10
24.4031
 20
19.896
 30
0.0000
 11
24.2696
 21
20.3917
 31
0.0000
 6
CONTINUOUS
 0
LINE
 8
WHITE
 10
24.2696
 20
20.3917
 30
0.0000
 11
24.0221
 21
20.7919
 31
0.0000
 6
CONTINUOUS
 0
LINE
 8
WHITE
 10
24.0221
 20
20.7919
 30
0.0000
 11
23.8504
 21
20.9441
 31
0.0000
 6
CONTINUOUS
 0
LINE
 8
WHITE
 10
23.8504
 20
20.9441
 30
0.0000
 11
23.6505
 21
21.0491
 31
0.0000
 6
CONTINUOUS
 0
LINE
 8
WHITE
 10
23.6505
 20
21.0491
 30
0.0000
 11
23.1262
 21
21.135
 31
0.0000
 6
CONTINUOUS
 0
LINE
 8
WHITE
 10
23.1262
 20
21.135
 30
0.0000
 11
22.974
 21
21.1061
 31
0.0000
 6
CONTINUOUS
 0
LINE
 8
WHITE
 10
22.974
 20
21.1061
 30
0.0000
 11
22.8307
 21
21.0206
 31
0.0000
 6
CONTINUOUS
 0
LINE
 8
WHITE
 10
22.8307
 20
21.0206
 30
0.0000
 11
22.5641
 21
20.6869
 31
0.0000
 6
CONTINUOUS
 0
LINE
 8
WHITE
 10
22.5641
 20
20.6869
 30
0.0000
 11
22.3163
 21
20.2009
 31
0.0000
 6
CONTINUOUS
 0
LINE
 8
WHITE
 10
22.3163
 20
20.2009
 30
0.0000
 11
22.1164
 21
19.6103
 31
0.0000
 6
CONTINUOUS
 0
LINE
 8
WHITE
 10
22.1164
 20
19.6103
 30
0.0000
 11
21.8591
 21
18.3143
 31
0.0000
 6
CONTINUOUS
 0
LINE
 8
WHITE
 10
21.8591
 20
18.3143
 30
0.0000
 11
21.8302
 21
17.7045
 31
0.0000
 6
CONTINUOUS
 0
LINE
 8
WHITE
 10
21.8302
 20
17.7045
 30
0.0000
 11
21.8779
 21
17.1994
 31
0.0000
 6
CONTINUOUS
 0
LINE
 8
WHITE
 10
21.8779
 20
17.1994
 30
0.0000
 11
22.002
 21
16.9804
 31
0.0000
 6
CONTINUOUS
 0
LINE
 8
WHITE
 10
22.002
 20
16.9804
 30
0.0000
 11
22.2308
 21
16.8469
 31
0.0000
 6
CONTINUOUS
 0
LINE
 8
WHITE
 10
22.2308
 20
16.8469
 30
0.0000
 11
22.545
 21
16.761
 31
0.0000
 6
CONTINUOUS
 0
LINE
 8
WHITE
 10
22.545
 20
16.761
 30
0.0000
 11
22.9264
 21
16.7325
 31
0.0000
 6
CONTINUOUS
 0
LINE
 8
WHITE
 10
22.9264
 20
16.7325
 30
0.0000
 11
24.5745
 21
16.7422
 31
0.0000
 6
CONTINUOUS
 0
LINE
 8
WHITE
 10
24.489
 20
17.0756
 30
0.0000
 11
24.6701
 21
16.6564
 31
0.0000
 6
CONTINUOUS
 0
LINE
 8
WHITE
 10
24.6701
 20
16.6564
 30
0.0000
 11
25.1846
 21
16.6373
 31
0.0000
 6
CONTINUOUS
 0
LINE
 8
WHITE
 10
25.1846
 20
16.6373
 30
0.0000
 11
25.7659
 21
16.5514
 31
0.0000
 6
CONTINUOUS
 0
LINE
 8
WHITE
 10
25.7659
 20
16.5514
 30
0.0000
 11
26.9284
 21
16.3706
 31
0.0000
 6
CONTINUOUS
 0
LINE
 8
WHITE
 10
26.9284
 20
16.3706
 30
0.0000
 11
27.4429
 21
16.3324
 31
0.0000
 6
CONTINUOUS
 0
LINE
 8
WHITE
 10
27.4429
 20
16.3324
 30
0.0000
 11
27.8524
 21
16.38
 31
0.0000
 6
CONTINUOUS
 0
LINE
 8
WHITE
 10
27.8524
 20
16.38
 30
0.0000
 11
28.005
 21
16.4561
 31
0.0000
 6
CONTINUOUS
 0
LINE
 8
WHITE
 10
28.005
 20
16.4561
 30
0.0000
 11
28.1194
 21
16.5611
 31
0.0000
 6
CONTINUOUS
 0
LINE
 8
WHITE
 10
28.1194
 20
16.5611
 30
0.0000
 11
28.1955
 21
16.704
 31
0.0000
 6
CONTINUOUS
 0
LINE
 8
WHITE
 10
28.1955
 20
16.704
 30
0.0000
 11
28.2146
 21
16.8945
 31
0.0000
 6
CONTINUOUS
 0
LINE
 8
WHITE
 10
28.2146
 20
16.8945
 30
0.0000
 11
28.2338
 21
18.1335
 31
0.0000
 6
CONTINUOUS
 0
LINE
 8
WHITE
 10
28.2338
 20
18.1335
 30
0.0000
 11
28.224
 21
18.81
 31
0.0000
 6
CONTINUOUS
 0
LINE
 8
WHITE
 10
28.224
 20
18.81
 30
0.0000
 11
28.1576
 21
19.4865
 31
0.0000
 6
CONTINUOUS
 0
LINE
 8
WHITE
 10
28.1576
 20
19.4865
 30
0.0000
 11
28.005
 21
20.1056
 31
0.0000
 6
CONTINUOUS
 0
LINE
 8
WHITE
 10
28.005
 20
20.1056
 30
0.0000
 11
27.7571
 21
20.649
 31
0.0000
 6
CONTINUOUS
 0
LINE
 8
WHITE
 10
27.7571
 20
20.649
 30
0.0000
 11
27.3668
 21
21.0682
 31
0.0000
 6
CONTINUOUS
 0
LINE
 8
WHITE
 10
27.3668
 20
21.0682
 30
0.0000
 11
27.1189
 21
21.2205
 31
0.0000
 6
CONTINUOUS
 0
LINE
 8
WHITE
 10
27.1189
 20
21.2205
 30
0.0000
 11
26.8234
 21
21.3255
 31
0.0000
 6
CONTINUOUS
 0
LINE
 8
WHITE
 10
26.8234
 20
21.3255
 30
0.0000
 11
26.4232
 21
21.3731
 31
0.0000
 6
CONTINUOUS
 0
LINE
 8
WHITE
 10
26.4232
 20
21.3731
 30
0.0000
 11
26.0708
 21
21.354
 31
0.0000
 6
CONTINUOUS
 0
LINE
 8
WHITE
 10
26.0708
 20
21.354
 30
0.0000
 11
25.7753
 21
21.2587
 31
0.0000
 6
CONTINUOUS
 0
LINE
 8
WHITE
 10
25.7753
 20
21.2587
 30
0.0000
 11
25.518
 21
21.1061
 31
0.0000
 6
CONTINUOUS
 0
LINE
 8
WHITE
 10
25.518
 20
21.1061
 30
0.0000
 11
25.299
 21
20.8965
 31
0.0000
 6
CONTINUOUS
 0
LINE
 8
WHITE
 10
25.299
 20
20.8965
 30
0.0000
 11
25.1179
 21
20.6393
 31
0.0000
 6
CONTINUOUS
 0
LINE
 8
WHITE
 10
25.1179
 20
20.6393
 30
0.0000
 11
24.8509
 21
20.0104
 31
0.0000
 6
CONTINUOUS
 0
LINE
 8
WHITE
 10
24.8509
 20
20.0104
 30
0.0000
 11
24.6795
 21
19.2769
 31
0.0000
 6
CONTINUOUS
 0
LINE
 8
WHITE
 10
24.6795
 20
19.2769
 30
0.0000
 11
24.5843
 21
18.5048
 31
0.0000
 6
CONTINUOUS
 0
LINE
 8
WHITE
 10
24.5843
 20
18.5048
 30
0.0000
 11
24.489
 21
17.0756
 31
0.0000
 6
CONTINUOUS
 0
LINE
 8
WHITE
 10
19.8146
 20
17.5872
 30
0.0000
 11
19.6388
 21
17.3903
 31
0.0000
 6
CONTINUOUS
 0
LINE
 8
WHITE
 10
19.6388
 20
17.3903
 30
0.0000
 11
19.4674
 21
17.0756
 31
0.0000
 6
CONTINUOUS
 0
LINE
 8
WHITE
 10
19.4674
 20
17.0756
 30
0.0000
 11
19.3721
 21
16.7231
 31
0.0000
 6
CONTINUOUS
 0
LINE
 8
WHITE
 10
19.3721
 20
16.7231
 30
0.0000
 11
19.3339
 21
16.3515
 31
0.0000
 6
CONTINUOUS
 0
LINE
 8
WHITE
 10
19.3339
 20
16.3515
 30
0.0000
 11
19.3624
 21
15.9608
 31
0.0000
 6
CONTINUOUS
 0
LINE
 8
WHITE
 10
19.3624
 20
15.9608
 30
0.0000
 11
19.4576
 21
15.5891
 31
0.0000
 6
CONTINUOUS
 0
LINE
 8
WHITE
 10
19.4576
 20
15.5891
 30
0.0000
 11
19.6196
 21
15.2366
 31
0.0000
 6
CONTINUOUS
 0
LINE
 8
WHITE
 10
19.6196
 20
15.2366
 30
0.0000
 11
19.8484
 21
14.9317
 31
0.0000
 6
CONTINUOUS
 0
LINE
 8
WHITE
 10
19.8484
 20
14.9317
 30
0.0000
 11
20.058
 21
14.7506
 31
0.0000
 6
CONTINUOUS
 0
LINE
 8
WHITE
 10
20.058
 20
14.7506
 30
0.0000
 11
20.2583
 21
14.6839
 31
0.0000
 6
CONTINUOUS
 0
LINE
 8
WHITE
 10
20.2583
 20
14.6839
 30
0.0000
 11
20.763
 21
14.7791
 31
0.0000
 6
CONTINUOUS
 0
LINE
 8
WHITE
 10
20.763
 20
14.7791
 30
0.0000
 11
21.0206
 21
14.8744
 31
0.0000
 6
CONTINUOUS
 0
LINE
 8
WHITE
 10
21.0206
 20
14.8744
 30
0.0000
 11
21.2396
 21
15.0364
 31
0.0000
 6
CONTINUOUS
 0
LINE
 8
WHITE
 10
19.7829
 20
17.6634
 30
0.0000
 11
19.5818
 21
17.4758
 31
0.0000
 6
CONTINUOUS
 0
LINE
 8
WHITE
 10
19.5818
 20
17.4758
 30
0.0000
 11
19.3339
 21
17.2568
 31
0.0000
 6
CONTINUOUS
 0
LINE
 8
WHITE
 10
19.3339
 20
17.2568
 30
0.0000
 11
19.0957
 21
17.1139
 31
0.0000
 6
CONTINUOUS
 0
LINE
 8
WHITE
 10
19.0957
 20
17.1139
 30
0.0000
 11
18.867
 21
17.0565
 31
0.0000
 6
CONTINUOUS
 0
LINE
 8
WHITE
 10
18.867
 20
17.0565
 30
0.0000
 11
18.6574
 21
17.0663
 31
0.0000
 6
CONTINUOUS
 0
LINE
 8
WHITE
 10
18.6574
 20
17.0663
 30
0.0000
 11
18.4571
 21
17.1518
 31
0.0000
 6
CONTINUOUS
 0
LINE
 8
WHITE
 10
18.4571
 20
17.1518
 30
0.0000
 11
18.2858
 21
17.2946
 31
0.0000
 6
CONTINUOUS
 0
LINE
 8
WHITE
 10
18.2858
 20
17.2946
 30
0.0000
 11
18.1331
 21
17.5042
 31
0.0000
 6
CONTINUOUS
 0
LINE
 8
WHITE
 10
18.1331
 20
17.5042
 30
0.0000
 11
18
 21
17.7712
 31
0.0000
 6
CONTINUOUS
 0
LINE
 8
WHITE
 10
18
 20
17.7712
 30
0.0000
 11
17.7998
 21
18.5048
 31
0.0000
 6
CONTINUOUS
 0
LINE
 8
WHITE
 10
17.7998
 20
18.5048
 30
0.0000
 11
17.7904
 21
19.296
 31
0.0000
 6
CONTINUOUS
 0
LINE
 8
WHITE
 10
17.7904
 20
19.296
 30
0.0000
 11
17.9711
 21
20.0869
 31
0.0000
 6
CONTINUOUS
 0
LINE
 8
WHITE
 10
17.9711
 20
20.0869
 30
0.0000
 11
18.1331
 21
20.4679
 31
0.0000
 6
CONTINUOUS
 0
LINE
 8
WHITE
 10
18.1331
 20
20.4679
 30
0.0000
 11
18.3334
 21
20.8395
 31
0.0000
 6
CONTINUOUS
 0
LINE
 8
WHITE
 10
18.3334
 20
20.8395
 30
0.0000
 11
18.6097
 21
21.0776
 31
0.0000
 6
CONTINUOUS
 0
LINE
 8
WHITE
 10
18.6097
 20
21.0776
 30
0.0000
 11
18.9529
 21
21.2111
 31
0.0000
 6
CONTINUOUS
 0
LINE
 8
WHITE
 10
18.9529
 20
21.2111
 30
0.0000
 11
19.3054
 21
21.1826
 31
0.0000
 6
CONTINUOUS
 0
LINE
 8
WHITE
 10
19.3054
 20
21.1826
 30
0.0000
 11
19.4576
 21
21.1061
 31
0.0000
 6
CONTINUOUS
 0
LINE
 8
WHITE
 10
19.4576
 20
21.1061
 30
0.0000
 11
19.5818
 21
20.9921
 31
0.0000
 6
CONTINUOUS
 0
LINE
 8
WHITE
 10
19.5818
 20
20.9921
 30
0.0000
 11
19.7437
 21
20.6869
 31
0.0000
 6
CONTINUOUS
 0
LINE
 8
WHITE
 10
19.7437
 20
20.6869
 30
0.0000
 11
19.8581
 21
20.3726
 31
0.0000
 6
CONTINUOUS
 0
LINE
 8
WHITE
 10
21.8399
 20
17.9073
 30
0.0000
 11
21.6683
 21
17.1424
 31
0.0000
 6
CONTINUOUS
 0
LINE
 8
WHITE
 10
21.6683
 20
17.1424
 30
0.0000
 11
21.5254
 21
16.7708
 31
0.0000
 6
CONTINUOUS
 0
LINE
 8
WHITE
 10
21.5254
 20
16.7708
 30
0.0000
 11
21.3158
 21
16.5705
 31
0.0000
 6
CONTINUOUS
 0
LINE
 8
WHITE
 10
21.3158
 20
16.5705
 30
0.0000
 11
21.0776
 21
16.5229
 31
0.0000
 6
CONTINUOUS
 0
LINE
 8
WHITE
 10
21.0776
 20
16.5229
 30
0.0000
 11
20.811
 21
16.5896
 31
0.0000
 6
CONTINUOUS
 0
LINE
 8
WHITE
 10
20.811
 20
16.5896
 30
0.0000
 11
20.544
 21
16.7422
 31
0.0000
 6
CONTINUOUS
 0
LINE
 8
WHITE
 10
20.544
 20
16.7422
 30
0.0000
 11
20.2868
 21
16.9519
 31
0.0000
 6
CONTINUOUS
 0
LINE
 8
WHITE
 10
20.2868
 20
16.9519
 30
0.0000
 11
19.8769
 21
17.4379
 31
0.0000
 6
CONTINUOUS
 0
LINE
 8
WHITE
 10
19.8769
 20
17.4379
 30
0.0000
 11
19.734
 21
17.7806
 31
0.0000
 6
CONTINUOUS
 0
LINE
 8
WHITE
 10
19.734
 20
17.7806
 30
0.0000
 11
19.6579
 21
18.1429
 31
0.0000
 6
CONTINUOUS
 0
LINE
 8
WHITE
 10
19.6579
 20
18.1429
 30
0.0000
 11
19.6388
 21
18.9244
 31
0.0000
 6
CONTINUOUS
 0
LINE
 8
WHITE
 10
19.6388
 20
18.9244
 30
0.0000
 11
19.734
 21
19.7437
 31
0.0000
 6
CONTINUOUS
 0
LINE
 8
WHITE
 10
19.734
 20
19.7437
 30
0.0000
 11
19.7914
 21
20.1345
 31
0.0000
 6
CONTINUOUS
 0
LINE
 8
WHITE
 10
19.7914
 20
20.1345
 30
0.0000
 11
19.9245
 21
20.5061
 31
0.0000
 6
CONTINUOUS
 0
LINE
 8
WHITE
 10
19.9245
 20
20.5061
 30
0.0000
 11
20.1154
 21
20.8204
 31
0.0000
 6
CONTINUOUS
 0
LINE
 8
WHITE
 10
20.1154
 20
20.8204
 30
0.0000
 11
20.3438
 21
21.0682
 31
0.0000
 6
CONTINUOUS
 0
LINE
 8
WHITE
 10
20.3438
 20
21.0682
 30
0.0000
 11
20.6107
 21
21.2205
 31
0.0000
 6
CONTINUOUS
 0
LINE
 8
WHITE
 10
20.6107
 20
21.2205
 30
0.0000
 11
20.9063
 21
21.2587
 31
0.0000
 6
CONTINUOUS
 0
LINE
 8
WHITE
 10
20.9063
 20
21.2587
 30
0.0000
 11
21.192
 21
21.1635
 31
0.0000
 6
CONTINUOUS
 0
LINE
 8
WHITE
 10
21.192
 20
21.1635
 30
0.0000
 11
21.4875
 21
20.8965
 31
0.0000
 6
CONTINUOUS
 0
LINE
 8
WHITE
 10
21.4875
 20
20.8965
 30
0.0000
 11
21.7541
 21
20.4773
 31
0.0000
 6
CONTINUOUS
 0
LINE
 8
WHITE
 10
21.7541
 20
20.4773
 30
0.0000
 11
21.9161
 21
20.0486
 31
0.0000
 6
CONTINUOUS
 0
LINE
 8
WHITE
 10
21.9161
 20
20.0486
 30
0.0000
 11
22.002
 21
19.6009
 31
0.0000
 6
CONTINUOUS
 0
LINE
 8
WHITE
 10
22.002
 20
19.6009
 30
0.0000
 11
22.0211
 21
19.134
 31
0.0000
 6
CONTINUOUS
 0
LINE
 8
WHITE
 10
25.7997
 20
16.5461
 30
0.0000
 11
25.8326
 21
16.485
 31
0.0000
 6
CONTINUOUS
 0
LINE
 8
WHITE
 10
25.8326
 20
16.485
 30
0.0000
 11
25.8705
 21
16.3324
 31
0.0000
 6
CONTINUOUS
 0
LINE
 8
WHITE
 10
25.8705
 20
16.3324
 30
0.0000
 11
25.7944
 21
15.9608
 31
0.0000
 6
CONTINUOUS
 0
LINE
 8
WHITE
 10
25.7944
 20
15.9608
 30
0.0000
 11
25.6324
 21
15.5224
 31
0.0000
 6
CONTINUOUS
 0
LINE
 8
WHITE
 10
25.6324
 20
15.5224
 30
0.0000
 11
25.5371
 21
15.0746
 31
0.0000
 6
CONTINUOUS
 0
LINE
 8
WHITE
 10
25.5371
 20
15.0746
 30
0.0000
 11
25.3943
 21
14.1694
 31
0.0000
 6
CONTINUOUS
 0
LINE
 8
WHITE
 10
25.3943
 20
14.1694
 30
0.0000
 11
25.3275
 21
13.9598
 31
0.0000
 6
CONTINUOUS
 0
LINE
 8
WHITE
 10
25.3275
 20
13.9598
 30
0.0000
 11
25.2037
 21
13.7693
 31
0.0000
 6
CONTINUOUS
 0
LINE
 8
WHITE
 10
25.2037
 20
13.7693
 30
0.0000
 11
24.8415
 21
13.4831
 31
0.0000
 6
CONTINUOUS
 0
LINE
 8
WHITE
 10
24.8415
 20
13.4831
 30
0.0000
 11
24.6412
 21
13.4168
 31
0.0000
 6
CONTINUOUS
 0
LINE
 8
WHITE
 10
24.6412
 20
13.4168
 30
0.0000
 11
24.4507
 21
13.4261
 31
0.0000
 6
CONTINUOUS
 0
LINE
 8
WHITE
 10
24.4507
 20
13.4261
 30
0.0000
 11
24.2794
 21
13.512
 31
0.0000
 6
CONTINUOUS
 0
LINE
 8
WHITE
 10
24.2794
 20
13.512
 30
0.0000
 11
24.1552
 21
13.6834
 31
0.0000
 6
CONTINUOUS
 0
LINE
 8
WHITE
 10
24.1552
 20
13.6834
 30
0.0000
 11
23.9363
 21
14.2553
 31
0.0000
 6
CONTINUOUS
 0
LINE
 8
WHITE
 10
23.9363
 20
14.2553
 30
0.0000
 11
23.7934
 21
14.8459
 31
0.0000
 6
CONTINUOUS
 0
LINE
 8
WHITE
 10
23.7934
 20
14.8459
 30
0.0000
 11
23.6696
 21
16.0751
 31
0.0000
 6
CONTINUOUS
 0
LINE
 8
WHITE
 10
23.6696
 20
16.0751
 30
0.0000
 11
23.6123
 21
16.7422
 31
0.0000
 6
CONTINUOUS
 0
LINE
 8
WHITE
 10
26.2706
 20
14.1409
 30
0.0000
 11
26.4041
 21
13.5787
 31
0.0000
 6
CONTINUOUS
 0
LINE
 8
WHITE
 10
26.4041
 20
13.5787
 30
0.0000
 11
26.547
 21
13.0928
 31
0.0000
 6
CONTINUOUS
 0
LINE
 8
WHITE
 10
26.547
 20
13.0928
 30
0.0000
 11
26.6614
 21
12.921
 31
0.0000
 6
CONTINUOUS
 0
LINE
 8
WHITE
 10
26.6614
 20
12.921
 30
0.0000
 11
26.814
 21
12.8257
 31
0.0000
 6
CONTINUOUS
 0
LINE
 8
WHITE
 10
26.814
 20
12.8257
 30
0.0000
 11
27.0236
 21
12.8164
 31
0.0000
 6
CONTINUOUS
 0
LINE
 8
WHITE
 10
27.0236
 20
12.8164
 30
0.0000
 11
27.3094
 21
12.9308
 31
0.0000
 6
CONTINUOUS
 0
LINE
 8
WHITE
 10
27.3094
 20
12.9308
 30
0.0000
 11
27.4905
 21
13.1497
 31
0.0000
 6
CONTINUOUS
 0
LINE
 8
WHITE
 10
27.4905
 20
13.1497
 30
0.0000
 11
27.6716
 21
13.4453
 31
0.0000
 6
CONTINUOUS
 0
LINE
 8
WHITE
 10
27.6716
 20
13.4453
 30
0.0000
 11
27.7669
 21
13.7693
 31
0.0000
 6
CONTINUOUS
 0
LINE
 8
WHITE
 10
27.7669
 20
13.7693
 30
0.0000
 11
27.7286
 21
14.1409
 31
0.0000
 6
CONTINUOUS
 0
LINE
 8
WHITE
 10
27.7286
 20
14.1409
 30
0.0000
 11
27.5951
 21
13.836
 31
0.0000
 6
CONTINUOUS
 0
LINE
 8
WHITE
 10
27.5951
 20
13.836
 30
0.0000
 11
27.3855
 21
13.6073
 31
0.0000
 6
CONTINUOUS
 0
LINE
 8
WHITE
 10
27.3855
 20
13.6073
 30
0.0000
 11
27.1283
 21
13.4831
 31
0.0000
 6
CONTINUOUS
 0
LINE
 8
WHITE
 10
27.1283
 20
13.4831
 30
0.0000
 11
26.8234
 21
13.5023
 31
0.0000
 6
CONTINUOUS
 0
LINE
 8
WHITE
 10
26.8234
 20
13.5023
 30
0.0000
 11
26.6329
 21
13.6073
 31
0.0000
 6
CONTINUOUS
 0
LINE
 8
WHITE
 10
26.6329
 20
13.6073
 30
0.0000
 11
26.4994
 21
13.7786
 31
0.0000
 6
CONTINUOUS
 0
LINE
 8
WHITE
 10
26.4994
 20
13.7786
 30
0.0000
 11
26.2706
 21
14.1409
 31
0.0000
 6
CONTINUOUS
 0
LINE
 8
WHITE
 10
28.134
 20
16.5887
 30
0.0000
 11
28.1861
 21
16.5038
 31
0.0000
 6
CONTINUOUS
 0
LINE
 8
WHITE
 10
28.1861
 20
16.5038
 30
0.0000
 11
28.2146
 21
16.3515
 31
0.0000
 6
CONTINUOUS
 0
LINE
 8
WHITE
 10
28.2146
 20
16.3515
 30
0.0000
 11
28.1194
 21
15.9893
 31
0.0000
 6
CONTINUOUS
 0
LINE
 8
WHITE
 10
28.1194
 20
15.9893
 30
0.0000
 11
27.9765
 21
15.5321
 31
0.0000
 6
CONTINUOUS
 0
LINE
 8
WHITE
 10
27.9765
 20
15.5321
 30
0.0000
 11
27.9004
 21
15.0746
 31
0.0000
 6
CONTINUOUS
 0
LINE
 8
WHITE
 10
27.9004
 20
15.0746
 30
0.0000
 11
27.7571
 21
14.1694
 31
0.0000
 6
CONTINUOUS
 0
LINE
 8
WHITE
 10
27.7571
 20
14.1694
 30
0.0000
 11
27.6908
 21
13.9691
 31
0.0000
 6
CONTINUOUS
 0
LINE
 8
WHITE
 10
27.6908
 20
13.9691
 30
0.0000
 11
27.5666
 21
13.7884
 31
0.0000
 6
CONTINUOUS
 0
LINE
 8
WHITE
 10
27.5666
 20
13.7884
 30
0.0000
 11
27.2048
 21
13.512
 31
0.0000
 6
CONTINUOUS
 0
LINE
 8
WHITE
 10
27.2048
 20
13.512
 30
0.0000
 11
26.9951
 21
13.4453
 31
0.0000
 6
CONTINUOUS
 0
LINE
 8
WHITE
 10
26.9951
 20
13.4453
 30
0.0000
 11
26.8043
 21
13.4546
 31
0.0000
 6
CONTINUOUS
 0
LINE
 8
WHITE
 10
26.8043
 20
13.4546
 30
0.0000
 11
26.6235
 21
13.5405
 31
0.0000
 6
CONTINUOUS
 0
LINE
 8
WHITE
 10
26.6235
 20
13.5405
 30
0.0000
 11
26.49
 21
13.7119
 31
0.0000
 6
CONTINUOUS
 0
LINE
 8
WHITE
 10
26.49
 20
13.7119
 30
0.0000
 11
26.2706
 21
14.2838
 31
0.0000
 6
CONTINUOUS
 0
LINE
 8
WHITE
 10
26.2706
 20
14.2838
 30
0.0000
 11
26.1469
 21
14.8744
 31
0.0000
 6
CONTINUOUS
 0
LINE
 8
WHITE
 10
26.1469
 20
14.8744
 30
0.0000
 11
26.0325
 21
16.1134
 31
0.0000
 6
CONTINUOUS
 0
LINE
 8
WHITE
 10
26.0325
 20
16.1134
 30
0.0000
 11
25.971
 21
16.5195
 31
0.0000
 6
CONTINUOUS
 0
LINE
 8
WHITE
 10
28.3196
 20
16.4944
 30
0.0000
 11
28.2907
 21
16.4276
 31
0.0000
 6
CONTINUOUS
 0
LINE
 8
WHITE
 10
28.2907
 20
16.4276
 30
0.0000
 11
28.2529
 21
16.2754
 31
0.0000
 6
CONTINUOUS
 0
LINE
 8
WHITE
 10
28.2529
 20
16.2754
 30
0.0000
 11
28.3384
 21
15.894
 31
0.0000
 6
CONTINUOUS
 0
LINE
 8
WHITE
 10
28.3384
 20
15.894
 30
0.0000
 11
28.4816
 21
15.4556
 31
0.0000
 6
CONTINUOUS
 0
LINE
 8
WHITE
 10
28.4816
 20
15.4556
 30
0.0000
 11
28.5577
 21
15.0173
 31
0.0000
 6
CONTINUOUS
 0
LINE
 8
WHITE
 10
28.5577
 20
15.0173
 30
0.0000
 11
28.7006
 21
14.112
 31
0.0000
 6
CONTINUOUS
 0
LINE
 8
WHITE
 10
28.7006
 20
14.112
 30
0.0000
 11
28.7768
 21
13.9024
 31
0.0000
 6
CONTINUOUS
 0
LINE
 8
WHITE
 10
28.7768
 20
13.9024
 30
0.0000
 11
28.9103
 21
13.7119
 31
0.0000
 6
CONTINUOUS
 0
LINE
 8
WHITE
 10
28.9103
 20
13.7119
 30
0.0000
 11
29.2628
 21
13.4355
 31
0.0000
 6
CONTINUOUS
 0
LINE
 8
WHITE
 10
29.2628
 20
13.4355
 30
0.0000
 11
29.463
 21
13.3691
 31
0.0000
 6
CONTINUOUS
 0
LINE
 8
WHITE
 10
29.463
 20
13.3691
 30
0.0000
 11
29.6629
 21
13.3785
 31
0.0000
 6
CONTINUOUS
 0
LINE
 8
WHITE
 10
29.6629
 20
13.3785
 30
0.0000
 11
29.8346
 21
13.4546
 31
0.0000
 6
CONTINUOUS
 0
LINE
 8
WHITE
 10
29.8346
 20
13.4546
 30
0.0000
 11
29.9681
 21
13.6264
 31
0.0000
 6
CONTINUOUS
 0
LINE
 8
WHITE
 10
29.9681
 20
13.6264
 30
0.0000
 11
30.1965
 21
14.1885
 31
0.0000
 6
CONTINUOUS
 0
LINE
 8
WHITE
 10
30.1965
 20
14.1885
 30
0.0000
 11
30.33
 21
14.7889
 31
0.0000
 6
CONTINUOUS
 0
LINE
 8
WHITE
 10
30.33
 20
14.7889
 30
0.0000
 11
30.4973
 21
16.4533
 31
0.0000
 6
CONTINUOUS
 0
LINE
 8
WHITE
 10
30.2156
 20
14.0835
 30
0.0000
 11
29.9584
 21
13.7025
 31
0.0000
 6
CONTINUOUS
 0
LINE
 8
WHITE
 10
29.9584
 20
13.7025
 30
0.0000
 11
29.8249
 21
13.5214
 31
0.0000
 6
CONTINUOUS
 0
LINE
 8
WHITE
 10
29.8249
 20
13.5214
 30
0.0000
 11
29.6344
 21
13.4168
 31
0.0000
 6
CONTINUOUS
 0
LINE
 8
WHITE
 10
29.6344
 20
13.4168
 30
0.0000
 11
29.3295
 21
13.3976
 31
0.0000
 6
CONTINUOUS
 0
LINE
 8
WHITE
 10
29.3295
 20
13.3976
 30
0.0000
 11
29.0723
 21
13.5307
 31
0.0000
 6
CONTINUOUS
 0
LINE
 8
WHITE
 10
29.0723
 20
13.5307
 30
0.0000
 11
28.8626
 21
13.7693
 31
0.0000
 6
CONTINUOUS
 0
LINE
 8
WHITE
 10
28.8626
 20
13.7693
 30
0.0000
 11
28.7291
 21
14.0835
 31
0.0000
 6
CONTINUOUS
 0
LINE
 8
WHITE
 10
28.7291
 20
14.0835
 30
0.0000
 11
28.7006
 21
13.7119
 31
0.0000
 6
CONTINUOUS
 0
LINE
 8
WHITE
 10
28.7006
 20
13.7119
 30
0.0000
 11
28.7865
 21
13.3785
 31
0.0000
 6
CONTINUOUS
 0
LINE
 8
WHITE
 10
28.7865
 20
13.3785
 30
0.0000
 11
28.977
 21
13.0639
 31
0.0000
 6
CONTINUOUS
 0
LINE
 8
WHITE
 10
28.977
 20
13.0639
 30
0.0000
 11
29.1866
 21
12.864
 31
0.0000
 6
CONTINUOUS
 0
LINE
 8
WHITE
 10
29.1866
 20
12.864
 30
0.0000
 11
29.4533
 21
12.759
 31
0.0000
 6
CONTINUOUS
 0
LINE
 8
WHITE
 10
29.4533
 20
12.759
 30
0.0000
 11
29.6535
 21
12.759
 31
0.0000
 6
CONTINUOUS
 0
LINE
 8
WHITE
 10
29.6535
 20
12.759
 30
0.0000
 11
29.8061
 21
12.8543
 31
0.0000
 6
CONTINUOUS
 0
LINE
 8
WHITE
 10
29.8061
 20
12.8543
 30
0.0000
 11
29.9108
 21
13.0162
 31
0.0000
 6
CONTINUOUS
 0
LINE
 8
WHITE
 10
29.9108
 20
13.0162
 30
0.0000
 11
30.0634
 21
13.5023
 31
0.0000
 6
CONTINUOUS
 0
LINE
 8
WHITE
 10
30.0634
 20
13.5023
 30
0.0000
 11
30.2156
 21
14.0835
 31
0.0000
 6
CONTINUOUS
 0
LINE
 8
WHITE
 10
30.711
 20
16.5326
 30
0.0000
 11
30.6349
 21
16.4085
 31
0.0000
 6
CONTINUOUS
 0
LINE
 8
WHITE
 10
30.6349
 20
16.4085
 30
0.0000
 11
30.6064
 21
16.2656
 31
0.0000
 6
CONTINUOUS
 0
LINE
 8
WHITE
 10
30.6064
 20
16.2656
 30
0.0000
 11
30.7016
 21
15.894
 31
0.0000
 6
CONTINUOUS
 0
LINE
 8
WHITE
 10
30.7016
 20
15.894
 30
0.0000
 11
30.8445
 21
15.4462
 31
0.0000
 6
CONTINUOUS
 0
LINE
 8
WHITE
 10
30.8445
 20
15.4462
 30
0.0000
 11
30.9304
 21
14.9888
 31
0.0000
 6
CONTINUOUS
 0
LINE
 8
WHITE
 10
30.9304
 20
14.9888
 30
0.0000
 11
31.0639
 21
14.0835
 31
0.0000
 6
CONTINUOUS
 0
LINE
 8
WHITE
 10
31.0639
 20
14.0835
 30
0.0000
 11
31.14
 21
13.8739
 31
0.0000
 6
CONTINUOUS
 0
LINE
 8
WHITE
 10
31.14
 20
13.8739
 30
0.0000
 11
31.2735
 21
13.6928
 31
0.0000
 6
CONTINUOUS
 0
LINE
 8
WHITE
 10
31.2735
 20
13.6928
 30
0.0000
 11
31.626
 21
13.4168
 31
0.0000
 6
CONTINUOUS
 0
LINE
 8
WHITE
 10
31.626
 20
13.4168
 30
0.0000
 11
31.8356
 21
13.3594
 31
0.0000
 6
CONTINUOUS
 0
LINE
 8
WHITE
 10
31.8356
 20
13.3594
 30
0.0000
 11
32.0261
 21
13.3594
 31
0.0000
 6
CONTINUOUS
 0
LINE
 8
WHITE
 10
32.0261
 20
13.3594
 30
0.0000
 11
32.1975
 21
13.4453
 31
0.0000
 6
CONTINUOUS
 0
LINE
 8
WHITE
 10
32.1975
 20
13.4453
 30
0.0000
 11
32.3212
 21
13.6264
 31
0.0000
 6
CONTINUOUS
 0
LINE
 8
WHITE
 10
32.3212
 20
13.6264
 30
0.0000
 11
32.5403
 21
14.1885
 31
0.0000
 6
CONTINUOUS
 0
LINE
 8
WHITE
 10
32.5403
 20
14.1885
 30
0.0000
 11
32.6644
 21
14.7889
 31
0.0000
 6
CONTINUOUS
 0
LINE
 8
WHITE
 10
32.6644
 20
14.7889
 30
0.0000
 11
32.7784
 21
16.0177
 31
0.0000
 6
CONTINUOUS
 0
LINE
 8
WHITE
 10
32.7784
 20
16.0177
 30
0.0000
 11
32.874
 21
16.6564
 31
0.0000
 6
CONTINUOUS
 0
LINE
 8
WHITE
 10
31.302
 20
11.4443
 30
0.0000
 11
31.1306
 21
11.9302
 31
0.0000
 6
CONTINUOUS
 0
LINE
 8
WHITE
 10
31.1306
 20
11.9302
 30
0.0000
 11
31.0448
 21
12.4256
 31
0.0000
 6
CONTINUOUS
 0
LINE
 8
WHITE
 10
31.0448
 20
12.4256
 30
0.0000
 11
30.9686
 21
13.2926
 31
0.0000
 6
CONTINUOUS
 0
LINE
 8
WHITE
 10
31.8833
 20
16.6849
 30
0.0000
 11
33.5216
 21
16.6564
 31
0.0000
 6
CONTINUOUS
 0
LINE
 8
WHITE
 10
33.5216
 20
16.6564
 30
0.0000
 11
33.903
 21
16.6946
 31
0.0000
 6
CONTINUOUS
 0
LINE
 8
WHITE
 10
33.903
 20
16.6946
 30
0.0000
 11
34.2173
 21
16.761
 31
0.0000
 6
CONTINUOUS
 0
LINE
 8
WHITE
 10
34.2173
 20
16.761
 30
0.0000
 11
34.446
 21
16.9043
 31
0.0000
 6
CONTINUOUS
 0
LINE
 8
WHITE
 10
34.446
 20
16.9043
 30
0.0000
 11
34.5701
 21
17.1139
 31
0.0000
 6
CONTINUOUS
 0
LINE
 8
WHITE
 10
34.5701
 20
17.1139
 30
0.0000
 11
34.6178
 21
17.6186
 31
0.0000
 6
CONTINUOUS
 0
LINE
 8
WHITE
 10
34.6178
 20
17.6186
 30
0.0000
 11
34.5889
 21
18.219
 31
0.0000
 6
CONTINUOUS
 0
LINE
 8
WHITE
 10
34.5889
 20
18.219
 30
0.0000
 11
34.3316
 21
19.5244
 31
0.0000
 6
CONTINUOUS
 0
LINE
 8
WHITE
 10
34.3316
 20
19.5244
 30
0.0000
 11
34.1317
 21
20.1247
 31
0.0000
 6
CONTINUOUS
 0
LINE
 8
WHITE
 10
34.1317
 20
20.1247
 30
0.0000
 11
33.8839
 21
20.6107
 31
0.0000
 6
CONTINUOUS
 0
LINE
 8
WHITE
 10
33.8839
 20
20.6107
 30
0.0000
 11
33.6172
 21
20.9441
 31
0.0000
 6
CONTINUOUS
 0
LINE
 8
WHITE
 10
33.6172
 20
20.9441
 30
0.0000
 11
33.474
 21
21.0398
 31
0.0000
 6
CONTINUOUS
 0
LINE
 8
WHITE
 10
33.474
 20
21.0398
 30
0.0000
 11
33.3218
 21
21.0776
 31
0.0000
 6
CONTINUOUS
 0
LINE
 8
WHITE
 10
33.3218
 20
21.0776
 30
0.0000
 11
32.7975
 21
20.9921
 31
0.0000
 6
CONTINUOUS
 0
LINE
 8
WHITE
 10
32.7975
 20
20.9921
 30
0.0000
 11
32.5976
 21
20.8777
 31
0.0000
 6
CONTINUOUS
 0
LINE
 8
WHITE
 10
32.5976
 20
20.8777
 30
0.0000
 11
32.4259
 21
20.7251
 31
0.0000
 6
CONTINUOUS
 0
LINE
 8
WHITE
 10
32.4259
 20
20.7251
 30
0.0000
 11
32.1881
 21
20.3344
 31
0.0000
 6
CONTINUOUS
 0
LINE
 8
WHITE
 10
32.1881
 20
20.3344
 30
0.0000
 11
32.0453
 21
19.8292
 31
0.0000
 6
CONTINUOUS
 0
LINE
 8
WHITE
 10
32.0453
 20
19.8292
 30
0.0000
 11
31.9785
 21
19.2671
 31
0.0000
 6
CONTINUOUS
 0
LINE
 8
WHITE
 10
31.9785
 20
19.2671
 30
0.0000
 11
31.95
 21
18.6765
 31
0.0000
 6
CONTINUOUS
 0
LINE
 8
WHITE
 10
31.95
 20
18.6765
 30
0.0000
 11
31.9402
 21
17.5616
 31
0.0000
 6
CONTINUOUS
 0
LINE
 8
WHITE
 10
31.9402
 20
17.5616
 30
0.0000
 11
31.8833
 21
16.6849
 31
0.0000
 6
CONTINUOUS
 0
LINE
 8
WHITE
 10
31.9402
 20
16.9898
 30
0.0000
 11
31.8641
 21
18.4193
 31
0.0000
 6
CONTINUOUS
 0
LINE
 8
WHITE
 10
31.8641
 20
18.4193
 30
0.0000
 11
31.7689
 21
19.191
 31
0.0000
 6
CONTINUOUS
 0
LINE
 8
WHITE
 10
31.7689
 20
19.191
 30
0.0000
 11
31.6069
 21
19.9249
 31
0.0000
 6
CONTINUOUS
 0
LINE
 8
WHITE
 10
31.6069
 20
19.9249
 30
0.0000
 11
31.3403
 21
20.5631
 31
0.0000
 6
CONTINUOUS
 0
LINE
 8
WHITE
 10
31.3403
 20
20.5631
 30
0.0000
 11
31.1591
 21
20.8204
 31
0.0000
 6
CONTINUOUS
 0
LINE
 8
WHITE
 10
31.1591
 20
20.8204
 30
0.0000
 11
30.9398
 21
21.03
 31
0.0000
 6
CONTINUOUS
 0
LINE
 8
WHITE
 10
30.9398
 20
21.03
 30
0.0000
 11
30.6825
 21
21.1826
 31
0.0000
 6
CONTINUOUS
 0
LINE
 8
WHITE
 10
30.6825
 20
21.1826
 30
0.0000
 11
30.3874
 21
21.2681
 31
0.0000
 6
CONTINUOUS
 0
LINE
 8
WHITE
 10
30.3874
 20
21.2681
 30
0.0000
 11
30.0345
 21
21.2873
 31
0.0000
 6
CONTINUOUS
 0
LINE
 8
WHITE
 10
30.0345
 20
21.2873
 30
0.0000
 11
29.6344
 21
21.2303
 31
0.0000
 6
CONTINUOUS
 0
LINE
 8
WHITE
 10
29.6344
 20
21.2303
 30
0.0000
 11
29.3389
 21
21.135
 31
0.0000
 6
CONTINUOUS
 0
LINE
 8
WHITE
 10
29.3389
 20
21.135
 30
0.0000
 11
29.0914
 21
20.9824
 31
0.0000
 6
CONTINUOUS
 0
LINE
 8
WHITE
 10
29.0914
 20
20.9824
 30
0.0000
 11
28.7006
 21
20.5822
 31
0.0000
 6
CONTINUOUS
 0
LINE
 8
WHITE
 10
28.7006
 20
20.5822
 30
0.0000
 11
28.4528
 21
20.0392
 31
0.0000
 6
CONTINUOUS
 0
LINE
 8
WHITE
 10
28.4528
 20
20.0392
 30
0.0000
 11
28.3005
 21
19.4198
 31
0.0000
 6
CONTINUOUS
 0
LINE
 8
WHITE
 10
28.3005
 20
19.4198
 30
0.0000
 11
28.2338
 21
18.7526
 31
0.0000
 6
CONTINUOUS
 0
LINE
 8
WHITE
 10
28.2338
 20
18.7526
 30
0.0000
 11
28.2146
 21
18.0667
 31
0.0000
 6
CONTINUOUS
 0
LINE
 8
WHITE
 10
28.2146
 20
18.0667
 30
0.0000
 11
28.2146
 21
16.8375
 31
0.0000
 6
CONTINUOUS
 0
LINE
 8
WHITE
 10
28.2146
 20
16.8375
 30
0.0000
 11
28.2431
 21
16.647
 31
0.0000
 6
CONTINUOUS
 0
LINE
 8
WHITE
 10
28.2431
 20
16.647
 30
0.0000
 11
28.3196
 21
16.4944
 31
0.0000
 6
CONTINUOUS
 0
LINE
 8
WHITE
 10
28.3196
 20
16.4944
 30
0.0000
 11
28.434
 21
16.3894
 31
0.0000
 6
CONTINUOUS
 0
LINE
 8
WHITE
 10
28.434
 20
16.3894
 30
0.0000
 11
28.5956
 21
16.3133
 31
0.0000
 6
CONTINUOUS
 0
LINE
 8
WHITE
 10
28.5956
 20
16.3133
 30
0.0000
 11
29.0055
 21
16.2656
 31
0.0000
 6
CONTINUOUS
 0
LINE
 8
WHITE
 10
29.0055
 20
16.2656
 30
0.0000
 11
29.52
 21
16.2941
 31
0.0000
 6
CONTINUOUS
 0
LINE
 8
WHITE
 10
29.52
 20
16.2941
 30
0.0000
 11
30.6923
 21
16.485
 31
0.0000
 6
CONTINUOUS
 0
LINE
 8
WHITE
 10
30.6923
 20
16.485
 30
0.0000
 11
31.2735
 21
16.5705
 31
0.0000
 6
CONTINUOUS
 0
LINE
 8
WHITE
 10
31.2735
 20
16.5705
 30
0.0000
 11
31.788
 21
16.5896
 31
0.0000
 6
CONTINUOUS
 0
LINE
 8
WHITE
 10
31.788
 20
16.5896
 30
0.0000
 11
31.9402
 21
16.9898
 31
0.0000
 6
CONTINUOUS
 0
LINE
 8
WHITE
 10
32.5688
 20
13.4738
 30
0.0000
 11
32.5024
 21
13.9883
 31
0.0000
 6
CONTINUOUS
 0
LINE
 8
WHITE
 10
32.5024
 20
13.9883
 30
0.0000
 11
32.3404
 21
13.5787
 31
0.0000
 6
CONTINUOUS
 0
LINE
 8
WHITE
 10
32.3404
 20
13.5787
 30
0.0000
 11
32.2451
 21
13.4738
 31
0.0000
 6
CONTINUOUS
 0
LINE
 8
WHITE
 10
32.2451
 20
13.4738
 30
0.0000
 11
32.0929
 21
13.3879
 31
0.0000
 6
CONTINUOUS
 0
LINE
 8
WHITE
 10
32.0929
 20
13.3879
 30
0.0000
 11
31.9215
 21
13.35
 31
0.0000
 6
CONTINUOUS
 0
LINE
 8
WHITE
 10
31.9215
 20
13.35
 30
0.0000
 11
31.5878
 21
13.4168
 31
0.0000
 6
CONTINUOUS
 0
LINE
 8
WHITE
 10
31.5878
 20
13.4168
 30
0.0000
 11
31.302
 21
13.6073
 31
0.0000
 6
CONTINUOUS
 0
LINE
 8
WHITE
 10
31.302
 20
13.6073
 30
0.0000
 11
31.1209
 21
13.893
 31
0.0000
 6
CONTINUOUS
 0
LINE
 8
WHITE
 10
31.1209
 20
13.893
 30
0.0000
 11
31.2068
 21
13.6928
 31
0.0000
 6
CONTINUOUS
 0
LINE
 8
WHITE
 10
31.2068
 20
13.6928
 30
0.0000
 11
31.2638
 21
13.4738
 31
0.0000
 6
CONTINUOUS
 0
LINE
 8
WHITE
 10
31.2638
 20
13.4738
 30
0.0000
 11
31.3403
 21
13.2735
 31
0.0000
 6
CONTINUOUS
 0
LINE
 8
WHITE
 10
31.3403
 20
13.2735
 30
0.0000
 11
31.4831
 21
13.1404
 31
0.0000
 6
CONTINUOUS
 0
LINE
 8
WHITE
 10
31.4831
 20
13.1404
 30
0.0000
 11
31.8165
 21
12.9593
 31
0.0000
 6
CONTINUOUS
 0
LINE
 8
WHITE
 10
31.8165
 20
12.9593
 30
0.0000
 11
31.9402
 21
12.9308
 31
0.0000
 6
CONTINUOUS
 0
LINE
 8
WHITE
 10
31.9402
 20
12.9308
 30
0.0000
 11
32.0929
 21
12.9878
 31
0.0000
 6
CONTINUOUS
 0
LINE
 8
WHITE
 10
32.0929
 20
12.9878
 30
0.0000
 11
32.3974
 21
13.1591
 31
0.0000
 6
CONTINUOUS
 0
LINE
 8
WHITE
 10
32.3974
 20
13.1591
 30
0.0000
 11
32.5117
 21
13.2833
 31
0.0000
 6
CONTINUOUS
 0
LINE
 8
WHITE
 10
32.5117
 20
13.2833
 30
0.0000
 11
32.5688
 21
13.4738
 31
0.0000
 6
CONTINUOUS
 0
LINE
 8
WHITE
 10
33.1121
 20
16.6279
 30
0.0000
 11
32.9786
 21
16.3133
 31
0.0000
 6
CONTINUOUS
 0
LINE
 8
WHITE
 10
32.9786
 20
16.3133
 30
0.0000
 11
32.8834
 21
15.9701
 31
0.0000
 6
CONTINUOUS
 0
LINE
 8
WHITE
 10
32.8834
 20
15.9701
 30
0.0000
 11
32.8549
 21
15.2269
 31
0.0000
 6
CONTINUOUS
 0
LINE
 8
WHITE
 10
32.8549
 20
15.2269
 30
0.0000
 11
32.9216
 21
14.865
 31
0.0000
 6
CONTINUOUS
 0
LINE
 8
WHITE
 10
32.9216
 20
14.865
 30
0.0000
 11
33.036
 21
14.541
 31
0.0000
 6
CONTINUOUS
 0
LINE
 8
WHITE
 10
33.036
 20
14.541
 30
0.0000
 11
33.2265
 21
14.2455
 31
0.0000
 6
CONTINUOUS
 0
LINE
 8
WHITE
 10
33.2265
 20
14.2455
 30
0.0000
 11
33.474
 21
14.0168
 31
0.0000
 6
CONTINUOUS
 0
LINE
 8
WHITE
 10
33.474
 20
14.0168
 30
0.0000
 11
33.8456
 21
13.836
 31
0.0000
 6
CONTINUOUS
 0
LINE
 8
WHITE
 10
33.8456
 20
13.836
 30
0.0000
 11
34.1696
 21
13.8071
 31
0.0000
 6
CONTINUOUS
 0
LINE
 8
WHITE
 10
34.1696
 20
13.8071
 30
0.0000
 11
34.4651
 21
13.9215
 31
0.0000
 6
CONTINUOUS
 0
LINE
 8
WHITE
 10
34.4651
 20
13.9215
 30
0.0000
 11
34.7224
 21
14.1409
 31
0.0000
 6
CONTINUOUS
 0
LINE
 8
WHITE
 10
34.7224
 20
14.1409
 30
0.0000
 11
34.932
 21
14.436
 31
0.0000
 6
CONTINUOUS
 0
LINE
 8
WHITE
 10
34.932
 20
14.436
 30
0.0000
 11
35.1037
 21
14.7889
 31
0.0000
 6
CONTINUOUS
 0
LINE
 8
WHITE
 10
35.1037
 20
14.7889
 30
0.0000
 11
35.3227
 21
15.5321
 31
0.0000
 6
CONTINUOUS
 0
LINE
 8
WHITE
 10
35.3227
 20
15.5321
 30
0.0000
 11
35.5039
 21
16.1134
 31
0.0000
 6
CONTINUOUS
 0
LINE
 8
WHITE
 10
35.5039
 20
16.1134
 30
0.0000
 11
35.5132
 21
16.4561
 31
0.0000
 6
CONTINUOUS
 0
LINE
 8
WHITE
 10
34.6113
 20
17.7528
 30
0.0000
 11
34.7798
 21
17.0471
 31
0.0000
 6
CONTINUOUS
 0
LINE
 8
WHITE
 10
34.7798
 20
17.0471
 30
0.0000
 11
34.9226
 21
16.6849
 31
0.0000
 6
CONTINUOUS
 0
LINE
 8
WHITE
 10
34.9226
 20
16.6849
 30
0.0000
 11
35.1225
 21
16.4944
 31
0.0000
 6
CONTINUOUS
 0
LINE
 8
WHITE
 10
35.1225
 20
16.4944
 30
0.0000
 11
35.361
 21
16.4468
 31
0.0000
 6
CONTINUOUS
 0
LINE
 8
WHITE
 10
35.361
 20
16.4468
 30
0.0000
 11
35.6085
 21
16.5135
 31
0.0000
 6
CONTINUOUS
 0
LINE
 8
WHITE
 10
35.6085
 20
16.5135
 30
0.0000
 11
35.8755
 21
16.6657
 31
0.0000
 6
CONTINUOUS
 0
LINE
 8
WHITE
 10
35.8755
 20
16.6657
 30
0.0000
 11
36.123
 21
16.8754
 31
0.0000
 6
CONTINUOUS
 0
LINE
 8
WHITE
 10
36.123
 20
16.8754
 30
0.0000
 11
36.5329
 21
17.3805
 31
0.0000
 6
CONTINUOUS
 0
LINE
 8
WHITE
 10
36.5329
 20
17.3805
 30
0.0000
 11
36.6855
 21
17.7139
 31
0.0000
 6
CONTINUOUS
 0
LINE
 8
WHITE
 10
36.6855
 20
17.7139
 30
0.0000
 11
36.7519
 21
18.0667
 31
0.0000
 6
CONTINUOUS
 0
LINE
 8
WHITE
 10
36.7519
 20
18.0667
 30
0.0000
 11
36.7519
 21
18.867
 31
0.0000
 6
CONTINUOUS
 0
LINE
 8
WHITE
 10
36.7519
 20
18.867
 30
0.0000
 11
36.6855
 21
19.6579
 31
0.0000
 6
CONTINUOUS
 0
LINE
 8
WHITE
 10
36.6855
 20
19.6579
 30
0.0000
 11
36.6281
 21
20.058
 31
0.0000
 6
CONTINUOUS
 0
LINE
 8
WHITE
 10
36.6281
 20
20.058
 30
0.0000
 11
36.4946
 21
20.4296
 31
0.0000
 6
CONTINUOUS
 0
LINE
 8
WHITE
 10
36.4946
 20
20.4296
 30
0.0000
 11
36.3041
 21
20.7443
 31
0.0000
 6
CONTINUOUS
 0
LINE
 8
WHITE
 10
36.3041
 20
20.7443
 30
0.0000
 11
36.0754
 21
20.9921
 31
0.0000
 6
CONTINUOUS
 0
LINE
 8
WHITE
 10
36.0754
 20
20.9921
 30
0.0000
 11
35.8088
 21
21.1444
 31
0.0000
 6
CONTINUOUS
 0
LINE
 8
WHITE
 10
35.8088
 20
21.1444
 30
0.0000
 11
35.5324
 21
21.1729
 31
0.0000
 6
CONTINUOUS
 0
LINE
 8
WHITE
 10
35.5324
 20
21.1729
 30
0.0000
 11
35.2466
 21
21.0682
 31
0.0000
 6
CONTINUOUS
 0
LINE
 8
WHITE
 10
35.2466
 20
21.0682
 30
0.0000
 11
34.9605
 21
20.8013
 31
0.0000
 6
CONTINUOUS
 0
LINE
 8
WHITE
 10
34.9605
 20
20.8013
 30
0.0000
 11
34.6939
 21
20.3917
 31
0.0000
 6
CONTINUOUS
 0
LINE
 8
WHITE
 10
34.6939
 20
20.3917
 30
0.0000
 11
34.5221
 21
19.9628
 31
0.0000
 6
CONTINUOUS
 0
LINE
 8
WHITE
 10
34.5221
 20
19.9628
 30
0.0000
 11
34.4366
 21
19.515
 31
0.0000
 6
CONTINUOUS
 0
LINE
 8
WHITE
 10
34.4366
 20
19.515
 30
0.0000
 11
34.4175
 21
19.0481
 31
0.0000
 6
CONTINUOUS
 0
LINE
 8
WHITE
 10
34.8083
 20
14.322
 30
0.0000
 11
34.6463
 21
14.1218
 31
0.0000
 6
CONTINUOUS
 0
LINE
 8
WHITE
 10
34.6463
 20
14.1218
 30
0.0000
 11
34.4558
 21
13.9789
 31
0.0000
 6
CONTINUOUS
 0
LINE
 8
WHITE
 10
34.4558
 20
13.9789
 30
0.0000
 11
34.2364
 21
13.8836
 31
0.0000
 6
CONTINUOUS
 0
LINE
 8
WHITE
 10
34.2364
 20
13.8836
 30
0.0000
 11
34.0076
 21
13.8454
 31
0.0000
 6
CONTINUOUS
 0
LINE
 8
WHITE
 10
34.0076
 20
13.8454
 30
0.0000
 11
33.5692
 21
13.9313
 31
0.0000
 6
CONTINUOUS
 0
LINE
 8
WHITE
 10
33.5692
 20
13.9313
 30
0.0000
 11
33.3979
 21
14.055
 31
0.0000
 6
CONTINUOUS
 0
LINE
 8
WHITE
 10
33.3979
 20
14.055
 30
0.0000
 11
33.2644
 21
14.2264
 31
0.0000
 6
CONTINUOUS
 0
LINE
 8
WHITE
 10
33.2644
 20
14.2264
 30
0.0000
 11
33.3885
 21
13.9883
 31
0.0000
 6
CONTINUOUS
 0
LINE
 8
WHITE
 10
33.3885
 20
13.9883
 30
0.0000
 11
33.5599
 21
13.7884
 31
0.0000
 6
CONTINUOUS
 0
LINE
 8
WHITE
 10
33.5599
 20
13.7884
 30
0.0000
 11
33.8269
 21
13.6166
 31
0.0000
 6
CONTINUOUS
 0
LINE
 8
WHITE
 10
33.8269
 20
13.6166
 30
0.0000
 11
34.2079
 21
13.4738
 31
0.0000
 6
CONTINUOUS
 0
LINE
 8
WHITE
 10
34.2079
 20
13.4738
 30
0.0000
 11
34.3792
 21
13.5214
 31
0.0000
 6
CONTINUOUS
 0
LINE
 8
WHITE
 10
34.3792
 20
13.5214
 30
0.0000
 11
34.5889
 21
13.7119
 31
0.0000
 6
CONTINUOUS
 0
LINE
 8
WHITE
 10
34.5889
 20
13.7119
 30
0.0000
 11
34.7509
 21
13.998
 31
0.0000
 6
CONTINUOUS
 0
LINE
 8
WHITE
 10
34.7509
 20
13.998
 30
0.0000
 11
34.8083
 21
14.322
 31
0.0000
 6
CONTINUOUS
 0
LINE
 8
WHITE
 10
36.5898
 20
17.5047
 30
0.0000
 11
36.7807
 21
17.3137
 31
0.0000
 6
CONTINUOUS
 0
LINE
 8
WHITE
 10
36.7807
 20
17.3137
 30
0.0000
 11
36.9615
 21
17.0089
 31
0.0000
 6
CONTINUOUS
 0
LINE
 8
WHITE
 10
36.9615
 20
17.0089
 30
0.0000
 11
37.0665
 21
16.6564
 31
0.0000
 6
CONTINUOUS
 0
LINE
 8
WHITE
 10
37.0665
 20
16.6564
 30
0.0000
 11
37.1048
 21
16.2847
 31
0.0000
 6
CONTINUOUS
 0
LINE
 8
WHITE
 10
37.1048
 20
16.2847
 30
0.0000
 11
37.0665
 21
15.9038
 31
0.0000
 6
CONTINUOUS
 0
LINE
 8
WHITE
 10
37.0665
 20
15.9038
 30
0.0000
 11
36.9712
 21
15.5224
 31
0.0000
 6
CONTINUOUS
 0
LINE
 8
WHITE
 10
36.9712
 20
15.5224
 30
0.0000
 11
36.8186
 21
15.1793
 31
0.0000
 6
CONTINUOUS
 0
LINE
 8
WHITE
 10
36.8186
 20
15.1793
 30
0.0000
 11
36.5996
 21
14.865
 31
0.0000
 6
CONTINUOUS
 0
LINE
 8
WHITE
 10
36.5996
 20
14.865
 30
0.0000
 11
36.3802
 21
14.6839
 31
0.0000
 6
CONTINUOUS
 0
LINE
 8
WHITE
 10
36.3802
 20
14.6839
 30
0.0000
 11
36.1706
 21
14.6171
 31
0.0000
 6
CONTINUOUS
 0
LINE
 8
WHITE
 10
36.1706
 20
14.6171
 30
0.0000
 11
35.6561
 21
14.6839
 31
0.0000
 6
CONTINUOUS
 0
LINE
 8
WHITE
 10
35.6561
 20
14.6839
 30
0.0000
 11
35.418
 21
14.7889
 31
0.0000
 6
CONTINUOUS
 0
LINE
 8
WHITE
 10
35.418
 20
14.7889
 30
0.0000
 11
35.2178
 21
14.9603
 31
0.0000
 6
CONTINUOUS
 0
LINE
 8
WHITE
 10
35.2178
 20
14.9603
 30
0.0000
 11
35.171
 21
15.0172
 31
0.0000
 6
CONTINUOUS
 0
LINE
 8
WHITE
 10
36.7234
 20
15.0461
 30
0.0000
 11
36.447
 21
14.8365
 31
0.0000
 6
CONTINUOUS
 0
LINE
 8
WHITE
 10
36.447
 20
14.8365
 30
0.0000
 11
36.1136
 21
14.7315
 31
0.0000
 6
CONTINUOUS
 0
LINE
 8
WHITE
 10
36.1136
 20
14.7315
 30
0.0000
 11
35.7514
 21
14.7315
 31
0.0000
 6
CONTINUOUS
 0
LINE
 8
WHITE
 10
35.7514
 20
14.7315
 30
0.0000
 11
35.418
 21
14.8076
 31
0.0000
 6
CONTINUOUS
 0
LINE
 8
WHITE
 10
35.418
 20
14.8076
 30
0.0000
 11
35.8849
 21
14.4649
 31
0.0000
 6
CONTINUOUS
 0
LINE
 8
WHITE
 10
35.8849
 20
14.4649
 30
0.0000
 11
36.1328
 21
14.3884
 31
0.0000
 6
CONTINUOUS
 0
LINE
 8
WHITE
 10
36.1328
 20
14.3884
 30
0.0000
 11
36.2565
 21
14.4172
 31
0.0000
 6
CONTINUOUS
 0
LINE
 8
WHITE
 10
36.2565
 20
14.4172
 30
0.0000
 11
36.39
 21
14.5028
 31
0.0000
 6
CONTINUOUS
 0
LINE
 8
WHITE
 10
36.39
 20
14.5028
 30
0.0000
 11
36.609
 21
14.7413
 31
0.0000
 6
CONTINUOUS
 0
LINE
 8
WHITE
 10
36.609
 20
14.7413
 30
0.0000
 11
36.6855
 21
14.8841
 31
0.0000
 6
CONTINUOUS
 0
LINE
 8
WHITE
 10
36.6855
 20
14.8841
 30
0.0000
 11
36.7234
 21
15.0461
 31
0.0000
 6
CONTINUOUS
 0
LINE
 8
WHITE
 10
36.8378
 20
17.409
 30
0.0000
 11
37.0856
 21
17.1806
 31
0.0000
 6
CONTINUOUS
 0
LINE
 8
WHITE
 10
37.0856
 20
17.1806
 30
0.0000
 11
37.3237
 21
17.0374
 31
0.0000
 6
CONTINUOUS
 0
LINE
 8
WHITE
 10
37.3237
 20
17.0374
 30
0.0000
 11
37.5525
 21
16.9804
 31
0.0000
 6
CONTINUOUS
 0
LINE
 8
WHITE
 10
37.5525
 20
16.9804
 30
0.0000
 11
37.7621
 21
16.9898
 31
0.0000
 6
CONTINUOUS
 0
LINE
 8
WHITE
 10
37.7621
 20
16.9898
 30
0.0000
 11
37.9624
 21
17.0756
 31
0.0000
 6
CONTINUOUS
 0
LINE
 8
WHITE
 10
37.9624
 20
17.0756
 30
0.0000
 11
38.1337
 21
17.2185
 31
0.0000
 6
CONTINUOUS
 0
LINE
 8
WHITE
 10
38.1337
 20
17.2185
 30
0.0000
 11
38.4195
 21
17.6854
 31
0.0000
 6
CONTINUOUS
 0
LINE
 8
WHITE
 10
38.4195
 20
17.6854
 30
0.0000
 11
38.6006
 21
18.4193
 31
0.0000
 6
CONTINUOUS
 0
LINE
 8
WHITE
 10
38.6006
 20
18.4193
 30
0.0000
 11
38.6006
 21
19.2195
 31
0.0000
 6
CONTINUOUS
 0
LINE
 8
WHITE
 10
38.6006
 20
19.2195
 30
0.0000
 11
38.4293
 21
20.0104
 31
0.0000
 6
CONTINUOUS
 0
LINE
 8
WHITE
 10
38.4293
 20
20.0104
 30
0.0000
 11
38.2766
 21
20.3917
 31
0.0000
 6
CONTINUOUS
 0
LINE
 8
WHITE
 10
38.2766
 20
20.3917
 30
0.0000
 11
38.0861
 21
20.7443
 31
0.0000
 6
CONTINUOUS
 0
LINE
 8
WHITE
 10
38.0861
 20
20.7443
 30
0.0000
 11
37.8098
 21
21.0109
 31
0.0000
 6
CONTINUOUS
 0
LINE
 8
WHITE
 10
37.8098
 20
21.0109
 30
0.0000
 11
37.4475
 21
21.135
 31
0.0000
 6
CONTINUOUS
 0
LINE
 8
WHITE
 10
37.4475
 20
21.135
 30
0.0000
 11
37.095
 21
21.1159
 31
0.0000
 6
CONTINUOUS
 0
LINE
 8
WHITE
 10
37.095
 20
21.1159
 30
0.0000
 11
36.9521
 21
21.03
 31
0.0000
 6
CONTINUOUS
 0
LINE
 8
WHITE
 10
36.9521
 20
21.03
 30
0.0000
 11
36.8378
 21
20.8965
 31
0.0000
 6
CONTINUOUS
 0
LINE
 8
WHITE
 10
36.8378
 20
20.8965
 30
0.0000
 11
36.6758
 21
20.6014
 31
0.0000
 6
CONTINUOUS
 0
LINE
 8
WHITE
 10
36.6758
 20
20.6014
 30
0.0000
 11
36.5614
 21
20.2965
 31
0.0000
 6
CONTINUOUS
 0
LINE
 8
WHITE
 10
33.9889
 20
20.325
 30
0.0000
 11
33.8839
 21
20.5061
 31
0.0000
 6
CONTINUOUS
 0
LINE
 8
WHITE
 10
33.8839
 20
20.5061
 30
0.0000
 11
33.8077
 21
20.7821
 31
0.0000
 6
CONTINUOUS
 0
LINE
 8
WHITE
 10
33.8077
 20
20.7821
 30
0.0000
 11
33.7125
 21
21.0585
 31
0.0000
 6
CONTINUOUS
 0
LINE
 8
WHITE
 10
33.7125
 20
21.0585
 30
0.0000
 11
33.5408
 21
21.2303
 31
0.0000
 6
CONTINUOUS
 0
LINE
 8
WHITE
 10
33.5408
 20
21.2303
 30
0.0000
 11
33.2265
 21
21.3158
 31
0.0000
 6
CONTINUOUS
 0
LINE
 8
WHITE
 10
33.2265
 20
21.3158
 30
0.0000
 11
32.931
 21
21.3158
 31
0.0000
 6
CONTINUOUS
 0
LINE
 8
WHITE
 10
32.931
 20
21.3158
 30
0.0000
 11
32.6644
 21
21.2396
 31
0.0000
 6
CONTINUOUS
 0
LINE
 8
WHITE
 10
32.6644
 20
21.2396
 30
0.0000
 11
32.4356
 21
21.0874
 31
0.0000
 6
CONTINUOUS
 0
LINE
 8
WHITE
 10
32.4356
 20
21.0874
 30
0.0000
 11
32.2545
 21
20.8871
 31
0.0000
 6
CONTINUOUS
 0
LINE
 8
WHITE
 10
32.2545
 20
20.8871
 30
0.0000
 11
32.1405
 21
20.6299
 31
0.0000
 6
CONTINUOUS
 0
LINE
 8
WHITE
 10
32.1405
 20
20.6299
 30
0.0000
 11
32.0737
 21
20.3344
 31
0.0000
 6
CONTINUOUS
 0
LINE
 8
WHITE
 10
32.0737
 20
20.3344
 30
0.0000
 11
32.0929
 21
20.0201
 31
0.0000
 6
CONTINUOUS
 0
LINE
 8
WHITE
 10
32.0929
 20
20.0201
 30
0.0000
 11
32.2264
 21
20.3535
 31
0.0000
 6
CONTINUOUS
 0
LINE
 8
WHITE
 10
32.2264
 20
20.3535
 30
0.0000
 11
32.4165
 21
20.649
 31
0.0000
 6
CONTINUOUS
 0
LINE
 8
WHITE
 10
32.4165
 20
20.649
 30
0.0000
 11
32.6644
 21
20.8871
 31
0.0000
 6
CONTINUOUS
 0
LINE
 8
WHITE
 10
32.6644
 20
20.8871
 30
0.0000
 11
32.988
 21
21.0491
 31
0.0000
 6
CONTINUOUS
 0
LINE
 8
WHITE
 10
32.988
 20
21.0491
 30
0.0000
 11
33.312
 21
21.0585
 31
0.0000
 6
CONTINUOUS
 0
LINE
 8
WHITE
 10
33.312
 20
21.0585
 30
0.0000
 11
33.6172
 21
20.9156
 31
0.0000
 6
CONTINUOUS
 0
LINE
 8
WHITE
 10
33.6172
 20
20.9156
 30
0.0000
 11
33.8554
 21
20.6584
 31
0.0000
 6
CONTINUOUS
 0
LINE
 8
WHITE
 10
33.8554
 20
20.6584
 30
0.0000
 11
33.9889
 21
20.325
 31
0.0000
 6
CONTINUOUS
 0
LINE
 8
WHITE
 10
36.3233
 20
20.6869
 30
0.0000
 11
36.285
 21
20.9254
 31
0.0000
 6
CONTINUOUS
 0
LINE
 8
WHITE
 10
36.285
 20
20.9254
 30
0.0000
 11
36.1804
 21
21.1253
 31
0.0000
 6
CONTINUOUS
 0
LINE
 8
WHITE
 10
36.1804
 20
21.1253
 30
0.0000
 11
36.0375
 21
21.2681
 31
0.0000
 6
CONTINUOUS
 0
LINE
 8
WHITE
 10
36.0375
 20
21.2681
 30
0.0000
 11
35.8564
 21
21.3731
 31
0.0000
 6
CONTINUOUS
 0
LINE
 8
WHITE
 10
35.8564
 20
21.3731
 30
0.0000
 11
35.4371
 21
21.4684
 31
0.0000
 6
CONTINUOUS
 0
LINE
 8
WHITE
 10
35.4371
 20
21.4684
 30
0.0000
 11
35.0179
 21
21.4399
 31
0.0000
 6
CONTINUOUS
 0
LINE
 8
WHITE
 10
35.0179
 20
21.4399
 30
0.0000
 11
34.8461
 21
21.3825
 31
0.0000
 6
CONTINUOUS
 0
LINE
 8
WHITE
 10
34.8461
 20
21.3825
 30
0.0000
 11
34.7321
 21
21.2779
 31
0.0000
 6
CONTINUOUS
 0
LINE
 8
WHITE
 10
34.7321
 20
21.2779
 30
0.0000
 11
34.6271
 21
20.9632
 31
0.0000
 6
CONTINUOUS
 0
LINE
 8
WHITE
 10
34.6271
 20
20.9632
 30
0.0000
 11
34.5986
 21
20.2297
 31
0.0000
 6
CONTINUOUS
 0
LINE
 8
WHITE
 10
34.5986
 20
20.2297
 30
0.0000
 11
34.8176
 21
20.6299
 31
0.0000
 6
CONTINUOUS
 0
LINE
 8
WHITE
 10
34.8176
 20
20.6299
 30
0.0000
 11
35.1225
 21
20.9539
 31
0.0000
 6
CONTINUOUS
 0
LINE
 8
WHITE
 10
35.1225
 20
20.9539
 30
0.0000
 11
35.4465
 21
21.1444
 31
0.0000
 6
CONTINUOUS
 0
LINE
 8
WHITE
 10
35.4465
 20
21.1444
 30
0.0000
 11
35.7229
 21
21.1729
 31
0.0000
 6
CONTINUOUS
 0
LINE
 8
WHITE
 10
35.7229
 20
21.1729
 30
0.0000
 11
36.0945
 21
20.9539
 31
0.0000
 6
CONTINUOUS
 0
LINE
 8
WHITE
 10
36.0945
 20
20.9539
 30
0.0000
 11
36.3233
 21
20.6869
 31
0.0000
 6
CONTINUOUS
 0
LINE
 8
WHITE
 10
31.2446
 20
20.6869
 30
0.0000
 11
31.14
 21
21.0874
 31
0.0000
 6
CONTINUOUS
 0
LINE
 8
WHITE
 10
31.14
 20
21.0874
 30
0.0000
 11
30.9686
 21
21.3731
 31
0.0000
 6
CONTINUOUS
 0
LINE
 8
WHITE
 10
30.9686
 20
21.3731
 30
0.0000
 11
30.711
 21
21.5543
 31
0.0000
 6
CONTINUOUS
 0
LINE
 8
WHITE
 10
30.711
 20
21.5543
 30
0.0000
 11
30.3397
 21
21.621
 31
0.0000
 6
CONTINUOUS
 0
LINE
 8
WHITE
 10
30.3397
 20
21.621
 30
0.0000
 11
29.844
 21
21.621
 31
0.0000
 6
CONTINUOUS
 0
LINE
 8
WHITE
 10
29.844
 20
21.621
 30
0.0000
 11
29.2436
 21
21.516
 31
0.0000
 6
CONTINUOUS
 0
LINE
 8
WHITE
 10
29.2436
 20
21.516
 30
0.0000
 11
28.9673
 21
21.3731
 31
0.0000
 6
CONTINUOUS
 0
LINE
 8
WHITE
 10
28.9673
 20
21.3731
 30
0.0000
 11
28.7482
 21
21.1537
 31
0.0000
 6
CONTINUOUS
 0
LINE
 8
WHITE
 10
28.7482
 20
21.1537
 30
0.0000
 11
28.6054
 21
20.8301
 31
0.0000
 6
CONTINUOUS
 0
LINE
 8
WHITE
 10
28.6054
 20
20.8301
 30
0.0000
 11
28.5769
 21
20.382
 31
0.0000
 6
CONTINUOUS
 0
LINE
 8
WHITE
 10
28.5769
 20
20.382
 30
0.0000
 11
28.7865
 21
20.6775
 31
0.0000
 6
CONTINUOUS
 0
LINE
 8
WHITE
 10
28.7865
 20
20.6775
 30
0.0000
 11
29.0531
 21
20.9254
 31
0.0000
 6
CONTINUOUS
 0
LINE
 8
WHITE
 10
29.0531
 20
20.9254
 30
0.0000
 11
29.3486
 21
21.1253
 31
0.0000
 6
CONTINUOUS
 0
LINE
 8
WHITE
 10
29.3486
 20
21.1253
 30
0.0000
 11
29.6726
 21
21.2587
 31
0.0000
 6
CONTINUOUS
 0
LINE
 8
WHITE
 10
29.6726
 20
21.2587
 30
0.0000
 11
30.006
 21
21.3158
 31
0.0000
 6
CONTINUOUS
 0
LINE
 8
WHITE
 10
30.006
 20
21.3158
 30
0.0000
 11
30.3491
 21
21.3064
 31
0.0000
 6
CONTINUOUS
 0
LINE
 8
WHITE
 10
30.3491
 20
21.3064
 30
0.0000
 11
30.6731
 21
21.2111
 31
0.0000
 6
CONTINUOUS
 0
LINE
 8
WHITE
 10
30.6731
 20
21.2111
 30
0.0000
 11
30.9686
 21
21.0206
 31
0.0000
 6
CONTINUOUS
 0
LINE
 8
WHITE
 10
30.9686
 20
21.0206
 30
0.0000
 11
31.2446
 21
20.6869
 31
0.0000
 6
CONTINUOUS
 0
LINE
 8
WHITE
 10
34.4175
 20
21.621
 30
0.0000
 11
34.4745
 21
21.2873
 31
0.0000
 6
CONTINUOUS
 0
LINE
 8
WHITE
 10
33.8363
 20
22.2593
 30
0.0000
 11
33.8839
 21
22.0781
 31
0.0000
 6
CONTINUOUS
 0
LINE
 8
WHITE
 10
33.8839
 20
22.0781
 30
0.0000
 11
33.9315
 21
21.9259
 31
0.0000
 6
CONTINUOUS
 0
LINE
 8
WHITE
 10
35.5706
 20
24.6893
 30
0.0000
 11
35.8181
 21
23.5837
 31
0.0000
 6
CONTINUOUS
 0
LINE
 8
WHITE
 10
35.8181
 20
23.5837
 30
0.0000
 11
35.9423
 21
23.0501
 31
0.0000
 6
CONTINUOUS
 0
LINE
 8
WHITE
 10
35.9423
 20
23.0501
 30
0.0000
 11
36.1706
 21
22.5071
 31
0.0000
 6
CONTINUOUS
 0
LINE
 8
WHITE
 10
36.1706
 20
22.5071
 30
0.0000
 11
36.3994
 21
21.897
 31
0.0000
 6
CONTINUOUS
 0
LINE
 8
WHITE
 10
36.3994
 20
21.897
 30
0.0000
 11
36.4568
 21
21.5734
 31
0.0000
 6
CONTINUOUS
 0
LINE
 8
WHITE
 10
36.4568
 20
21.5734
 30
0.0000
 11
36.447
 21
21.2587
 31
0.0000
 6
CONTINUOUS
 0
LINE
 8
WHITE
 10
30.5779
 20
24.6893
 30
0.0000
 11
30.6825
 21
24.2888
 31
0.0000
 6
CONTINUOUS
 0
LINE
 8
WHITE
 10
30.6825
 20
24.2888
 30
0.0000
 11
30.8351
 21
23.9171
 31
0.0000
 6
CONTINUOUS
 0
LINE
 8
WHITE
 10
30.8351
 20
23.9171
 30
0.0000
 11
31.1782
 21
23.193
 31
0.0000
 6
CONTINUOUS
 0
LINE
 8
WHITE
 10
31.1782
 20
23.193
 30
0.0000
 11
31.4734
 21
22.4595
 31
0.0000
 6
CONTINUOUS
 0
LINE
 8
WHITE
 10
31.4734
 20
22.4595
 30
0.0000
 11
31.5592
 21
22.0688
 31
0.0000
 6
CONTINUOUS
 0
LINE
 8
WHITE
 10
31.5592
 20
22.0688
 30
0.0000
 11
31.5784
 21
21.6589
 31
0.0000
 6
CONTINUOUS
 0
LINE
 8
WHITE
 10
25.2131
 20
20.7443
 30
0.0000
 11
25.461
 21
21.0776
 31
0.0000
 6
CONTINUOUS
 0
LINE
 8
WHITE
 10
25.461
 20
21.0776
 30
0.0000
 11
25.7659
 21
21.2681
 31
0.0000
 6
CONTINUOUS
 0
LINE
 8
WHITE
 10
25.7659
 20
21.2681
 30
0.0000
 11
26.0993
 21
21.3731
 31
0.0000
 6
CONTINUOUS
 0
LINE
 8
WHITE
 10
26.0993
 20
21.3731
 30
0.0000
 11
26.4326
 21
21.3923
 31
0.0000
 6
CONTINUOUS
 0
LINE
 8
WHITE
 10
26.4326
 20
21.3923
 30
0.0000
 11
26.7664
 21
21.3349
 31
0.0000
 6
CONTINUOUS
 0
LINE
 8
WHITE
 10
26.7664
 20
21.3349
 30
0.0000
 11
27.0998
 21
21.2018
 31
0.0000
 6
CONTINUOUS
 0
LINE
 8
WHITE
 10
27.0998
 20
21.2018
 30
0.0000
 11
27.3953
 21
21.0109
 31
0.0000
 6
CONTINUOUS
 0
LINE
 8
WHITE
 10
27.3953
 20
21.0109
 30
0.0000
 11
27.6619
 21
20.7727
 31
0.0000
 6
CONTINUOUS
 0
LINE
 8
WHITE
 10
27.6619
 20
20.7727
 30
0.0000
 11
27.8813
 21
20.4679
 31
0.0000
 6
CONTINUOUS
 0
LINE
 8
WHITE
 10
27.8813
 20
20.4679
 30
0.0000
 11
27.843
 21
20.9063
 31
0.0000
 6
CONTINUOUS
 0
LINE
 8
WHITE
 10
27.843
 20
20.9063
 30
0.0000
 11
27.7001
 21
21.2205
 31
0.0000
 6
CONTINUOUS
 0
LINE
 8
WHITE
 10
27.7001
 20
21.2205
 30
0.0000
 11
27.4811
 21
21.4399
 31
0.0000
 6
CONTINUOUS
 0
LINE
 8
WHITE
 10
27.4811
 20
21.4399
 30
0.0000
 11
27.2048
 21
21.5828
 31
0.0000
 6
CONTINUOUS
 0
LINE
 8
WHITE
 10
27.2048
 20
21.5828
 30
0.0000
 11
26.6138
 21
21.678
 31
0.0000
 6
CONTINUOUS
 0
LINE
 8
WHITE
 10
26.6138
 20
21.678
 30
0.0000
 11
26.1277
 21
21.6874
 31
0.0000
 6
CONTINUOUS
 0
LINE
 8
WHITE
 10
26.1277
 20
21.6874
 30
0.0000
 11
25.7467
 21
21.621
 31
0.0000
 6
CONTINUOUS
 0
LINE
 8
WHITE
 10
25.7467
 20
21.621
 30
0.0000
 11
25.4797
 21
21.4399
 31
0.0000
 6
CONTINUOUS
 0
LINE
 8
WHITE
 10
25.4797
 20
21.4399
 30
0.0000
 11
25.299
 21
21.1444
 31
0.0000
 6
CONTINUOUS
 0
LINE
 8
WHITE
 10
25.299
 20
21.1444
 30
0.0000
 11
25.2131
 21
20.7443
 31
0.0000
 6
CONTINUOUS
 0
LINE
 8
WHITE
 10
24.1552
 20
20.2868
 30
0.0000
 11
24.6701
 21
20.0771
 31
0.0000
 6
CONTINUOUS
 0
LINE
 8
WHITE
 10
22.4306
 20
20.4105
 30
0.0000
 11
22.5641
 21
20.7251
 31
0.0000
 6
CONTINUOUS
 0
LINE
 8
WHITE
 10
22.5641
 20
20.7251
 30
0.0000
 11
22.812
 21
20.973
 31
0.0000
 6
CONTINUOUS
 0
LINE
 8
WHITE
 10
22.812
 20
20.973
 30
0.0000
 11
23.1262
 21
21.1159
 31
0.0000
 6
CONTINUOUS
 0
LINE
 8
WHITE
 10
23.1262
 20
21.1159
 30
0.0000
 11
23.4596
 21
21.1061
 31
0.0000
 6
CONTINUOUS
 0
LINE
 8
WHITE
 10
23.4596
 20
21.1061
 30
0.0000
 11
23.7836
 21
20.9632
 31
0.0000
 6
CONTINUOUS
 0
LINE
 8
WHITE
 10
23.7836
 20
20.9632
 30
0.0000
 11
24.0315
 21
20.7345
 31
0.0000
 6
CONTINUOUS
 0
LINE
 8
WHITE
 10
24.0315
 20
20.7345
 30
0.0000
 11
24.2318
 21
20.4296
 31
0.0000
 6
CONTINUOUS
 0
LINE
 8
WHITE
 10
24.2318
 20
20.4296
 30
0.0000
 11
24.3649
 21
20.0771
 31
0.0000
 6
CONTINUOUS
 0
LINE
 8
WHITE
 10
24.3649
 20
20.0771
 30
0.0000
 11
24.384
 21
20.4011
 31
0.0000
 6
CONTINUOUS
 0
LINE
 8
WHITE
 10
24.384
 20
20.4011
 30
0.0000
 11
24.3173
 21
20.6966
 31
0.0000
 6
CONTINUOUS
 0
LINE
 8
WHITE
 10
24.3173
 20
20.6966
 30
0.0000
 11
24.1841
 21
20.9539
 31
0.0000
 6
CONTINUOUS
 0
LINE
 8
WHITE
 10
24.1841
 20
20.9539
 30
0.0000
 11
24.003
 21
21.1635
 31
0.0000
 6
CONTINUOUS
 0
LINE
 8
WHITE
 10
24.003
 20
21.1635
 30
0.0000
 11
23.7742
 21
21.3158
 31
0.0000
 6
CONTINUOUS
 0
LINE
 8
WHITE
 10
23.7742
 20
21.3158
 30
0.0000
 11
23.5076
 21
21.3923
 31
0.0000
 6
CONTINUOUS
 0
LINE
 8
WHITE
 10
23.5076
 20
21.3923
 30
0.0000
 11
23.2121
 21
21.3923
 31
0.0000
 6
CONTINUOUS
 0
LINE
 8
WHITE
 10
23.2121
 20
21.3923
 30
0.0000
 11
22.9073
 21
21.2873
 31
0.0000
 6
CONTINUOUS
 0
LINE
 8
WHITE
 10
22.9073
 20
21.2873
 30
0.0000
 11
22.7355
 21
21.1253
 31
0.0000
 6
CONTINUOUS
 0
LINE
 8
WHITE
 10
22.7355
 20
21.1253
 30
0.0000
 11
22.6309
 21
20.8586
 31
0.0000
 6
CONTINUOUS
 0
LINE
 8
WHITE
 10
22.6309
 20
20.8586
 30
0.0000
 11
22.545
 21
20.5916
 31
0.0000
 6
CONTINUOUS
 0
LINE
 8
WHITE
 10
22.545
 20
20.5916
 30
0.0000
 11
22.4306
 21
20.4105
 31
0.0000
 6
CONTINUOUS
 0
LINE
 8
WHITE
 10
22.0305
 20
21.7162
 30
0.0000
 11
21.9829
 21
21.5351
 31
0.0000
 6
CONTINUOUS
 0
LINE
 8
WHITE
 10
21.9829
 20
21.5351
 30
0.0000
 11
21.9446
 21
21.354
 31
0.0000
 6
CONTINUOUS
 0
LINE
 8
WHITE
 10
21.7924
 20
20.1915
 30
0.0000
 11
22.0972
 21
20.1056
 31
0.0000
 6
CONTINUOUS
 0
LINE
 8
WHITE
 10
22.0972
 20
20.1056
 30
0.0000
 11
22.3639
 21
20.2009
 31
0.0000
 6
CONTINUOUS
 0
LINE
 8
WHITE
 10
20.8489
 20
24.7463
 30
0.0000
 11
20.5916
 21
23.6505
 31
0.0000
 6
CONTINUOUS
 0
LINE
 8
WHITE
 10
20.5916
 20
23.6505
 30
0.0000
 11
20.4581
 21
23.1262
 31
0.0000
 6
CONTINUOUS
 0
LINE
 8
WHITE
 10
20.4581
 20
23.1262
 30
0.0000
 11
20.2485
 21
22.5641
 31
0.0000
 6
CONTINUOUS
 0
LINE
 8
WHITE
 10
20.2485
 20
22.5641
 30
0.0000
 11
20.001
 21
21.9735
 31
0.0000
 6
CONTINUOUS
 0
LINE
 8
WHITE
 10
20.001
 20
21.9735
 30
0.0000
 11
19.9342
 21
21.6495
 31
0.0000
 6
CONTINUOUS
 0
LINE
 8
WHITE
 10
19.9342
 20
21.6495
 30
0.0000
 11
19.9436
 21
21.3255
 31
0.0000
 6
CONTINUOUS
 0
LINE
 8
WHITE
 10
20.0963
 20
20.7443
 30
0.0000
 11
20.163
 21
20.8965
 31
0.0000
 6
CONTINUOUS
 0
LINE
 8
WHITE
 10
20.163
 20
20.8965
 30
0.0000
 11
20.3152
 21
21.0206
 31
0.0000
 6
CONTINUOUS
 0
LINE
 8
WHITE
 10
20.3152
 20
21.0206
 30
0.0000
 11
20.6966
 21
21.2303
 31
0.0000
 6
CONTINUOUS
 0
LINE
 8
WHITE
 10
20.6966
 20
21.2303
 30
0.0000
 11
20.9632
 21
21.2205
 31
0.0000
 6
CONTINUOUS
 0
LINE
 8
WHITE
 10
20.9632
 20
21.2205
 30
0.0000
 11
21.2966
 21
21.03
 31
0.0000
 6
CONTINUOUS
 0
LINE
 8
WHITE
 10
21.2966
 20
21.03
 30
0.0000
 11
21.6206
 21
20.706
 31
0.0000
 6
CONTINUOUS
 0
LINE
 8
WHITE
 10
21.6206
 20
20.706
 30
0.0000
 11
21.8494
 21
20.2868
 31
0.0000
 6
CONTINUOUS
 0
LINE
 8
WHITE
 10
21.8494
 20
20.2868
 30
0.0000
 11
21.8209
 21
21.0491
 31
0.0000
 6
CONTINUOUS
 0
LINE
 8
WHITE
 10
21.8209
 20
21.0491
 30
0.0000
 11
21.7826
 21
21.2111
 31
0.0000
 6
CONTINUOUS
 0
LINE
 8
WHITE
 10
21.7826
 20
21.2111
 30
0.0000
 11
21.7159
 21
21.354
 31
0.0000
 6
CONTINUOUS
 0
LINE
 8
WHITE
 10
21.7159
 20
21.354
 30
0.0000
 11
21.6019
 21
21.4492
 31
0.0000
 6
CONTINUOUS
 0
LINE
 8
WHITE
 10
21.6019
 20
21.4492
 30
0.0000
 11
21.4301
 21
21.5066
 31
0.0000
 6
CONTINUOUS
 0
LINE
 8
WHITE
 10
21.4301
 20
21.5066
 30
0.0000
 11
20.9824
 21
21.5254
 31
0.0000
 6
CONTINUOUS
 0
LINE
 8
WHITE
 10
20.9824
 20
21.5254
 30
0.0000
 11
20.5534
 21
21.4301
 31
0.0000
 6
CONTINUOUS
 0
LINE
 8
WHITE
 10
20.5534
 20
21.4301
 30
0.0000
 11
20.3726
 21
21.3255
 31
0.0000
 6
CONTINUOUS
 0
LINE
 8
WHITE
 10
20.3726
 20
21.3255
 30
0.0000
 11
20.2294
 21
21.1826
 31
0.0000
 6
CONTINUOUS
 0
LINE
 8
WHITE
 10
20.2294
 20
21.1826
 30
0.0000
 11
20.1341
 21
20.9921
 31
0.0000
 6
CONTINUOUS
 0
LINE
 8
WHITE
 10
20.1341
 20
20.9921
 30
0.0000
 11
20.0963
 21
20.7443
 31
0.0000
 6
CONTINUOUS
 0
LINE
 8
WHITE
 10
18.762
 20
22.4689
 30
0.0000
 11
18.4477
 21
21.9829
 31
0.0000
 6
CONTINUOUS
 0
LINE
 8
WHITE
 10
18.4477
 20
21.9829
 30
0.0000
 11
18.3334
 21
21.7256
 31
0.0000
 6
CONTINUOUS
 0
LINE
 8
WHITE
 10
18.3334
 20
21.7256
 30
0.0000
 11
18.276
 21
21.4399
 31
0.0000
 6
CONTINUOUS
 0
LINE
 8
WHITE
 10
18.3049
 20
20.7443
 30
0.0000
 11
18.5906
 21
21.0491
 31
0.0000
 6
CONTINUOUS
 0
LINE
 8
WHITE
 10
18.5906
 20
21.0491
 30
0.0000
 11
18.7811
 21
21.1635
 31
0.0000
 6
CONTINUOUS
 0
LINE
 8
WHITE
 10
18.7811
 20
21.1635
 30
0.0000
 11
18.9814
 21
21.2303
 31
0.0000
 6
CONTINUOUS
 0
LINE
 8
WHITE
 10
18.9814
 20
21.2303
 30
0.0000
 11
19.2004
 21
21.2303
 31
0.0000
 6
CONTINUOUS
 0
LINE
 8
WHITE
 10
19.2004
 20
21.2303
 30
0.0000
 11
19.4198
 21
21.135
 31
0.0000
 6
CONTINUOUS
 0
LINE
 8
WHITE
 10
19.4198
 20
21.135
 30
0.0000
 11
19.6294
 21
20.9441
 31
0.0000
 6
CONTINUOUS
 0
LINE
 8
WHITE
 10
19.6294
 20
20.9441
 30
0.0000
 11
19.8199
 21
20.6205
 31
0.0000
 6
CONTINUOUS
 0
LINE
 8
WHITE
 10
19.8199
 20
20.6205
 30
0.0000
 11
19.896
 21
20.7821
 31
0.0000
 6
CONTINUOUS
 0
LINE
 8
WHITE
 10
19.896
 20
20.7821
 30
0.0000
 11
19.9151
 21
20.9254
 31
0.0000
 6
CONTINUOUS
 0
LINE
 8
WHITE
 10
19.9151
 20
20.9254
 30
0.0000
 11
19.8866
 21
21.0585
 31
0.0000
 6
CONTINUOUS
 0
LINE
 8
WHITE
 10
19.8866
 20
21.0585
 30
0.0000
 11
19.8008
 21
21.1826
 31
0.0000
 6
CONTINUOUS
 0
LINE
 8
WHITE
 10
19.8008
 20
21.1826
 30
0.0000
 11
19.5529
 21
21.3634
 31
0.0000
 6
CONTINUOUS
 0
LINE
 8
WHITE
 10
19.5529
 20
21.3634
 30
0.0000
 11
19.248
 21
21.4399
 31
0.0000
 6
CONTINUOUS
 0
LINE
 8
WHITE
 10
19.248
 20
21.4399
 30
0.0000
 11
18.8194
 21
21.4399
 31
0.0000
 6
CONTINUOUS
 0
LINE
 8
WHITE
 10
18.8194
 20
21.4399
 30
0.0000
 11
18.5145
 21
21.354
 31
0.0000
 6
CONTINUOUS
 0
LINE
 8
WHITE
 10
18.5145
 20
21.354
 30
0.0000
 11
18.3334
 21
21.1444
 31
0.0000
 6
CONTINUOUS
 0
LINE
 8
WHITE
 10
18.3334
 20
21.1444
 30
0.0000
 11
18.3049
 21
20.7443
 31
0.0000
 6
CONTINUOUS
 0
LINE
 8
WHITE
 10
17.9711
 20
24.2888
 30
0.0000
 11
17.5328
 21
23.1075
 31
0.0000
 6
CONTINUOUS
 0
LINE
 8
WHITE
 10
17.5328
 20
23.1075
 30
0.0000
 11
17.1232
 21
22.0211
 31
0.0000
 6
CONTINUOUS
 0
LINE
 8
WHITE
 10
17.1232
 20
22.0211
 30
0.0000
 11
17.0659
 21
21.5636
 31
0.0000
 6
CONTINUOUS
 0
LINE
 8
WHITE
 10
16.9136
 20
20.9254
 30
0.0000
 11
17.0948
 21
21.0491
 31
0.0000
 6
CONTINUOUS
 0
LINE
 8
WHITE
 10
17.0948
 20
21.0491
 30
0.0000
 11
17.2755
 21
21.1061
 31
0.0000
 6
CONTINUOUS
 0
LINE
 8
WHITE
 10
17.2755
 20
21.1061
 30
0.0000
 11
17.5901
 21
21.0776
 31
0.0000
 6
CONTINUOUS
 0
LINE
 8
WHITE
 10
17.5901
 20
21.0776
 30
0.0000
 11
17.895
 21
20.9063
 31
0.0000
 6
CONTINUOUS
 0
LINE
 8
WHITE
 10
17.895
 20
20.9063
 30
0.0000
 11
18.1808
 21
20.6869
 31
0.0000
 6
CONTINUOUS
 0
LINE
 8
WHITE
 10
18.1808
 20
20.6869
 30
0.0000
 11
18.219
 21
20.9824
 31
0.0000
 6
CONTINUOUS
 0
LINE
 8
WHITE
 10
18.219
 20
20.9824
 30
0.0000
 11
18.1905
 21
21.1159
 31
0.0000
 6
CONTINUOUS
 0
LINE
 8
WHITE
 10
18.1905
 20
21.1159
 30
0.0000
 11
18.1238
 21
21.2303
 31
0.0000
 6
CONTINUOUS
 0
LINE
 8
WHITE
 10
18.1238
 20
21.2303
 30
0.0000
 11
17.7615
 21
21.3255
 31
0.0000
 6
CONTINUOUS
 0
LINE
 8
WHITE
 10
17.7615
 20
21.3255
 30
0.0000
 11
17.4851
 21
21.3731
 31
0.0000
 6
CONTINUOUS
 0
LINE
 8
WHITE
 10
17.4851
 20
21.3731
 30
0.0000
 11
17.2376
 21
21.3446
 31
0.0000
 6
CONTINUOUS
 0
LINE
 8
WHITE
 10
17.2376
 20
21.3446
 30
0.0000
 11
17.028
 21
21.2018
 31
0.0000
 6
CONTINUOUS
 0
LINE
 8
WHITE
 10
17.028
 20
21.2018
 30
0.0000
 11
16.9136
 21
20.9254
 31
0.0000
 6
CONTINUOUS
 0
LINE
 8
WHITE
 10
16.3039
 20
23.4979
 30
0.0000
 11
15.8749
 21
22.6691
 31
0.0000
 6
CONTINUOUS
 0
LINE
 8
WHITE
 10
15.8749
 20
22.6691
 30
0.0000
 11
15.7129
 21
22.2401
 31
0.0000
 6
CONTINUOUS
 0
LINE
 8
WHITE
 10
15.7129
 20
22.2401
 30
0.0000
 11
15.6083
 21
21.7733
 31
0.0000
 6
CONTINUOUS
 0
LINE
 8
WHITE
 10
16.1513
 20
26.9569
 30
0.0000
 11
16.1513
 21
27.3859
 31
0.0000
 6
CONTINUOUS
 0
LINE
 8
WHITE
 10
15.9701
 20
26.2898
 30
0.0000
 11
15.8464
 21
25.4989
 31
0.0000
 6
CONTINUOUS
 0
LINE
 8
WHITE
 10
15.8464
 20
25.4989
 30
0.0000
 11
15.732
 21
25.1273
 31
0.0000
 6
CONTINUOUS
 0
LINE
 8
WHITE
 10
15.732
 20
25.1273
 30
0.0000
 11
15.5224
 21
24.8036
 31
0.0000
 6
CONTINUOUS
 0
LINE
 8
WHITE
 10
15.5224
 20
24.8036
 30
0.0000
 11
15.2651
 21
24.4796
 31
0.0000
 6
CONTINUOUS
 0
LINE
 8
WHITE
 10
15.2651
 20
24.4796
 30
0.0000
 11
15.0555
 21
24.108
 31
0.0000
 6
CONTINUOUS
 0
LINE
 8
WHITE
 10
15.0555
 20
24.108
 30
0.0000
 11
14.7221
 21
23.298
 31
0.0000
 6
CONTINUOUS
 0
LINE
 8
WHITE
 10
14.7221
 20
23.298
 30
0.0000
 11
14.274
 21
21.6589
 31
0.0000
 6
CONTINUOUS
 0
LINE
 8
WHITE
 10
15.4841
 20
21.2303
 30
0.0000
 11
15.8366
 21
21.4208
 31
0.0000
 6
CONTINUOUS
 0
LINE
 8
WHITE
 10
15.8366
 20
21.4208
 30
0.0000
 11
16.1606
 21
21.4114
 31
0.0000
 6
CONTINUOUS
 0
LINE
 8
WHITE
 10
16.1606
 20
21.4114
 30
0.0000
 11
16.4468
 21
21.2111
 31
0.0000
 6
CONTINUOUS
 0
LINE
 8
WHITE
 10
16.4468
 20
21.2111
 30
0.0000
 11
16.6373
 21
20.8013
 31
0.0000
 6
CONTINUOUS
 0
LINE
 8
WHITE
 10
16.6373
 20
20.8013
 30
0.0000
 11
16.7708
 21
21.192
 31
0.0000
 6
CONTINUOUS
 0
LINE
 8
WHITE
 10
16.7708
 20
21.192
 30
0.0000
 11
16.761
 21
21.3731
 31
0.0000
 6
CONTINUOUS
 0
LINE
 8
WHITE
 10
16.761
 20
21.3731
 30
0.0000
 11
16.6657
 21
21.4684
 31
0.0000
 6
CONTINUOUS
 0
LINE
 8
WHITE
 10
16.6657
 20
21.4684
 30
0.0000
 11
16.3324
 21
21.5734
 31
0.0000
 6
CONTINUOUS
 0
LINE
 8
WHITE
 10
16.3324
 20
21.5734
 30
0.0000
 11
15.9608
 21
21.621
 31
0.0000
 6
CONTINUOUS
 0
LINE
 8
WHITE
 10
15.9608
 20
21.621
 30
0.0000
 11
15.7988
 21
21.6019
 31
0.0000
 6
CONTINUOUS
 0
LINE
 8
WHITE
 10
15.7988
 20
21.6019
 30
0.0000
 11
15.6559
 21
21.5445
 31
0.0000
 6
CONTINUOUS
 0
LINE
 8
WHITE
 10
15.6559
 20
21.5445
 30
0.0000
 11
15.5509
 21
21.4208
 31
0.0000
 6
CONTINUOUS
 0
LINE
 8
WHITE
 10
15.5509
 20
21.4208
 30
0.0000
 11
15.4841
 21
21.2303
 31
0.0000
 6
CONTINUOUS
 0
LINE
 8
WHITE
 10
15.0893
 20
18.783
 30
0.0000
 11
14.9126
 21
18.7241
 31
0.0000
 6
CONTINUOUS
 0
LINE
 8
WHITE
 10
14.9126
 20
18.7241
 30
0.0000
 11
14.6077
 21
18.6956
 31
0.0000
 6
CONTINUOUS
 0
LINE
 8
WHITE
 10
14.6077
 20
18.6956
 30
0.0000
 11
14.3505
 21
18.867
 31
0.0000
 6
CONTINUOUS
 0
LINE
 8
WHITE
 10
14.3505
 20
18.867
 30
0.0000
 11
14.1503
 21
19.2004
 31
0.0000
 6
CONTINUOUS
 0
LINE
 8
WHITE
 10
14.1503
 20
19.2004
 30
0.0000
 11
14.0168
 21
19.7055
 31
0.0000
 6
CONTINUOUS
 0
LINE
 8
WHITE
 10
14.0168
 20
19.7055
 30
0.0000
 11
14.0168
 21
20.2583
 31
0.0000
 6
CONTINUOUS
 0
LINE
 8
WHITE
 10
14.0168
 20
20.2583
 30
0.0000
 11
14.1409
 21
20.811
 31
0.0000
 6
CONTINUOUS
 0
LINE
 8
WHITE
 10
14.1409
 20
20.811
 30
0.0000
 11
14.3981
 21
21.3255
 31
0.0000
 6
CONTINUOUS
 0
LINE
 8
WHITE
 10
14.3981
 20
21.3255
 30
0.0000
 11
14.5886
 21
21.5066
 31
0.0000
 6
CONTINUOUS
 0
LINE
 8
WHITE
 10
14.5886
 20
21.5066
 30
0.0000
 11
14.8361
 21
21.6019
 31
0.0000
 6
CONTINUOUS
 0
LINE
 8
WHITE
 10
14.8361
 20
21.6019
 30
0.0000
 11
15.084
 21
21.5828
 31
0.0000
 6
CONTINUOUS
 0
LINE
 8
WHITE
 10
15.084
 20
21.5828
 30
0.0000
 11
15.2745
 21
21.4399
 31
0.0000
 6
CONTINUOUS
 0
LINE
 8
WHITE
 10
15.2745
 20
21.4399
 30
0.0000
 11
15.4104
 21
21.1179
 31
0.0000
 6
CONTINUOUS
 0
LINE
 8
WHITE
 10
14.6331
 20
18.698
 30
0.0000
 11
14.5789
 21
18.5715
 31
0.0000
 6
CONTINUOUS
 0
LINE
 8
WHITE
 10
14.5789
 20
18.5715
 30
0.0000
 11
14.541
 21
18.324
 31
0.0000
 6
CONTINUOUS
 0
LINE
 8
WHITE
 10
14.541
 20
18.324
 30
0.0000
 11
14.5789
 21
17.7712
 31
0.0000
 6
CONTINUOUS
 0
LINE
 8
WHITE
 10
14.5789
 20
17.7712
 30
0.0000
 11
14.7124
 21
17.2282
 31
0.0000
 6
CONTINUOUS
 0
LINE
 8
WHITE
 10
14.7124
 20
17.2282
 30
0.0000
 11
14.8837
 21
16.809
 31
0.0000
 6
CONTINUOUS
 0
LINE
 8
WHITE
 10
14.8837
 20
16.809
 30
0.0000
 11
15.0364
 21
16.6181
 31
0.0000
 6
CONTINUOUS
 0
LINE
 8
WHITE
 10
15.0364
 20
16.6181
 30
0.0000
 11
15.2175
 21
16.5038
 31
0.0000
 6
CONTINUOUS
 0
LINE
 8
WHITE
 10
15.2175
 20
16.5038
 30
0.0000
 11
15.4174
 21
16.4561
 31
0.0000
 6
CONTINUOUS
 0
LINE
 8
WHITE
 10
15.4174
 20
16.4561
 30
0.0000
 11
15.6367
 21
16.4659
 31
0.0000
 6
CONTINUOUS
 0
LINE
 8
WHITE
 10
15.6367
 20
16.4659
 30
0.0000
 11
16.113
 21
16.6279
 31
0.0000
 6
CONTINUOUS
 0
LINE
 8
WHITE
 10
14.3025
 20
21.2303
 30
0.0000
 11
14.5504
 21
21.4875
 31
0.0000
 6
CONTINUOUS
 0
LINE
 8
WHITE
 10
14.5504
 20
21.4875
 30
0.0000
 11
14.8459
 21
21.6112
 31
0.0000
 6
CONTINUOUS
 0
LINE
 8
WHITE
 10
14.8459
 20
21.6112
 30
0.0000
 11
15.1414
 21
21.5445
 31
0.0000
 6
CONTINUOUS
 0
LINE
 8
WHITE
 10
15.1414
 20
21.5445
 30
0.0000
 11
15.2651
 21
21.4301
 31
0.0000
 6
CONTINUOUS
 0
LINE
 8
WHITE
 10
15.2651
 20
21.4301
 30
0.0000
 11
15.3698
 21
21.2587
 31
0.0000
 6
CONTINUOUS
 0
LINE
 8
WHITE
 10
15.3698
 20
21.2587
 30
0.0000
 11
15.3889
 21
21.4114
 31
0.0000
 6
CONTINUOUS
 0
LINE
 8
WHITE
 10
15.3889
 20
21.4114
 30
0.0000
 11
15.3986
 21
21.5351
 31
0.0000
 6
CONTINUOUS
 0
LINE
 8
WHITE
 10
15.3986
 20
21.5351
 30
0.0000
 11
15.1984
 21
21.6874
 31
0.0000
 6
CONTINUOUS
 0
LINE
 8
WHITE
 10
15.1984
 20
21.6874
 30
0.0000
 11
14.9411
 21
21.7541
 31
0.0000
 6
CONTINUOUS
 0
LINE
 8
WHITE
 10
14.9411
 20
21.7541
 30
0.0000
 11
14.6741
 21
21.7256
 31
0.0000
 6
CONTINUOUS
 0
LINE
 8
WHITE
 10
14.6741
 20
21.7256
 30
0.0000
 11
14.4266
 21
21.5921
 31
0.0000
 6
CONTINUOUS
 0
LINE
 8
WHITE
 10
14.4266
 20
21.5921
 30
0.0000
 11
14.3408
 21
21.4208
 31
0.0000
 6
CONTINUOUS
 0
LINE
 8
WHITE
 10
14.3408
 20
21.4208
 30
0.0000
 11
14.3025
 21
21.2303
 31
0.0000
 6
CONTINUOUS
 0
LINE
 8
WHITE
 10
12.273
 20
17.9235
 30
0.0000
 11
11.406
 21
19.5435
 31
0.0000
 6
CONTINUOUS
 0
LINE
 8
WHITE
 10
11.406
 20
19.5435
 30
0.0000
 11
10.6436
 21
21.2111
 31
0.0000
 6
CONTINUOUS
 0
LINE
 8
WHITE
 10
10.6436
 20
21.2111
 30
0.0000
 11
9.995599
 21
22.9264
 31
0.0000
 6
CONTINUOUS
 0
LINE
 8
WHITE
 10
9.995599
 20
22.9264
 30
0.0000
 11
9.4811
 21
24.6701
 31
0.0000
 6
CONTINUOUS
 0
LINE
 8
WHITE
 10
9.4811
 20
24.6701
 30
0.0000
 11
9.1189
 21
26.4424
 31
0.0000
 6
CONTINUOUS
 0
LINE
 8
WHITE
 10
9.1189
 20
26.4424
 30
0.0000
 11
8.9284
 21
28.2435
 31
0.0000
 6
CONTINUOUS
 0
LINE
 8
WHITE
 10
8.9284
 20
28.2435
 30
0.0000
 11
8.9284
 21
29.6086
 31
0.0000
 6
CONTINUOUS
 0
LINE
 8
WHITE
 10
14.57
 20
18.5134
 30
0.0000
 11
14.1409
 21
18.9052
 31
0.0000
 6
CONTINUOUS
 0
LINE
 8
WHITE
 10
14.1409
 20
18.9052
 30
0.0000
 11
13.5023
 21
19.5626
 31
0.0000
 6
CONTINUOUS
 0
LINE
 8
WHITE
 10
13.5023
 20
19.5626
 30
0.0000
 11
12.9019
 21
20.2868
 31
0.0000
 6
CONTINUOUS
 0
LINE
 8
WHITE
 10
12.9019
 20
20.2868
 30
0.0000
 11
12.3304
 21
21.0491
 31
0.0000
 6
CONTINUOUS
 0
LINE
 8
WHITE
 10
12.3304
 20
21.0491
 30
0.0000
 11
11.8061
 21
21.8591
 31
0.0000
 6
CONTINUOUS
 0
LINE
 8
WHITE
 10
11.8061
 20
21.8591
 30
0.0000
 11
11.3201
 21
22.707
 31
0.0000
 6
CONTINUOUS
 0
LINE
 8
WHITE
 10
11.3201
 20
22.707
 30
0.0000
 11
10.8818
 21
23.5931
 31
0.0000
 6
CONTINUOUS
 0
LINE
 8
WHITE
 10
10.8818
 20
23.5931
 30
0.0000
 11
10.491
 21
24.489
 31
0.0000
 6
CONTINUOUS
 0
LINE
 8
WHITE
 10
10.491
 20
24.489
 30
0.0000
 11
10.1576
 21
25.4036
 31
0.0000
 6
CONTINUOUS
 0
LINE
 8
WHITE
 10
10.1576
 20
25.4036
 30
0.0000
 11
9.881199
 21
26.3378
 31
0.0000
 6
CONTINUOUS
 0
LINE
 8
WHITE
 10
9.881199
 20
26.3378
 30
0.0000
 11
9.6716
 21
27.2617
 31
0.0000
 6
CONTINUOUS
 0
LINE
 8
WHITE
 10
9.6716
 20
27.2617
 30
0.0000
 11
9.5288
 21
28.1955
 31
0.0000
 6
CONTINUOUS
 0
LINE
 8
WHITE
 10
9.5288
 20
28.1955
 30
0.0000
 11
9.461999
 21
29.1105
 31
0.0000
 6
CONTINUOUS
 0
LINE
 8
WHITE
 10
9.461999
 20
29.1105
 30
0.0000
 11
9.461999
 21
29.4439
 31
0.0000
 6
CONTINUOUS
 0
LINE
 8
WHITE
 10
15.1222
 20
16.5038
 30
0.0000
 11
15.2269
 21
16.3418
 31
0.0000
 6
CONTINUOUS
 0
LINE
 8
WHITE
 10
15.2269
 20
16.3418
 30
0.0000
 11
15.3698
 21
16.2371
 31
0.0000
 6
CONTINUOUS
 0
LINE
 8
WHITE
 10
15.3698
 20
16.2371
 30
0.0000
 11
15.7035
 21
16.1895
 31
0.0000
 6
CONTINUOUS
 0
LINE
 8
WHITE
 10
15.7035
 20
16.1895
 30
0.0000
 11
16.0369
 21
16.3324
 31
0.0000
 6
CONTINUOUS
 0
LINE
 8
WHITE
 10
16.0369
 20
16.3324
 30
0.0000
 11
16.1606
 21
16.4561
 31
0.0000
 6
CONTINUOUS
 0
LINE
 8
WHITE
 10
16.1606
 20
16.4561
 30
0.0000
 11
16.2465
 21
16.6279
 31
0.0000
 6
CONTINUOUS
 0
LINE
 8
WHITE
 10
16.2465
 20
16.6279
 30
0.0000
 11
15.9799
 21
16.5135
 31
0.0000
 6
CONTINUOUS
 0
LINE
 8
WHITE
 10
15.9799
 20
16.5135
 30
0.0000
 11
15.6938
 21
16.4659
 31
0.0000
 6
CONTINUOUS
 0
LINE
 8
WHITE
 10
15.6938
 20
16.4659
 30
0.0000
 11
15.1222
 21
16.5038
 31
0.0000
 6
CONTINUOUS
 0
LINE
 8
WHITE
 10
16.1083
 20
18.1952
 30
0.0000
 11
16.0845
 21
18.1429
 31
0.0000
 6
CONTINUOUS
 0
LINE
 8
WHITE
 10
16.0845
 20
18.1429
 30
0.0000
 11
16.0466
 21
17.895
 31
0.0000
 6
CONTINUOUS
 0
LINE
 8
WHITE
 10
16.0466
 20
17.895
 30
0.0000
 11
16.0845
 21
17.3423
 31
0.0000
 6
CONTINUOUS
 0
LINE
 8
WHITE
 10
16.0845
 20
17.3423
 30
0.0000
 11
16.2274
 21
16.7993
 31
0.0000
 6
CONTINUOUS
 0
LINE
 8
WHITE
 10
16.2274
 20
16.7993
 30
0.0000
 11
16.3991
 21
16.38
 31
0.0000
 6
CONTINUOUS
 0
LINE
 8
WHITE
 10
16.3991
 20
16.38
 30
0.0000
 11
16.542
 21
16.1895
 31
0.0000
 6
CONTINUOUS
 0
LINE
 8
WHITE
 10
16.542
 20
16.1895
 30
0.0000
 11
16.7134
 21
16.0751
 31
0.0000
 6
CONTINUOUS
 0
LINE
 8
WHITE
 10
16.7134
 20
16.0751
 30
0.0000
 11
16.923
 21
16.0275
 31
0.0000
 6
CONTINUOUS
 0
LINE
 8
WHITE
 10
16.923
 20
16.0275
 30
0.0000
 11
17.1424
 21
16.0369
 31
0.0000
 6
CONTINUOUS
 0
LINE
 8
WHITE
 10
17.1424
 20
16.0369
 30
0.0000
 11
17.6186
 21
16.2086
 31
0.0000
 6
CONTINUOUS
 0
LINE
 8
WHITE
 10
16.3991
 20
18.4095
 30
0.0000
 11
15.9986
 21
18.1144
 31
0.0000
 6
CONTINUOUS
 0
LINE
 8
WHITE
 10
15.9986
 20
18.1144
 30
0.0000
 11
15.8179
 21
18.0667
 31
0.0000
 6
CONTINUOUS
 0
LINE
 8
WHITE
 10
15.8179
 20
18.0667
 30
0.0000
 11
15.6461
 21
18.0761
 31
0.0000
 6
CONTINUOUS
 0
LINE
 8
WHITE
 10
15.6461
 20
18.0761
 30
0.0000
 11
15.4939
 21
18.1429
 31
0.0000
 6
CONTINUOUS
 0
LINE
 8
WHITE
 10
15.4939
 20
18.1429
 30
0.0000
 11
15.351
 21
18.2666
 31
0.0000
 6
CONTINUOUS
 0
LINE
 8
WHITE
 10
15.351
 20
18.2666
 30
0.0000
 11
15.1222
 21
18.6574
 31
0.0000
 6
CONTINUOUS
 0
LINE
 8
WHITE
 10
15.1222
 20
18.6574
 30
0.0000
 11
14.9696
 21
19.2386
 31
0.0000
 6
CONTINUOUS
 0
LINE
 8
WHITE
 10
14.9696
 20
19.2386
 30
0.0000
 11
14.9603
 21
19.8675
 31
0.0000
 6
CONTINUOUS
 0
LINE
 8
WHITE
 10
14.9603
 20
19.8675
 30
0.0000
 11
15.1031
 21
20.5061
 31
0.0000
 6
CONTINUOUS
 0
LINE
 8
WHITE
 10
15.1031
 20
20.5061
 30
0.0000
 11
15.3986
 21
21.1061
 31
0.0000
 6
CONTINUOUS
 0
LINE
 8
WHITE
 10
15.3986
 20
21.1061
 30
0.0000
 11
15.6083
 21
21.3158
 31
0.0000
 6
CONTINUOUS
 0
LINE
 8
WHITE
 10
15.6083
 20
21.3158
 30
0.0000
 11
15.894
 21
21.4208
 31
0.0000
 6
CONTINUOUS
 0
LINE
 8
WHITE
 10
15.894
 20
21.4208
 30
0.0000
 11
16.1797
 21
21.4016
 31
0.0000
 6
CONTINUOUS
 0
LINE
 8
WHITE
 10
16.1797
 20
21.4016
 30
0.0000
 11
16.3991
 21
21.2303
 31
0.0000
 6
CONTINUOUS
 0
LINE
 8
WHITE
 10
16.3991
 20
21.2303
 30
0.0000
 11
16.6088
 21
20.7345
 31
0.0000
 6
CONTINUOUS
 0
LINE
 8
WHITE
 10
16.6088
 20
20.7345
 30
0.0000
 11
16.7045
 21
20.5423
 31
0.0000
 6
CONTINUOUS
 0
LINE
 8
WHITE
 10
16.5514
 20
16.1419
 30
0.0000
 11
16.6279
 21
15.9514
 31
0.0000
 6
CONTINUOUS
 0
LINE
 8
WHITE
 10
16.6279
 20
15.9514
 30
0.0000
 11
16.7516
 21
15.8179
 31
0.0000
 6
CONTINUOUS
 0
LINE
 8
WHITE
 10
16.7516
 20
15.8179
 30
0.0000
 11
16.9136
 21
15.732
 31
0.0000
 6
CONTINUOUS
 0
LINE
 8
WHITE
 10
16.9136
 20
15.732
 30
0.0000
 11
17.0948
 21
15.7129
 31
0.0000
 6
CONTINUOUS
 0
LINE
 8
WHITE
 10
17.0948
 20
15.7129
 30
0.0000
 11
17.4758
 21
15.8272
 31
0.0000
 6
CONTINUOUS
 0
LINE
 8
WHITE
 10
17.4758
 20
15.8272
 30
0.0000
 11
17.6092
 21
15.9608
 31
0.0000
 6
CONTINUOUS
 0
LINE
 8
WHITE
 10
17.6092
 20
15.9608
 30
0.0000
 11
17.6663
 21
16.1704
 31
0.0000
 6
CONTINUOUS
 0
LINE
 8
WHITE
 10
17.6663
 20
16.1704
 30
0.0000
 11
17.4187
 21
16.0369
 31
0.0000
 6
CONTINUOUS
 0
LINE
 8
WHITE
 10
17.4187
 20
16.0369
 30
0.0000
 11
17.1326
 21
15.999
 31
0.0000
 6
CONTINUOUS
 0
LINE
 8
WHITE
 10
17.1326
 20
15.999
 30
0.0000
 11
16.8375
 21
16.0369
 31
0.0000
 6
CONTINUOUS
 0
LINE
 8
WHITE
 10
16.8375
 20
16.0369
 30
0.0000
 11
16.5514
 21
16.1419
 31
0.0000
 6
CONTINUOUS
 0
LINE
 8
WHITE
 10
17.901
 20
17.7454
 30
0.0000
 11
17.7521
 21
17.6092
 31
0.0000
 6
CONTINUOUS
 0
LINE
 8
WHITE
 10
17.7521
 20
17.6092
 30
0.0000
 11
17.5328
 21
17.4855
 31
0.0000
 6
CONTINUOUS
 0
LINE
 8
WHITE
 10
17.5328
 20
17.4855
 30
0.0000
 11
17.3231
 21
17.4281
 31
0.0000
 6
CONTINUOUS
 0
LINE
 8
WHITE
 10
17.3231
 20
17.4281
 30
0.0000
 11
17.1326
 21
17.4379
 31
0.0000
 6
CONTINUOUS
 0
LINE
 8
WHITE
 10
17.1326
 20
17.4379
 30
0.0000
 11
16.9613
 21
17.514
 31
0.0000
 6
CONTINUOUS
 0
LINE
 8
WHITE
 10
16.9613
 20
17.514
 30
0.0000
 11
16.7993
 21
17.6569
 31
0.0000
 6
CONTINUOUS
 0
LINE
 8
WHITE
 10
16.7993
 20
17.6569
 30
0.0000
 11
16.5514
 21
18.0761
 31
0.0000
 6
CONTINUOUS
 0
LINE
 8
WHITE
 10
16.5514
 20
18.0761
 30
0.0000
 11
16.38
 21
18.7335
 31
0.0000
 6
CONTINUOUS
 0
LINE
 8
WHITE
 10
16.38
 20
18.7335
 30
0.0000
 11
16.3702
 21
19.4483
 31
0.0000
 6
CONTINUOUS
 0
LINE
 8
WHITE
 10
16.3702
 20
19.4483
 30
0.0000
 11
16.5229
 21
20.163
 31
0.0000
 6
CONTINUOUS
 0
LINE
 8
WHITE
 10
16.5229
 20
20.163
 30
0.0000
 11
16.8469
 21
20.8395
 31
0.0000
 6
CONTINUOUS
 0
LINE
 8
WHITE
 10
16.8469
 20
20.8395
 30
0.0000
 11
17.0948
 21
21.0585
 31
0.0000
 6
CONTINUOUS
 0
LINE
 8
WHITE
 10
17.0948
 20
21.0585
 30
0.0000
 11
17.409
 21
21.1729
 31
0.0000
 6
CONTINUOUS
 0
LINE
 8
WHITE
 10
17.409
 20
21.1729
 30
0.0000
 11
17.733
 21
21.1444
 31
0.0000
 6
CONTINUOUS
 0
LINE
 8
WHITE
 10
17.733
 20
21.1444
 30
0.0000
 11
17.9711
 21
20.9539
 31
0.0000
 6
CONTINUOUS
 0
LINE
 8
WHITE
 10
17.9711
 20
20.9539
 30
0.0000
 11
18.114
 21
20.6966
 31
0.0000
 6
CONTINUOUS
 0
LINE
 8
WHITE
 10
18.114
 20
20.6966
 30
0.0000
 11
18.1729
 21
20.5416
 31
0.0000
 6
CONTINUOUS
 0
LINE
 8
WHITE
 10
17.9426
 20
15.5321
 30
0.0000
 11
17.8474
 21
15.6559
 31
0.0000
 6
CONTINUOUS
 0
LINE
 8
WHITE
 10
17.8474
 20
15.6559
 30
0.0000
 11
17.9524
 21
15.408
 31
0.0000
 6
CONTINUOUS
 0
LINE
 8
WHITE
 10
17.9524
 20
15.408
 30
0.0000
 11
18.114
 21
15.2269
 31
0.0000
 6
CONTINUOUS
 0
LINE
 8
WHITE
 10
18.114
 20
15.2269
 30
0.0000
 11
18.3236
 21
15.0938
 31
0.0000
 6
CONTINUOUS
 0
LINE
 8
WHITE
 10
18.3236
 20
15.0938
 30
0.0000
 11
18.5813
 21
15.0173
 31
0.0000
 6
CONTINUOUS
 0
LINE
 8
WHITE
 10
18.5813
 20
15.0173
 30
0.0000
 11
18.8479
 21
14.9985
 31
0.0000
 6
CONTINUOUS
 0
LINE
 8
WHITE
 10
18.8479
 20
14.9985
 30
0.0000
 11
19.1243
 21
15.0364
 31
0.0000
 6
CONTINUOUS
 0
LINE
 8
WHITE
 10
19.1243
 20
15.0364
 30
0.0000
 11
19.353
 21
15.1605
 31
0.0000
 6
CONTINUOUS
 0
LINE
 8
WHITE
 10
19.353
 20
15.1605
 30
0.0000
 11
19.4865
 21
15.408
 31
0.0000
 6
CONTINUOUS
 0
LINE
 8
WHITE
 10
19.4865
 20
15.408
 30
0.0000
 11
19.3148
 21
15.3034
 31
0.0000
 6
CONTINUOUS
 0
LINE
 8
WHITE
 10
19.3148
 20
15.3034
 30
0.0000
 11
19.1336
 21
15.2366
 31
0.0000
 6
CONTINUOUS
 0
LINE
 8
WHITE
 10
19.1336
 20
15.2366
 30
0.0000
 11
18.7241
 21
15.2366
 31
0.0000
 6
CONTINUOUS
 0
LINE
 8
WHITE
 10
18.7241
 20
15.2366
 30
0.0000
 11
18.3143
 21
15.351
 31
0.0000
 6
CONTINUOUS
 0
LINE
 8
WHITE
 10
18.3143
 20
15.351
 30
0.0000
 11
17.9426
 21
15.5321
 31
0.0000
 6
CONTINUOUS
 0
LINE
 8
WHITE
 10
17.9543
 20
17.9387
 30
0.0000
 11
17.8189
 21
17.4473
 31
0.0000
 6
CONTINUOUS
 0
LINE
 8
WHITE
 10
17.8189
 20
17.4473
 30
0.0000
 11
17.6569
 21
16.7708
 31
0.0000
 6
CONTINUOUS
 0
LINE
 8
WHITE
 10
17.6569
 20
16.7708
 30
0.0000
 11
17.6284
 21
16.4374
 31
0.0000
 6
CONTINUOUS
 0
LINE
 8
WHITE
 10
17.6284
 20
16.4374
 30
0.0000
 11
17.6663
 21
16.1228
 31
0.0000
 6
CONTINUOUS
 0
LINE
 8
WHITE
 10
17.6663
 20
16.1228
 30
0.0000
 11
17.7712
 21
15.8272
 31
0.0000
 6
CONTINUOUS
 0
LINE
 8
WHITE
 10
17.7712
 20
15.8272
 30
0.0000
 11
17.9711
 21
15.5606
 31
0.0000
 6
CONTINUOUS
 0
LINE
 8
WHITE
 10
17.9711
 20
15.5606
 30
0.0000
 11
18.1714
 21
15.3986
 31
0.0000
 6
CONTINUOUS
 0
LINE
 8
WHITE
 10
18.1714
 20
15.3986
 30
0.0000
 11
18.4095
 21
15.2749
 31
0.0000
 6
CONTINUOUS
 0
LINE
 8
WHITE
 10
18.4095
 20
15.2749
 30
0.0000
 11
18.9146
 21
15.1984
 31
0.0000
 6
CONTINUOUS
 0
LINE
 8
WHITE
 10
18.9146
 20
15.1984
 30
0.0000
 11
19.1528
 21
15.2366
 31
0.0000
 6
CONTINUOUS
 0
LINE
 8
WHITE
 10
19.1528
 20
15.2366
 30
0.0000
 11
19.3721
 21
15.3413
 31
0.0000
 6
CONTINUOUS
 0
LINE
 8
WHITE
 10
19.3721
 20
15.3413
 30
0.0000
 11
19.5435
 21
15.4939
 31
0.0000
 6
CONTINUOUS
 0
LINE
 8
WHITE
 10
18.1522
 20
13.7786
 30
0.0000
 11
17.9333
 21
14.274
 31
0.0000
 6
CONTINUOUS
 0
LINE
 8
WHITE
 10
17.9333
 20
14.274
 30
0.0000
 11
17.8091
 21
14.6839
 31
0.0000
 6
CONTINUOUS
 0
LINE
 8
WHITE
 10
17.8091
 20
14.6839
 30
0.0000
 11
17.6663
 21
15.6559
 31
0.0000
 6
CONTINUOUS
 0
LINE
 8
WHITE
 10
40.5014
 20
71.1246
 30
0.0000
 11
39.607
 21
69.3358
 31
0.0000
 6
CONTINUOUS
 0
ARC
 8
WHITE
 10
39.6428
 20
69.3179
 30
 0
 40
.040025
 50
153.435
 51
243.4398
 6
CONTINUOUS
 0
LINE
 8
WHITE
 10
39.6249
 20
69.2821
 30
0.0000
 11
39.9428
 21
69.1231
 31
0.0000
 6
CONTINUOUS
 0
ARC
 8
WHITE
 10
39.9607
 20
69.1589
 30
 0
 40
.040025
 50
243.435
 51
260.5197
 6
CONTINUOUS
 0
LINE
 8
WHITE
 10
39.9541
 20
69.1194
 30
0.0000
 11
40.4258
 21
69.0408
 31
0.0000
 6
CONTINUOUS
 0
ARC
 8
WHITE
 10
40.4324
 20
69.0803
 30
 0
 40
.040047
 50
260.5142
 51
278.0497
 6
CONTINUOUS
 0
LINE
 8
WHITE
 10
40.438
 20
69.0407
 30
0.0000
 11
40.8349
 21
69.0974
 31
0.0000
 6
CONTINUOUS
 0
LINE
 8
WHITE
 10
40.8349
 20
69.0974
 30
0.0000
 11
41.2272
 21
69.2767
 31
0.0000
 6
CONTINUOUS
 0
ARC
 8
WHITE
 10
41.2106
 20
69.3131
 30
 0
 40
.040006
 50
294.5151
 51
326.3099
 6
CONTINUOUS
 0
LINE
 8
WHITE
 10
41.2439
 20
69.2909
 30
0.0000
 11
41.3942
 21
69.5164
 31
0.0000
 6
CONTINUOUS
 0
ARC
 8
WHITE
 10
41.4275
 20
69.4942
 30
 0
 40
.040021
 50
121.8247
 51
146.3099
 6
CONTINUOUS
 0
LINE
 8
WHITE
 10
41.4064
 20
69.5282
 30
0.0000
 11
41.6419
 21
69.674
 31
0.0000
 6
CONTINUOUS
 0
LINE
 8
WHITE
 10
41.6419
 20
69.674
 30
0.0000
 11
41.9095
 21
69.8345
 31
0.0000
 6
CONTINUOUS
 0
ARC
 8
WHITE
 10
41.8889
 20
69.8688
 30
 0
 40
.04001
 50
300.9883
 51
359.9891
 6
CONTINUOUS
 0
LINE
 8
WHITE
 10
41.9289
 20
69.8688
 30
0.0000
 11
41.9289
 21
69.9939
 31
0.0000
 6
CONTINUOUS
 0
ARC
 8
WHITE
 10
41.9689
 20
69.9939
 30
 0
 40
.039999
 50
143.6439
 51
180
 6
CONTINUOUS
 0
LINE
 8
WHITE
 10
41.9367
 20
70.0176
 30
0.0000
 11
42.0905
 21
70.2263
 31
0.0000
 6
CONTINUOUS
 0
LINE
 8
WHITE
 10
42.0905
 20
70.2263
 30
0.0000
 11
42.0905
 21
70.2948
 31
0.0000
 6
CONTINUOUS
 0
LINE
 8
WHITE
 10
42.0905
 20
70.2948
 30
0.0000
 11
42.1694
 21
70.6558
 31
0.0000
 6
CONTINUOUS
 0
ARC
 8
WHITE
 10
42.1303
 20
70.6643
 30
 0
 40
.040013
 50
347.7352
 51
10.80321
 6
CONTINUOUS
 0
LINE
 8
WHITE
 10
42.1696
 20
70.6718
 30
0.0000
 11
42.1262
 21
70.8996
 31
0.0000
 6
CONTINUOUS
 0
ARC
 8
WHITE
 10
42.1655
 20
70.9071
 30
 0
 40
.040009
 50
172.3736
 51
190.8044
 6
CONTINUOUS
 0
LINE
 8
WHITE
 10
42.1259
 20
70.9124
 30
0.0000
 11
42.1712
 21
71.2524
 31
0.0000
 6
CONTINUOUS
 0
LINE
 8
WHITE
 10
42.1712
 20
71.2524
 30
0.0000
 11
42.1712
 21
71.4813
 31
0.0000
 6
CONTINUOUS
 0
ARC
 8
WHITE
 10
42.1312
 20
71.4813
 30
 0
 40
.039999
 50
0
 51
34.20504
 6
CONTINUOUS
 0
LINE
 8
WHITE
 10
42.1643
 20
71.5038
 30
0.0000
 11
41.9293
 21
71.8507
 31
0.0000
 6
CONTINUOUS
 0
LINE
 8
WHITE
 10
41.9293
 20
71.8507
 30
0.0000
 11
41.8063
 21
72.0856
 31
0.0000
 6
CONTINUOUS
 0
ARC
 8
WHITE
 10
41.7709
 20
72.067
 30
 0
 40
.039988
 50
27.7185
 51
50.17623
 6
CONTINUOUS
 0
LINE
 8
WHITE
 10
41.7965
 20
72.0977
 30
0.0000
 11
41.4456
 21
72.392
 31
0.0000
 6
CONTINUOUS
 0
LINE
 8
WHITE
 10
41.4456
 20
72.392
 30
0.0000
 11
40.9612
 21
72.6342
 31
0.0000
 6
CONTINUOUS
 0
LINE
 8
WHITE
 10
40.9612
 20
72.6342
 30
0.0000
 11
40.7605
 21
72.7569
 31
0.0000
 6
CONTINUOUS
 0
ARC
 8
WHITE
 10
40.7396
 20
72.72279
 30
 0
 40
.039995
 50
58.49574
 51
80.49271
 6
CONTINUOUS
 0
LINE
 8
WHITE
 10
40.7462
 20
72.7622
 30
0.0000
 11
40.2769
 21
72.8404
 31
0.0000
 6
CONTINUOUS
 0
ARC
 8
WHITE
 10
40.2703
 20
72.8009
 30
 0
 40
.040047
 50
80.51416
 51
99.34563
 6
CONTINUOUS
 0
LINE
 8
WHITE
 10
40.2638
 20
72.8404
 30
0.0000
 11
39.7864
 21
72.7609
 31
0.0000
 6
CONTINUOUS
 0
LINE
 8
WHITE
 10
39.7864
 20
72.7609
 30
0.0000
 11
39.4371
 21
72.6482
 31
0.0000
 6
CONTINUOUS
 0
ARC
 8
WHITE
 10
39.4494
 20
72.6101
 30
 0
 40
.040036
 50
107.8919
 51
130.5331
 6
CONTINUOUS
 0
LINE
 8
WHITE
 10
39.4234
 20
72.6405
 30
0.0000
 11
39.2683
 21
72.5075
 31
0.0000
 6
CONTINUOUS
 0
LINE
 8
WHITE
 10
39.2683
 20
72.5075
 30
0.0000
 11
39.1067
 21
72.4037
 31
0.0000
 6
CONTINUOUS
 0
LINE
 8
WHITE
 10
39.1067
 20
72.4037
 30
0.0000
 11
38.9914
 21
72.2999
 31
0.0000
 6
CONTINUOUS
 0
LINE
 8
WHITE
 10
38.9914
 20
72.2999
 30
0.0000
 11
38.7482
 21
72.1231
 31
0.0000
 6
CONTINUOUS
 0
ARC
 8
WHITE
 10
38.7717
 20
72.0908
 30
 0
 40
.039944
 50
126.0379
 51
160.6561
 6
CONTINUOUS
 0
LINE
 8
WHITE
 10
38.7341
 20
72.104
 30
0.0000
 11
38.6692
 21
71.9204
 31
0.0000
 6
CONTINUOUS
 0
LINE
 8
WHITE
 10
38.6692
 20
71.9204
 30
0.0000
 11
38.4306
 21
71.3863
 31
0.0000
 6
CONTINUOUS
 0
ARC
 8
WHITE
 10
38.4671
 20
71.37
 30
 0
 40
.039974
 50
155.9356
 51
180
 6
CONTINUOUS
 0
LINE
 8
WHITE
 10
38.4271
 20
71.37
 30
0.0000
 11
38.4271
 21
71.2639
 31
0.0000
 6
CONTINUOUS
 0
LINE
 8
WHITE
 10
38.4271
 20
71.2639
 30
0.0000
 11
38.4617
 21
70.7331
 31
0.0000
 6
CONTINUOUS
 0
LINE
 8
WHITE
 10
38.4617
 20
70.7331
 30
0.0000
 11
38.4617
 21
70.3069
 31
0.0000
 6
CONTINUOUS
 0
ARC
 8
WHITE
 10
38.5017
 20
70.3069
 30
 0
 40
.039999
 50
180
 51
212.2182
 6
CONTINUOUS
 0
LINE
 8
WHITE
 10
38.4679
 20
70.2856
 30
0.0000
 11
38.8304
 21
69.7079
 31
0.0000
 6
CONTINUOUS
 0
LINE
 8
WHITE
 10
38.8304
 20
69.7079
 30
0.0000
 11
38.9799
 21
69.5468
 31
0.0000
 6
CONTINUOUS
 0
LINE
 8
WHITE
 10
38.9799
 20
69.5468
 30
0.0000
 11
39.3844
 21
69.2884
 31
0.0000
 6
CONTINUOUS
 0
ARC
 8
WHITE
 10
39.4059
 20
69.3221
 30
 0
 40
.039974
 50
237.4628
 51
270
 6
CONTINUOUS
 0
LINE
 8
WHITE
 10
39.4059
 20
69.2821
 30
0.0000
 11
39.6249
 21
69.2821
 31
0.0000
 6
CONTINUOUS
 0
LINE
 8
WHITE
 10
40.6841
 20
44.7236
 30
0.0000
 11
39.1357
 21
45.9895
 31
0.0000
 6
CONTINUOUS
 0
ARC
 8
WHITE
 10
39.1104
 20
45.9585
 30
 0
 40
.040013
 50
50.78112
 51
140.6741
 6
CONTINUOUS
 0
LINE
 8
WHITE
 10
39.0794
 20
45.9839
 30
0.0000
 11
38.9162
 21
45.7842
 31
0.0000
 6
CONTINUOUS
 0
ARC
 8
WHITE
 10
38.8852
 20
45.8095
 30
 0
 40
.040013
 50
281.3957
 51
320.7811
 6
CONTINUOUS
 0
LINE
 8
WHITE
 10
38.8931
 20
45.7703
 30
0.0000
 11
38.7228
 21
45.7361
 31
0.0000
 6
CONTINUOUS
 0
ARC
 8
WHITE
 10
38.7149
 20
45.7753
 30
 0
 40
.039988
 50
258.8843
 51
281.3942
 6
CONTINUOUS
 0
LINE
 8
WHITE
 10
38.7072
 20
45.7361
 30
0.0000
 11
38.3311
 21
45.8097
 31
0.0000
 6
CONTINUOUS
 0
ARC
 8
WHITE
 10
38.3234
 20
45.7704
 30
 0
 40
.040047
 50
78.91454
 51
98.75653
 6
CONTINUOUS
 0
LINE
 8
WHITE
 10
38.3173
 20
45.81
 30
0.0000
 11
37.9602
 21
45.7549
 31
0.0000
 6
CONTINUOUS
 0
ARC
 8
WHITE
 10
37.9663
 20
45.7154
 30
 0
 40
.039968
 50
98.77885
 51
117.9109
 6
CONTINUOUS
 0
LINE
 8
WHITE
 10
37.9476
 20
45.7507
 30
0.0000
 11
37.6112
 21
45.5731
 31
0.0000
 6
CONTINUOUS
 0
LINE
 8
WHITE
 10
37.6112
 20
45.5731
 30
0.0000
 11
37.3166
 21
45.3069
 31
0.0000
 6
CONTINUOUS
 0
LINE
 8
WHITE
 10
37.3166
 20
45.3069
 30
0.0000
 11
37.0596
 21
44.9833
 31
0.0000
 6
CONTINUOUS
 0
LINE
 8
WHITE
 10
37.0596
 20
44.9833
 30
0.0000
 11
36.8596
 21
44.6312
 31
0.0000
 6
CONTINUOUS
 0
LINE
 8
WHITE
 10
36.8596
 20
44.6312
 30
0.0000
 11
36.7071
 21
44.26
 31
0.0000
 6
CONTINUOUS
 0
LINE
 8
WHITE
 10
36.7071
 20
44.26
 30
0.0000
 11
36.6336
 21
43.9286
 31
0.0000
 6
CONTINUOUS
 0
ARC
 8
WHITE
 10
36.5945
 20
43.9373
 30
 0
 40
.040056
 50
312.0627
 51
347.4557
 6
CONTINUOUS
 0
LINE
 8
WHITE
 10
36.6213
 20
43.9076
 30
0.0000
 11
36.5413
 21
43.8354
 31
0.0000
 6
CONTINUOUS
 0
ARC
 8
WHITE
 10
36.5145
 20
43.8651
 30
 0
 40
.040004
 50
285.7998
 51
312.0617
 6
CONTINUOUS
 0
LINE
 8
WHITE
 10
36.5254
 20
43.8266
 30
0.0000
 11
36.3332
 21
43.7719
 31
0.0000
 6
CONTINUOUS
 0
LINE
 8
WHITE
 10
36.3332
 20
43.7719
 30
0.0000
 11
36.0171
 21
43.7273
 31
0.0000
 6
CONTINUOUS
 0
ARC
 8
WHITE
 10
36.0227
 20
43.6877
 30
 0
 40
.039993
 50
98.04906
 51
214.0049
 6
CONTINUOUS
 0
ARC
 8
WHITE
 10
38.3491
 20
45.2569
 30
 0
 40
2.846208
 50
214.0005
 51
246.3333
 6
CONTINUOUS
 0
LINE
 8
WHITE
 10
37.2066
 20
42.6501
 30
0.0000
 11
37.4298
 21
42.5675
 31
0.0000
 6
CONTINUOUS
 0
LINE
 8
WHITE
 10
37.4298
 20
42.5675
 30
0.0000
 11
37.8677
 21
42.3865
 31
0.0000
 6
CONTINUOUS
 0
LINE
 8
WHITE
 10
37.8677
 20
42.3865
 30
0.0000
 11
38.3248
 21
42.2628
 31
0.0000
 6
CONTINUOUS
 0
LINE
 8
WHITE
 10
38.3248
 20
42.2628
 30
0.0000
 11
38.8009
 21
42.2153
 31
0.0000
 6
CONTINUOUS
 0
LINE
 8
WHITE
 10
38.8009
 20
42.2153
 30
0.0000
 11
39.2959
 21
42.2531
 31
0.0000
 6
CONTINUOUS
 0
LINE
 8
WHITE
 10
39.2959
 20
42.2531
 30
0.0000
 11
40.6106
 21
42.4725
 31
0.0000
 6
CONTINUOUS
 0
LINE
 8
WHITE
 10
40.6106
 20
42.4725
 30
0.0000
 11
41.9452
 21
42.6056
 31
0.0000
 6
CONTINUOUS
 0
LINE
 8
WHITE
 10
41.9452
 20
42.6056
 30
0.0000
 11
42.603
 21
42.5771
 31
0.0000
 6
CONTINUOUS
 0
LINE
 8
WHITE
 10
42.603
 20
42.5771
 30
0.0000
 11
43.2324
 21
42.4435
 31
0.0000
 6
CONTINUOUS
 0
LINE
 8
WHITE
 10
43.2324
 20
42.4435
 30
0.0000
 11
43.8137
 21
42.196
 31
0.0000
 6
CONTINUOUS
 0
LINE
 8
WHITE
 10
43.8137
 20
42.196
 30
0.0000
 11
44.2886
 21
42.0735
 31
0.0000
 6
CONTINUOUS
 0
ARC
 8
WHITE
 10
44.2986
 20
42.1122
 30
 0
 40
.039971
 50
255.5118
 51
300.8643
 6
CONTINUOUS
 0
LINE
 8
WHITE
 10
44.3191
 20
42.0779
 30
0.0000
 11
44.5
 21
42.1858
 31
0.0000
 6
CONTINUOUS
 0
ARC
 8
WHITE
 10
44.4795
 20
42.2202
 30
 0
 40
.040045
 50
300.792
 51
349.1958
 6
CONTINUOUS
 0
LINE
 8
WHITE
 10
44.5188
 20
42.2127
 30
0.0000
 11
44.553
 21
42.3933
 31
0.0000
 6
CONTINUOUS
 0
LINE
 8
WHITE
 10
44.553
 20
42.3933
 30
0.0000
 11
44.553
 21
42.7937
 31
0.0000
 6
CONTINUOUS
 0
LINE
 8
WHITE
 10
44.553
 20
42.7937
 30
0.0000
 11
44.5714
 21
42.9582
 31
0.0000
 6
CONTINUOUS
 0
ARC
 8
WHITE
 10
44.6112
 20
42.9538
 30
 0
 40
.040042
 50
152.153
 51
173.6914
 6
CONTINUOUS
 0
LINE
 8
WHITE
 10
44.5758
 20
42.9725
 30
0.0000
 11
44.6447
 21
43.1019
 31
0.0000
 6
CONTINUOUS
 0
ARC
 8
WHITE
 10
44.68
 20
43.0831
 30
 0
 40
.039994
 50
126.871
 51
151.9612
 6
CONTINUOUS
 0
LINE
 8
WHITE
 10
44.656
 20
43.1151
 30
0.0000
 11
44.7955
 21
43.2196
 31
0.0000
 6
CONTINUOUS
 0
ARC
 8
WHITE
 10
44.8195
 20
43.1876
 30
 0
 40
.04
 50
101.7018
 51
126.8699
 6
CONTINUOUS
 0
LINE
 8
WHITE
 10
44.8114
 20
43.2267
 30
0.0000
 11
45.0788
 21
43.2819
 31
0.0000
 6
CONTINUOUS
 0
LINE
 8
WHITE
 10
45.0788
 20
43.2819
 30
0.0000
 11
45.1145
 21
43.318
 31
0.0000
 6
CONTINUOUS
 0
LINE
 8
WHITE
 10
45.1145
 20
43.318
 30
0.0000
 11
45.0728
 21
43.4012
 31
0.0000
 6
CONTINUOUS
 0
ARC
 8
WHITE
 10
45.037
 20
43.3833
 30
 0
 40
.040025
 50
26.56505
 51
55.79044
 6
CONTINUOUS
 0
LINE
 8
WHITE
 10
45.0595
 20
43.4164
 30
0.0000
 11
44.8035
 21
43.5902
 31
0.0000
 6
CONTINUOUS
 0
ARC
 8
WHITE
 10
44.826
 20
43.6233
 30
 0
 40
.040023
 50
147.5418
 51
235.7938
 6
CONTINUOUS
 0
LINE
 8
WHITE
 10
44.7922
 20
43.6448
 30
0.0000
 11
44.8358
 21
43.7132
 31
0.0000
 6
CONTINUOUS
 0
ARC
 8
WHITE
 10
44.8021
 20
43.7347
 30
 0
 40
.039974
 50
327.4629
 51
345.9624
 6
CONTINUOUS
 0
LINE
 8
WHITE
 10
44.8409
 20
43.725
 30
0.0000
 11
44.8676
 21
43.8323
 31
0.0000
 6
CONTINUOUS
 0
LINE
 8
WHITE
 10
44.8676
 20
43.8323
 30
0.0000
 11
44.877
 21
44.0894
 31
0.0000
 6
CONTINUOUS
 0
LINE
 8
WHITE
 10
44.877
 20
44.0894
 30
0.0000
 11
44.9141
 21
44.3298
 31
0.0000
 6
CONTINUOUS
 0
ARC
 8
WHITE
 10
44.9536
 20
44.3237
 30
 0
 40
.039968
 50
147.4655
 51
171.2211
 6
CONTINUOUS
 0
LINE
 8
WHITE
 10
44.9199
 20
44.3452
 30
0.0000
 11
44.9779
 21
44.4364
 31
0.0000
 6
CONTINUOUS
 0
ARC
 8
WHITE
 10
45.0117
 20
44.4149
 30
 0
 40
.040058
 50
121.6264
 51
147.5398
 6
CONTINUOUS
 0
LINE
 8
WHITE
 10
44.9907
 20
44.449
 30
0.0000
 11
45.074
 21
44.5003
 31
0.0000
 6
CONTINUOUS
 0
ARC
 8
WHITE
 10
45.053
 20
44.5344
 30
 0
 40
.040047
 50
301.6263
 51
25.79496
 6
CONTINUOUS
 0
LINE
 8
WHITE
 10
45.089
 20
44.5518
 30
0.0000
 11
44.9472
 21
44.8437
 31
0.0000
 6
CONTINUOUS
 0
ARC
 8
WHITE
 10
44.9832
 20
44.8612
 30
 0
 40
.040028
 50
183.8722
 51
205.9249
 6
CONTINUOUS
 0
LINE
 8
WHITE
 10
44.9433
 20
44.8585
 30
0.0000
 11
44.9157
 21
45.2638
 31
0.0000
 6
CONTINUOUS
 0
ARC
 8
WHITE
 10
44.9556
 20
45.2665
 30
 0
 40
.039991
 50
163.1543
 51
183.8713
 6
CONTINUOUS
 0
LINE
 8
WHITE
 10
44.9173
 20
45.2781
 30
0.0000
 11
45.0373
 21
45.6756
 31
0.0000
 6
CONTINUOUS
 0
ARC
 8
WHITE
 10
45.0756
 20
45.664
 30
 0
 40
.040018
 50
144.1572
 51
163.1499
 6
CONTINUOUS
 0
LINE
 8
WHITE
 10
45.0432
 20
45.6874
 30
0.0000
 11
45.1636
 21
45.8541
 31
0.0000
 6
CONTINUOUS
 0
LINE
 8
WHITE
 10
45.1636
 20
45.8541
 30
0.0000
 11
45.314
 21
45.9694
 31
0.0000
 6
CONTINUOUS
 0
ARC
 8
WHITE
 10
45.2897
 20
46.0012
 30
 0
 40
.040021
 50
307.3853
 51
345.83
 6
CONTINUOUS
 0
LINE
 8
WHITE
 10
45.3285
 20
45.9914
 30
0.0000
 11
45.3614
 21
46.1223
 31
0.0000
 6
CONTINUOUS
 0
ARC
 8
WHITE
 10
45.3226
 20
46.132
 30
 0
 40
.039994
 50
345.9637
 51
4.444783
 6
CONTINUOUS
 0
LINE
 8
WHITE
 10
45.3625
 20
46.1351
 30
0.0000
 11
45.3558
 21
46.2235
 31
0.0000
 6
CONTINUOUS
 0
ARC
 8
WHITE
 10
45.3957
 20
46.2265
 30
 0
 40
.040012
 50
109.2514
 51
184.2999
 6
CONTINUOUS
 0
LINE
 8
WHITE
 10
45.3825
 20
46.2643
 30
0.0000
 11
45.5743
 21
46.3313
 31
0.0000
 6
CONTINUOUS
 0
LINE
 8
WHITE
 10
45.5743
 20
46.3313
 30
0.0000
 11
45.7478
 21
46.4409
 31
0.0000
 6
CONTINUOUS
 0
ARC
 8
WHITE
 10
45.7264
 20
46.4747
 30
 0
 40
.040004
 50
302.3394
 51
325.1666
 6
CONTINUOUS
 0
LINE
 8
WHITE
 10
45.7593
 20
46.4518
 30
0.0000
 11
45.9672
 21
46.7502
 31
0.0000
 6
CONTINUOUS
 0
ARC
 8
WHITE
 10
45.9344
 20
46.7731
 30
 0
 40
.040003
 50
325.0784
 51
352.9658
 6
CONTINUOUS
 0
LINE
 8
WHITE
 10
45.9741
 20
46.7682
 30
0.0000
 11
46.0188
 21
47.1262
 31
0.0000
 6
CONTINUOUS
 0
ARC
 8
WHITE
 10
45.9791
 20
47.1312
 30
 0
 40
.040013
 50
352.8217
 51
26.24025
 6
CONTINUOUS
 0
LINE
 8
WHITE
 10
46.015
 20
47.1489
 30
0.0000
 11
45.6551
 21
47.8778
 31
0.0000
 6
CONTINUOUS
 0
ARC
 8
WHITE
 10
45.6192
 20
47.8601
 30
 0
 40
.040026
 50
26.24497
 51
61.25277
 6
CONTINUOUS
 0
LINE
 8
WHITE
 10
45.6384
 20
47.8951
 30
0.0000
 11
44.6597
 21
48.4316
 31
0.0000
 6
CONTINUOUS
 0
LINE
 8
WHITE
 10
44.6597
 20
48.4316
 30
0.0000
 11
43.6403
 21
48.8983
 31
0.0000
 6
CONTINUOUS
 0
LINE
 8
WHITE
 10
43.6403
 20
48.8983
 30
0.0000
 11
42.5642
 21
49.2413
 31
0.0000
 6
CONTINUOUS
 0
LINE
 8
WHITE
 10
42.5642
 20
49.2413
 30
0.0000
 11
42.3443
 21
49.2597
 31
0.0000
 6
CONTINUOUS
 0
ARC
 8
WHITE
 10
42.341
 20
49.2198
 30
 0
 40
.040036
 50
85.27201
 51
107.7542
 6
CONTINUOUS
 0
LINE
 8
WHITE
 10
42.3288
 20
49.2579
 30
0.0000
 11
42.1276
 21
49.1939
 31
0.0000
 6
CONTINUOUS
 0
LINE
 8
WHITE
 10
42.1276
 20
49.1939
 30
0.0000
 11
41.7275
 21
48.9462
 31
0.0000
 6
CONTINUOUS
 0
LINE
 8
WHITE
 10
41.7275
 20
48.9462
 30
0.0000
 11
41.3301
 21
48.6903
 31
0.0000
 6
CONTINUOUS
 0
ARC
 8
WHITE
 10
41.3518
 20
48.6567
 30
 0
 40
.039998
 50
122.8557
 51
204.322
 6
CONTINUOUS
 0
LINE
 8
WHITE
 10
41.3153
 20
48.6402
 30
0.0000
 11
41.585
 21
48.0452
 31
0.0000
 6
CONTINUOUS
 0
ARC
 8
WHITE
 10
41.5486
 20
48.0287
 30
 0
 40
.039965
 50
271.4313
 51
24.38463
 6
CONTINUOUS
 0
LINE
 8
WHITE
 10
41.5496
 20
47.9887
 30
0.0000
 11
40.9551
 21
47.973
 31
0.0000
 6
CONTINUOUS
 0
ARC
 8
WHITE
 10
40.9562
 20
47.933
 30
 0
 40
.040015
 50
91.57523
 51
115.9204
 6
CONTINUOUS
 0
LINE
 8
WHITE
 10
40.9387
 20
47.969
 30
0.0000
 11
40.3551
 21
47.686
 31
0.0000
 6
CONTINUOUS
 0
LINE
 8
WHITE
 10
40.3551
 20
47.686
 30
0.0000
 11
39.685
 21
47.1221
 31
0.0000
 6
CONTINUOUS
 0
ARC
 8
WHITE
 10
39.7108
 20
47.0915
 30
 0
 40
.040024
 50
130.1355
 51
150.1636
 6
CONTINUOUS
 0
LINE
 8
WHITE
 10
39.6761
 20
47.1114
 30
0.0000
 11
39.4511
 21
46.718
 31
0.0000
 6
CONTINUOUS
 0
LINE
 8
WHITE
 10
39.4511
 20
46.718
 30
0.0000
 11
39.0794
 21
45.9839
 31
0.0000
 6
CONTINUOUS
 0
LINE
 8
WHITE
 10
30.9457
 20
34.0156
 30
0.0000
 11
32.676
 21
35.0187
 31
0.0000
 6
CONTINUOUS
 0
ARC
 8
WHITE
 10
32.6559
 20
35.0533
 30
 0
 40
.040014
 50
300.1534
 51
30.03047
 6
CONTINUOUS
 0
LINE
 8
WHITE
 10
32.6905
 20
35.0733
 30
0.0000
 11
32.5903
 21
35.2463
 31
0.0000
 6
CONTINUOUS
 0
ARC
 8
WHITE
 10
32.6249
 20
35.2664
 30
 0
 40
.040014
 50
180.1421
 51
210.1534
 6
CONTINUOUS
 0
LINE
 8
WHITE
 10
32.5849
 20
35.2663
 30
0.0000
 11
32.5849
 21
35.4661
 31
0.0000
 6
CONTINUOUS
 0
LINE
 8
WHITE
 10
32.5849
 20
35.4661
 30
0.0000
 11
32.6033
 21
35.687
 31
0.0000
 6
CONTINUOUS
 0
ARC
 8
WHITE
 10
32.5634
 20
35.6903
 30
 0
 40
.040036
 50
355.272
 51
16.35542
 6
CONTINUOUS
 0
LINE
 8
WHITE
 10
32.6019
 20
35.7016
 30
0.0000
 11
32.5375
 21
35.9223
 31
0.0000
 6
CONTINUOUS
 0
LINE
 8
WHITE
 10
32.5375
 20
35.9223
 30
0.0000
 11
31.7471
 21
37.2466
 31
0.0000
 6
CONTINUOUS
 0
LINE
 8
WHITE
 10
31.7471
 20
37.2466
 30
0.0000
 11
31.099
 21
38.5998
 31
0.0000
 6
CONTINUOUS
 0
LINE
 8
WHITE
 10
31.099
 20
38.5998
 30
0.0000
 11
30.5653
 21
39.9912
 31
0.0000
 6
CONTINUOUS
 0
LINE
 8
WHITE
 10
30.5653
 20
39.9912
 30
0.0000
 11
30.089
 21
41.4299
 31
0.0000
 6
CONTINUOUS
 0
LINE
 8
WHITE
 10
30.089
 20
41.4299
 30
0.0000
 11
29.9835
 21
41.8759
 31
0.0000
 6
CONTINUOUS
 0
LINE
 8
WHITE
 10
29.9835
 20
41.8759
 30
0.0000
 11
29.7609
 21
42.2911
 31
0.0000
 6
CONTINUOUS
 0
LINE
 8
WHITE
 10
29.7609
 20
42.2911
 30
0.0000
 11
29.4624
 21
42.649
 31
0.0000
 6
CONTINUOUS
 0
LINE
 8
WHITE
 10
29.4624
 20
42.649
 30
0.0000
 11
29.085
 21
42.9385
 31
0.0000
 6
CONTINUOUS
 0
ARC
 8
WHITE
 10
28.8385
 20
42.6629
 30
 0
 40
.369753
 50
48.19016
 51
187.0829
 6
CONTINUOUS
 0
LINE
 8
WHITE
 10
28.4715
 20
42.6173
 30
0.0000
 11
28.4846
 21
41.0498
 31
0.0000
 6
CONTINUOUS
 0
LINE
 8
WHITE
 10
28.4846
 20
41.0498
 30
0.0000
 11
28.5131
 21
39.6683
 31
0.0000
 6
CONTINUOUS
 0
LINE
 8
WHITE
 10
28.5131
 20
39.6683
 30
0.0000
 11
28.5271
 21
36.8096
 31
0.0000
 6
CONTINUOUS
 0
LINE
 8
WHITE
 10
28.5271
 20
36.8096
 30
0.0000
 11
28.5365
 21
34.9515
 31
0.0000
 6
CONTINUOUS
 0
LINE
 8
WHITE
 10
28.5365
 20
34.9515
 30
0.0000
 11
28.5416
 21
32.8937
 31
0.0000
 6
CONTINUOUS
 0
LINE
 8
WHITE
 10
28.5416
 20
32.8937
 30
0.0000
 11
28.9405
 21
28.9139
 31
0.0000
 6
CONTINUOUS
 0
ARC
 8
WHITE
 10
28.9803
 20
28.9179
 30
 0
 40
.04
 50
185.7391
 51
218.8167
 6
CONTINUOUS
 0
LINE
 8
WHITE
 10
28.9491
 20
28.8928
 30
0.0000
 11
29.0105
 21
28.8163
 31
0.0000
 6
CONTINUOUS
 0
ARC
 8
WHITE
 10
29.0417
 20
28.8413
 30
 0
 40
.03998
 50
218.7046
 51
248.1184
 6
CONTINUOUS
 0
LINE
 8
WHITE
 10
29.0268
 20
28.8042
 30
0.0000
 11
29.2066
 21
28.732
 31
0.0000
 6
CONTINUOUS
 0
LINE
 8
WHITE
 10
29.2066
 20
28.732
 30
0.0000
 11
29.8541
 21
28.6084
 31
0.0000
 6
CONTINUOUS
 0
LINE
 8
WHITE
 10
29.8541
 20
28.6084
 30
0.0000
 11
30.7492
 21
28.5701
 31
0.0000
 6
CONTINUOUS
 0
LINE
 8
WHITE
 10
30.7492
 20
28.5701
 30
0.0000
 11
31.73
 21
28.656
 31
0.0000
 6
CONTINUOUS
 0
LINE
 8
WHITE
 10
31.73
 20
28.656
 30
0.0000
 11
32.2532
 21
28.8178
 31
0.0000
 6
CONTINUOUS
 0
LINE
 8
WHITE
 10
32.2532
 20
28.8178
 30
0.0000
 11
32.7004
 21
29.0937
 31
0.0000
 6
CONTINUOUS
 0
LINE
 8
WHITE
 10
32.7004
 20
29.0937
 30
0.0000
 11
33.0621
 21
29.4649
 31
0.0000
 6
CONTINUOUS
 0
LINE
 8
WHITE
 10
33.0621
 20
29.4649
 30
0.0000
 11
33.357
 21
29.9219
 31
0.0000
 6
CONTINUOUS
 0
LINE
 8
WHITE
 10
33.357
 20
29.9219
 30
0.0000
 11
33.5856
 21
30.436
 31
0.0000
 6
CONTINUOUS
 0
LINE
 8
WHITE
 10
33.5856
 20
30.436
 30
0.0000
 11
33.7474
 21
30.9884
 31
0.0000
 6
CONTINUOUS
 0
LINE
 8
WHITE
 10
33.7474
 20
30.9884
 30
0.0000
 11
33.9285
 21
32.1407
 31
0.0000
 6
CONTINUOUS
 0
LINE
 8
WHITE
 10
33.9285
 20
32.1407
 30
0.0000
 11
33.9
 21
32.9309
 31
0.0000
 6
CONTINUOUS
 0
LINE
 8
WHITE
 10
33.9
 20
32.9309
 30
0.0000
 11
33.6905
 21
33.7212
 31
0.0000
 6
CONTINUOUS
 0
LINE
 8
WHITE
 10
33.6905
 20
33.7212
 30
0.0000
 11
33.519
 21
34.1022
 31
0.0000
 6
CONTINUOUS
 0
LINE
 8
WHITE
 10
33.519
 20
34.1022
 30
0.0000
 11
33.2908
 21
34.4543
 31
0.0000
 6
CONTINUOUS
 0
LINE
 8
WHITE
 10
33.2908
 20
34.4543
 30
0.0000
 11
33.0147
 21
34.7874
 31
0.0000
 6
CONTINUOUS
 0
LINE
 8
WHITE
 10
33.0147
 20
34.7874
 30
0.0000
 11
32.6905
 21
35.0733
 31
0.0000
 6
CONTINUOUS
 0
LINE
 8
WHITE
 10
25.3012
 20
34.2559
 30
0.0000
 11
23.6229
 21
35.3437
 31
0.0000
 6
CONTINUOUS
 0
ARC
 8
WHITE
 10
23.6011
 20
35.3101
 30
 0
 40
.040052
 50
57.02411
 51
146.9454
 6
CONTINUOUS
 0
LINE
 8
WHITE
 10
23.5676
 20
35.3319
 30
0.0000
 11
23.4619
 21
35.1689
 31
0.0000
 6
CONTINUOUS
 0
LINE
 8
WHITE
 10
23.4619
 20
35.1689
 30
0.0000
 11
23.1284
 21
34.8733
 31
0.0000
 6
CONTINUOUS
 0
LINE
 8
WHITE
 10
23.1284
 20
34.8733
 30
0.0000
 11
22.8523
 21
34.5403
 31
0.0000
 6
CONTINUOUS
 0
LINE
 8
WHITE
 10
22.8523
 20
34.5403
 30
0.0000
 11
22.6335
 21
34.1783
 31
0.0000
 6
CONTINUOUS
 0
LINE
 8
WHITE
 10
22.6335
 20
34.1783
 30
0.0000
 11
22.4526
 21
33.7977
 31
0.0000
 6
CONTINUOUS
 0
LINE
 8
WHITE
 10
22.4526
 20
33.7977
 30
0.0000
 11
22.2431
 21
32.9977
 31
0.0000
 6
CONTINUOUS
 0
LINE
 8
WHITE
 10
22.2431
 20
32.9977
 30
0.0000
 11
22.2146
 21
32.1981
 31
0.0000
 6
CONTINUOUS
 0
LINE
 8
WHITE
 10
22.2146
 20
32.1981
 30
0.0000
 11
22.405
 21
31.0931
 31
0.0000
 6
CONTINUOUS
 0
LINE
 8
WHITE
 10
22.405
 20
31.0931
 30
0.0000
 11
22.5763
 21
30.5696
 31
0.0000
 6
CONTINUOUS
 0
LINE
 8
WHITE
 10
22.5763
 20
30.5696
 30
0.0000
 11
22.8146
 21
30.084
 31
0.0000
 6
CONTINUOUS
 0
LINE
 8
WHITE
 10
22.8146
 20
30.084
 30
0.0000
 11
23.1095
 21
29.6362
 31
0.0000
 6
CONTINUOUS
 0
LINE
 8
WHITE
 10
23.1095
 20
29.6362
 30
0.0000
 11
23.4714
 21
29.2556
 31
0.0000
 6
CONTINUOUS
 0
LINE
 8
WHITE
 10
23.4714
 20
29.2556
 30
0.0000
 11
23.9092
 21
28.9414
 31
0.0000
 6
CONTINUOUS
 0
LINE
 8
WHITE
 10
23.9092
 20
28.9414
 30
0.0000
 11
24.4232
 21
28.7132
 31
0.0000
 6
CONTINUOUS
 0
LINE
 8
WHITE
 10
24.4232
 20
28.7132
 30
0.0000
 11
24.9181
 21
28.6083
 31
0.0000
 6
CONTINUOUS
 0
LINE
 8
WHITE
 10
24.9181
 20
28.6083
 30
0.0000
 11
25.442
 21
28.5514
 31
0.0000
 6
CONTINUOUS
 0
LINE
 8
WHITE
 10
25.442
 20
28.5514
 30
0.0000
 11
26.5088
 21
28.5607
 31
0.0000
 6
CONTINUOUS
 0
LINE
 8
WHITE
 10
26.5088
 20
28.5607
 30
0.0000
 11
27.3561
 21
28.7133
 31
0.0000
 6
CONTINUOUS
 0
LINE
 8
WHITE
 10
27.3561
 20
28.7133
 30
0.0000
 11
27.6121
 21
28.8319
 31
0.0000
 6
CONTINUOUS
 0
ARC
 8
WHITE
 10
27.5953
 20
28.8682
 30
 0
 40
.039999
 50
294.8352
 51
325.3961
 6
CONTINUOUS
 0
LINE
 8
WHITE
 10
27.6282
 20
28.8455
 30
0.0000
 11
27.72
 21
28.9792
 31
0.0000
 6
CONTINUOUS
 0
ARC
 8
WHITE
 10
27.687
 20
29.0019
 30
 0
 40
.040053
 50
325.4767
 51
353.5504
 6
CONTINUOUS
 0
LINE
 8
WHITE
 10
27.7268
 20
28.9974
 30
0.0000
 11
27.9259
 21
30.7971
 31
0.0000
 6
CONTINUOUS
 0
LINE
 8
WHITE
 10
27.9259
 20
30.7971
 30
0.0000
 11
27.9712
 21
32.8553
 31
0.0000
 6
CONTINUOUS
 0
LINE
 8
WHITE
 10
27.9712
 20
32.8553
 30
0.0000
 11
28.0188
 21
34.923
 31
0.0000
 6
CONTINUOUS
 0
LINE
 8
WHITE
 10
28.0188
 20
34.923
 30
0.0000
 11
27.9809
 21
36.8096
 31
0.0000
 6
CONTINUOUS
 0
LINE
 8
WHITE
 10
27.9809
 20
36.8096
 30
0.0000
 11
27.9829
 21
38.277
 31
0.0000
 6
CONTINUOUS
 0
LINE
 8
WHITE
 10
27.9829
 20
38.277
 30
0.0000
 11
27.9544
 21
39.7065
 31
0.0000
 6
CONTINUOUS
 0
LINE
 8
WHITE
 10
27.9544
 20
39.7065
 30
0.0000
 11
28.002
 21
41.1162
 31
0.0000
 6
CONTINUOUS
 0
LINE
 8
WHITE
 10
28.002
 20
41.1162
 30
0.0000
 11
28.0116
 21
42.577
 31
0.0000
 6
CONTINUOUS
 0
ARC
 8
WHITE
 10
27.5907
 20
42.6075
 30
 0
 40
.422003
 50
355.8554
 51
77.67303
 6
CONTINUOUS
 0
LINE
 8
WHITE
 10
27.6808
 20
43.0198
 30
0.0000
 11
27.4304
 21
43.0143
 31
0.0000
 6
CONTINUOUS
 0
ARC
 8
WHITE
 10
27.4313
 20
42.9743
 30
 0
 40
.04001
 50
91.28894
 51
108.2103
 6
CONTINUOUS
 0
LINE
 8
WHITE
 10
27.4188
 20
43.0123
 30
0.0000
 11
27.1467
 21
42.9226
 31
0.0000
 6
CONTINUOUS
 0
LINE
 8
WHITE
 10
27.1467
 20
42.9226
 30
0.0000
 11
26.7559
 21
42.6532
 31
0.0000
 6
CONTINUOUS
 0
ARC
 8
WHITE
 10
26.7786
 20
42.6203
 30
 0
 40
.039971
 50
124.6045
 51
143.8393
 6
CONTINUOUS
 0
LINE
 8
WHITE
 10
26.7463
 20
42.6439
 30
0.0000
 11
26.4891
 21
42.293
 31
0.0000
 6
CONTINUOUS
 0
LINE
 8
WHITE
 10
26.4891
 20
42.293
 30
0.0000
 11
26.2354
 21
41.9153
 31
0.0000
 6
CONTINUOUS
 0
LINE
 8
WHITE
 10
26.2354
 20
41.9153
 30
0.0000
 11
26.0638
 21
41.4867
 31
0.0000
 6
CONTINUOUS
 0
LINE
 8
WHITE
 10
26.0638
 20
41.4867
 30
0.0000
 11
25.5969
 21
40.058
 31
0.0000
 6
CONTINUOUS
 0
LINE
 8
WHITE
 10
25.5969
 20
40.058
 30
0.0000
 11
25.0539
 21
38.6759
 31
0.0000
 6
CONTINUOUS
 0
LINE
 8
WHITE
 10
25.0539
 20
38.6759
 30
0.0000
 11
24.4249
 21
37.3227
 31
0.0000
 6
CONTINUOUS
 0
LINE
 8
WHITE
 10
24.4249
 20
37.3227
 30
0.0000
 11
23.6435
 21
35.989
 31
0.0000
 6
CONTINUOUS
 0
LINE
 8
WHITE
 10
23.6435
 20
35.989
 30
0.0000
 11
23.5701
 21
35.7776
 31
0.0000
 6
CONTINUOUS
 0
ARC
 8
WHITE
 10
23.6079
 20
35.7645
 30
 0
 40
.040005
 50
160.8857
 51
182.4417
 6
CONTINUOUS
 0
LINE
 8
WHITE
 10
23.568
 20
35.7628
 30
0.0000
 11
23.577
 21
35.5425
 31
0.0000
 6
CONTINUOUS
 0
LINE
 8
WHITE
 10
23.577
 20
35.5425
 30
0.0000
 11
23.5676
 21
35.3319
 31
0.0000
 6
CONTINUOUS
 0
LINE
 8
WHITE
 10
15.1304
 20
45.3128
 30
0.0000
 11
16.9053
 21
46.2347
 31
0.0000
 6
CONTINUOUS
 0
ARC
 8
WHITE
 10
16.8869
 20
46.2702
 30
 0
 40
.039985
 50
297.3982
 51
27.46666
 6
CONTINUOUS
 0
LINE
 8
WHITE
 10
16.9223
 20
46.2886
 30
0.0000
 11
16.749
 21
46.6223
 31
0.0000
 6
CONTINUOUS
 0
LINE
 8
WHITE
 10
16.749
 20
46.6223
 30
0.0000
 11
16.5204
 21
47.032
 31
0.0000
 6
CONTINUOUS
 0
LINE
 8
WHITE
 10
16.5204
 20
47.032
 30
0.0000
 11
16.235
 21
47.3937
 31
0.0000
 6
CONTINUOUS
 0
LINE
 8
WHITE
 10
16.235
 20
47.3937
 30
0.0000
 11
15.8894
 21
47.646
 31
0.0000
 6
CONTINUOUS
 0
ARC
 8
WHITE
 10
15.8658
 20
47.6137
 30
 0
 40
.040003
 50
53.84626
 51
75.06013
 6
CONTINUOUS
 0
LINE
 8
WHITE
 10
15.8761
 20
47.6523
 30
0.0000
 11
15.4552
 21
47.7645
 31
0.0000
 6
CONTINUOUS
 0
LINE
 8
WHITE
 10
15.4552
 20
47.7645
 30
0.0000
 11
14.8347
 21
47.7645
 31
0.0000
 6
CONTINUOUS
 0
ARC
 8
WHITE
 10
14.8347
 20
47.8045
 30
 0
 40
.039999
 50
167.4537
 51
270
 6
CONTINUOUS
 0
LINE
 8
WHITE
 10
14.7956
 20
47.8132
 30
0.0000
 11
14.8601
 21
48.102
 31
0.0000
 6
CONTINUOUS
 0
ARC
 8
WHITE
 10
14.8991
 20
48.0933
 30
 0
 40
.039958
 50
139.7729
 51
167.4245
 6
CONTINUOUS
 0
LINE
 8
WHITE
 10
14.8686
 20
48.1191
 30
0.0000
 11
15.0455
 21
48.3284
 31
0.0000
 6
CONTINUOUS
 0
ARC
 8
WHITE
 10
15.015
 20
48.3542
 30
 0
 40
.039948
 50
319.7721
 51
47.84395
 6
CONTINUOUS
 0
LINE
 8
WHITE
 10
15.0418
 20
48.3838
 30
0.0000
 11
14.9739
 21
48.4454
 31
0.0000
 6
CONTINUOUS
 0
ARC
 8
WHITE
 10
14.947
 20
48.4158
 30
 0
 40
.039997
 50
47.73595
 51
70.11322
 6
CONTINUOUS
 0
LINE
 8
WHITE
 10
14.9606
 20
48.4534
 30
0.0000
 11
14.7302
 21
48.5365
 31
0.0000
 6
CONTINUOUS
 0
LINE
 8
WHITE
 10
14.7302
 20
48.5365
 30
0.0000
 11
14.3107
 21
48.8033
 31
0.0000
 6
CONTINUOUS
 0
LINE
 8
WHITE
 10
14.3107
 20
48.8033
 30
0.0000
 11
13.9012
 21
49.051
 31
0.0000
 6
CONTINUOUS
 0
LINE
 8
WHITE
 10
13.9012
 20
49.051
 30
0.0000
 11
13.6888
 21
49.1062
 31
0.0000
 6
CONTINUOUS
 0
ARC
 8
WHITE
 10
13.6787
 20
49.0675
 30
 0
 40
.039996
 50
75.3731
 51
92.28979
 6
CONTINUOUS
 0
LINE
 8
WHITE
 10
13.6771
 20
49.1075
 30
0.0000
 11
13.4551
 21
49.0984
 31
0.0000
 6
CONTINUOUS
 0
LINE
 8
WHITE
 10
13.4551
 20
49.0984
 30
0.0000
 11
12.3791
 21
48.7652
 31
0.0000
 6
CONTINUOUS
 0
LINE
 8
WHITE
 10
12.3791
 20
48.7652
 30
0.0000
 11
11.3597
 21
48.2984
 31
0.0000
 6
CONTINUOUS
 0
LINE
 8
WHITE
 10
11.3597
 20
48.2984
 30
0.0000
 11
10.3845
 21
47.7492
 31
0.0000
 6
CONTINUOUS
 0
ARC
 8
WHITE
 10
10.4041
 20
47.7143
 30
 0
 40
.040027
 50
119.3188
 51
137.6372
 6
CONTINUOUS
 0
LINE
 8
WHITE
 10
10.3746
 20
47.7412
 30
0.0000
 11
10.1011
 21
47.4405
 31
0.0000
 6
CONTINUOUS
 0
ARC
 8
WHITE
 10
10.1307
 20
47.4136
 30
 0
 40
.039997
 50
137.7359
 51
168.4608
 6
CONTINUOUS
 0
LINE
 8
WHITE
 10
10.0915
 20
47.4216
 30
0.0000
 11
10.0097
 21
47.0208
 31
0.0000
 6
CONTINUOUS
 0
ARC
 8
WHITE
 10
10.0489
 20
47.0128
 30
 0
 40
.040008
 50
168.4654
 51
187.0389
 6
CONTINUOUS
 0
LINE
 8
WHITE
 10
10.0092
 20
47.0079
 30
0.0000
 11
10.0551
 21
46.6315
 31
0.0000
 6
CONTINUOUS
 0
ARC
 8
WHITE
 10
10.0948
 20
46.6363
 30
 0
 40
.039989
 50
186.894
 51
206.4361
 6
CONTINUOUS
 0
LINE
 8
WHITE
 10
10.059
 20
46.6185
 30
0.0000
 11
10.141
 21
46.4541
 31
0.0000
 6
CONTINUOUS
 0
LINE
 8
WHITE
 10
10.141
 20
46.4541
 30
0.0000
 11
10.274
 21
46.3118
 31
0.0000
 6
CONTINUOUS
 0
LINE
 8
WHITE
 10
10.274
 20
46.3118
 30
0.0000
 11
10.4396
 21
46.2013
 31
0.0000
 6
CONTINUOUS
 0
ARC
 8
WHITE
 10
10.4618
 20
46.2346
 30
 0
 40
.040021
 50
236.3099
 51
253.7394
 6
CONTINUOUS
 0
LINE
 8
WHITE
 10
10.4506
 20
46.1962
 30
0.0000
 11
10.6463
 21
46.139
 31
0.0000
 6
CONTINUOUS
 0
ARC
 8
WHITE
 10
10.6351
 20
46.1006
 30
 0
 40
.04
 50
0
 51
73.7398
 6
CONTINUOUS
 0
LINE
 8
WHITE
 10
10.6751
 20
46.1006
 30
0.0000
 11
10.6751
 21
46.0049
 31
0.0000
 6
CONTINUOUS
 0
LINE
 8
WHITE
 10
10.6751
 20
46.0049
 30
0.0000
 11
10.7013
 21
45.8649
 31
0.0000
 6
CONTINUOUS
 0
ARC
 8
WHITE
 10
10.7406
 20
45.8722
 30
 0
 40
.039972
 50
190.5228
 51
223.0762
 6
CONTINUOUS
 0
LINE
 8
WHITE
 10
10.7114
 20
45.8449
 30
0.0000
 11
10.983
 21
45.5555
 31
0.0000
 6
CONTINUOUS
 0
ARC
 8
WHITE
 10
10.9538
 20
45.5281
 30
 0
 40
.040042
 50
16.85095
 51
43.17849
 6
CONTINUOUS
 0
LINE
 8
WHITE
 10
10.9921
 20
45.5397
 30
0.0000
 11
11.1115
 21
45.1442
 31
0.0000
 6
CONTINUOUS
 0
ARC
 8
WHITE
 10
11.0732
 20
45.1326
 30
 0
 40
.040018
 50
357.4227
 51
16.85009
 6
CONTINUOUS
 0
LINE
 8
WHITE
 10
11.1132
 20
45.1308
 30
0.0000
 11
11.0947
 21
44.7342
 31
0.0000
 6
CONTINUOUS
 0
ARC
 8
WHITE
 10
11.0547
 20
44.7361
 30
 0
 40
.040045
 50
337.0856
 51
357.2805
 6
CONTINUOUS
 0
LINE
 8
WHITE
 10
11.0916
 20
44.7205
 30
0.0000
 11
11.0179
 21
44.5451
 31
0.0000
 6
CONTINUOUS
 0
LINE
 8
WHITE
 10
11.0179
 20
44.5451
 30
0.0000
 11
10.9343
 21
44.431
 31
0.0000
 6
CONTINUOUS
 0
ARC
 8
WHITE
 10
10.9666
 20
44.4074
 30
 0
 40
.040003
 50
143.8463
 51
223.5821
 6
CONTINUOUS
 0
LINE
 8
WHITE
 10
10.9376
 20
44.3798
 30
0.0000
 11
11.1047
 21
44.2046
 31
0.0000
 6
CONTINUOUS
 0
ARC
 8
WHITE
 10
11.0758
 20
44.177
 30
 0
 40
.039962
 50
8.800345
 51
43.68192
 6
CONTINUOUS
 0
LINE
 8
WHITE
 10
11.1152
 20
44.1831
 30
0.0000
 11
11.1517
 21
43.9466
 31
0.0000
 6
CONTINUOUS
 0
LINE
 8
WHITE
 10
11.1517
 20
43.9466
 30
0.0000
 11
11.1708
 21
43.6801
 31
0.0000
 6
CONTINUOUS
 0
LINE
 8
WHITE
 10
11.1708
 20
43.6801
 30
0.0000
 11
11.1973
 21
43.5741
 31
0.0000
 6
CONTINUOUS
 0
ARC
 8
WHITE
 10
11.2361
 20
43.5838
 30
 0
 40
.039994
 50
194.0362
 51
215.9563
 6
CONTINUOUS
 0
LINE
 8
WHITE
 10
11.2037
 20
43.5603
 30
0.0000
 11
11.2476
 21
43.4998
 31
0.0000
 6
CONTINUOUS
 0
ARC
 8
WHITE
 10
11.2152
 20
43.4763
 30
 0
 40
.040025
 50
292.7833
 51
35.9537
 6
CONTINUOUS
 0
LINE
 8
WHITE
 10
11.2307
 20
43.4394
 30
0.0000
 11
11.0929
 21
43.3815
 31
0.0000
 6
CONTINUOUS
 0
LINE
 8
WHITE
 10
11.0929
 20
43.3815
 30
0.0000
 11
10.9663
 21
43.2816
 31
0.0000
 6
CONTINUOUS
 0
ARC
 8
WHITE
 10
10.9911
 20
43.2502
 30
 0
 40
.040012
 50
128.302
 51
148.8907
 6
CONTINUOUS
 0
LINE
 8
WHITE
 10
10.9568
 20
43.2709
 30
0.0000
 11
10.9044
 21
43.184
 31
0.0000
 6
CONTINUOUS
 0
LINE
 8
WHITE
 10
10.9044
 20
43.184
 30
0.0000
 11
10.9409
 21
43.1296
 31
0.0000
 6
CONTINUOUS
 0
LINE
 8
WHITE
 10
10.9409
 20
43.1296
 30
0.0000
 11
11.2085
 21
43.0835
 31
0.0000
 6
CONTINUOUS
 0
ARC
 8
WHITE
 10
11.2017
 20
43.0441
 30
 0
 40
.039982
 50
56.94358
 51
80.20786
 6
CONTINUOUS
 0
LINE
 8
WHITE
 10
11.2235
 20
43.0776
 30
0.0000
 11
11.3698
 21
42.9828
 31
0.0000
 6
CONTINUOUS
 0
ARC
 8
WHITE
 10
11.348
 20
42.9492
 30
 0
 40
.040052
 50
23.55396
 51
57.02411
 6
CONTINUOUS
 0
LINE
 8
WHITE
 10
11.3847
 20
42.9652
 30
0.0000
 11
11.4468
 21
42.8229
 31
0.0000
 6
CONTINUOUS
 0
LINE
 8
WHITE
 10
11.4468
 20
42.8229
 30
0.0000
 11
11.4758
 21
42.6505
 31
0.0000
 6
CONTINUOUS
 0
LINE
 8
WHITE
 10
11.4758
 20
42.6505
 30
0.0000
 11
11.466
 21
42.2504
 31
0.0000
 6
CONTINUOUS
 0
LINE
 8
WHITE
 10
11.466
 20
42.2504
 30
0.0000
 11
11.5024
 21
42.0602
 31
0.0000
 6
CONTINUOUS
 0
ARC
 8
WHITE
 10
11.5417
 20
42.0677
 30
 0
 40
.040009
 50
190.8044
 51
215.7529
 6
CONTINUOUS
 0
LINE
 8
WHITE
 10
11.5092
 20
42.0443
 30
0.0000
 11
11.6269
 21
41.881
 31
0.0000
 6
CONTINUOUS
 0
LINE
 8
WHITE
 10
11.6269
 20
41.881
 30
0.0000
 11
11.7125
 21
41.8526
 31
0.0000
 6
CONTINUOUS
 0
LINE
 8
WHITE
 10
11.7125
 20
41.8526
 30
0.0000
 11
11.8298
 21
41.7353
 31
0.0000
 6
CONTINUOUS
 0
ARC
 8
WHITE
 10
11.8581
 20
41.7636
 30
 0
 40
.040022
 50
225
 51
306.1541
 6
CONTINUOUS
 0
LINE
 8
WHITE
 10
11.8817
 20
41.7313
 30
0.0000
 11
12.3859
 21
42.1005
 31
0.0000
 6
CONTINUOUS
 0
LINE
 8
WHITE
 10
12.3859
 20
42.1005
 30
0.0000
 11
12.9771
 21
42.3483
 31
0.0000
 6
CONTINUOUS
 0
LINE
 8
WHITE
 10
12.9771
 20
42.3483
 30
0.0000
 11
13.6069
 21
42.4819
 31
0.0000
 6
CONTINUOUS
 0
LINE
 8
WHITE
 10
13.6069
 20
42.4819
 30
0.0000
 11
14.2549
 21
42.5104
 31
0.0000
 6
CONTINUOUS
 0
LINE
 8
WHITE
 10
14.2549
 20
42.5104
 30
0.0000
 11
15.5989
 21
42.3866
 31
0.0000
 6
CONTINUOUS
 0
LINE
 8
WHITE
 10
15.5989
 20
42.3866
 30
0.0000
 11
16.914
 21
42.1579
 31
0.0000
 6
CONTINUOUS
 0
LINE
 8
WHITE
 10
16.914
 20
42.1579
 30
0.0000
 11
17.409
 21
42.1294
 31
0.0000
 6
CONTINUOUS
 0
LINE
 8
WHITE
 10
17.409
 20
42.1294
 30
0.0000
 11
17.8851
 21
42.1676
 31
0.0000
 6
CONTINUOUS
 0
LINE
 8
WHITE
 10
17.8851
 20
42.1676
 30
0.0000
 11
18.3418
 21
42.2815
 31
0.0000
 6
CONTINUOUS
 0
LINE
 8
WHITE
 10
18.3418
 20
42.2815
 30
0.0000
 11
18.7704
 21
42.4722
 31
0.0000
 6
CONTINUOUS
 0
LINE
 8
WHITE
 10
18.7704
 20
42.4722
 30
0.0000
 11
19.1796
 21
42.7101
 31
0.0000
 6
CONTINUOUS
 0
LINE
 8
WHITE
 10
19.1796
 20
42.7101
 30
0.0000
 11
19.5508
 21
42.9956
 31
0.0000
 6
CONTINUOUS
 0
LINE
 8
WHITE
 10
19.5508
 20
42.9956
 30
0.0000
 11
20.1721
 21
43.7017
 31
0.0000
 6
CONTINUOUS
 0
LINE
 8
WHITE
 10
20.1721
 20
43.7017
 30
0.0000
 11
20.0681
 21
43.6668
 31
0.0000
 6
CONTINUOUS
 0
LINE
 8
WHITE
 10
20.0681
 20
43.6668
 30
0.0000
 11
19.8669
 21
43.686
 31
0.0000
 6
CONTINUOUS
 0
LINE
 8
WHITE
 10
19.8669
 20
43.686
 30
0.0000
 11
19.683
 21
43.7414
 31
0.0000
 6
CONTINUOUS
 0
ARC
 8
WHITE
 10
19.6945
 20
43.7797
 30
 0
 40
.039989
 50
231.2962
 51
253.287
 6
CONTINUOUS
 0
LINE
 8
WHITE
 10
19.6695
 20
43.7485
 30
0.0000
 11
19.5897
 21
43.8123
 31
0.0000
 6
CONTINUOUS
 0
ARC
 8
WHITE
 10
19.6147
 20
43.8435
 30
 0
 40
.03998
 50
193.5892
 51
231.2954
 6
CONTINUOUS
 0
LINE
 8
WHITE
 10
19.5758
 20
43.8341
 30
0.0000
 11
19.493
 21
44.1741
 31
0.0000
 6
CONTINUOUS
 0
LINE
 8
WHITE
 10
19.493
 20
44.1741
 30
0.0000
 11
19.3503
 21
44.536
 31
0.0000
 6
CONTINUOUS
 0
LINE
 8
WHITE
 10
19.3503
 20
44.536
 30
0.0000
 11
19.1502
 21
44.8975
 31
0.0000
 6
CONTINUOUS
 0
LINE
 8
WHITE
 10
19.1502
 20
44.8975
 30
0.0000
 11
18.8933
 21
45.2211
 31
0.0000
 6
CONTINUOUS
 0
LINE
 8
WHITE
 10
18.8933
 20
45.2211
 30
0.0000
 11
18.5983
 21
45.4876
 31
0.0000
 6
CONTINUOUS
 0
LINE
 8
WHITE
 10
18.5983
 20
45.4876
 30
0.0000
 11
18.2619
 21
45.6558
 31
0.0000
 6
CONTINUOUS
 0
ARC
 8
WHITE
 10
18.244
 20
45.62
 30
 0
 40
.040025
 50
63.43494
 51
81.24347
 6
CONTINUOUS
 0
LINE
 8
WHITE
 10
18.2501
 20
45.6596
 30
0.0000
 11
17.8925
 21
45.7144
 31
0.0000
 6
CONTINUOUS
 0
ARC
 8
WHITE
 10
17.8864
 20
45.6749
 30
 0
 40
.039968
 50
81.22115
 51
100.8042
 6
CONTINUOUS
 0
LINE
 8
WHITE
 10
17.8789
 20
45.7142
 30
0.0000
 11
17.493
 21
45.6408
 31
0.0000
 6
CONTINUOUS
 0
ARC
 8
WHITE
 10
17.4855
 20
45.6801
 30
 0
 40
.040009
 50
258.0145
 51
280.8044
 6
CONTINUOUS
 0
LINE
 8
WHITE
 10
17.4772
 20
45.641
 30
0.0000
 11
17.3165
 21
45.675
 31
0.0000
 6
CONTINUOUS
 0
ARC
 8
WHITE
 10
17.3248
 20
45.7141
 30
 0
 40
.039971
 50
219.2177
 51
258.0154
 6
CONTINUOUS
 0
LINE
 8
WHITE
 10
17.2938
 20
45.6888
 30
0.0000
 11
17.1301
 21
45.8886
 31
0.0000
 6
CONTINUOUS
 0
LINE
 8
WHITE
 10
17.1301
 20
45.8886
 30
0.0000
 11
16.9223
 21
46.2886
 31
0.0000
 6
CONTINUOUS
 0
LINE
 8
WHITE
 10
28.2232
 20
-1.3069
 30
0.0000
 11
28.4813
 21
.6764
 31
0.0000
 6
CONTINUOUS
 0
ARC
 8
WHITE
 10
28.4416
 20
.6816
 30
 0
 40
.040039
 50
352.5378
 51
82.51991
 6
CONTINUOUS
 0
LINE
 8
WHITE
 10
28.4468
 20
.721199
 30
0.0000
 11
28.3004
 21
.740199
 31
0.0000
 6
CONTINUOUS
 0
LINE
 8
WHITE
 10
28.3004
 20
.740199
 30
0.0000
 11
27.4147
 21
.6926
 31
0.0000
 6
CONTINUOUS
 0
LINE
 8
WHITE
 10
27.4147
 20
.6926
 30
0.0000
 11
26.7479
 21
.578299
 31
0.0000
 6
CONTINUOUS
 0
LINE
 8
WHITE
 10
26.7479
 20
.578299
 30
0.0000
 11
25.8045
 21
.311699
 31
0.0000
 6
CONTINUOUS
 0
LINE
 8
WHITE
 10
25.8045
 20
.311699
 30
0.0000
 11
25.3658
 21
.206599
 31
0.0000
 6
CONTINUOUS
 0
LINE
 8
WHITE
 10
25.3658
 20
.206599
 30
0.0000
 11
24.8321
 21
.1781
 31
0.0000
 6
CONTINUOUS
 0
LINE
 8
WHITE
 10
24.8321
 20
.1781
 30
0.0000
 11
24.1454
 21
.2449
 31
0.0000
 6
CONTINUOUS
 0
LINE
 8
WHITE
 10
24.1454
 20
.2449
 30
0.0000
 11
23.2114
 21
.445199
 31
0.0000
 6
CONTINUOUS
 0
LINE
 8
WHITE
 10
23.2114
 20
.445199
 30
0.0000
 11
22.0865
 21
.787999
 31
0.0000
 6
CONTINUOUS
 0
LINE
 8
WHITE
 10
22.0865
 20
.787999
 30
0.0000
 11
20.9335
 21
1.264799
 31
0.0000
 6
CONTINUOUS
 0
LINE
 8
WHITE
 10
20.9335
 20
1.264799
 30
0.0000
 11
19.7899
 21
1.855499
 31
0.0000
 6
CONTINUOUS
 0
LINE
 8
WHITE
 10
19.7899
 20
1.855499
 30
0.0000
 11
18.646
 21
2.5418
 31
0.0000
 6
CONTINUOUS
 0
LINE
 8
WHITE
 10
18.646
 20
2.5418
 30
0.0000
 11
17.5216
 21
3.3043
 31
0.0000
 6
CONTINUOUS
 0
LINE
 8
WHITE
 10
17.5216
 20
3.3043
 30
0.0000
 11
16.4258
 21
4.123799
 31
0.0000
 6
CONTINUOUS
 0
LINE
 8
WHITE
 10
16.4258
 20
4.123799
 30
0.0000
 11
14.3863
 21
5.8579
 31
0.0000
 6
CONTINUOUS
 0
LINE
 8
WHITE
 10
14.3863
 20
5.8579
 30
0.0000
 11
12.6042
 21
7.620999
 31
0.0000
 6
CONTINUOUS
 0
LINE
 8
WHITE
 10
12.6042
 20
7.620999
 30
0.0000
 11
11.1843
 21
9.269599
 31
0.0000
 6
CONTINUOUS
 0
LINE
 8
WHITE
 10
11.1843
 20
9.269599
 30
0.0000
 11
10.6412
 21
9.9939
 31
0.0000
 6
CONTINUOUS
 0
LINE
 8
WHITE
 10
10.6412
 20
9.9939
 30
0.0000
 11
10.2124
 21
10.6421
 31
0.0000
 6
CONTINUOUS
 0
LINE
 8
WHITE
 10
10.2124
 20
10.6421
 30
0.0000
 11
9.926099
 21
11.1952
 31
0.0000
 6
CONTINUOUS
 0
LINE
 8
WHITE
 10
9.926099
 20
11.1952
 30
0.0000
 11
9.7831
 21
11.6242
 31
0.0000
 6
CONTINUOUS
 0
LINE
 8
WHITE
 10
9.7831
 20
11.6242
 30
0.0000
 11
8.334799
 21
18.2469
 31
0.0000
 6
CONTINUOUS
 0
LINE
 8
WHITE
 10
8.334799
 20
18.2469
 30
0.0000
 11
7.419799
 21
22.9735
 31
0.0000
 6
CONTINUOUS
 0
LINE
 8
WHITE
 10
7.419799
 20
22.9735
 30
0.0000
 11
7.010399
 21
25.5911
 31
0.0000
 6
CONTINUOUS
 0
ARC
 8
WHITE
 10
6.970899
 20
25.5849
 30
 0
 40
.039983
 50
8.920478
 51
65.93592
 6
CONTINUOUS
 0
LINE
 8
WHITE
 10
6.987199
 20
25.6214
 30
0.0000
 11
6.6496
 21
25.7726
 31
0.0000
 6
CONTINUOUS
 0
LINE
 8
WHITE
 10
6.6496
 20
25.7726
 30
0.0000
 11
6.144499
 21
26.0968
 31
0.0000
 6
CONTINUOUS
 0
LINE
 8
WHITE
 10
6.144499
 20
26.0968
 30
0.0000
 11
5.676899
 21
26.4972
 31
0.0000
 6
CONTINUOUS
 0
LINE
 8
WHITE
 10
5.676899
 20
26.4972
 30
0.0000
 11
5.238699
 21
26.9549
 31
0.0000
 6
CONTINUOUS
 0
LINE
 8
WHITE
 10
5.238699
 20
26.9549
 30
0.0000
 11
4.847799
 21
27.4603
 31
0.0000
 6
CONTINUOUS
 0
LINE
 8
WHITE
 10
4.847799
 20
27.4603
 30
0.0000
 11
4.1805
 21
28.5849
 31
0.0000
 6
CONTINUOUS
 0
LINE
 8
WHITE
 10
4.1805
 20
28.5849
 30
0.0000
 11
3.656399
 21
29.7574
 31
0.0000
 6
CONTINUOUS
 0
LINE
 8
WHITE
 10
3.656399
 20
29.7574
 30
0.0000
 11
3.2941
 21
30.9011
 31
0.0000
 6
CONTINUOUS
 0
LINE
 8
WHITE
 10
3.2941
 20
30.9011
 30
0.0000
 11
3.0747
 21
31.9113
 31
0.0000
 6
CONTINUOUS
 0
LINE
 8
WHITE
 10
3.0747
 20
31.9113
 30
0.0000
 11
3.008599
 21
32.6063
 31
0.0000
 6
CONTINUOUS
 0
ARC
 8
WHITE
 10
2.9688
 20
32.6025
 30
 0
 40
.03998
 50
5.453918
 51
59.25628
 6
CONTINUOUS
 0
LINE
 8
WHITE
 10
2.9892
 20
32.6368
 30
0.0000
 11
2.819
 21
32.7382
 31
0.0000
 6
CONTINUOUS
 0
LINE
 8
WHITE
 10
2.819
 20
32.7382
 30
0.0000
 11
2.666399
 21
32.8051
 31
0.0000
 6
CONTINUOUS
 0
LINE
 8
WHITE
 10
2.666399
 20
32.8051
 30
0.0000
 11
1.960899
 21
33.5204
 31
0.0000
 6
CONTINUOUS
 0
LINE
 8
WHITE
 10
1.960899
 20
33.5204
 30
0.0000
 11
1.588999
 21
33.9969
 31
0.0000
 6
CONTINUOUS
 0
LINE
 8
WHITE
 10
1.588999
 20
33.9969
 30
0.0000
 11
1.3601
 21
34.3787
 31
0.0000
 6
CONTINUOUS
 0
LINE
 8
WHITE
 10
1.3601
 20
34.3787
 30
0.0000
 11
.7311
 21
35.9319
 31
0.0000
 6
CONTINUOUS
 0
LINE
 8
WHITE
 10
.7311
 20
35.9319
 30
0.0000
 11
.483099
 21
36.7042
 31
0.0000
 6
CONTINUOUS
 0
LINE
 8
WHITE
 10
.483099
 20
36.7042
 30
0.0000
 11
.2734
 21
37.4855
 31
0.0000
 6
CONTINUOUS
 0
LINE
 8
WHITE
 10
.2734
 20
37.4855
 30
0.0000
 11
.1208
 21
38.2957
 31
0.0000
 6
CONTINUOUS
 0
LINE
 8
WHITE
 10
.1208
 20
38.2957
 30
0.0000
 11
.025499
 21
39.125
 31
0.0000
 6
CONTINUOUS
 0
LINE
 8
WHITE
 10
.025499
 20
39.125
 30
0.0000
 11
-.003
 21
39.9923
 31
0.0000
 6
CONTINUOUS
 0
LINE
 8
WHITE
 10
-.003
 20
39.9923
 30
0.0000
 11
.0348
 21
40.8881
 31
0.0000
 6
CONTINUOUS
 0
ARC
 8
WHITE
 10
.074799
 20
40.8864
 30
 0
 40
.040036
 50
148.6907
 51
177.5664
 6
CONTINUOUS
 0
LINE
 8
WHITE
 10
.0406
 20
40.9072
 30
0.0000
 11
.1649
 21
41.1112
 31
0.0000
 6
CONTINUOUS
 0
ARC
 8
WHITE
 10
.1991
 20
41.0904
 30
 0
 40
.040028
 50
125.5508
 51
148.6926
 6
CONTINUOUS
 0
LINE
 8
WHITE
 10
.175799
 20
41.123
 30
0.0000
 11
.3639
 21
41.2575
 31
0.0000
 6
CONTINUOUS
 0
ARC
 8
WHITE
 10
.387199
 20
41.225
 30
 0
 40
.039989
 50
102.9941
 51
125.6376
 6
CONTINUOUS
 0
LINE
 8
WHITE
 10
.378199
 20
41.264
 30
0.0000
 11
.861
 21
41.3751
 31
0.0000
 6
CONTINUOUS
 0
ARC
 8
WHITE
 10
.87
 20
41.3361
 30
 0
 40
.040024
 50
86.27185
 51
102.9946
 6
CONTINUOUS
 0
LINE
 8
WHITE
 10
.8726
 20
41.376
 30
0.0000
 11
1.296399
 21
41.3479
 31
0.0000
 6
CONTINUOUS
 0
LINE
 8
WHITE
 10
1.296399
 20
41.3479
 30
0.0000
 11
1.4327
 21
41.3208
 31
0.0000
 6
CONTINUOUS
 0
ARC
 8
WHITE
 10
1.4405
 20
41.36
 30
 0
 40
.039968
 50
258.7463
 51
3.15752
 6
CONTINUOUS
 0
LINE
 8
WHITE
 10
1.480399
 20
41.3622
 30
0.0000
 11
1.4168
 21
42.4978
 31
0.0000
 6
CONTINUOUS
 0
LINE
 8
WHITE
 10
1.4168
 20
42.4978
 30
0.0000
 11
1.2739
 21
44.1271
 31
0.0000
 6
CONTINUOUS
 0
LINE
 8
WHITE
 10
1.2739
 20
44.1271
 30
0.0000
 11
.826099
 21
48.0053
 31
0.0000
 6
CONTINUOUS
 0
LINE
 8
WHITE
 10
.826099
 20
48.0053
 30
0.0000
 11
.406899
 21
51.5689
 31
0.0000
 6
CONTINUOUS
 0
LINE
 8
WHITE
 10
.406899
 20
51.5689
 30
0.0000
 11
.2449
 21
53.4274
 31
0.0000
 6
CONTINUOUS
 0
LINE
 8
WHITE
 10
.2449
 20
53.4274
 30
0.0000
 11
.635599
 21
57.8872
 31
0.0000
 6
CONTINUOUS
 0
LINE
 8
WHITE
 10
.635599
 20
57.8872
 30
0.0000
 11
.873799
 21
59.8789
 31
0.0000
 6
CONTINUOUS
 0
LINE
 8
WHITE
 10
.873799
 20
59.8789
 30
0.0000
 11
1.1502
 21
61.7274
 31
0.0000
 6
CONTINUOUS
 0
LINE
 8
WHITE
 10
1.1502
 20
61.7274
 30
0.0000
 11
1.4742
 21
63.4428
 31
0.0000
 6
CONTINUOUS
 0
LINE
 8
WHITE
 10
1.4742
 20
63.4428
 30
0.0000
 11
1.8552
 21
65.0438
 31
0.0000
 6
CONTINUOUS
 0
LINE
 8
WHITE
 10
1.8552
 20
65.0438
 30
0.0000
 11
2.302999
 21
66.5398
 31
0.0000
 6
CONTINUOUS
 0
LINE
 8
WHITE
 10
2.302999
 20
66.5398
 30
0.0000
 11
2.808199
 21
67.9504
 31
0.0000
 6
CONTINUOUS
 0
LINE
 8
WHITE
 10
2.808199
 20
67.9504
 30
0.0000
 11
3.389499
 21
69.2751
 31
0.0000
 6
CONTINUOUS
 0
LINE
 8
WHITE
 10
3.389499
 20
69.2751
 30
0.0000
 11
4.056799
 21
70.5427
 31
0.0000
 6
CONTINUOUS
 0
LINE
 8
WHITE
 10
4.056799
 20
70.5427
 30
0.0000
 11
4.800099
 21
71.753
 31
0.0000
 6
CONTINUOUS
 0
LINE
 8
WHITE
 10
4.800099
 20
71.753
 30
0.0000
 11
5.648099
 21
72.9251
 31
0.0000
 6
CONTINUOUS
 0
LINE
 8
WHITE
 10
5.648099
 20
72.9251
 30
0.0000
 11
6.601099
 21
74.0784
 31
0.0000
 6
CONTINUOUS
 0
LINE
 8
WHITE
 10
6.601099
 20
74.0784
 30
0.0000
 11
7.6591
 21
75.2121
 31
0.0000
 6
CONTINUOUS
 0
LINE
 8
WHITE
 10
7.6591
 20
75.2121
 30
0.0000
 11
8.8311
 21
76.3462
 31
0.0000
 6
CONTINUOUS
 0
LINE
 8
WHITE
 10
8.8311
 20
76.3462
 30
0.0000
 11
10.1174
 21
77.4897
 31
0.0000
 6
CONTINUOUS
 0
LINE
 8
WHITE
 10
10.1174
 20
77.4897
 30
0.0000
 11
11.6138
 21
78.6999
 31
0.0000
 6
CONTINUOUS
 0
LINE
 8
WHITE
 10
11.6138
 20
78.6999
 30
0.0000
 11
13.3577
 21
79.939
 31
0.0000
 6
CONTINUOUS
 0
LINE
 8
WHITE
 10
13.3577
 20
79.939
 30
0.0000
 11
14.2916
 21
80.5297
 31
0.0000
 6
CONTINUOUS
 0
LINE
 8
WHITE
 10
14.2916
 20
80.5297
 30
0.0000
 11
15.254
 21
81.0634
 31
0.0000
 6
CONTINUOUS
 0
LINE
 8
WHITE
 10
15.254
 20
81.0634
 30
0.0000
 11
16.2453
 21
81.5401
 31
0.0000
 6
CONTINUOUS
 0
LINE
 8
WHITE
 10
16.2453
 20
81.5401
 30
0.0000
 11
17.246
 21
81.9212
 31
0.0000
 6
CONTINUOUS
 0
LINE
 8
WHITE
 10
17.246
 20
81.9212
 30
0.0000
 11
19.1043
 21
82.4931
 31
0.0000
 6
CONTINUOUS
 0
LINE
 8
WHITE
 10
19.1043
 20
82.4931
 30
0.0000
 11
20.8006
 21
82.9124
 31
0.0000
 6
CONTINUOUS
 0
LINE
 8
WHITE
 10
20.8006
 20
82.9124
 30
0.0000
 11
22.3446
 21
83.2076
 31
0.0000
 6
CONTINUOUS
 0
LINE
 8
WHITE
 10
22.3446
 20
83.2076
 30
0.0000
 11
23.7548
 21
83.3985
 31
0.0000
 6
CONTINUOUS
 0
LINE
 8
WHITE
 10
23.7548
 20
83.3985
 30
0.0000
 11
25.051
 21
83.4937
 31
0.0000
 6
CONTINUOUS
 0
LINE
 8
WHITE
 10
25.051
 20
83.4937
 30
0.0000
 11
26.2613
 21
83.5223
 31
0.0000
 6
CONTINUOUS
 0
LINE
 8
WHITE
 10
26.2613
 20
83.5223
 30
0.0000
 11
28.4911
 21
83.4649
 31
0.0000
 6
CONTINUOUS
 0
LINE
 8
WHITE
 10
28.4911
 20
83.4649
 30
0.0000
 11
29.7014
 21
83.3985
 31
0.0000
 6
CONTINUOUS
 0
LINE
 8
WHITE
 10
29.7014
 20
83.3985
 30
0.0000
 11
31.4261
 21
83.2174
 31
0.0000
 6
CONTINUOUS
 0
LINE
 8
WHITE
 10
31.4261
 20
83.2174
 30
0.0000
 11
33.1792
 21
83.0456
 31
0.0000
 6
CONTINUOUS
 0
LINE
 8
WHITE
 10
33.1792
 20
83.0456
 30
0.0000
 11
34.2178
 21
82.8933
 31
0.0000
 6
CONTINUOUS
 0
LINE
 8
WHITE
 10
34.2178
 20
82.8933
 30
0.0000
 11
35.4472
 21
82.6263
 31
0.0000
 6
CONTINUOUS
 0
LINE
 8
WHITE
 10
35.4472
 20
82.6263
 30
0.0000
 11
36.9147
 21
82.2359
 31
0.0000
 6
CONTINUOUS
 0
LINE
 8
WHITE
 10
36.9147
 20
82.2359
 30
0.0000
 11
38.6875
 21
81.6733
 31
0.0000
 6
CONTINUOUS
 0
LINE
 8
WHITE
 10
38.6875
 20
81.6733
 30
0.0000
 11
39.6975
 21
81.3017
 31
0.0000
 6
CONTINUOUS
 0
LINE
 8
WHITE
 10
39.6975
 20
81.3017
 30
0.0000
 11
40.7079
 21
80.8538
 31
0.0000
 6
CONTINUOUS
 0
LINE
 8
WHITE
 10
40.7079
 20
80.8538
 30
0.0000
 11
41.6988
 21
80.3393
 31
0.0000
 6
CONTINUOUS
 0
LINE
 8
WHITE
 10
41.6988
 20
80.3393
 30
0.0000
 11
42.6709
 21
79.7771
 31
0.0000
 6
CONTINUOUS
 0
LINE
 8
WHITE
 10
42.6709
 20
79.7771
 30
0.0000
 11
44.4722
 21
78.5953
 31
0.0000
 6
CONTINUOUS
 0
LINE
 8
WHITE
 10
44.4722
 20
78.5953
 30
0.0000
 11
45.9968
 21
77.4327
 31
0.0000
 6
CONTINUOUS
 0
LINE
 8
WHITE
 10
45.9968
 20
77.4327
 30
0.0000
 11
47.2832
 21
76.2794
 31
0.0000
 6
CONTINUOUS
 0
LINE
 8
WHITE
 10
47.2832
 20
76.2794
 30
0.0000
 11
48.4555
 21
75.1457
 31
0.0000
 6
CONTINUOUS
 0
LINE
 8
WHITE
 10
48.4555
 20
75.1457
 30
0.0000
 11
49.5131
 21
74.0116
 31
0.0000
 6
CONTINUOUS
 0
LINE
 8
WHITE
 10
49.5131
 20
74.0116
 30
0.0000
 11
50.4661
 21
72.8681
 31
0.0000
 6
CONTINUOUS
 0
LINE
 8
WHITE
 10
50.4661
 20
72.8681
 30
0.0000
 11
51.3145
 21
71.6957
 31
0.0000
 6
CONTINUOUS
 0
LINE
 8
WHITE
 10
51.3145
 20
71.6957
 30
0.0000
 11
52.0672
 21
70.4854
 31
0.0000
 6
CONTINUOUS
 0
LINE
 8
WHITE
 10
52.0672
 20
70.4854
 30
0.0000
 11
52.7251
 21
69.2181
 31
0.0000
 6
CONTINUOUS
 0
LINE
 8
WHITE
 10
52.7251
 20
69.2181
 30
0.0000
 11
53.3158
 21
67.8934
 31
0.0000
 6
CONTINUOUS
 0
LINE
 8
WHITE
 10
53.3158
 20
67.8934
 30
0.0000
 11
53.821
 21
66.4828
 31
0.0000
 6
CONTINUOUS
 0
LINE
 8
WHITE
 10
53.821
 20
66.4828
 30
0.0000
 11
54.2688
 21
64.9864
 31
0.0000
 6
CONTINUOUS
 0
LINE
 8
WHITE
 10
54.2688
 20
64.9864
 30
0.0000
 11
54.6498
 21
63.3858
 31
0.0000
 6
CONTINUOUS
 0
LINE
 8
WHITE
 10
54.6498
 20
63.3858
 30
0.0000
 11
54.9738
 21
61.6704
 31
0.0000
 6
CONTINUOUS
 0
LINE
 8
WHITE
 10
54.9738
 20
61.6704
 30
0.0000
 11
55.26
 21
59.8215
 31
0.0000
 6
CONTINUOUS
 0
LINE
 8
WHITE
 10
55.26
 20
59.8215
 30
0.0000
 11
55.5075
 21
57.8302
 31
0.0000
 6
CONTINUOUS
 0
LINE
 8
WHITE
 10
55.5075
 20
57.8302
 30
0.0000
 11
55.8983
 21
53.3704
 31
0.0000
 6
CONTINUOUS
 0
LINE
 8
WHITE
 10
55.8983
 20
53.3704
 30
0.0000
 11
55.7171
 21
51.5119
 31
0.0000
 6
CONTINUOUS
 0
LINE
 8
WHITE
 10
55.7171
 20
51.5119
 30
0.0000
 11
55.2885
 21
47.9385
 31
0.0000
 6
CONTINUOUS
 0
LINE
 8
WHITE
 10
55.2885
 20
47.9385
 30
0.0000
 11
54.8501
 21
44.0509
 31
0.0000
 6
CONTINUOUS
 0
LINE
 8
WHITE
 10
54.8501
 20
44.0509
 30
0.0000
 11
54.6975
 21
42.4119
 31
0.0000
 6
CONTINUOUS
 0
LINE
 8
WHITE
 10
54.6975
 20
42.4119
 30
0.0000
 11
54.6344
 21
41.2792
 31
0.0000
 6
CONTINUOUS
 0
ARC
 8
WHITE
 10
54.6743
 20
41.277
 30
 0
 40
.03996
 50
176.844
 51
284.0323
 6
CONTINUOUS
 0
LINE
 8
WHITE
 10
54.684
 20
41.2382
 30
0.0000
 11
54.8181
 21
41.2717
 31
0.0000
 6
CONTINUOUS
 0
LINE
 8
WHITE
 10
54.8181
 20
41.2717
 30
0.0000
 11
55.2512
 21
41.3095
 31
0.0000
 6
CONTINUOUS
 0
ARC
 8
WHITE
 10
55.2547
 20
41.2697
 30
 0
 40
.039953
 50
78.01868
 51
95.02564
 6
CONTINUOUS
 0
LINE
 8
WHITE
 10
55.263
 20
41.3088
 30
0.0000
 11
55.7453
 21
41.2066
 31
0.0000
 6
CONTINUOUS
 0
ARC
 8
WHITE
 10
55.737
 20
41.1675
 30
 0
 40
.039971
 50
53.95855
 51
78.01537
 6
CONTINUOUS
 0
LINE
 8
WHITE
 10
55.7605
 20
41.1998
 30
0.0000
 11
55.9587
 21
41.0558
 31
0.0000
 6
CONTINUOUS
 0
ARC
 8
WHITE
 10
55.9352
 20
41.0234
 30
 0
 40
.040025
 50
34.91771
 51
54.0463
 6
CONTINUOUS
 0
LINE
 8
WHITE
 10
55.968
 20
41.0463
 30
0.0000
 11
56.1107
 21
40.8417
 31
0.0000
 6
CONTINUOUS
 0
ARC
 8
WHITE
 10
56.0779
 20
40.8188
 30
 0
 40
.040003
 50
1.14183
 51
34.92162
 6
CONTINUOUS
 0
LINE
 8
WHITE
 10
56.1179
 20
40.8196
 30
0.0000
 11
56.1364
 21
39.9255
 31
0.0000
 6
CONTINUOUS
 0
LINE
 8
WHITE
 10
56.1364
 20
39.9255
 30
0.0000
 11
56.0985
 21
39.0583
 31
0.0000
 6
CONTINUOUS
 0
LINE
 8
WHITE
 10
56.0985
 20
39.0583
 30
0.0000
 11
56.0032
 21
38.2289
 31
0.0000
 6
CONTINUOUS
 0
LINE
 8
WHITE
 10
56.0032
 20
38.2289
 30
0.0000
 11
55.8412
 21
37.4284
 31
0.0000
 6
CONTINUOUS
 0
LINE
 8
WHITE
 10
55.8412
 20
37.4284
 30
0.0000
 11
55.393
 21
35.8558
 31
0.0000
 6
CONTINUOUS
 0
LINE
 8
WHITE
 10
55.393
 20
35.8558
 30
0.0000
 11
54.7831
 21
34.2929
 31
0.0000
 6
CONTINUOUS
 0
LINE
 8
WHITE
 10
54.7831
 20
34.2929
 30
0.0000
 11
54.6307
 21
33.9878
 31
0.0000
 6
CONTINUOUS
 0
LINE
 8
WHITE
 10
54.6307
 20
33.9878
 30
0.0000
 11
54.4112
 21
33.6443
 31
0.0000
 6
CONTINUOUS
 0
LINE
 8
WHITE
 10
54.4112
 20
33.6443
 30
0.0000
 11
54.0392
 21
33.2247
 31
0.0000
 6
CONTINUOUS
 0
LINE
 8
WHITE
 10
54.0392
 20
33.2247
 30
0.0000
 11
53.5677
 21
32.8367
 31
0.0000
 6
CONTINUOUS
 0
ARC
 8
WHITE
 10
53.5931
 20
32.8058
 30
 0
 40
.039999
 50
129.4204
 51
174.4052
 6
CONTINUOUS
 0
LINE
 8
WHITE
 10
53.5533
 20
32.8097
 30
0.0000
 11
53.4971
 21
32.2259
 31
0.0000
 6
CONTINUOUS
 0
LINE
 8
WHITE
 10
53.4971
 20
32.2259
 30
0.0000
 11
53.2776
 21
31.2153
 31
0.0000
 6
CONTINUOUS
 0
LINE
 8
WHITE
 10
53.2776
 20
31.2153
 30
0.0000
 11
52.9059
 21
30.0717
 31
0.0000
 6
CONTINUOUS
 0
LINE
 8
WHITE
 10
52.9059
 20
30.0717
 30
0.0000
 11
52.3913
 21
28.8995
 31
0.0000
 6
CONTINUOUS
 0
LINE
 8
WHITE
 10
52.3913
 20
28.8995
 30
0.0000
 11
51.7244
 21
27.7746
 31
0.0000
 6
CONTINUOUS
 0
LINE
 8
WHITE
 10
51.7244
 20
27.7746
 30
0.0000
 11
51.3237
 21
27.2598
 31
0.0000
 6
CONTINUOUS
 0
LINE
 8
WHITE
 10
51.3237
 20
27.2598
 30
0.0000
 11
50.8948
 21
26.8025
 31
0.0000
 6
CONTINUOUS
 0
LINE
 8
WHITE
 10
50.8948
 20
26.8025
 30
0.0000
 11
50.4277
 21
26.4017
 31
0.0000
 6
CONTINUOUS
 0
LINE
 8
WHITE
 10
50.4277
 20
26.4017
 30
0.0000
 11
49.9024
 21
26.071
 31
0.0000
 6
CONTINUOUS
 0
ARC
 8
WHITE
 10
49.9237
 20
26.0372
 30
 0
 40
.039951
 50
122.2182
 51
171.3624
 6
CONTINUOUS
 0
LINE
 8
WHITE
 10
49.8842
 20
26.0432
 30
0.0000
 11
49.371
 21
22.6874
 31
0.0000
 6
CONTINUOUS
 0
LINE
 8
WHITE
 10
49.371
 20
22.6874
 30
0.0000
 11
48.4657
 21
17.9897
 31
0.0000
 6
CONTINUOUS
 0
LINE
 8
WHITE
 10
48.4657
 20
17.9897
 30
0.0000
 11
47.0557
 21
11.4146
 31
0.0000
 6
CONTINUOUS
 0
LINE
 8
WHITE
 10
47.0557
 20
11.4146
 30
0.0000
 11
46.9221
 21
10.9763
 31
0.0000
 6
CONTINUOUS
 0
LINE
 8
WHITE
 10
46.9221
 20
10.9763
 30
0.0000
 11
46.674
 21
10.4232
 31
0.0000
 6
CONTINUOUS
 0
LINE
 8
WHITE
 10
46.674
 20
10.4232
 30
0.0000
 11
45.8451
 21
9.041099
 31
0.0000
 6
CONTINUOUS
 0
LINE
 8
WHITE
 10
45.8451
 20
9.041099
 30
0.0000
 11
44.6251
 21
7.4021
 31
0.0000
 6
CONTINUOUS
 0
LINE
 8
WHITE
 10
44.6251
 20
7.4021
 30
0.0000
 11
43.0814
 21
5.6391
 31
0.0000
 6
CONTINUOUS
 0
LINE
 8
WHITE
 10
43.0814
 20
5.6391
 30
0.0000
 11
41.2801
 21
3.9045
 31
0.0000
 6
CONTINUOUS
 0
LINE
 8
WHITE
 10
41.2801
 20
3.9045
 30
0.0000
 11
40.2986
 21
3.085
 31
0.0000
 6
CONTINUOUS
 0
LINE
 8
WHITE
 10
40.2986
 20
3.085
 30
0.0000
 11
39.2788
 21
2.322499
 31
0.0000
 6
CONTINUOUS
 0
LINE
 8
WHITE
 10
39.2788
 20
2.322499
 30
0.0000
 11
38.2212
 21
1.6459
 31
0.0000
 6
CONTINUOUS
 0
LINE
 8
WHITE
 10
38.2212
 20
1.6459
 30
0.0000
 11
37.1439
 21
1.055199
 31
0.0000
 6
CONTINUOUS
 0
LINE
 8
WHITE
 10
37.1439
 20
1.055199
 30
0.0000
 11
36.0386
 21
.5784
 31
0.0000
 6
CONTINUOUS
 0
LINE
 8
WHITE
 10
36.0386
 20
.5784
 30
0.0000
 11
34.9327
 21
.225799
 31
0.0000
 6
CONTINUOUS
 0
LINE
 8
WHITE
 10
34.9327
 20
.225799
 30
0.0000
 11
33.9412
 21
.0353
 31
0.0000
 6
CONTINUOUS
 0
LINE
 8
WHITE
 10
33.9412
 20
.0353
 30
0.0000
 11
33.1023
 21
-.003
 31
0.0000
 6
CONTINUOUS
 0
LINE
 8
WHITE
 10
33.1023
 20
-.003
 30
0.0000
 11
32.3587
 21
.0544
 31
0.0000
 6
CONTINUOUS
 0
LINE
 8
WHITE
 10
32.3587
 20
.0544
 30
0.0000
 11
31.6824
 21
.1876
 31
0.0000
 6
CONTINUOUS
 0
LINE
 8
WHITE
 10
31.6824
 20
.1876
 30
0.0000
 11
30.2818
 21
.5213
 31
0.0000
 6
CONTINUOUS
 0
LINE
 8
WHITE
 10
30.2818
 20
.5213
 30
0.0000
 11
29.4627
 21
.654799
 31
0.0000
 6
CONTINUOUS
 0
LINE
 8
WHITE
 10
29.4627
 20
.654799
 30
0.0000
 11
28.5192
 21
.711799
 31
0.0000
 6
CONTINUOUS
 0
LINE
 8
WHITE
 10
28.5192
 20
.711799
 30
0.0000
 11
28.4468
 21
.721199
 31
0.0000
 6
CONTINUOUS
 0
ENDSEC
 0
EOF
