  0
SECTION
  2
HEADER
  9
$ACADVER
  1
AC1018
  9
$ACADMAINTVER
 70
     0
  9
$DWGCODEPAGE
  3
ANSI_1256
  9
$INSBASE
 10
0.0
 20
0.0
 30
0.0
  9
$EXTMIN
 10
0.0
 20
0.0
 30
0.0
  9
$EXTMAX
 10
38.2392
 20
67.5954
 30
0.0
  9
$LIMMIN
 10
0.0
 20
0.0
  9
$LIMMAX
 10
12.0
 20
9.0
  9
$ORTHOMODE
 70
     0
  9
$REGENMODE
 70
     1
  9
$FILLMODE
 70
     1
  9
$QTEXTMODE
 70
     0
  9
$MIRRTEXT
 70
     1
  9
$LTSCALE
 40
1.0
  9
$ATTMODE
 70
     1
  9
$TEXTSIZE
 40
0.2
  9
$TRACEWID
 40
0.05
  9
$TEXTSTYLE
  7
Standard
  9
$CLAYER
  8
0
  9
$CELTYPE
  6
ByBlock
  9
$CECOLOR
 62
   256
  9
$CELTSCALE
 40
1.0
  9
$DISPSILH
 70
     0
  9
$DIMSCALE
 40
1.0
  9
$DIMASZ
 40
0.18
  9
$DIMEXO
 40
0.0625
  9
$DIMDLI
 40
0.38
  9
$DIMRND
 40
0.0
  9
$DIMDLE
 40
0.0
  9
$DIMEXE
 40
0.18
  9
$DIMTP
 40
0.0
  9
$DIMTM
 40
0.0
  9
$DIMTXT
 40
0.18
  9
$DIMCEN
 40
0.09
  9
$DIMTSZ
 40
0.0
  9
$DIMTOL
 70
     0
  9
$DIMLIM
 70
     0
  9
$DIMTIH
 70
     1
  9
$DIMTOH
 70
     1
  9
$DIMSE1
 70
     0
  9
$DIMSE2
 70
     0
  9
$DIMTAD
 70
     0
  9
$DIMZIN
 70
     0
  9
$DIMBLK
  1

  9
$DIMASO
 70
     1
  9
$DIMSHO
 70
     1
  9
$DIMPOST
  1

  9
$DIMAPOST
  1

  9
$DIMALT
 70
     0
  9
$DIMALTD
 70
     2
  9
$DIMALTF
 40
25.4
  9
$DIMLFAC
 40
1.0
  9
$DIMTOFL
 70
     0
  9
$DIMTVP
 40
0.0
  9
$DIMTIX
 70
     0
  9
$DIMSOXD
 70
     0
  9
$DIMSAH
 70
     0
  9
$DIMBLK1
  1

  9
$DIMBLK2
  1

  9
$DIMSTYLE
  2
Standard
  9
$DIMCLRD
 70
     0
  9
$DIMCLRE
 70
     0
  9
$DIMCLRT
 70
     0
  9
$DIMTFAC
 40
1.0
  9
$DIMGAP
 40
0.09
  9
$DIMJUST
 70
     0
  9
$DIMSD1
 70
     0
  9
$DIMSD2
 70
     0
  9
$DIMTOLJ
 70
     1
  9
$DIMTZIN
 70
     0
  9
$DIMALTZ
 70
     0
  9
$DIMALTTZ
 70
     0
  9
$DIMUPT
 70
     0
  9
$DIMDEC
 70
     4
  9
$DIMTDEC
 70
     4
  9
$DIMALTU
 70
     2
  9
$DIMALTTD
 70
     2
  9
$DIMTXSTY
  7
Standard
  9
$DIMAUNIT
 70
     0
  9
$DIMADEC
 70
     0
  9
$DIMALTRND
 40
0.0
  9
$DIMAZIN
 70
     0
  9
$DIMDSEP
 70
    46
  9
$DIMATFIT
 70
     3
  9
$DIMFRAC
 70
     0
  9
$DIMLDRBLK
  1

  9
$DIMLUNIT
 70
     2
  9
$DIMLWD
 70
    -2
  9
$DIMLWE
 70
    -2
  9
$DIMTMOVE
 70
     2
  9
$LUNITS
 70
     2
  9
$LUPREC
 70
     4
  9
$SKETCHINC
 40
0.1
  9
$FILLETRAD
 40
0.5
  9
$AUNITS
 70
     0
  9
$AUPREC
 70
     0
  9
$MENU
  1
.
  9
$ELEVATION
 40
0.0
  9
$PELEVATION
 40
0.0
  9
$THICKNESS
 40
0.0
  9
$LIMCHECK
 70
     0
  9
$CHAMFERA
 40
0.0
  9
$CHAMFERB
 40
0.0
  9
$CHAMFERC
 40
0.0
  9
$CHAMFERD
 40
0.0
  9
$SKPOLY
 70
     0
  9
$TDCREATE
 40
2457950.870403646
  9
$TDUCREATE
 40
2457950.745403646
  9
$TDUPDATE
 40
2457950.870404097
  9
$TDUUPDATE
 40
2457950.745404097
  9
$TDINDWG
 40
0.0000000116
  9
$TDUSRTIMER
 40
0.0000000116
  9
$USRTIMER
 70
     1
  9
$ANGBASE
 50
0.0
  9
$ANGDIR
 70
     0
  9
$PDMODE
 70
     0
  9
$PDSIZE
 40
0.0
  9
$PLINEWID
 40
0.0
  9
$SPLFRAME
 70
     0
  9
$SPLINETYPE
 70
     6
  9
$SPLINESEGS
 70
     8
  9
$HANDSEED
  5
C4E
  9
$SURFTAB1
 70
     6
  9
$SURFTAB2
 70
     6
  9
$SURFTYPE
 70
     6
  9
$SURFU
 70
     6
  9
$SURFV
 70
     6
  9
$UCSBASE
  2

  9
$UCSNAME
  2

  9
$UCSORG
 10
0.0
 20
0.0
 30
0.0
  9
$UCSXDIR
 10
1.0
 20
0.0
 30
0.0
  9
$UCSYDIR
 10
0.0
 20
1.0
 30
0.0
  9
$UCSORTHOREF
  2

  9
$UCSORTHOVIEW
 70
     0
  9
$UCSORGTOP
 10
0.0
 20
0.0
 30
0.0
  9
$UCSORGBOTTOM
 10
0.0
 20
0.0
 30
0.0
  9
$UCSORGLEFT
 10
0.0
 20
0.0
 30
0.0
  9
$UCSORGRIGHT
 10
0.0
 20
0.0
 30
0.0
  9
$UCSORGFRONT
 10
0.0
 20
0.0
 30
0.0
  9
$UCSORGBACK
 10
0.0
 20
0.0
 30
0.0
  9
$PUCSBASE
  2

  9
$PUCSNAME
  2

  9
$PUCSORG
 10
0.0
 20
0.0
 30
0.0
  9
$PUCSXDIR
 10
1.0
 20
0.0
 30
0.0
  9
$PUCSYDIR
 10
0.0
 20
1.0
 30
0.0
  9
$PUCSORTHOREF
  2

  9
$PUCSORTHOVIEW
 70
     0
  9
$PUCSORGTOP
 10
0.0
 20
0.0
 30
0.0
  9
$PUCSORGBOTTOM
 10
0.0
 20
0.0
 30
0.0
  9
$PUCSORGLEFT
 10
0.0
 20
0.0
 30
0.0
  9
$PUCSORGRIGHT
 10
0.0
 20
0.0
 30
0.0
  9
$PUCSORGFRONT
 10
0.0
 20
0.0
 30
0.0
  9
$PUCSORGBACK
 10
0.0
 20
0.0
 30
0.0
  9
$USERI1
 70
     0
  9
$USERI2
 70
     0
  9
$USERI3
 70
     0
  9
$USERI4
 70
     0
  9
$USERI5
 70
     0
  9
$USERR1
 40
0.0
  9
$USERR2
 40
0.0
  9
$USERR3
 40
0.0
  9
$USERR4
 40
0.0
  9
$USERR5
 40
0.0
  9
$WORLDVIEW
 70
     1
  9
$SHADEDGE
 70
     3
  9
$SHADEDIF
 70
    70
  9
$TILEMODE
 70
     1
  9
$MAXACTVP
 70
    64
  9
$PINSBASE
 10
0.0
 20
0.0
 30
0.0
  9
$PLIMCHECK
 70
     0
  9
$PEXTMIN
 10
1.000000000000000E+20
 20
1.000000000000000E+20
 30
1.000000000000000E+20
  9
$PEXTMAX
 10
-1.000000000000000E+20
 20
-1.000000000000000E+20
 30
-1.000000000000000E+20
  9
$PLIMMIN
 10
0.0
 20
0.0
  9
$PLIMMAX
 10
12.0
 20
9.0
  9
$UNITMODE
 70
     0
  9
$VISRETAIN
 70
     1
  9
$PLINEGEN
 70
     0
  9
$PSLTSCALE
 70
     1
  9
$TREEDEPTH
 70
  3020
  9
$CMLSTYLE
  2
Standard
  9
$CMLJUST
 70
     0
  9
$CMLSCALE
 40
1.0
  9
$PROXYGRAPHICS
 70
     1
  9
$MEASUREMENT
 70
     0
  9
$CELWEIGHT
370
    -1
  9
$ENDCAPS
280
     0
  9
$JOINSTYLE
280
     0
  9
$LWDISPLAY
290
     0
  9
$INSUNITS
 70
     0
  9
$HYPERLINKBASE
  1

  9
$STYLESHEET
  1

  9
$XEDIT
290
     1
  9
$CEPSNTYPE
380
     0
  9
$PSTYLEMODE
290
     1
  9
$FINGERPRINTGUID
  2
{A05B48C5-9389-4B10-A609-E9F661F75E22}
  9
$VERSIONGUID
  2
{FAEB1C32-E019-11D5-929B-00C0DF256EC4}
  9
$EXTNAMES
290
     1
  9
$PSVPSCALE
 40
0.0
  9
$OLESTARTUP
290
     0
  9
$SORTENTS
280
   127
  9
$INDEXCTL
280
     0
  9
$HIDETEXT
280
     1
  9
$XCLIPFRAME
290
     0
  9
$HALOGAP
280
     0
  9
$OBSCOLOR
 70
   257
  9
$OBSLTYPE
280
     0
  9
$INTERSECTIONDISPLAY
280
     0
  9
$INTERSECTIONCOLOR
 70
   257
  9
$DIMASSOC
280
     2
  9
$PROJECTNAME
  1

  0
ENDSEC
  0
SECTION
  2
CLASSES
  0
CLASS
  1
ACDBDICTIONARYWDFLT
  2
AcDbDictionaryWithDefault
  3
ObjectDBX Classes
 90
        0
 91
        4
280
     0
281
     0
  0
CLASS
  1
SCALE
  2
AcDbScale
  3
ObjectDBX Classes
 90
     1153
 91
        4
280
     0
281
     0
  0
CLASS
  1
VISUALSTYLE
  2
AcDbVisualStyle
  3
ObjectDBX Classes
 90
     4095
 91
        4
280
     0
281
     0
  0
CLASS
  1
MATERIAL
  2
AcDbMaterial
  3
ObjectDBX Classes
 90
     1153
 91
        4
280
     0
281
     0
  0
CLASS
  1
TABLESTYLE
  2
AcDbTableStyle
  3
ObjectDBX Classes
 90
     4095
 91
        4
280
     0
281
     0
  0
CLASS
  1
MLEADERSTYLE
  2
AcDbMLeaderStyle
  3
ACDB_MLEADERSTYLE_CLASS
 90
     4095
 91
        4
280
     0
281
     0
  0
CLASS
  1
DICTIONARYVAR
  2
AcDbDictionaryVar
  3
ObjectDBX Classes
 90
        0
 91
        4
280
     0
281
     0
  0
CLASS
  1
CELLSTYLEMAP
  2
AcDbCellStyleMap
  3
ObjectDBX Classes
 90
     1152
 91
        4
280
     0
281
     0
  0
ENDSEC
  0
SECTION
  2
TABLES
  0
TABLE
  2
VPORT
  5
8
102
{ACAD_XDICTIONARY
360
C07
102
}
330
0
100
AcDbSymbolTable
 70
     1
  0
VPORT
  5
21
330
8
100
AcDbSymbolTableRecord
100
AcDbViewportTableRecord
  2
*Active
 70
     0
 10
0.0
 20
0.0
 11
1.0
 21
1.0
 12
10.42990654205607
 22
4.5
 13
0.0
 23
0.0
 14
0.5
 24
0.5
 15
0.5
 25
0.5
 16
0.0
 26
0.0
 36
1.0
 17
0.0
 27
0.0
 37
0.0
 40
9.0
 41
1.972972972850329
 42
50.0
 43
0.0
 44
0.0
 50
0.0
 51
0.0
 71
     0
 72
   100
 73
     1
 74
     3
 75
     0
 76
     0
 77
     0
 78
     0
281
     0
 65
     1
110
0.0
120
0.0
130
0.0
111
1.0
121
0.0
131
0.0
112
0.0
122
1.0
132
0.0
 79
     0
146
0.0
  0
ENDTAB
  0
TABLE
  2
LTYPE
  5
5
330
0
100
AcDbSymbolTable
 70
     1
  0
LTYPE
  5
14
330
5
100
AcDbSymbolTableRecord
100
AcDbLinetypeTableRecord
  2
ByBlock
 70
     0
  3

 72
    65
 73
     0
 40
0.0
  0
LTYPE
  5
15
330
5
100
AcDbSymbolTableRecord
100
AcDbLinetypeTableRecord
  2
ByLayer
 70
     0
  3

 72
    65
 73
     0
 40
0.0
  0
LTYPE
  5
16
330
5
100
AcDbSymbolTableRecord
100
AcDbLinetypeTableRecord
  2
Continuous
 70
     0
  3
Solid line
 72
    65
 73
     0
 40
0.0
  0
ENDTAB
  0
TABLE
  2
LAYER
  5
2
330
0
100
AcDbSymbolTable
 70
     1
  0
LAYER
  5
10
330
2
100
AcDbSymbolTableRecord
100
AcDbLayerTableRecord
  2
0
 70
     0
 62
     7
  6
Continuous
370
    -3
390
F
  0
ENDTAB
  0
TABLE
  2
STYLE
  5
3
330
0
100
AcDbSymbolTable
 70
     1
  0
STYLE
  5
11
330
3
100
AcDbSymbolTableRecord
100
AcDbTextStyleTableRecord
  2
Standard
 70
     0
 40
0.0
 41
1.0
 50
0.0
 71
     0
 42
0.2
  3
txt
  4

  0
ENDTAB
  0
TABLE
  2
VIEW
  5
6
330
0
100
AcDbSymbolTable
 70
     0
  0
ENDTAB
  0
TABLE
  2
UCS
  5
7
330
0
100
AcDbSymbolTable
 70
     0
  0
ENDTAB
  0
TABLE
  2
APPID
  5
9
330
0
100
AcDbSymbolTable
 70
     2
  0
APPID
  5
12
330
9
100
AcDbSymbolTableRecord
100
AcDbRegAppTableRecord
  2
ACAD
 70
     0
  0
APPID
  5
C45
330
9
100
AcDbSymbolTableRecord
100
AcDbRegAppTableRecord
  2
ACAD_MLEADERVER
 70
     0
  0
ENDTAB
  0
TABLE
  2
DIMSTYLE
  5
A
330
0
100
AcDbSymbolTable
 70
     1
100
AcDbDimStyleTable
  0
DIMSTYLE
105
20
330
A
100
AcDbSymbolTableRecord
100
AcDbDimStyleTableRecord
  2
Standard
 70
     0
178
     0
340
11
  0
ENDTAB
  0
TABLE
  2
BLOCK_RECORD
  5
1
330
0
100
AcDbSymbolTable
 70
     0
  0
BLOCK_RECORD
  5
1D
330
1
100
AcDbSymbolTableRecord
100
AcDbBlockTableRecord
  2
*Model_Space
340
1E
  0
BLOCK_RECORD
  5
1B
330
1
100
AcDbSymbolTableRecord
100
AcDbBlockTableRecord
  2
*Paper_Space
340
1C
  0
ENDTAB
  0
ENDSEC
  0
SECTION
  2
BLOCKS
  0
BLOCK
  5
BE2
330
1D
100
AcDbEntity
  8
0
100
AcDbBlockBegin
  2
*Model_Space
 70
     0
 10
0.0
 20
0.0
 30
0.0
  3
*Model_Space
  1

  0
ENDBLK
  5
BE3
330
1D
100
AcDbEntity
  8
0
100
AcDbBlockEnd
  0
BLOCK
  5
BE4
330
1B
100
AcDbEntity
 67
     1
  8
0
100
AcDbBlockBegin
  2
*Paper_Space
 70
     0
 10
0.0
 20
0.0
 30
0.0
  3
*Paper_Space
  1

  0
ENDBLK
  5
BE5
330
1B
100
AcDbEntity
 67
     1
  8
0
100
AcDbBlockEnd
  0
ENDSEC
  0
SECTION
  2
ENTITIES
  0
LWPOLYLINE
  5
22
330
1D
100
AcDbEntity
  8
0
100
AcDbPolyline
 90
        8
 70
     1
 43
0.0
 10
19.11972
 20
67.0032
 10
0.5922
 20
67.0032
 10
0.5922
 20
37.39301
 10
0.5922
 20
7.78282
 10
19.09845
 20
7.80416
 10
37.6047
 20
7.8255
 10
37.62597
 20
37.41435
 10
37.647239
 20
67.0032
  0
LWPOLYLINE
  5
2C
330
1D
100
AcDbEntity
  8
0
100
AcDbPolyline
 90
      114
 70
     1
 43
0.0
 10
19.074645
 20
62.0118
 42
-0.244623
 10
19.090971
 20
62.003304
 42
-0.004281
 10
19.149237
 20
61.918608
 42
-0.009725
 10
19.215572
 20
61.816153
 42
-0.006196
 10
19.288917
 20
61.69455
 42
0.039109
 10
19.398379
 20
61.53744
 42
0.011521
 10
19.589847
 20
61.314565
 42
0.011491
 10
19.817514
 20
61.072988
 42
0.012119
 10
20.052126
 20
60.846485
 42
-0.016611
 10
20.285983
 20
60.616618
 42
-0.01519
 10
20.511385
 20
60.364953
 42
-0.015401
 10
20.698842
 20
60.127964
 42
-0.046931
 10
20.805053
 20
59.952625
 42
-0.032389
 10
20.880975
 20
59.765849
 42
-0.029605
 10
20.934818
 20
59.565174
 42
-0.028579
 10
20.966048
 20
59.352497
 42
-0.02567
 10
20.974364
 20
59.12984
 42
-0.017965
 10
20.964618
 20
58.934789
 42
-0.015028
 10
20.940645
 20
58.728887
 42
-0.015293
 10
20.907275
 20
58.541839
 42
-0.039581
 10
20.868614
 20
58.410485
 42
-0.023794
 10
20.818316
 20
58.295685
 42
-0.014462
 10
20.748635
 20
58.164873
 42
-0.01448
 10
20.67183
 20
58.038846
 42
-0.024696
 10
20.599637
 20
57.938925
 42
-0.033831
 10
20.50996
 20
57.841241
 42
-0.013726
 10
20.375638
 20
57.7203
 42
-0.013508
 10
20.22355
 20
57.597674
 42
-0.016737
 10
20.075336
 20
57.492293
 42
-0.037012
 10
19.850117
 20
57.366133
 42
-0.048036
 10
19.627219
 20
57.287128
 42
-0.032571
 10
19.333727
 20
57.233871
 42
-0.00816
 10
18.849099
 20
57.18619
 42
0.001844
 10
18.48034
 20
57.154607
 42
0.001589
 10
18.093065
 20
57.118757
 42
0.0016
 10
17.741967
 20
57.083995
 42
0.004635
 10
17.499315
 20
57.056912
 10
17.021129
 20
56.999047
 10
16.762041
 20
57.356708
 42
-0.011153
 10
16.658968
 20
57.505889
 42
-0.01142
 10
16.563491
 20
57.65836
 42
-0.011233
 10
16.486718
 20
57.794281
 42
-0.046123
 10
16.449952
 20
57.88136
 42
-0.027507
 10
16.432688
 20
57.94832
 42
-0.035284
 10
16.424644
 20
58.011421
 42
-0.038004
 10
16.425661
 20
58.062975
 42
-0.174156
 10
16.438224
 20
58.089624
 42
-0.1124
 10
16.471455
 20
58.11053
 42
-0.005042
 10
16.600413
 20
58.154355
 42
-0.008254
 10
16.755886
 20
58.202619
 42
-0.005792
 10
16.932399
 20
58.252025
 42
-0.021059
 10
17.156111
 20
58.301868
 42
-0.008616
 10
17.463496
 20
58.351434
 42
-0.008507
 10
17.79591
 20
58.393416
 42
-0.01077
 10
18.1044
 20
58.420346
 42
0.002708
 10
18.398784
 20
58.441268
 42
0.002828
 10
18.688677
 20
58.465098
 42
0.002716
 10
18.938919
 20
58.488466
 42
0.01246
 10
19.083628
 20
58.506423
 42
0.044582
 10
19.196664
 20
58.533783
 42
0.028927
 10
19.3214
 20
58.584245
 42
0.029044
 10
19.43843
 20
58.64823
 42
0.047942
 10
19.527778
 20
58.716748
 42
0.051755
 10
19.598208
 20
58.797481
 42
0.039903
 10
19.657743
 20
58.898125
 42
0.040991
 10
19.698476
 20
59.002376
 42
0.072762
 10
19.7118
 20
59.093452
 42
0.089197
 10
19.69393
 20
59.192827
 42
0.031055
 10
19.634672
 20
59.326261
 42
0.029681
 10
19.549721
 20
59.468183
 42
0.030463
 10
19.449236
 20
59.597756
 42
0.017871
 10
19.341209
 20
59.712267
 42
0.023058
 10
19.233747
 20
59.808956
 42
0.021773
 10
19.139073
 20
59.879892
 42
0.151005
 10
19.084364
 20
59.8968
 42
0.134314
 10
19.030513
 20
59.882068
 42
0.023957
 10
18.942536
 20
59.824182
 42
0.024375
 10
18.843392
 20
59.744236
 42
0.019869
 10
18.745213
 20
59.64959
 42
0.03071
 10
18.623504
 20
59.505846
 42
0.076834
 10
18.559228
 20
59.384705
 42
0.076833
 10
18.534531
 20
59.249809
 42
0.030708
 10
18.540873
 20
59.061563
 42
-0.016335
 10
18.554496
 20
58.84358
 42
-0.168262
 10
18.527928
 20
58.758794
 42
-0.179954
 10
18.455382
 20
58.711508
 42
-0.019232
 10
18.254288
 20
58.674273
 42
0.000079
 10
18.108053
 20
58.652951
 42
0.000045
 10
17.931016
 20
58.627093
 42
0.000045
 10
17.752626
 20
58.601004
 42
0.000074
 10
17.601868
 20
58.57892
 42
-0.016234
 10
17.389496
 20
58.55479
 42
-0.16586
 10
17.304866
 20
58.576224
 42
-0.183436
 10
17.25532
 20
58.64401
 42
-0.020726
 10
17.211753
 20
58.83272
 42
-0.029828
 10
17.194217
 20
58.971371
 42
-0.017429
 10
17.188971
 20
59.138821
 42
-0.017391
 10
17.195434
 20
59.307388
 42
-0.028094
 10
17.213938
 20
59.449727
 42
-0.020541
 10
17.245852
 20
59.588197
 42
-0.013497
 10
17.293359
 20
59.744768
 42
-0.013587
 10
17.347958
 20
59.894923
 42
-0.025335
 10
17.401501
 20
60.01273
 42
-0.053645
 10
17.491232
 20
60.148371
 42
-0.008624
 10
17.698044
 20
60.389531
 42
-0.009447
 10
17.952872
 20
60.66582
 42
-0.008168
 10
18.230427
 20
60.946253
 42
0.009009
 10
18.502853
 20
61.222432
 42
0.01167
 10
18.742021
 20
61.485841
 42
0.009478
 10
18.931343
 20
61.712952
 42
0.095549
 10
18.98858
 20
61.82145
 42
-0.012721
 10
19.012784
 20
61.894402
 42
-0.019713
 10
19.037713
 20
61.955885
 42
-0.014779
 10
19.060982
 20
62.003545
 42
-0.278658
  0
LWPOLYLINE
  5
A0
330
1D
100
AcDbEntity
  8
0
100
AcDbPolyline
 90
      104
 70
     1
 43
0.0
 10
10.959452
 20
59.7276
 10
15.968704
 20
59.7276
 10
16.004464
 20
58.979643
 42
0.012084
 10
16.033679
 20
58.57425
 42
0.031389
 10
16.079968
 20
58.28533
 42
0.037291
 10
16.156475
 20
58.034606
 42
0.024425
 10
16.279601
 20
57.758565
 42
0.01957
 10
16.393548
 20
57.553671
 42
0.013199
 10
16.538625
 20
57.32885
 42
0.013309
 10
16.690703
 20
57.118544
 42
0.025625
 10
16.825239
 20
56.960087
 42
0.012564
 10
16.961066
 20
56.822867
 42
0.009619
 10
17.11609
 20
56.679563
 42
0.009744
 10
17.266484
 20
56.550971
 42
0.022592
 10
17.3853
 20
56.461999
 42
0.02492
 10
17.509524
 20
56.386222
 42
0.011819
 10
17.676377
 20
56.300567
 42
0.011682
 10
17.855484
 20
56.219015
 42
0.016213
 10
18.0198
 20
56.155001
 42
0.018405
 10
18.196792
 20
56.099812
 42
0.010256
 10
18.415917
 20
56.045039
 42
0.010219
 10
18.640157
 20
55.998649
 42
0.016294
 10
18.833683
 20
55.969208
 42
0.026511
 10
19.032434
 20
55.956194
 42
0.01509
 10
19.273309
 20
55.960484
 42
0.015039
 10
19.516247
 20
55.979486
 42
0.023986
 10
19.721983
 20
56.011864
 42
0.028501
 10
19.935121
 20
56.068803
 42
0.013371
 10
20.203799
 20
56.16529
 42
0.0132
 10
20.48079
 20
56.281719
 42
0.018068
 10
20.723107
 20
56.401908
 10
21.269115
 20
56.69777
 10
21.802734
 20
56.553326
 42
-0.01217
 10
22.011187
 20
56.491418
 42
-0.016486
 10
22.19599
 20
56.424797
 42
-0.013451
 10
22.344159
 20
56.361125
 42
-0.147163
 10
22.392141
 20
56.318616
 42
-0.287411
 10
22.391797
 20
56.262823
 42
-0.023182
 10
22.303579
 20
56.137205
 42
-0.025662
 10
22.175218
 20
55.987841
 42
-0.016522
 10
22.012315
 20
55.827803
 42
-0.019844
 10
21.813029
 20
55.658647
 42
-0.01345
 10
21.57365
 20
55.481451
 42
-0.013567
 10
21.332791
 20
55.322548
 42
-0.026243
 10
21.130701
 20
55.211204
 42
-0.016309
 10
20.923541
 20
55.119067
 42
-0.009279
 10
20.667597
 20
55.020584
 42
-0.009258
 10
20.405913
 20
54.930878
 42
-0.015096
 10
20.180476
 20
54.865676
 42
-0.020775
 10
19.947244
 20
54.816011
 42
-0.011705
 10
19.660851
 20
54.774234
 42
-0.011667
 10
19.369365
 20
54.745543
 42
-0.018697
 10
19.1196
 20
54.7362
 42
-0.018523
 10
18.870854
 20
54.745418
 42
-0.011804
 10
18.582623
 20
54.773666
 42
-0.011858
 10
18.300871
 20
54.814813
 42
-0.021522
 10
18.073274
 20
54.863744
 42
-0.014446
 10
17.853356
 20
54.927863
 42
-0.008676
 10
17.596057
 20
55.015977
 42
-0.008685
 10
17.342975
 20
55.112586
 42
-0.014964
 10
17.136333
 20
55.202879
 42
-0.031602
 10
16.926922
 20
55.31866
 42
-0.013491
 10
16.661772
 20
55.498206
 42
-0.013286
 10
16.388448
 20
55.70546
 42
-0.017024
 10
16.148883
 20
55.911119
 42
-0.01962
 10
15.895871
 20
56.162755
 42
-0.020237
 10
15.666082
 20
56.430952
 42
-0.020712
 10
15.463884
 20
56.710298
 42
-0.023193
 10
15.29352
 20
56.995322
 42
-0.013882
 10
15.164544
 20
57.25266
 42
-0.010669
 10
15.037662
 20
57.540252
 42
-0.010814
 10
14.930501
 20
57.814471
 42
-0.025098
 10
14.865107
 20
58.02533
 10
14.751875
 20
58.467784
 10
10.992587
 20
58.463529
 42
0.000007
 10
9.546746
 20
58.461873
 42
0.000011
 10
8.318952
 20
58.460425
 42
0.000001
 10
7.220951
 20
58.459103
 42
0.001026
 10
7.16985
 20
58.458937
 42
0.409349
 10
7.14379
 20
58.433033
 42
0.000116
 10
7.125038
 20
56.74276
 42
0.001697
 10
7.11096
 20
54.857053
 42
0.001018
 10
7.1064
 20
52.617106
 10
7.1064
 20
46.775612
 10
7.6986
 20
46.167958
 42
-0.003621
 10
7.925595
 20
45.931638
 42
-0.005687
 10
8.116841
 20
45.724971
 42
-0.001838
 10
8.278893
 20
45.544477
 42
-0.18402
 10
8.2908
 20
45.513221
 42
-0.182482
 10
8.279447
 20
45.48315
 42
-0.003844
 10
8.171611
 20
45.362573
 42
-0.008403
 10
8.040553
 20
45.223063
 42
-0.0055
 10
7.885052
 20
45.066492
 10
7.479304
 20
44.666845
 10
6.661315
 20
45.467734
 10
5.843326
 20
46.268622
 10
5.838936
 20
52.940284
 42
-0.000812
 10
5.841412
 20
55.502484
 42
-0.001337
 10
5.852822
 20
57.669132
 42
-0.000102
 10
5.868656
 20
59.613184
 42
-0.196744
 10
5.892373
 20
59.669773
 42
-0.195762
 10
5.948627
 20
59.693475
 42
-0.000179
 10
7.404681
 20
59.710613
 42
-0.001772
 10
9.034702
 20
59.723439
 42
-0.001081
  0
LWPOLYLINE
  5
10A
330
1D
100
AcDbEntity
  8
0
100
AcDbPolyline
 90
       50
 70
     1
 43
0.0
 10
27.30465
 20
59.707116
 10
32.3595
 20
59.6853
 10
32.38208
 20
52.982583
 10
32.40466
 20
46.279866
 10
30.707455
 20
44.586033
 42
-0.001015
 10
30.054081
 20
43.936599
 42
-0.001665
 10
29.497998
 20
43.389763
 42
-0.000158
 10
28.998934
 20
42.902565
 42
-0.195705
 10
28.973467
 20
42.8922
 42
-0.193218
 10
28.949884
 20
42.901667
 42
-0.002904
 10
28.84136
 20
43.006746
 42
-0.007366
 10
28.716528
 20
43.132685
 42
-0.004743
 10
28.575392
 20
43.282144
 42
-0.004147
 10
28.435306
 20
43.435877
 42
-0.005884
 10
28.313477
 20
43.575085
 42
-0.003476
 10
28.213299
 20
43.693971
 42
-0.081632
 10
28.191111
 20
43.731811
 42
-0.288978
 10
28.199392
 20
43.773694
 42
-0.00081
 10
28.610312
 20
44.206525
 42
-0.004296
 10
29.083782
 20
44.695148
 42
-0.002625
 10
29.650461
 20
45.263991
 10
31.1328
 20
46.736449
 10
31.1328
 20
52.597524
 10
31.1328
 20
58.4586
 10
27.3681
 20
58.4586
 42
-0.000128
 10
25.920183
 20
58.458971
 42
-0.000208
 10
24.690642
 20
58.460112
 42
-0.000022
 10
23.591133
 20
58.461637
 42
-0.019878
 10
23.53995
 20
58.463746
 42
0.28464
 10
23.511195
 20
58.449006
 42
0.028909
 10
23.473835
 20
58.378061
 42
0.029297
 10
23.436366
 20
58.280975
 42
0.018906
 10
23.403979
 20
58.164825
 42
-0.01926
 10
23.357655
 20
57.999152
 42
-0.122128
 10
23.311965
 20
57.925329
 42
-0.202598
 10
23.249091
 20
57.900671
 42
-0.068782
 10
23.150179
 20
57.916978
 42
-0.009104
 10
23.056302
 20
57.947977
 42
-0.002742
 10
22.914709
 20
57.998482
 42
-0.002747
 10
22.756469
 20
58.056892
 42
-0.00298
 10
22.603141
 20
58.115492
 42
-0.013465
 10
22.463412
 20
58.17423
 42
-0.020905
 10
22.346647
 20
58.233056
 42
-0.016332
 10
22.257577
 20
58.286585
 42
-0.283079
 10
22.243591
 20
58.315893
 42
0.023933
 10
22.246081
 20
58.358345
 42
0.000574
 10
22.247976
 20
58.555936
 42
0.001257
 10
22.24935
 20
58.78766
 42
0.000854
 10
22.2498
 20
59.051466
 10
22.2498
 20
59.728931
  0
LWPOLYLINE
  5
13E
330
1D
100
AcDbEntity
  8
0
100
AcDbPolyline
 90
       50
 70
     1
 43
0.0
 10
21.317176
 20
58.244768
 42
-0.016971
 10
21.473924
 20
58.210011
 42
-0.004375
 10
21.724272
 20
58.143172
 42
-0.004448
 10
22.008618
 20
58.061855
 42
-0.004514
 10
22.290076
 20
57.975878
 42
-0.011927
 10
22.593003
 20
57.872339
 42
-0.007415
 10
22.943454
 20
57.737205
 42
-0.007438
 10
23.285433
 20
57.593531
 42
-0.013335
 10
23.5611
 20
57.463995
 42
-0.011222
 10
23.830558
 20
57.320826
 42
-0.00621
 10
24.1533
 20
57.13464
 42
-0.006189
 10
24.475775
 20
56.937793
 42
-0.009911
 10
24.7455
 20
56.76098
 42
-0.007158
 10
24.998943
 20
56.582183
 42
-0.005486
 10
25.270919
 20
56.379821
 42
-0.00555
 10
25.521305
 20
56.184792
 42
-0.013071
 10
25.702561
 20
56.032435
 10
26.067422
 20
55.7091
 10
25.605353
 20
55.255126
 10
25.143283
 20
54.801151
 10
24.833205
 20
55.083316
 42
0.014038
 10
24.680522
 20
55.214612
 42
0.006291
 10
24.472915
 20
55.378945
 42
0.006221
 10
24.248961
 20
55.547277
 42
0.008409
 10
24.042114
 20
55.69348
 42
0.009896
 10
23.821499
 20
55.837603
 42
0.005964
 10
23.554603
 20
56.000124
 42
0.005972
 10
23.285391
 20
56.15537
 42
0.010395
 10
23.05797
 20
56.276778
 42
0.006681
 10
22.840233
 20
56.383628
 42
0.005275
 10
22.601917
 20
56.493586
 42
0.005336
 10
22.378442
 20
56.590999
 42
0.013172
 10
22.21197
 20
56.656345
 42
0.008158
 10
22.050426
 20
56.71193
 42
0.004145
 10
21.845562
 20
56.776829
 42
0.004116
 10
21.633044
 20
56.840309
 42
0.00614
 10
21.4461
 20
56.891998
 42
0.004927
 10
21.24897
 20
56.941835
 42
0.002603
 10
21.003454
 20
56.999985
 42
0.002589
 10
20.75156
 20
57.056891
 42
0.003998
 10
20.53322
 20
57.103201
 10
20.043339
 20
57.20302
 10
20.36402
 20
57.435385
 42
0.032398
 10
20.499171
 20
57.547344
 42
0.021253
 10
20.640203
 20
57.692292
 42
0.021395
 10
20.766014
 20
57.845844
 42
0.038
 10
20.8539
 20
57.983664
 42
-0.019419
 10
20.962785
 20
58.16927
 42
-0.122658
 10
21.041824
 20
58.243991
 42
-0.144727
 10
21.140358
 20
58.266623
 42
-0.030655
  0
LWPOLYLINE
  5
172
330
1D
100
AcDbEntity
  8
0
100
AcDbPolyline
 90
       36
 70
     1
 43
0.0
 10
14.692896
 20
57.442381
 42
-0.219395
 10
14.744729
 20
57.419128
 42
-0.018392
 10
14.839514
 20
57.302006
 42
-0.021788
 10
14.945552
 20
57.14702
 42
-0.015019
 10
15.052446
 20
56.963077
 42
-0.007354
 10
15.152078
 20
56.772485
 42
-0.009947
 10
15.236121
 20
56.597197
 42
-0.007271
 10
15.300949
 20
56.449112
 42
-0.100415
 10
15.312399
 20
56.392027
 42
-0.22429
 10
15.289871
 20
56.344606
 42
-0.01661
 10
15.172769
 20
56.255063
 42
-0.020526
 10
15.019293
 20
56.154829
 42
-0.013998
 10
14.837345
 20
56.053172
 42
0.015311
 10
14.621204
 20
55.931665
 42
0.008231
 10
14.361951
 20
55.769409
 42
0.00819
 10
14.102832
 20
55.595141
 42
0.012718
 10
13.885796
 20
55.435606
 42
0.017065
 10
13.635819
 20
55.227844
 42
0.004306
 10
13.24382
 20
54.872654
 42
0.004389
 10
12.802632
 20
54.4587
 42
0.004418
 10
12.369747
 20
54.037957
 10
11.330395
 20
53.009745
 10
10.864422
 20
53.475717
 10
10.39845
 20
53.941689
 10
11.607675
 20
55.125595
 42
-0.006181
 10
12.110571
 20
55.60593
 42
-0.006315
 10
12.621646
 20
56.070216
 42
-0.006149
 10
13.075382
 20
56.46222
 42
-0.026073
 10
13.361429
 20
56.678818
 42
-0.003942
 10
13.595099
 20
56.834625
 42
-0.003238
 10
13.846986
 20
56.997404
 42
-0.00327
 10
14.080371
 20
57.143955
 42
-0.008661
 10
14.249729
 20
57.244749
 42
-0.011229
 10
14.388637
 20
57.320106
 42
-0.013782
 10
14.521715
 20
57.383906
 42
-0.01225
 10
14.635402
 20
57.431302
 42
-0.090303
  0
LWPOLYLINE
  5
198
330
1D
100
AcDbEntity
  8
0
100
AcDbPolyline
 90
       46
 70
     1
 43
0.0
 10
10.233809
 20
57.2742
 42
-0.189604
 10
10.261724
 20
57.26322
 42
-0.001112
 10
10.4687
 20
57.069726
 42
-0.004429
 10
10.703854
 20
56.844956
 42
-0.002778
 10
10.975083
 20
56.578118
 42
-0.009856
 10
11.263264
 20
56.279904
 42
-0.017936
 10
11.484775
 20
56.023599
 42
-0.017092
 10
11.640967
 20
55.814978
 42
-0.153304
 10
11.6748
 20
55.707225
 42
-0.114272
 10
11.653953
 20
55.6172
 42
-0.025928
 10
11.577338
 20
55.479247
 42
-0.025543
 10
11.470018
 20
55.325654
 42
-0.022385
 10
11.343015
 20
55.176607
 42
-0.006875
 10
11.212321
 20
55.040258
 42
-0.010333
 10
11.094295
 20
54.925318
 42
-0.005559
 10
10.992606
 20
54.832398
 42
-0.18436
 10
10.962221
 20
54.8208
 42
-0.179119
 10
10.931697
 20
54.832097
 42
-0.005639
 10
10.83029
 20
54.92108
 42
-0.010322
 10
10.71242
 20
55.031362
 42
-0.006897
 10
10.581914
 20
55.16218
 10
10.250617
 20
55.503559
 10
9.812566
 20
55.065509
 10
9.374516
 20
54.627459
 10
10.627125
 20
53.372759
 10
11.879734
 20
52.118058
 10
11.460017
 20
51.69381
 42
-0.008729
 10
11.293423
 20
51.531195
 42
-0.01262
 10
11.140192
 20
51.393896
 42
-0.008306
 10
11.008824
 20
51.285746
 42
-0.166474
 10
10.96064
 20
51.268581
 42
-0.194425
 10
10.906656
 20
51.289628
 42
-0.000775
 10
10.424543
 20
51.745436
 42
-0.003714
 10
9.879451
 20
52.270136
 42
-0.00231
 10
9.24749
 20
52.893297
 42
-0.002488
 10
8.621284
 20
53.522748
 42
-0.003987
 10
8.093838
 20
54.066843
 42
-0.000899
 10
7.637219
 20
54.547178
 42
-0.191878
 10
7.614
 20
54.605454
 42
-0.188866
 10
7.636594
 20
54.663137
 42
-0.001391
 10
7.992681
 20
55.045791
 42
-0.004965
 10
8.408966
 20
55.481886
 42
-0.003132
 10
8.903126
 20
55.983058
 42
-0.001509
 10
9.400359
 20
56.478071
 42
-0.002456
 10
9.825779
 20
56.894927
 42
-0.000343
 10
10.2053
 20
57.262665
 42
-0.19464
  0
LWPOLYLINE
  5
1C8
330
1D
100
AcDbEntity
  8
0
100
AcDbPolyline
 90
       50
 70
     1
 43
0.0
 10
27.998347
 20
57.2742
 42
-0.193897
 10
28.028883
 20
57.261896
 42
-0.000393
 10
28.409097
 20
56.895519
 42
-0.002625
 10
28.835841
 20
56.479308
 42
-0.001616
 10
29.334058
 20
55.985074
 42
-0.003234
 10
29.828987
 20
55.484485
 42
-0.005119
 10
30.245927
 20
55.048443
 42
-0.001475
 10
30.601952
 20
54.66614
 42
-0.188918
 10
30.6252
 20
54.606805
 42
-0.182316
 10
30.603748
 20
54.549928
 42
-0.003913
 10
30.401752
 20
54.323834
 42
-0.008481
 10
30.156049
 20
54.062173
 42
-0.005556
 10
29.864524
 20
53.768677
 10
29.103849
 20
53.019691
 10
28.658974
 20
53.428018
 42
0.0006
 10
28.485814
 20
53.586569
 42
0.000895
 10
28.333906
 20
53.724829
 42
0.000375
 10
28.203543
 20
53.842876
 42
0.018916
 10
28.177076
 20
53.865046
 42
-0.411702
 10
28.174012
 20
53.88844
 42
-0.008219
 10
28.255498
 20
53.991865
 42
-0.014479
 10
28.362189
 20
54.115316
 42
-0.008592
 10
28.496035
 20
54.256467
 10
28.852017
 20
54.619186
 10
28.433602
 20
55.074306
 10
28.015188
 20
55.529427
 10
26.682384
 20
54.200206
 10
25.349581
 20
52.870986
 10
25.660891
 20
52.552176
 42
-0.014259
 10
25.780113
 20
52.422905
 42
-0.018812
 10
25.880753
 20
52.298157
 42
-0.016461
 10
25.955879
 20
52.19028
 42
-0.144847
 10
25.9722
 20
52.135122
 42
-0.158233
 10
25.953752
 20
52.078287
 42
-0.012965
 10
25.857591
 20
51.952749
 42
-0.016377
 10
25.73149
 20
51.806731
 42
-0.011859
 10
25.582042
 20
51.652239
 42
-0.006654
 10
25.428498
 20
51.504845
 42
-0.009951
 10
25.290141
 20
51.380588
 42
-0.005365
 10
25.171207
 20
51.280181
 42
-0.174334
 10
25.136221
 20
51.2676
 42
-0.188889
 10
25.099255
 20
51.282082
 42
-0.001564
 10
24.867942
 20
51.497523
 42
-0.005277
 10
24.603898
 20
51.750284
 42
-0.003339
 10
24.301095
 20
52.050318
 10
23.521632
 20
52.833036
 10
25.737705
 20
55.053618
 42
-0.000942
 10
26.590585
 20
55.90502
 42
-0.001547
 10
27.315899
 20
56.621904
 42
-0.000136
 10
27.967474
 20
57.261583
 42
-0.196448
  0
LWPOLYLINE
  5
1FC
330
1D
100
AcDbEntity
  8
0
100
AcDbPolyline
 90
       38
 70
     1
 43
0.0
 10
13.071924
 20
54.3978
 42
-0.180233
 10
13.130922
 20
54.375819
 42
-0.003876
 10
13.366446
 20
54.16882
 42
-0.008406
 10
13.639119
 20
53.917034
 42
-0.005511
 10
13.9451
 20
53.618293
 10
14.726091
 20
52.838786
 10
12.481759
 20
50.594454
 10
10.237427
 20
48.350122
 10
8.925713
 20
49.659787
 42
-0.002998
 10
8.422888
 20
50.167885
 42
-0.004764
 10
7.999316
 20
50.609399
 42
-0.00128
 10
7.636087
 20
50.997292
 42
-0.189732
 10
7.614
 20
51.053403
 42
-0.180724
 10
7.634162
 20
51.107361
 42
-0.003604
 10
7.83093
 20
51.330633
 42
-0.008087
 10
8.069461
 20
51.588859
 42
-0.005283
 10
8.352486
 20
51.879276
 42
-0.00566
 10
8.641984
 20
52.163611
 42
-0.008618
 10
8.900346
 20
52.40326
 42
-0.004054
 10
9.123403
 20
52.599885
 42
-0.180521
 10
9.180516
 20
52.6212
 42
-0.166707
 10
9.233746
 20
52.602945
 42
-0.010037
 10
9.367079
 20
52.494942
 42
-0.014146
 10
9.522534
 20
52.356049
 42
-0.009921
 10
9.68988
 20
52.191385
 10
10.1097
 20
51.761571
 10
9.729204
 20
51.430789
 10
9.348708
 20
51.100006
 10
9.79299
 20
50.655725
 10
10.237271
 20
50.211443
 10
11.567202
 20
51.541373
 10
12.897132
 20
52.871303
 10
12.532123
 20
53.222036
 10
12.167115
 20
53.572769
 10
12.573427
 20
53.985285
 42
-0.010548
 10
12.735787
 20
54.143313
 42
-0.014873
 10
12.887464
 20
54.276624
 42
-0.01099
 10
13.017592
 20
54.379573
 42
-0.163263
  0
LWPOLYLINE
  5
224
330
1D
100
AcDbEntity
  8
0
100
AcDbPolyline
 90
       28
 70
     1
 43
0.0
 10
27.281113
 20
54.3978
 42
-0.191402
 10
27.34086
 20
54.374059
 42
-0.000895
 10
27.834279
 20
53.906728
 42
-0.003976
 10
28.393201
 20
53.366933
 42
-0.002481
 10
29.039852
 20
52.726067
 10
30.710018
 20
51.054334
 10
29.356084
 20
49.702384
 10
28.00215
 20
48.350434
 10
27.179396
 20
49.173188
 10
26.356643
 20
49.995942
 10
26.774591
 20
50.420271
 42
-0.009377
 10
26.940836
 20
50.58284
 42
-0.01347
 10
27.094505
 20
50.719953
 42
-0.009231
 10
27.226243
 20
50.827167
 42
-0.167712
 10
27.276753
 20
50.8446
 42
-0.152505
 10
27.325407
 20
50.829407
 42
-0.013364
 10
27.43091
 20
50.752146
 42
-0.016555
 10
27.55369
 20
50.650415
 42
-0.012119
 10
27.683287
 20
50.529862
 10
28.005609
 20
50.215123
 10
28.430974
 20
50.640488
 10
28.856339
 20
51.065853
 10
27.60651
 20
52.307517
 10
26.356682
 20
53.549182
 10
26.774611
 20
53.973491
 42
-0.009859
 10
26.941162
 20
54.136046
 42
-0.014054
 10
27.095791
 20
54.273159
 42
-0.009953
 10
27.228374
 20
54.379809
 42
-0.165875
  0
LWPOLYLINE
  5
242
330
1D
100
AcDbEntity
  8
0
100
AcDbPolyline
 90
       64
 70
     1
 43
0.0
 10
16.60275
 20
53.467211
 10
17.2584
 20
53.4672
 10
17.2584
 20
48.9834
 10
17.2584
 20
44.4996
 10
17.8506
 20
44.4996
 10
18.4428
 20
44.4996
 10
18.4428
 20
48.9834
 10
18.4428
 20
53.4672
 10
20.36745
 20
53.467187
 10
22.2921
 20
53.467175
 10
22.2921
 20
49.617876
 10
22.2921
 20
45.768578
 10
21.63645
 20
45.768589
 10
20.9808
 20
45.7686
 10
20.9808
 20
48.9834
 10
20.9808
 20
52.1982
 10
20.3886
 20
52.1982
 10
19.7964
 20
52.1982
 10
19.7964
 20
48.345012
 10
19.7964
 20
44.491825
 10
21.04425
 20
44.504356
 10
22.2921
 20
44.516887
 10
22.274777
 20
43.937194
 42
-0.000309
 10
22.267863
 20
43.71049
 42
-0.000441
 10
22.261419
 20
43.509147
 42
-0.000241
 10
22.255737
 20
43.338854
 42
-0.006603
 10
22.253627
 20
43.29405
 42
-0.388621
 10
22.226861
 20
43.268136
 42
-0.000633
 10
21.517812
 20
43.249238
 42
-0.003963
 10
20.711333
 20
43.235161
 42
-0.002382
 10
19.7541
 20
43.2306
 10
17.2584
 20
43.2306
 10
17.2584
 20
42.640662
 10
17.2584
 20
42.050723
 10
18.50625
 20
42.027312
 10
19.7541
 20
42.0039
 10
19.7541
 20
40.1004
 10
19.7541
 20
38.1969
 10
16.60275
 20
38.17472
 10
13.4514
 20
38.152541
 10
13.4514
 20
43.427111
 10
13.4514
 20
48.701682
 10
12.804756
 20
49.346234
 10
12.158112
 20
49.990786
 10
12.572106
 20
50.41638
 42
-0.009186
 10
12.736749
 20
50.57953
 42
-0.013201
 10
12.888874
 20
50.717342
 42
-0.008969
 10
13.019362
 20
50.82542
 42
-0.165997
 10
13.06911
 20
50.843287
 42
-0.185849
 10
13.122795
 20
50.823588
 42
-0.003265
 10
13.358078
 20
50.614831
 42
-0.00774
 10
13.629724
 20
50.36291
 42
-0.005023
 10
13.93626
 20
50.063721
 10
14.7204
 20
49.282842
 10
14.7204
 20
44.395521
 10
14.7204
 20
39.5082
 10
15.304081
 20
39.5082
 10
15.887763
 20
39.5082
 10
15.943624
 20
40.54455
 42
0.0115
 10
15.964476
 20
41.220207
 42
0.000901
 10
15.975383
 20
43.022276
 42
0.001227
 10
15.979247
 20
45.172238
 42
0.000938
 10
15.973293
 20
47.524061
 10
15.9471
 20
53.467222
  0
LWPOLYLINE
  5
284
330
1D
100
AcDbEntity
  8
0
100
AcDbPolyline
 90
       48
 70
     1
 43
0.0
 10
26.941105
 20
52.6212
 42
-0.159035
 10
26.98968
 20
52.605348
 42
-0.010991
 10
27.10571
 20
52.516621
 42
-0.014773
 10
27.241104
 20
52.401566
 42
-0.010529
 10
27.386048
 20
52.265186
 42
-0.015059
 10
27.524967
 20
52.12038
 42
-0.01979
 10
27.642242
 20
51.979715
 42
-0.017635
 10
27.729445
 20
51.857597
 42
-0.147264
 10
27.7488
 20
51.793307
 42
-0.186098
 10
27.719218
 20
51.716579
 42
-0.001829
 10
27.313903
 20
51.272356
 42
-0.005696
 10
26.835791
 20
50.763931
 42
-0.003623
 10
26.2683
 20
50.182561
 10
24.7878
 20
48.68768
 10
24.7878
 20
37.79524
 10
24.7878
 20
26.9028
 10
26.6913
 20
26.9028
 10
28.5948
 20
26.9028
 10
28.5948
 20
27.495
 10
28.5948
 20
28.0872
 10
27.3258
 20
28.0872
 10
26.0568
 20
28.0872
 10
26.0568
 20
31.2597
 10
26.0568
 20
34.4322
 10
27.9603
 20
34.4322
 10
29.8638
 20
34.4322
 10
29.8638
 20
29.988273
 10
29.8638
 20
25.544346
 10
27.325753
 20
25.567923
 10
24.787705
 20
25.5915
 10
24.787753
 20
20.53665
 10
24.7878
 20
15.4818
 10
16.5816
 20
15.4818
 10
8.3754
 20
15.4818
 10
8.3754
 20
23.688
 10
8.3754
 20
31.8942
 10
9.009445
 20
31.8942
 10
9.643491
 20
31.8942
 10
9.665095
 20
24.34365
 10
9.6867
 20
16.7931
 10
16.60275
 20
16.771455
 10
23.5188
 20
16.749811
 10
23.5188
 20
33.013881
 10
23.5188
 20
49.277952
 10
25.188857
 20
50.949576
 42
-0.002303
 10
25.835016
 20
51.590412
 42
-0.0037
 10
26.392478
 20
52.13016
 42
-0.000777
 10
26.885489
 20
52.599027
 42
-0.191995
  0
LWPOLYLINE
  5
2B6
330
1D
100
AcDbEntity
  8
0
100
AcDbPolyline
 90
       62
 70
     1
 43
0.0
 10
10.326208
 20
47.0376
 42
-0.192737
 10
10.367934
 20
47.020895
 42
-0.000746
 10
10.745161
 20
46.660125
 42
-0.003631
 10
11.171468
 20
46.245209
 42
-0.002258
 10
11.665837
 20
45.75258
 42
-0.001667
 10
12.155789
 20
45.256627
 42
-0.002706
 10
12.568398
 20
44.831593
 42
-0.000418
 10
12.931217
 20
44.453148
 42
-0.193223
 10
12.9438
 20
44.421803
 42
-0.189315
 10
12.931754
 20
44.391128
 42
-0.001193
 10
12.72687
 20
44.171548
 42
-0.004591
 10
12.488404
 20
43.921832
 42
-0.002884
 10
12.205314
 20
43.634124
 42
-0.006005
 10
11.916034
 20
43.350395
 42
-0.009245
 10
11.658389
 20
43.112669
 42
-0.004277
 10
11.43593
 20
42.918278
 42
-0.205041
 10
11.380464
 20
42.900808
 42
-0.153054
 10
11.330162
 20
42.922258
 42
-0.009855
 10
11.209589
 20
43.029414
 42
-0.013664
 10
11.06962
 20
43.166115
 42
-0.009714
 10
10.920039
 20
43.32653
 10
10.545978
 20
43.743645
 10
10.856589
 20
44.06174
 42
0.012278
 10
10.97556
 20
44.189718
 42
0.016729
 10
11.075958
 20
44.311131
 42
0.013599
 10
11.152101
 20
44.415501
 42
0.151925
 10
11.1672
 20
44.464047
 42
0.166852
 10
11.149921
 20
44.514384
 42
0.009568
 10
11.045503
 20
44.64339
 42
0.013745
 10
10.911631
 20
44.793864
 42
0.009603
 10
10.752913
 20
44.956318
 10
10.338626
 20
45.364376
 10
9.018613
 20
44.05498
 42
0.002543
 10
8.512582
 20
43.547888
 42
0.004072
 10
8.086354
 20
43.109312
 42
0.000935
 10
7.717711
 20
42.722309
 42
0.192122
 10
7.6986
 20
42.674409
 42
0.15795
 10
7.712209
 20
42.632404
 42
0.011174
 10
7.787675
 20
42.53292
 42
0.014899
 10
7.885674
 20
42.416834
 42
0.010647
 10
8.001835
 20
42.292693
 42
-0.012906
 10
8.167515
 20
42.11402
 42
-0.080647
 10
8.233624
 20
42.008791
 42
-0.156041
 10
8.241553
 20
41.921315
 42
-0.09187
 10
8.200058
 20
41.823826
 42
-0.036255
 10
8.138655
 20
41.744402
 42
-0.00995
 10
8.030733
 20
41.62867
 42
-0.010002
 10
7.902819
 20
41.50203
 42
-0.010283
 10
7.771096
 20
41.381796
 10
7.447145
 20
41.098093
 10
6.764921
 20
41.762496
 42
-0.004337
 10
6.497911
 20
42.027082
 42
-0.005769
 10
6.260105
 20
42.272452
 42
-0.004166
 10
6.065366
 20
42.481542
 42
-0.056934
 10
6.004416
 20
42.565524
 42
-0.311336
 10
6.016235
 20
42.697089
 42
-0.010855
 10
6.370464
 20
43.105104
 42
-0.010473
 10
6.960658
 20
43.729049
 42
-0.001855
 10
8.09534
 20
44.870874
 42
-0.001331
 10
8.931448
 20
45.701593
 42
-0.002173
 10
9.645454
 20
46.401124
 42
-0.000269
 10
10.283752
 20
47.020402
 42
-0.194845
  0
LWPOLYLINE
  5
2F6
330
1D
100
AcDbEntity
  8
0
100
AcDbPolyline
 90
       40
 70
     1
 43
0.0
 10
27.902543
 20
47.0376
 42
-0.187406
 10
27.942928
 20
47.021912
 42
-0.001966
 10
28.168561
 20
46.813827
 42
-0.005929
 10
28.42701
 20
46.567816
 42
-0.003778
 10
28.722077
 20
46.275821
 10
29.480327
 20
45.514042
 10
29.045843
 20
45.079557
 10
28.611358
 20
44.645072
 10
28.257422
 20
45.006158
 10
27.903486
 20
45.367243
 10
27.487743
 20
44.957752
 42
0.010094
 10
27.328473
 20
44.794413
 42
0.014336
 10
27.194124
 20
44.642442
 42
0.010306
 10
27.089887
 20
44.512119
 42
0.164981
 10
27.072
 20
44.459386
 42
0.188274
 10
27.095015
 20
44.400432
 42
0.001643
 10
27.428862
 20
44.040393
 42
0.005407
 10
27.821174
 20
43.62909
 42
0.003427
 10
28.286849
 20
43.15783
 10
29.501697
 20
41.945149
 10
29.074811
 20
41.53582
 42
-0.01203
 10
28.860679
 20
41.340162
 42
-0.044403
 10
28.712507
 20
41.232685
 42
-0.079754
 10
28.602153
 20
41.188656
 42
-0.186204
 10
28.515613
 20
41.201536
 42
-0.063089
 10
28.425448
 20
41.26894
 42
-0.001015
 10
27.968632
 20
41.711884
 42
-0.002644
 10
27.440619
 20
42.231414
 42
-0.001749
 10
26.83935
 20
42.833511
 42
-0.002006
 10
26.247443
 20
43.435203
 42
-0.003237
 10
25.748935
 20
43.952696
 42
-0.000598
 10
25.313501
 20
44.411708
 42
-0.191762
 10
25.2954
 20
44.45717
 42
-0.192922
 10
25.313401
 20
44.502087
 42
-0.000893
 10
25.669323
 20
44.873496
 42
-0.003981
 10
26.080345
 20
45.294117
 42
-0.002484
 10
26.568329
 20
45.780749
 42
-0.002252
 10
27.060739
 20
46.262578
 42
-0.003621
 10
27.485338
 20
46.6684
 42
-0.000749
 10
27.860939
 20
47.021162
 42
-0.19039
  0
LWPOLYLINE
  5
320
330
1D
100
AcDbEntity
  8
0
100
AcDbPolyline
 90
       40
 70
     1
 43
0.0
 10
9.610887
 20
44.2458
 42
-0.19836
 10
9.621465
 20
44.241431
 42
-0.000029
 10
10.108881
 20
43.756028
 42
-0.000708
 10
10.647755
 20
43.217793
 42
-0.000428
 10
11.284917
 20
42.57849
 42
-0.001316
 10
11.920931
 20
41.935871
 42
-0.002148
 10
12.456503
 20
41.387186
 42
-0.000264
 10
12.930751
 20
40.896614
 42
-0.194382
 10
12.9438
 20
40.864316
 42
-0.194079
 10
12.930872
 20
40.832265
 42
-0.000426
 10
12.561047
 20
40.449063
 42
-0.002737
 10
12.140356
 20
40.018639
 42
-0.001686
 10
11.64081
 20
39.516497
 10
10.337819
 20
38.21554
 10
9.52723
 20
39.008698
 10
8.716641
 20
39.801856
 10
9.156327
 20
40.247072
 10
9.596013
 20
40.692289
 10
9.958787
 20
40.336253
 10
10.321561
 20
39.980217
 10
10.744381
 20
40.396678
 42
0.009021
 10
10.906376
 20
40.5621
 42
0.013032
 10
11.042997
 20
40.71451
 42
0.008702
 10
11.150258
 20
40.845172
 42
0.169073
 10
11.1672
 20
40.893842
 42
0.189928
 10
11.14605
 20
40.947513
 42
0.001455
 10
10.819283
 20
41.295697
 42
0.005092
 10
10.436813
 20
41.692686
 42
0.003214
 10
9.9828
 20
42.148532
 42
-0.002267
 10
9.528745
 20
42.602696
 42
-0.003646
 10
9.146317
 20
42.994371
 42
-0.000751
 10
8.813833
 20
43.340943
 42
-0.193138
 10
8.7984
 20
43.379404
 42
-0.174592
 10
8.8113
 20
43.415222
 42
-0.005234
 10
8.915509
 20
43.538476
 42
-0.009818
 10
9.044298
 20
43.681817
 42
-0.006555
 10
9.19707
 20
43.841044
 42
-0.001778
 10
9.351004
 20
43.99622
 42
-0.002883
 10
9.48308
 20
44.126903
 42
-0.000469
 10
9.600569
 20
44.241605
 42
-0.19555
  0
LWPOLYLINE
  5
34A
330
1D
100
AcDbEntity
  8
0
100
AcDbPolyline
 90
       56
 70
     1
 43
0.0
 10
31.552659
 20
43.444156
 10
32.356961
 20
42.639855
 10
30.137178
 20
40.419703
 10
27.917394
 20
38.199552
 10
26.606397
 20
39.508502
 42
-0.002207
 10
26.103807
 20
40.014757
 42
-0.003552
 10
25.680505
 20
40.451081
 42
-0.000716
 10
25.312116
 20
40.837346
 42
-0.192394
 10
25.2954
 20
40.87918
 42
-0.190299
 10
25.311292
 20
40.919423
 42
-0.002273
 10
25.508818
 20
41.128604
 42
-0.006435
 10
25.743452
 20
41.368568
 42
-0.004115
 10
26.02193
 20
41.641603
 42
-0.003408
 10
26.306504
 20
41.91234
 42
-0.005041
 10
26.56007
 20
42.145541
 42
-0.002401
 10
26.778227
 20
42.340264
 42
-0.094334
 10
26.833665
 20
42.373178
 42
-0.23094
 10
26.885108
 20
42.367692
 42
-0.017825
 10
27.003312
 20
42.287549
 42
-0.021524
 10
27.142564
 20
42.176202
 42
-0.014622
 10
27.291535
 20
42.038314
 42
-0.007025
 10
27.434339
 20
41.894168
 42
-0.01048
 10
27.55473
 20
41.763821
 42
-0.005828
 10
27.651654
 20
41.651761
 42
-0.17718
 10
27.6642
 20
41.617467
 42
-0.171117
 10
27.652485
 20
41.584238
 42
-0.008569
 10
27.577485
 20
41.494293
 42
-0.012958
 10
27.482102
 20
41.38943
 42
-0.008943
 10
27.369001
 20
41.275532
 42
0.01403
 10
27.255879
 20
41.159271
 42
0.018699
 10
27.160252
 20
41.047171
 42
0.01616
 10
27.088512
 20
40.950121
 42
0.149594
 10
27.072901
 20
40.90092
 42
0.168425
 10
27.090449
 20
40.848574
 42
0.009958
 10
27.19684
 20
40.716222
 42
0.014117
 10
27.333681
 20
40.56184
 42
0.009877
 10
27.496087
 20
40.395429
 10
27.920175
 20
39.977719
 10
29.230387
 20
41.285886
 42
0.003126
 10
29.732506
 20
41.793529
 42
0.004968
 10
30.155188
 20
42.234931
 42
0.001363
 10
30.517018
 20
42.622491
 42
0.194836
 10
30.538772
 20
42.679676
 42
0.157582
 10
30.522517
 20
42.726528
 42
0.017996
 10
30.451038
 20
42.814465
 42
0.020321
 10
30.355505
 20
42.91515
 42
0.015226
 10
30.242672
 20
43.018293
 42
-0.01496
 10
30.129966
 20
43.12121
 42
-0.020206
 10
30.034842
 20
43.221205
 42
-0.01766
 10
29.963699
 20
43.308337
 42
-0.163792
 10
29.9484
 20
43.353788
 42
-0.16356
 10
29.965055
 20
43.40334
 42
-0.009377
 10
30.065894
 20
43.531341
 42
-0.013503
 10
30.195143
 20
43.6808
 42
-0.009452
 10
30.348379
 20
43.842373
 10
30.748357
 20
44.248458
  0
LWPOLYLINE
  5
384
330
1D
100
AcDbEntity
  8
0
100
AcDbPolyline
 90
       22
 70
     1
 43
0.0
 10
9.705199
 20
42.027931
 10
10.150139
 20
41.588518
 10
8.628269
 20
40.067024
 10
7.1064
 20
38.545531
 10
7.1064
 20
26.379165
 10
7.1064
 20
14.2128
 10
12.2247
 20
14.2128
 10
17.343
 20
14.2128
 10
17.343
 20
13.669103
 42
-0.009746
 10
17.337413
 20
13.382484
 42
-0.051042
 10
17.31528
 20
13.226527
 42
-0.111253
 10
17.271972
 20
13.140109
 42
-0.175196
 10
17.201455
 20
13.098053
 42
-0.048294
 10
17.087884
 20
13.087302
 42
-0.000119
 10
15.459396
 20
13.091161
 42
-0.000764
 10
13.623035
 20
13.098755
 42
-0.000476
 10
11.469805
 20
13.113
 10
5.8797
 20
13.1553
 10
5.8797
 20
26.119465
 10
5.8797
 20
39.08363
 10
7.56998
 20
40.775487
 10
9.260259
 20
42.467344
  0
LWPOLYLINE
  5
39C
330
1D
100
AcDbEntity
  8
0
100
AcDbPolyline
 90
       14
 70
     1
 43
0.0
 10
21.727965
 20
42.024072
 10
22.263629
 20
42.003187
 10
22.27748
 20
41.369043
 10
22.291331
 20
40.7349
 10
21.657215
 20
40.7349
 10
21.0231
 20
40.7349
 10
20.997775
 20
41.319527
 42
-0.011239
 10
20.992098
 20
41.592238
 42
-0.031706
 10
21.004484
 20
41.782362
 42
-0.045712
 10
21.033135
 20
41.910605
 42
-0.174231
 10
21.082375
 20
41.974556
 42
-0.109413
 10
21.154256
 20
42.000931
 42
-0.014292
 10
21.317361
 20
42.018142
 42
-0.016069
 10
21.514806
 20
42.026917
 42
-0.012813
  0
LWPOLYLINE
  5
3AC
330
1D
100
AcDbEntity
  8
0
100
AcDbPolyline
 90
       28
 70
     1
 43
0.0
 10
31.561741
 20
39.90942
 10
32.378985
 20
39.1275
 10
32.390392
 20
26.126453
 42
-0.000211
 10
32.394025
 20
18.165828
 42
-0.002509
 10
32.378674
 20
15.085017
 42
-0.001275
 10
32.355161
 20
13.211462
 42
-0.355145
 10
32.260102
 20
13.098053
 42
-0.047374
 10
32.146398
 20
13.087102
 42
-0.000116
 10
30.511766
 20
13.085296
 42
-0.000748
 10
28.668593
 20
13.086445
 42
-0.000466
 10
26.507302
 20
13.093037
 10
20.8962
 20
13.115373
 10
20.8962
 20
13.664087
 10
20.8962
 20
14.2128
 10
26.0145
 20
14.2128
 10
31.1328
 20
14.2128
 10
31.1328
 20
26.393832
 10
31.1328
 20
38.574864
 10
30.5406
 20
39.145295
 42
-0.006839
 10
30.313666
 20
39.369952
 42
-0.010251
 10
30.122359
 20
39.572744
 42
-0.005549
 10
29.967828
 20
39.747286
 42
-0.180308
 10
29.9484
 20
39.799408
 42
-0.162878
 10
29.965172
 20
39.849529
 42
-0.009646
 10
30.065327
 20
39.977219
 42
-0.01372
 10
30.193955
 20
40.126307
 42
-0.009632
 10
30.346449
 20
40.287214
 10
30.744498
 20
40.69134
  0
LWPOLYLINE
  5
3CA
330
1D
100
AcDbEntity
  8
0
100
AcDbPolyline
 90
       42
 70
     1
 43
0.0
 10
21.677055
 20
39.490404
 10
22.253801
 20
39.4659
 10
22.272951
 20
36.314527
 10
22.2921
 20
33.163155
 10
20.36745
 20
33.163177
 10
18.4428
 20
33.1632
 10
18.4428
 20
34.4322
 10
18.4428
 20
35.7012
 10
17.8506
 20
35.7012
 10
17.2584
 20
35.7012
 10
17.2584
 20
34.4322
 10
17.2584
 20
33.1632
 10
14.0859
 20
33.1632
 10
10.9134
 20
33.1632
 10
10.9134
 20
35.0667
 10
10.9134
 20
36.9702
 10
12.8169
 20
36.9702
 10
14.7204
 20
36.9702
 10
14.7204
 20
36.3357
 10
14.7204
 20
35.7012
 10
13.4514
 20
35.7012
 10
12.1824
 20
35.7012
 10
12.1824
 20
35.0667
 10
12.1824
 20
34.4322
 10
14.0952
 20
34.4322
 10
16.008
 20
34.4322
 10
15.97755
 20
35.68005
 10
15.9471
 20
36.9279
 10
17.8506
 20
36.9279
 10
19.7541
 20
36.9279
 10
19.777512
 20
35.68005
 10
19.800923
 20
34.4322
 10
20.390862
 20
34.4322
 10
20.9808
 20
34.4322
 10
20.9808
 20
36.9138
 42
-0.002253
 10
20.985107
 20
37.86946
 42
-0.003624
 10
20.998353
 20
38.683983
 42
-0.000745
 10
21.01622
 20
39.398539
 42
-0.192037
 10
21.040554
 20
39.455154
 42
-0.174094
 10
21.088475
 20
39.477753
 42
-0.010152
 10
21.252175
 20
39.490157
 42
-0.01441
 10
21.45175
 20
39.495449
 42
-0.010038
  0
LWPOLYLINE
  5
3F6
330
1D
100
AcDbEntity
  8
0
100
AcDbPolyline
 90
       14
 70
     1
 43
0.0
 10
27.30465
 20
37.03799
 42
-0.614834
 10
27.313238
 20
37.034042
 42
-0.001323
 10
27.319587
 20
36.851052
 42
-0.005077
 10
27.324285
 20
36.636379
 42
-0.002932
 10
27.3258
 20
36.378
 10
27.3258
 20
35.7012
 10
26.6913
 20
35.7012
 10
26.0568
 20
35.7012
 10
26.0568
 20
36.331994
 10
26.0568
 20
36.962787
 10
26.67015
 20
36.991984
 42
0.002404
 10
26.906788
 20
37.004389
 42
0.0038
 10
27.109541
 20
37.017542
 42
0.000987
 10
27.286047
 20
37.03069
 42
0.149914
  0
LWPOLYLINE
  5
406
330
1D
100
AcDbEntity
  8
0
100
AcDbPolyline
 90
        8
 70
     1
 43
0.0
 10
9.0099
 20
36.9702
 10
9.6444
 20
36.9702
 10
9.6444
 20
35.0667
 10
9.6444
 20
33.1632
 10
9.0099
 20
33.1632
 10
8.3754
 20
33.1632
 10
8.3754
 20
35.0667
 10
8.3754
 20
36.9702
  0
LWPOLYLINE
  5
410
330
1D
100
AcDbEntity
  8
0
100
AcDbPolyline
 90
        8
 70
     1
 43
0.0
 10
29.2293
 20
36.9702
 10
29.8638
 20
36.9702
 10
29.8638
 20
36.3357
 10
29.8638
 20
35.7012
 10
29.2293
 20
35.7012
 10
28.5948
 20
35.7012
 10
28.5948
 20
36.3357
 10
28.5948
 20
36.9702
  0
LWPOLYLINE
  5
41A
330
1D
100
AcDbEntity
  8
0
100
AcDbPolyline
 90
       16
 70
     1
 43
0.0
 10
15.356519
 20
31.8942
 10
19.799637
 20
31.8942
 10
19.776869
 20
30.01185
 10
19.7541
 20
28.1295
 10
15.330178
 20
28.107594
 10
10.906255
 20
28.085687
 10
10.930978
 20
28.727352
 10
10.9557
 20
29.369016
 10
14.69925
 20
29.359768
 10
18.4428
 20
29.350519
 10
18.4428
 20
29.987859
 10
18.4428
 20
30.6252
 10
14.6781
 20
30.6252
 10
10.9134
 20
30.6252
 10
10.9134
 20
31.2597
 10
10.9134
 20
31.8942
  0
LWPOLYLINE
  5
42C
330
1D
100
AcDbEntity
  8
0
100
AcDbPolyline
 90
        8
 70
     1
 43
0.0
 10
21.63645
 20
31.894265
 10
22.2921
 20
31.89433
 10
22.277309
 20
31.280915
 10
22.262518
 20
30.6675
 10
21.621659
 20
30.642791
 10
20.9808
 20
30.618083
 10
20.9808
 20
31.256141
 10
20.9808
 20
31.8942
  0
LWPOLYLINE
  5
436
330
1D
100
AcDbEntity
  8
0
100
AcDbPolyline
 90
       26
 70
     1
 43
0.0
 10
22.0806
 20
29.383823
 42
0.000547
 10
22.133799
 20
29.377729
 42
0.000498
 10
22.188706
 20
29.371556
 42
0.000498
 10
22.237809
 20
29.366134
 42
0.001614
 10
22.270419
 20
29.362673
 42
-0.272731
 10
22.292064
 20
29.346724
 42
-0.066285
 10
22.304433
 20
29.302186
 42
-0.049803
 10
22.306887
 20
29.239256
 42
-0.030947
 10
22.297856
 20
29.16585
 42
0.039108
 10
22.283496
 20
29.03104
 42
0.001502
 10
22.27095
 20
28.528001
 42
0.002681
 10
22.261074
 20
27.932151
 42
0.001886
 10
22.256087
 20
27.26175
 10
22.2498
 20
25.548001
 10
16.60275
 20
25.56975
 10
10.9557
 20
25.5915
 10
10.930991
 20
26.24715
 10
10.906283
 20
26.9028
 10
15.943541
 20
26.9028
 10
20.9808
 20
26.9028
 10
20.9808
 20
28.125278
 10
20.9808
 20
29.347756
 10
21.46725
 20
29.373128
 42
-0.003981
 10
21.662799
 20
29.381767
 42
-0.004688
 10
21.848082
 20
29.386736
 42
-0.004129
 10
22.004544
 20
29.388171
 42
-0.029025
  0
LWPOLYLINE
  5
452
330
1D
100
AcDbEntity
  8
0
100
AcDbPolyline
 90
       20
 70
     1
 43
0.0
 10
14.06475
 20
24.34468
 10
17.2161
 20
24.3225
 10
17.2161
 20
23.699585
 10
17.2161
 20
23.076669
 10
14.69925
 20
23.090649
 10
12.1824
 20
23.104628
 10
12.1824
 20
22.465714
 10
12.1824
 20
21.8268
 10
15.310338
 20
21.8268
 10
18.438277
 20
21.8268
 10
18.461688
 20
23.07465
 10
18.4851
 20
24.3225
 10
19.1196
 20
24.3225
 10
19.7541
 20
24.3225
 10
19.7541
 20
22.4613
 10
19.7541
 20
20.6001
 10
15.33375
 20
20.578195
 10
10.9134
 20
20.556291
 10
10.9134
 20
22.461575
 10
10.9134
 20
24.366859
  0
LWPOLYLINE
  5
468
330
1D
100
AcDbEntity
  8
0
100
AcDbPolyline
 90
       18
 70
     1
 43
0.0
 10
21.6153
 20
24.3648
 10
22.2498
 20
24.3648
 10
22.2498
 20
21.326119
 42
0.001579
 10
22.253509
 20
20.15173
 42
0.002467
 10
22.264884
 20
19.140742
 42
0.000677
 10
22.280327
 20
18.26037
 42
0.087098
 10
22.301151
 20
18.153619
 42
-0.50543
 10
22.248279
 20
18.07105
 42
-0.008717
 10
21.627797
 20
18.041342
 42
-0.006931
 10
20.540018
 20
18.023341
 42
-0.000671
 10
17.901951
 20
18.0198
 10
13.4514
 20
18.0198
 10
13.4514
 20
18.6543
 10
13.4514
 20
19.2888
 10
17.2161
 20
19.2888
 10
20.9808
 20
19.2888
 10
20.9808
 20
21.8268
 10
20.9808
 20
24.3648
  0
LWPOLYLINE
  5
47C
330
1D
100
AcDbEntity
  8
0
100
AcDbPolyline
 90
       16
 70
     1
 43
0.0
 10
27.9603
 20
24.3648
 10
29.8638
 20
24.3648
 10
29.8638
 20
19.9233
 10
29.8638
 20
15.4818
 10
27.9603
 20
15.4818
 10
26.0568
 20
15.4818
 10
26.0568
 20
16.1163
 10
26.0568
 20
16.7508
 10
27.329506
 20
16.7508
 10
28.602213
 20
16.7508
 10
28.577356
 20
17.36415
 10
28.5525
 20
17.9775
 10
27.30465
 20
18.000912
 10
26.0568
 20
18.024323
 10
26.0568
 20
21.194562
 10
26.0568
 20
24.3648
  0
LWPOLYLINE
  5
48E
330
1D
100
AcDbEntity
  8
0
100
AcDbPolyline
 90
        8
 70
     1
 43
0.0
 10
11.5479
 20
19.2888
 10
12.1824
 20
19.2888
 10
12.1824
 20
18.6543
 10
12.1824
 20
18.0198
 10
11.5479
 20
18.0198
 10
10.9134
 20
18.0198
 10
10.9134
 20
18.6543
 10
10.9134
 20
19.2888
  0
LWPOLYLINE
  5
498
330
1D
100
AcDbEntity
  8
0
100
AcDbPolyline
 90
       26
 70
     1
 43
0.0
 10
19.09845
 20
15.039696
 10
20.5155
 20
15.0165
 10
20.542286
 20
13.64175
 10
20.569072
 20
12.267
 10
19.125236
 20
12.267
 42
-0.002954
 10
18.367629
 20
12.271476
 42
-0.017
 10
17.967003
 20
12.289842
 42
-0.026258
 10
17.732392
 20
12.321065
 42
-0.361063
 10
17.6814
 20
12.382473
 42
-0.343656
 10
17.728163
 20
12.442476
 42
-0.035421
 10
17.916941
 20
12.476035
 42
-0.020841
 10
18.243619
 20
12.496789
 42
-0.003882
 10
18.84465
 20
12.505208
 42
0.000258
 10
19.301043
 20
12.508293
 42
0.000359
 10
19.709685
 20
12.51156
 42
0.000218
 10
20.053843
 20
12.51471
 42
0.004635
 10
20.15595
 20
12.516635
 42
0.243909
 10
20.234841
 20
12.560412
 42
0.107573
 10
20.279391
 20
12.674796
 42
0.035377
 10
20.299771
 20
12.910225
 42
0.003907
 10
20.304
 20
13.4514
 10
20.304
 20
14.382
 10
18.9927
 20
14.382
 10
17.6814
 20
14.382
 10
17.6814
 20
14.722446
 10
17.6814
 20
15.062891
  0
LWPOLYLINE
  5
4B4
330
1D
100
AcDbEntity
  8
0
100
AcDbPolyline
 90
       96
 70
     1
 43
0.0
 10
18.734464
 20
14.194264
 10
19.6695
 20
14.1705
 10
19.6695
 20
13.6629
 10
19.6695
 20
13.1553
 10
19.310754
 20
13.129325
 42
-0.013968
 10
19.137008
 20
13.121615
 42
-0.069189
 10
19.040102
 20
13.133472
 42
-0.191308
 10
18.997596
 20
13.164985
 42
-0.230651
 10
18.992615
 20
13.213925
 42
0.075684
 10
19.002913
 20
13.264501
 42
0.047146
 10
19.00022
 20
13.325073
 42
0.0462
 10
18.985937
 20
13.385804
 42
0.061141
 10
18.961482
 20
13.437024
 42
0.128333
 10
18.916114
 20
13.479115
 42
0.057908
 10
18.840092
 20
13.509214
 42
0.050745
 10
18.7459
 20
13.524405
 42
0.043066
 10
18.64512
 20
13.521624
 42
0.042713
 10
18.514232
 20
13.495223
 42
0.139961
 10
18.440307
 20
13.448615
 42
0.126837
 10
18.398035
 20
13.366985
 42
0.032355
 10
18.37399
 20
13.21875
 42
0.028758
 10
18.369918
 20
13.113382
 42
0.046912
 10
18.379964
 20
13.024567
 42
0.06169
 10
18.40107
 20
12.96287
 42
0.287003
 10
18.431556
 20
12.9438
 42
0.188573
 10
18.465731
 20
12.957164
 42
0.070451
 10
18.498876
 20
12.997769
 42
0.05707
 10
18.526128
 20
13.057207
 42
0.042473
 10
18.542666
 20
13.127523
 42
-0.046538
 10
18.560391
 20
13.200236
 42
-0.049357
 10
18.59103
 20
13.266911
 42
-0.054789
 10
18.629192
 20
13.31829
 42
-0.126812
 10
18.669347
 20
13.344039
 42
-0.222144
 10
18.709943
 20
13.339174
 42
-0.108807
 10
18.748064
 20
13.301972
 42
-0.073301
 10
18.778529
 20
13.236321
 42
-0.042075
 10
18.796247
 20
13.150695
 42
0.064503
 10
18.82945
 20
13.019988
 42
0.197644
 10
18.891693
 20
12.955521
 42
0.091267
 10
19.014271
 20
12.926736
 42
0.008198
 10
19.3311
 20
12.916523
 10
19.8387
 20
12.908488
 10
19.863514
 20
13.566473
 42
-0.008533
 10
19.880299
 20
13.872706
 42
-0.032216
 10
19.906369
 20
14.062883
 42
-0.060246
 10
19.941881
 20
14.169689
 42
-0.379606
 10
19.990414
 20
14.190429
 42
-0.252803
 10
20.036973
 20
14.140831
 42
-0.03066
 10
20.067307
 20
13.989077
 42
-0.024947
 10
20.086704
 20
13.764355
 42
-0.009055
 10
20.0925
 20
13.44435
 10
20.0925
 20
12.7323
 10
19.090099
 20
12.708393
 10
18.087698
 20
12.684486
 10
18.117199
 20
13.110296
 42
0.00861
 10
18.131397
 20
13.383342
 42
0.120562
 10
18.111501
 20
13.478924
 42
0.241167
 10
18.053015
 20
13.523597
 42
0.044837
 10
17.91405
 20
13.536053
 42
-0.03943
 10
17.814021
 20
13.543931
 42
-0.085648
 10
17.741316
 20
13.568695
 42
-0.123368
 10
17.697471
 20
13.609107
 42
-0.146186
 10
17.6814
 20
13.6629
 42
-0.273642
 10
17.719275
 20
13.726923
 42
-0.084509
 10
17.82945
 20
13.765125
 42
-0.035355
 10
18.039214
 20
13.785
 42
-0.005946
 10
18.4428
 20
13.7898
 42
-0.007428
 10
18.802306
 20
13.784459
 42
-0.026638
 10
19.031075
 20
13.765434
 42
-0.03973
 10
19.173153
 20
13.734311
 42
-0.3042
 10
19.214224
 20
13.68405
 42
-0.017614
 10
19.217081
 20
13.635903
 42
-0.010398
 10
19.217269
 20
13.5783
 42
-0.010396
 10
19.21506
 20
13.520699
 42
-0.017506
 10
19.210515
 20
13.47255
 42
0.126145
 10
19.215449
 20
13.432256
 42
0.116153
 10
19.239183
 20
13.397864
 42
0.103076
 10
19.278547
 20
13.374798
 42
0.081331
 10
19.327391
 20
13.3668
 42
0.155241
 10
19.386399
 20
13.385573
 42
0.135655
 10
19.427521
 20
13.435899
 42
0.078899
 10
19.451075
 20
13.525175
 42
0.025126
 10
19.458
 20
13.6629
 10
19.458
 20
13.959
 10
18.616993
 20
13.959
 42
-0.00809
 10
18.291423
 20
13.964268
 42
-0.012407
 10
18.009815
 20
13.980385
 42
-0.006892
 10
17.77698
 20
14.002751
 42
-0.230895
 10
17.730993
 20
14.0318
 42
-0.085573
 10
17.718072
 20
14.063884
 42
-0.075738
 10
17.715876
 20
14.099875
 42
-0.077414
 10
17.72444
 20
14.13416
 42
-0.096826
 10
17.742714
 20
14.161314
 42
-0.185966
 10
17.792399
 20
14.183363
 42
-0.004181
 10
18.057436
 20
14.194388
 42
-0.008852
 10
18.372014
 20
14.199267
 42
-0.005804
  0
LWPOLYLINE
  5
516
330
1D
100
AcDbEntity
  8
0
100
AcDbPolyline
 90
       20
 70
     1
 43
0.0
 10
17.8647
 20
13.3668
 42
-0.17482
 10
17.891602
 20
13.357097
 42
-0.093122
 10
17.914491
 20
13.329523
 42
-0.073362
 10
17.929981
 20
13.288449
 42
-0.053595
 10
17.9352
 20
13.2399
 42
-0.099038
 10
17.925512
 20
13.19147
 42
-0.097945
 10
17.897923
 20
13.150277
 42
-0.097945
 10
17.85673
 20
13.122688
 42
-0.099038
 10
17.8083
 20
13.113
 42
-0.053595
 10
17.759751
 20
13.118219
 42
-0.073362
 10
17.718677
 20
13.133709
 42
-0.093122
 10
17.691103
 20
13.156598
 42
-0.17482
 10
17.6814
 20
13.1835
 42
-0.065559
 10
17.685496
 20
13.214608
 42
-0.03911
 10
17.697967
 20
13.249858
 42
-0.038504
 10
17.716209
 20
13.283633
 42
-0.053359
 10
17.7378
 20
13.3104
 42
-0.053359
 10
17.764567
 20
13.331991
 42
-0.038504
 10
17.798342
 20
13.350232
 42
-0.03911
 10
17.833592
 20
13.362704
 42
-0.065559
  0
LWPOLYLINE
  5
52C
330
1D
100
AcDbEntity
  8
0
100
AcDbPolyline
 90
       16
 70
     1
 43
0.0
 10
17.8083
 20
12.8592
 42
-0.064853
 10
17.856814
 20
12.852881
 42
-0.082425
 10
17.897923
 20
12.834349
 42
-0.098894
 10
17.925423
 20
12.806863
 42
-0.148195
 10
17.9352
 20
12.7746
 42
-0.148195
 10
17.925423
 20
12.742337
 42
-0.098894
 10
17.897923
 20
12.714851
 42
-0.082425
 10
17.856814
 20
12.696319
 42
-0.064853
 10
17.8083
 20
12.69
 42
-0.064853
 10
17.759786
 20
12.696319
 42
-0.082425
 10
17.718677
 20
12.714851
 42
-0.098894
 10
17.691177
 20
12.742337
 42
-0.148195
 10
17.6814
 20
12.7746
 42
-0.148195
 10
17.691177
 20
12.806863
 42
-0.098894
 10
17.718677
 20
12.834349
 42
-0.082425
 10
17.759786
 20
12.852881
 42
-0.064853
  0
LWPOLYLINE
  5
53E
330
1D
100
AcDbEntity
  8
0
100
AcDbPolyline
 90
       16
 70
     1
 43
0.0
 10
23.6034
 20
6.768
 42
0.191087
 10
23.571093
 20
6.755185
 42
0.088204
 10
23.543651
 20
6.718298
 42
0.068025
 10
23.525034
 20
6.663554
 42
0.048028
 10
23.5188
 20
6.5988
 42
0.048028
 10
23.525034
 20
6.534046
 42
0.068025
 10
23.543651
 20
6.479302
 42
0.088204
 10
23.571093
 20
6.442415
 42
0.191087
 10
23.6034
 20
6.4296
 42
0.191087
 10
23.635707
 20
6.442415
 42
0.088204
 10
23.663149
 20
6.479302
 42
0.068025
 10
23.681766
 20
6.534046
 42
0.048028
 10
23.688
 20
6.5988
 42
0.048028
 10
23.681766
 20
6.663554
 42
0.068025
 10
23.663149
 20
6.718298
 42
0.088204
 10
23.635707
 20
6.755185
 42
0.191087
  0
LWPOLYLINE
  5
550
330
1D
100
AcDbEntity
  8
0
100
AcDbPolyline
 90
       16
 70
     1
 43
0.0
 10
22.654801
 20
6.610496
 42
0.033951
 10
22.633563
 20
6.662219
 42
0.286646
 10
22.613101
 20
6.674904
 42
0.233206
 10
22.589291
 20
6.663061
 42
0.024362
 10
22.552918
 20
6.610155
 42
0.052326
 10
22.531342
 20
6.565378
 42
0.061761
 10
22.521035
 20
6.519522
 42
0.07231
 10
22.522902
 20
6.479524
 42
0.149701
 10
22.537429
 20
6.452171
 42
0.099724
 10
22.560708
 20
6.436699
 42
0.098103
 10
22.5883
 20
6.431328
 42
0.097782
 10
22.615931
 20
6.43688
 42
0.098356
 10
22.639312
 20
6.452513
 42
0.115259
 10
22.656304
 20
6.479864
 42
0.057227
 10
22.664946
 20
6.520004
 42
0.052345
 10
22.664632
 20
6.565824
 42
0.052621
  0
LWPOLYLINE
  5
562
330
1D
100
AcDbEntity
  8
0
100
AcDbPolyline
 90
       16
 70
     1
 43
0.0
 10
20.15595
 20
6.343705
 42
0.077483
 10
20.123255
 20
6.337921
 42
0.020703
 10
20.073862
 20
6.318699
 42
0.02047
 10
20.01884
 20
6.291886
 42
0.019837
 10
19.9656
 20
6.2604
 42
0.023197
 10
19.903936
 20
6.216366
 42
0.409657
 10
19.901122
 20
6.194272
 42
0.220444
 10
19.92802
 20
6.180066
 42
0.011293
 10
20.02905
 20
6.177095
 42
0.042523
 10
20.101925
 20
6.182805
 42
0.062416
 10
20.163485
 20
6.201032
 42
0.082215
 10
20.205189
 20
6.228152
 42
0.210568
 10
20.2194
 20
6.2604
 42
0.073605
 10
20.21463
 20
6.292629
 42
0.089496
 10
20.200762
 20
6.319768
 42
0.102891
 10
20.180142
 20
6.337664
 42
0.133323
  0
LWPOLYLINE
  5
574
330
1D
100
AcDbEntity
  8
0
100
AcDbPolyline
 90
       16
 70
     1
 43
0.0
 10
18.236293
 20
6.2604
 42
0.151918
 10
18.218465
 20
6.254855
 42
0.038439
 10
18.194586
 20
6.235549
 42
0.035638
 10
18.169457
 20
6.208183
 42
0.029505
 10
18.1467
 20
6.1758
 42
0.082592
 10
18.133459
 20
6.143474
 42
0.161196
 10
18.136091
 20
6.116051
 42
0.182303
 10
18.153979
 20
6.097823
 42
0.108972
 10
18.184007
 20
6.0912
 42
0.093332
 10
18.218207
 20
6.09764
 42
0.09642
 10
18.247282
 20
6.116051
 42
0.099167
 10
18.266742
 20
6.14352
 42
0.105053
 10
18.2736
 20
6.1758
 42
0.042167
 10
18.270864
 20
6.208189
 42
0.061769
 10
18.262641
 20
6.235549
 42
0.081139
 10
18.250559
 20
6.254101
 42
0.210953
  0
LWPOLYLINE
  5
586
330
1D
100
AcDbEntity
  8
0
100
AcDbPolyline
 90
       92
 70
     1
 43
0.0
 10
15.185725
 20
6.1335
 42
0.775545
 10
15.174122
 20
6.132589
 42
0.021161
 10
15.163305
 20
6.050354
 42
0.012891
 10
15.154664
 20
5.912711
 42
0.005796
 10
15.150079
 20
5.73165
 42
-0.010644
 10
15.141088
 20
5.475002
 42
-0.059864
 10
15.117115
 20
5.340116
 42
-0.14162
 10
15.072403
 20
5.271398
 42
-0.180055
 10
15.002011
 20
5.2452
 42
-0.076044
 10
14.936691
 20
5.255192
 42
-0.03494
 10
14.856314
 20
5.286686
 42
-0.033576
 10
14.774708
 20
5.332378
 42
-0.039525
 10
14.704566
 20
5.38643
 42
0.02057
 10
14.607666
 20
5.467129
 42
0.177912
 10
14.554877
 20
5.483526
 42
0.198251
 10
14.507148
 20
5.460915
 42
0.026403
 10
14.435188
 20
5.372684
 42
-0.060434
 10
14.379121
 20
5.312752
 42
-0.079018
 10
14.314868
 20
5.274213
 42
-0.088114
 10
14.247646
 20
5.26011
 42
-0.099684
 10
14.182734
 20
5.271099
 42
-0.117358
 10
14.125226
 20
5.310447
 42
-0.077387
 10
14.080943
 20
5.377651
 42
-0.064002
 10
14.052923
 20
5.468125
 42
-0.043152
 10
14.0436
 20
5.575952
 42
0.034379
 10
14.036681
 20
5.676462
 42
0.039264
 10
14.016033
 20
5.770585
 42
0.04299
 10
13.985886
 20
5.845983
 42
0.13861
 10
13.949755
 20
5.885414
 42
0.32166
 10
13.913338
 20
5.882903
 42
0.195529
 10
13.891977
 20
5.843178
 42
0.055545
 10
13.892353
 20
5.744527
 42
0.011634
 10
13.916162
 20
5.573157
 42
0.011057
 10
13.943236
 20
5.427217
 42
0.014384
 10
13.974796
 20
5.294998
 42
0.012015
 10
14.00665
 20
5.187112
 42
0.114602
 10
14.031157
 20
5.146167
 42
0.134618
 10
14.071823
 20
5.122032
 42
0.013743
 10
14.18165
 20
5.095096
 42
0.016378
 10
14.316801
 20
5.070465
 42
0.012362
 10
14.4666
 20
5.051977
 42
0.018259
 10
14.624764
 20
5.042229
 42
0.017601
 10
14.785172
 20
5.043857
 42
0.017834
 10
14.926186
 20
5.055306
 42
0.059244
 10
15.0165
 20
5.076932
 42
-0.052509
 10
15.090923
 20
5.095813
 42
-0.04051
 10
15.174546
 20
5.101051
 42
-0.041616
 10
15.254379
 20
5.092912
 42
-0.073374
 10
15.316928
 20
5.071398
 42
0.13053
 10
15.395452
 20
5.053989
 42
0.043142
 10
15.513589
 20
5.069153
 42
0.035663
 10
15.658887
 20
5.11175
 42
0.021434
 10
15.824528
 20
5.181653
 42
0.004551
 10
16.054171
 20
5.292951
 42
0.113194
 10
16.108231
 20
5.337191
 42
0.523455
 10
16.098338
 20
5.368622
 42
0.035011
 10
15.9894
 20
5.39429
 42
-0.026315
 10
15.902534
 20
5.413171
 42
-0.024851
 10
15.816419
 20
5.441358
 42
-0.025675
 10
15.742784
 20
5.474009
 42
-0.074665
 10
15.69753
 20
5.506164
 42
-0.143106
 10
15.679552
 20
5.537584
 42
-0.302274
 10
15.688798
 20
5.562783
 42
-0.127822
 10
15.729804
 20
5.579056
 42
-0.03089
 10
15.80328
 20
5.5836
 42
0.043509
 10
15.87453
 20
5.589812
 42
0.063259
 10
15.934727
 20
5.608451
 42
0.082944
 10
15.975476
 20
5.635861
 42
0.206135
 10
15.9894
 20
5.6682
 42
0.090658
 10
15.983495
 20
5.700498
 42
0.095575
 10
15.966581
 20
5.727949
 42
0.099646
 10
15.941356
 20
5.746317
 42
0.108102
 10
15.911719
 20
5.7528
 42
0.04425
 10
15.872791
 20
5.749348
 42
0.015326
 10
15.817548
 20
5.737716
 42
0.015089
 10
15.757151
 20
5.721107
 42
0.016969
 10
15.700219
 20
5.701449
 42
0.114615
 10
15.649021
 20
5.666824
 42
0.06577
 10
15.605709
 20
5.605713
 42
0.0603
 10
15.576373
 20
5.528887
 42
0.061153
 10
15.5664
 20
5.447649
 42
-0.051818
 10
15.557938
 20
5.366218
 42
-0.083752
 10
15.532534
 20
5.301528
 42
-0.108867
 10
15.493334
 20
5.260135
 42
-0.150041
 10
15.444684
 20
5.2452
 42
-0.213485
 10
15.388062
 20
5.27053
 42
-0.079412
 10
15.339849
 20
5.345585
 42
-0.050165
 10
15.299852
 20
5.469484
 42
-0.019526
 10
15.26883
 20
5.64705
 42
0.003939
 10
15.24598
 20
5.807117
 42
0.004883
 10
15.222086
 20
5.955708
 42
0.004027
 10
15.199821
 20
6.079994
 42
0.036159
  0
LWPOLYLINE
  5
5E4
330
1D
100
AcDbEntity
  8
0
100
AcDbPolyline
 90
       16
 70
     1
 43
0.0
 10
23.474051
 20
6.142563
 42
0.059601
 10
23.426445
 20
6.143833
 42
0.08755
 10
23.386158
 20
6.132811
 42
0.114226
 10
23.359385
 20
6.111637
 42
0.170154
 10
23.3496
 20
6.083714
 42
0.218452
 10
23.363138
 20
6.054207
 42
0.078229
 10
23.403444
 20
6.029252
 42
0.059481
 10
23.462715
 20
6.012247
 42
0.040166
 10
23.5329
 20
6.0066
 42
0.03047
 10
23.599354
 20
6.010653
 42
0.080137
 10
23.645069
 20
6.023887
 42
0.2027
 10
23.662477
 20
6.043373
 42
0.286074
 10
23.657351
 20
6.065449
 42
0.067176
 10
23.62601
 20
6.089336
 42
0.029727
 10
23.579232
 20
6.112376
 42
0.028759
 10
23.526015
 20
6.131244
 42
0.034386
  0
LWPOLYLINE
  5
5F6
330
1D
100
AcDbEntity
  8
0
100
AcDbPolyline
 90
       50
 70
     1
 43
0.0
 10
22.983969
 20
6.0066
 42
0.386767
 10
22.95452
 20
5.979813
 42
0.016646
 10
22.9452
 20
5.828008
 42
0.020104
 10
22.947663
 20
5.625619
 42
0.010265
 10
22.966179
 20
5.3721
 10
23.025636
 20
4.7376
 10
22.771668
 20
4.7376
 42
-0.038701
 10
22.671004
 20
4.745403
 42
-0.045789
 10
22.578459
 20
4.768664
 42
-0.051852
 10
22.506397
 20
4.80271
 42
-0.152815
 10
22.47057
 20
4.84335
 42
0.154534
 10
22.45503
 20
4.860859
 42
0.498084
 10
22.442845
 20
4.855908
 42
0.07257
 10
22.437886
 20
4.813239
 42
0.015025
 10
22.44237
 20
4.7376
 42
0.051321
 10
22.463616
 20
4.628199
 42
0.155436
 10
22.506111
 20
4.566452
 42
0.13246
 10
22.58129
 20
4.535001
 42
0.033223
 10
22.7151
 20
4.5261
 42
0.04339
 10
22.852361
 20
4.538034
 42
0.129992
 10
22.93717
 20
4.577133
 42
0.117107
 10
22.996646
 20
4.655839
 42
0.031949
 10
23.050439
 20
4.80316
 42
-0.030763
 10
23.088042
 20
4.906906
 42
-0.049422
 10
23.133776
 20
4.989054
 42
-0.065509
 10
23.180227
 20
5.040173
 42
-0.272817
 10
23.219639
 20
5.046927
 42
0.095272
 10
23.26612
 20
5.038804
 42
0.029253
 10
23.337465
 20
5.044198
 42
0.028093
 10
23.418342
 20
5.059762
 42
0.027407
 10
23.49765
 20
5.08439
 42
0.031365
 10
23.570523
 20
5.116811
 42
0.041132
 10
23.632085
 20
5.155711
 42
0.04652
 10
23.67532
 20
5.195087
 42
0.186908
 10
23.688
 20
5.227822
 42
0.302056
 10
23.671078
 20
5.253277
 42
0.061886
 10
23.616389
 20
5.268638
 42
0.046318
 10
23.537659
 20
5.27318
 42
0.027705
 10
23.444218
 20
5.264716
 42
-0.032193
 10
23.347319
 20
5.256815
 42
-0.040823
 10
23.257732
 20
5.26261
 42
-0.045779
 10
23.18681
 20
5.279793
 42
-0.173725
 10
23.151703
 20
5.307789
 42
-0.080435
 10
23.131533
 20
5.356438
 42
-0.013846
 10
23.111153
 20
5.454535
 42
-0.014762
 10
23.093661
 20
5.572163
 42
-0.012715
 10
23.082094
 20
5.696621
 42
0.023383
 10
23.068493
 20
5.815402
 42
0.036469
 10
23.044658
 20
5.915544
 42
0.041149
 10
23.015195
 20
5.987461
 42
0.282074
  0
LWPOLYLINE
  5
62A
330
1D
100
AcDbEntity
  8
0
100
AcDbPolyline
 90
       28
 70
     1
 43
0.0
 10
23.526469
 20
5.820783
 42
0.065268
 10
23.475391
 20
5.830665
 42
0.274935
 10
23.448759
 20
5.816939
 42
0.196918
 10
23.442731
 20
5.781711
 42
0.036769
 10
23.46205
 20
5.71765
 42
-0.030934
 10
23.479379
 20
5.662522
 42
-0.138102
 10
23.478313
 20
5.628977
 42
-0.341176
 10
23.461886
 20
5.617569
 42
-0.126411
 10
23.433231
 20
5.626499
 42
0.205654
 10
23.401612
 20
5.631211
 42
0.180438
 10
23.374167
 20
5.611834
 42
0.10289
 10
23.355579
 20
5.567117
 42
0.047256
 10
23.3496
 20
5.503993
 42
0.03466
 10
23.354224
 20
5.437365
 42
0.053334
 10
23.368238
 20
5.38135
 42
0.070204
 10
23.388721
 20
5.343124
 42
0.244487
 10
23.41305
 20
5.331095
 42
0.07153
 10
23.44506
 20
5.336367
 42
0.021732
 10
23.491371
 20
5.353246
 42
0.021276
 10
23.542243
 20
5.376917
 42
0.021703
 10
23.590574
 20
5.404683
 42
0.0954
 10
23.631993
 20
5.443663
 42
0.066319
 10
23.662481
 20
5.500404
 42
0.06396
 10
23.677919
 20
5.565497
 42
0.074283
 10
23.675174
 20
5.629027
 42
0.063467
 10
23.655044
 20
5.690132
 42
0.053707
 10
23.619334
 20
5.748077
 42
0.056051
 10
23.574274
 20
5.794398
 42
0.091695
  0
LWPOLYLINE
  5
648
330
1D
100
AcDbEntity
  8
0
100
AcDbPolyline
 90
       36
 70
     1
 43
0.0
 10
18.34128
 20
5.7528
 42
0.082525
 10
18.315432
 20
5.748504
 42
0.092453
 10
18.293481
 20
5.736118
 42
0.100627
 10
18.278803
 20
5.717672
 42
0.118429
 10
18.2736
 20
5.696011
 42
0.1258
 10
18.281474
 20
5.665211
 42
0.020236
 10
18.313666
 20
5.611632
 42
0.021271
 10
18.357773
 20
5.550374
 42
0.01725
 10
18.409996
 20
5.488507
 42
-0.021459
 10
18.486893
 20
5.395838
 42
-0.265783
 10
18.492617
 20
5.352122
 42
-0.222004
 10
18.457625
 20
5.319881
 42
-0.015422
 10
18.325396
 20
5.282324
 42
0.047214
 10
18.240847
 20
5.252391
 42
0.057589
 10
18.169318
 20
5.208568
 42
0.068063
 10
18.120527
 20
5.158266
 42
0.159902
 10
18.1044
 20
5.109129
 42
0.029611
 10
18.107074
 20
5.064024
 42
0.046156
 10
18.115208
 20
5.025983
 42
0.058317
 10
18.127034
 20
4.999459
 42
0.264654
 10
18.141193
 20
4.9914
 42
0.073755
 10
18.165032
 20
4.994936
 42
0.004956
 10
18.230923
 20
5.015636
 42
0.007041
 10
18.30919
 20
5.042304
 42
0.005212
 10
18.394993
 20
5.073906
 42
0.052666
 10
18.49104
 20
5.122521
 42
0.084263
 10
18.558641
 20
5.184484
 42
0.091705
 10
18.598342
 20
5.261145
 42
0.073872
 10
18.612
 20
5.353086
 42
0.045111
 10
18.604519
 20
5.435836
 42
0.036971
 10
18.582178
 20
5.521809
 42
0.038364
 10
18.549419
 20
5.598261
 42
0.076116
 10
18.51048
 20
5.65128
 42
0.030136
 10
18.466639
 20
5.690132
 42
0.031128
 10
18.4189
 20
5.722979
 42
0.032763
 10
18.374189
 20
5.745968
 42
0.102712
  0
LWPOLYLINE
  5
66E
330
1D
100
AcDbEntity
  8
0
100
AcDbPolyline
 90
       40
 70
     1
 43
0.0
 10
21.059699
 20
5.6682
 42
0.202921
 10
21.029409
 20
5.655379
 42
0.131635
 10
21.010635
 20
5.621675
 42
0.088227
 10
21.007016
 20
5.570396
 42
0.050491
 10
21.019771
 20
5.509487
 42
-0.072218
 10
21.032495
 20
5.432193
 42
-0.154693
 10
21.015506
 20
5.374842
 42
-0.132352
 10
20.965966
 20
5.33203
 42
-0.04697
 10
20.877422
 20
5.299143
 42
-0.025387
 10
20.784428
 20
5.279224
 42
-0.011708
 10
20.661781
 20
5.262338
 42
-0.011562
 10
20.531708
 20
5.250562
 42
-0.015725
 10
20.413954
 20
5.246355
 42
-0.041316
 10
20.294937
 20
5.255695
 42
-0.057432
 10
20.192142
 20
5.28477
 42
-0.066704
 10
20.111224
 20
5.331487
 42
-0.096948
 10
20.056976
 20
5.39325
 42
0.016205
 10
20.007226
 20
5.472635
 42
0.447384
 10
19.985532
 20
5.475631
 42
0.209669
 10
19.971493
 20
5.446811
 42
0.007112
 10
19.968173
 20
5.317821
 42
0.049476
 10
19.977553
 20
5.210714
 42
0.105302
 10
20.009482
 20
5.134359
 42
0.114788
 10
20.06757
 20
5.08171
 42
0.065832
 10
20.15595
 20
5.04679
 42
0.053922
 10
20.251726
 20
5.03358
 42
0.020309
 10
20.387212
 20
5.03511
 42
0.019839
 10
20.535761
 20
5.048751
 42
0.022807
 10
20.675926
 20
5.073801
 42
0.025217
 10
20.807311
 20
5.110571
 42
0.028084
 10
20.92956
 20
5.159322
 42
0.02906
 10
21.027801
 20
5.212193
 42
0.113965
 10
21.076481
 20
5.260232
 42
0.046885
 10
21.10377
 20
5.313772
 42
0.026665
 10
21.126954
 20
5.382728
 42
0.026423
 10
21.143044
 20
5.455292
 42
0.039174
 10
21.148705
 20
5.52015
 42
0.059135
 10
21.142486
 20
5.576771
 42
0.078605
 10
21.123094
 20
5.62471
 42
0.097508
 10
21.094039
 20
5.656807
 42
0.161559
  0
LWPOLYLINE
  5
698
330
1D
100
AcDbEntity
  8
0
100
AcDbPolyline
 90
       60
 70
     1
 43
0.0
 10
17.897893
 20
5.5836
 42
0.151918
 10
17.880065
 20
5.578055
 42
0.038439
 10
17.856186
 20
5.558749
 42
0.035638
 10
17.831057
 20
5.531383
 42
0.029505
 10
17.8083
 20
5.499
 42
0.074816
 10
17.791942
 20
5.460761
 42
0.058613
 10
17.785737
 20
5.41601
 42
0.059517
 10
17.790091
 20
5.371823
 42
0.084317
 10
17.804913
 20
5.33528
 42
-0.338604
 10
17.801701
 20
5.303065
 42
-0.096187
 10
17.75821
 20
5.271579
 42
-0.056128
 10
17.679884
 20
5.245386
 42
-0.028654
 10
17.577256
 20
5.22953
 42
0.033029
 10
17.441789
 20
5.207386
 42
0.094818
 10
17.355028
 20
5.168939
 42
0.125138
 10
17.302456
 20
5.108464
 42
0.081461
 10
17.274604
 20
5.019706
 42
0.061819
 10
17.273133
 20
4.938118
 42
0.103419
 10
17.29409
 20
4.873048
 42
0.113892
 10
17.337465
 20
4.82597
 42
0.086711
 10
17.401504
 20
4.79687
 42
-0.204907
 10
17.421769
 20
4.781214
 42
-0.480491
 10
17.415564
 20
4.76599
 42
-0.052425
 10
17.349057
 20
4.753668
 42
-0.011945
 10
17.234524
 20
4.747414
 42
-0.025324
 10
17.066792
 20
4.750765
 42
-0.089404
 10
16.962737
 20
4.777218
 42
-0.122084
 10
16.892405
 20
4.832968
 42
-0.068957
 10
16.838036
 20
4.92795
 10
16.761525
 20
5.1183
 10
16.756162
 20
4.916501
 42
0.084001
 10
16.769197
 20
4.824696
 42
0.042384
 10
16.814143
 20
4.716393
 42
0.040335
 10
16.881329
 20
4.608921
 42
0.046045
 10
16.9623
 20
4.518691
 10
17.1738
 20
4.322679
 10
17.3853
 20
4.518691
 42
0.020839
 10
17.466272
 20
4.600261
 42
0.025413
 10
17.534672
 20
4.683267
 42
0.025273
 10
17.584032
 20
4.757328
 42
0.135149
 10
17.5968
 20
4.803701
 42
0.105272
 10
17.588928
 20
4.840675
 42
0.067362
 10
17.565736
 20
4.87816
 42
0.063243
 10
17.531479
 20
4.910452
 42
0.06813
 10
17.49105
 20
4.9322
 42
-0.074848
 10
17.454007
 20
4.95277
 42
-0.350054
 10
17.448579
 20
4.974855
 42
-0.174798
 10
17.471761
 20
4.998359
 42
-0.026886
 10
17.53335
 20
5.02385
 42
-0.002474
 10
17.599276
 20
5.046706
 42
-0.001638
 10
17.675187
 20
5.072327
 42
-0.001649
 10
17.749104
 20
5.096734
 42
-0.003206
 10
17.8083
 20
5.115645
 42
0.13332
 10
17.856859
 20
5.146625
 42
0.068655
 10
17.897923
 20
5.206552
 42
0.060588
 10
17.925761
 20
5.284597
 42
0.055454
 10
17.9352
 20
5.369445
 42
0.016383
 10
17.932509
 20
5.45154
 42
0.026743
 10
17.924241
 20
5.520692
 42
0.025141
 10
17.912502
 20
5.57252
 42
0.336329
  0
LWPOLYLINE
  5
6D6
330
1D
100
AcDbEntity
  8
0
100
AcDbPolyline
 90
       32
 70
     1
 43
0.0
 10
24.312122
 20
5.559385
 42
0.179022
 10
24.272417
 20
5.557894
 42
0.100095
 10
24.231765
 20
5.530596
 42
0.07708
 10
24.196259
 20
5.481494
 42
0.054161
 10
24.17194
 20
5.41766
 42
0.068093
 10
24.162575
 20
5.339868
 42
0.084652
 10
24.175964
 20
5.268354
 42
0.08816
 10
24.211602
 20
5.207507
 42
0.08128
 10
24.266918
 20
5.160641
 42
-0.076713
 10
24.332474
 20
5.106115
 42
-0.269247
 10
24.342854
 20
5.054329
 42
-0.117208
 10
24.301145
 20
4.988028
 42
-0.011971
 10
24.164689
 20
4.860402
 42
0.019844
 10
24.075256
 20
4.774079
 42
0.032652
 10
24.007707
 20
4.693575
 42
0.035519
 10
23.966024
 20
4.62736
 42
0.330342
 10
23.97069
 20
4.59591
 42
0.146665
 10
23.998576
 20
4.580887
 42
0.053785
 10
24.043603
 20
4.576577
 42
0.047518
 10
24.096906
 20
4.582303
 42
0.041132
 10
24.150921
 20
4.598081
 42
0.096615
 10
24.207681
 20
4.63359
 42
0.038934
 10
24.269688
 20
4.701323
 42
0.036676
 10
24.326955
 20
4.786826
 42
0.038395
 10
24.370128
 20
4.878513
 42
0.033098
 10
24.401769
 20
4.981844
 42
0.022634
 10
24.424441
 20
5.102515
 42
0.022874
 10
24.435729
 20
5.221337
 42
0.042143
 10
24.432308
 20
5.318306
 42
0.039743
 10
24.415648
 20
5.40094
 42
0.046055
 10
24.386605
 20
5.475726
 42
0.051929
 10
24.350376
 20
5.532718
 42
0.147055
  0
LWPOLYLINE
  5
6F8
330
1D
100
AcDbEntity
  8
0
100
AcDbPolyline
 90
       28
 70
     1
 43
0.0
 10
19.196575
 20
5.4144
 42
0.085432
 10
19.158824
 20
5.452149
 42
0.54222
 10
19.138173
 20
5.44393
 42
0.082698
 10
19.136052
 20
5.380264
 42
0.007994
 10
19.158881
 20
5.226835
 42
-0.023258
 10
19.178781
 20
5.057802
 42
-0.087434
 10
19.167767
 20
4.952025
 42
-0.120009
 10
19.123792
 20
4.874692
 42
-0.064245
 10
19.038311
 20
4.804634
 42
0.024844
 10
18.972264
 20
4.758676
 42
0.031577
 10
18.916475
 20
4.709673
 42
0.032913
 10
18.876539
 20
4.664242
 42
0.165312
 10
18.8658
 20
4.63265
 42
0.185434
 10
18.875221
 20
4.608121
 42
0.090013
 10
18.902203
 20
4.587273
 42
0.069859
 10
18.942302
 20
4.573142
 42
0.049873
 10
18.989723
 20
4.5684
 42
0.109236
 10
19.043569
 20
4.580306
 42
0.055878
 10
19.10297
 20
4.616469
 42
0.051633
 10
19.158526
 20
4.669449
 42
0.053689
 10
19.201223
 20
4.732038
 42
0.040281
 10
19.234705
 20
4.808888
 42
0.023715
 10
19.262694
 20
4.905157
 42
0.02362
 10
19.281652
 20
5.004653
 42
0.036933
 10
19.287505
 20
5.091588
 42
0.038482
 10
19.280445
 20
5.175895
 42
0.028533
 10
19.260259
 20
5.267228
 42
0.029109
 10
19.231054
 20
5.351729
 42
0.056058
  0
LWPOLYLINE
  5
716
330
1D
100
AcDbEntity
  8
0
100
AcDbPolyline
 90
       24
 70
     1
 43
0.0
 10
21.734575
 20
5.4144
 42
0.080176
 10
21.696423
 20
5.453355
 42
0.545078
 10
21.675826
 20
5.445548
 42
0.085598
 10
21.673378
 20
5.383755
 42
0.008024
 10
21.695778
 20
5.232715
 42
-0.02852
 10
21.714477
 20
5.05739
 42
-0.103547
 10
21.697032
 20
4.947281
 42
-0.10882
 10
21.637451
 20
4.856395
 42
-0.033226
 10
21.511758
 20
4.748945
 42
0.004558
 10
21.360931
 20
4.634286
 42
0.16415
 10
21.337054
 20
4.598336
 42
0.466657
 10
21.352282
 20
4.576657
 42
0.017727
 10
21.464273
 20
4.57108
 42
0.078029
 10
21.542444
 20
4.582211
 42
0.058176
 10
21.622332
 20
4.617256
 42
0.058301
 10
21.691813
 20
4.669649
 42
0.079375
 10
21.739223
 20
4.732038
 42
0.040281
 10
21.772705
 20
4.808888
 42
0.023715
 10
21.800694
 20
4.905157
 42
0.02362
 10
21.819652
 20
5.004653
 42
0.036933
 10
21.825505
 20
5.091588
 42
0.038482
 10
21.818445
 20
5.175895
 42
0.028533
 10
21.798259
 20
5.267228
 42
0.029109
 10
21.769054
 20
5.351729
 42
0.056058
  0
LWPOLYLINE
  5
730
330
1D
100
AcDbEntity
  8
0
100
AcDbPolyline
 90
       16
 70
     1
 43
0.0
 10
15.740593
 20
4.23
 42
0.088797
 10
15.706324
 20
4.223866
 42
0.053277
 10
15.669187
 20
4.205433
 42
0.051183
 10
15.634974
 20
4.178359
 42
0.061454
 10
15.609299
 20
4.146369
 42
0.1144
 10
15.599657
 20
4.117826
 42
0.32948
 10
15.609755
 20
4.100927
 42
0.155351
 10
15.639857
 20
4.09829
 42
0.036408
 10
15.688906
 20
4.11312
 42
0.020646
 10
15.739199
 20
4.134841
 42
0.029555
 10
15.781632
 20
4.15847
 42
0.029412
 10
15.81269
 20
4.180923
 42
0.2252
 10
15.8202
 20
4.196751
 42
0.219607
 10
15.814328
 20
4.209475
 42
0.077771
 10
15.796815
 20
4.220233
 42
0.059132
 10
15.771075
 20
4.227566
 42
0.039867
  0
LWPOLYLINE
  5
742
330
1D
100
AcDbEntity
  8
0
100
AcDbPolyline
 90
       16
 70
     1
 43
0.0
 10
17.9775
 20
4.227409
 42
0.067616
 10
17.936271
 20
4.221808
 42
0.024967
 10
17.880474
 20
4.203319
 42
0.024204
 10
17.820796
 20
4.17679
 42
0.026766
 10
17.766
 20
4.1454
 42
0.027796
 10
17.7225
 20
4.113729
 42
0.102785
 10
17.701228
 20
4.087481
 42
0.335455
 10
17.70405
 20
4.071153
 42
0.190341
 10
17.7237
 20
4.063391
 42
0.067616
 10
17.764929
 20
4.068992
 42
0.024967
 10
17.820726
 20
4.087481
 42
0.024204
 10
17.880404
 20
4.11401
 42
0.026766
 10
17.9352
 20
4.1454
 42
0.027796
 10
17.9787
 20
4.177071
 42
0.102785
 10
17.999972
 20
4.203319
 42
0.335455
 10
17.99715
 20
4.219647
 42
0.190341
  0
LWPOLYLINE
  5
754
330
1D
100
AcDbEntity
  8
0
100
AcDbPolyline
 90
       48
 70
     1
 43
0.0
 10
21.401534
 20
3.0033
 42
0.00115
 10
21.34905
 20
3.231192
 42
0.736687
 10
21.340259
 20
3.231829
 42
0.113307
 10
21.335925
 20
3.202672
 42
0.000536
 10
21.360124
 20
2.89755
 42
-0.009133
 10
21.376152
 20
2.639148
 42
-0.082035
 10
21.362608
 20
2.526837
 42
-0.212551
 10
21.317176
 20
2.473182
 42
-0.112809
 10
21.230614
 20
2.4534
 42
-0.079369
 10
21.154562
 20
2.465549
 42
-0.145826
 10
21.103471
 20
2.500986
 42
-0.122036
 10
21.074508
 20
2.563824
 42
-0.047291
 10
21.0654
 20
2.659907
 42
0.041504
 10
21.058474
 20
2.743198
 42
0.043652
 10
21.037891
 20
2.822754
 42
0.04781
 10
21.007717
 20
2.887525
 42
0.122028
 10
20.971753
 20
2.924291
 42
0.213583
 10
20.935777
 20
2.929095
 42
0.285411
 10
20.91441
 20
2.905057
 42
0.081046
 10
20.913811
 20
2.837598
 42
0.015836
 10
20.936175
 20
2.717784
 42
-0.018352
 10
20.964698
 20
2.560599
 42
-0.173574
 10
20.951245
 20
2.494546
 42
-0.227192
 10
20.901037
 20
2.461698
 42
-0.03315
 10
20.776022
 20
2.4534
 42
0.039792
 10
20.692464
 20
2.44674
 42
0.059045
 10
20.621903
 20
2.426676
 42
0.077655
 10
20.57389
 20
2.39724
 42
0.219898
 10
20.5578
 20
2.362424
 42
0.246562
 10
20.575113
 20
2.329449
 42
0.081483
 10
20.626156
 20
2.305342
 42
0.058887
 10
20.70136
 20
2.29313
 42
0.036981
 10
20.790501
 20
2.295857
 42
-0.02695
 10
20.886784
 20
2.300735
 42
-0.026442
 10
20.983652
 20
2.295292
 42
-0.027418
 10
21.067848
 20
2.281374
 42
-0.083927
 10
21.121266
 20
2.259658
 42
0.082032
 10
21.168624
 20
2.240198
 42
0.04693
 10
21.230044
 20
2.23202
 42
0.045299
 10
21.295141
 20
2.235404
 42
0.056041
 10
21.353866
 20
2.250677
 42
0.105794
 10
21.404941
 20
2.283937
 42
0.068818
 10
21.447448
 20
2.340394
 42
0.064612
 10
21.475334
 20
2.410435
 42
0.069295
 10
21.483525
 20
2.483601
 42
0.024387
 10
21.476521
 20
2.575999
 42
0.008016
 10
21.457429
 20
2.711048
 42
0.007963
 10
21.431414
 20
2.860445
 42
0.008932
  0
LWPOLYLINE
  5
786
330
1D
100
AcDbEntity
  8
0
100
AcDbPolyline
 90
       50
 70
     1
 43
0.0
 10
27.037098
 20
3.273492
 42
0.569179
 10
27.013399
 20
3.266656
 42
0.053226
 10
27.002228
 20
3.192108
 42
0.029236
 10
27.004278
 20
3.064526
 42
0.013099
 10
27.021153
 20
2.89755
 10
27.077828
 20
2.4534
 10
26.736514
 20
2.4534
 42
-0.018388
 10
26.562863
 20
2.459788
 42
-0.083782
 10
26.465028
 20
2.483804
 42
-0.16093
 10
26.413531
 20
2.529614
 42
-0.129697
 10
26.393905
 20
2.60145
 42
0.046301
 10
26.387205
 20
2.667372
 42
0.028189
 10
26.367805
 20
2.743287
 42
0.028106
 10
26.339818
 20
2.817028
 42
0.043832
 10
26.306876
 20
2.8764
 42
0.047921
 10
26.26611
 20
2.9258
 42
0.514414
 10
26.244432
 20
2.922188
 42
0.128359
 10
26.235276
 20
2.877047
 42
0.009361
 10
26.244721
 20
2.7495
 42
-0.030193
 10
26.249035
 20
2.615875
 42
-0.127632
 10
26.226925
 20
2.539558
 42
-0.164846
 10
26.174186
 20
2.494395
 42
-0.060155
 10
26.07795
 20
2.468666
 42
0.043635
 10
26.005101
 20
2.45174
 42
0.058326
 10
25.943515
 20
2.423344
 42
0.072047
 10
25.901516
 20
2.388511
 42
0.185732
 10
25.8876
 20
2.352341
 42
0.26202
 10
25.905946
 20
2.319735
 42
0.099096
 10
25.956843
 20
2.30126
 42
0.059958
 10
26.037107
 20
2.298779
 42
0.027136
 10
26.1414
 20
2.31381
 42
-0.025493
 10
26.238702
 20
2.32816
 42
-0.043734
 10
26.320646
 20
2.328818
 42
-0.058387
 10
26.377854
 20
2.317458
 42
-0.325333
 10
26.3952
 20
2.293621
 42
0.317668
 10
26.414716
 20
2.266003
 42
0.033649
 10
26.494982
 20
2.243514
 42
0.031816
 10
26.604683
 20
2.227798
 42
0.019673
 10
26.734884
 20
2.222673
 42
0.02077
 10
26.913785
 20
2.230108
 42
0.089221
 10
27.016389
 20
2.257517
 42
0.141646
 10
27.077919
 20
2.311529
 42
0.085942
 10
27.115686
 20
2.401486
 42
0.034672
 10
27.129918
 20
2.491566
 42
0.012909
 10
27.13781
 20
2.619568
 42
0.012719
 10
27.139259
 20
2.76004
 42
0.015022
 10
27.13326
 20
2.892792
 42
0.01969
 10
27.118917
 20
3.017429
 42
0.023372
 10
27.095301
 20
3.133525
 42
0.023079
 10
27.066702
 20
3.22813
 42
0.119816
  0
LWPOLYLINE
  5
7BA
330
1D
100
AcDbEntity
  8
0
100
AcDbPolyline
 90
       12
 70
     1
 43
0.0
 10
17.055713
 20
3.191888
 42
0.296942
 10
17.037197
 20
3.195797
 42
0.208169
 10
17.021576
 20
3.180354
 42
0.077125
 10
17.012209
 20
3.139747
 42
0.028489
 10
17.011279
 20
3.08085
 42
0.018894
 10
17.016274
 20
3.017711
 42
0.168741
 10
17.02823
 20
2.993028
 42
0.470617
 10
17.043648
 20
2.994487
 42
0.054073
 10
17.062391
 20
3.029738
 42
0.051402
 10
17.075592
 20
3.076003
 42
0.05415
 10
17.078758
 20
3.123172
 42
0.060344
 10
17.072061
 20
3.164229
 42
0.126455
  0
LWPOLYLINE
  5
7C8
330
1D
100
AcDbEntity
  8
0
100
AcDbPolyline
 90
       16
 70
     1
 43
0.0
 10
19.69065
 20
3.213505
 42
0.107356
 10
19.677181
 20
3.209703
 42
0.005891
 10
19.638436
 20
3.188499
 42
0.008918
 10
19.592752
 20
3.16171
 42
0.006384
 10
19.5426
 20
3.1302
 42
0.011213
 10
19.472347
 20
3.082533
 42
0.309569
 10
19.465061
 20
3.062681
 42
0.327416
 10
19.480934
 20
3.049598
 42
0.011938
 10
19.56375
 20
3.046895
 42
0.055234
 10
19.620385
 20
3.05267
 42
0.075283
 10
19.66831
 20
3.070832
 42
0.095191
 10
19.700443
 20
3.098025
 42
0.17131
 10
19.7118
 20
3.1302
 42
0.023625
 10
19.710271
 20
3.162532
 42
0.038557
 10
19.705587
 20
3.189568
 42
0.04613
 10
19.69883
 20
3.20862
 42
0.309048
  0
LWPOLYLINE
  5
7DA
330
1D
100
AcDbEntity
  8
0
100
AcDbPolyline
 90
       12
 70
     1
 43
0.0
 10
11.979713
 20
3.022688
 42
0.296942
 10
11.961197
 20
3.026597
 42
0.208169
 10
11.945576
 20
3.011154
 42
0.077125
 10
11.936209
 20
2.970547
 42
0.028489
 10
11.935279
 20
2.91165
 42
0.018894
 10
11.940274
 20
2.848511
 42
0.168741
 10
11.95223
 20
2.823828
 42
0.470617
 10
11.967648
 20
2.825287
 42
0.054073
 10
11.986391
 20
2.860538
 42
0.051402
 10
11.999592
 20
2.906803
 42
0.05415
 10
12.002758
 20
2.953972
 42
0.060344
 10
11.996061
 20
2.995029
 42
0.126455
  0
LWPOLYLINE
  5
7E8
330
1D
100
AcDbEntity
  8
0
100
AcDbPolyline
 90
       16
 70
     1
 43
0.0
 10
20.336698
 20
3.0456
 42
0.370475
 10
20.3237
 20
3.034437
 42
0.010858
 10
20.313605
 20
2.957154
 42
0.016855
 10
20.306353
 20
2.859949
 42
0.01019
 10
20.304
 20
2.744507
 42
0.022189
 10
20.308995
 20
2.632017
 42
0.044643
 10
20.324708
 20
2.544658
 42
0.075366
 10
20.347572
 20
2.493132
 42
0.409969
 10
20.374495
 20
2.486982
 42
0.190128
 10
20.399345
 20
2.520258
 42
0.039397
 10
20.413179
 20
2.5934
 42
0.036223
 10
20.416501
 20
2.68628
 42
0.027275
 10
20.407193
 20
2.788075
 42
0.011655
 10
20.390345
 20
2.886793
 42
0.018714
 10
20.370894
 20
2.969952
 42
0.013209
 10
20.351184
 20
3.03514
 42
0.323299
  0
LWPOLYLINE
  5
7FA
330
1D
100
AcDbEntity
  8
0
100
AcDbPolyline
 90
       16
 70
     1
 43
0.0
 10
21.7422
 20
2.961
 42
0.030744
 10
21.700016
 20
3.018229
 42
0.45385
 10
21.677908
 20
3.018716
 42
0.181982
 10
21.664769
 20
2.985887
 42
0.010663
 10
21.664842
 20
2.8764
 42
0.026768
 10
21.671901
 20
2.78308
 42
0.017862
 10
21.689484
 20
2.677326
 42
0.018007
 10
21.713973
 20
2.575706
 42
0.033354
 10
21.7422
 20
2.4957
 42
0.013198
 10
21.784306
 20
2.404433
 42
0.527695
 10
21.802791
 20
2.401809
 42
0.177588
 10
21.815421
 20
2.432604
 42
0.004842
 10
21.819558
 20
2.5803
 42
0.029125
 10
21.815306
 20
2.68678
 42
0.025587
 10
21.798753
 20
2.796823
 42
0.026433
 10
21.77342
 20
2.894678
 42
0.066989
  0
LWPOLYLINE
  5
80C
330
1D
100
AcDbEntity
  8
0
100
AcDbPolyline
 90
       16
 70
     1
 43
0.0
 10
25.258093
 20
3.0456
 42
0.151918
 10
25.240265
 20
3.040055
 42
0.038439
 10
25.216386
 20
3.020749
 42
0.035638
 10
25.191257
 20
2.993383
 42
0.029505
 10
25.1685
 20
2.961
 42
0.082592
 10
25.155259
 20
2.928674
 42
0.161196
 10
25.157891
 20
2.901251
 42
0.182303
 10
25.175779
 20
2.883023
 42
0.108972
 10
25.205807
 20
2.8764
 42
0.093332
 10
25.240007
 20
2.88284
 42
0.09642
 10
25.269082
 20
2.901251
 42
0.099167
 10
25.288542
 20
2.92872
 42
0.105053
 10
25.2954
 20
2.961
 42
0.042167
 10
25.292664
 20
2.993389
 42
0.061769
 10
25.284441
 20
3.020749
 42
0.081139
 10
25.272359
 20
3.039301
 42
0.210953
  0
LWPOLYLINE
  5
81E
330
1D
100
AcDbEntity
  8
0
100
AcDbPolyline
 90
       20
 70
     1
 43
0.0
 10
6.565149
 20
2.765764
 42
0.014344
 10
6.506555
 20
2.866815
 42
0.099326
 10
6.467635
 20
2.908413
 42
0.45288
 10
6.444209
 20
2.902932
 42
0.117227
 10
6.432987
 20
2.860243
 42
0.054299
 10
6.437969
 20
2.801643
 42
0.050216
 10
6.455446
 20
2.74385
 42
0.053739
 10
6.482036
 20
2.695336
 42
0.102473
 10
6.5142
 20
2.6649
 42
-0.115542
 10
6.547389
 20
2.631828
 42
-0.044761
 10
6.576832
 20
2.573525
 42
-0.04127
 10
6.598605
 20
2.502043
 42
-0.040093
 10
6.608614
 20
2.427257
 42
0.006577
 10
6.614621
 20
2.336437
 42
0.193859
 10
6.624739
 20
2.316126
 42
0.541065
 10
6.636938
 20
2.319453
 42
0.013705
 10
6.656176
 20
2.385064
 42
0.089741
 10
6.661817
 20
2.456504
 42
0.033637
 10
6.645008
 20
2.555949
 42
0.032003
 10
6.611647
 20
2.664304
 42
0.033541
  0
LWPOLYLINE
  5
834
330
1D
100
AcDbEntity
  8
0
100
AcDbPolyline
 90
       24
 70
     1
 43
0.0
 10
7.404838
 20
2.961
 42
0.187047
 10
7.382203
 20
2.952226
 42
0.045279
 10
7.354616
 20
2.922053
 42
0.040281
 10
7.327154
 20
2.879174
 42
0.030688
 10
7.304011
 20
2.828413
 42
0.077466
 10
7.291598
 20
2.770678
 42
0.061748
 10
7.295816
 20
2.707037
 42
0.062694
 10
7.315237
 20
2.647383
 42
0.086573
 10
7.347557
 20
2.601403
 42
0.064271
 10
7.388316
 20
2.569963
 42
0.082011
 10
7.432576
 20
2.55305
 42
0.098707
 10
7.473316
 20
2.552863
 42
0.149397
 10
7.50439
 20
2.56939
 42
0.16261
 10
7.519042
 20
2.598741
 42
0.128617
 10
7.514939
 20
2.634189
 42
0.098186
 10
7.491684
 20
2.670727
 42
0.063756
 10
7.452661
 20
2.702341
 42
-0.080983
 10
7.413459
 20
2.736392
 42
-0.091762
 10
7.389127
 20
2.779791
 42
-0.100716
 10
7.383263
 20
2.825641
 42
-0.120589
 10
7.396654
 20
2.866941
 42
0.037098
 10
7.415422
 20
2.903043
 42
0.079785
 10
7.423037
 20
2.93337
 42
0.152823
 10
7.418732
 20
2.952943
 42
0.268963
  0
LWPOLYLINE
  5
84E
330
1D
100
AcDbEntity
  8
0
100
AcDbPolyline
 90
       24
 70
     1
 43
0.0
 10
8.144981
 20
2.913183
 42
0.02254
 10
8.029451
 20
2.943057
 42
0.38081
 10
7.997933
 20
2.925022
 42
0.172656
 10
7.998881
 20
2.874092
 42
0.006299
 10
8.070541
 20
2.691043
 42
0.0007
 10
8.118033
 20
2.574558
 42
0.000662
 10
8.166725
 20
2.456056
 42
0.000657
 10
8.210097
 20
2.351289
 42
0.002326
 10
8.238341
 20
2.2842
 42
0.174564
 10
8.253782
 20
2.267584
 42
0.529196
 10
8.264864
 20
2.273596
 42
0.050907
 10
8.264781
 20
2.329707
 42
0.010946
 10
8.252635
 20
2.426302
 42
-0.030516
 10
8.242792
 20
2.540509
 42
-0.056817
 10
8.250999
 20
2.632938
 42
-0.078251
 10
8.275557
 20
2.69853
 42
-0.180074
 10
8.315255
 20
2.731969
 42
0.049917
 10
8.351449
 20
2.749162
 42
0.096083
 10
8.375181
 20
2.770606
 42
0.153527
 10
8.38293
 20
2.79253
 42
0.204783
 10
8.3754
 20
2.812008
 42
0.081568
 10
8.34792
 20
2.832261
 42
0.014656
 10
8.290266
 20
2.85962
 42
0.01547
 10
8.220103
 20
2.887872
 42
0.013441
  0
LWPOLYLINE
  5
868
330
1D
100
AcDbEntity
  8
0
100
AcDbPolyline
 90
       16
 70
     1
 43
0.0
 10
9.138658
 20
2.634511
 42
0.011901
 10
9.074232
 20
2.767958
 42
0.032667
 10
9.020579
 20
2.857691
 42
0.119297
 10
8.988394
 20
2.886443
 42
0.567688
 10
8.971677
 20
2.8764
 42
0.068545
 10
8.981473
 20
2.806741
 42
0.01389
 10
9.01897
 20
2.687372
 42
0.014409
 10
9.070843
 20
2.549963
 42
0.013052
 10
9.13217
 20
2.4111
 42
0.011843
 10
9.194234
 20
2.287598
 42
0.02872
 10
9.247276
 20
2.200455
 42
0.070797
 10
9.282694
 20
2.162097
 42
0.607558
 10
9.299152
 20
2.169211
 42
0.089664
 10
9.292934
 20
2.226552
 42
0.011322
 10
9.254832
 20
2.345704
 42
0.012997
 10
9.202234
 20
2.486234
 42
0.010462
  0
LWPOLYLINE
  5
87A
330
1D
100
AcDbEntity
  8
0
100
AcDbPolyline
 90
       12
 70
     1
 43
0.0
 10
16.214092
 20
2.89916
 42
0.31318
 10
16.198965
 20
2.909056
 42
0.333666
 10
16.185256
 20
2.898155
 42
0.052471
 10
16.176595
 20
2.840878
 42
0.014395
 10
16.175093
 20
2.7495
 42
0.012823
 10
16.178528
 20
2.65913
 42
0.080377
 10
16.188763
 20
2.614216
 42
0.597527
 10
16.202309
 20
2.612732
 42
0.087174
 10
16.217227
 20
2.64536
 42
0.037336
 10
16.229063
 20
2.710299
 42
0.029507
 10
16.232394
 20
2.781649
 42
0.030339
 10
16.227499
 20
2.848574
 42
0.06278
  0
LWPOLYLINE
  5
888
330
1D
100
AcDbEntity
  8
0
100
AcDbPolyline
 90
       12
 70
     1
 43
0.0
 10
13.079513
 20
2.853488
 42
0.296942
 10
13.060997
 20
2.857397
 42
0.208169
 10
13.045376
 20
2.841954
 42
0.077125
 10
13.036009
 20
2.801347
 42
0.028489
 10
13.035079
 20
2.74245
 42
0.018894
 10
13.040074
 20
2.679311
 42
0.168741
 10
13.05203
 20
2.654628
 42
0.470617
 10
13.067448
 20
2.656087
 42
0.054073
 10
13.086191
 20
2.691337
 42
0.051402
 10
13.099392
 20
2.737603
 42
0.05415
 10
13.102558
 20
2.784772
 42
0.060344
 10
13.095861
 20
2.825829
 42
0.126455
  0
LWPOLYLINE
  5
896
330
1D
100
AcDbEntity
  8
0
100
AcDbPolyline
 90
       44
 70
     1
 43
0.0
 10
19.687795
 20
2.68605
 42
0.014946
 10
19.672746
 20
2.768642
 42
0.0729
 10
19.656238
 20
2.813082
 42
0.5027
 10
19.641888
 20
2.815075
 42
0.151186
 10
19.629857
 20
2.7918
 42
0.014353
 10
19.621906
 20
2.738561
 42
0.013266
 10
19.616772
 20
2.683538
 42
0.013391
 10
19.614817
 20
2.634315
 42
0.042409
 10
19.617182
 20
2.60145
 42
-0.166806
 10
19.61325
 20
2.57908
 42
-0.152474
 10
19.596299
 20
2.562851
 42
-0.108822
 10
19.567714
 20
2.555727
 42
-0.061607
 10
19.532025
 20
2.55915
 42
0.098001
 10
19.493027
 20
2.560058
 42
0.085463
 10
19.454518
 20
2.546324
 42
0.084348
 10
19.422403
 20
2.520279
 42
0.091795
 10
19.40182
 20
2.485786
 42
0.264166
 10
19.408362
 20
2.445657
 42
0.081665
 10
19.455712
 20
2.403309
 42
0.057549
 10
19.534444
 20
2.365106
 42
0.034862
 10
19.63447
 20
2.337736
 42
0.007422
 10
19.745484
 20
2.317242
 42
0.007297
 10
19.85769
 20
2.299926
 42
0.007207
 10
19.956457
 20
2.287605
 42
0.027431
 10
20.018475
 20
2.2842
 42
0.167677
 10
20.064809
 20
2.300188
 42
0.103673
 10
20.102286
 20
2.344712
 42
0.076981
 10
20.126718
 20
2.413914
 42
0.046467
 10
20.1348
 20
2.500693
 42
0.034977
 10
20.129019
 20
2.583235
 42
0.086376
 10
20.110442
 20
2.640798
 42
0.173612
 10
20.082279
 20
2.666643
 42
0.242672
 10
20.04882
 20
2.664047
 42
0.090427
 10
20.019694
 20
2.637775
 42
0.095498
 10
20.002394
 20
2.603384
 42
0.099685
 10
19.999533
 20
2.566273
 42
0.108373
 10
20.011513
 20
2.532154
 42
-0.212957
 10
20.015524
 20
2.502385
 42
-0.177819
 10
19.99637
 20
2.476534
 42
-0.099804
 10
19.952808
 20
2.459023
 42
-0.045847
 10
19.891612
 20
2.4534
 42
-0.089764
 10
19.813098
 20
2.46761
 42
-0.123946
 10
19.754422
 20
2.508161
 42
-0.099438
 10
19.713516
 20
2.579404
 42
-0.043187
  0
LWPOLYLINE
  5
8C4
330
1D
100
AcDbEntity
  8
0
100
AcDbPolyline
 90
       16
 70
     1
 43
0.0
 10
28.547507
 20
2.8764
 42
0.210953
 10
28.533241
 20
2.870101
 42
0.081139
 10
28.521159
 20
2.851549
 42
0.061769
 10
28.512936
 20
2.824189
 42
0.042167
 10
28.5102
 20
2.7918
 42
0.105053
 10
28.517058
 20
2.75952
 42
0.099167
 10
28.536518
 20
2.732051
 42
0.09642
 10
28.565593
 20
2.71364
 42
0.093332
 10
28.599793
 20
2.7072
 42
0.108972
 10
28.629821
 20
2.713823
 42
0.182303
 10
28.647709
 20
2.732051
 42
0.161196
 10
28.650341
 20
2.759474
 42
0.082592
 10
28.6371
 20
2.7918
 42
0.029505
 10
28.614343
 20
2.824183
 42
0.035638
 10
28.589214
 20
2.851549
 42
0.038439
 10
28.565335
 20
2.870855
 42
0.151918
  0
LWPOLYLINE
  5
8D6
330
1D
100
AcDbEntity
  8
0
100
AcDbPolyline
 90
       12
 70
     1
 43
0.0
 10
33.383512
 20
2.853488
 42
0.296942
 10
33.364997
 20
2.857397
 42
0.208169
 10
33.349376
 20
2.841954
 42
0.077125
 10
33.340009
 20
2.801347
 42
0.028489
 10
33.339079
 20
2.74245
 42
0.018894
 10
33.344074
 20
2.679311
 42
0.168741
 10
33.35603
 20
2.654628
 42
0.470617
 10
33.371448
 20
2.656087
 42
0.054073
 10
33.390191
 20
2.691337
 42
0.051402
 10
33.403392
 20
2.737603
 42
0.05415
 10
33.406558
 20
2.784772
 42
0.060344
 10
33.399861
 20
2.825829
 42
0.126455
  0
LWPOLYLINE
  5
8E4
330
1D
100
AcDbEntity
  8
0
100
AcDbPolyline
 90
       44
 70
     1
 43
0.0
 10
5.366057
 20
2.7918
 42
0.220421
 10
5.352181
 20
2.78537
 42
0.077446
 10
5.340451
 20
2.766169
 42
0.058887
 10
5.332454
 20
2.737955
 42
0.039657
 10
5.3298
 20
2.704545
 42
0.12413
 10
5.339124
 20
2.667566
 42
0.064334
 10
5.367077
 20
2.628616
 42
0.05786
 10
5.408169
 20
2.593707
 42
0.055615
 10
5.4567
 20
2.568594
 42
-0.039178
 10
5.505262
 20
2.545451
 42
-0.04761
 10
5.546323
 20
2.516249
 42
-0.054688
 10
5.574704
 20
2.485673
 42
-0.161104
 10
5.5836
 20
2.458781
 42
-0.222078
 10
5.572694
 20
2.435439
 42
-0.077386
 10
5.54011
 20
2.415809
 42
-0.058724
 10
5.492241
 20
2.402539
 42
-0.039397
 10
5.43555
 20
2.398315
 42
0.00501
 10
5.344072
 20
2.3978
 42
0.000576
 10
5.138393
 20
2.394344
 42
0.000695
 10
4.893743
 20
2.38961
 42
0.000566
 10
4.63185
 20
2.383883
 42
0.010693
 10
4.359227
 20
2.371774
 42
0.023769
 10
4.152755
 20
2.34828
 42
0.024215
 10
4.006856
 20
2.317297
 42
0.340606
 10
3.9762
 20
2.277516
 42
0.355169
 10
4.00808
 20
2.238297
 42
0.034324
 10
4.138528
 20
2.220302
 42
0.026026
 10
4.339144
 20
2.217007
 42
0.00873
 10
4.63185
 20
2.232558
 42
-0.000254
 10
4.896827
 20
2.251145
 42
-0.000288
 10
5.150818
 20
2.268685
 42
-0.000261
 10
5.366621
 20
2.28335
 42
-0.001605
 10
5.47785
 20
2.290491
 42
0.0563
 10
5.550654
 20
2.303243
 42
0.072558
 10
5.612285
 20
2.331562
 42
0.08888
 10
5.653734
 20
2.370401
 42
0.161538
 10
5.6682
 20
2.414007
 42
0.088225
 10
5.6589
 20
2.466304
 42
0.036373
 10
5.629148
 20
2.532093
 42
0.034551
 10
5.586131
 20
2.599727
 42
0.037475
 10
5.535257
 20
2.658857
 42
0.012651
 10
5.481693
 20
2.709777
 42
0.017208
 10
5.430716
 20
2.752748
 42
0.014147
 10
5.386824
 20
2.785269
 42
0.153536
  0
LWPOLYLINE
  5
912
330
1D
100
AcDbEntity
  8
0
100
AcDbPolyline
 90
       76
 70
     1
 43
0.0
 10
24.798159
 20
2.7918
 42
0.069918
 10
24.729306
 20
2.782125
 42
0.044593
 10
24.653743
 20
2.75296
 42
0.044064
 10
24.583275
 20
2.710187
 42
0.061191
 10
24.529585
 20
2.65958
 42
0.022755
 10
24.473376
 20
2.585212
 42
0.441313
 10
24.479242
 20
2.560099
 42
0.183476
 10
24.518291
 20
2.55431
 42
0.007541
 10
24.658744
 20
2.587319
 42
-0.016117
 10
24.769279
 20
2.611303
 42
-0.096596
 10
24.827881
 20
2.610649
 42
-0.334308
 10
24.847085
 20
2.588833
 42
-0.158845
 10
24.837726
 20
2.550338
 42
-0.184339
 10
24.788119
 20
2.51242
 42
-0.025962
 10
24.660689
 20
2.481757
 42
-0.026649
 10
24.498865
 20
2.460445
 42
-0.019417
 10
24.317507
 20
2.4534
 42
-0.011948
 10
24.083224
 20
2.458999
 42
-0.057881
 10
23.952164
 20
2.48061
 42
-0.12952
 10
23.883249
 20
2.521608
 42
-0.196608
 10
23.8572
 20
2.585293
 42
0.060266
 10
23.851512
 20
2.63231
 42
0.128829
 10
23.834199
 20
2.664227
 42
0.191462
 10
23.808587
 20
2.676259
 42
0.154822
 10
23.7789
 20
2.668793
 42
0.182523
 10
23.750895
 20
2.632422
 42
0.040315
 10
23.733849
 20
2.554173
 42
0.036891
 10
23.727872
 20
2.454945
 42
0.028291
 10
23.735489
 20
2.346551
 42
-0.038382
 10
23.742519
 20
2.20605
 42
-0.080361
 10
23.722217
 20
2.098816
 42
-0.08643
 10
23.670466
 20
2.008415
 42
-0.050227
 10
23.581139
 20
1.920386
 42
0.003949
 10
23.46062
 20
1.821805
 42
0.181988
 10
23.445099
 20
1.794524
 42
0.493504
 10
23.458269
 20
1.780658
 42
0.011552
 10
23.5611
 20
1.793981
 42
0.084478
 10
23.63184
 20
1.817462
 42
0.052546
 10
23.70447
 20
1.866518
 42
0.050948
 10
23.767941
 20
1.931981
 42
0.063467
 10
23.811569
 20
2.004537
 42
-0.046742
 10
23.852293
 20
2.07768
 42
-0.042003
 10
23.907221
 20
2.144858
 42
-0.044452
 10
23.9673
 20
2.196769
 42
-0.092813
 10
24.023069
 20
2.222932
 42
-0.050712
 10
24.098526
 20
2.234508
 42
-0.009362
 10
24.239301
 20
2.239036
 42
-0.009962
 10
24.404805
 20
2.237962
 42
-0.008929
 10
24.5763
 20
2.230365
 42
0.01096
 10
24.748432
 20
2.223439
 42
0.01194
 10
24.91585
 20
2.224375
 42
0.011464
 10
25.058798
 20
2.231871
 42
0.056073
 10
25.138216
 20
2.246927
 42
0.085537
 10
25.194587
 20
2.275564
 42
0.053298
 10
25.249101
 20
2.326063
 42
0.051613
 10
25.293687
 20
2.389319
 42
0.063852
 10
25.320623
 20
2.456118
 42
0.04699
 10
25.331586
 20
2.523252
 42
0.05554
 10
25.328821
 20
2.587494
 42
0.064579
 10
25.313675
 20
2.639588
 42
0.152488
 10
25.287458
 20
2.669809
 42
0.159385
 10
25.258403
 20
2.676841
 42
0.191145
 10
25.233318
 20
2.664525
 42
0.126121
 10
25.216357
 20
2.632399
 42
0.05878
 10
25.2108
 20
2.585293
 42
-0.095165
 10
25.201131
 20
2.53495
 42
-0.09695
 10
25.173523
 20
2.492144
 42
-0.098802
 10
25.132323
 20
2.463487
 42
-0.103052
 10
25.0839
 20
2.4534
 42
-0.130775
 10
25.035191
 20
2.466361
 42
-0.10214
 10
24.994012
 20
2.50275
 42
-0.08892
 10
24.966464
 20
2.557508
 42
-0.072314
 10
24.957
 20
2.6226
 42
0.071839
 10
24.946581
 20
2.694744
 42
0.117275
 10
24.915995
 20
2.748121
 42
0.122423
 10
24.865765
 20
2.780553
 42
0.082612
  0
LWPOLYLINE
  5
960
330
1D
100
AcDbEntity
  8
0
100
AcDbPolyline
 90
       16
 70
     1
 43
0.0
 10
17.529311
 20
2.654325
 42
0.118348
 10
17.49556
 20
2.665434
 42
0.056652
 10
17.449668
 20
2.664019
 42
0.051572
 10
17.399607
 20
2.651394
 42
0.050913
 10
17.352959
 20
2.628755
 42
0.068391
 10
17.311671
 20
2.594669
 42
0.331649
 10
17.308718
 20
2.566269
 42
0.17244
 10
17.339585
 20
2.540668
 42
0.023786
 10
17.420448
 20
2.515357
 42
0.036542
 10
17.488037
 20
2.502868
 42
0.063501
 10
17.544997
 20
2.503845
 42
0.096278
 10
17.583151
 20
2.517169
 42
0.266792
 10
17.5968
 20
2.540927
 42
0.081004
 10
17.591825
 20
2.571437
 42
0.053436
 10
17.576975
 20
2.603809
 42
0.052392
 10
17.555128
 20
2.633057
 42
0.067852
  0
LWPOLYLINE
  5
972
330
1D
100
AcDbEntity
  8
0
100
AcDbPolyline
 90
       20
 70
     1
 43
0.0
 10
22.720093
 20
2.7072
 42
0.023902
 10
22.605238
 20
2.701706
 42
0.030774
 10
22.500886
 20
2.685174
 42
0.031764
 10
22.418485
 20
2.661287
 42
0.169485
 10
22.382644
 20
2.632218
 42
0.21724
 10
22.378595
 20
2.600185
 42
0.124503
 10
22.399339
 20
2.566338
 42
0.082294
 10
22.443477
 20
2.535553
 42
0.047293
 10
22.504552
 20
2.513238
 42
0.039775
 10
22.581269
 20
2.499574
 42
0.024379
 10
22.67308
 20
2.495162
 42
0.024369
 10
22.764982
 20
2.499712
 42
0.039417
 10
22.842
 20
2.513487
 42
0.038887
 10
22.90676
 20
2.535924
 42
0.050447
 10
22.961498
 20
2.566689
 42
0.059916
 10
22.99925
 20
2.600648
 42
0.181596
 10
23.0112
 20
2.632467
 42
0.292384
 10
22.992715
 20
2.661376
 42
0.045452
 10
22.925687
 20
2.685247
 42
0.038606
 10
22.831652
 20
2.701788
 42
0.024242
  0
LWPOLYLINE
  5
988
330
1D
100
AcDbEntity
  8
0
100
AcDbPolyline
 90
       30
 70
     1
 43
0.0
 10
27.746145
 20
2.7072
 42
0.130658
 10
27.708932
 20
2.697307
 42
0.063062
 10
27.669254
 20
2.667415
 42
0.056112
 10
27.633276
 20
2.623564
 42
0.052191
 10
27.606917
 20
2.571762
 42
0.08251
 10
27.595293
 20
2.514931
 42
0.078207
 10
27.602305
 20
2.456273
 42
0.081718
 10
27.626406
 20
2.404835
 42
0.104375
 10
27.6642
 20
2.3688
 42
-0.10585
 10
27.701935
 20
2.332611
 42
-0.081792
 10
27.725866
 20
2.280729
 42
-0.077866
 10
27.732629
 20
2.221412
 42
-0.081309
 10
27.720703
 20
2.163806
 42
-0.081102
 10
27.686706
 20
2.10555
 42
-0.040302
 10
27.62698
 20
2.044038
 42
-0.038626
 10
27.553177
 20
1.988817
 42
-0.045838
 10
27.475725
 20
1.94913
 10
27.2835
 20
1.871925
 10
27.470873
 20
1.866562
 42
0.078807
 10
27.549044
 20
1.876677
 42
0.059159
 10
27.628932
 20
1.910844
 42
0.059294
 10
27.698404
 20
1.962652
 42
0.080216
 10
27.745823
 20
2.024838
 42
0.04912
 10
27.77946
 20
2.105921
 42
0.022735
 10
27.807674
 20
2.216595
 42
0.022262
 10
27.826987
 20
2.336547
 42
0.028787
 10
27.8334
 20
2.447838
 42
0.031926
 10
27.827049
 20
2.547194
 42
0.049256
 10
27.807769
 20
2.631012
 42
0.06334
 10
27.779667
 20
2.689034
 42
0.253544
  0
LWPOLYLINE
  5
9A8
330
1D
100
AcDbEntity
  8
0
100
AcDbPolyline
 90
       16
 70
     1
 43
0.0
 10
31.360457
 20
2.705905
 42
0.108483
 10
31.349761
 20
2.702641
 42
0.003766
 10
31.311769
 20
2.680899
 42
0.006873
 10
31.267195
 20
2.654116
 42
0.004732
 10
31.2174
 20
2.6226
 42
0.025105
 10
31.156745
 20
2.578936
 42
0.418214
 10
31.154403
 20
2.556597
 42
0.210879
 10
31.182728
 20
2.542303
 42
0.011265
 10
31.285843
 20
2.539295
 42
0.040942
 10
31.357881
 20
2.544723
 42
0.092833
 10
31.409153
 20
2.562986
 42
0.175006
 10
31.432173
 20
2.590484
 42
0.229941
 10
31.4289
 20
2.6226
 42
0.013548
 10
31.407694
 20
2.654921
 42
0.020005
 10
31.387227
 20
2.681968
 42
0.015841
 10
31.369239
 20
2.7025
 42
0.228789
  0
LWPOLYLINE
  5
9BA
330
1D
100
AcDbEntity
  8
0
100
AcDbPolyline
 90
       16
 70
     1
 43
0.0
 10
33.77655
 20
2.705905
 42
0.071114
 10
33.744605
 20
2.70067
 42
0.021856
 10
33.698574
 20
2.683967
 42
0.021382
 10
33.648081
 20
2.66053
 42
0.021915
 10
33.600198
 20
2.633042
 42
0.055202
 10
33.553677
 20
2.595785
 42
0.331312
 10
33.549454
 20
2.566943
 42
0.185328
 10
33.579103
 20
2.541469
 42
0.021889
 10
33.663648
 20
2.515357
 42
0.043627
 10
33.741115
 20
2.502173
 42
0.118851
 10
33.795699
 20
2.510714
 42
0.174563
 10
33.828022
 20
2.540076
 42
0.122534
 10
33.84
 20
2.58822
 42
0.051441
 10
33.835314
 20
2.633651
 42
0.07235
 10
33.821362
 20
2.671869
 42
0.093473
 10
33.800761
 20
2.697298
 42
0.182983
  0
LWPOLYLINE
  5
9CC
330
1D
100
AcDbEntity
  8
0
100
AcDbPolyline
 90
       12
 70
     1
 43
0.0
 10
10.2789
 20
2.601265
 42
0.008901
 10
10.158015
 20
2.598503
 42
0.053901
 10
10.09611
 20
2.589252
 42
0.67161
 10
10.094435
 20
2.576628
 42
0.082665
 10
10.131836
 20
2.562766
 42
0.028254
 10
10.215851
 20
2.551484
 42
0.020511
 10
10.310168
 20
2.54809
 42
0.020826
 10
10.400235
 20
2.552299
 42
0.041951
 10
10.470236
 20
2.564473
 42
0.285845
 10
10.483312
 20
2.578288
 42
0.417468
 10
10.474695
 20
2.591162
 42
0.038992
 10
10.400591
 20
2.599498
 42
0.009782
  0
LWPOLYLINE
  5
9DA
330
1D
100
AcDbEntity
  8
0
100
AcDbPolyline
 90
       40
 70
     1
 43
0.0
 10
15.624717
 20
2.51685
 42
0.002186
 10
15.59889
 20
2.613943
 42
0.327684
 10
15.590362
 20
2.620742
 42
0.403344
 10
15.583108
 20
2.614291
 42
0.002501
 10
15.576214
 20
2.518782
 42
-0.116298
 10
15.55536
 20
2.451036
 42
-0.148979
 10
15.507627
 20
2.407025
 42
-0.093148
 10
15.424281
 20
2.384559
 42
-0.027474
 10
15.29145
 20
2.381556
 42
0.004926
 10
15.175327
 20
2.384167
 42
0.004299
 10
15.053777
 20
2.384657
 42
0.004326
 10
14.943873
 20
2.383204
 42
0.012779
 10
14.86845
 20
2.379625
 42
0.040559
 10
14.811773
 20
2.370823
 42
0.05753
 10
14.76389
 20
2.353341
 42
0.073228
 10
14.731207
 20
2.330441
 42
0.206203
 10
14.7204
 20
2.30535
 42
0.372691
 10
14.741816
 20
2.280609
 42
0.012241
 10
14.881933
 20
2.263808
 42
0.01795
 10
15.059462
 20
2.253329
 42
0.010826
 10
15.2703
 20
2.253032
 42
0.001396
 10
15.487094
 20
2.258026
 42
0.001874
 10
15.683518
 20
2.263836
 42
0.001287
 10
15.848244
 20
2.269752
 42
0.019853
 10
15.9048
 20
2.274182
 42
0.200469
 10
15.936455
 20
2.292037
 42
0.076224
 10
15.961666
 20
2.337172
 42
0.059786
 10
15.977125
 20
2.40095
 42
0.042496
 10
15.979586
 20
2.47455
 42
0.005718
 10
15.973495
 20
2.571188
 42
0.197309
 10
15.963483
 20
2.591195
 42
0.541772
 10
15.951384
 20
2.58777
 42
0.01159
 10
15.931083
 20
2.51685
 42
-0.068007
 10
15.907727
 20
2.460258
 42
-0.068913
 10
15.870126
 20
2.41229
 42
-0.075394
 10
15.824559
 20
2.379906
 42
-0.117373
 10
15.7779
 20
2.3688
 42
-0.117373
 10
15.731241
 20
2.379906
 42
-0.075394
 10
15.685674
 20
2.41229
 42
-0.068913
 10
15.648073
 20
2.460258
 42
-0.068007
  0
LWPOLYLINE
  5
A04
330
1D
100
AcDbEntity
  8
0
100
AcDbPolyline
 90
       12
 70
     1
 43
0.0
 10
18.4851
 20
2.601265
 42
0.008901
 10
18.364215
 20
2.598503
 42
0.053901
 10
18.30231
 20
2.589252
 42
0.67161
 10
18.300635
 20
2.576628
 42
0.082665
 10
18.338036
 20
2.562766
 42
0.028254
 10
18.422051
 20
2.551484
 42
0.020511
 10
18.516368
 20
2.54809
 42
0.020826
 10
18.606435
 20
2.552299
 42
0.041951
 10
18.676436
 20
2.564473
 42
0.285845
 10
18.689512
 20
2.578288
 42
0.417468
 10
18.680895
 20
2.591162
 42
0.038992
 10
18.606791
 20
2.599498
 42
0.009782
  0
LWPOLYLINE
  5
A12
330
1D
100
AcDbEntity
  8
0
100
AcDbPolyline
 90
       16
 70
     1
 43
0.0
 10
32.412507
 20
2.561133
 42
0.080528
 10
32.368281
 20
2.59302
 42
0.215783
 10
32.330372
 20
2.594497
 42
0.162537
 10
32.296679
 20
2.565632
 42
0.043467
 10
32.265346
 20
2.501308
 42
0.071218
 10
32.250313
 20
2.435389
 42
0.087019
 10
32.256088
 20
2.372506
 42
0.092845
 10
32.282222
 20
2.318453
 42
0.094398
 10
32.326022
 20
2.277889
 42
0.064528
 10
32.380446
 20
2.252934
 42
0.173505
 10
32.422371
 20
2.254718
 42
0.176961
 10
32.453112
 20
2.282586
 42
0.06756
 10
32.473184
 20
2.337714
 42
0.068507
 10
32.477668
 20
2.395492
 42
0.051506
 10
32.467357
 20
2.458477
 42
0.052239
 10
32.444715
 20
2.516929
 42
0.078019
  0
LWPOLYLINE
  5
A24
330
1D
100
AcDbEntity
  8
0
100
AcDbPolyline
 90
       14
 70
     1
 43
0.0
 10
34.263
 20
2.591105
 10
34.0515
 20
2.641899
 10
34.234821
 20
2.505475
 42
0.043817
 10
34.33216
 20
2.445503
 42
0.07896
 10
34.421286
 20
2.417247
 42
0.082054
 10
34.512401
 20
2.418552
 42
0.050829
 10
34.615521
 20
2.448164
 42
0.003938
 10
34.736495
 20
2.49776
 42
0.217307
 10
34.752761
 20
2.515366
 42
0.488727
 10
34.74406
 20
2.528325
 42
0.007964
 10
34.6437
 20
2.533793
 42
-0.018716
 10
34.563842
 20
2.539868
 42
-0.009016
 10
34.462074
 20
2.553317
 42
-0.008926
 10
34.356332
 20
2.571171
 42
-0.012644
  0
LWPOLYLINE
  5
A34
330
1D
100
AcDbEntity
  8
0
100
AcDbPolyline
 90
       24
 70
     1
 43
0.0
 10
12.081601
 20
2.467258
 42
0.022967
 10
12.044266
 20
2.516689
 42
0.457087
 10
12.027495
 20
2.517033
 42
0.214837
 10
12.019815
 20
2.493107
 42
0.011185
 10
12.030954
 20
2.4111
 42
0.111373
 10
12.065529
 20
2.324337
 42
0.14929
 10
12.131347
 20
2.271831
 42
0.075673
 10
12.251101
 20
2.244306
 42
0.013712
 10
12.479652
 20
2.233456
 42
0.01545
 10
12.650459
 20
2.235315
 42
0.017178
 10
12.814859
 20
2.247856
 42
0.016735
 10
12.953522
 20
2.267956
 42
0.080812
 10
13.0284
 20
2.294334
 42
0.198991
 10
13.05249
 20
2.324247
 42
0.390038
 10
13.040006
 20
2.34953
 42
0.070909
 10
12.964306
 20
2.366998
 42
0.012208
 10
12.8169
 20
2.375969
 42
0.005931
 10
12.675629
 20
2.379433
 42
0.005531
 10
12.530993
 20
2.379663
 42
0.005519
 10
12.402501
 20
2.377027
 42
0.018679
 10
12.318799
 20
2.37125
 42
-0.067346
 10
12.251961
 20
2.373138
 42
-0.055528
 10
12.183246
 20
2.392426
 42
-0.057442
 10
12.12305
 20
2.425262
 42
-0.089162
  0
LWPOLYLINE
  5
A4E
330
1D
100
AcDbEntity
  8
0
100
AcDbPolyline
 90
       20
 70
     1
 43
0.0
 10
7.326442
 20
2.38995
 42
0.0643
 10
7.309889
 20
2.416743
 42
0.562243
 10
7.298702
 20
2.415219
 42
0.118137
 10
7.293762
 20
2.38741
 42
0.015661
 10
7.299213
 20
2.327472
 42
0.077795
 10
7.318119
 20
2.261051
 42
0.068558
 10
7.356987
 20
2.20034
 42
0.071091
 10
7.409161
 20
2.154351
 42
0.097881
 10
7.466922
 20
2.130918
 42
0.05865
 10
7.523193
 20
2.126798
 42
0.089644
 10
7.570796
 20
2.137587
 42
0.119811
 10
7.602351
 20
2.161091
 42
0.17478
 10
7.614
 20
2.193397
 42
0.131054
 10
7.604765
 20
2.228025
 42
0.100632
 10
7.578794
 20
2.257527
 42
0.088298
 10
7.539944
 20
2.27737
 42
0.074159
 10
7.49415
 20
2.2842
 42
-0.079271
 10
7.444756
 20
2.292081
 42
-0.061619
 10
7.395448
 20
2.315264
 42
-0.062104
 10
7.353667
 20
2.349511
 42
-0.083979
  0
LWPOLYLINE
  5
A64
330
1D
100
AcDbEntity
  8
0
100
AcDbPolyline
 90
       16
 70
     1
 43
0.0
 10
8.862555
 20
2.417445
 42
0.154511
 10
8.844501
 20
2.426817
 42
0.097827
 10
8.820594
 20
2.426271
 42
0.080251
 10
8.794445
 20
2.415887
 42
0.061883
 10
8.7702
 20
2.397
 42
0.090291
 10
8.748713
 20
2.365947
 42
0.037424
 10
8.731123
 20
2.31782
 42
0.03547
 10
8.719551
 20
2.26207
 42
0.038261
 10
8.716373
 20
2.20665
 42
0.022266
 10
8.720701
 20
2.138827
 42
0.446695
 10
8.735692
 20
2.128072
 42
0.200091
 10
8.758384
 20
2.144027
 42
0.009073
 10
8.808727
 20
2.227095
 42
0.025833
 10
8.840492
 20
2.288853
 42
0.036971
 10
8.861574
 20
2.346699
 42
0.040891
 10
8.870824
 20
2.393816
 42
0.22822
  0
LWPOLYLINE
  5
A76
330
1D
100
AcDbEntity
  8
0
100
AcDbPolyline
 90
       24
 70
     1
 43
0.0
 10
11.27619
 20
2.38296
 42
0.00605
 10
11.19304
 20
2.449866
 42
0.460873
 10
11.17816
 20
2.446877
 42
0.250937
 10
11.1778
 20
2.425829
 42
0.003722
 10
11.236995
 20
2.312696
 42
0.060541
 10
11.286334
 20
2.242168
 42
0.069985
 10
11.349031
 20
2.189393
 42
0.078024
 10
11.417409
 20
2.160143
 42
0.109774
 10
11.483495
 20
2.158173
 42
-0.003251
 10
11.545196
 20
2.169551
 42
-0.003199
 10
11.607368
 20
2.180189
 42
-0.003145
 10
11.661972
 20
2.188821
 42
-0.012206
 10
11.69595
 20
2.193127
 42
0.134134
 10
11.72017
 20
2.202475
 42
0.089095
 10
11.740762
 20
2.224225
 42
0.077777
 10
11.754649
 20
2.254901
 42
0.067566
 10
11.7594
 20
2.289901
 42
0.208334
 10
11.745812
 20
2.321097
 42
0.137905
 10
11.710549
 20
2.339237
 42
0.085503
 10
11.655191
 20
2.340924
 42
0.041823
 10
11.58614
 20
2.325211
 42
-0.069001
 10
11.508596
 20
2.311937
 42
-0.054045
 10
11.423394
 20
2.318443
 42
-0.054353
 10
11.342111
 20
2.342948
 42
-0.072191
  0
LWPOLYLINE
  5
A90
330
1D
100
AcDbEntity
  8
0
100
AcDbPolyline
 90
       28
 70
     1
 43
0.0
 10
29.623119
 20
2.398416
 42
0.006442
 10
29.38311
 20
2.400222
 42
0.0101
 10
29.17681
 20
2.394948
 42
0.00458
 10
29.003645
 20
2.385429
 42
0.246343
 10
28.976349
 20
2.3688
 42
0.224889
 10
28.974059
 20
2.345548
 42
0.048873
 10
28.991772
 20
2.308109
 42
0.041965
 10
29.022876
 20
2.264859
 42
0.029403
 10
29.064507
 20
2.221592
 42
0.05256
 10
29.111244
 20
2.186733
 42
0.082882
 10
29.157778
 20
2.168661
 42
0.115158
 10
29.196654
 20
2.169605
 42
0.193268
 10
29.222575
 20
2.188719
 42
-0.244829
 10
29.270337
 20
2.217155
 42
-0.003795
 10
29.599362
 20
2.233359
 42
-0.009125
 10
29.988885
 20
2.242463
 42
-0.005793
 10
30.442735
 20
2.239528
 42
0.006018
 10
30.901648
 20
2.236767
 42
0.008689
 10
31.30733
 20
2.246261
 42
0.005123
 10
31.646521
 20
2.263583
 42
0.126499
 10
31.735138
 20
2.292256
 42
0.648711
 10
31.730575
 20
2.323562
 42
0.038483
 10
31.60423
 20
2.348937
 42
0.020241
 10
31.376841
 20
2.367348
 42
0.007043
 10
31.0482
 20
2.37597
 42
-0.000529
 10
30.695123
 20
2.380632
 42
-0.000372
 10
30.298056
 20
2.38659
 42
-0.000376
 10
29.918203
 20
2.392858
 42
-0.00079
  0
LWPOLYLINE
  5
AAE
330
1D
100
AcDbEntity
  8
0
100
AcDbPolyline
 90
       16
 70
     1
 43
0.0
 10
13.8744
 20
2.3688
 42
0.099038
 10
13.842113
 20
2.362341
 42
0.097945
 10
13.814651
 20
2.343949
 42
0.097945
 10
13.796259
 20
2.316487
 42
0.099038
 10
13.7898
 20
2.2842
 42
0.099038
 10
13.796259
 20
2.251913
 42
0.097945
 10
13.814651
 20
2.224451
 42
0.097945
 10
13.842113
 20
2.206059
 42
0.099038
 10
13.8744
 20
2.1996
 42
0.099038
 10
13.906687
 20
2.206059
 42
0.097945
 10
13.934149
 20
2.224451
 42
0.097945
 10
13.952541
 20
2.251913
 42
0.099038
 10
13.959
 20
2.2842
 42
0.099038
 10
13.952541
 20
2.316487
 42
0.097945
 10
13.934149
 20
2.343949
 42
0.097945
 10
13.906687
 20
2.362341
 42
0.099038
  0
LWPOLYLINE
  5
AC0
330
1D
100
AcDbEntity
  8
0
100
AcDbPolyline
 90
       16
 70
     1
 43
0.0
 10
17.15265
 20
2.362854
 42
0.019831
 10
16.998618
 20
2.359024
 42
0.032203
 10
16.868843
 20
2.342202
 42
0.034411
 10
16.774053
 20
2.316774
 42
0.320305
 10
16.7508
 20
2.2842
 42
0.24567
 10
16.767538
 20
2.252191
 42
0.070412
 10
16.819141
 20
2.226198
 42
0.053373
 10
16.894335
 20
2.209433
 42
0.034583
 10
16.98345
 20
2.205546
 42
0.024498
 10
17.084894
 20
2.213122
 42
0.017442
 10
17.197462
 20
2.231103
 42
0.017667
 10
17.303885
 20
2.255867
 42
0.035492
 10
17.3853
 20
2.2842
 42
0.091871
 10
17.435662
 20
2.317853
 42
0.560431
 10
17.4301
 20
2.342364
 42
0.071077
 10
17.350313
 20
2.357221
 42
0.006847
  0
LWPOLYLINE
  5
AD2
330
1D
100
AcDbEntity
  8
0
100
AcDbPolyline
 90
       16
 70
     1
 43
0.0
 10
33.69195
 20
2.363438
 42
0.011251
 10
33.438016
 20
2.359944
 42
0.024734
 10
33.244587
 20
2.343322
 42
0.025816
 10
33.108081
 20
2.317523
 42
0.345986
 10
33.0786
 20
2.280018
 42
0.322652
 10
33.104191
 20
2.24449
 42
0.040927
 10
33.201347
 20
2.220656
 42
0.033312
 10
33.342336
 20
2.207627
 42
0.016332
 10
33.52275
 20
2.208909
 42
0.011852
 10
33.705201
 20
2.220505
 42
0.012001
 10
33.886133
 20
2.240704
 42
0.011864
 10
34.042555
 20
2.265771
 42
0.047031
 10
34.1361
 20
2.292329
 42
0.529626
 10
34.142179
 20
2.318763
 42
0.167531
 10
34.098474
 20
2.342116
 42
0.029952
 10
33.94421
 20
2.357417
 42
0.007559
  0
LWPOLYLINE
  5
AE4
330
1D
100
AcDbEntity
  8
0
100
AcDbPolyline
 90
       16
 70
     1
 43
0.0
 10
16.800804
 20
2.115
 42
0.176553
 10
16.784289
 20
2.108981
 42
0.014236
 10
16.749183
 20
2.077723
 42
0.017822
 10
16.708676
 20
2.036711
 42
0.012711
 10
16.6662
 20
1.9881
 42
0.035237
 10
16.629995
 20
1.937631
 42
0.100348
 10
16.615162
 20
1.897221
 42
0.22275
 10
16.622563
 20
1.872105
 42
0.214681
 10
16.64679
 20
1.8612
 42
0.125677
 10
16.683252
 20
1.870512
 42
0.064053
 10
16.721767
 20
1.898477
 42
0.05745
 10
16.756383
 20
1.939568
 42
0.054778
 10
16.781394
 20
1.9881
 42
0.019009
 10
16.79798
 20
2.036779
 42
0.034664
 10
16.807182
 20
2.077723
 42
0.044074
 10
16.809047
 20
2.106956
 42
0.407084
  0
LWPOLYLINE
  5
AF6
330
1D
100
AcDbEntity
  8
0
100
AcDbPolyline
 90
       16
 70
     1
 43
0.0
 10
20.0079
 20
2.115
 42
0.062722
 10
19.959379
 20
2.108889
 42
0.08088
 10
19.918277
 20
2.090929
 42
0.098158
 10
19.890771
 20
2.064307
 42
0.152681
 10
19.881
 20
2.033055
 42
0.184534
 10
19.891362
 20
2.005934
 42
0.147206
 10
19.918277
 20
1.989486
 42
0.100118
 10
19.959309
 20
1.987158
 42
0.055937
 10
20.0079
 20
1.999806
 42
0.02136
 10
20.056508
 20
2.020882
 42
0.030395
 10
20.097523
 20
2.043965
 42
0.030693
 10
20.12743
 20
2.065989
 42
0.222225
 10
20.1348
 20
2.081751
 42
0.289661
 10
20.126671
 20
2.094605
 42
0.046727
 10
20.097523
 20
2.105233
 42
0.039339
 10
20.05653
 20
2.112591
 42
0.024748
  0
LWPOLYLINE
  5
B08
330
1D
100
AcDbEntity
  8
0
100
AcDbPolyline
 90
       28
 70
     1
 43
0.0
 10
22.5036
 20
1.9458
 42
0.004873
 10
22.388514
 20
2.058664
 42
0.190864
 10
22.356043
 20
2.071963
 42
0.40091
 10
22.337455
 20
2.054609
 42
0.014291
 10
22.3344
 20
1.94775
 42
0.101575
 10
22.349606
 20
1.873672
 42
0.049886
 10
22.396347
 20
1.789041
 42
0.046616
 10
22.464611
 20
1.707576
 42
0.050076
 10
22.545284
 20
1.642324
 42
0.04606
 10
22.650023
 20
1.586728
 42
0.051996
 10
22.759048
 20
1.553953
 42
0.053632
 10
22.869445
 20
1.544994
 42
0.054984
 10
22.978266
 20
1.559891
 42
0.022367
 10
23.060359
 20
1.584445
 42
0.044706
 10
23.122043
 20
1.612341
 42
0.074633
 10
23.156117
 20
1.638953
 42
0.40643
 10
23.155835
 20
1.660165
 42
0.086379
 10
23.128684
 20
1.679266
 42
0.021717
 10
23.078618
 20
1.700275
 42
0.021518
 10
23.018413
 20
1.719617
 42
0.020209
 10
22.955502
 20
1.734175
 42
0.003054
 10
22.891199
 20
1.745935
 42
0.003064
 10
22.826828
 20
1.756896
 42
0.002992
 10
22.770567
 20
1.765776
 42
0.012225
 10
22.73625
 20
1.770127
 42
-0.119016
 10
22.701978
 20
1.782196
 42
-0.017815
 10
22.641736
 20
1.824401
 42
-0.019176
 10
22.573032
 20
1.880541
 42
-0.015489
  0
LWPOLYLINE
  5
B26
330
1D
100
AcDbEntity
  8
0
100
AcDbPolyline
 90
       16
 70
     1
 43
0.0
 10
26.728607
 20
2.115
 42
0.045552
 10
26.665348
 20
2.109225
 42
0.099152
 10
26.620272
 20
2.091234
 42
0.177225
 10
26.600391
 20
2.064675
 42
0.214542
 10
26.604416
 20
2.034095
 42
0.126981
 10
26.632887
 20
2.006784
 42
0.081026
 10
26.676212
 20
1.990955
 42
0.072258
 10
26.727396
 20
1.988684
 42
0.066719
 10
26.778609
 20
2.000846
 42
0.021825
 10
26.826178
 20
2.021524
 42
0.030936
 10
26.866319
 20
2.04427
 42
0.031518
 10
26.89552
 20
2.06603
 42
0.220306
 10
26.9028
 20
2.081751
 42
0.327354
 10
26.893281
 20
2.094732
 42
0.029196
 10
26.851631
 20
2.105233
 42
0.029198
 10
26.795379
 20
2.1126
 42
0.017964
  0
LWPOLYLINE
  5
B38
330
1D
100
AcDbEntity
  8
0
100
AcDbPolyline
 90
       16
 70
     1
 43
0.0
 10
29.689607
 20
2.115
 42
0.108972
 10
29.659579
 20
2.108377
 42
0.182303
 10
29.641691
 20
2.090149
 42
0.161196
 10
29.639059
 20
2.062726
 42
0.082592
 10
29.6523
 20
2.0304
 42
0.029505
 10
29.675057
 20
1.998017
 42
0.035638
 10
29.700186
 20
1.970651
 42
0.038439
 10
29.724065
 20
1.951345
 42
0.151918
 10
29.741893
 20
1.9458
 42
0.210953
 10
29.756159
 20
1.952099
 42
0.081139
 10
29.768241
 20
1.970651
 42
0.061769
 10
29.776464
 20
1.998011
 42
0.042167
 10
29.7792
 20
2.0304
 42
0.105053
 10
29.772342
 20
2.06268
 42
0.099167
 10
29.752882
 20
2.090149
 42
0.09642
 10
29.723807
 20
2.10856
 42
0.093332
  0
LWPOLYLINE
  5
B4A
330
1D
100
AcDbEntity
  8
0
100
AcDbPolyline
 90
       20
 70
     1
 43
0.0
 10
14.237282
 20
1.95996
 42
0.008278
 10
14.159345
 20
2.022145
 42
0.203949
 10
14.13321
 20
2.028944
 42
0.440505
 10
14.122944
 20
2.013712
 42
0.019882
 10
14.142219
 20
1.9458
 42
0.109949
 10
14.172269
 20
1.895134
 42
0.058258
 10
14.228387
 20
1.84786
 42
0.053794
 10
14.300149
 20
1.810847
 42
0.05591
 10
14.377234
 20
1.790587
 42
0.052172
 10
14.458361
 20
1.787255
 42
0.045957
 10
14.542078
 20
1.80034
 42
0.048537
 10
14.615916
 20
1.826783
 42
0.093082
 10
14.666707
 20
1.863546
 42
0.034963
 10
14.70641
 20
1.911773
 42
0.477588
 10
14.701083
 20
1.930854
 42
0.16619
 10
14.666761
 20
1.933538
 42
0.010594
 10
14.56829
 20
1.906019
 42
-0.056255
 10
14.479258
 20
1.889698
 42
-0.057678
 10
14.389596
 20
1.893853
 42
-0.060064
 10
14.306628
 20
1.917848
 42
-0.072248
  0
LWPOLYLINE
  5
B60
330
1D
100
AcDbEntity
  8
0
100
AcDbPolyline
 90
       12
 70
     1
 43
0.0
 10
28.899712
 20
2.007487
 42
0.296942
 10
28.881197
 20
2.011397
 42
0.208169
 10
28.865576
 20
1.995954
 42
0.077125
 10
28.856209
 20
1.955347
 42
0.028489
 10
28.855279
 20
1.89645
 42
0.018894
 10
28.860274
 20
1.833311
 42
0.168741
 10
28.87223
 20
1.808628
 42
0.470617
 10
28.887648
 20
1.810087
 42
0.054073
 10
28.906391
 20
1.845337
 42
0.051402
 10
28.919592
 20
1.891603
 42
0.05415
 10
28.922758
 20
1.938772
 42
0.060344
 10
28.916061
 20
1.979829
 42
0.126455
  0
LWPOLYLINE
  5
B6E
330
1D
100
AcDbEntity
  8
0
100
AcDbPolyline
 90
       16
 70
     1
 43
0.0
 10
32.386028
 20
2.0304
 42
0.128892
 10
32.364041
 20
2.024636
 42
0.010356
 10
32.312018
 20
1.993913
 42
0.013442
 10
32.25088
 20
1.953766
 42
0.009907
 10
32.18532
 20
1.906191
 42
0.027143
 10
32.128515
 20
1.858167
 42
0.079596
 10
32.097361
 20
1.817677
 42
0.239048
 10
32.096656
 20
1.792249
 42
0.282417
 10
32.116491
 20
1.779291
 42
0.10323
 10
32.160541
 20
1.787194
 42
0.042752
 10
32.214798
 20
1.814667
 42
0.039927
 10
32.269853
 20
1.855145
 42
0.041094
 10
32.3172
 20
1.9035
 42
0.016055
 10
32.355066
 20
1.952227
 42
0.032895
 10
32.380862
 20
1.993123
 42
0.051558
 10
32.392656
 20
2.021497
 42
0.502231
  0
LWPOLYLINE
  5
B80
330
1D
100
AcDbEntity
  8
0
100
AcDbPolyline
 90
        8
 70
     1
 43
0.0
 10
17.8506
 20
40.6926
 10
17.2584
 20
40.6926
 10
17.2584
 20
40.1004
 10
17.2584
 20
39.5082
 10
17.8506
 20
39.5082
 10
18.4428
 20
39.5082
 10
18.4428
 20
40.1004
 10
18.4428
 20
40.6926
  0
LWPOLYLINE
  5
B8A
330
1D
100
AcDbEntity
  8
0
100
AcDbPolyline
 90
       12
 70
     1
 43
0.0
 10
27.958681
 20
33.1632
 10
27.322563
 20
33.1632
 10
27.345331
 20
31.28085
 10
27.3681
 20
29.3985
 10
27.785494
 20
29.37208
 42
0.012954
 10
27.959668
 20
29.365579
 42
0.012124
 10
28.13784
 20
29.367868
 42
0.012194
 10
28.295818
 20
29.377593
 42
0.040031
 10
28.398844
 20
29.394842
 10
28.5948
 20
29.444024
 10
28.5948
 20
31.303612
 10
28.5948
 20
33.1632
  0
LWPOLYLINE
  5
B98
330
1D
100
AcDbEntity
  8
0
100
AcDbPolyline
 90
       20
 70
     1
 43
0.0
 10
27.83499
 20
23.077858
 42
0.007063
 10
27.664888
 20
23.065967
 42
0.01035
 10
27.515691
 20
23.050301
 42
0.006094
 10
27.391759
 20
23.033151
 42
0.15745
 10
27.361837
 20
23.01825
 42
0.196294
 10
27.347126
 20
22.98429
 42
0.000493
 10
27.336386
 20
22.450769
 42
0.002959
 10
27.328396
 20
21.846582
 42
0.001826
 10
27.3258
 20
21.1359
 10
27.3258
 20
19.2888
 10
27.9603
 20
19.2888
 10
28.5948
 20
19.2888
 10
28.5948
 20
21.144299
 42
0.001583
 10
28.59115
 20
22.297411
 42
0.019525
 10
28.571227
 20
22.73619
 42
0.057046
 10
28.526563
 20
22.958365
 42
0.242362
 10
28.433454
 20
23.051007
 42
0.053091
 10
28.343693
 20
23.069319
 42
0.012583
 10
28.1911
 20
23.080019
 42
0.012808
 10
28.014173
 20
23.08342
 42
0.01232
  0
LWPOLYLINE
  5
BAE
330
1D
100
AcDbEntity
  8
0
100
AcDbPolyline
 90
       16
 70
     1
 43
0.0
 10
19.1196
 20
14.805
 42
0.005407
 10
18.624654
 20
14.799647
 42
0.01242
 10
18.25245
 20
14.782339
 42
0.007361
 10
17.969103
 20
14.757903
 42
0.385003
 10
17.9352
 20
14.7204
 42
0.385003
 10
17.969103
 20
14.682897
 42
0.007361
 10
18.25245
 20
14.658461
 42
0.01242
 10
18.624654
 20
14.641153
 42
0.005407
 10
19.1196
 20
14.6358
 42
0.005407
 10
19.614546
 20
14.641153
 42
0.01242
 10
19.98675
 20
14.658461
 42
0.007361
 10
20.270097
 20
14.682897
 42
0.385003
 10
20.304
 20
14.7204
 42
0.385003
 10
20.270097
 20
14.757903
 42
0.007361
 10
19.98675
 20
14.782339
 42
0.01242
 10
19.614546
 20
14.799647
 42
0.005407
  0
ENDSEC
  0
SECTION
  2
OBJECTS
  0
DICTIONARY
  5
C
330
0
100
AcDbDictionary
281
     1
  3
ACAD_DETAILVIEWSTYLE
350
C4C
  3
ACAD_GROUP
350
D
  3
ACAD_LAYOUT
350
1A
  3
ACAD_MATERIAL
350
BFF
  3
ACAD_MLEADERSTYLE
350
C05
  3
ACAD_MLINESTYLE
350
17
  3
ACAD_PLOTSETTINGS
350
19
  3
ACAD_PLOTSTYLENAME
350
E
  3
ACAD_SCALELIST
350
BC0
  3
ACAD_SECTIONVIEWSTYLE
350
C4D
  3
ACAD_TABLESTYLE
350
C03
  3
ACAD_VISUALSTYLE
350
BE6
  3
ACDB_RECOMPOSE_DATA
350
C48
  3
AcDbVariableDictionary
350
C09
  0
DICTIONARY
  5
C07
330
8
100
AcDbDictionary
280
     1
281
     1
  3
ACAD_XREC_ROUNDTRIP
360
C08
  0
DICTIONARY
  5
C4C
102
{ACAD_REACTORS
330
C
102
}
330
C
100
AcDbDictionary
281
     1
  0
DICTIONARY
  5
D
102
{ACAD_REACTORS
330
C
102
}
330
C
100
AcDbDictionary
281
     1
  0
DICTIONARY
  5
1A
102
{ACAD_REACTORS
330
C
102
}
330
C
100
AcDbDictionary
281
     1
  3
Layout1
350
1C
  3
Model
350
1E
  0
DICTIONARY
  5
BFF
102
{ACAD_REACTORS
330
C
102
}
330
C
100
AcDbDictionary
281
     1
  3
ByBlock
350
C01
  3
ByLayer
350
C00
  3
Global
350
C02
  0
DICTIONARY
  5
C05
102
{ACAD_REACTORS
330
C
102
}
330
C
100
AcDbDictionary
281
     1
  3
Standard
350
C06
  0
DICTIONARY
  5
17
102
{ACAD_REACTORS
330
C
102
}
330
C
100
AcDbDictionary
281
     1
  3
Standard
350
18
  0
DICTIONARY
  5
19
102
{ACAD_REACTORS
330
C
102
}
330
C
100
AcDbDictionary
281
     1
  0
ACDBDICTIONARYWDFLT
  5
E
102
{ACAD_REACTORS
330
C
102
}
330
C
100
AcDbDictionary
281
     1
  3
Normal
350
F
100
AcDbDictionaryWithDefault
340
F
  0
DICTIONARY
  5
BC0
102
{ACAD_REACTORS
330
C
102
}
330
C
100
AcDbDictionary
281
     1
  3
A0
350
BC1
  3
A1
350
BC2
  3
A2
350
BC3
  3
A3
350
BC4
  3
A4
350
BC5
  3
A5
350
BC6
  3
A6
350
BC7
  3
A7
350
BC8
  3
A8
350
BC9
  3
A9
350
BCA
  3
B0
350
BCB
  3
B1
350
BCC
  3
B2
350
BCD
  3
B3
350
BCE
  3
B4
350
BCF
  3
B5
350
BD0
  3
B6
350
BD1
  3
B7
350
BD2
  3
B8
350
BD3
  3
B9
350
BD4
  3
C0
350
BD5
  3
C1
350
BD6
  3
C2
350
BD7
  3
C3
350
BD8
  3
C4
350
BD9
  3
C5
350
BDA
  3
C6
350
BDB
  3
C7
350
BDC
  3
C8
350
BDD
  3
C9
350
BDE
  3
D0
350
BDF
  3
D1
350
BE0
  3
D2
350
BE1
  0
DICTIONARY
  5
C4D
102
{ACAD_REACTORS
330
C
102
}
330
C
100
AcDbDictionary
281
     1
  0
DICTIONARY
  5
C03
102
{ACAD_REACTORS
330
C
102
}
330
C
100
AcDbDictionary
281
     1
  3
Standard
350
C04
  0
DICTIONARY
  5
BE6
102
{ACAD_REACTORS
330
C
102
}
330
C
100
AcDbDictionary
281
     1
  3
2dWireframe
350
BEB
  3
Basic
350
BEE
  3
Brighten
350
BF2
  3
ColorChange
350
BF6
  3
Conceptual
350
BF0
  3
Dim
350
BF1
  3
EdgeColorOff
350
BF9
  3
Facepattern
350
BF5
  3
Flat
350
BE7
  3
FlatWithEdges
350
BE8
  3
Gouraud
350
BE9
  3
GouraudWithEdges
350
BEA
  3
Hidden
350
BED
  3
JitterOff
350
BF7
  3
Linepattern
350
BF4
  3
OverhangOff
350
BF8
  3
Realistic
350
BEF
  3
Shaded
350
BFE
  3
Shaded with edges
350
BFD
  3
Shades of Gray
350
BFA
  3
Sketchy
350
BFB
  3
Thicken
350
BF3
  3
Wireframe
350
BEC
  3
X-Ray
350
BFC
  0
XRECORD
  5
C48
102
{ACAD_REACTORS
330
C
102
}
330
C
100
AcDbXrecord
280
     1
 90
        1
330
C04
  0
DICTIONARY
  5
C09
102
{ACAD_REACTORS
330
C
102
}
330
C
100
AcDbDictionary
281
     1
  3
CANNOSCALE
350
C0A
  3
CMLEADERSTYLE
350
C4A
  3
CTABLESTYLE
350
C49
  3
MSLTSCALE
350
C4B
  3
XCLIPFRAME
350
C0B
  0
XRECORD
  5
C08
102
{ACAD_REACTORS
330
C07
102
}
330
C07
100
AcDbXrecord
280
     1
102
VTR_0.000_0.000_1.000_1.000_VISUALSTYLE
340
BEB
102
VTR_0.000_0.000_1.000_1.000_GRIDDISPLAY
 70
     3
102
VTR_0.000_0.000_1.000_1.000_GRIDMAJOR
 70
     5
102
VTR_0.000_0.000_1.000_1.000_DEFAULTLIGHTING
280
     1
102
VTR_0.000_0.000_1.000_1.000_DEFAULTLIGHTINGTYPE
 70
     1
102
VTR_0.000_0.000_1.000_1.000_BRIGHTNESS
141
0.0
102
VTR_0.000_0.000_1.000_1.000_CONTRAST
142
0.0
  0
LAYOUT
  5
1C
102
{ACAD_REACTORS
330
1A
102
}
330
1A
100
AcDbPlotSettings
  1

  2
none_device
  4

  6

 40
0.0
 41
0.0
 42
0.0
 43
0.0
 44
0.0
 45
0.0
 46
0.0
 47
0.0
 48
0.0
 49
0.0
140
0.0
141
0.0
142
1.0
143
1.0
 70
   688
 72
     0
 73
     0
 74
     5
  7

 75
    16
 76
     0
 77
     2
 78
   300
147
1.0
148
0.0
149
0.0
100
AcDbLayout
  1
Layout1
 70
     1
 71
     1
 10
0.0
 20
0.0
 11
12.0
 21
9.0
 12
0.0
 22
0.0
 32
0.0
 14
1.000000000000000E+20
 24
1.000000000000000E+20
 34
1.000000000000000E+20
 15
-1.000000000000000E+20
 25
-1.000000000000000E+20
 35
-1.000000000000000E+20
146
0.0
 13
0.0
 23
0.0
 33
0.0
 16
1.0
 26
0.0
 36
0.0
 17
0.0
 27
1.0
 37
0.0
 76
     0
330
1B
  0
LAYOUT
  5
1E
102
{ACAD_REACTORS
330
1A
102
}
330
1A
100
AcDbPlotSettings
  1

  2
none_device
  4
Letter_(8.50_x_11.00_Inches)
  6

 40
6.35
 41
6.35
 42
6.35000508
 43
6.35000508
 44
215.9
 45
279.4
 46
0.0
 47
0.0
 48
0.0
 49
0.0
140
0.0
141
0.0
142
1.0
143
1.0
 70
  1712
 72
     0
 73
     0
 74
     0
  7

 75
     0
 76
     0
 77
     2
 78
   300
147
1.0
148
0.0
149
0.0
100
AcDbLayout
  1
Model
 70
     1
 71
     0
 10
0.0
 20
0.0
 11
12.0
 21
9.0
 12
0.0
 22
0.0
 32
0.0
 14
0.0
 24
0.0
 34
0.0
 15
38.2392
 25
67.5954
 35
0.0
146
0.0
 13
0.0
 23
0.0
 33
0.0
 16
1.0
 26
0.0
 36
0.0
 17
0.0
 27
1.0
 37
0.0
 76
     0
330
1D
331
21
  0
MATERIAL
  5
C01
102
{ACAD_REACTORS
330
BFF
102
}
102
{ACAD_XDICTIONARY
360
C3E
102
}
330
BFF
100
AcDbMaterial
  1
ByBlock
  0
MATERIAL
  5
C00
102
{ACAD_REACTORS
330
BFF
102
}
102
{ACAD_XDICTIONARY
360
C3C
102
}
330
BFF
100
AcDbMaterial
  1
ByLayer
  0
MATERIAL
  5
C02
102
{ACAD_REACTORS
330
BFF
102
}
102
{ACAD_XDICTIONARY
360
C40
102
}
330
BFF
100
AcDbMaterial
  1
Global
  0
MLEADERSTYLE
  5
C06
102
{ACAD_REACTORS
330
C05
102
}
102
{ACAD_XDICTIONARY
360
C46
102
}
330
C05
100
AcDbMLeaderStyle
170
     2
171
     1
172
     0
 90
        2
 40
0.0
 41
0.0
173
     1
 91
-1056964608
340
14
 92
       -2
290
     1
 42
0.09
291
     1
 43
0.36
  3
Standard
341
0
 44
0.18
300

342
11
174
     1
178
     6
175
     1
176
     0
 93
-1056964608
 45
0.18
292
     0
297
     0
 46
0.18
343
0
 94
-1056964608
 47
1.0
 49
1.0
140
1.0
293
     1
141
0.0
294
     1
177
     0
142
1.0
295
     0
296
     0
143
0.125
1001
ACAD_MLEADERVER
1070
     2
  0
MLINESTYLE
  5
18
102
{ACAD_REACTORS
330
17
102
}
330
17
100
AcDbMlineStyle
  2
Standard
 70
     0
  3

 62
   256
 51
90.0
 52
90.0
 71
     2
 49
0.5
 62
   256
  6
BYLAYER
 49
-0.5
 62
   256
  6
BYLAYER
  0
ACDBPLACEHOLDER
  5
F
102
{ACAD_REACTORS
330
E
102
}
330
E
  0
SCALE
  5
BC1
102
{ACAD_REACTORS
330
BC0
102
}
330
BC0
100
AcDbScale
 70
     0
300
1:1
140
1.0
141
1.0
290
     1
  0
SCALE
  5
BC2
102
{ACAD_REACTORS
330
BC0
102
}
330
BC0
100
AcDbScale
 70
     0
300
1:2
140
1.0
141
2.0
290
     0
  0
SCALE
  5
BC3
102
{ACAD_REACTORS
330
BC0
102
}
330
BC0
100
AcDbScale
 70
     0
300
1:4
140
1.0
141
4.0
290
     0
  0
SCALE
  5
BC4
102
{ACAD_REACTORS
330
BC0
102
}
330
BC0
100
AcDbScale
 70
     0
300
1:5
140
1.0
141
5.0
290
     0
  0
SCALE
  5
BC5
102
{ACAD_REACTORS
330
BC0
102
}
330
BC0
100
AcDbScale
 70
     0
300
1:8
140
1.0
141
8.0
290
     0
  0
SCALE
  5
BC6
102
{ACAD_REACTORS
330
BC0
102
}
330
BC0
100
AcDbScale
 70
     0
300
1:10
140
1.0
141
10.0
290
     0
  0
SCALE
  5
BC7
102
{ACAD_REACTORS
330
BC0
102
}
330
BC0
100
AcDbScale
 70
     0
300
1:16
140
1.0
141
16.0
290
     0
  0
SCALE
  5
BC8
102
{ACAD_REACTORS
330
BC0
102
}
330
BC0
100
AcDbScale
 70
     0
300
1:20
140
1.0
141
20.0
290
     0
  0
SCALE
  5
BC9
102
{ACAD_REACTORS
330
BC0
102
}
330
BC0
100
AcDbScale
 70
     0
300
1:30
140
1.0
141
30.0
290
     0
  0
SCALE
  5
BCA
102
{ACAD_REACTORS
330
BC0
102
}
330
BC0
100
AcDbScale
 70
     0
300
1:40
140
1.0
141
40.0
290
     0
  0
SCALE
  5
BCB
102
{ACAD_REACTORS
330
BC0
102
}
330
BC0
100
AcDbScale
 70
     0
300
1:50
140
1.0
141
50.0
290
     0
  0
SCALE
  5
BCC
102
{ACAD_REACTORS
330
BC0
102
}
330
BC0
100
AcDbScale
 70
     0
300
1:100
140
1.0
141
100.0
290
     0
  0
SCALE
  5
BCD
102
{ACAD_REACTORS
330
BC0
102
}
330
BC0
100
AcDbScale
 70
     0
300
2:1
140
2.0
141
1.0
290
     0
  0
SCALE
  5
BCE
102
{ACAD_REACTORS
330
BC0
102
}
330
BC0
100
AcDbScale
 70
     0
300
4:1
140
4.0
141
1.0
290
     0
  0
SCALE
  5
BCF
102
{ACAD_REACTORS
330
BC0
102
}
330
BC0
100
AcDbScale
 70
     0
300
8:1
140
8.0
141
1.0
290
     0
  0
SCALE
  5
BD0
102
{ACAD_REACTORS
330
BC0
102
}
330
BC0
100
AcDbScale
 70
     0
300
10:1
140
10.0
141
1.0
290
     0
  0
SCALE
  5
BD1
102
{ACAD_REACTORS
330
BC0
102
}
330
BC0
100
AcDbScale
 70
     0
300
100:1
140
100.0
141
1.0
290
     0
  0
SCALE
  5
BD2
102
{ACAD_REACTORS
330
BC0
102
}
330
BC0
100
AcDbScale
 70
     0
300
1/128\" = 1\'-0\"
140
0.0078125
141
12.0
290
     0
  0
SCALE
  5
BD3
102
{ACAD_REACTORS
330
BC0
102
}
330
BC0
100
AcDbScale
 70
     0
300
1/64\" = 1\'-0\"
140
0.015625
141
12.0
290
     0
  0
SCALE
  5
BD4
102
{ACAD_REACTORS
330
BC0
102
}
330
BC0
100
AcDbScale
 70
     0
300
1/32\" = 1\'-0\"
140
0.03125
141
12.0
290
     0
  0
SCALE
  5
BD5
102
{ACAD_REACTORS
330
BC0
102
}
330
BC0
100
AcDbScale
 70
     0
300
1/16\" = 1\'-0\"
140
0.0625
141
12.0
290
     0
  0
SCALE
  5
BD6
102
{ACAD_REACTORS
330
BC0
102
}
330
BC0
100
AcDbScale
 70
     0
300
3/32\" = 1\'-0\"
140
0.09375
141
12.0
290
     0
  0
SCALE
  5
BD7
102
{ACAD_REACTORS
330
BC0
102
}
330
BC0
100
AcDbScale
 70
     0
300
1/8\" = 1\'-0\"
140
0.125
141
12.0
290
     0
  0
SCALE
  5
BD8
102
{ACAD_REACTORS
330
BC0
102
}
330
BC0
100
AcDbScale
 70
     0
300
3/16\" = 1\'-0\"
140
0.1875
141
12.0
290
     0
  0
SCALE
  5
BD9
102
{ACAD_REACTORS
330
BC0
102
}
330
BC0
100
AcDbScale
 70
     0
300
1/4\" = 1\'-0\"
140
0.25
141
12.0
290
     0
  0
SCALE
  5
BDA
102
{ACAD_REACTORS
330
BC0
102
}
330
BC0
100
AcDbScale
 70
     0
300
3/8\" = 1\'-0\"
140
0.375
141
12.0
290
     0
  0
SCALE
  5
BDB
102
{ACAD_REACTORS
330
BC0
102
}
330
BC0
100
AcDbScale
 70
     0
300
1/2\" = 1\'-0\"
140
0.5
141
12.0
290
     0
  0
SCALE
  5
BDC
102
{ACAD_REACTORS
330
BC0
102
}
330
BC0
100
AcDbScale
 70
     0
300
3/4\" = 1\'-0\"
140
0.75
141
12.0
290
     0
  0
SCALE
  5
BDD
102
{ACAD_REACTORS
330
BC0
102
}
330
BC0
100
AcDbScale
 70
     0
300
1\" = 1\'-0\"
140
1.0
141
12.0
290
     0
  0
SCALE
  5
BDE
102
{ACAD_REACTORS
330
BC0
102
}
330
BC0
100
AcDbScale
 70
     0
300
1-1/2\" = 1\'-0\"
140
1.5
141
12.0
290
     0
  0
SCALE
  5
BDF
102
{ACAD_REACTORS
330
BC0
102
}
330
BC0
100
AcDbScale
 70
     0
300
3\" = 1\'-0\"
140
3.0
141
12.0
290
     0
  0
SCALE
  5
BE0
102
{ACAD_REACTORS
330
BC0
102
}
330
BC0
100
AcDbScale
 70
     0
300
6\" = 1\'-0\"
140
6.0
141
12.0
290
     0
  0
SCALE
  5
BE1
102
{ACAD_REACTORS
330
BC0
102
}
330
BC0
100
AcDbScale
 70
     0
300
1\'-0\" = 1\'-0\"
140
12.0
141
12.0
290
     0
  0
TABLESTYLE
  5
C04
102
{ACAD_REACTORS
330
C03
102
}
102
{ACAD_XDICTIONARY
360
C42
102
}
330
C03
100
AcDbTableStyle
  3
Standard
 70
     0
 71
     0
 40
0.06
 41
0.06
280
     0
281
     0
  7
Standard
140
0.18
170
     2
 62
     0
 63
   257
283
     0
274
    -2
284
     1
 64
     0
275
    -2
285
     1
 65
     0
276
    -2
286
     1
 66
     0
277
    -2
287
     1
 67
     0
278
    -2
288
     1
 68
     0
279
    -2
289
     1
 69
     0
  7
Standard
140
0.25
170
     5
 62
     0
 63
   257
283
     0
274
    -2
284
     1
 64
     0
275
    -2
285
     1
 65
     0
276
    -2
286
     1
 66
     0
277
    -2
287
     1
 67
     0
278
    -2
288
     1
 68
     0
279
    -2
289
     1
 69
     0
  7
Standard
140
0.18
170
     5
 62
     0
 63
   257
283
     0
274
    -2
284
     1
 64
     0
275
    -2
285
     1
 65
     0
276
    -2
286
     1
 66
     0
277
    -2
287
     1
 67
     0
278
    -2
288
     1
 68
     0
279
    -2
289
     1
 69
     0
  0
VISUALSTYLE
  5
BEB
102
{ACAD_REACTORS
330
BE6
102
}
102
{ACAD_XDICTIONARY
360
C14
102
}
330
BE6
100
AcDbVisualStyle
  2
2dWireframe
 70
     4
 71
     0
 72
     2
 73
     0
 90
        0
 40
0.6
 41
30.0
 62
     5
 63
     7
421
 16777215
 74
     1
 91
        4
 64
     7
 65
   257
 75
     1
175
     1
 42
1.0
 92
        0
 66
   257
 43
1.0
 76
     1
 77
     6
 78
     2
 67
     7
 79
     5
170
     0
171
     0
290
     0
174
     0
 93
        1
 44
0.0
173
     0
291
     0
 45
0.0
1001
ACAD
1000
AcDbSavedByObjectVersion
1070
     0
  0
VISUALSTYLE
  5
BEE
102
{ACAD_REACTORS
330
BE6
102
}
102
{ACAD_XDICTIONARY
360
C1A
102
}
330
BE6
100
AcDbVisualStyle
  2
Basic
 70
     7
 71
     1
 72
     0
 73
     1
 90
        0
 40
0.6
 41
30.0
 62
     5
 63
     7
421
 16777215
 74
     0
 91
        4
 64
     7
 65
   257
 75
     1
175
     1
 42
1.0
 92
        8
 66
     7
 43
1.0
 76
     1
 77
     6
 78
     2
 67
     7
 79
     5
170
     0
171
     0
290
     0
174
     0
 93
        1
 44
0.0
173
     0
291
     1
 45
0.0
1001
ACAD
1000
AcDbSavedByObjectVersion
1070
     0
  0
VISUALSTYLE
  5
BF2
102
{ACAD_REACTORS
330
BE6
102
}
102
{ACAD_XDICTIONARY
360
C22
102
}
330
BE6
100
AcDbVisualStyle
  2
Brighten
 70
    12
 71
     2
 72
     2
 73
     0
 90
        0
 40
0.6
 41
30.0
 62
     5
 63
     7
421
 16777215
 74
     1
 91
        4
 64
     7
 65
   257
 75
     1
175
     1
 42
1.0
 92
        8
 66
     7
 43
1.0
 76
     1
 77
     6
 78
     2
 67
     7
 79
     5
170
     0
171
     0
290
     0
174
     0
 93
        1
 44
50.0
173
     0
291
     1
 45
0.0
1001
ACAD
1000
AcDbSavedByObjectVersion
1070
     0
  0
VISUALSTYLE
  5
BF6
102
{ACAD_REACTORS
330
BE6
102
}
102
{ACAD_XDICTIONARY
360
C2A
102
}
330
BE6
100
AcDbVisualStyle
  2
ColorChange
 70
    16
 71
     2
 72
     2
 73
     3
 90
        0
 40
0.6
 41
30.0
 62
     5
 63
     8
421
  8421504
 74
     1
 91
        4
 64
     7
 65
   257
 75
     1
175
     1
 42
1.0
 92
        8
 66
     8
424
  8421504
 43
1.0
 76
     1
 77
     6
 78
     2
 67
     7
 79
     5
170
     0
171
     0
290
     0
174
     0
 93
        1
 44
0.0
173
     0
291
     1
 45
0.0
1001
ACAD
1000
AcDbSavedByObjectVersion
1070
     0
  0
VISUALSTYLE
  5
BF0
102
{ACAD_REACTORS
330
BE6
102
}
102
{ACAD_XDICTIONARY
360
C1E
102
}
330
BE6
100
AcDbVisualStyle
  2
Conceptual
 70
     9
 71
     3
 72
     2
 73
     0
 90
        0
 40
0.6
 41
30.0
 62
     5
 63
     7
421
 16777215
 74
     2
 91
        2
 64
     7
 65
   257
 75
     1
175
     1
 42
179.0
 92
        8
 66
     7
 43
1.0
 76
     1
 77
     6
 78
     2
 67
     7
 79
     3
170
     0
171
     0
290
     0
174
     0
 93
        1
 44
0.0
173
     0
291
     0
 45
0.0
1001
ACAD
1000
AcDbSavedByObjectVersion
1070
     0
  0
VISUALSTYLE
  5
BF1
102
{ACAD_REACTORS
330
BE6
102
}
102
{ACAD_XDICTIONARY
360
C20
102
}
330
BE6
100
AcDbVisualStyle
  2
Dim
 70
    11
 71
     2
 72
     2
 73
     0
 90
        0
 40
0.6
 41
30.0
 62
     5
 63
     7
421
 16777215
 74
     1
 91
        4
 64
     7
 65
   257
 75
     1
175
     1
 42
1.0
 92
        8
 66
     7
 43
1.0
 76
     1
 77
     6
 78
     2
 67
     7
 79
     5
170
     0
171
     0
290
     0
174
     0
 93
        1
 44
-50.0
173
     0
291
     1
 45
0.0
1001
ACAD
1000
AcDbSavedByObjectVersion
1070
     0
  0
VISUALSTYLE
  5
BF9
102
{ACAD_REACTORS
330
BE6
102
}
102
{ACAD_XDICTIONARY
360
C30
102
}
330
BE6
100
AcDbVisualStyle
  2
EdgeColorOff
 70
    22
 71
     2
 72
     2
 73
     0
 90
        0
 40
0.6
 41
30.0
 62
     5
 63
     7
421
 16777215
 74
     1
 91
        4
 64
     7
 65
   257
 75
     1
175
     1
 42
1.0
 92
        8
 66
     7
 43
1.0
 76
     1
 77
     6
 78
     2
 67
     7
 79
     5
170
     0
171
     0
290
     0
174
     0
 93
        1
 44
0.0
173
     0
291
     1
 45
0.0
1001
ACAD
1000
AcDbSavedByObjectVersion
1070
     0
  0
VISUALSTYLE
  5
BF5
102
{ACAD_REACTORS
330
BE6
102
}
102
{ACAD_XDICTIONARY
360
C28
102
}
330
BE6
100
AcDbVisualStyle
  2
Facepattern
 70
    15
 71
     2
 72
     2
 73
     0
 90
        0
 40
0.6
 41
30.0
 62
     5
 63
     7
421
 16777215
 74
     1
 91
        4
 64
     7
 65
   257
 75
     1
175
     1
 42
1.0
 92
        8
 66
     7
 43
1.0
 76
     1
 77
     6
 78
     2
 67
     7
 79
     5
170
     0
171
     0
290
     0
174
     0
 93
        1
 44
0.0
173
     0
291
     1
 45
0.0
1001
ACAD
1000
AcDbSavedByObjectVersion
1070
     0
  0
VISUALSTYLE
  5
BE7
102
{ACAD_REACTORS
330
BE6
102
}
102
{ACAD_XDICTIONARY
360
C0C
102
}
330
BE6
100
AcDbVisualStyle
  2
Flat
 70
     0
 71
     2
 72
     1
 73
     1
 90
        2
 40
0.6
 41
30.0
 62
     5
 63
     7
421
 16777215
 74
     0
 91
        0
 64
     7
 65
   257
 75
     1
175
     1
 42
1.0
 92
        8
 66
     7
 43
1.0
 76
     1
 77
     6
 78
     2
 67
     7
 79
     5
170
     0
171
     0
290
     0
174
     0
 93
       13
 44
0.0
173
     0
291
     1
 45
0.0
1001
ACAD
1000
AcDbSavedByObjectVersion
1070
     0
  0
VISUALSTYLE
  5
BE8
102
{ACAD_REACTORS
330
BE6
102
}
102
{ACAD_XDICTIONARY
360
C0E
102
}
330
BE6
100
AcDbVisualStyle
  2
FlatWithEdges
 70
     1
 71
     2
 72
     1
 73
     1
 90
        2
 40
0.6
 41
30.0
 62
     5
 63
     7
421
 16777215
 74
     1
 91
        0
 64
     7
 65
   257
 75
     1
175
     1
 42
1.0
 92
        0
 66
   257
 43
1.0
 76
     1
 77
     6
 78
     2
 67
     7
 79
     5
170
     0
171
     0
290
     0
174
     0
 93
       13
 44
0.0
173
     0
291
     1
 45
0.0
1001
ACAD
1000
AcDbSavedByObjectVersion
1070
     0
  0
VISUALSTYLE
  5
BE9
102
{ACAD_REACTORS
330
BE6
102
}
102
{ACAD_XDICTIONARY
360
C10
102
}
330
BE6
100
AcDbVisualStyle
  2
Gouraud
 70
     2
 71
     2
 72
     2
 73
     1
 90
        2
 40
0.6
 41
30.0
 62
     5
 63
     7
421
 16777215
 74
     0
 91
        0
 64
     7
 65
   257
 75
     1
175
     1
 42
1.0
 92
        0
 66
     7
 43
1.0
 76
     1
 77
     6
 78
     2
 67
     7
 79
     5
170
     0
171
     0
290
     0
174
     0
 93
       13
 44
0.0
173
     0
291
     1
 45
0.0
1001
ACAD
1000
AcDbSavedByObjectVersion
1070
     0
  0
VISUALSTYLE
  5
BEA
102
{ACAD_REACTORS
330
BE6
102
}
102
{ACAD_XDICTIONARY
360
C12
102
}
330
BE6
100
AcDbVisualStyle
  2
GouraudWithEdges
 70
     3
 71
     2
 72
     2
 73
     1
 90
        2
 40
0.6
 41
30.0
 62
     5
 63
     7
421
 16777215
 74
     1
 91
        0
 64
     7
 65
   257
 75
     1
175
     1
 42
1.0
 92
        0
 66
   257
 43
1.0
 76
     1
 77
     6
 78
     2
 67
     7
 79
     5
170
     0
171
     0
290
     0
174
     0
 93
       13
 44
0.0
173
     0
291
     1
 45
0.0
1001
ACAD
1000
AcDbSavedByObjectVersion
1070
     0
  0
VISUALSTYLE
  5
BED
102
{ACAD_REACTORS
330
BE6
102
}
102
{ACAD_XDICTIONARY
360
C18
102
}
330
BE6
100
AcDbVisualStyle
  2
Hidden
 70
     6
 71
     1
 72
     2
 73
     2
 90
        0
 40
0.6
 41
30.0
 62
     5
 63
     7
421
 16777215
 74
     2
 91
        2
 64
     7
 65
   257
 75
     2
175
     1
 42
40.0
 92
        0
 66
   257
 43
1.0
 76
     1
 77
     6
 78
     2
 67
     7
 79
     3
170
     0
171
     0
290
     0
174
     0
 93
        1
 44
0.0
173
     0
291
     0
 45
0.0
1001
ACAD
1000
AcDbSavedByObjectVersion
1070
     0
  0
VISUALSTYLE
  5
BF7
102
{ACAD_REACTORS
330
BE6
102
}
102
{ACAD_XDICTIONARY
360
C2C
102
}
330
BE6
100
AcDbVisualStyle
  2
JitterOff
 70
    20
 71
     2
 72
     2
 73
     0
 90
        0
 40
0.6
 41
30.0
 62
     5
 63
     7
421
 16777215
 74
     1
 91
        4
 64
     7
 65
   257
 75
     1
175
     1
 42
1.0
 92
       10
 66
     7
 43
1.0
 76
     1
 77
     6
 78
     2
 67
     7
 79
     5
170
     0
171
     0
290
     0
174
     0
 93
        1
 44
0.0
173
     0
291
     1
 45
0.0
1001
ACAD
1000
AcDbSavedByObjectVersion
1070
     0
  0
VISUALSTYLE
  5
BF4
102
{ACAD_REACTORS
330
BE6
102
}
102
{ACAD_XDICTIONARY
360
C26
102
}
330
BE6
100
AcDbVisualStyle
  2
Linepattern
 70
    14
 71
     2
 72
     2
 73
     0
 90
        0
 40
0.6
 41
30.0
 62
     5
 63
     7
421
 16777215
 74
     1
 91
        4
 64
     7
 65
   257
 75
     7
175
     7
 42
1.0
 92
        8
 66
     7
 43
1.0
 76
     1
 77
     6
 78
     2
 67
     7
 79
     5
170
     0
171
     0
290
     0
174
     0
 93
        1
 44
0.0
173
     0
291
     1
 45
0.0
1001
ACAD
1000
AcDbSavedByObjectVersion
1070
     0
  0
VISUALSTYLE
  5
BF8
102
{ACAD_REACTORS
330
BE6
102
}
102
{ACAD_XDICTIONARY
360
C2E
102
}
330
BE6
100
AcDbVisualStyle
  2
OverhangOff
 70
    21
 71
     2
 72
     2
 73
     0
 90
        0
 40
0.6
 41
30.0
 62
     5
 63
     7
421
 16777215
 74
     1
 91
        4
 64
     7
 65
   257
 75
     1
175
     1
 42
1.0
 92
        9
 66
     7
 43
1.0
 76
     1
 77
     6
 78
     2
 67
     7
 79
     5
170
     0
171
     0
290
     0
174
     0
 93
        1
 44
0.0
173
     0
291
     1
 45
0.0
1001
ACAD
1000
AcDbSavedByObjectVersion
1070
     0
  0
VISUALSTYLE
  5
BEF
102
{ACAD_REACTORS
330
BE6
102
}
102
{ACAD_XDICTIONARY
360
C1C
102
}
330
BE6
100
AcDbVisualStyle
  2
Realistic
 70
     8
 71
     2
 72
     3
 73
     0
 90
        2
 40
0.6
 41
30.0
 62
     5
 63
     7
421
 16777215
 74
     0
 91
        0
 64
     7
 65
   257
 75
     1
175
     1
 42
1.0
 92
        8
 66
   257
 43
1.0
 76
     1
 77
     6
 78
     2
 67
     7
 79
     3
170
     0
171
     0
290
     0
174
     0
 93
       13
 44
0.0
173
     0
291
     0
 45
0.0
1001
ACAD
1000
AcDbSavedByObjectVersion
1070
     0
  0
VISUALSTYLE
  5
BFE
102
{ACAD_REACTORS
330
BE6
102
}
102
{ACAD_XDICTIONARY
360
C3A
102
}
330
BE6
100
AcDbVisualStyle
  2
Shaded
 70
    27
 71
     2
 72
     2
 73
     1
 90
        2
 40
0.6
 41
30.0
 62
     5
 63
     7
421
 16777215
 74
     0
 91
        4
 64
     7
 65
   257
 75
     1
175
     1
 42
1.0
 92
        8
 66
   257
 43
1.0
 76
     1
 77
     6
 78
     2
 67
     8
425
  7895160
 79
     3
170
     0
171
     0
290
     0
174
     0
 93
        5
 44
0.0
173
     0
291
     0
 45
0.0
1001
ACAD
1000
AcDbSavedByObjectVersion
1070
     0
  0
VISUALSTYLE
  5
BFD
102
{ACAD_REACTORS
330
BE6
102
}
102
{ACAD_XDICTIONARY
360
C38
102
}
330
BE6
100
AcDbVisualStyle
  2
Shaded with edges
 70
    26
 71
     2
 72
     2
 73
     1
 90
        2
 40
0.6
 41
30.0
 62
     5
 63
     7
421
 16777215
 74
     1
 91
       10
 64
     7
 65
   257
 75
     2
175
     1
 42
1.0
 92
        8
 66
   257
 43
1.0
 76
     1
 77
     6
 78
     2
 67
     7
 79
     3
170
     0
171
     0
290
     0
174
     0
 93
        5
 44
0.0
173
     0
291
     0
 45
0.0
1001
ACAD
1000
AcDbSavedByObjectVersion
1070
     0
  0
VISUALSTYLE
  5
BFA
102
{ACAD_REACTORS
330
BE6
102
}
102
{ACAD_XDICTIONARY
360
C32
102
}
330
BE6
100
AcDbVisualStyle
  2
Shades of Gray
 70
    23
 71
     2
 72
     2
 73
     3
 90
        0
 40
0.6
 41
30.0
 62
     5
 63
     7
421
 16777215
 74
     2
 91
        2
 64
     7
 65
     7
 75
     1
175
     1
 42
40.0
 92
        8
 66
     7
 43
1.0
 76
     1
 77
     6
 78
     2
 67
     7
 79
     3
170
     0
171
     0
290
     0
174
     0
 93
        1
 44
0.0
173
     0
291
     0
 45
0.0
1001
ACAD
1000
AcDbSavedByObjectVersion
1070
     0
  0
VISUALSTYLE
  5
BFB
102
{ACAD_REACTORS
330
BE6
102
}
102
{ACAD_XDICTIONARY
360
C34
102
}
330
BE6
100
AcDbVisualStyle
  2
Sketchy
 70
    24
 71
     1
 72
     2
 73
     2
 90
        0
 40
0.6
 41
30.0
 62
     5
 63
     7
421
 16777215
 74
     2
 91
        2
 64
     7
 65
     7
 75
     1
175
     1
 42
40.0
 92
       11
 66
     7
 43
1.0
 76
     1
 77
     6
 78
     2
 67
     7
 79
     6
170
     0
171
     0
290
     0
174
     0
 93
        1
 44
0.0
173
     0
291
     0
 45
0.0
1001
ACAD
1000
AcDbSavedByObjectVersion
1070
     0
  0
VISUALSTYLE
  5
BF3
102
{ACAD_REACTORS
330
BE6
102
}
102
{ACAD_XDICTIONARY
360
C24
102
}
330
BE6
100
AcDbVisualStyle
  2
Thicken
 70
    13
 71
     2
 72
     2
 73
     0
 90
        0
 40
0.6
 41
30.0
 62
     5
 63
     7
421
 16777215
 74
     1
 91
        4
 64
     7
 65
   257
 75
     1
175
     1
 42
1.0
 92
       12
 66
     7
 43
1.0
 76
     1
 77
     6
 78
     2
 67
     7
 79
     5
170
     0
171
     0
290
     0
174
     0
 93
        1
 44
0.0
173
     0
291
     1
 45
0.0
1001
ACAD
1000
AcDbSavedByObjectVersion
1070
     0
  0
VISUALSTYLE
  5
BEC
102
{ACAD_REACTORS
330
BE6
102
}
102
{ACAD_XDICTIONARY
360
C16
102
}
330
BE6
100
AcDbVisualStyle
  2
Wireframe
 70
     5
 71
     0
 72
     2
 73
     0
 90
        0
 40
0.6
 41
30.0
 62
     5
 63
     7
421
 16777215
 74
     1
 91
        4
 64
     7
 65
   257
 75
     1
175
     1
 42
1.0
 92
        0
 66
   257
 43
1.0
 76
     1
 77
     6
 78
     2
 67
     7
 79
     3
170
     0
171
     0
290
     0
174
     0
 93
        1
 44
0.0
173
     0
291
     0
 45
0.0
1001
ACAD
1000
AcDbSavedByObjectVersion
1070
     0
  0
VISUALSTYLE
  5
BFC
102
{ACAD_REACTORS
330
BE6
102
}
102
{ACAD_XDICTIONARY
360
C36
102
}
330
BE6
100
AcDbVisualStyle
  2
X-Ray
 70
    25
 71
     2
 72
     2
 73
     1
 90
        1
 40
0.5
 41
30.0
 62
     5
 63
     7
421
 16777215
 74
     1
 91
        0
 64
     7
 65
   257
 75
     1
175
     1
 42
1.0
 92
        8
 66
     7
 43
1.0
 76
     1
 77
     6
 78
     2
 67
     7
 79
     3
170
     0
171
     0
290
     0
174
     0
 93
       13
 44
0.0
173
     0
291
     0
 45
0.0
1001
ACAD
1000
AcDbSavedByObjectVersion
1070
     0
  0
DICTIONARYVAR
  5
C0A
102
{ACAD_REACTORS
330
C09
102
}
330
C09
100
DictionaryVariables
280
     0
  1
1:1
  0
DICTIONARYVAR
  5
C4A
102
{ACAD_REACTORS
330
C09
102
}
330
C09
100
DictionaryVariables
280
     0
  1
Standard
  0
DICTIONARYVAR
  5
C49
102
{ACAD_REACTORS
330
C09
102
}
330
C09
100
DictionaryVariables
280
     0
  1
Standard
  0
DICTIONARYVAR
  5
C4B
102
{ACAD_REACTORS
330
C09
102
}
330
C09
100
DictionaryVariables
280
     0
  1
0
  0
DICTIONARYVAR
  5
C0B
102
{ACAD_REACTORS
330
C09
102
}
330
C09
100
DictionaryVariables
280
     0
  1
2
  0
DICTIONARY
  5
C3E
330
C01
100
AcDbDictionary
280
     1
281
     1
  3
ACAD_XREC_ROUNDTRIP
360
C3F
  0
DICTIONARY
  5
C3C
330
C00
100
AcDbDictionary
280
     1
281
     1
  3
ACAD_XREC_ROUNDTRIP
360
C3D
  0
DICTIONARY
  5
C40
330
C02
100
AcDbDictionary
280
     1
281
     1
  3
ACAD_XREC_ROUNDTRIP
360
C41
  0
DICTIONARY
  5
C46
330
C06
100
AcDbDictionary
280
     1
281
     1
  3
ACAD_XREC_ROUNDTRIP
360
C47
  0
DICTIONARY
  5
C42
330
C04
100
AcDbDictionary
280
     1
281
     1
  3
ACAD_ROUNDTRIP_2008_TABLESTYLE_CELLSTYLEMAP
360
C44
  3
ACAD_XREC_ROUNDTRIP
360
C43
  0
DICTIONARY
  5
C14
330
BEB
100
AcDbDictionary
280
     1
281
     1
  3
ACAD_XREC_ROUNDTRIP
360
C15
  0
DICTIONARY
  5
C1A
330
BEE
100
AcDbDictionary
280
     1
281
     1
  3
ACAD_XREC_ROUNDTRIP
360
C1B
  0
DICTIONARY
  5
C22
330
BF2
100
AcDbDictionary
280
     1
281
     1
  3
ACAD_XREC_ROUNDTRIP
360
C23
  0
DICTIONARY
  5
C2A
330
BF6
100
AcDbDictionary
280
     1
281
     1
  3
ACAD_XREC_ROUNDTRIP
360
C2B
  0
DICTIONARY
  5
C1E
330
BF0
100
AcDbDictionary
280
     1
281
     1
  3
ACAD_XREC_ROUNDTRIP
360
C1F
  0
DICTIONARY
  5
C20
330
BF1
100
AcDbDictionary
280
     1
281
     1
  3
ACAD_XREC_ROUNDTRIP
360
C21
  0
DICTIONARY
  5
C30
330
BF9
100
AcDbDictionary
280
     1
281
     1
  3
ACAD_XREC_ROUNDTRIP
360
C31
  0
DICTIONARY
  5
C28
330
BF5
100
AcDbDictionary
280
     1
281
     1
  3
ACAD_XREC_ROUNDTRIP
360
C29
  0
DICTIONARY
  5
C0C
330
BE7
100
AcDbDictionary
280
     1
281
     1
  3
ACAD_XREC_ROUNDTRIP
360
C0D
  0
DICTIONARY
  5
C0E
330
BE8
100
AcDbDictionary
280
     1
281
     1
  3
ACAD_XREC_ROUNDTRIP
360
C0F
  0
DICTIONARY
  5
C10
330
BE9
100
AcDbDictionary
280
     1
281
     1
  3
ACAD_XREC_ROUNDTRIP
360
C11
  0
DICTIONARY
  5
C12
330
BEA
100
AcDbDictionary
280
     1
281
     1
  3
ACAD_XREC_ROUNDTRIP
360
C13
  0
DICTIONARY
  5
C18
330
BED
100
AcDbDictionary
280
     1
281
     1
  3
ACAD_XREC_ROUNDTRIP
360
C19
  0
DICTIONARY
  5
C2C
330
BF7
100
AcDbDictionary
280
     1
281
     1
  3
ACAD_XREC_ROUNDTRIP
360
C2D
  0
DICTIONARY
  5
C26
330
BF4
100
AcDbDictionary
280
     1
281
     1
  3
ACAD_XREC_ROUNDTRIP
360
C27
  0
DICTIONARY
  5
C2E
330
BF8
100
AcDbDictionary
280
     1
281
     1
  3
ACAD_XREC_ROUNDTRIP
360
C2F
  0
DICTIONARY
  5
C1C
330
BEF
100
AcDbDictionary
280
     1
281
     1
  3
ACAD_XREC_ROUNDTRIP
360
C1D
  0
DICTIONARY
  5
C3A
330
BFE
100
AcDbDictionary
280
     1
281
     1
  3
ACAD_XREC_ROUNDTRIP
360
C3B
  0
DICTIONARY
  5
C38
330
BFD
100
AcDbDictionary
280
     1
281
     1
  3
ACAD_XREC_ROUNDTRIP
360
C39
  0
DICTIONARY
  5
C32
330
BFA
100
AcDbDictionary
280
     1
281
     1
  3
ACAD_XREC_ROUNDTRIP
360
C33
  0
DICTIONARY
  5
C34
330
BFB
100
AcDbDictionary
280
     1
281
     1
  3
ACAD_XREC_ROUNDTRIP
360
C35
  0
DICTIONARY
  5
C24
330
BF3
100
AcDbDictionary
280
     1
281
     1
  3
ACAD_XREC_ROUNDTRIP
360
C25
  0
DICTIONARY
  5
C16
330
BEC
100
AcDbDictionary
280
     1
281
     1
  3
ACAD_XREC_ROUNDTRIP
360
C17
  0
DICTIONARY
  5
C36
330
BFC
100
AcDbDictionary
280
     1
281
     1
  3
ACAD_XREC_ROUNDTRIP
360
C37
  0
XRECORD
  5
C3F
102
{ACAD_REACTORS
330
C3E
102
}
330
C3E
100
AcDbXrecord
280
     1
102
MATERIAL
148
0.0
149
0.0
149
0.0
 93
        0
 94
      127
282
     0
 72
     1
 77
     1
171
     1
175
     1
179
     1
273
     0
  0
XRECORD
  5
C3D
102
{ACAD_REACTORS
330
C3C
102
}
330
C3C
100
AcDbXrecord
280
     1
102
MATERIAL
148
0.0
149
0.0
149
0.0
 93
        0
 94
      127
282
     0
 72
     1
 77
     1
171
     1
175
     1
179
     1
273
     0
  0
XRECORD
  5
C41
102
{ACAD_REACTORS
330
C40
102
}
330
C40
100
AcDbXrecord
280
     1
102
MATERIAL
148
0.0
149
0.0
149
0.0
 93
        0
 94
      127
282
     0
 72
     1
 77
     1
171
     1
175
     1
179
     1
273
     0
  0
XRECORD
  5
C47
102
{ACAD_REACTORS
330
C46
102
}
330
C46
100
AcDbXrecord
280
     1
102
ACAD_ROUNDTRIP_2010_MLEADER_STYLE
  0
CELLSTYLEMAP
  5
C44
102
{ACAD_REACTORS
330
C42
102
}
330
C42
100
AcDbCellStyleMap
 90
        3
300
CELLSTYLE
  1
TABLEFORMAT_BEGIN
 90
        5
170
     1
 91
        0
 92
    32768
 62
   257
 93
        1
300
CONTENTFORMAT
  1
CONTENTFORMAT_BEGIN
 90
        0
 91
        0
 92
        4
 93
        0
300

 40
0.0
140
1.0
 94
        5
 62
     0
340
11
144
0.25
309
CONTENTFORMAT_END
171
     1
301
MARGIN
  1
CELLMARGIN_BEGIN
 40
0.06
 40
0.06
 40
0.06
 40
0.06
 40
0.06
 40
0.06
309
CELLMARGIN_END
 94
        6
 95
        1
302
GRIDFORMAT
  1
GRIDFORMAT_BEGIN
 90
        0
 91
        1
 62
     0
 92
       -2
340
14
 93
        0
 40
0.045
309
GRIDFORMAT_END
 95
        2
302
GRIDFORMAT
  1
GRIDFORMAT_BEGIN
 90
        0
 91
        1
 62
     0
 92
       -2
340
14
 93
        0
 40
0.045
309
GRIDFORMAT_END
 95
        4
302
GRIDFORMAT
  1
GRIDFORMAT_BEGIN
 90
        0
 91
        1
 62
     0
 92
       -2
340
14
 93
        0
 40
0.045
309
GRIDFORMAT_END
 95
        8
302
GRIDFORMAT
  1
GRIDFORMAT_BEGIN
 90
        0
 91
        1
 62
     0
 92
       -2
340
14
 93
        0
 40
0.045
309
GRIDFORMAT_END
 95
       16
302
GRIDFORMAT
  1
GRIDFORMAT_BEGIN
 90
        0
 91
        1
 62
     0
 92
       -2
340
14
 93
        0
 40
0.045
309
GRIDFORMAT_END
 95
       32
302
GRIDFORMAT
  1
GRIDFORMAT_BEGIN
 90
        0
 91
        1
 62
     0
 92
       -2
340
14
 93
        0
 40
0.045
309
GRIDFORMAT_END
309
TABLEFORMAT_END
  1
CELLSTYLE_BEGIN
 90
        1
 91
        1
300
_TITLE
309
CELLSTYLE_END
300
CELLSTYLE
  1
TABLEFORMAT_BEGIN
 90
        5
170
     1
 91
        0
 92
        0
 62
   257
 93
        1
300
CONTENTFORMAT
  1
CONTENTFORMAT_BEGIN
 90
        0
 91
        0
 92
        4
 93
        0
300

 40
0.0
140
1.0
 94
        5
 62
     0
340
11
144
0.18
309
CONTENTFORMAT_END
171
     1
301
MARGIN
  1
CELLMARGIN_BEGIN
 40
0.06
 40
0.06
 40
0.06
 40
0.06
 40
0.06
 40
0.06
309
CELLMARGIN_END
 94
        6
 95
        1
302
GRIDFORMAT
  1
GRIDFORMAT_BEGIN
 90
        0
 91
        1
 62
     0
 92
       -2
340
14
 93
        0
 40
0.045
309
GRIDFORMAT_END
 95
        2
302
GRIDFORMAT
  1
GRIDFORMAT_BEGIN
 90
        0
 91
        1
 62
     0
 92
       -2
340
14
 93
        0
 40
0.045
309
GRIDFORMAT_END
 95
        4
302
GRIDFORMAT
  1
GRIDFORMAT_BEGIN
 90
        0
 91
        1
 62
     0
 92
       -2
340
14
 93
        0
 40
0.045
309
GRIDFORMAT_END
 95
        8
302
GRIDFORMAT
  1
GRIDFORMAT_BEGIN
 90
        0
 91
        1
 62
     0
 92
       -2
340
14
 93
        0
 40
0.045
309
GRIDFORMAT_END
 95
       16
302
GRIDFORMAT
  1
GRIDFORMAT_BEGIN
 90
        0
 91
        1
 62
     0
 92
       -2
340
14
 93
        0
 40
0.045
309
GRIDFORMAT_END
 95
       32
302
GRIDFORMAT
  1
GRIDFORMAT_BEGIN
 90
        0
 91
        1
 62
     0
 92
       -2
340
14
 93
        0
 40
0.045
309
GRIDFORMAT_END
309
TABLEFORMAT_END
  1
CELLSTYLE_BEGIN
 90
        2
 91
        1
300
_HEADER
309
CELLSTYLE_END
300
CELLSTYLE
  1
TABLEFORMAT_BEGIN
 90
        5
170
     1
 91
        0
 92
        0
 62
   257
 93
        1
300
CONTENTFORMAT
  1
CONTENTFORMAT_BEGIN
 90
        0
 91
        0
 92
        4
 93
        0
300

 40
0.0
140
1.0
 94
        2
 62
     0
340
11
144
0.18
309
CONTENTFORMAT_END
171
     1
301
MARGIN
  1
CELLMARGIN_BEGIN
 40
0.06
 40
0.06
 40
0.06
 40
0.06
 40
0.06
 40
0.06
309
CELLMARGIN_END
 94
        6
 95
        1
302
GRIDFORMAT
  1
GRIDFORMAT_BEGIN
 90
        0
 91
        1
 62
     0
 92
       -2
340
14
 93
        0
 40
0.045
309
GRIDFORMAT_END
 95
        2
302
GRIDFORMAT
  1
GRIDFORMAT_BEGIN
 90
        0
 91
        1
 62
     0
 92
       -2
340
14
 93
        0
 40
0.045
309
GRIDFORMAT_END
 95
        4
302
GRIDFORMAT
  1
GRIDFORMAT_BEGIN
 90
        0
 91
        1
 62
     0
 92
       -2
340
14
 93
        0
 40
0.045
309
GRIDFORMAT_END
 95
        8
302
GRIDFORMAT
  1
GRIDFORMAT_BEGIN
 90
        0
 91
        1
 62
     0
 92
       -2
340
14
 93
        0
 40
0.045
309
GRIDFORMAT_END
 95
       16
302
GRIDFORMAT
  1
GRIDFORMAT_BEGIN
 90
        0
 91
        1
 62
     0
 92
       -2
340
14
 93
        0
 40
0.045
309
GRIDFORMAT_END
 95
       32
302
GRIDFORMAT
  1
GRIDFORMAT_BEGIN
 90
        0
 91
        1
 62
     0
 92
       -2
340
14
 93
        0
 40
0.045
309
GRIDFORMAT_END
309
TABLEFORMAT_END
  1
CELLSTYLE_BEGIN
 90
        3
 91
        2
300
_DATA
309
CELLSTYLE_END
  0
XRECORD
  5
C43
102
{ACAD_REACTORS
330
C42
102
}
330
C42
100
AcDbXrecord
280
     1
102
ACAD_ROUNDTRIP_PRE2007_TABLESTYLE
 90
        4
 91
        0
  1

 92
        4
 93
        0
  2

 94
        4
 95
        0
  3

  0
XRECORD
  5
C15
102
{ACAD_REACTORS
330
C14
102
}
330
C14
100
AcDbXrecord
280
     1
102
RTVSPropertyOp0
 70
     1
102
RTVSPropertyOp1
 70
     1
102
RTVSPropertyOp2
 70
     1
102
RTVSPropertyOp3
 70
     1
102
RTVSPropertyOp4
 70
     1
102
RTVSPropertyOp5
 70
     1
102
RTVSPropertyOp6
 70
     1
102
RTVSPropertyOp7
 70
     1
102
RTVSPropertyOp8
 70
     1
102
RTVSPropertyOp9
 70
     1
102
RTVSPropertyOp10
 70
     1
102
RTVSPropertyOp11
 70
     1
102
RTVSPropertyOp12
 70
     1
102
RTVSPropertyOp13
 70
     1
102
RTVSPropertyOp14
 70
     1
102
RTVSPropertyOp15
 70
     1
102
RTVSPropertyOp16
 70
     1
102
RTVSPropertyOp17
 70
     1
102
RTVSPropertyOp18
 70
     1
102
RTVSPropertyOp19
 70
     1
102
RTVSPropertyOp20
 70
     1
102
RTVSPropertyOp21
 70
     1
102
RTVSPropertyOp22
 70
     1
102
RTVSPropertyOp23
 70
     1
102
RTVSPropertyOp24
 70
     1
102
RTVSPropertyOp25
 70
     1
102
RTVSPropertyOp26
 70
     1
102
RTVSPropertyOp27
 70
     1
102
RTVSPropertyOp28
 70
     1
102
RTVSPropertyOp29
 70
     1
102
RTVSPropertyOp30
 70
     1
102
RTVSPropertyOp31
 70
     1
102
RTVSPropertyOp32
 70
     1
102
RTVSPropertyOp33
 70
     1
102
RTVSPropertyOp34
 70
     1
102
RTVSPropertyOp35
 70
     1
102
RTVSPropertyOp36
 70
     1
102
RTVSPropertyOp37
 70
     1
102
RTVSPropertyOp38
 70
     1
102
RTVSPropertyOp39
 70
     1
102
RTVSPropertyOp40
 70
     1
102
RTVSPropertyOp41
 70
     1
102
RTVSPropertyOp42
 70
     1
102
RTVSPropertyOp43
 70
     1
102
RTVSPropertyOp44
 70
     1
102
RTVSPropertyOp45
 70
     1
102
RTVSPropertyOp46
 70
     1
102
RTVSPropertyOp47
 70
     1
102
RTVSPropertyOp48
 70
     1
102
RTVSPropertyOp49
 70
     1
102
RTVSPropertyOp50
 70
     1
102
RTVSPropertyOp51
 70
     0
102
RTVSPropertyOp52
 70
     0
102
RTVSPropertyOp53
 70
     1
102
RTVSPropertyOp54
 70
     1
102
RTVSPropertyOp55
 70
     1
102
RTVSPropertyOp56
 70
     1
102
RTVSPropertyOp57
 70
     1
102
RTVSPost2010Prop28
280
     1
102
RTVSPost2010PropOp28
 70
     1
102
RTVSPost2010Prop29
280
     1
102
RTVSPost2010PropOp29
 70
     1
102
RTVSPost2010Prop30
280
     0
102
RTVSPost2010PropOp30
 70
     1
102
RTVSPost2010Prop31
280
     0
102
RTVSPost2010PropOp31
 70
     1
102
RTVSPost2010Prop32
280
     0
102
RTVSPost2010PropOp32
 70
     1
102
RTVSPost2010Prop33
280
     0
102
RTVSPost2010PropOp33
 70
     1
102
RTVSPost2010Prop34
280
     0
102
RTVSPost2010PropOp34
 70
     1
102
RTVSPost2010Prop35
280
     0
102
RTVSPost2010PropOp35
 70
     1
102
RTVSPost2010Prop36
280
     0
102
RTVSPost2010PropOp36
 70
     1
102
RTVSPost2010Prop37
 90
       50
102
RTVSPost2010PropOp37
 70
     1
102
RTVSPost2010Prop38
140
0.0
102
RTVSPost2010PropOp38
 70
     1
102
RTVSPost2010Prop39
140
1.0
102
RTVSPost2010PropOp39
 70
     1
102
RTVSPost2010Prop40
 90
        0
102
RTVSPost2010PropOp40
 70
     1
102
RTVSPost2010Prop41ColorIndex
 90
       18
102
RTVSPost2010Prop41ColorRGB
 90
        0
102
RTVSPost2010PropOp41
 70
     1
102
RTVSPost2010Prop42
 90
       50
102
RTVSPost2010PropOp42
 70
     1
102
RTVSPost2010Prop43
 90
        3
102
RTVSPost2010PropOp43
 70
     1
102
RTVSPost2010Prop44ColorIndex
 90
        5
102
RTVSPost2010Prop44ColorRGB
 90
      255
102
RTVSPost2010PropOp44
 70
     1
102
RTVSPost2010Prop45
280
     0
102
RTVSPost2010PropOp45
 70
     1
102
RTVSPost2010Prop46
 90
       50
102
RTVSPost2010PropOp46
 70
     1
102
RTVSPost2010Prop47
 90
       50
102
RTVSPost2010PropOp47
 70
     1
102
RTVSPost2010Prop48
 90
       50
102
RTVSPost2010PropOp48
 70
     1
102
RTVSPost2010Prop49
280
     0
102
RTVSPost2010PropOp49
 70
     1
102
RTVSPost2010Prop50
 90
       50
102
RTVSPost2010PropOp50
 70
     1
102
RTVSPost2010Prop51ColorIndex
 90
      256
102
RTVSPost2010Prop51ColorRGB
 90
-16777216
102
RTVSPost2010PropOp51
 70
     0
102
RTVSPost2010Prop52
140
1.0
102
RTVSPost2010PropOp52
 70
     0
102
RTVSPost2010Prop53
 90
        2
102
RTVSPost2010PropOp53
 70
     1
102
RTVSPost2010Prop54
  1
strokes_ogs.tif
102
RTVSPost2010PropOp54
 70
     1
102
RTVSPost2010Prop55
280
     0
102
RTVSPost2010PropOp55
 70
     1
102
RTVSPost2010Prop56
140
1.0
102
RTVSPost2010PropOp56
 70
     1
102
RTVSPost2010Prop57
140
1.0
102
RTVSPost2010PropOp57
 70
     1
  0
XRECORD
  5
C1B
102
{ACAD_REACTORS
330
C1A
102
}
330
C1A
100
AcDbXrecord
280
     1
102
RTVSPropertyOp0
 70
     1
102
RTVSPropertyOp1
 70
     1
102
RTVSPropertyOp2
 70
     1
102
RTVSPropertyOp3
 70
     1
102
RTVSPropertyOp4
 70
     1
102
RTVSPropertyOp5
 70
     1
102
RTVSPropertyOp6
 70
     1
102
RTVSPropertyOp7
 70
     1
102
RTVSPropertyOp8
 70
     1
102
RTVSPropertyOp9
 70
     1
102
RTVSPropertyOp10
 70
     1
102
RTVSPropertyOp11
 70
     1
102
RTVSPropertyOp12
 70
     1
102
RTVSPropertyOp13
 70
     1
102
RTVSPropertyOp14
 70
     1
102
RTVSPropertyOp15
 70
     1
102
RTVSPropertyOp16
 70
     1
102
RTVSPropertyOp17
 70
     1
102
RTVSPropertyOp18
 70
     1
102
RTVSPropertyOp19
 70
     1
102
RTVSPropertyOp20
 70
     1
102
RTVSPropertyOp21
 70
     1
102
RTVSPropertyOp22
 70
     1
102
RTVSPropertyOp23
 70
     1
102
RTVSPropertyOp24
 70
     1
102
RTVSPropertyOp25
 70
     1
102
RTVSPropertyOp26
 70
     1
102
RTVSPropertyOp27
 70
     1
102
RTVSPropertyOp28
 70
     1
102
RTVSPropertyOp29
 70
     1
102
RTVSPropertyOp30
 70
     1
102
RTVSPropertyOp31
 70
     1
102
RTVSPropertyOp32
 70
     1
102
RTVSPropertyOp33
 70
     1
102
RTVSPropertyOp34
 70
     1
102
RTVSPropertyOp35
 70
     1
102
RTVSPropertyOp36
 70
     1
102
RTVSPropertyOp37
 70
     1
102
RTVSPropertyOp38
 70
     1
102
RTVSPropertyOp39
 70
     1
102
RTVSPropertyOp40
 70
     1
102
RTVSPropertyOp41
 70
     1
102
RTVSPropertyOp42
 70
     1
102
RTVSPropertyOp43
 70
     1
102
RTVSPropertyOp44
 70
     1
102
RTVSPropertyOp45
 70
     1
102
RTVSPropertyOp46
 70
     1
102
RTVSPropertyOp47
 70
     1
102
RTVSPropertyOp48
 70
     1
102
RTVSPropertyOp49
 70
     1
102
RTVSPropertyOp50
 70
     1
102
RTVSPropertyOp51
 70
     0
102
RTVSPropertyOp52
 70
     0
102
RTVSPropertyOp53
 70
     1
102
RTVSPropertyOp54
 70
     1
102
RTVSPropertyOp55
 70
     1
102
RTVSPropertyOp56
 70
     1
102
RTVSPropertyOp57
 70
     1
102
RTVSPost2010Prop28
280
     0
102
RTVSPost2010PropOp28
 70
     1
102
RTVSPost2010Prop29
280
     1
102
RTVSPost2010PropOp29
 70
     1
102
RTVSPost2010Prop30
280
     1
102
RTVSPost2010PropOp30
 70
     1
102
RTVSPost2010Prop31
280
     0
102
RTVSPost2010PropOp31
 70
     1
102
RTVSPost2010Prop32
280
     0
102
RTVSPost2010PropOp32
 70
     1
102
RTVSPost2010Prop33
280
     0
102
RTVSPost2010PropOp33
 70
     1
102
RTVSPost2010Prop34
280
     0
102
RTVSPost2010PropOp34
 70
     1
102
RTVSPost2010Prop35
280
     0
102
RTVSPost2010PropOp35
 70
     1
102
RTVSPost2010Prop36
280
     0
102
RTVSPost2010PropOp36
 70
     1
102
RTVSPost2010Prop37
 90
       50
102
RTVSPost2010PropOp37
 70
     1
102
RTVSPost2010Prop38
140
0.0
102
RTVSPost2010PropOp38
 70
     1
102
RTVSPost2010Prop39
140
1.0
102
RTVSPost2010PropOp39
 70
     1
102
RTVSPost2010Prop40
 90
        0
102
RTVSPost2010PropOp40
 70
     1
102
RTVSPost2010Prop41ColorIndex
 90
       18
102
RTVSPost2010Prop41ColorRGB
 90
        0
102
RTVSPost2010PropOp41
 70
     1
102
RTVSPost2010Prop42
 90
       50
102
RTVSPost2010PropOp42
 70
     1
102
RTVSPost2010Prop43
 90
        3
102
RTVSPost2010PropOp43
 70
     1
102
RTVSPost2010Prop44ColorIndex
 90
        5
102
RTVSPost2010Prop44ColorRGB
 90
      255
102
RTVSPost2010PropOp44
 70
     1
102
RTVSPost2010Prop45
280
     0
102
RTVSPost2010PropOp45
 70
     1
102
RTVSPost2010Prop46
 90
       50
102
RTVSPost2010PropOp46
 70
     1
102
RTVSPost2010Prop47
 90
       50
102
RTVSPost2010PropOp47
 70
     1
102
RTVSPost2010Prop48
 90
       50
102
RTVSPost2010PropOp48
 70
     1
102
RTVSPost2010Prop49
280
     0
102
RTVSPost2010PropOp49
 70
     1
102
RTVSPost2010Prop50
 90
       50
102
RTVSPost2010PropOp50
 70
     1
102
RTVSPost2010Prop51ColorIndex
 90
      256
102
RTVSPost2010Prop51ColorRGB
 90
-16777216
102
RTVSPost2010PropOp51
 70
     0
102
RTVSPost2010Prop52
140
1.0
102
RTVSPost2010PropOp52
 70
     0
102
RTVSPost2010Prop53
 90
        2
102
RTVSPost2010PropOp53
 70
     1
102
RTVSPost2010Prop54
  1
strokes_ogs.tif
102
RTVSPost2010PropOp54
 70
     1
102
RTVSPost2010Prop55
280
     0
102
RTVSPost2010PropOp55
 70
     1
102
RTVSPost2010Prop56
140
1.0
102
RTVSPost2010PropOp56
 70
     1
102
RTVSPost2010Prop57
140
1.0
102
RTVSPost2010PropOp57
 70
     1
  0
XRECORD
  5
C23
102
{ACAD_REACTORS
330
C22
102
}
330
C22
100
AcDbXrecord
280
     1
102
RTVSPropertyOp0
 70
     1
102
RTVSPropertyOp1
 70
     1
102
RTVSPropertyOp2
 70
     1
102
RTVSPropertyOp3
 70
     1
102
RTVSPropertyOp4
 70
     1
102
RTVSPropertyOp5
 70
     1
102
RTVSPropertyOp6
 70
     1
102
RTVSPropertyOp7
 70
     1
102
RTVSPropertyOp8
 70
     1
102
RTVSPropertyOp9
 70
     1
102
RTVSPropertyOp10
 70
     1
102
RTVSPropertyOp11
 70
     1
102
RTVSPropertyOp12
 70
     1
102
RTVSPropertyOp13
 70
     1
102
RTVSPropertyOp14
 70
     1
102
RTVSPropertyOp15
 70
     1
102
RTVSPropertyOp16
 70
     1
102
RTVSPropertyOp17
 70
     1
102
RTVSPropertyOp18
 70
     1
102
RTVSPropertyOp19
 70
     1
102
RTVSPropertyOp20
 70
     1
102
RTVSPropertyOp21
 70
     1
102
RTVSPropertyOp22
 70
     1
102
RTVSPropertyOp23
 70
     1
102
RTVSPropertyOp24
 70
     1
102
RTVSPropertyOp25
 70
     1
102
RTVSPropertyOp26
 70
     1
102
RTVSPropertyOp27
 70
     1
102
RTVSPropertyOp28
 70
     1
102
RTVSPropertyOp29
 70
     1
102
RTVSPropertyOp30
 70
     1
102
RTVSPropertyOp31
 70
     1
102
RTVSPropertyOp32
 70
     1
102
RTVSPropertyOp33
 70
     1
102
RTVSPropertyOp34
 70
     1
102
RTVSPropertyOp35
 70
     1
102
RTVSPropertyOp36
 70
     1
102
RTVSPropertyOp37
 70
     1
102
RTVSPropertyOp38
 70
     1
102
RTVSPropertyOp39
 70
     1
102
RTVSPropertyOp40
 70
     1
102
RTVSPropertyOp41
 70
     1
102
RTVSPropertyOp42
 70
     1
102
RTVSPropertyOp43
 70
     1
102
RTVSPropertyOp44
 70
     1
102
RTVSPropertyOp45
 70
     1
102
RTVSPropertyOp46
 70
     1
102
RTVSPropertyOp47
 70
     1
102
RTVSPropertyOp48
 70
     1
102
RTVSPropertyOp49
 70
     1
102
RTVSPropertyOp50
 70
     1
102
RTVSPropertyOp51
 70
     0
102
RTVSPropertyOp52
 70
     0
102
RTVSPropertyOp53
 70
     1
102
RTVSPropertyOp54
 70
     1
102
RTVSPropertyOp55
 70
     1
102
RTVSPropertyOp56
 70
     1
102
RTVSPropertyOp57
 70
     1
102
RTVSPost2010Prop28
280
     0
102
RTVSPost2010PropOp28
 70
     1
102
RTVSPost2010Prop29
280
     1
102
RTVSPost2010PropOp29
 70
     1
102
RTVSPost2010Prop30
280
     1
102
RTVSPost2010PropOp30
 70
     1
102
RTVSPost2010Prop31
280
     0
102
RTVSPost2010PropOp31
 70
     1
102
RTVSPost2010Prop32
280
     0
102
RTVSPost2010PropOp32
 70
     1
102
RTVSPost2010Prop33
280
     0
102
RTVSPost2010PropOp33
 70
     1
102
RTVSPost2010Prop34
280
     0
102
RTVSPost2010PropOp34
 70
     1
102
RTVSPost2010Prop35
280
     0
102
RTVSPost2010PropOp35
 70
     1
102
RTVSPost2010Prop36
280
     0
102
RTVSPost2010PropOp36
 70
     1
102
RTVSPost2010Prop37
 90
       50
102
RTVSPost2010PropOp37
 70
     1
102
RTVSPost2010Prop38
140
0.0
102
RTVSPost2010PropOp38
 70
     1
102
RTVSPost2010Prop39
140
1.0
102
RTVSPost2010PropOp39
 70
     1
102
RTVSPost2010Prop40
 90
        0
102
RTVSPost2010PropOp40
 70
     1
102
RTVSPost2010Prop41ColorIndex
 90
       18
102
RTVSPost2010Prop41ColorRGB
 90
        0
102
RTVSPost2010PropOp41
 70
     1
102
RTVSPost2010Prop42
 90
       50
102
RTVSPost2010PropOp42
 70
     1
102
RTVSPost2010Prop43
 90
        3
102
RTVSPost2010PropOp43
 70
     1
102
RTVSPost2010Prop44ColorIndex
 90
        5
102
RTVSPost2010Prop44ColorRGB
 90
      255
102
RTVSPost2010PropOp44
 70
     1
102
RTVSPost2010Prop45
280
     0
102
RTVSPost2010PropOp45
 70
     1
102
RTVSPost2010Prop46
 90
       50
102
RTVSPost2010PropOp46
 70
     1
102
RTVSPost2010Prop47
 90
       50
102
RTVSPost2010PropOp47
 70
     1
102
RTVSPost2010Prop48
 90
       50
102
RTVSPost2010PropOp48
 70
     1
102
RTVSPost2010Prop49
280
     0
102
RTVSPost2010PropOp49
 70
     1
102
RTVSPost2010Prop50
 90
       50
102
RTVSPost2010PropOp50
 70
     1
102
RTVSPost2010Prop51ColorIndex
 90
      256
102
RTVSPost2010Prop51ColorRGB
 90
-16777216
102
RTVSPost2010PropOp51
 70
     0
102
RTVSPost2010Prop52
140
1.0
102
RTVSPost2010PropOp52
 70
     0
102
RTVSPost2010Prop53
 90
        2
102
RTVSPost2010PropOp53
 70
     1
102
RTVSPost2010Prop54
  1
strokes_ogs.tif
102
RTVSPost2010PropOp54
 70
     1
102
RTVSPost2010Prop55
280
     0
102
RTVSPost2010PropOp55
 70
     1
102
RTVSPost2010Prop56
140
1.0
102
RTVSPost2010PropOp56
 70
     1
102
RTVSPost2010Prop57
140
1.0
102
RTVSPost2010PropOp57
 70
     1
  0
XRECORD
  5
C2B
102
{ACAD_REACTORS
330
C2A
102
}
330
C2A
100
AcDbXrecord
280
     1
102
RTVSPropertyOp0
 70
     1
102
RTVSPropertyOp1
 70
     1
102
RTVSPropertyOp2
 70
     1
102
RTVSPropertyOp3
 70
     1
102
RTVSPropertyOp4
 70
     1
102
RTVSPropertyOp5
 70
     1
102
RTVSPropertyOp6
 70
     1
102
RTVSPropertyOp7
 70
     1
102
RTVSPropertyOp8
 70
     1
102
RTVSPropertyOp9
 70
     1
102
RTVSPropertyOp10
 70
     1
102
RTVSPropertyOp11
 70
     1
102
RTVSPropertyOp12
 70
     1
102
RTVSPropertyOp13
 70
     1
102
RTVSPropertyOp14
 70
     1
102
RTVSPropertyOp15
 70
     1
102
RTVSPropertyOp16
 70
     1
102
RTVSPropertyOp17
 70
     1
102
RTVSPropertyOp18
 70
     1
102
RTVSPropertyOp19
 70
     1
102
RTVSPropertyOp20
 70
     1
102
RTVSPropertyOp21
 70
     1
102
RTVSPropertyOp22
 70
     1
102
RTVSPropertyOp23
 70
     1
102
RTVSPropertyOp24
 70
     1
102
RTVSPropertyOp25
 70
     1
102
RTVSPropertyOp26
 70
     1
102
RTVSPropertyOp27
 70
     1
102
RTVSPropertyOp28
 70
     1
102
RTVSPropertyOp29
 70
     1
102
RTVSPropertyOp30
 70
     1
102
RTVSPropertyOp31
 70
     1
102
RTVSPropertyOp32
 70
     1
102
RTVSPropertyOp33
 70
     1
102
RTVSPropertyOp34
 70
     1
102
RTVSPropertyOp35
 70
     1
102
RTVSPropertyOp36
 70
     1
102
RTVSPropertyOp37
 70
     1
102
RTVSPropertyOp38
 70
     1
102
RTVSPropertyOp39
 70
     1
102
RTVSPropertyOp40
 70
     1
102
RTVSPropertyOp41
 70
     1
102
RTVSPropertyOp42
 70
     1
102
RTVSPropertyOp43
 70
     1
102
RTVSPropertyOp44
 70
     1
102
RTVSPropertyOp45
 70
     1
102
RTVSPropertyOp46
 70
     1
102
RTVSPropertyOp47
 70
     1
102
RTVSPropertyOp48
 70
     1
102
RTVSPropertyOp49
 70
     1
102
RTVSPropertyOp50
 70
     1
102
RTVSPropertyOp51
 70
     0
102
RTVSPropertyOp52
 70
     0
102
RTVSPropertyOp53
 70
     1
102
RTVSPropertyOp54
 70
     1
102
RTVSPropertyOp55
 70
     1
102
RTVSPropertyOp56
 70
     1
102
RTVSPropertyOp57
 70
     1
102
RTVSPost2010Prop28
280
     0
102
RTVSPost2010PropOp28
 70
     1
102
RTVSPost2010Prop29
280
     1
102
RTVSPost2010PropOp29
 70
     1
102
RTVSPost2010Prop30
280
     1
102
RTVSPost2010PropOp30
 70
     1
102
RTVSPost2010Prop31
280
     0
102
RTVSPost2010PropOp31
 70
     1
102
RTVSPost2010Prop32
280
     0
102
RTVSPost2010PropOp32
 70
     1
102
RTVSPost2010Prop33
280
     0
102
RTVSPost2010PropOp33
 70
     1
102
RTVSPost2010Prop34
280
     0
102
RTVSPost2010PropOp34
 70
     1
102
RTVSPost2010Prop35
280
     0
102
RTVSPost2010PropOp35
 70
     1
102
RTVSPost2010Prop36
280
     0
102
RTVSPost2010PropOp36
 70
     1
102
RTVSPost2010Prop37
 90
       50
102
RTVSPost2010PropOp37
 70
     1
102
RTVSPost2010Prop38
140
0.0
102
RTVSPost2010PropOp38
 70
     1
102
RTVSPost2010Prop39
140
1.0
102
RTVSPost2010PropOp39
 70
     1
102
RTVSPost2010Prop40
 90
        0
102
RTVSPost2010PropOp40
 70
     1
102
RTVSPost2010Prop41ColorIndex
 90
       18
102
RTVSPost2010Prop41ColorRGB
 90
        0
102
RTVSPost2010PropOp41
 70
     1
102
RTVSPost2010Prop42
 90
       50
102
RTVSPost2010PropOp42
 70
     1
102
RTVSPost2010Prop43
 90
        3
102
RTVSPost2010PropOp43
 70
     1
102
RTVSPost2010Prop44ColorIndex
 90
        5
102
RTVSPost2010Prop44ColorRGB
 90
      255
102
RTVSPost2010PropOp44
 70
     1
102
RTVSPost2010Prop45
280
     0
102
RTVSPost2010PropOp45
 70
     1
102
RTVSPost2010Prop46
 90
       50
102
RTVSPost2010PropOp46
 70
     1
102
RTVSPost2010Prop47
 90
       50
102
RTVSPost2010PropOp47
 70
     1
102
RTVSPost2010Prop48
 90
       50
102
RTVSPost2010PropOp48
 70
     1
102
RTVSPost2010Prop49
280
     0
102
RTVSPost2010PropOp49
 70
     1
102
RTVSPost2010Prop50
 90
       50
102
RTVSPost2010PropOp50
 70
     1
102
RTVSPost2010Prop51ColorIndex
 90
      256
102
RTVSPost2010Prop51ColorRGB
 90
-16777216
102
RTVSPost2010PropOp51
 70
     0
102
RTVSPost2010Prop52
140
1.0
102
RTVSPost2010PropOp52
 70
     0
102
RTVSPost2010Prop53
 90
        2
102
RTVSPost2010PropOp53
 70
     1
102
RTVSPost2010Prop54
  1
strokes_ogs.tif
102
RTVSPost2010PropOp54
 70
     1
102
RTVSPost2010Prop55
280
     0
102
RTVSPost2010PropOp55
 70
     1
102
RTVSPost2010Prop56
140
1.0
102
RTVSPost2010PropOp56
 70
     1
102
RTVSPost2010Prop57
140
1.0
102
RTVSPost2010PropOp57
 70
     1
  0
XRECORD
  5
C1F
102
{ACAD_REACTORS
330
C1E
102
}
330
C1E
100
AcDbXrecord
280
     1
102
RTVSPropertyOp0
 70
     1
102
RTVSPropertyOp1
 70
     1
102
RTVSPropertyOp2
 70
     1
102
RTVSPropertyOp3
 70
     1
102
RTVSPropertyOp4
 70
     1
102
RTVSPropertyOp5
 70
     1
102
RTVSPropertyOp6
 70
     1
102
RTVSPropertyOp7
 70
     1
102
RTVSPropertyOp8
 70
     1
102
RTVSPropertyOp9
 70
     1
102
RTVSPropertyOp10
 70
     1
102
RTVSPropertyOp11
 70
     1
102
RTVSPropertyOp12
 70
     1
102
RTVSPropertyOp13
 70
     1
102
RTVSPropertyOp14
 70
     1
102
RTVSPropertyOp15
 70
     1
102
RTVSPropertyOp16
 70
     1
102
RTVSPropertyOp17
 70
     1
102
RTVSPropertyOp18
 70
     1
102
RTVSPropertyOp19
 70
     1
102
RTVSPropertyOp20
 70
     1
102
RTVSPropertyOp21
 70
     1
102
RTVSPropertyOp22
 70
     1
102
RTVSPropertyOp23
 70
     1
102
RTVSPropertyOp24
 70
     1
102
RTVSPropertyOp25
 70
     1
102
RTVSPropertyOp26
 70
     1
102
RTVSPropertyOp27
 70
     1
102
RTVSPropertyOp28
 70
     1
102
RTVSPropertyOp29
 70
     1
102
RTVSPropertyOp30
 70
     1
102
RTVSPropertyOp31
 70
     1
102
RTVSPropertyOp32
 70
     1
102
RTVSPropertyOp33
 70
     1
102
RTVSPropertyOp34
 70
     1
102
RTVSPropertyOp35
 70
     1
102
RTVSPropertyOp36
 70
     1
102
RTVSPropertyOp37
 70
     1
102
RTVSPropertyOp38
 70
     1
102
RTVSPropertyOp39
 70
     1
102
RTVSPropertyOp40
 70
     1
102
RTVSPropertyOp41
 70
     1
102
RTVSPropertyOp42
 70
     1
102
RTVSPropertyOp43
 70
     1
102
RTVSPropertyOp44
 70
     1
102
RTVSPropertyOp45
 70
     1
102
RTVSPropertyOp46
 70
     1
102
RTVSPropertyOp47
 70
     1
102
RTVSPropertyOp48
 70
     1
102
RTVSPropertyOp49
 70
     1
102
RTVSPropertyOp50
 70
     1
102
RTVSPropertyOp51
 70
     0
102
RTVSPropertyOp52
 70
     0
102
RTVSPropertyOp53
 70
     1
102
RTVSPropertyOp54
 70
     1
102
RTVSPropertyOp55
 70
     1
102
RTVSPropertyOp56
 70
     1
102
RTVSPropertyOp57
 70
     1
102
RTVSPost2010Prop28
280
     0
102
RTVSPost2010PropOp28
 70
     1
102
RTVSPost2010Prop29
280
     1
102
RTVSPost2010PropOp29
 70
     1
102
RTVSPost2010Prop30
280
     1
102
RTVSPost2010PropOp30
 70
     1
102
RTVSPost2010Prop31
280
     0
102
RTVSPost2010PropOp31
 70
     1
102
RTVSPost2010Prop32
280
     0
102
RTVSPost2010PropOp32
 70
     1
102
RTVSPost2010Prop33
280
     0
102
RTVSPost2010PropOp33
 70
     1
102
RTVSPost2010Prop34
280
     0
102
RTVSPost2010PropOp34
 70
     1
102
RTVSPost2010Prop35
280
     0
102
RTVSPost2010PropOp35
 70
     1
102
RTVSPost2010Prop36
280
     0
102
RTVSPost2010PropOp36
 70
     1
102
RTVSPost2010Prop37
 90
       50
102
RTVSPost2010PropOp37
 70
     1
102
RTVSPost2010Prop38
140
0.0
102
RTVSPost2010PropOp38
 70
     1
102
RTVSPost2010Prop39
140
1.0
102
RTVSPost2010PropOp39
 70
     1
102
RTVSPost2010Prop40
 90
        0
102
RTVSPost2010PropOp40
 70
     1
102
RTVSPost2010Prop41ColorIndex
 90
       18
102
RTVSPost2010Prop41ColorRGB
 90
        0
102
RTVSPost2010PropOp41
 70
     1
102
RTVSPost2010Prop42
 90
       50
102
RTVSPost2010PropOp42
 70
     1
102
RTVSPost2010Prop43
 90
        3
102
RTVSPost2010PropOp43
 70
     1
102
RTVSPost2010Prop44ColorIndex
 90
        5
102
RTVSPost2010Prop44ColorRGB
 90
      255
102
RTVSPost2010PropOp44
 70
     1
102
RTVSPost2010Prop45
280
     0
102
RTVSPost2010PropOp45
 70
     1
102
RTVSPost2010Prop46
 90
       50
102
RTVSPost2010PropOp46
 70
     1
102
RTVSPost2010Prop47
 90
       50
102
RTVSPost2010PropOp47
 70
     1
102
RTVSPost2010Prop48
 90
       50
102
RTVSPost2010PropOp48
 70
     1
102
RTVSPost2010Prop49
280
     0
102
RTVSPost2010PropOp49
 70
     1
102
RTVSPost2010Prop50
 90
       50
102
RTVSPost2010PropOp50
 70
     1
102
RTVSPost2010Prop51ColorIndex
 90
      256
102
RTVSPost2010Prop51ColorRGB
 90
-16777216
102
RTVSPost2010PropOp51
 70
     0
102
RTVSPost2010Prop52
140
1.0
102
RTVSPost2010PropOp52
 70
     0
102
RTVSPost2010Prop53
 90
        2
102
RTVSPost2010PropOp53
 70
     1
102
RTVSPost2010Prop54
  1
strokes_ogs.tif
102
RTVSPost2010PropOp54
 70
     1
102
RTVSPost2010Prop55
280
     0
102
RTVSPost2010PropOp55
 70
     1
102
RTVSPost2010Prop56
140
1.0
102
RTVSPost2010PropOp56
 70
     1
102
RTVSPost2010Prop57
140
1.0
102
RTVSPost2010PropOp57
 70
     1
  0
XRECORD
  5
C21
102
{ACAD_REACTORS
330
C20
102
}
330
C20
100
AcDbXrecord
280
     1
102
RTVSPropertyOp0
 70
     1
102
RTVSPropertyOp1
 70
     1
102
RTVSPropertyOp2
 70
     1
102
RTVSPropertyOp3
 70
     1
102
RTVSPropertyOp4
 70
     1
102
RTVSPropertyOp5
 70
     1
102
RTVSPropertyOp6
 70
     1
102
RTVSPropertyOp7
 70
     1
102
RTVSPropertyOp8
 70
     1
102
RTVSPropertyOp9
 70
     1
102
RTVSPropertyOp10
 70
     1
102
RTVSPropertyOp11
 70
     1
102
RTVSPropertyOp12
 70
     1
102
RTVSPropertyOp13
 70
     1
102
RTVSPropertyOp14
 70
     1
102
RTVSPropertyOp15
 70
     1
102
RTVSPropertyOp16
 70
     1
102
RTVSPropertyOp17
 70
     1
102
RTVSPropertyOp18
 70
     1
102
RTVSPropertyOp19
 70
     1
102
RTVSPropertyOp20
 70
     1
102
RTVSPropertyOp21
 70
     1
102
RTVSPropertyOp22
 70
     1
102
RTVSPropertyOp23
 70
     1
102
RTVSPropertyOp24
 70
     1
102
RTVSPropertyOp25
 70
     1
102
RTVSPropertyOp26
 70
     1
102
RTVSPropertyOp27
 70
     1
102
RTVSPropertyOp28
 70
     1
102
RTVSPropertyOp29
 70
     1
102
RTVSPropertyOp30
 70
     1
102
RTVSPropertyOp31
 70
     1
102
RTVSPropertyOp32
 70
     1
102
RTVSPropertyOp33
 70
     1
102
RTVSPropertyOp34
 70
     1
102
RTVSPropertyOp35
 70
     1
102
RTVSPropertyOp36
 70
     1
102
RTVSPropertyOp37
 70
     1
102
RTVSPropertyOp38
 70
     1
102
RTVSPropertyOp39
 70
     1
102
RTVSPropertyOp40
 70
     1
102
RTVSPropertyOp41
 70
     1
102
RTVSPropertyOp42
 70
     1
102
RTVSPropertyOp43
 70
     1
102
RTVSPropertyOp44
 70
     1
102
RTVSPropertyOp45
 70
     1
102
RTVSPropertyOp46
 70
     1
102
RTVSPropertyOp47
 70
     1
102
RTVSPropertyOp48
 70
     1
102
RTVSPropertyOp49
 70
     1
102
RTVSPropertyOp50
 70
     1
102
RTVSPropertyOp51
 70
     0
102
RTVSPropertyOp52
 70
     0
102
RTVSPropertyOp53
 70
     1
102
RTVSPropertyOp54
 70
     1
102
RTVSPropertyOp55
 70
     1
102
RTVSPropertyOp56
 70
     1
102
RTVSPropertyOp57
 70
     1
102
RTVSPost2010Prop28
280
     0
102
RTVSPost2010PropOp28
 70
     1
102
RTVSPost2010Prop29
280
     1
102
RTVSPost2010PropOp29
 70
     1
102
RTVSPost2010Prop30
280
     1
102
RTVSPost2010PropOp30
 70
     1
102
RTVSPost2010Prop31
280
     0
102
RTVSPost2010PropOp31
 70
     1
102
RTVSPost2010Prop32
280
     0
102
RTVSPost2010PropOp32
 70
     1
102
RTVSPost2010Prop33
280
     0
102
RTVSPost2010PropOp33
 70
     1
102
RTVSPost2010Prop34
280
     0
102
RTVSPost2010PropOp34
 70
     1
102
RTVSPost2010Prop35
280
     0
102
RTVSPost2010PropOp35
 70
     1
102
RTVSPost2010Prop36
280
     0
102
RTVSPost2010PropOp36
 70
     1
102
RTVSPost2010Prop37
 90
       50
102
RTVSPost2010PropOp37
 70
     1
102
RTVSPost2010Prop38
140
0.0
102
RTVSPost2010PropOp38
 70
     1
102
RTVSPost2010Prop39
140
1.0
102
RTVSPost2010PropOp39
 70
     1
102
RTVSPost2010Prop40
 90
        0
102
RTVSPost2010PropOp40
 70
     1
102
RTVSPost2010Prop41ColorIndex
 90
       18
102
RTVSPost2010Prop41ColorRGB
 90
        0
102
RTVSPost2010PropOp41
 70
     1
102
RTVSPost2010Prop42
 90
       50
102
RTVSPost2010PropOp42
 70
     1
102
RTVSPost2010Prop43
 90
        3
102
RTVSPost2010PropOp43
 70
     1
102
RTVSPost2010Prop44ColorIndex
 90
        5
102
RTVSPost2010Prop44ColorRGB
 90
      255
102
RTVSPost2010PropOp44
 70
     1
102
RTVSPost2010Prop45
280
     0
102
RTVSPost2010PropOp45
 70
     1
102
RTVSPost2010Prop46
 90
       50
102
RTVSPost2010PropOp46
 70
     1
102
RTVSPost2010Prop47
 90
       50
102
RTVSPost2010PropOp47
 70
     1
102
RTVSPost2010Prop48
 90
       50
102
RTVSPost2010PropOp48
 70
     1
102
RTVSPost2010Prop49
280
     0
102
RTVSPost2010PropOp49
 70
     1
102
RTVSPost2010Prop50
 90
       50
102
RTVSPost2010PropOp50
 70
     1
102
RTVSPost2010Prop51ColorIndex
 90
      256
102
RTVSPost2010Prop51ColorRGB
 90
-16777216
102
RTVSPost2010PropOp51
 70
     0
102
RTVSPost2010Prop52
140
1.0
102
RTVSPost2010PropOp52
 70
     0
102
RTVSPost2010Prop53
 90
        2
102
RTVSPost2010PropOp53
 70
     1
102
RTVSPost2010Prop54
  1
strokes_ogs.tif
102
RTVSPost2010PropOp54
 70
     1
102
RTVSPost2010Prop55
280
     0
102
RTVSPost2010PropOp55
 70
     1
102
RTVSPost2010Prop56
140
1.0
102
RTVSPost2010PropOp56
 70
     1
102
RTVSPost2010Prop57
140
1.0
102
RTVSPost2010PropOp57
 70
     1
  0
XRECORD
  5
C31
102
{ACAD_REACTORS
330
C30
102
}
330
C30
100
AcDbXrecord
280
     1
102
RTVSPropertyOp0
 70
     0
102
RTVSPropertyOp1
 70
     0
102
RTVSPropertyOp2
 70
     0
102
RTVSPropertyOp3
 70
     0
102
RTVSPropertyOp4
 70
     0
102
RTVSPropertyOp5
 70
     0
102
RTVSPropertyOp6
 70
     0
102
RTVSPropertyOp7
 70
     0
102
RTVSPropertyOp8
 70
     0
102
RTVSPropertyOp9
 70
     0
102
RTVSPropertyOp10
 70
     0
102
RTVSPropertyOp11
 70
     0
102
RTVSPropertyOp12
 70
     0
102
RTVSPropertyOp13
 70
     0
102
RTVSPropertyOp14
 70
     2
102
RTVSPropertyOp15
 70
     0
102
RTVSPropertyOp16
 70
     0
102
RTVSPropertyOp17
 70
     0
102
RTVSPropertyOp18
 70
     0
102
RTVSPropertyOp19
 70
     0
102
RTVSPropertyOp20
 70
     0
102
RTVSPropertyOp21
 70
     0
102
RTVSPropertyOp22
 70
     0
102
RTVSPropertyOp23
 70
     0
102
RTVSPropertyOp24
 70
     0
102
RTVSPropertyOp25
 70
     0
102
RTVSPropertyOp26
 70
     0
102
RTVSPropertyOp27
 70
     0
102
RTVSPropertyOp28
 70
     0
102
RTVSPropertyOp29
 70
     0
102
RTVSPropertyOp30
 70
     0
102
RTVSPropertyOp31
 70
     0
102
RTVSPropertyOp32
 70
     0
102
RTVSPropertyOp33
 70
     0
102
RTVSPropertyOp34
 70
     0
102
RTVSPropertyOp35
 70
     0
102
RTVSPropertyOp36
 70
     0
102
RTVSPropertyOp37
 70
     0
102
RTVSPropertyOp38
 70
     0
102
RTVSPropertyOp39
 70
     0
102
RTVSPropertyOp40
 70
     0
102
RTVSPropertyOp41
 70
     0
102
RTVSPropertyOp42
 70
     0
102
RTVSPropertyOp43
 70
     0
102
RTVSPropertyOp44
 70
     0
102
RTVSPropertyOp45
 70
     0
102
RTVSPropertyOp46
 70
     0
102
RTVSPropertyOp47
 70
     0
102
RTVSPropertyOp48
 70
     0
102
RTVSPropertyOp49
 70
     0
102
RTVSPropertyOp50
 70
     0
102
RTVSPropertyOp51
 70
     0
102
RTVSPropertyOp52
 70
     0
102
RTVSPropertyOp53
 70
     0
102
RTVSPropertyOp54
 70
     0
102
RTVSPropertyOp55
 70
     0
102
RTVSPropertyOp56
 70
     0
102
RTVSPropertyOp57
 70
     0
102
RTVSPost2010Prop28
280
     0
102
RTVSPost2010PropOp28
 70
     0
102
RTVSPost2010Prop29
280
     1
102
RTVSPost2010PropOp29
 70
     0
102
RTVSPost2010Prop30
280
     1
102
RTVSPost2010PropOp30
 70
     0
102
RTVSPost2010Prop31
280
     0
102
RTVSPost2010PropOp31
 70
     0
102
RTVSPost2010Prop32
280
     0
102
RTVSPost2010PropOp32
 70
     0
102
RTVSPost2010Prop33
280
     0
102
RTVSPost2010PropOp33
 70
     0
102
RTVSPost2010Prop34
280
     0
102
RTVSPost2010PropOp34
 70
     0
102
RTVSPost2010Prop35
280
     0
102
RTVSPost2010PropOp35
 70
     0
102
RTVSPost2010Prop36
280
     0
102
RTVSPost2010PropOp36
 70
     0
102
RTVSPost2010Prop37
 90
       50
102
RTVSPost2010PropOp37
 70
     0
102
RTVSPost2010Prop38
140
0.0
102
RTVSPost2010PropOp38
 70
     0
102
RTVSPost2010Prop39
140
1.0
102
RTVSPost2010PropOp39
 70
     0
102
RTVSPost2010Prop40
 90
        0
102
RTVSPost2010PropOp40
 70
     0
102
RTVSPost2010Prop41ColorIndex
 90
       18
102
RTVSPost2010Prop41ColorRGB
 90
        0
102
RTVSPost2010PropOp41
 70
     0
102
RTVSPost2010Prop42
 90
       50
102
RTVSPost2010PropOp42
 70
     0
102
RTVSPost2010Prop43
 90
        3
102
RTVSPost2010PropOp43
 70
     0
102
RTVSPost2010Prop44ColorIndex
 90
        5
102
RTVSPost2010Prop44ColorRGB
 90
      255
102
RTVSPost2010PropOp44
 70
     0
102
RTVSPost2010Prop45
280
     0
102
RTVSPost2010PropOp45
 70
     0
102
RTVSPost2010Prop46
 90
       50
102
RTVSPost2010PropOp46
 70
     0
102
RTVSPost2010Prop47
 90
       50
102
RTVSPost2010PropOp47
 70
     0
102
RTVSPost2010Prop48
 90
       50
102
RTVSPost2010PropOp48
 70
     0
102
RTVSPost2010Prop49
280
     0
102
RTVSPost2010PropOp49
 70
     0
102
RTVSPost2010Prop50
 90
       50
102
RTVSPost2010PropOp50
 70
     0
102
RTVSPost2010Prop51ColorIndex
 90
      256
102
RTVSPost2010Prop51ColorRGB
 90
-16777216
102
RTVSPost2010PropOp51
 70
     0
102
RTVSPost2010Prop52
140
1.0
102
RTVSPost2010PropOp52
 70
     0
102
RTVSPost2010Prop53
 90
        2
102
RTVSPost2010PropOp53
 70
     0
102
RTVSPost2010Prop54
  1
strokes_ogs.tif
102
RTVSPost2010PropOp54
 70
     0
102
RTVSPost2010Prop55
280
     0
102
RTVSPost2010PropOp55
 70
     0
102
RTVSPost2010Prop56
140
1.0
102
RTVSPost2010PropOp56
 70
     0
102
RTVSPost2010Prop57
140
1.0
102
RTVSPost2010PropOp57
 70
     0
  0
XRECORD
  5
C29
102
{ACAD_REACTORS
330
C28
102
}
330
C28
100
AcDbXrecord
280
     1
102
RTVSPropertyOp0
 70
     1
102
RTVSPropertyOp1
 70
     1
102
RTVSPropertyOp2
 70
     1
102
RTVSPropertyOp3
 70
     1
102
RTVSPropertyOp4
 70
     1
102
RTVSPropertyOp5
 70
     1
102
RTVSPropertyOp6
 70
     1
102
RTVSPropertyOp7
 70
     1
102
RTVSPropertyOp8
 70
     1
102
RTVSPropertyOp9
 70
     1
102
RTVSPropertyOp10
 70
     1
102
RTVSPropertyOp11
 70
     1
102
RTVSPropertyOp12
 70
     1
102
RTVSPropertyOp13
 70
     1
102
RTVSPropertyOp14
 70
     1
102
RTVSPropertyOp15
 70
     1
102
RTVSPropertyOp16
 70
     1
102
RTVSPropertyOp17
 70
     1
102
RTVSPropertyOp18
 70
     1
102
RTVSPropertyOp19
 70
     1
102
RTVSPropertyOp20
 70
     1
102
RTVSPropertyOp21
 70
     1
102
RTVSPropertyOp22
 70
     1
102
RTVSPropertyOp23
 70
     1
102
RTVSPropertyOp24
 70
     1
102
RTVSPropertyOp25
 70
     1
102
RTVSPropertyOp26
 70
     1
102
RTVSPropertyOp27
 70
     1
102
RTVSPropertyOp28
 70
     1
102
RTVSPropertyOp29
 70
     1
102
RTVSPropertyOp30
 70
     1
102
RTVSPropertyOp31
 70
     1
102
RTVSPropertyOp32
 70
     1
102
RTVSPropertyOp33
 70
     1
102
RTVSPropertyOp34
 70
     1
102
RTVSPropertyOp35
 70
     1
102
RTVSPropertyOp36
 70
     1
102
RTVSPropertyOp37
 70
     1
102
RTVSPropertyOp38
 70
     1
102
RTVSPropertyOp39
 70
     1
102
RTVSPropertyOp40
 70
     1
102
RTVSPropertyOp41
 70
     1
102
RTVSPropertyOp42
 70
     1
102
RTVSPropertyOp43
 70
     1
102
RTVSPropertyOp44
 70
     1
102
RTVSPropertyOp45
 70
     1
102
RTVSPropertyOp46
 70
     1
102
RTVSPropertyOp47
 70
     1
102
RTVSPropertyOp48
 70
     1
102
RTVSPropertyOp49
 70
     1
102
RTVSPropertyOp50
 70
     1
102
RTVSPropertyOp51
 70
     0
102
RTVSPropertyOp52
 70
     0
102
RTVSPropertyOp53
 70
     1
102
RTVSPropertyOp54
 70
     1
102
RTVSPropertyOp55
 70
     1
102
RTVSPropertyOp56
 70
     1
102
RTVSPropertyOp57
 70
     1
102
RTVSPost2010Prop28
280
     0
102
RTVSPost2010PropOp28
 70
     1
102
RTVSPost2010Prop29
280
     1
102
RTVSPost2010PropOp29
 70
     1
102
RTVSPost2010Prop30
280
     1
102
RTVSPost2010PropOp30
 70
     1
102
RTVSPost2010Prop31
280
     0
102
RTVSPost2010PropOp31
 70
     1
102
RTVSPost2010Prop32
280
     0
102
RTVSPost2010PropOp32
 70
     1
102
RTVSPost2010Prop33
280
     0
102
RTVSPost2010PropOp33
 70
     1
102
RTVSPost2010Prop34
280
     0
102
RTVSPost2010PropOp34
 70
     1
102
RTVSPost2010Prop35
280
     0
102
RTVSPost2010PropOp35
 70
     1
102
RTVSPost2010Prop36
280
     0
102
RTVSPost2010PropOp36
 70
     1
102
RTVSPost2010Prop37
 90
       50
102
RTVSPost2010PropOp37
 70
     1
102
RTVSPost2010Prop38
140
0.0
102
RTVSPost2010PropOp38
 70
     1
102
RTVSPost2010Prop39
140
1.0
102
RTVSPost2010PropOp39
 70
     1
102
RTVSPost2010Prop40
 90
        0
102
RTVSPost2010PropOp40
 70
     1
102
RTVSPost2010Prop41ColorIndex
 90
       18
102
RTVSPost2010Prop41ColorRGB
 90
        0
102
RTVSPost2010PropOp41
 70
     1
102
RTVSPost2010Prop42
 90
       50
102
RTVSPost2010PropOp42
 70
     1
102
RTVSPost2010Prop43
 90
        3
102
RTVSPost2010PropOp43
 70
     1
102
RTVSPost2010Prop44ColorIndex
 90
        5
102
RTVSPost2010Prop44ColorRGB
 90
      255
102
RTVSPost2010PropOp44
 70
     1
102
RTVSPost2010Prop45
280
     0
102
RTVSPost2010PropOp45
 70
     1
102
RTVSPost2010Prop46
 90
       50
102
RTVSPost2010PropOp46
 70
     1
102
RTVSPost2010Prop47
 90
       50
102
RTVSPost2010PropOp47
 70
     1
102
RTVSPost2010Prop48
 90
       50
102
RTVSPost2010PropOp48
 70
     1
102
RTVSPost2010Prop49
280
     0
102
RTVSPost2010PropOp49
 70
     1
102
RTVSPost2010Prop50
 90
       50
102
RTVSPost2010PropOp50
 70
     1
102
RTVSPost2010Prop51ColorIndex
 90
      256
102
RTVSPost2010Prop51ColorRGB
 90
-16777216
102
RTVSPost2010PropOp51
 70
     0
102
RTVSPost2010Prop52
140
1.0
102
RTVSPost2010PropOp52
 70
     0
102
RTVSPost2010Prop53
 90
        2
102
RTVSPost2010PropOp53
 70
     1
102
RTVSPost2010Prop54
  1
strokes_ogs.tif
102
RTVSPost2010PropOp54
 70
     1
102
RTVSPost2010Prop55
280
     0
102
RTVSPost2010PropOp55
 70
     1
102
RTVSPost2010Prop56
140
1.0
102
RTVSPost2010PropOp56
 70
     1
102
RTVSPost2010Prop57
140
1.0
102
RTVSPost2010PropOp57
 70
     1
  0
XRECORD
  5
C0D
102
{ACAD_REACTORS
330
C0C
102
}
330
C0C
100
AcDbXrecord
280
     1
102
RTVSPropertyOp0
 70
     1
102
RTVSPropertyOp1
 70
     1
102
RTVSPropertyOp2
 70
     1
102
RTVSPropertyOp3
 70
     1
102
RTVSPropertyOp4
 70
     1
102
RTVSPropertyOp5
 70
     1
102
RTVSPropertyOp6
 70
     1
102
RTVSPropertyOp7
 70
     1
102
RTVSPropertyOp8
 70
     1
102
RTVSPropertyOp9
 70
     1
102
RTVSPropertyOp10
 70
     1
102
RTVSPropertyOp11
 70
     1
102
RTVSPropertyOp12
 70
     1
102
RTVSPropertyOp13
 70
     1
102
RTVSPropertyOp14
 70
     1
102
RTVSPropertyOp15
 70
     1
102
RTVSPropertyOp16
 70
     1
102
RTVSPropertyOp17
 70
     1
102
RTVSPropertyOp18
 70
     1
102
RTVSPropertyOp19
 70
     1
102
RTVSPropertyOp20
 70
     1
102
RTVSPropertyOp21
 70
     1
102
RTVSPropertyOp22
 70
     1
102
RTVSPropertyOp23
 70
     1
102
RTVSPropertyOp24
 70
     1
102
RTVSPropertyOp25
 70
     1
102
RTVSPropertyOp26
 70
     1
102
RTVSPropertyOp27
 70
     1
102
RTVSPropertyOp28
 70
     1
102
RTVSPropertyOp29
 70
     1
102
RTVSPropertyOp30
 70
     1
102
RTVSPropertyOp31
 70
     1
102
RTVSPropertyOp32
 70
     1
102
RTVSPropertyOp33
 70
     1
102
RTVSPropertyOp34
 70
     1
102
RTVSPropertyOp35
 70
     1
102
RTVSPropertyOp36
 70
     1
102
RTVSPropertyOp37
 70
     1
102
RTVSPropertyOp38
 70
     1
102
RTVSPropertyOp39
 70
     1
102
RTVSPropertyOp40
 70
     1
102
RTVSPropertyOp41
 70
     1
102
RTVSPropertyOp42
 70
     1
102
RTVSPropertyOp43
 70
     1
102
RTVSPropertyOp44
 70
     1
102
RTVSPropertyOp45
 70
     1
102
RTVSPropertyOp46
 70
     1
102
RTVSPropertyOp47
 70
     1
102
RTVSPropertyOp48
 70
     1
102
RTVSPropertyOp49
 70
     1
102
RTVSPropertyOp50
 70
     1
102
RTVSPropertyOp51
 70
     0
102
RTVSPropertyOp52
 70
     0
102
RTVSPropertyOp53
 70
     1
102
RTVSPropertyOp54
 70
     1
102
RTVSPropertyOp55
 70
     1
102
RTVSPropertyOp56
 70
     1
102
RTVSPropertyOp57
 70
     1
102
RTVSPost2010Prop28
280
     0
102
RTVSPost2010PropOp28
 70
     1
102
RTVSPost2010Prop29
280
     1
102
RTVSPost2010PropOp29
 70
     1
102
RTVSPost2010Prop30
280
     1
102
RTVSPost2010PropOp30
 70
     1
102
RTVSPost2010Prop31
280
     0
102
RTVSPost2010PropOp31
 70
     1
102
RTVSPost2010Prop32
280
     0
102
RTVSPost2010PropOp32
 70
     1
102
RTVSPost2010Prop33
280
     0
102
RTVSPost2010PropOp33
 70
     1
102
RTVSPost2010Prop34
280
     0
102
RTVSPost2010PropOp34
 70
     1
102
RTVSPost2010Prop35
280
     0
102
RTVSPost2010PropOp35
 70
     1
102
RTVSPost2010Prop36
280
     0
102
RTVSPost2010PropOp36
 70
     1
102
RTVSPost2010Prop37
 90
       50
102
RTVSPost2010PropOp37
 70
     1
102
RTVSPost2010Prop38
140
0.0
102
RTVSPost2010PropOp38
 70
     1
102
RTVSPost2010Prop39
140
1.0
102
RTVSPost2010PropOp39
 70
     1
102
RTVSPost2010Prop40
 90
        0
102
RTVSPost2010PropOp40
 70
     1
102
RTVSPost2010Prop41ColorIndex
 90
       18
102
RTVSPost2010Prop41ColorRGB
 90
        0
102
RTVSPost2010PropOp41
 70
     1
102
RTVSPost2010Prop42
 90
       50
102
RTVSPost2010PropOp42
 70
     1
102
RTVSPost2010Prop43
 90
        3
102
RTVSPost2010PropOp43
 70
     1
102
RTVSPost2010Prop44ColorIndex
 90
        5
102
RTVSPost2010Prop44ColorRGB
 90
      255
102
RTVSPost2010PropOp44
 70
     1
102
RTVSPost2010Prop45
280
     0
102
RTVSPost2010PropOp45
 70
     1
102
RTVSPost2010Prop46
 90
       50
102
RTVSPost2010PropOp46
 70
     1
102
RTVSPost2010Prop47
 90
       50
102
RTVSPost2010PropOp47
 70
     1
102
RTVSPost2010Prop48
 90
       50
102
RTVSPost2010PropOp48
 70
     1
102
RTVSPost2010Prop49
280
     0
102
RTVSPost2010PropOp49
 70
     1
102
RTVSPost2010Prop50
 90
       50
102
RTVSPost2010PropOp50
 70
     1
102
RTVSPost2010Prop51ColorIndex
 90
      256
102
RTVSPost2010Prop51ColorRGB
 90
-16777216
102
RTVSPost2010PropOp51
 70
     0
102
RTVSPost2010Prop52
140
1.0
102
RTVSPost2010PropOp52
 70
     0
102
RTVSPost2010Prop53
 90
        2
102
RTVSPost2010PropOp53
 70
     1
102
RTVSPost2010Prop54
  1
strokes_ogs.tif
102
RTVSPost2010PropOp54
 70
     1
102
RTVSPost2010Prop55
280
     0
102
RTVSPost2010PropOp55
 70
     1
102
RTVSPost2010Prop56
140
1.0
102
RTVSPost2010PropOp56
 70
     1
102
RTVSPost2010Prop57
140
1.0
102
RTVSPost2010PropOp57
 70
     1
  0
XRECORD
  5
C0F
102
{ACAD_REACTORS
330
C0E
102
}
330
C0E
100
AcDbXrecord
280
     1
102
RTVSPropertyOp0
 70
     1
102
RTVSPropertyOp1
 70
     1
102
RTVSPropertyOp2
 70
     1
102
RTVSPropertyOp3
 70
     1
102
RTVSPropertyOp4
 70
     1
102
RTVSPropertyOp5
 70
     1
102
RTVSPropertyOp6
 70
     1
102
RTVSPropertyOp7
 70
     1
102
RTVSPropertyOp8
 70
     1
102
RTVSPropertyOp9
 70
     1
102
RTVSPropertyOp10
 70
     1
102
RTVSPropertyOp11
 70
     1
102
RTVSPropertyOp12
 70
     1
102
RTVSPropertyOp13
 70
     1
102
RTVSPropertyOp14
 70
     1
102
RTVSPropertyOp15
 70
     1
102
RTVSPropertyOp16
 70
     1
102
RTVSPropertyOp17
 70
     1
102
RTVSPropertyOp18
 70
     1
102
RTVSPropertyOp19
 70
     1
102
RTVSPropertyOp20
 70
     1
102
RTVSPropertyOp21
 70
     1
102
RTVSPropertyOp22
 70
     1
102
RTVSPropertyOp23
 70
     1
102
RTVSPropertyOp24
 70
     1
102
RTVSPropertyOp25
 70
     1
102
RTVSPropertyOp26
 70
     1
102
RTVSPropertyOp27
 70
     1
102
RTVSPropertyOp28
 70
     1
102
RTVSPropertyOp29
 70
     1
102
RTVSPropertyOp30
 70
     1
102
RTVSPropertyOp31
 70
     1
102
RTVSPropertyOp32
 70
     1
102
RTVSPropertyOp33
 70
     1
102
RTVSPropertyOp34
 70
     1
102
RTVSPropertyOp35
 70
     1
102
RTVSPropertyOp36
 70
     1
102
RTVSPropertyOp37
 70
     1
102
RTVSPropertyOp38
 70
     1
102
RTVSPropertyOp39
 70
     1
102
RTVSPropertyOp40
 70
     1
102
RTVSPropertyOp41
 70
     1
102
RTVSPropertyOp42
 70
     1
102
RTVSPropertyOp43
 70
     1
102
RTVSPropertyOp44
 70
     1
102
RTVSPropertyOp45
 70
     1
102
RTVSPropertyOp46
 70
     1
102
RTVSPropertyOp47
 70
     1
102
RTVSPropertyOp48
 70
     1
102
RTVSPropertyOp49
 70
     1
102
RTVSPropertyOp50
 70
     1
102
RTVSPropertyOp51
 70
     0
102
RTVSPropertyOp52
 70
     0
102
RTVSPropertyOp53
 70
     1
102
RTVSPropertyOp54
 70
     1
102
RTVSPropertyOp55
 70
     1
102
RTVSPropertyOp56
 70
     1
102
RTVSPropertyOp57
 70
     1
102
RTVSPost2010Prop28
280
     0
102
RTVSPost2010PropOp28
 70
     1
102
RTVSPost2010Prop29
280
     1
102
RTVSPost2010PropOp29
 70
     1
102
RTVSPost2010Prop30
280
     1
102
RTVSPost2010PropOp30
 70
     1
102
RTVSPost2010Prop31
280
     0
102
RTVSPost2010PropOp31
 70
     1
102
RTVSPost2010Prop32
280
     0
102
RTVSPost2010PropOp32
 70
     1
102
RTVSPost2010Prop33
280
     0
102
RTVSPost2010PropOp33
 70
     1
102
RTVSPost2010Prop34
280
     0
102
RTVSPost2010PropOp34
 70
     1
102
RTVSPost2010Prop35
280
     0
102
RTVSPost2010PropOp35
 70
     1
102
RTVSPost2010Prop36
280
     0
102
RTVSPost2010PropOp36
 70
     1
102
RTVSPost2010Prop37
 90
       50
102
RTVSPost2010PropOp37
 70
     1
102
RTVSPost2010Prop38
140
0.0
102
RTVSPost2010PropOp38
 70
     1
102
RTVSPost2010Prop39
140
1.0
102
RTVSPost2010PropOp39
 70
     1
102
RTVSPost2010Prop40
 90
        0
102
RTVSPost2010PropOp40
 70
     1
102
RTVSPost2010Prop41ColorIndex
 90
       18
102
RTVSPost2010Prop41ColorRGB
 90
        0
102
RTVSPost2010PropOp41
 70
     1
102
RTVSPost2010Prop42
 90
       50
102
RTVSPost2010PropOp42
 70
     1
102
RTVSPost2010Prop43
 90
        3
102
RTVSPost2010PropOp43
 70
     1
102
RTVSPost2010Prop44ColorIndex
 90
        5
102
RTVSPost2010Prop44ColorRGB
 90
      255
102
RTVSPost2010PropOp44
 70
     1
102
RTVSPost2010Prop45
280
     0
102
RTVSPost2010PropOp45
 70
     1
102
RTVSPost2010Prop46
 90
       50
102
RTVSPost2010PropOp46
 70
     1
102
RTVSPost2010Prop47
 90
       50
102
RTVSPost2010PropOp47
 70
     1
102
RTVSPost2010Prop48
 90
       50
102
RTVSPost2010PropOp48
 70
     1
102
RTVSPost2010Prop49
280
     0
102
RTVSPost2010PropOp49
 70
     1
102
RTVSPost2010Prop50
 90
       50
102
RTVSPost2010PropOp50
 70
     1
102
RTVSPost2010Prop51ColorIndex
 90
      256
102
RTVSPost2010Prop51ColorRGB
 90
-16777216
102
RTVSPost2010PropOp51
 70
     0
102
RTVSPost2010Prop52
140
1.0
102
RTVSPost2010PropOp52
 70
     0
102
RTVSPost2010Prop53
 90
        2
102
RTVSPost2010PropOp53
 70
     1
102
RTVSPost2010Prop54
  1
strokes_ogs.tif
102
RTVSPost2010PropOp54
 70
     1
102
RTVSPost2010Prop55
280
     0
102
RTVSPost2010PropOp55
 70
     1
102
RTVSPost2010Prop56
140
1.0
102
RTVSPost2010PropOp56
 70
     1
102
RTVSPost2010Prop57
140
1.0
102
RTVSPost2010PropOp57
 70
     1
  0
XRECORD
  5
C11
102
{ACAD_REACTORS
330
C10
102
}
330
C10
100
AcDbXrecord
280
     1
102
RTVSPropertyOp0
 70
     1
102
RTVSPropertyOp1
 70
     1
102
RTVSPropertyOp2
 70
     1
102
RTVSPropertyOp3
 70
     1
102
RTVSPropertyOp4
 70
     1
102
RTVSPropertyOp5
 70
     1
102
RTVSPropertyOp6
 70
     1
102
RTVSPropertyOp7
 70
     1
102
RTVSPropertyOp8
 70
     1
102
RTVSPropertyOp9
 70
     1
102
RTVSPropertyOp10
 70
     1
102
RTVSPropertyOp11
 70
     1
102
RTVSPropertyOp12
 70
     1
102
RTVSPropertyOp13
 70
     1
102
RTVSPropertyOp14
 70
     1
102
RTVSPropertyOp15
 70
     1
102
RTVSPropertyOp16
 70
     1
102
RTVSPropertyOp17
 70
     1
102
RTVSPropertyOp18
 70
     1
102
RTVSPropertyOp19
 70
     1
102
RTVSPropertyOp20
 70
     1
102
RTVSPropertyOp21
 70
     1
102
RTVSPropertyOp22
 70
     1
102
RTVSPropertyOp23
 70
     1
102
RTVSPropertyOp24
 70
     1
102
RTVSPropertyOp25
 70
     1
102
RTVSPropertyOp26
 70
     1
102
RTVSPropertyOp27
 70
     1
102
RTVSPropertyOp28
 70
     1
102
RTVSPropertyOp29
 70
     1
102
RTVSPropertyOp30
 70
     1
102
RTVSPropertyOp31
 70
     1
102
RTVSPropertyOp32
 70
     1
102
RTVSPropertyOp33
 70
     1
102
RTVSPropertyOp34
 70
     1
102
RTVSPropertyOp35
 70
     1
102
RTVSPropertyOp36
 70
     1
102
RTVSPropertyOp37
 70
     1
102
RTVSPropertyOp38
 70
     1
102
RTVSPropertyOp39
 70
     1
102
RTVSPropertyOp40
 70
     1
102
RTVSPropertyOp41
 70
     1
102
RTVSPropertyOp42
 70
     1
102
RTVSPropertyOp43
 70
     1
102
RTVSPropertyOp44
 70
     1
102
RTVSPropertyOp45
 70
     1
102
RTVSPropertyOp46
 70
     1
102
RTVSPropertyOp47
 70
     1
102
RTVSPropertyOp48
 70
     1
102
RTVSPropertyOp49
 70
     1
102
RTVSPropertyOp50
 70
     1
102
RTVSPropertyOp51
 70
     0
102
RTVSPropertyOp52
 70
     0
102
RTVSPropertyOp53
 70
     1
102
RTVSPropertyOp54
 70
     1
102
RTVSPropertyOp55
 70
     1
102
RTVSPropertyOp56
 70
     1
102
RTVSPropertyOp57
 70
     1
102
RTVSPost2010Prop28
280
     0
102
RTVSPost2010PropOp28
 70
     1
102
RTVSPost2010Prop29
280
     1
102
RTVSPost2010PropOp29
 70
     1
102
RTVSPost2010Prop30
280
     1
102
RTVSPost2010PropOp30
 70
     1
102
RTVSPost2010Prop31
280
     0
102
RTVSPost2010PropOp31
 70
     1
102
RTVSPost2010Prop32
280
     0
102
RTVSPost2010PropOp32
 70
     1
102
RTVSPost2010Prop33
280
     0
102
RTVSPost2010PropOp33
 70
     1
102
RTVSPost2010Prop34
280
     0
102
RTVSPost2010PropOp34
 70
     1
102
RTVSPost2010Prop35
280
     0
102
RTVSPost2010PropOp35
 70
     1
102
RTVSPost2010Prop36
280
     0
102
RTVSPost2010PropOp36
 70
     1
102
RTVSPost2010Prop37
 90
       50
102
RTVSPost2010PropOp37
 70
     1
102
RTVSPost2010Prop38
140
0.0
102
RTVSPost2010PropOp38
 70
     1
102
RTVSPost2010Prop39
140
1.0
102
RTVSPost2010PropOp39
 70
     1
102
RTVSPost2010Prop40
 90
        0
102
RTVSPost2010PropOp40
 70
     1
102
RTVSPost2010Prop41ColorIndex
 90
       18
102
RTVSPost2010Prop41ColorRGB
 90
        0
102
RTVSPost2010PropOp41
 70
     1
102
RTVSPost2010Prop42
 90
       50
102
RTVSPost2010PropOp42
 70
     1
102
RTVSPost2010Prop43
 90
        3
102
RTVSPost2010PropOp43
 70
     1
102
RTVSPost2010Prop44ColorIndex
 90
        5
102
RTVSPost2010Prop44ColorRGB
 90
      255
102
RTVSPost2010PropOp44
 70
     1
102
RTVSPost2010Prop45
280
     0
102
RTVSPost2010PropOp45
 70
     1
102
RTVSPost2010Prop46
 90
       50
102
RTVSPost2010PropOp46
 70
     1
102
RTVSPost2010Prop47
 90
       50
102
RTVSPost2010PropOp47
 70
     1
102
RTVSPost2010Prop48
 90
       50
102
RTVSPost2010PropOp48
 70
     1
102
RTVSPost2010Prop49
280
     0
102
RTVSPost2010PropOp49
 70
     1
102
RTVSPost2010Prop50
 90
       50
102
RTVSPost2010PropOp50
 70
     1
102
RTVSPost2010Prop51ColorIndex
 90
      256
102
RTVSPost2010Prop51ColorRGB
 90
-16777216
102
RTVSPost2010PropOp51
 70
     0
102
RTVSPost2010Prop52
140
1.0
102
RTVSPost2010PropOp52
 70
     0
102
RTVSPost2010Prop53
 90
        2
102
RTVSPost2010PropOp53
 70
     1
102
RTVSPost2010Prop54
  1
strokes_ogs.tif
102
RTVSPost2010PropOp54
 70
     1
102
RTVSPost2010Prop55
280
     0
102
RTVSPost2010PropOp55
 70
     1
102
RTVSPost2010Prop56
140
1.0
102
RTVSPost2010PropOp56
 70
     1
102
RTVSPost2010Prop57
140
1.0
102
RTVSPost2010PropOp57
 70
     1
  0
XRECORD
  5
C13
102
{ACAD_REACTORS
330
C12
102
}
330
C12
100
AcDbXrecord
280
     1
102
RTVSPropertyOp0
 70
     1
102
RTVSPropertyOp1
 70
     1
102
RTVSPropertyOp2
 70
     1
102
RTVSPropertyOp3
 70
     1
102
RTVSPropertyOp4
 70
     1
102
RTVSPropertyOp5
 70
     1
102
RTVSPropertyOp6
 70
     1
102
RTVSPropertyOp7
 70
     1
102
RTVSPropertyOp8
 70
     1
102
RTVSPropertyOp9
 70
     1
102
RTVSPropertyOp10
 70
     1
102
RTVSPropertyOp11
 70
     1
102
RTVSPropertyOp12
 70
     1
102
RTVSPropertyOp13
 70
     1
102
RTVSPropertyOp14
 70
     1
102
RTVSPropertyOp15
 70
     1
102
RTVSPropertyOp16
 70
     1
102
RTVSPropertyOp17
 70
     1
102
RTVSPropertyOp18
 70
     1
102
RTVSPropertyOp19
 70
     1
102
RTVSPropertyOp20
 70
     1
102
RTVSPropertyOp21
 70
     1
102
RTVSPropertyOp22
 70
     1
102
RTVSPropertyOp23
 70
     1
102
RTVSPropertyOp24
 70
     1
102
RTVSPropertyOp25
 70
     1
102
RTVSPropertyOp26
 70
     1
102
RTVSPropertyOp27
 70
     1
102
RTVSPropertyOp28
 70
     1
102
RTVSPropertyOp29
 70
     1
102
RTVSPropertyOp30
 70
     1
102
RTVSPropertyOp31
 70
     1
102
RTVSPropertyOp32
 70
     1
102
RTVSPropertyOp33
 70
     1
102
RTVSPropertyOp34
 70
     1
102
RTVSPropertyOp35
 70
     1
102
RTVSPropertyOp36
 70
     1
102
RTVSPropertyOp37
 70
     1
102
RTVSPropertyOp38
 70
     1
102
RTVSPropertyOp39
 70
     1
102
RTVSPropertyOp40
 70
     1
102
RTVSPropertyOp41
 70
     1
102
RTVSPropertyOp42
 70
     1
102
RTVSPropertyOp43
 70
     1
102
RTVSPropertyOp44
 70
     1
102
RTVSPropertyOp45
 70
     1
102
RTVSPropertyOp46
 70
     1
102
RTVSPropertyOp47
 70
     1
102
RTVSPropertyOp48
 70
     1
102
RTVSPropertyOp49
 70
     1
102
RTVSPropertyOp50
 70
     1
102
RTVSPropertyOp51
 70
     0
102
RTVSPropertyOp52
 70
     0
102
RTVSPropertyOp53
 70
     1
102
RTVSPropertyOp54
 70
     1
102
RTVSPropertyOp55
 70
     1
102
RTVSPropertyOp56
 70
     1
102
RTVSPropertyOp57
 70
     1
102
RTVSPost2010Prop28
280
     0
102
RTVSPost2010PropOp28
 70
     1
102
RTVSPost2010Prop29
280
     1
102
RTVSPost2010PropOp29
 70
     1
102
RTVSPost2010Prop30
280
     1
102
RTVSPost2010PropOp30
 70
     1
102
RTVSPost2010Prop31
280
     0
102
RTVSPost2010PropOp31
 70
     1
102
RTVSPost2010Prop32
280
     0
102
RTVSPost2010PropOp32
 70
     1
102
RTVSPost2010Prop33
280
     0
102
RTVSPost2010PropOp33
 70
     1
102
RTVSPost2010Prop34
280
     0
102
RTVSPost2010PropOp34
 70
     1
102
RTVSPost2010Prop35
280
     0
102
RTVSPost2010PropOp35
 70
     1
102
RTVSPost2010Prop36
280
     0
102
RTVSPost2010PropOp36
 70
     1
102
RTVSPost2010Prop37
 90
       50
102
RTVSPost2010PropOp37
 70
     1
102
RTVSPost2010Prop38
140
0.0
102
RTVSPost2010PropOp38
 70
     1
102
RTVSPost2010Prop39
140
1.0
102
RTVSPost2010PropOp39
 70
     1
102
RTVSPost2010Prop40
 90
        0
102
RTVSPost2010PropOp40
 70
     1
102
RTVSPost2010Prop41ColorIndex
 90
       18
102
RTVSPost2010Prop41ColorRGB
 90
        0
102
RTVSPost2010PropOp41
 70
     1
102
RTVSPost2010Prop42
 90
       50
102
RTVSPost2010PropOp42
 70
     1
102
RTVSPost2010Prop43
 90
        3
102
RTVSPost2010PropOp43
 70
     1
102
RTVSPost2010Prop44ColorIndex
 90
        5
102
RTVSPost2010Prop44ColorRGB
 90
      255
102
RTVSPost2010PropOp44
 70
     1
102
RTVSPost2010Prop45
280
     0
102
RTVSPost2010PropOp45
 70
     1
102
RTVSPost2010Prop46
 90
       50
102
RTVSPost2010PropOp46
 70
     1
102
RTVSPost2010Prop47
 90
       50
102
RTVSPost2010PropOp47
 70
     1
102
RTVSPost2010Prop48
 90
       50
102
RTVSPost2010PropOp48
 70
     1
102
RTVSPost2010Prop49
280
     0
102
RTVSPost2010PropOp49
 70
     1
102
RTVSPost2010Prop50
 90
       50
102
RTVSPost2010PropOp50
 70
     1
102
RTVSPost2010Prop51ColorIndex
 90
      256
102
RTVSPost2010Prop51ColorRGB
 90
-16777216
102
RTVSPost2010PropOp51
 70
     0
102
RTVSPost2010Prop52
140
1.0
102
RTVSPost2010PropOp52
 70
     0
102
RTVSPost2010Prop53
 90
        2
102
RTVSPost2010PropOp53
 70
     1
102
RTVSPost2010Prop54
  1
strokes_ogs.tif
102
RTVSPost2010PropOp54
 70
     1
102
RTVSPost2010Prop55
280
     0
102
RTVSPost2010PropOp55
 70
     1
102
RTVSPost2010Prop56
140
1.0
102
RTVSPost2010PropOp56
 70
     1
102
RTVSPost2010Prop57
140
1.0
102
RTVSPost2010PropOp57
 70
     1
  0
XRECORD
  5
C19
102
{ACAD_REACTORS
330
C18
102
}
330
C18
100
AcDbXrecord
280
     1
102
RTVSPropertyOp0
 70
     1
102
RTVSPropertyOp1
 70
     1
102
RTVSPropertyOp2
 70
     1
102
RTVSPropertyOp3
 70
     1
102
RTVSPropertyOp4
 70
     1
102
RTVSPropertyOp5
 70
     1
102
RTVSPropertyOp6
 70
     1
102
RTVSPropertyOp7
 70
     1
102
RTVSPropertyOp8
 70
     1
102
RTVSPropertyOp9
 70
     1
102
RTVSPropertyOp10
 70
     1
102
RTVSPropertyOp11
 70
     1
102
RTVSPropertyOp12
 70
     1
102
RTVSPropertyOp13
 70
     1
102
RTVSPropertyOp14
 70
     1
102
RTVSPropertyOp15
 70
     1
102
RTVSPropertyOp16
 70
     1
102
RTVSPropertyOp17
 70
     1
102
RTVSPropertyOp18
 70
     1
102
RTVSPropertyOp19
 70
     1
102
RTVSPropertyOp20
 70
     1
102
RTVSPropertyOp21
 70
     1
102
RTVSPropertyOp22
 70
     1
102
RTVSPropertyOp23
 70
     1
102
RTVSPropertyOp24
 70
     1
102
RTVSPropertyOp25
 70
     1
102
RTVSPropertyOp26
 70
     1
102
RTVSPropertyOp27
 70
     1
102
RTVSPropertyOp28
 70
     1
102
RTVSPropertyOp29
 70
     1
102
RTVSPropertyOp30
 70
     1
102
RTVSPropertyOp31
 70
     1
102
RTVSPropertyOp32
 70
     1
102
RTVSPropertyOp33
 70
     1
102
RTVSPropertyOp34
 70
     1
102
RTVSPropertyOp35
 70
     1
102
RTVSPropertyOp36
 70
     1
102
RTVSPropertyOp37
 70
     1
102
RTVSPropertyOp38
 70
     1
102
RTVSPropertyOp39
 70
     1
102
RTVSPropertyOp40
 70
     1
102
RTVSPropertyOp41
 70
     1
102
RTVSPropertyOp42
 70
     1
102
RTVSPropertyOp43
 70
     1
102
RTVSPropertyOp44
 70
     1
102
RTVSPropertyOp45
 70
     1
102
RTVSPropertyOp46
 70
     1
102
RTVSPropertyOp47
 70
     1
102
RTVSPropertyOp48
 70
     1
102
RTVSPropertyOp49
 70
     1
102
RTVSPropertyOp50
 70
     1
102
RTVSPropertyOp51
 70
     0
102
RTVSPropertyOp52
 70
     0
102
RTVSPropertyOp53
 70
     1
102
RTVSPropertyOp54
 70
     1
102
RTVSPropertyOp55
 70
     1
102
RTVSPropertyOp56
 70
     1
102
RTVSPropertyOp57
 70
     1
102
RTVSPost2010Prop28
280
     0
102
RTVSPost2010PropOp28
 70
     1
102
RTVSPost2010Prop29
280
     1
102
RTVSPost2010PropOp29
 70
     1
102
RTVSPost2010Prop30
280
     1
102
RTVSPost2010PropOp30
 70
     1
102
RTVSPost2010Prop31
280
     0
102
RTVSPost2010PropOp31
 70
     1
102
RTVSPost2010Prop32
280
     0
102
RTVSPost2010PropOp32
 70
     1
102
RTVSPost2010Prop33
280
     0
102
RTVSPost2010PropOp33
 70
     1
102
RTVSPost2010Prop34
280
     0
102
RTVSPost2010PropOp34
 70
     1
102
RTVSPost2010Prop35
280
     0
102
RTVSPost2010PropOp35
 70
     1
102
RTVSPost2010Prop36
280
     0
102
RTVSPost2010PropOp36
 70
     1
102
RTVSPost2010Prop37
 90
       50
102
RTVSPost2010PropOp37
 70
     1
102
RTVSPost2010Prop38
140
0.0
102
RTVSPost2010PropOp38
 70
     1
102
RTVSPost2010Prop39
140
1.0
102
RTVSPost2010PropOp39
 70
     1
102
RTVSPost2010Prop40
 90
        0
102
RTVSPost2010PropOp40
 70
     1
102
RTVSPost2010Prop41ColorIndex
 90
       18
102
RTVSPost2010Prop41ColorRGB
 90
        0
102
RTVSPost2010PropOp41
 70
     1
102
RTVSPost2010Prop42
 90
       50
102
RTVSPost2010PropOp42
 70
     1
102
RTVSPost2010Prop43
 90
        3
102
RTVSPost2010PropOp43
 70
     1
102
RTVSPost2010Prop44ColorIndex
 90
        5
102
RTVSPost2010Prop44ColorRGB
 90
      255
102
RTVSPost2010PropOp44
 70
     1
102
RTVSPost2010Prop45
280
     0
102
RTVSPost2010PropOp45
 70
     1
102
RTVSPost2010Prop46
 90
       50
102
RTVSPost2010PropOp46
 70
     1
102
RTVSPost2010Prop47
 90
       50
102
RTVSPost2010PropOp47
 70
     1
102
RTVSPost2010Prop48
 90
       50
102
RTVSPost2010PropOp48
 70
     1
102
RTVSPost2010Prop49
280
     0
102
RTVSPost2010PropOp49
 70
     1
102
RTVSPost2010Prop50
 90
       50
102
RTVSPost2010PropOp50
 70
     1
102
RTVSPost2010Prop51ColorIndex
 90
      256
102
RTVSPost2010Prop51ColorRGB
 90
-16777216
102
RTVSPost2010PropOp51
 70
     0
102
RTVSPost2010Prop52
140
1.0
102
RTVSPost2010PropOp52
 70
     0
102
RTVSPost2010Prop53
 90
        2
102
RTVSPost2010PropOp53
 70
     1
102
RTVSPost2010Prop54
  1
strokes_ogs.tif
102
RTVSPost2010PropOp54
 70
     1
102
RTVSPost2010Prop55
280
     0
102
RTVSPost2010PropOp55
 70
     1
102
RTVSPost2010Prop56
140
1.0
102
RTVSPost2010PropOp56
 70
     1
102
RTVSPost2010Prop57
140
1.0
102
RTVSPost2010PropOp57
 70
     1
  0
XRECORD
  5
C2D
102
{ACAD_REACTORS
330
C2C
102
}
330
C2C
100
AcDbXrecord
280
     1
102
RTVSPropertyOp0
 70
     0
102
RTVSPropertyOp1
 70
     0
102
RTVSPropertyOp2
 70
     0
102
RTVSPropertyOp3
 70
     0
102
RTVSPropertyOp4
 70
     0
102
RTVSPropertyOp5
 70
     0
102
RTVSPropertyOp6
 70
     0
102
RTVSPropertyOp7
 70
     0
102
RTVSPropertyOp8
 70
     0
102
RTVSPropertyOp9
 70
     0
102
RTVSPropertyOp10
 70
     0
102
RTVSPropertyOp11
 70
     0
102
RTVSPropertyOp12
 70
     0
102
RTVSPropertyOp13
 70
     0
102
RTVSPropertyOp14
 70
     2
102
RTVSPropertyOp15
 70
     0
102
RTVSPropertyOp16
 70
     0
102
RTVSPropertyOp17
 70
     0
102
RTVSPropertyOp18
 70
     0
102
RTVSPropertyOp19
 70
     0
102
RTVSPropertyOp20
 70
     0
102
RTVSPropertyOp21
 70
     0
102
RTVSPropertyOp22
 70
     0
102
RTVSPropertyOp23
 70
     0
102
RTVSPropertyOp24
 70
     0
102
RTVSPropertyOp25
 70
     0
102
RTVSPropertyOp26
 70
     0
102
RTVSPropertyOp27
 70
     0
102
RTVSPropertyOp28
 70
     0
102
RTVSPropertyOp29
 70
     0
102
RTVSPropertyOp30
 70
     0
102
RTVSPropertyOp31
 70
     0
102
RTVSPropertyOp32
 70
     0
102
RTVSPropertyOp33
 70
     0
102
RTVSPropertyOp34
 70
     0
102
RTVSPropertyOp35
 70
     0
102
RTVSPropertyOp36
 70
     0
102
RTVSPropertyOp37
 70
     0
102
RTVSPropertyOp38
 70
     0
102
RTVSPropertyOp39
 70
     0
102
RTVSPropertyOp40
 70
     0
102
RTVSPropertyOp41
 70
     0
102
RTVSPropertyOp42
 70
     0
102
RTVSPropertyOp43
 70
     0
102
RTVSPropertyOp44
 70
     0
102
RTVSPropertyOp45
 70
     0
102
RTVSPropertyOp46
 70
     0
102
RTVSPropertyOp47
 70
     0
102
RTVSPropertyOp48
 70
     0
102
RTVSPropertyOp49
 70
     0
102
RTVSPropertyOp50
 70
     0
102
RTVSPropertyOp51
 70
     0
102
RTVSPropertyOp52
 70
     0
102
RTVSPropertyOp53
 70
     0
102
RTVSPropertyOp54
 70
     0
102
RTVSPropertyOp55
 70
     0
102
RTVSPropertyOp56
 70
     0
102
RTVSPropertyOp57
 70
     0
102
RTVSPost2010Prop28
280
     0
102
RTVSPost2010PropOp28
 70
     0
102
RTVSPost2010Prop29
280
     1
102
RTVSPost2010PropOp29
 70
     0
102
RTVSPost2010Prop30
280
     1
102
RTVSPost2010PropOp30
 70
     0
102
RTVSPost2010Prop31
280
     0
102
RTVSPost2010PropOp31
 70
     0
102
RTVSPost2010Prop32
280
     0
102
RTVSPost2010PropOp32
 70
     0
102
RTVSPost2010Prop33
280
     0
102
RTVSPost2010PropOp33
 70
     0
102
RTVSPost2010Prop34
280
     0
102
RTVSPost2010PropOp34
 70
     0
102
RTVSPost2010Prop35
280
     0
102
RTVSPost2010PropOp35
 70
     0
102
RTVSPost2010Prop36
280
     0
102
RTVSPost2010PropOp36
 70
     0
102
RTVSPost2010Prop37
 90
       50
102
RTVSPost2010PropOp37
 70
     0
102
RTVSPost2010Prop38
140
0.0
102
RTVSPost2010PropOp38
 70
     0
102
RTVSPost2010Prop39
140
1.0
102
RTVSPost2010PropOp39
 70
     0
102
RTVSPost2010Prop40
 90
        0
102
RTVSPost2010PropOp40
 70
     0
102
RTVSPost2010Prop41ColorIndex
 90
       18
102
RTVSPost2010Prop41ColorRGB
 90
        0
102
RTVSPost2010PropOp41
 70
     0
102
RTVSPost2010Prop42
 90
       50
102
RTVSPost2010PropOp42
 70
     0
102
RTVSPost2010Prop43
 90
        3
102
RTVSPost2010PropOp43
 70
     0
102
RTVSPost2010Prop44ColorIndex
 90
        5
102
RTVSPost2010Prop44ColorRGB
 90
      255
102
RTVSPost2010PropOp44
 70
     0
102
RTVSPost2010Prop45
280
     0
102
RTVSPost2010PropOp45
 70
     0
102
RTVSPost2010Prop46
 90
       50
102
RTVSPost2010PropOp46
 70
     0
102
RTVSPost2010Prop47
 90
       50
102
RTVSPost2010PropOp47
 70
     0
102
RTVSPost2010Prop48
 90
       50
102
RTVSPost2010PropOp48
 70
     0
102
RTVSPost2010Prop49
280
     0
102
RTVSPost2010PropOp49
 70
     0
102
RTVSPost2010Prop50
 90
       50
102
RTVSPost2010PropOp50
 70
     0
102
RTVSPost2010Prop51ColorIndex
 90
      256
102
RTVSPost2010Prop51ColorRGB
 90
-16777216
102
RTVSPost2010PropOp51
 70
     0
102
RTVSPost2010Prop52
140
1.0
102
RTVSPost2010PropOp52
 70
     0
102
RTVSPost2010Prop53
 90
        2
102
RTVSPost2010PropOp53
 70
     0
102
RTVSPost2010Prop54
  1
strokes_ogs.tif
102
RTVSPost2010PropOp54
 70
     0
102
RTVSPost2010Prop55
280
     0
102
RTVSPost2010PropOp55
 70
     0
102
RTVSPost2010Prop56
140
1.0
102
RTVSPost2010PropOp56
 70
     0
102
RTVSPost2010Prop57
140
1.0
102
RTVSPost2010PropOp57
 70
     0
  0
XRECORD
  5
C27
102
{ACAD_REACTORS
330
C26
102
}
330
C26
100
AcDbXrecord
280
     1
102
RTVSPropertyOp0
 70
     1
102
RTVSPropertyOp1
 70
     1
102
RTVSPropertyOp2
 70
     1
102
RTVSPropertyOp3
 70
     1
102
RTVSPropertyOp4
 70
     1
102
RTVSPropertyOp5
 70
     1
102
RTVSPropertyOp6
 70
     1
102
RTVSPropertyOp7
 70
     1
102
RTVSPropertyOp8
 70
     1
102
RTVSPropertyOp9
 70
     1
102
RTVSPropertyOp10
 70
     1
102
RTVSPropertyOp11
 70
     1
102
RTVSPropertyOp12
 70
     1
102
RTVSPropertyOp13
 70
     1
102
RTVSPropertyOp14
 70
     1
102
RTVSPropertyOp15
 70
     1
102
RTVSPropertyOp16
 70
     1
102
RTVSPropertyOp17
 70
     1
102
RTVSPropertyOp18
 70
     1
102
RTVSPropertyOp19
 70
     1
102
RTVSPropertyOp20
 70
     1
102
RTVSPropertyOp21
 70
     1
102
RTVSPropertyOp22
 70
     1
102
RTVSPropertyOp23
 70
     1
102
RTVSPropertyOp24
 70
     1
102
RTVSPropertyOp25
 70
     1
102
RTVSPropertyOp26
 70
     1
102
RTVSPropertyOp27
 70
     1
102
RTVSPropertyOp28
 70
     1
102
RTVSPropertyOp29
 70
     1
102
RTVSPropertyOp30
 70
     1
102
RTVSPropertyOp31
 70
     1
102
RTVSPropertyOp32
 70
     1
102
RTVSPropertyOp33
 70
     1
102
RTVSPropertyOp34
 70
     1
102
RTVSPropertyOp35
 70
     1
102
RTVSPropertyOp36
 70
     1
102
RTVSPropertyOp37
 70
     1
102
RTVSPropertyOp38
 70
     1
102
RTVSPropertyOp39
 70
     1
102
RTVSPropertyOp40
 70
     1
102
RTVSPropertyOp41
 70
     1
102
RTVSPropertyOp42
 70
     1
102
RTVSPropertyOp43
 70
     1
102
RTVSPropertyOp44
 70
     1
102
RTVSPropertyOp45
 70
     1
102
RTVSPropertyOp46
 70
     1
102
RTVSPropertyOp47
 70
     1
102
RTVSPropertyOp48
 70
     1
102
RTVSPropertyOp49
 70
     1
102
RTVSPropertyOp50
 70
     1
102
RTVSPropertyOp51
 70
     0
102
RTVSPropertyOp52
 70
     0
102
RTVSPropertyOp53
 70
     1
102
RTVSPropertyOp54
 70
     1
102
RTVSPropertyOp55
 70
     1
102
RTVSPropertyOp56
 70
     1
102
RTVSPropertyOp57
 70
     1
102
RTVSPost2010Prop28
280
     0
102
RTVSPost2010PropOp28
 70
     1
102
RTVSPost2010Prop29
280
     1
102
RTVSPost2010PropOp29
 70
     1
102
RTVSPost2010Prop30
280
     1
102
RTVSPost2010PropOp30
 70
     1
102
RTVSPost2010Prop31
280
     0
102
RTVSPost2010PropOp31
 70
     1
102
RTVSPost2010Prop32
280
     0
102
RTVSPost2010PropOp32
 70
     1
102
RTVSPost2010Prop33
280
     0
102
RTVSPost2010PropOp33
 70
     1
102
RTVSPost2010Prop34
280
     0
102
RTVSPost2010PropOp34
 70
     1
102
RTVSPost2010Prop35
280
     0
102
RTVSPost2010PropOp35
 70
     1
102
RTVSPost2010Prop36
280
     0
102
RTVSPost2010PropOp36
 70
     1
102
RTVSPost2010Prop37
 90
       50
102
RTVSPost2010PropOp37
 70
     1
102
RTVSPost2010Prop38
140
0.0
102
RTVSPost2010PropOp38
 70
     1
102
RTVSPost2010Prop39
140
1.0
102
RTVSPost2010PropOp39
 70
     1
102
RTVSPost2010Prop40
 90
        0
102
RTVSPost2010PropOp40
 70
     1
102
RTVSPost2010Prop41ColorIndex
 90
       18
102
RTVSPost2010Prop41ColorRGB
 90
        0
102
RTVSPost2010PropOp41
 70
     1
102
RTVSPost2010Prop42
 90
       50
102
RTVSPost2010PropOp42
 70
     1
102
RTVSPost2010Prop43
 90
        3
102
RTVSPost2010PropOp43
 70
     1
102
RTVSPost2010Prop44ColorIndex
 90
        5
102
RTVSPost2010Prop44ColorRGB
 90
      255
102
RTVSPost2010PropOp44
 70
     1
102
RTVSPost2010Prop45
280
     0
102
RTVSPost2010PropOp45
 70
     1
102
RTVSPost2010Prop46
 90
       50
102
RTVSPost2010PropOp46
 70
     1
102
RTVSPost2010Prop47
 90
       50
102
RTVSPost2010PropOp47
 70
     1
102
RTVSPost2010Prop48
 90
       50
102
RTVSPost2010PropOp48
 70
     1
102
RTVSPost2010Prop49
280
     0
102
RTVSPost2010PropOp49
 70
     1
102
RTVSPost2010Prop50
 90
       50
102
RTVSPost2010PropOp50
 70
     1
102
RTVSPost2010Prop51ColorIndex
 90
      256
102
RTVSPost2010Prop51ColorRGB
 90
-16777216
102
RTVSPost2010PropOp51
 70
     0
102
RTVSPost2010Prop52
140
1.0
102
RTVSPost2010PropOp52
 70
     0
102
RTVSPost2010Prop53
 90
        2
102
RTVSPost2010PropOp53
 70
     1
102
RTVSPost2010Prop54
  1
strokes_ogs.tif
102
RTVSPost2010PropOp54
 70
     1
102
RTVSPost2010Prop55
280
     0
102
RTVSPost2010PropOp55
 70
     1
102
RTVSPost2010Prop56
140
1.0
102
RTVSPost2010PropOp56
 70
     1
102
RTVSPost2010Prop57
140
1.0
102
RTVSPost2010PropOp57
 70
     1
  0
XRECORD
  5
C2F
102
{ACAD_REACTORS
330
C2E
102
}
330
C2E
100
AcDbXrecord
280
     1
102
RTVSPropertyOp0
 70
     0
102
RTVSPropertyOp1
 70
     0
102
RTVSPropertyOp2
 70
     0
102
RTVSPropertyOp3
 70
     0
102
RTVSPropertyOp4
 70
     0
102
RTVSPropertyOp5
 70
     0
102
RTVSPropertyOp6
 70
     0
102
RTVSPropertyOp7
 70
     0
102
RTVSPropertyOp8
 70
     0
102
RTVSPropertyOp9
 70
     0
102
RTVSPropertyOp10
 70
     0
102
RTVSPropertyOp11
 70
     0
102
RTVSPropertyOp12
 70
     0
102
RTVSPropertyOp13
 70
     0
102
RTVSPropertyOp14
 70
     2
102
RTVSPropertyOp15
 70
     0
102
RTVSPropertyOp16
 70
     0
102
RTVSPropertyOp17
 70
     0
102
RTVSPropertyOp18
 70
     0
102
RTVSPropertyOp19
 70
     0
102
RTVSPropertyOp20
 70
     0
102
RTVSPropertyOp21
 70
     0
102
RTVSPropertyOp22
 70
     0
102
RTVSPropertyOp23
 70
     0
102
RTVSPropertyOp24
 70
     0
102
RTVSPropertyOp25
 70
     0
102
RTVSPropertyOp26
 70
     0
102
RTVSPropertyOp27
 70
     0
102
RTVSPropertyOp28
 70
     0
102
RTVSPropertyOp29
 70
     0
102
RTVSPropertyOp30
 70
     0
102
RTVSPropertyOp31
 70
     0
102
RTVSPropertyOp32
 70
     0
102
RTVSPropertyOp33
 70
     0
102
RTVSPropertyOp34
 70
     0
102
RTVSPropertyOp35
 70
     0
102
RTVSPropertyOp36
 70
     0
102
RTVSPropertyOp37
 70
     0
102
RTVSPropertyOp38
 70
     0
102
RTVSPropertyOp39
 70
     0
102
RTVSPropertyOp40
 70
     0
102
RTVSPropertyOp41
 70
     0
102
RTVSPropertyOp42
 70
     0
102
RTVSPropertyOp43
 70
     0
102
RTVSPropertyOp44
 70
     0
102
RTVSPropertyOp45
 70
     0
102
RTVSPropertyOp46
 70
     0
102
RTVSPropertyOp47
 70
     0
102
RTVSPropertyOp48
 70
     0
102
RTVSPropertyOp49
 70
     0
102
RTVSPropertyOp50
 70
     0
102
RTVSPropertyOp51
 70
     0
102
RTVSPropertyOp52
 70
     0
102
RTVSPropertyOp53
 70
     0
102
RTVSPropertyOp54
 70
     0
102
RTVSPropertyOp55
 70
     0
102
RTVSPropertyOp56
 70
     0
102
RTVSPropertyOp57
 70
     0
102
RTVSPost2010Prop28
280
     0
102
RTVSPost2010PropOp28
 70
     0
102
RTVSPost2010Prop29
280
     1
102
RTVSPost2010PropOp29
 70
     0
102
RTVSPost2010Prop30
280
     1
102
RTVSPost2010PropOp30
 70
     0
102
RTVSPost2010Prop31
280
     0
102
RTVSPost2010PropOp31
 70
     0
102
RTVSPost2010Prop32
280
     0
102
RTVSPost2010PropOp32
 70
     0
102
RTVSPost2010Prop33
280
     0
102
RTVSPost2010PropOp33
 70
     0
102
RTVSPost2010Prop34
280
     0
102
RTVSPost2010PropOp34
 70
     0
102
RTVSPost2010Prop35
280
     0
102
RTVSPost2010PropOp35
 70
     0
102
RTVSPost2010Prop36
280
     0
102
RTVSPost2010PropOp36
 70
     0
102
RTVSPost2010Prop37
 90
       50
102
RTVSPost2010PropOp37
 70
     0
102
RTVSPost2010Prop38
140
0.0
102
RTVSPost2010PropOp38
 70
     0
102
RTVSPost2010Prop39
140
1.0
102
RTVSPost2010PropOp39
 70
     0
102
RTVSPost2010Prop40
 90
        0
102
RTVSPost2010PropOp40
 70
     0
102
RTVSPost2010Prop41ColorIndex
 90
       18
102
RTVSPost2010Prop41ColorRGB
 90
        0
102
RTVSPost2010PropOp41
 70
     0
102
RTVSPost2010Prop42
 90
       50
102
RTVSPost2010PropOp42
 70
     0
102
RTVSPost2010Prop43
 90
        3
102
RTVSPost2010PropOp43
 70
     0
102
RTVSPost2010Prop44ColorIndex
 90
        5
102
RTVSPost2010Prop44ColorRGB
 90
      255
102
RTVSPost2010PropOp44
 70
     0
102
RTVSPost2010Prop45
280
     0
102
RTVSPost2010PropOp45
 70
     0
102
RTVSPost2010Prop46
 90
       50
102
RTVSPost2010PropOp46
 70
     0
102
RTVSPost2010Prop47
 90
       50
102
RTVSPost2010PropOp47
 70
     0
102
RTVSPost2010Prop48
 90
       50
102
RTVSPost2010PropOp48
 70
     0
102
RTVSPost2010Prop49
280
     0
102
RTVSPost2010PropOp49
 70
     0
102
RTVSPost2010Prop50
 90
       50
102
RTVSPost2010PropOp50
 70
     0
102
RTVSPost2010Prop51ColorIndex
 90
      256
102
RTVSPost2010Prop51ColorRGB
 90
-16777216
102
RTVSPost2010PropOp51
 70
     0
102
RTVSPost2010Prop52
140
1.0
102
RTVSPost2010PropOp52
 70
     0
102
RTVSPost2010Prop53
 90
        2
102
RTVSPost2010PropOp53
 70
     0
102
RTVSPost2010Prop54
  1
strokes_ogs.tif
102
RTVSPost2010PropOp54
 70
     0
102
RTVSPost2010Prop55
280
     0
102
RTVSPost2010PropOp55
 70
     0
102
RTVSPost2010Prop56
140
1.0
102
RTVSPost2010PropOp56
 70
     0
102
RTVSPost2010Prop57
140
1.0
102
RTVSPost2010PropOp57
 70
     0
  0
XRECORD
  5
C1D
102
{ACAD_REACTORS
330
C1C
102
}
330
C1C
100
AcDbXrecord
280
     1
102
RTVSPropertyOp0
 70
     1
102
RTVSPropertyOp1
 70
     1
102
RTVSPropertyOp2
 70
     1
102
RTVSPropertyOp3
 70
     1
102
RTVSPropertyOp4
 70
     1
102
RTVSPropertyOp5
 70
     1
102
RTVSPropertyOp6
 70
     1
102
RTVSPropertyOp7
 70
     1
102
RTVSPropertyOp8
 70
     1
102
RTVSPropertyOp9
 70
     1
102
RTVSPropertyOp10
 70
     1
102
RTVSPropertyOp11
 70
     1
102
RTVSPropertyOp12
 70
     1
102
RTVSPropertyOp13
 70
     1
102
RTVSPropertyOp14
 70
     1
102
RTVSPropertyOp15
 70
     1
102
RTVSPropertyOp16
 70
     1
102
RTVSPropertyOp17
 70
     1
102
RTVSPropertyOp18
 70
     1
102
RTVSPropertyOp19
 70
     1
102
RTVSPropertyOp20
 70
     1
102
RTVSPropertyOp21
 70
     1
102
RTVSPropertyOp22
 70
     1
102
RTVSPropertyOp23
 70
     1
102
RTVSPropertyOp24
 70
     1
102
RTVSPropertyOp25
 70
     1
102
RTVSPropertyOp26
 70
     1
102
RTVSPropertyOp27
 70
     1
102
RTVSPropertyOp28
 70
     1
102
RTVSPropertyOp29
 70
     1
102
RTVSPropertyOp30
 70
     1
102
RTVSPropertyOp31
 70
     1
102
RTVSPropertyOp32
 70
     1
102
RTVSPropertyOp33
 70
     1
102
RTVSPropertyOp34
 70
     1
102
RTVSPropertyOp35
 70
     1
102
RTVSPropertyOp36
 70
     1
102
RTVSPropertyOp37
 70
     1
102
RTVSPropertyOp38
 70
     1
102
RTVSPropertyOp39
 70
     1
102
RTVSPropertyOp40
 70
     1
102
RTVSPropertyOp41
 70
     1
102
RTVSPropertyOp42
 70
     1
102
RTVSPropertyOp43
 70
     1
102
RTVSPropertyOp44
 70
     1
102
RTVSPropertyOp45
 70
     1
102
RTVSPropertyOp46
 70
     1
102
RTVSPropertyOp47
 70
     1
102
RTVSPropertyOp48
 70
     1
102
RTVSPropertyOp49
 70
     1
102
RTVSPropertyOp50
 70
     1
102
RTVSPropertyOp51
 70
     0
102
RTVSPropertyOp52
 70
     0
102
RTVSPropertyOp53
 70
     1
102
RTVSPropertyOp54
 70
     1
102
RTVSPropertyOp55
 70
     1
102
RTVSPropertyOp56
 70
     1
102
RTVSPropertyOp57
 70
     1
102
RTVSPost2010Prop28
280
     0
102
RTVSPost2010PropOp28
 70
     1
102
RTVSPost2010Prop29
280
     1
102
RTVSPost2010PropOp29
 70
     1
102
RTVSPost2010Prop30
280
     1
102
RTVSPost2010PropOp30
 70
     1
102
RTVSPost2010Prop31
280
     0
102
RTVSPost2010PropOp31
 70
     1
102
RTVSPost2010Prop32
280
     0
102
RTVSPost2010PropOp32
 70
     1
102
RTVSPost2010Prop33
280
     0
102
RTVSPost2010PropOp33
 70
     1
102
RTVSPost2010Prop34
280
     0
102
RTVSPost2010PropOp34
 70
     1
102
RTVSPost2010Prop35
280
     0
102
RTVSPost2010PropOp35
 70
     1
102
RTVSPost2010Prop36
280
     0
102
RTVSPost2010PropOp36
 70
     1
102
RTVSPost2010Prop37
 90
       50
102
RTVSPost2010PropOp37
 70
     1
102
RTVSPost2010Prop38
140
0.0
102
RTVSPost2010PropOp38
 70
     1
102
RTVSPost2010Prop39
140
1.0
102
RTVSPost2010PropOp39
 70
     1
102
RTVSPost2010Prop40
 90
        0
102
RTVSPost2010PropOp40
 70
     1
102
RTVSPost2010Prop41ColorIndex
 90
       18
102
RTVSPost2010Prop41ColorRGB
 90
        0
102
RTVSPost2010PropOp41
 70
     1
102
RTVSPost2010Prop42
 90
       50
102
RTVSPost2010PropOp42
 70
     1
102
RTVSPost2010Prop43
 90
        3
102
RTVSPost2010PropOp43
 70
     1
102
RTVSPost2010Prop44ColorIndex
 90
        5
102
RTVSPost2010Prop44ColorRGB
 90
      255
102
RTVSPost2010PropOp44
 70
     1
102
RTVSPost2010Prop45
280
     0
102
RTVSPost2010PropOp45
 70
     1
102
RTVSPost2010Prop46
 90
       50
102
RTVSPost2010PropOp46
 70
     1
102
RTVSPost2010Prop47
 90
       50
102
RTVSPost2010PropOp47
 70
     1
102
RTVSPost2010Prop48
 90
       50
102
RTVSPost2010PropOp48
 70
     1
102
RTVSPost2010Prop49
280
     0
102
RTVSPost2010PropOp49
 70
     1
102
RTVSPost2010Prop50
 90
       50
102
RTVSPost2010PropOp50
 70
     1
102
RTVSPost2010Prop51ColorIndex
 90
      256
102
RTVSPost2010Prop51ColorRGB
 90
-16777216
102
RTVSPost2010PropOp51
 70
     0
102
RTVSPost2010Prop52
140
1.0
102
RTVSPost2010PropOp52
 70
     0
102
RTVSPost2010Prop53
 90
        2
102
RTVSPost2010PropOp53
 70
     1
102
RTVSPost2010Prop54
  1
strokes_ogs.tif
102
RTVSPost2010PropOp54
 70
     1
102
RTVSPost2010Prop55
280
     0
102
RTVSPost2010PropOp55
 70
     1
102
RTVSPost2010Prop56
140
1.0
102
RTVSPost2010PropOp56
 70
     1
102
RTVSPost2010Prop57
140
1.0
102
RTVSPost2010PropOp57
 70
     1
  0
XRECORD
  5
C3B
102
{ACAD_REACTORS
330
C3A
102
}
330
C3A
100
AcDbXrecord
280
     1
102
RTVSPropertyOp0
 70
     1
102
RTVSPropertyOp1
 70
     1
102
RTVSPropertyOp2
 70
     1
102
RTVSPropertyOp3
 70
     1
102
RTVSPropertyOp4
 70
     1
102
RTVSPropertyOp5
 70
     1
102
RTVSPropertyOp6
 70
     1
102
RTVSPropertyOp7
 70
     1
102
RTVSPropertyOp8
 70
     1
102
RTVSPropertyOp9
 70
     1
102
RTVSPropertyOp10
 70
     1
102
RTVSPropertyOp11
 70
     1
102
RTVSPropertyOp12
 70
     1
102
RTVSPropertyOp13
 70
     1
102
RTVSPropertyOp14
 70
     1
102
RTVSPropertyOp15
 70
     1
102
RTVSPropertyOp16
 70
     1
102
RTVSPropertyOp17
 70
     1
102
RTVSPropertyOp18
 70
     1
102
RTVSPropertyOp19
 70
     1
102
RTVSPropertyOp20
 70
     1
102
RTVSPropertyOp21
 70
     1
102
RTVSPropertyOp22
 70
     1
102
RTVSPropertyOp23
 70
     1
102
RTVSPropertyOp24
 70
     1
102
RTVSPropertyOp25
 70
     1
102
RTVSPropertyOp26
 70
     1
102
RTVSPropertyOp27
 70
     1
102
RTVSPropertyOp28
 70
     1
102
RTVSPropertyOp29
 70
     1
102
RTVSPropertyOp30
 70
     1
102
RTVSPropertyOp31
 70
     1
102
RTVSPropertyOp32
 70
     1
102
RTVSPropertyOp33
 70
     1
102
RTVSPropertyOp34
 70
     1
102
RTVSPropertyOp35
 70
     1
102
RTVSPropertyOp36
 70
     1
102
RTVSPropertyOp37
 70
     1
102
RTVSPropertyOp38
 70
     1
102
RTVSPropertyOp39
 70
     1
102
RTVSPropertyOp40
 70
     1
102
RTVSPropertyOp41
 70
     1
102
RTVSPropertyOp42
 70
     1
102
RTVSPropertyOp43
 70
     1
102
RTVSPropertyOp44
 70
     1
102
RTVSPropertyOp45
 70
     1
102
RTVSPropertyOp46
 70
     1
102
RTVSPropertyOp47
 70
     1
102
RTVSPropertyOp48
 70
     1
102
RTVSPropertyOp49
 70
     1
102
RTVSPropertyOp50
 70
     1
102
RTVSPropertyOp51
 70
     0
102
RTVSPropertyOp52
 70
     0
102
RTVSPropertyOp53
 70
     1
102
RTVSPropertyOp54
 70
     1
102
RTVSPropertyOp55
 70
     1
102
RTVSPropertyOp56
 70
     1
102
RTVSPropertyOp57
 70
     1
102
RTVSPost2010Prop28
280
     0
102
RTVSPost2010PropOp28
 70
     1
102
RTVSPost2010Prop29
280
     1
102
RTVSPost2010PropOp29
 70
     1
102
RTVSPost2010Prop30
280
     1
102
RTVSPost2010PropOp30
 70
     1
102
RTVSPost2010Prop31
280
     0
102
RTVSPost2010PropOp31
 70
     1
102
RTVSPost2010Prop32
280
     0
102
RTVSPost2010PropOp32
 70
     1
102
RTVSPost2010Prop33
280
     0
102
RTVSPost2010PropOp33
 70
     1
102
RTVSPost2010Prop34
280
     0
102
RTVSPost2010PropOp34
 70
     1
102
RTVSPost2010Prop35
280
     0
102
RTVSPost2010PropOp35
 70
     1
102
RTVSPost2010Prop36
280
     0
102
RTVSPost2010PropOp36
 70
     1
102
RTVSPost2010Prop37
 90
       50
102
RTVSPost2010PropOp37
 70
     1
102
RTVSPost2010Prop38
140
0.0
102
RTVSPost2010PropOp38
 70
     1
102
RTVSPost2010Prop39
140
1.0
102
RTVSPost2010PropOp39
 70
     1
102
RTVSPost2010Prop40
 90
        0
102
RTVSPost2010PropOp40
 70
     1
102
RTVSPost2010Prop41ColorIndex
 90
       18
102
RTVSPost2010Prop41ColorRGB
 90
        0
102
RTVSPost2010PropOp41
 70
     1
102
RTVSPost2010Prop42
 90
       50
102
RTVSPost2010PropOp42
 70
     1
102
RTVSPost2010Prop43
 90
        3
102
RTVSPost2010PropOp43
 70
     1
102
RTVSPost2010Prop44ColorIndex
 90
        5
102
RTVSPost2010Prop44ColorRGB
 90
      255
102
RTVSPost2010PropOp44
 70
     1
102
RTVSPost2010Prop45
280
     0
102
RTVSPost2010PropOp45
 70
     1
102
RTVSPost2010Prop46
 90
       50
102
RTVSPost2010PropOp46
 70
     1
102
RTVSPost2010Prop47
 90
       50
102
RTVSPost2010PropOp47
 70
     1
102
RTVSPost2010Prop48
 90
       50
102
RTVSPost2010PropOp48
 70
     1
102
RTVSPost2010Prop49
280
     0
102
RTVSPost2010PropOp49
 70
     1
102
RTVSPost2010Prop50
 90
       50
102
RTVSPost2010PropOp50
 70
     1
102
RTVSPost2010Prop51ColorIndex
 90
      256
102
RTVSPost2010Prop51ColorRGB
 90
-16777216
102
RTVSPost2010PropOp51
 70
     0
102
RTVSPost2010Prop52
140
1.0
102
RTVSPost2010PropOp52
 70
     0
102
RTVSPost2010Prop53
 90
        2
102
RTVSPost2010PropOp53
 70
     1
102
RTVSPost2010Prop54
  1
strokes_ogs.tif
102
RTVSPost2010PropOp54
 70
     1
102
RTVSPost2010Prop55
280
     0
102
RTVSPost2010PropOp55
 70
     1
102
RTVSPost2010Prop56
140
1.0
102
RTVSPost2010PropOp56
 70
     1
102
RTVSPost2010Prop57
140
1.0
102
RTVSPost2010PropOp57
 70
     1
  0
XRECORD
  5
C39
102
{ACAD_REACTORS
330
C38
102
}
330
C38
100
AcDbXrecord
280
     1
102
RTVSPropertyOp0
 70
     1
102
RTVSPropertyOp1
 70
     1
102
RTVSPropertyOp2
 70
     1
102
RTVSPropertyOp3
 70
     1
102
RTVSPropertyOp4
 70
     1
102
RTVSPropertyOp5
 70
     1
102
RTVSPropertyOp6
 70
     1
102
RTVSPropertyOp7
 70
     1
102
RTVSPropertyOp8
 70
     1
102
RTVSPropertyOp9
 70
     1
102
RTVSPropertyOp10
 70
     1
102
RTVSPropertyOp11
 70
     1
102
RTVSPropertyOp12
 70
     1
102
RTVSPropertyOp13
 70
     1
102
RTVSPropertyOp14
 70
     1
102
RTVSPropertyOp15
 70
     1
102
RTVSPropertyOp16
 70
     1
102
RTVSPropertyOp17
 70
     1
102
RTVSPropertyOp18
 70
     1
102
RTVSPropertyOp19
 70
     1
102
RTVSPropertyOp20
 70
     1
102
RTVSPropertyOp21
 70
     1
102
RTVSPropertyOp22
 70
     1
102
RTVSPropertyOp23
 70
     1
102
RTVSPropertyOp24
 70
     1
102
RTVSPropertyOp25
 70
     1
102
RTVSPropertyOp26
 70
     1
102
RTVSPropertyOp27
 70
     1
102
RTVSPropertyOp28
 70
     1
102
RTVSPropertyOp29
 70
     1
102
RTVSPropertyOp30
 70
     1
102
RTVSPropertyOp31
 70
     1
102
RTVSPropertyOp32
 70
     1
102
RTVSPropertyOp33
 70
     1
102
RTVSPropertyOp34
 70
     1
102
RTVSPropertyOp35
 70
     1
102
RTVSPropertyOp36
 70
     1
102
RTVSPropertyOp37
 70
     1
102
RTVSPropertyOp38
 70
     1
102
RTVSPropertyOp39
 70
     1
102
RTVSPropertyOp40
 70
     1
102
RTVSPropertyOp41
 70
     1
102
RTVSPropertyOp42
 70
     1
102
RTVSPropertyOp43
 70
     1
102
RTVSPropertyOp44
 70
     1
102
RTVSPropertyOp45
 70
     1
102
RTVSPropertyOp46
 70
     1
102
RTVSPropertyOp47
 70
     1
102
RTVSPropertyOp48
 70
     1
102
RTVSPropertyOp49
 70
     1
102
RTVSPropertyOp50
 70
     1
102
RTVSPropertyOp51
 70
     0
102
RTVSPropertyOp52
 70
     0
102
RTVSPropertyOp53
 70
     1
102
RTVSPropertyOp54
 70
     1
102
RTVSPropertyOp55
 70
     1
102
RTVSPropertyOp56
 70
     1
102
RTVSPropertyOp57
 70
     1
102
RTVSPost2010Prop28
280
     0
102
RTVSPost2010PropOp28
 70
     1
102
RTVSPost2010Prop29
280
     1
102
RTVSPost2010PropOp29
 70
     1
102
RTVSPost2010Prop30
280
     1
102
RTVSPost2010PropOp30
 70
     1
102
RTVSPost2010Prop31
280
     0
102
RTVSPost2010PropOp31
 70
     1
102
RTVSPost2010Prop32
280
     0
102
RTVSPost2010PropOp32
 70
     1
102
RTVSPost2010Prop33
280
     0
102
RTVSPost2010PropOp33
 70
     1
102
RTVSPost2010Prop34
280
     0
102
RTVSPost2010PropOp34
 70
     1
102
RTVSPost2010Prop35
280
     0
102
RTVSPost2010PropOp35
 70
     1
102
RTVSPost2010Prop36
280
     0
102
RTVSPost2010PropOp36
 70
     1
102
RTVSPost2010Prop37
 90
       50
102
RTVSPost2010PropOp37
 70
     1
102
RTVSPost2010Prop38
140
0.0
102
RTVSPost2010PropOp38
 70
     1
102
RTVSPost2010Prop39
140
1.0
102
RTVSPost2010PropOp39
 70
     1
102
RTVSPost2010Prop40
 90
        0
102
RTVSPost2010PropOp40
 70
     1
102
RTVSPost2010Prop41ColorIndex
 90
       18
102
RTVSPost2010Prop41ColorRGB
 90
        0
102
RTVSPost2010PropOp41
 70
     1
102
RTVSPost2010Prop42
 90
       50
102
RTVSPost2010PropOp42
 70
     1
102
RTVSPost2010Prop43
 90
        3
102
RTVSPost2010PropOp43
 70
     1
102
RTVSPost2010Prop44ColorIndex
 90
        5
102
RTVSPost2010Prop44ColorRGB
 90
      255
102
RTVSPost2010PropOp44
 70
     1
102
RTVSPost2010Prop45
280
     0
102
RTVSPost2010PropOp45
 70
     1
102
RTVSPost2010Prop46
 90
       50
102
RTVSPost2010PropOp46
 70
     1
102
RTVSPost2010Prop47
 90
       50
102
RTVSPost2010PropOp47
 70
     1
102
RTVSPost2010Prop48
 90
       50
102
RTVSPost2010PropOp48
 70
     1
102
RTVSPost2010Prop49
280
     0
102
RTVSPost2010PropOp49
 70
     1
102
RTVSPost2010Prop50
 90
       50
102
RTVSPost2010PropOp50
 70
     1
102
RTVSPost2010Prop51ColorIndex
 90
      256
102
RTVSPost2010Prop51ColorRGB
 90
-16777216
102
RTVSPost2010PropOp51
 70
     0
102
RTVSPost2010Prop52
140
1.0
102
RTVSPost2010PropOp52
 70
     0
102
RTVSPost2010Prop53
 90
        2
102
RTVSPost2010PropOp53
 70
     1
102
RTVSPost2010Prop54
  1
strokes_ogs.tif
102
RTVSPost2010PropOp54
 70
     1
102
RTVSPost2010Prop55
280
     0
102
RTVSPost2010PropOp55
 70
     1
102
RTVSPost2010Prop56
140
1.0
102
RTVSPost2010PropOp56
 70
     1
102
RTVSPost2010Prop57
140
1.0
102
RTVSPost2010PropOp57
 70
     1
  0
XRECORD
  5
C33
102
{ACAD_REACTORS
330
C32
102
}
330
C32
100
AcDbXrecord
280
     1
102
RTVSPropertyOp0
 70
     1
102
RTVSPropertyOp1
 70
     1
102
RTVSPropertyOp2
 70
     1
102
RTVSPropertyOp3
 70
     1
102
RTVSPropertyOp4
 70
     1
102
RTVSPropertyOp5
 70
     1
102
RTVSPropertyOp6
 70
     1
102
RTVSPropertyOp7
 70
     1
102
RTVSPropertyOp8
 70
     1
102
RTVSPropertyOp9
 70
     1
102
RTVSPropertyOp10
 70
     1
102
RTVSPropertyOp11
 70
     1
102
RTVSPropertyOp12
 70
     1
102
RTVSPropertyOp13
 70
     1
102
RTVSPropertyOp14
 70
     1
102
RTVSPropertyOp15
 70
     1
102
RTVSPropertyOp16
 70
     1
102
RTVSPropertyOp17
 70
     1
102
RTVSPropertyOp18
 70
     1
102
RTVSPropertyOp19
 70
     1
102
RTVSPropertyOp20
 70
     1
102
RTVSPropertyOp21
 70
     1
102
RTVSPropertyOp22
 70
     1
102
RTVSPropertyOp23
 70
     1
102
RTVSPropertyOp24
 70
     1
102
RTVSPropertyOp25
 70
     1
102
RTVSPropertyOp26
 70
     1
102
RTVSPropertyOp27
 70
     1
102
RTVSPropertyOp28
 70
     1
102
RTVSPropertyOp29
 70
     1
102
RTVSPropertyOp30
 70
     1
102
RTVSPropertyOp31
 70
     1
102
RTVSPropertyOp32
 70
     1
102
RTVSPropertyOp33
 70
     1
102
RTVSPropertyOp34
 70
     1
102
RTVSPropertyOp35
 70
     1
102
RTVSPropertyOp36
 70
     1
102
RTVSPropertyOp37
 70
     1
102
RTVSPropertyOp38
 70
     1
102
RTVSPropertyOp39
 70
     1
102
RTVSPropertyOp40
 70
     1
102
RTVSPropertyOp41
 70
     1
102
RTVSPropertyOp42
 70
     1
102
RTVSPropertyOp43
 70
     1
102
RTVSPropertyOp44
 70
     1
102
RTVSPropertyOp45
 70
     1
102
RTVSPropertyOp46
 70
     1
102
RTVSPropertyOp47
 70
     1
102
RTVSPropertyOp48
 70
     1
102
RTVSPropertyOp49
 70
     1
102
RTVSPropertyOp50
 70
     1
102
RTVSPropertyOp51
 70
     0
102
RTVSPropertyOp52
 70
     0
102
RTVSPropertyOp53
 70
     1
102
RTVSPropertyOp54
 70
     1
102
RTVSPropertyOp55
 70
     1
102
RTVSPropertyOp56
 70
     1
102
RTVSPropertyOp57
 70
     1
102
RTVSPost2010Prop28
280
     0
102
RTVSPost2010PropOp28
 70
     1
102
RTVSPost2010Prop29
280
     1
102
RTVSPost2010PropOp29
 70
     1
102
RTVSPost2010Prop30
280
     1
102
RTVSPost2010PropOp30
 70
     1
102
RTVSPost2010Prop31
280
     0
102
RTVSPost2010PropOp31
 70
     1
102
RTVSPost2010Prop32
280
     0
102
RTVSPost2010PropOp32
 70
     1
102
RTVSPost2010Prop33
280
     0
102
RTVSPost2010PropOp33
 70
     1
102
RTVSPost2010Prop34
280
     0
102
RTVSPost2010PropOp34
 70
     1
102
RTVSPost2010Prop35
280
     0
102
RTVSPost2010PropOp35
 70
     1
102
RTVSPost2010Prop36
280
     0
102
RTVSPost2010PropOp36
 70
     1
102
RTVSPost2010Prop37
 90
       50
102
RTVSPost2010PropOp37
 70
     1
102
RTVSPost2010Prop38
140
0.0
102
RTVSPost2010PropOp38
 70
     1
102
RTVSPost2010Prop39
140
1.0
102
RTVSPost2010PropOp39
 70
     1
102
RTVSPost2010Prop40
 90
        0
102
RTVSPost2010PropOp40
 70
     1
102
RTVSPost2010Prop41ColorIndex
 90
       18
102
RTVSPost2010Prop41ColorRGB
 90
        0
102
RTVSPost2010PropOp41
 70
     1
102
RTVSPost2010Prop42
 90
       50
102
RTVSPost2010PropOp42
 70
     1
102
RTVSPost2010Prop43
 90
        3
102
RTVSPost2010PropOp43
 70
     1
102
RTVSPost2010Prop44ColorIndex
 90
        5
102
RTVSPost2010Prop44ColorRGB
 90
      255
102
RTVSPost2010PropOp44
 70
     1
102
RTVSPost2010Prop45
280
     0
102
RTVSPost2010PropOp45
 70
     1
102
RTVSPost2010Prop46
 90
       50
102
RTVSPost2010PropOp46
 70
     1
102
RTVSPost2010Prop47
 90
       50
102
RTVSPost2010PropOp47
 70
     1
102
RTVSPost2010Prop48
 90
       50
102
RTVSPost2010PropOp48
 70
     1
102
RTVSPost2010Prop49
280
     0
102
RTVSPost2010PropOp49
 70
     1
102
RTVSPost2010Prop50
 90
       50
102
RTVSPost2010PropOp50
 70
     1
102
RTVSPost2010Prop51ColorIndex
 90
      256
102
RTVSPost2010Prop51ColorRGB
 90
-16777216
102
RTVSPost2010PropOp51
 70
     0
102
RTVSPost2010Prop52
140
1.0
102
RTVSPost2010PropOp52
 70
     0
102
RTVSPost2010Prop53
 90
        2
102
RTVSPost2010PropOp53
 70
     1
102
RTVSPost2010Prop54
  1
strokes_ogs.tif
102
RTVSPost2010PropOp54
 70
     1
102
RTVSPost2010Prop55
280
     0
102
RTVSPost2010PropOp55
 70
     1
102
RTVSPost2010Prop56
140
1.0
102
RTVSPost2010PropOp56
 70
     1
102
RTVSPost2010Prop57
140
1.0
102
RTVSPost2010PropOp57
 70
     1
  0
XRECORD
  5
C35
102
{ACAD_REACTORS
330
C34
102
}
330
C34
100
AcDbXrecord
280
     1
102
RTVSPropertyOp0
 70
     1
102
RTVSPropertyOp1
 70
     1
102
RTVSPropertyOp2
 70
     1
102
RTVSPropertyOp3
 70
     1
102
RTVSPropertyOp4
 70
     1
102
RTVSPropertyOp5
 70
     1
102
RTVSPropertyOp6
 70
     1
102
RTVSPropertyOp7
 70
     1
102
RTVSPropertyOp8
 70
     1
102
RTVSPropertyOp9
 70
     1
102
RTVSPropertyOp10
 70
     1
102
RTVSPropertyOp11
 70
     1
102
RTVSPropertyOp12
 70
     1
102
RTVSPropertyOp13
 70
     1
102
RTVSPropertyOp14
 70
     1
102
RTVSPropertyOp15
 70
     1
102
RTVSPropertyOp16
 70
     1
102
RTVSPropertyOp17
 70
     1
102
RTVSPropertyOp18
 70
     1
102
RTVSPropertyOp19
 70
     1
102
RTVSPropertyOp20
 70
     1
102
RTVSPropertyOp21
 70
     1
102
RTVSPropertyOp22
 70
     1
102
RTVSPropertyOp23
 70
     1
102
RTVSPropertyOp24
 70
     1
102
RTVSPropertyOp25
 70
     1
102
RTVSPropertyOp26
 70
     1
102
RTVSPropertyOp27
 70
     1
102
RTVSPropertyOp28
 70
     1
102
RTVSPropertyOp29
 70
     1
102
RTVSPropertyOp30
 70
     1
102
RTVSPropertyOp31
 70
     1
102
RTVSPropertyOp32
 70
     1
102
RTVSPropertyOp33
 70
     1
102
RTVSPropertyOp34
 70
     1
102
RTVSPropertyOp35
 70
     1
102
RTVSPropertyOp36
 70
     1
102
RTVSPropertyOp37
 70
     1
102
RTVSPropertyOp38
 70
     1
102
RTVSPropertyOp39
 70
     1
102
RTVSPropertyOp40
 70
     1
102
RTVSPropertyOp41
 70
     1
102
RTVSPropertyOp42
 70
     1
102
RTVSPropertyOp43
 70
     1
102
RTVSPropertyOp44
 70
     1
102
RTVSPropertyOp45
 70
     1
102
RTVSPropertyOp46
 70
     1
102
RTVSPropertyOp47
 70
     1
102
RTVSPropertyOp48
 70
     1
102
RTVSPropertyOp49
 70
     1
102
RTVSPropertyOp50
 70
     1
102
RTVSPropertyOp51
 70
     0
102
RTVSPropertyOp52
 70
     0
102
RTVSPropertyOp53
 70
     1
102
RTVSPropertyOp54
 70
     1
102
RTVSPropertyOp55
 70
     1
102
RTVSPropertyOp56
 70
     1
102
RTVSPropertyOp57
 70
     1
102
RTVSPost2010Prop28
280
     0
102
RTVSPost2010PropOp28
 70
     1
102
RTVSPost2010Prop29
280
     1
102
RTVSPost2010PropOp29
 70
     1
102
RTVSPost2010Prop30
280
     1
102
RTVSPost2010PropOp30
 70
     1
102
RTVSPost2010Prop31
280
     0
102
RTVSPost2010PropOp31
 70
     1
102
RTVSPost2010Prop32
280
     0
102
RTVSPost2010PropOp32
 70
     1
102
RTVSPost2010Prop33
280
     0
102
RTVSPost2010PropOp33
 70
     1
102
RTVSPost2010Prop34
280
     0
102
RTVSPost2010PropOp34
 70
     1
102
RTVSPost2010Prop35
280
     0
102
RTVSPost2010PropOp35
 70
     1
102
RTVSPost2010Prop36
280
     0
102
RTVSPost2010PropOp36
 70
     1
102
RTVSPost2010Prop37
 90
       50
102
RTVSPost2010PropOp37
 70
     1
102
RTVSPost2010Prop38
140
0.0
102
RTVSPost2010PropOp38
 70
     1
102
RTVSPost2010Prop39
140
1.0
102
RTVSPost2010PropOp39
 70
     1
102
RTVSPost2010Prop40
 90
        0
102
RTVSPost2010PropOp40
 70
     1
102
RTVSPost2010Prop41ColorIndex
 90
       18
102
RTVSPost2010Prop41ColorRGB
 90
        0
102
RTVSPost2010PropOp41
 70
     1
102
RTVSPost2010Prop42
 90
       50
102
RTVSPost2010PropOp42
 70
     1
102
RTVSPost2010Prop43
 90
        3
102
RTVSPost2010PropOp43
 70
     1
102
RTVSPost2010Prop44ColorIndex
 90
        5
102
RTVSPost2010Prop44ColorRGB
 90
      255
102
RTVSPost2010PropOp44
 70
     1
102
RTVSPost2010Prop45
280
     0
102
RTVSPost2010PropOp45
 70
     1
102
RTVSPost2010Prop46
 90
       50
102
RTVSPost2010PropOp46
 70
     1
102
RTVSPost2010Prop47
 90
       50
102
RTVSPost2010PropOp47
 70
     1
102
RTVSPost2010Prop48
 90
       50
102
RTVSPost2010PropOp48
 70
     1
102
RTVSPost2010Prop49
280
     0
102
RTVSPost2010PropOp49
 70
     1
102
RTVSPost2010Prop50
 90
       50
102
RTVSPost2010PropOp50
 70
     1
102
RTVSPost2010Prop51ColorIndex
 90
      256
102
RTVSPost2010Prop51ColorRGB
 90
-16777216
102
RTVSPost2010PropOp51
 70
     0
102
RTVSPost2010Prop52
140
1.0
102
RTVSPost2010PropOp52
 70
     0
102
RTVSPost2010Prop53
 90
        2
102
RTVSPost2010PropOp53
 70
     1
102
RTVSPost2010Prop54
  1
strokes_ogs.tif
102
RTVSPost2010PropOp54
 70
     1
102
RTVSPost2010Prop55
280
     0
102
RTVSPost2010PropOp55
 70
     1
102
RTVSPost2010Prop56
140
1.0
102
RTVSPost2010PropOp56
 70
     1
102
RTVSPost2010Prop57
140
1.0
102
RTVSPost2010PropOp57
 70
     1
  0
XRECORD
  5
C25
102
{ACAD_REACTORS
330
C24
102
}
330
C24
100
AcDbXrecord
280
     1
102
RTVSPropertyOp0
 70
     1
102
RTVSPropertyOp1
 70
     1
102
RTVSPropertyOp2
 70
     1
102
RTVSPropertyOp3
 70
     1
102
RTVSPropertyOp4
 70
     1
102
RTVSPropertyOp5
 70
     1
102
RTVSPropertyOp6
 70
     1
102
RTVSPropertyOp7
 70
     1
102
RTVSPropertyOp8
 70
     1
102
RTVSPropertyOp9
 70
     1
102
RTVSPropertyOp10
 70
     1
102
RTVSPropertyOp11
 70
     1
102
RTVSPropertyOp12
 70
     1
102
RTVSPropertyOp13
 70
     1
102
RTVSPropertyOp14
 70
     1
102
RTVSPropertyOp15
 70
     1
102
RTVSPropertyOp16
 70
     1
102
RTVSPropertyOp17
 70
     1
102
RTVSPropertyOp18
 70
     1
102
RTVSPropertyOp19
 70
     1
102
RTVSPropertyOp20
 70
     1
102
RTVSPropertyOp21
 70
     1
102
RTVSPropertyOp22
 70
     1
102
RTVSPropertyOp23
 70
     1
102
RTVSPropertyOp24
 70
     1
102
RTVSPropertyOp25
 70
     1
102
RTVSPropertyOp26
 70
     1
102
RTVSPropertyOp27
 70
     1
102
RTVSPropertyOp28
 70
     1
102
RTVSPropertyOp29
 70
     1
102
RTVSPropertyOp30
 70
     1
102
RTVSPropertyOp31
 70
     1
102
RTVSPropertyOp32
 70
     1
102
RTVSPropertyOp33
 70
     1
102
RTVSPropertyOp34
 70
     1
102
RTVSPropertyOp35
 70
     1
102
RTVSPropertyOp36
 70
     1
102
RTVSPropertyOp37
 70
     1
102
RTVSPropertyOp38
 70
     1
102
RTVSPropertyOp39
 70
     1
102
RTVSPropertyOp40
 70
     1
102
RTVSPropertyOp41
 70
     1
102
RTVSPropertyOp42
 70
     1
102
RTVSPropertyOp43
 70
     1
102
RTVSPropertyOp44
 70
     1
102
RTVSPropertyOp45
 70
     1
102
RTVSPropertyOp46
 70
     1
102
RTVSPropertyOp47
 70
     1
102
RTVSPropertyOp48
 70
     1
102
RTVSPropertyOp49
 70
     1
102
RTVSPropertyOp50
 70
     1
102
RTVSPropertyOp51
 70
     0
102
RTVSPropertyOp52
 70
     0
102
RTVSPropertyOp53
 70
     1
102
RTVSPropertyOp54
 70
     1
102
RTVSPropertyOp55
 70
     1
102
RTVSPropertyOp56
 70
     1
102
RTVSPropertyOp57
 70
     1
102
RTVSPost2010Prop28
280
     0
102
RTVSPost2010PropOp28
 70
     1
102
RTVSPost2010Prop29
280
     1
102
RTVSPost2010PropOp29
 70
     1
102
RTVSPost2010Prop30
280
     1
102
RTVSPost2010PropOp30
 70
     1
102
RTVSPost2010Prop31
280
     0
102
RTVSPost2010PropOp31
 70
     1
102
RTVSPost2010Prop32
280
     0
102
RTVSPost2010PropOp32
 70
     1
102
RTVSPost2010Prop33
280
     0
102
RTVSPost2010PropOp33
 70
     1
102
RTVSPost2010Prop34
280
     0
102
RTVSPost2010PropOp34
 70
     1
102
RTVSPost2010Prop35
280
     0
102
RTVSPost2010PropOp35
 70
     1
102
RTVSPost2010Prop36
280
     0
102
RTVSPost2010PropOp36
 70
     1
102
RTVSPost2010Prop37
 90
       50
102
RTVSPost2010PropOp37
 70
     1
102
RTVSPost2010Prop38
140
0.0
102
RTVSPost2010PropOp38
 70
     1
102
RTVSPost2010Prop39
140
1.0
102
RTVSPost2010PropOp39
 70
     1
102
RTVSPost2010Prop40
 90
        0
102
RTVSPost2010PropOp40
 70
     1
102
RTVSPost2010Prop41ColorIndex
 90
       18
102
RTVSPost2010Prop41ColorRGB
 90
        0
102
RTVSPost2010PropOp41
 70
     1
102
RTVSPost2010Prop42
 90
       50
102
RTVSPost2010PropOp42
 70
     1
102
RTVSPost2010Prop43
 90
        3
102
RTVSPost2010PropOp43
 70
     1
102
RTVSPost2010Prop44ColorIndex
 90
        5
102
RTVSPost2010Prop44ColorRGB
 90
      255
102
RTVSPost2010PropOp44
 70
     1
102
RTVSPost2010Prop45
280
     0
102
RTVSPost2010PropOp45
 70
     1
102
RTVSPost2010Prop46
 90
       50
102
RTVSPost2010PropOp46
 70
     1
102
RTVSPost2010Prop47
 90
       50
102
RTVSPost2010PropOp47
 70
     1
102
RTVSPost2010Prop48
 90
       50
102
RTVSPost2010PropOp48
 70
     1
102
RTVSPost2010Prop49
280
     0
102
RTVSPost2010PropOp49
 70
     1
102
RTVSPost2010Prop50
 90
       50
102
RTVSPost2010PropOp50
 70
     1
102
RTVSPost2010Prop51ColorIndex
 90
      256
102
RTVSPost2010Prop51ColorRGB
 90
-16777216
102
RTVSPost2010PropOp51
 70
     0
102
RTVSPost2010Prop52
140
1.0
102
RTVSPost2010PropOp52
 70
     0
102
RTVSPost2010Prop53
 90
        2
102
RTVSPost2010PropOp53
 70
     1
102
RTVSPost2010Prop54
  1
strokes_ogs.tif
102
RTVSPost2010PropOp54
 70
     1
102
RTVSPost2010Prop55
280
     0
102
RTVSPost2010PropOp55
 70
     1
102
RTVSPost2010Prop56
140
1.0
102
RTVSPost2010PropOp56
 70
     1
102
RTVSPost2010Prop57
140
1.0
102
RTVSPost2010PropOp57
 70
     1
  0
XRECORD
  5
C17
102
{ACAD_REACTORS
330
C16
102
}
330
C16
100
AcDbXrecord
280
     1
102
RTVSPropertyOp0
 70
     1
102
RTVSPropertyOp1
 70
     1
102
RTVSPropertyOp2
 70
     1
102
RTVSPropertyOp3
 70
     1
102
RTVSPropertyOp4
 70
     1
102
RTVSPropertyOp5
 70
     1
102
RTVSPropertyOp6
 70
     1
102
RTVSPropertyOp7
 70
     1
102
RTVSPropertyOp8
 70
     1
102
RTVSPropertyOp9
 70
     1
102
RTVSPropertyOp10
 70
     1
102
RTVSPropertyOp11
 70
     1
102
RTVSPropertyOp12
 70
     1
102
RTVSPropertyOp13
 70
     1
102
RTVSPropertyOp14
 70
     1
102
RTVSPropertyOp15
 70
     1
102
RTVSPropertyOp16
 70
     1
102
RTVSPropertyOp17
 70
     1
102
RTVSPropertyOp18
 70
     1
102
RTVSPropertyOp19
 70
     1
102
RTVSPropertyOp20
 70
     1
102
RTVSPropertyOp21
 70
     1
102
RTVSPropertyOp22
 70
     1
102
RTVSPropertyOp23
 70
     1
102
RTVSPropertyOp24
 70
     1
102
RTVSPropertyOp25
 70
     1
102
RTVSPropertyOp26
 70
     1
102
RTVSPropertyOp27
 70
     1
102
RTVSPropertyOp28
 70
     1
102
RTVSPropertyOp29
 70
     1
102
RTVSPropertyOp30
 70
     1
102
RTVSPropertyOp31
 70
     1
102
RTVSPropertyOp32
 70
     1
102
RTVSPropertyOp33
 70
     1
102
RTVSPropertyOp34
 70
     1
102
RTVSPropertyOp35
 70
     1
102
RTVSPropertyOp36
 70
     1
102
RTVSPropertyOp37
 70
     1
102
RTVSPropertyOp38
 70
     1
102
RTVSPropertyOp39
 70
     1
102
RTVSPropertyOp40
 70
     1
102
RTVSPropertyOp41
 70
     1
102
RTVSPropertyOp42
 70
     1
102
RTVSPropertyOp43
 70
     1
102
RTVSPropertyOp44
 70
     1
102
RTVSPropertyOp45
 70
     1
102
RTVSPropertyOp46
 70
     1
102
RTVSPropertyOp47
 70
     1
102
RTVSPropertyOp48
 70
     1
102
RTVSPropertyOp49
 70
     1
102
RTVSPropertyOp50
 70
     1
102
RTVSPropertyOp51
 70
     0
102
RTVSPropertyOp52
 70
     0
102
RTVSPropertyOp53
 70
     1
102
RTVSPropertyOp54
 70
     1
102
RTVSPropertyOp55
 70
     1
102
RTVSPropertyOp56
 70
     1
102
RTVSPropertyOp57
 70
     1
102
RTVSPost2010Prop28
280
     0
102
RTVSPost2010PropOp28
 70
     1
102
RTVSPost2010Prop29
280
     1
102
RTVSPost2010PropOp29
 70
     1
102
RTVSPost2010Prop30
280
     1
102
RTVSPost2010PropOp30
 70
     1
102
RTVSPost2010Prop31
280
     0
102
RTVSPost2010PropOp31
 70
     1
102
RTVSPost2010Prop32
280
     0
102
RTVSPost2010PropOp32
 70
     1
102
RTVSPost2010Prop33
280
     0
102
RTVSPost2010PropOp33
 70
     1
102
RTVSPost2010Prop34
280
     0
102
RTVSPost2010PropOp34
 70
     1
102
RTVSPost2010Prop35
280
     0
102
RTVSPost2010PropOp35
 70
     1
102
RTVSPost2010Prop36
280
     0
102
RTVSPost2010PropOp36
 70
     1
102
RTVSPost2010Prop37
 90
       50
102
RTVSPost2010PropOp37
 70
     1
102
RTVSPost2010Prop38
140
0.0
102
RTVSPost2010PropOp38
 70
     1
102
RTVSPost2010Prop39
140
1.0
102
RTVSPost2010PropOp39
 70
     1
102
RTVSPost2010Prop40
 90
        0
102
RTVSPost2010PropOp40
 70
     1
102
RTVSPost2010Prop41ColorIndex
 90
       18
102
RTVSPost2010Prop41ColorRGB
 90
        0
102
RTVSPost2010PropOp41
 70
     1
102
RTVSPost2010Prop42
 90
       50
102
RTVSPost2010PropOp42
 70
     1
102
RTVSPost2010Prop43
 90
        3
102
RTVSPost2010PropOp43
 70
     1
102
RTVSPost2010Prop44ColorIndex
 90
        5
102
RTVSPost2010Prop44ColorRGB
 90
      255
102
RTVSPost2010PropOp44
 70
     1
102
RTVSPost2010Prop45
280
     0
102
RTVSPost2010PropOp45
 70
     1
102
RTVSPost2010Prop46
 90
       50
102
RTVSPost2010PropOp46
 70
     1
102
RTVSPost2010Prop47
 90
       50
102
RTVSPost2010PropOp47
 70
     1
102
RTVSPost2010Prop48
 90
       50
102
RTVSPost2010PropOp48
 70
     1
102
RTVSPost2010Prop49
280
     0
102
RTVSPost2010PropOp49
 70
     1
102
RTVSPost2010Prop50
 90
       50
102
RTVSPost2010PropOp50
 70
     1
102
RTVSPost2010Prop51ColorIndex
 90
      256
102
RTVSPost2010Prop51ColorRGB
 90
-16777216
102
RTVSPost2010PropOp51
 70
     0
102
RTVSPost2010Prop52
140
1.0
102
RTVSPost2010PropOp52
 70
     0
102
RTVSPost2010Prop53
 90
        2
102
RTVSPost2010PropOp53
 70
     1
102
RTVSPost2010Prop54
  1
strokes_ogs.tif
102
RTVSPost2010PropOp54
 70
     1
102
RTVSPost2010Prop55
280
     0
102
RTVSPost2010PropOp55
 70
     1
102
RTVSPost2010Prop56
140
1.0
102
RTVSPost2010PropOp56
 70
     1
102
RTVSPost2010Prop57
140
1.0
102
RTVSPost2010PropOp57
 70
     1
  0
XRECORD
  5
C37
102
{ACAD_REACTORS
330
C36
102
}
330
C36
100
AcDbXrecord
280
     1
102
RTVSPropertyOp0
 70
     1
102
RTVSPropertyOp1
 70
     1
102
RTVSPropertyOp2
 70
     1
102
RTVSPropertyOp3
 70
     1
102
RTVSPropertyOp4
 70
     1
102
RTVSPropertyOp5
 70
     1
102
RTVSPropertyOp6
 70
     1
102
RTVSPropertyOp7
 70
     1
102
RTVSPropertyOp8
 70
     1
102
RTVSPropertyOp9
 70
     1
102
RTVSPropertyOp10
 70
     1
102
RTVSPropertyOp11
 70
     1
102
RTVSPropertyOp12
 70
     1
102
RTVSPropertyOp13
 70
     1
102
RTVSPropertyOp14
 70
     1
102
RTVSPropertyOp15
 70
     1
102
RTVSPropertyOp16
 70
     1
102
RTVSPropertyOp17
 70
     1
102
RTVSPropertyOp18
 70
     1
102
RTVSPropertyOp19
 70
     1
102
RTVSPropertyOp20
 70
     1
102
RTVSPropertyOp21
 70
     1
102
RTVSPropertyOp22
 70
     1
102
RTVSPropertyOp23
 70
     1
102
RTVSPropertyOp24
 70
     1
102
RTVSPropertyOp25
 70
     1
102
RTVSPropertyOp26
 70
     1
102
RTVSPropertyOp27
 70
     1
102
RTVSPropertyOp28
 70
     1
102
RTVSPropertyOp29
 70
     1
102
RTVSPropertyOp30
 70
     1
102
RTVSPropertyOp31
 70
     1
102
RTVSPropertyOp32
 70
     1
102
RTVSPropertyOp33
 70
     1
102
RTVSPropertyOp34
 70
     1
102
RTVSPropertyOp35
 70
     1
102
RTVSPropertyOp36
 70
     1
102
RTVSPropertyOp37
 70
     1
102
RTVSPropertyOp38
 70
     1
102
RTVSPropertyOp39
 70
     1
102
RTVSPropertyOp40
 70
     1
102
RTVSPropertyOp41
 70
     1
102
RTVSPropertyOp42
 70
     1
102
RTVSPropertyOp43
 70
     1
102
RTVSPropertyOp44
 70
     1
102
RTVSPropertyOp45
 70
     1
102
RTVSPropertyOp46
 70
     1
102
RTVSPropertyOp47
 70
     1
102
RTVSPropertyOp48
 70
     1
102
RTVSPropertyOp49
 70
     1
102
RTVSPropertyOp50
 70
     1
102
RTVSPropertyOp51
 70
     0
102
RTVSPropertyOp52
 70
     0
102
RTVSPropertyOp53
 70
     1
102
RTVSPropertyOp54
 70
     1
102
RTVSPropertyOp55
 70
     1
102
RTVSPropertyOp56
 70
     1
102
RTVSPropertyOp57
 70
     1
102
RTVSPost2010Prop28
280
     0
102
RTVSPost2010PropOp28
 70
     1
102
RTVSPost2010Prop29
280
     1
102
RTVSPost2010PropOp29
 70
     1
102
RTVSPost2010Prop30
280
     1
102
RTVSPost2010PropOp30
 70
     1
102
RTVSPost2010Prop31
280
     0
102
RTVSPost2010PropOp31
 70
     1
102
RTVSPost2010Prop32
280
     0
102
RTVSPost2010PropOp32
 70
     1
102
RTVSPost2010Prop33
280
     0
102
RTVSPost2010PropOp33
 70
     1
102
RTVSPost2010Prop34
280
     0
102
RTVSPost2010PropOp34
 70
     1
102
RTVSPost2010Prop35
280
     0
102
RTVSPost2010PropOp35
 70
     1
102
RTVSPost2010Prop36
280
     0
102
RTVSPost2010PropOp36
 70
     1
102
RTVSPost2010Prop37
 90
       50
102
RTVSPost2010PropOp37
 70
     1
102
RTVSPost2010Prop38
140
0.0
102
RTVSPost2010PropOp38
 70
     1
102
RTVSPost2010Prop39
140
1.0
102
RTVSPost2010PropOp39
 70
     1
102
RTVSPost2010Prop40
 90
        0
102
RTVSPost2010PropOp40
 70
     1
102
RTVSPost2010Prop41ColorIndex
 90
       18
102
RTVSPost2010Prop41ColorRGB
 90
        0
102
RTVSPost2010PropOp41
 70
     1
102
RTVSPost2010Prop42
 90
       50
102
RTVSPost2010PropOp42
 70
     1
102
RTVSPost2010Prop43
 90
        3
102
RTVSPost2010PropOp43
 70
     1
102
RTVSPost2010Prop44ColorIndex
 90
        5
102
RTVSPost2010Prop44ColorRGB
 90
      255
102
RTVSPost2010PropOp44
 70
     1
102
RTVSPost2010Prop45
280
     0
102
RTVSPost2010PropOp45
 70
     1
102
RTVSPost2010Prop46
 90
       50
102
RTVSPost2010PropOp46
 70
     1
102
RTVSPost2010Prop47
 90
       50
102
RTVSPost2010PropOp47
 70
     1
102
RTVSPost2010Prop48
 90
       50
102
RTVSPost2010PropOp48
 70
     1
102
RTVSPost2010Prop49
280
     0
102
RTVSPost2010PropOp49
 70
     1
102
RTVSPost2010Prop50
 90
       50
102
RTVSPost2010PropOp50
 70
     1
102
RTVSPost2010Prop51ColorIndex
 90
      256
102
RTVSPost2010Prop51ColorRGB
 90
-16777216
102
RTVSPost2010PropOp51
 70
     0
102
RTVSPost2010Prop52
140
1.0
102
RTVSPost2010PropOp52
 70
     0
102
RTVSPost2010Prop53
 90
        2
102
RTVSPost2010PropOp53
 70
     1
102
RTVSPost2010Prop54
  1
strokes_ogs.tif
102
RTVSPost2010PropOp54
 70
     1
102
RTVSPost2010Prop55
280
     0
102
RTVSPost2010PropOp55
 70
     1
102
RTVSPost2010Prop56
140
1.0
102
RTVSPost2010PropOp56
 70
     1
102
RTVSPost2010Prop57
140
1.0
102
RTVSPost2010PropOp57
 70
     1
  0
ENDSEC
  0
EOF
