  0
SECTION
  2
HEADER
  9
$ACADVER
  1
AC1021
  9
$ACADMAINTVER
 70
    25
  9
$DWGCODEPAGE
  3
ANSI_1250
  9
$INSBASE
 10
0.0
 20
0.0
 30
0.0
  9
$EXTMIN
 10
-70.9053
 20
-111.835
 30
0.0
  9
$EXTMAX
 10
71.0041
 20
97.88
 30
0.0
  9
$LIMMIN
 10
0.0
 20
0.0
  9
$LIMMAX
 10
12.0
 20
9.0
  9
$ORTHOMODE
 70
     0
  9
$REGENMODE
 70
     1
  9
$FILLMODE
 70
     1
  9
$QTEXTMODE
 70
     0
  9
$MIRRTEXT
 70
     1
  9
$LTSCALE
 40
1.0
  9
$ATTMODE
 70
     1
  9
$TEXTSIZE
 40
0.2
  9
$TRACEWID
 40
0.05
  9
$TEXTSTYLE
  7
Standard
  9
$CLAYER
  8
0
  9
$CELTYPE
  6
ByLayer
  9
$CECOLOR
 62
   256
  9
$CELTSCALE
 40
1.0
  9
$DISPSILH
 70
     0
  9
$DIMSCALE
 40
1.0
  9
$DIMASZ
 40
0.18
  9
$DIMEXO
 40
0.0625
  9
$DIMDLI
 40
0.38
  9
$DIMRND
 40
0.0
  9
$DIMDLE
 40
0.0
  9
$DIMEXE
 40
0.18
  9
$DIMTP
 40
0.0
  9
$DIMTM
 40
0.0
  9
$DIMTXT
 40
0.18
  9
$DIMCEN
 40
0.09
  9
$DIMTSZ
 40
0.0
  9
$DIMTOL
 70
     0
  9
$DIMLIM
 70
     0
  9
$DIMTIH
 70
     1
  9
$DIMTOH
 70
     1
  9
$DIMSE1
 70
     0
  9
$DIMSE2
 70
     0
  9
$DIMTAD
 70
     0
  9
$DIMZIN
 70
     0
  9
$DIMBLK
  1

  9
$DIMASO
 70
     1
  9
$DIMSHO
 70
     1
  9
$DIMPOST
  1

  9
$DIMAPOST
  1

  9
$DIMALT
 70
     0
  9
$DIMALTD
 70
     2
  9
$DIMALTF
 40
25.4
  9
$DIMLFAC
 40
1.0
  9
$DIMTOFL
 70
     0
  9
$DIMTVP
 40
0.0
  9
$DIMTIX
 70
     0
  9
$DIMSOXD
 70
     0
  9
$DIMSAH
 70
     0
  9
$DIMBLK1
  1

  9
$DIMBLK2
  1

  9
$DIMSTYLE
  2
Standard
  9
$DIMCLRD
 70
     0
  9
$DIMCLRE
 70
     0
  9
$DIMCLRT
 70
     0
  9
$DIMTFAC
 40
1.0
  9
$DIMGAP
 40
0.09
  9
$DIMJUST
 70
     0
  9
$DIMSD1
 70
     0
  9
$DIMSD2
 70
     0
  9
$DIMTOLJ
 70
     1
  9
$DIMTZIN
 70
     0
  9
$DIMALTZ
 70
     0
  9
$DIMALTTZ
 70
     0
  9
$DIMUPT
 70
     0
  9
$DIMDEC
 70
     4
  9
$DIMTDEC
 70
     4
  9
$DIMALTU
 70
     2
  9
$DIMALTTD
 70
     2
  9
$DIMTXSTY
  7
Standard
  9
$DIMAUNIT
 70
     0
  9
$DIMADEC
 70
     0
  9
$DIMALTRND
 40
0.0
  9
$DIMAZIN
 70
     0
  9
$DIMDSEP
 70
    46
  9
$DIMATFIT
 70
     3
  9
$DIMFRAC
 70
     0
  9
$DIMLDRBLK
  1

  9
$DIMLUNIT
 70
     2
  9
$DIMLWD
 70
    -2
  9
$DIMLWE
 70
    -2
  9
$DIMTMOVE
 70
     0
  9
$DIMFXL
 40
1.0
  9
$DIMFXLON
 70
     0
  9
$DIMJOGANG
 40
0.7853981633974483
  9
$DIMTFILL
 70
     0
  9
$DIMTFILLCLR
 70
     0
  9
$DIMARCSYM
 70
     0
  9
$DIMLTYPE
  6

  9
$DIMLTEX1
  6

  9
$DIMLTEX2
  6

  9
$LUNITS
 70
     2
  9
$LUPREC
 70
     4
  9
$SKETCHINC
 40
0.1
  9
$FILLETRAD
 40
0.5
  9
$AUNITS
 70
     0
  9
$AUPREC
 70
     0
  9
$MENU
  1
.
  9
$ELEVATION
 40
0.0
  9
$PELEVATION
 40
0.0
  9
$THICKNESS
 40
0.0
  9
$LIMCHECK
 70
     0
  9
$CHAMFERA
 40
0.5
  9
$CHAMFERB
 40
0.5
  9
$CHAMFERC
 40
1.0
  9
$CHAMFERD
 40
0.0
  9
$SKPOLY
 70
     0
  9
$TDCREATE
 40
2457435.446306285
  9
$TDUCREATE
 40
2457435.404639618
  9
$TDUPDATE
 40
2457435.446306296
  9
$TDUUPDATE
 40
2457435.40463963
  9
$TDINDWG
 40
0.0000000116
  9
$TDUSRTIMER
 40
0.0000000116
  9
$USRTIMER
 70
     1
  9
$ANGBASE
 50
0.0
  9
$ANGDIR
 70
     0
  9
$PDMODE
 70
     0
  9
$PDSIZE
 40
0.0
  9
$PLINEWID
 40
0.0
  9
$SPLFRAME
 70
     0
  9
$SPLINETYPE
 70
     6
  9
$SPLINESEGS
 70
     8
  9
$HANDSEED
  5
A4
  9
$SURFTAB1
 70
     6
  9
$SURFTAB2
 70
     6
  9
$SURFTYPE
 70
     6
  9
$SURFU
 70
     6
  9
$SURFV
 70
     6
  9
$UCSBASE
  2

  9
$UCSNAME
  2

  9
$UCSORG
 10
0.0
 20
0.0
 30
0.0
  9
$UCSXDIR
 10
1.0
 20
0.0
 30
0.0
  9
$UCSYDIR
 10
0.0
 20
1.0
 30
0.0
  9
$UCSORTHOREF
  2

  9
$UCSORTHOVIEW
 70
     0
  9
$UCSORGTOP
 10
0.0
 20
0.0
 30
0.0
  9
$UCSORGBOTTOM
 10
0.0
 20
0.0
 30
0.0
  9
$UCSORGLEFT
 10
0.0
 20
0.0
 30
0.0
  9
$UCSORGRIGHT
 10
0.0
 20
0.0
 30
0.0
  9
$UCSORGFRONT
 10
0.0
 20
0.0
 30
0.0
  9
$UCSORGBACK
 10
0.0
 20
0.0
 30
0.0
  9
$PUCSBASE
  2

  9
$PUCSNAME
  2

  9
$PUCSORG
 10
0.0
 20
0.0
 30
0.0
  9
$PUCSXDIR
 10
1.0
 20
0.0
 30
0.0
  9
$PUCSYDIR
 10
0.0
 20
1.0
 30
0.0
  9
$PUCSORTHOREF
  2

  9
$PUCSORTHOVIEW
 70
     0
  9
$PUCSORGTOP
 10
0.0
 20
0.0
 30
0.0
  9
$PUCSORGBOTTOM
 10
0.0
 20
0.0
 30
0.0
  9
$PUCSORGLEFT
 10
0.0
 20
0.0
 30
0.0
  9
$PUCSORGRIGHT
 10
0.0
 20
0.0
 30
0.0
  9
$PUCSORGFRONT
 10
0.0
 20
0.0
 30
0.0
  9
$PUCSORGBACK
 10
0.0
 20
0.0
 30
0.0
  9
$USERI1
 70
     0
  9
$USERI2
 70
     0
  9
$USERI3
 70
     0
  9
$USERI4
 70
     0
  9
$USERI5
 70
     0
  9
$USERR1
 40
0.0
  9
$USERR2
 40
0.0
  9
$USERR3
 40
0.0
  9
$USERR4
 40
0.0
  9
$USERR5
 40
0.0
  9
$WORLDVIEW
 70
     1
  9
$SHADEDGE
 70
     3
  9
$SHADEDIF
 70
    70
  9
$TILEMODE
 70
     1
  9
$MAXACTVP
 70
    64
  9
$PINSBASE
 10
0.0
 20
0.0
 30
0.0
  9
$PLIMCHECK
 70
     0
  9
$PEXTMIN
 10
1.000000000000000E+20
 20
1.000000000000000E+20
 30
1.000000000000000E+20
  9
$PEXTMAX
 10
-1.000000000000000E+20
 20
-1.000000000000000E+20
 30
-1.000000000000000E+20
  9
$PLIMMIN
 10
0.0
 20
0.0
  9
$PLIMMAX
 10
12.0
 20
9.0
  9
$UNITMODE
 70
     0
  9
$VISRETAIN
 70
     1
  9
$PLINEGEN
 70
     0
  9
$PSLTSCALE
 70
     1
  9
$TREEDEPTH
 70
  3020
  9
$CMLSTYLE
  2
Standard
  9
$CMLJUST
 70
     0
  9
$CMLSCALE
 40
1.0
  9
$PROXYGRAPHICS
 70
     1
  9
$MEASUREMENT
 70
     0
  9
$CELWEIGHT
370
    -1
  9
$ENDCAPS
280
     0
  9
$JOINSTYLE
280
     0
  9
$LWDISPLAY
290
     0
  9
$INSUNITS
 70
     4
  9
$HYPERLINKBASE
  1

  9
$STYLESHEET
  1

  9
$XEDIT
290
     1
  9
$CEPSNTYPE
380
     0
  9
$PSTYLEMODE
290
     1
  9
$FINGERPRINTGUID
  2
{C8F4B8AD-7333-41F7-9CAE-47707D0ACB72}
  9
$VERSIONGUID
  2
{FAEB1C32-E019-11D5-929B-00C0DF256EC4}
  9
$EXTNAMES
290
     1
  9
$PSVPSCALE
 40
0.0
  9
$OLESTARTUP
290
     0
  9
$SORTENTS
280
   127
  9
$INDEXCTL
280
     0
  9
$HIDETEXT
280
     1
  9
$XCLIPFRAME
290
     0
  9
$HALOGAP
280
     0
  9
$OBSCOLOR
 70
   257
  9
$OBSLTYPE
280
     0
  9
$INTERSECTIONDISPLAY
280
     0
  9
$INTERSECTIONCOLOR
 70
   257
  9
$DIMASSOC
280
     2
  9
$PROJECTNAME
  1

  9
$CAMERADISPLAY
290
     0
  9
$LENSLENGTH
 40
50.0
  9
$CAMERAHEIGHT
 40
0.0
  9
$STEPSPERSEC
 40
2.0
  9
$STEPSIZE
 40
6.0
  9
$3DDWFPREC
 40
2.0
  9
$PSOLWIDTH
 40
0.25
  9
$PSOLHEIGHT
 40
4.0
  9
$LOFTANG1
 40
1.570796326794897
  9
$LOFTANG2
 40
1.570796326794897
  9
$LOFTMAG1
 40
0.0
  9
$LOFTMAG2
 40
0.0
  9
$LOFTPARAM
 70
     7
  9
$LOFTNORMALS
280
     1
  9
$LATITUDE
 40
37.795
  9
$LONGITUDE
 40
-122.394
  9
$NORTHDIRECTION
 40
0.0
  9
$TIMEZONE
 70
 -8000
  9
$LIGHTGLYPHDISPLAY
280
     1
  9
$TILEMODELIGHTSYNCH
280
     1
  9
$SOLIDHIST
280
     1
  9
$SHOWHIST
280
     1
  9
$DWFFRAME
280
     2
  9
$DGNFRAME
280
     2
  9
$REALWORLDSCALE
290
     1
  9
$INTERFERECOLOR
 62
   256
  9
$CSHADOW
280
     0
  9
$SHADOWPLANELOCATION
 40
0.0
  0
ENDSEC
  0
SECTION
  2
CLASSES
  0
CLASS
  1
ACDBDICTIONARYWDFLT
  2
AcDbDictionaryWithDefault
  3
ObjectDBX Classes
 90
        0
 91
        4
280
     0
281
     0
  0
CLASS
  1
VISUALSTYLE
  2
AcDbVisualStyle
  3
ObjectDBX Classes
 90
     4095
 91
        4
280
     0
281
     0
  0
CLASS
  1
MATERIAL
  2
AcDbMaterial
  3
ObjectDBX Classes
 90
     1153
 91
        4
280
     0
281
     0
  0
ENDSEC
  0
SECTION
  2
TABLES
  0
TABLE
  2
VPORT
  5
8
330
0
100
AcDbSymbolTable
 70
     1
  0
VPORT
  5
29
330
8
100
AcDbSymbolTableRecord
100
AcDbViewportTableRecord
  2
*Active
 70
     0
 10
0.0
 20
0.0
 11
1.0
 21
1.0
 12
10.42990654205607
 22
4.5
 13
0.0
 23
0.0
 14
0.5
 24
0.5
 15
0.5
 25
0.5
 16
0.0
 26
0.0
 36
1.0
 17
0.0
 27
0.0
 37
0.0
 40
9.0
 41
1.972972972850329
 42
50.0
 43
0.0
 44
0.0
 50
0.0
 51
0.0
 71
     0
 72
   100
 73
     1
 74
     3
 75
     0
 76
     0
 77
     0
 78
     0
281
     0
 65
     1
110
0.0
120
0.0
130
0.0
111
1.0
121
0.0
131
0.0
112
0.0
122
1.0
132
0.0
 79
     0
146
0.0
 60
     3
 61
     5
292
     1
282
     1
141
0.0
142
0.0
 63
   250
  0
ENDTAB
  0
TABLE
  2
LTYPE
  5
5
330
0
100
AcDbSymbolTable
 70
     1
  0
LTYPE
  5
14
330
5
100
AcDbSymbolTableRecord
100
AcDbLinetypeTableRecord
  2
ByBlock
 70
     0
  3

 72
    65
 73
     0
 40
0.0
  0
LTYPE
  5
15
330
5
100
AcDbSymbolTableRecord
100
AcDbLinetypeTableRecord
  2
ByLayer
 70
     0
  3

 72
    65
 73
     0
 40
0.0
  0
LTYPE
  5
16
330
5
100
AcDbSymbolTableRecord
100
AcDbLinetypeTableRecord
  2
Continuous
 70
     0
  3
Solid line
 72
    65
 73
     0
 40
0.0
  0
ENDTAB
  0
TABLE
  2
LAYER
  5
2
330
0
100
AcDbSymbolTable
 70
     2
  0
LAYER
  5
10
330
2
100
AcDbSymbolTableRecord
100
AcDbLayerTableRecord
  2
0
 70
     0
 62
     7
  6
Continuous
370
    -3
390
F
347
3E
  0
LAYER
  5
40
330
2
100
AcDbSymbolTableRecord
100
AcDbLayerTableRecord
  2
layer 1
 70
     0
 62
     7
  6
Continuous
370
    -3
390
F
347
3E
  0
ENDTAB
  0
TABLE
  2
STYLE
  5
3
330
0
100
AcDbSymbolTable
 70
     1
  0
STYLE
  5
11
330
3
100
AcDbSymbolTableRecord
100
AcDbTextStyleTableRecord
  2
Standard
 70
     0
 40
0.0
 41
1.0
 50
0.0
 71
     0
 42
0.2
  3
txt
  4

  0
ENDTAB
  0
TABLE
  2
VIEW
  5
6
330
0
100
AcDbSymbolTable
 70
     0
  0
ENDTAB
  0
TABLE
  2
UCS
  5
7
330
0
100
AcDbSymbolTable
 70
     0
  0
ENDTAB
  0
TABLE
  2
APPID
  5
9
330
0
100
AcDbSymbolTable
 70
     2
  0
APPID
  5
12
330
9
100
AcDbSymbolTableRecord
100
AcDbRegAppTableRecord
  2
ACAD
 70
     0
  0
APPID
  5
3F
330
9
100
AcDbSymbolTableRecord
100
AcDbRegAppTableRecord
  2
ODA
 70
     0
  0
ENDTAB
  0
TABLE
  2
DIMSTYLE
  5
A
330
0
100
AcDbSymbolTable
 70
     1
100
AcDbDimStyleTable
  0
DIMSTYLE
105
27
330
A
100
AcDbSymbolTableRecord
100
AcDbDimStyleTableRecord
  2
Standard
 70
     0
178
     0
340
11
  0
ENDTAB
  0
TABLE
  2
BLOCK_RECORD
  5
1
330
0
100
AcDbSymbolTable
 70
     1
  0
BLOCK_RECORD
  5
1F
330
1
100
AcDbSymbolTableRecord
100
AcDbBlockTableRecord
  2
*Model_Space
340
22
 70
     0
280
     1
281
     0
  0
BLOCK_RECORD
  5
1B
330
1
100
AcDbSymbolTableRecord
100
AcDbBlockTableRecord
  2
*Paper_Space
340
1E
 70
     0
280
     1
281
     0
  0
BLOCK_RECORD
  5
23
330
1
100
AcDbSymbolTableRecord
100
AcDbBlockTableRecord
  2
*Paper_Space0
340
26
 70
     0
280
     1
281
     0
  0
ENDTAB
  0
ENDSEC
  0
SECTION
  2
BLOCKS
  0
BLOCK
  5
20
330
1F
100
AcDbEntity
  8
0
100
AcDbBlockBegin
  2
*Model_Space
 70
     0
 10
0.0
 20
0.0
 30
0.0
  3
*Model_Space
  1

  0
ENDBLK
  5
21
330
1F
100
AcDbEntity
  8
0
100
AcDbBlockEnd
  0
BLOCK
  5
1C
330
1B
100
AcDbEntity
 67
     1
  8
0
100
AcDbBlockBegin
  2
*Paper_Space
 70
     0
 10
0.0
 20
0.0
 30
0.0
  3
*Paper_Space
  1

  0
ENDBLK
  5
1D
330
1B
100
AcDbEntity
 67
     1
  8
0
100
AcDbBlockEnd
  0
BLOCK
  5
24
330
23
100
AcDbEntity
  8
0
100
AcDbBlockBegin
  2
*Paper_Space0
 70
     0
 10
0.0
 20
0.0
 30
0.0
  3
*Paper_Space0
  1

  0
ENDBLK
  5
25
330
23
100
AcDbEntity
  8
0
100
AcDbBlockEnd
  0
ENDSEC
  0
SECTION
  2
ENTITIES
  0
SPLINE
  5
41
330
1F
100
AcDbEntity
  8
layer 1
 62
     1
370
     9
100
AcDbSpline
210
0.0
220
0.0
230
1.0
 70
    11
 71
     3
 72
    36
 73
    32
 74
     0
 42
0.0000000001
 43
0.0000000001
 40
0.0
 40
0.0
 40
0.0
 40
0.0
 40
0.1111111111111111
 40
0.1111111111111111
 40
0.1111111111111111
 40
0.1111111111111111
 40
0.2222222222222222
 40
0.2222222222222222
 40
0.2222222222222222
 40
0.2222222222222222
 40
0.3333333333333333
 40
0.3333333333333333
 40
0.3333333333333333
 40
0.3333333333333333
 40
0.4444444444444444
 40
0.4444444444444444
 40
0.4444444444444444
 40
0.4444444444444444
 40
0.5555555555555556
 40
0.5555555555555556
 40
0.5555555555555556
 40
0.5555555555555556
 40
0.6666666666666666
 40
0.6666666666666666
 40
0.6666666666666666
 40
0.6666666666666666
 40
0.7777777777777778
 40
0.7777777777777778
 40
0.7777777777777778
 40
0.7777777777777778
 40
1.0
 40
1.0
 40
1.0
 40
1.0
 10
16.3862
 20
-43.5868
 30
0.0
 10
16.3862
 20
-46.3477
 30
0.0
 10
14.1478
 20
-48.5863
 30
0.0
 10
11.3865
 20
-48.5863
 30
0.0
 10
11.3865
 20
-48.5863
 30
0.0
 10
11.3865
 20
-48.5863
 30
0.0
 10
-13.8913
 20
-48.5863
 30
0.0
 10
-13.8913
 20
-48.5863
 30
0.0
 10
-13.8913
 20
-48.5863
 30
0.0
 10
-16.6527
 20
-48.5863
 30
0.0
 10
-18.8914
 20
-46.3477
 30
0.0
 10
-18.8914
 20
-43.5868
 30
0.0
 10
-18.8914
 20
-43.5868
 30
0.0
 10
-18.8914
 20
-43.5868
 30
0.0
 10
-18.8914
 20
-18.3087
 30
0.0
 10
-18.8914
 20
-18.3087
 30
0.0
 10
-18.8914
 20
-18.3087
 30
0.0
 10
-18.8914
 20
-15.5473
 30
0.0
 10
-16.6527
 20
-13.3087
 30
0.0
 10
-13.8913
 20
-13.3087
 30
0.0
 10
-13.8913
 20
-13.3087
 30
0.0
 10
-13.8913
 20
-13.3087
 30
0.0
 10
11.3865
 20
-13.3087
 30
0.0
 10
11.3865
 20
-13.3087
 30
0.0
 10
11.3865
 20
-13.3087
 30
0.0
 10
14.1478
 20
-13.3087
 30
0.0
 10
16.3862
 20
-15.5473
 30
0.0
 10
16.3862
 20
-18.3087
 30
0.0
 10
16.3862
 20
-18.3087
 30
0.0
 10
16.3862
 20
-18.3087
 30
0.0
 10
16.3862
 20
-43.5868
 30
0.0
 10
16.3862
 20
-43.5868
 30
0.0
  0
SPLINE
  5
42
330
1F
100
AcDbEntity
  8
layer 1
 62
     7
100
AcDbSpline
210
0.0
220
0.0
230
1.0
 70
    11
 71
     3
 72
    44
 73
    40
 74
     0
 42
0.0000000001
 43
0.0000000001
 40
0.0
 40
0.0
 40
0.0
 40
0.0
 40
0.0909090909090909
 40
0.0909090909090909
 40
0.0909090909090909
 40
0.0909090909090909
 40
0.1818181818181818
 40
0.1818181818181818
 40
0.1818181818181818
 40
0.1818181818181818
 40
0.2727272727272727
 40
0.2727272727272727
 40
0.2727272727272727
 40
0.2727272727272727
 40
0.3636363636363636
 40
0.3636363636363636
 40
0.3636363636363636
 40
0.3636363636363636
 40
0.4545454545454545
 40
0.4545454545454545
 40
0.4545454545454545
 40
0.4545454545454545
 40
0.5454545454545454
 40
0.5454545454545454
 40
0.5454545454545454
 40
0.5454545454545454
 40
0.6363636363636364
 40
0.6363636363636364
 40
0.6363636363636364
 40
0.6363636363636364
 40
0.7272727272727273
 40
0.7272727272727273
 40
0.7272727272727273
 40
0.7272727272727273
 40
0.8181818181818182
 40
0.8181818181818182
 40
0.8181818181818182
 40
0.8181818181818182
 40
1.0
 40
1.0
 40
1.0
 40
1.0
 10
0.1509
 20
-19.0725
 30
0.0
 10
0.1509
 20
-19.0725
 30
0.0
 10
11.2541
 20
-19.0725
 30
0.0
 10
11.2541
 20
-19.0725
 30
0.0
 10
11.2541
 20
-19.0725
 30
0.0
 10
11.5431
 20
-19.0725
 30
0.0
 10
12.5749
 20
-19.1359
 30
0.0
 10
12.5749
 20
-20.0568
 30
0.0
 10
12.5749
 20
-20.0568
 30
0.0
 10
12.5749
 20
-20.5012
 30
0.0
 10
12.2035
 20
-20.7868
 30
0.0
 10
11.6671
 20
-20.9139
 30
0.0
 10
11.6671
 20
-20.9139
 30
0.0
 10
10.2223
 20
-21.2632
 30
0.0
 10
10.2636
 20
-21.4537
 30
0.0
 10
10.2636
 20
-22.6282
 30
0.0
 10
10.2636
 20
-22.6282
 30
0.0
 10
10.2636
 20
-22.6282
 30
0.0
 10
10.2636
 20
-39.2646
 30
0.0
 10
10.2636
 20
-39.2646
 30
0.0
 10
10.2636
 20
-39.2646
 30
0.0
 10
10.2636
 20
-40.4393
 30
0.0
 10
10.2223
 20
-40.6298
 30
0.0
 10
11.6671
 20
-40.9792
 30
0.0
 10
11.6671
 20
-40.9792
 30
0.0
 10
12.2035
 20
-41.1059
 30
0.0
 10
12.5749
 20
-41.3919
 30
0.0
 10
12.5749
 20
-41.8363
 30
0.0
 10
12.5749
 20
-41.8363
 30
0.0
 10
12.5749
 20
-42.7568
 30
0.0
 10
11.5431
 20
-42.8206
 30
0.0
 10
11.2541
 20
-42.8206
 30
0.0
 10
11.2541
 20
-42.8206
 30
0.0
 10
11.2541
 20
-42.8206
 30
0.0
 10
0.1509
 20
-42.8206
 30
0.0
 10
0.1509
 20
-42.8206
 30
0.0
 10
0.1509
 20
-42.8206
 30
0.0
 10
0.1509
 20
-42.8206
 30
0.0
 10
0.1509
 20
-19.0725
 30
0.0
 10
0.1509
 20
-19.0725
 30
0.0
  0
SPLINE
  5
43
330
1F
100
AcDbEntity
  8
layer 1
 62
     7
100
AcDbSpline
210
0.0
220
0.0
230
1.0
 70
    11
 71
     3
 72
    80
 73
    76
 74
     0
 42
0.0000000001
 43
0.0000000001
 40
0.0
 40
0.0
 40
0.0
 40
0.0
 40
0.05
 40
0.05
 40
0.05
 40
0.05
 40
0.1
 40
0.1
 40
0.1
 40
0.1
 40
0.15
 40
0.15
 40
0.15
 40
0.15
 40
0.2
 40
0.2
 40
0.2
 40
0.2
 40
0.25
 40
0.25
 40
0.25
 40
0.25
 40
0.3
 40
0.3
 40
0.3
 40
0.3
 40
0.35
 40
0.35
 40
0.35
 40
0.35
 40
0.4
 40
0.4
 40
0.4
 40
0.4
 40
0.45
 40
0.45
 40
0.45
 40
0.45
 40
0.5
 40
0.5
 40
0.5
 40
0.5
 40
0.55
 40
0.55
 40
0.55
 40
0.55
 40
0.6
 40
0.6
 40
0.6
 40
0.6
 40
0.65
 40
0.65
 40
0.65
 40
0.65
 40
0.7
 40
0.7
 40
0.7
 40
0.7
 40
0.75
 40
0.75
 40
0.75
 40
0.75
 40
0.8
 40
0.8
 40
0.8
 40
0.8
 40
0.85
 40
0.85
 40
0.85
 40
0.85
 40
0.9
 40
0.9
 40
0.9
 40
0.9
 40
1.0
 40
1.0
 40
1.0
 40
1.0
 10
-1.7067
 20
-20.9139
 30
0.0
 10
-1.7067
 20
-20.9139
 30
0.0
 10
-1.7067
 20
-20.9139
 30
0.0
 10
-1.7067
 20
-20.9139
 30
0.0
 10
-1.7067
 20
-20.9139
 30
0.0
 10
-4.1831
 20
-21.1044
 30
0.0
 10
-4.8025
 20
-22.3743
 30
0.0
 10
-4.8025
 20
-23.7079
 30
0.0
 10
-4.8025
 20
-23.7079
 30
0.0
 10
-4.8025
 20
-23.7079
 30
0.0
 10
-4.8025
 20
-26.8825
 30
0.0
 10
-4.8025
 20
-26.8825
 30
0.0
 10
-4.8025
 20
-26.8825
 30
0.0
 10
-4.8025
 20
-28.0573
 30
0.0
 10
-4.7198
 20
-29.4226
 30
0.0
 10
-1.7067
 20
-29.6131
 30
0.0
 10
-1.7067
 20
-29.6131
 30
0.0
 10
-1.7067
 20
-29.6131
 30
0.0
 10
-1.7067
 20
-31.4545
 30
0.0
 10
-1.7067
 20
-31.4545
 30
0.0
 10
-1.7067
 20
-31.4545
 30
0.0
 10
-4.3484
 20
-31.6133
 30
0.0
 10
-4.8025
 20
-32.9783
 30
0.0
 10
-4.8025
 20
-34.4387
 30
0.0
 10
-4.8025
 20
-34.4387
 30
0.0
 10
-4.8025
 20
-34.4387
 30
0.0
 10
-4.8025
 20
-38.5345
 30
0.0
 10
-4.8025
 20
-38.5345
 30
0.0
 10
-4.8025
 20
-38.5345
 30
0.0
 10
-4.8025
 20
-39.6773
 30
0.0
 10
-4.4721
 20
-40.8837
 30
0.0
 10
-1.7067
 20
-40.9792
 30
0.0
 10
-1.7067
 20
-40.9792
 30
0.0
 10
-1.7067
 20
-40.9792
 30
0.0
 10
-1.7067
 20
-42.8206
 30
0.0
 10
-1.7067
 20
-42.8206
 30
0.0
 10
-1.7067
 20
-42.8206
 30
0.0
 10
-1.7067
 20
-42.8206
 30
0.0
 10
-3.0276
 20
-42.8206
 30
0.0
 10
-3.0276
 20
-42.8206
 30
0.0
 10
-3.0276
 20
-42.8206
 30
0.0
 10
-5.958
 20
-42.8206
 30
0.0
 10
-8.5587
 20
-42.9157
 30
0.0
 10
-11.2004
 20
-41.7729
 30
0.0
 10
-11.2004
 20
-41.7729
 30
0.0
 10
-13.8007
 20
-40.6615
 30
0.0
 10
-15.0802
 20
-38.8835
 30
0.0
 10
-15.0802
 20
-36.6294
 30
0.0
 10
-15.0802
 20
-36.6294
 30
0.0
 10
-15.0802
 20
-32.661
 30
0.0
 10
-11.4477
 20
-31.1052
 30
0.0
 10
-6.8661
 20
-30.5336
 30
0.0
 10
-6.8661
 20
-30.5336
 30
0.0
 10
-6.8661
 20
-30.5336
 30
0.0
 10
-6.8661
 20
-30.4702
 30
0.0
 10
-6.8661
 20
-30.4702
 30
0.0
 10
-6.8661
 20
-30.4702
 30
0.0
 10
-10.87
 20
-29.9941
 30
0.0
 10
-14.6675
 20
-28.3749
 30
0.0
 10
-14.6675
 20
-24.8823
 30
0.0
 10
-14.6675
 20
-24.8823
 30
0.0
 10
-14.6675
 20
-22.6282
 30
0.0
 10
-13.1816
 20
-20.9773
 30
0.0
 10
-10.6223
 20
-19.993
 30
0.0
 10
-10.6223
 20
-19.993
 30
0.0
 10
-8.2283
 20
-19.1042
 30
0.0
 10
-5.5866
 20
-19.0725
 30
0.0
 10
-2.9862
 20
-19.0725
 30
0.0
 10
-2.9862
 20
-19.0725
 30
0.0
 10
-2.9862
 20
-19.0725
 30
0.0
 10
-1.7067
 20
-19.0725
 30
0.0
 10
-1.7067
 20
-19.0725
 30
0.0
 10
-1.7067
 20
-19.0725
 30
0.0
 10
-1.7067
 20
-19.0725
 30
0.0
 10
-1.7067
 20
-20.9139
 30
0.0
 10
-1.7067
 20
-20.9139
 30
0.0
  0
SPLINE
  5
44
330
1F
100
AcDbEntity
  8
layer 1
 62
     1
100
AcDbSpline
210
0.0
220
0.0
230
1.0
 70
    11
 71
     3
 72
    44
 73
    40
 74
     0
 42
0.0000000001
 43
0.0000000001
 40
0.0
 40
0.0
 40
0.0
 40
0.0
 40
0.0909090909090909
 40
0.0909090909090909
 40
0.0909090909090909
 40
0.0909090909090909
 40
0.1818181818181818
 40
0.1818181818181818
 40
0.1818181818181818
 40
0.1818181818181818
 40
0.2727272727272727
 40
0.2727272727272727
 40
0.2727272727272727
 40
0.2727272727272727
 40
0.3636363636363636
 40
0.3636363636363636
 40
0.3636363636363636
 40
0.3636363636363636
 40
0.4545454545454545
 40
0.4545454545454545
 40
0.4545454545454545
 40
0.4545454545454545
 40
0.5454545454545454
 40
0.5454545454545454
 40
0.5454545454545454
 40
0.5454545454545454
 40
0.6363636363636364
 40
0.6363636363636364
 40
0.6363636363636364
 40
0.6363636363636364
 40
0.7272727272727273
 40
0.7272727272727273
 40
0.7272727272727273
 40
0.7272727272727273
 40
0.8181818181818182
 40
0.8181818181818182
 40
0.8181818181818182
 40
0.8181818181818182
 40
1.0
 40
1.0
 40
1.0
 40
1.0
 10
-36.1544
 20
-42.7237
 30
0.0
 10
-36.1544
 20
-42.7237
 30
0.0
 10
-42.0865
 20
-42.7237
 30
0.0
 10
-42.0865
 20
-42.7237
 30
0.0
 10
-42.0865
 20
-42.7237
 30
0.0
 10
-42.2408
 20
-42.7237
 30
0.0
 10
-42.7924
 20
-42.6896
 30
0.0
 10
-42.7924
 20
-42.1979
 30
0.0
 10
-42.7924
 20
-42.1979
 30
0.0
 10
-42.7924
 20
-41.9602
 30
0.0
 10
-42.5936
 20
-41.8076
 30
0.0
 10
-42.3073
 20
-41.7401
 30
0.0
 10
-42.3073
 20
-41.7401
 30
0.0
 10
-41.5353
 20
-41.553
 30
0.0
 10
-41.5573
 20
-41.4514
 30
0.0
 10
-41.5573
 20
-40.8237
 30
0.0
 10
-41.5573
 20
-40.8237
 30
0.0
 10
-41.5573
 20
-40.8237
 30
0.0
 10
-41.5573
 20
-31.935
 30
0.0
 10
-41.5573
 20
-31.935
 30
0.0
 10
-41.5573
 20
-31.935
 30
0.0
 10
-41.5573
 20
-31.3077
 30
0.0
 10
-41.5353
 20
-31.2057
 30
0.0
 10
-42.3073
 20
-31.0193
 30
0.0
 10
-42.3073
 20
-31.0193
 30
0.0
 10
-42.5936
 20
-30.9511
 30
0.0
 10
-42.7924
 20
-30.7988
 30
0.0
 10
-42.7924
 20
-30.5611
 30
0.0
 10
-42.7924
 20
-30.5611
 30
0.0
 10
-42.7924
 20
-30.0692
 30
0.0
 10
-42.2408
 20
-30.0354
 30
0.0
 10
-42.0865
 20
-30.0354
 30
0.0
 10
-42.0865
 20
-30.0354
 30
0.0
 10
-42.0865
 20
-30.0354
 30
0.0
 10
-36.1544
 20
-30.0354
 30
0.0
 10
-36.1544
 20
-30.0354
 30
0.0
 10
-36.1544
 20
-30.0354
 30
0.0
 10
-36.1544
 20
-30.0354
 30
0.0
 10
-36.1544
 20
-42.7237
 30
0.0
 10
-36.1544
 20
-42.7237
 30
0.0
  0
SPLINE
  5
45
330
1F
100
AcDbEntity
  8
layer 1
 62
     1
100
AcDbSpline
210
0.0
220
0.0
230
1.0
 70
    11
 71
     3
 72
    80
 73
    76
 74
     0
 42
0.0000000001
 43
0.0000000001
 40
0.0
 40
0.0
 40
0.0
 40
0.0
 40
0.05
 40
0.05
 40
0.05
 40
0.05
 40
0.1
 40
0.1
 40
0.1
 40
0.1
 40
0.15
 40
0.15
 40
0.15
 40
0.15
 40
0.2
 40
0.2
 40
0.2
 40
0.2
 40
0.25
 40
0.25
 40
0.25
 40
0.25
 40
0.3
 40
0.3
 40
0.3
 40
0.3
 40
0.35
 40
0.35
 40
0.35
 40
0.35
 40
0.4
 40
0.4
 40
0.4
 40
0.4
 40
0.45
 40
0.45
 40
0.45
 40
0.45
 40
0.5
 40
0.5
 40
0.5
 40
0.5
 40
0.55
 40
0.55
 40
0.55
 40
0.55
 40
0.6
 40
0.6
 40
0.6
 40
0.6
 40
0.65
 40
0.65
 40
0.65
 40
0.65
 40
0.7
 40
0.7
 40
0.7
 40
0.7
 40
0.75
 40
0.75
 40
0.75
 40
0.75
 40
0.8
 40
0.8
 40
0.8
 40
0.8
 40
0.85
 40
0.85
 40
0.85
 40
0.85
 40
0.9
 40
0.9
 40
0.9
 40
0.9
 40
1.0
 40
1.0
 40
1.0
 40
1.0
 10
-35.1619
 20
-30.0354
 30
0.0
 10
-35.1619
 20
-30.0354
 30
0.0
 10
-35.1619
 20
-30.0354
 30
0.0
 10
-35.1619
 20
-30.0354
 30
0.0
 10
-35.1619
 20
-30.0354
 30
0.0
 10
-35.1619
 20
-30.0354
 30
0.0
 10
-34.4783
 20
-30.0354
 30
0.0
 10
-34.4783
 20
-30.0354
 30
0.0
 10
-34.4783
 20
-30.0354
 30
0.0
 10
-33.0889
 20
-30.0354
 30
0.0
 10
-31.6775
 20
-30.0523
 30
0.0
 10
-30.3983
 20
-30.5273
 30
0.0
 10
-30.3983
 20
-30.5273
 30
0.0
 10
-29.031
 20
-31.0531
 30
0.0
 10
-28.2372
 20
-31.935
 30
0.0
 10
-28.2372
 20
-33.1394
 30
0.0
 10
-28.2372
 20
-33.1394
 30
0.0
 10
-28.2372
 20
-35.0056
 30
0.0
 10
-30.266
 20
-35.8707
 30
0.0
 10
-32.4051
 20
-36.1249
 30
0.0
 10
-32.4051
 20
-36.1249
 30
0.0
 10
-32.4051
 20
-36.1249
 30
0.0
 10
-32.4051
 20
-36.1587
 30
0.0
 10
-32.4051
 20
-36.1587
 30
0.0
 10
-32.4051
 20
-36.1587
 30
0.0
 10
-29.9573
 20
-36.4643
 30
0.0
 10
-28.0164
 20
-37.2956
 30
0.0
 10
-28.0164
 20
-39.4157
 30
0.0
 10
-28.0164
 20
-39.4157
 30
0.0
 10
-28.0164
 20
-40.6201
 30
0.0
 10
-28.7002
 20
-41.5702
 30
0.0
 10
-30.0896
 20
-42.1638
 30
0.0
 10
-30.0896
 20
-42.1638
 30
0.0
 10
-31.5007
 20
-42.7743
 30
0.0
 10
-32.8905
 20
-42.7237
 30
0.0
 10
-34.4559
 20
-42.7237
 30
0.0
 10
-34.4559
 20
-42.7237
 30
0.0
 10
-34.4559
 20
-42.7237
 30
0.0
 10
-35.1619
 20
-42.7237
 30
0.0
 10
-35.1619
 20
-42.7237
 30
0.0
 10
-35.1619
 20
-42.7237
 30
0.0
 10
-35.1619
 20
-42.7237
 30
0.0
 10
-35.1619
 20
-41.7401
 30
0.0
 10
-35.1619
 20
-41.7401
 30
0.0
 10
-35.1619
 20
-41.7401
 30
0.0
 10
-33.6842
 20
-41.6888
 30
0.0
 10
-33.5079
 20
-41.0442
 30
0.0
 10
-33.5079
 20
-40.4337
 30
0.0
 10
-33.5079
 20
-40.4337
 30
0.0
 10
-33.5079
 20
-40.4337
 30
0.0
 10
-33.5079
 20
-38.2454
 30
0.0
 10
-33.5079
 20
-38.2454
 30
0.0
 10
-33.5079
 20
-38.2454
 30
0.0
 10
-33.5079
 20
-37.4651
 30
0.0
 10
-33.7504
 20
-36.7357
 30
0.0
 10
-35.1619
 20
-36.6506
 30
0.0
 10
-35.1619
 20
-36.6506
 30
0.0
 10
-35.1619
 20
-36.6506
 30
0.0
 10
-35.1619
 20
-35.6671
 30
0.0
 10
-35.1619
 20
-35.6671
 30
0.0
 10
-35.1619
 20
-35.6671
 30
0.0
 10
-33.552
 20
-35.5651
 30
0.0
 10
-33.5079
 20
-34.8358
 30
0.0
 10
-33.5079
 20
-34.2081
 30
0.0
 10
-33.5079
 20
-34.2081
 30
0.0
 10
-33.5079
 20
-34.2081
 30
0.0
 10
-33.5079
 20
-32.5121
 30
0.0
 10
-33.5079
 20
-32.5121
 30
0.0
 10
-33.5079
 20
-32.5121
 30
0.0
 10
-33.5079
 20
-31.7993
 30
0.0
 10
-33.8389
 20
-31.1209
 30
0.0
 10
-35.1619
 20
-31.0193
 30
0.0
 10
-35.1619
 20
-31.0193
 30
0.0
 10
-35.1619
 20
-31.0193
 30
0.0
 10
-35.1619
 20
-30.0354
 30
0.0
 10
-35.1619
 20
-30.0354
 30
0.0
  0
SPLINE
  5
46
330
1F
100
AcDbEntity
  8
layer 1
370
     9
100
AcDbSpline
210
0.0
220
0.0
230
1.0
 70
    11
 71
     3
 72
    20
 73
    16
 74
     0
 42
0.0000000001
 43
0.0000000001
 40
0.0
 40
0.0
 40
0.0
 40
0.0
 40
0.2
 40
0.2
 40
0.2
 40
0.2
 40
0.4
 40
0.4
 40
0.4
 40
0.4
 40
0.6
 40
0.6
 40
0.6
 40
0.6
 40
1.0
 40
1.0
 40
1.0
 40
1.0
 10
-22.9042
 20
-36.3799
 30
0.0
 10
-22.9042
 20
-43.2839
 30
0.0
 10
-28.5007
 20
-48.88
 30
0.0
 10
-35.4044
 20
-48.88
 30
0.0
 10
-35.4044
 20
-48.88
 30
0.0
 10
-42.308
 20
-48.88
 30
0.0
 10
-47.9046
 20
-43.2839
 30
0.0
 10
-47.9046
 20
-36.3799
 30
0.0
 10
-47.9046
 20
-36.3799
 30
0.0
 10
-47.9046
 20
-29.4766
 30
0.0
 10
-42.308
 20
-23.88
 30
0.0
 10
-35.4044
 20
-23.88
 30
0.0
 10
-35.4044
 20
-23.88
 30
0.0
 10
-28.5007
 20
-23.88
 30
0.0
 10
-22.9042
 20
-29.4766
 30
0.0
 10
-22.9042
 20
-36.3799
 30
0.0
  0
SPLINE
  5
47
330
1F
100
AcDbEntity
  8
layer 1
 62
     1
100
AcDbSpline
210
0.0
220
0.0
230
1.0
 70
    11
 71
     3
 72
    20
 73
    16
 74
     0
 42
0.0000000001
 43
0.0000000001
 40
0.0
 40
0.0
 40
0.0
 40
0.0
 40
0.2
 40
0.2
 40
0.2
 40
0.2
 40
0.4
 40
0.4
 40
0.4
 40
0.4
 40
0.6
 40
0.6
 40
0.6
 40
0.6
 40
1.0
 40
1.0
 40
1.0
 40
1.0
 10
-46.9045
 20
-36.3799
 30
0.0
 10
-46.9037
 20
-30.0285
 30
0.0
 10
-41.7558
 20
-24.8801
 30
0.0
 10
-35.404
 20
-24.8801
 30
0.0
 10
-35.404
 20
-24.8801
 30
0.0
 10
-29.053
 20
-24.8801
 30
0.0
 10
-23.9043
 20
-30.0285
 30
0.0
 10
-23.9043
 20
-36.3799
 30
0.0
 10
-23.9043
 20
-36.3799
 30
0.0
 10
-23.9043
 20
-42.7319
 30
0.0
 10
-29.053
 20
-47.8796
 30
0.0
 10
-35.404
 20
-47.8796
 30
0.0
 10
-35.404
 20
-47.8796
 30
0.0
 10
-41.7558
 20
-47.8796
 30
0.0
 10
-46.9037
 20
-42.7319
 30
0.0
 10
-46.9045
 20
-36.3799
 30
0.0
  0
SPLINE
  5
48
330
1F
100
AcDbEntity
  8
layer 1
 62
     1
100
AcDbSpline
210
0.0
220
0.0
230
1.0
 70
    11
 71
     3
 72
    24
 73
    20
 74
     0
 42
0.0000000001
 43
0.0000000001
 40
0.0
 40
0.0
 40
0.0
 40
0.0
 40
0.1666666666666667
 40
0.1666666666666667
 40
0.1666666666666667
 40
0.1666666666666667
 40
0.3333333333333333
 40
0.3333333333333333
 40
0.3333333333333333
 40
0.3333333333333333
 40
0.5
 40
0.5
 40
0.5
 40
0.5
 40
0.6666666666666666
 40
0.6666666666666666
 40
0.6666666666666666
 40
0.6666666666666666
 40
1.0
 40
1.0
 40
1.0
 40
1.0
 10
-46.1989
 20
-36.3799
 30
0.0
 10
-46.1989
 20
-36.3799
 30
0.0
 10
-46.1989
 20
-36.3799
 30
0.0
 10
-46.1989
 20
-36.3799
 30
0.0
 10
-46.1989
 20
-36.3799
 30
0.0
 10
-46.1879
 20
-42.3413
 30
0.0
 10
-41.3661
 20
-47.1637
 30
0.0
 10
-35.404
 20
-47.1747
 30
0.0
 10
-35.404
 20
-47.1747
 30
0.0
 10
-29.4427
 20
-47.1637
 30
0.0
 10
-24.6205
 20
-42.3413
 30
0.0
 10
-24.6098
 20
-36.3799
 30
0.0
 10
-24.6098
 20
-36.3799
 30
0.0
 10
-24.6205
 20
-30.4185
 30
0.0
 10
-29.4427
 20
-25.5967
 30
0.0
 10
-35.404
 20
-25.5857
 30
0.0
 10
-35.404
 20
-25.5857
 30
0.0
 10
-41.3661
 20
-25.5967
 30
0.0
 10
-46.1879
 20
-30.4185
 30
0.0
 10
-46.1989
 20
-36.3799
 30
0.0
  0
SPLINE
  5
49
330
1F
100
AcDbEntity
  8
layer 1
370
     9
100
AcDbSpline
210
0.0
220
0.0
230
1.0
 70
     8
 71
     3
 72
     8
 73
     4
 74
     0
 42
0.0000000001
 43
0.0000000001
 40
0.0
 40
0.0
 40
0.0
 40
0.0
 40
1.0
 40
1.0
 40
1.0
 40
1.0
 10
18.8666
 20
-20.5087
 30
0.0
 10
18.8666
 20
-18.228
 30
0.0
 10
20.7153
 20
-16.379
 30
0.0
 10
22.9959
 20
-16.379
 30
0.0
  0
SPLINE
  5
4A
330
1F
100
AcDbEntity
  8
layer 1
370
     9
100
AcDbSpline
210
0.0
220
0.0
230
1.0
 70
    24
 71
     3
 72
     8
 73
     4
 74
     0
 42
0.0000000001
 43
0.0000000001
 40
0.0
 40
0.0
 40
0.0
 40
0.0
 40
1.0
 40
1.0
 40
1.0
 40
1.0
 10
22.9959
 20
-16.379
 30
0.0
 10
22.9959
 20
-16.379
 30
0.0
 10
43.8737
 20
-16.379
 30
0.0
 10
43.8737
 20
-16.379
 30
0.0
  0
SPLINE
  5
4B
330
1F
100
AcDbEntity
  8
layer 1
370
     9
100
AcDbSpline
210
0.0
220
0.0
230
1.0
 70
     8
 71
     3
 72
     8
 73
     4
 74
     0
 42
0.0000000001
 43
0.0000000001
 40
0.0
 40
0.0
 40
0.0
 40
0.0
 40
1.0
 40
1.0
 40
1.0
 40
1.0
 10
43.8737
 20
-16.379
 30
0.0
 10
46.1544
 20
-16.379
 30
0.0
 10
48.0034
 20
-18.228
 30
0.0
 10
48.0034
 20
-20.5087
 30
0.0
  0
SPLINE
  5
4C
330
1F
100
AcDbEntity
  8
layer 1
370
     9
100
AcDbSpline
210
0.0
220
0.0
230
1.0
 70
    24
 71
     3
 72
     8
 73
     4
 74
     0
 42
0.0000000001
 43
0.0000000001
 40
0.0
 40
0.0
 40
0.0
 40
0.0
 40
1.0
 40
1.0
 40
1.0
 40
1.0
 10
48.0034
 20
-20.5087
 30
0.0
 10
48.0034
 20
-20.5087
 30
0.0
 10
48.0034
 20
-41.3859
 30
0.0
 10
48.0034
 20
-41.3859
 30
0.0
  0
SPLINE
  5
4D
330
1F
100
AcDbEntity
  8
layer 1
370
     9
100
AcDbSpline
210
0.0
220
0.0
230
1.0
 70
     8
 71
     3
 72
     8
 73
     4
 74
     0
 42
0.0000000001
 43
0.0000000001
 40
0.0
 40
0.0
 40
0.0
 40
0.0
 40
1.0
 40
1.0
 40
1.0
 40
1.0
 10
48.0034
 20
-41.3859
 30
0.0
 10
48.0034
 20
-43.667
 30
0.0
 10
46.1544
 20
-45.516
 30
0.0
 10
43.8737
 20
-45.516
 30
0.0
  0
SPLINE
  5
4E
330
1F
100
AcDbEntity
  8
layer 1
370
     9
100
AcDbSpline
210
0.0
220
0.0
230
1.0
 70
    24
 71
     3
 72
     8
 73
     4
 74
     0
 42
0.0000000001
 43
0.0000000001
 40
0.0
 40
0.0
 40
0.0
 40
0.0
 40
1.0
 40
1.0
 40
1.0
 40
1.0
 10
43.8737
 20
-45.516
 30
0.0
 10
43.8737
 20
-45.516
 30
0.0
 10
22.9959
 20
-45.516
 30
0.0
 10
22.9959
 20
-45.516
 30
0.0
  0
SPLINE
  5
4F
330
1F
100
AcDbEntity
  8
layer 1
370
     9
100
AcDbSpline
210
0.0
220
0.0
230
1.0
 70
     8
 71
     3
 72
     8
 73
     4
 74
     0
 42
0.0000000001
 43
0.0000000001
 40
0.0
 40
0.0
 40
0.0
 40
0.0
 40
1.0
 40
1.0
 40
1.0
 40
1.0
 10
22.9959
 20
-45.516
 30
0.0
 10
20.7153
 20
-45.516
 30
0.0
 10
18.8666
 20
-43.667
 30
0.0
 10
18.8666
 20
-41.3859
 30
0.0
  0
SPLINE
  5
50
330
1F
100
AcDbEntity
  8
layer 1
370
     9
100
AcDbSpline
210
0.0
220
0.0
230
1.0
 70
    24
 71
     3
 72
     8
 73
     4
 74
     0
 42
0.0000000001
 43
0.0000000001
 40
0.0
 40
0.0
 40
0.0
 40
0.0
 40
1.0
 40
1.0
 40
1.0
 40
1.0
 10
18.8666
 20
-41.3859
 30
0.0
 10
18.8666
 20
-41.3859
 30
0.0
 10
18.8666
 20
-20.5087
 30
0.0
 10
18.8666
 20
-20.5087
 30
0.0
  0
SPLINE
  5
51
330
1F
100
AcDbEntity
  8
layer 1
370
     9
100
AcDbSpline
210
0.0
220
0.0
230
1.0
 70
    11
 71
     3
 72
    52
 73
    48
 74
     0
 42
0.0000000001
 43
0.0000000001
 40
0.0
 40
0.0
 40
0.0
 40
0.0
 40
0.0769230769230769
 40
0.0769230769230769
 40
0.0769230769230769
 40
0.0769230769230769
 40
0.1538461538461539
 40
0.1538461538461539
 40
0.1538461538461539
 40
0.1538461538461539
 40
0.2307692307692308
 40
0.2307692307692308
 40
0.2307692307692308
 40
0.2307692307692308
 40
0.3076923076923077
 40
0.3076923076923077
 40
0.3076923076923077
 40
0.3076923076923077
 40
0.3846153846153846
 40
0.3846153846153846
 40
0.3846153846153846
 40
0.3846153846153846
 40
0.4615384615384616
 40
0.4615384615384616
 40
0.4615384615384616
 40
0.4615384615384616
 40
0.5384615384615384
 40
0.5384615384615384
 40
0.5384615384615384
 40
0.5384615384615384
 40
0.6153846153846154
 40
0.6153846153846154
 40
0.6153846153846154
 40
0.6153846153846154
 40
0.6923076923076923
 40
0.6923076923076923
 40
0.6923076923076923
 40
0.6923076923076923
 40
0.7692307692307693
 40
0.7692307692307693
 40
0.7692307692307693
 40
0.7692307692307693
 40
0.8461538461538461
 40
0.8461538461538461
 40
0.8461538461538461
 40
0.8461538461538461
 40
1.0
 40
1.0
 40
1.0
 40
1.0
 10
20.9349
 20
-32.9475
 30
0.0
 10
20.9349
 20
-32.9475
 30
0.0
 10
31.4349
 20
-32.9475
 30
0.0
 10
31.4349
 20
-32.9475
 30
0.0
 10
31.4349
 20
-32.9475
 30
0.0
 10
31.4349
 20
-32.9475
 30
0.0
 10
31.4349
 20
-43.4475
 30
0.0
 10
31.4349
 20
-43.4475
 30
0.0
 10
31.4349
 20
-43.4475
 30
0.0
 10
31.4349
 20
-43.4475
 30
0.0
 10
35.4346
 20
-43.4475
 30
0.0
 10
35.4346
 20
-43.4475
 30
0.0
 10
35.4346
 20
-43.4475
 30
0.0
 10
35.4346
 20
-43.4475
 30
0.0
 10
35.4346
 20
-32.9475
 30
0.0
 10
35.4346
 20
-32.9475
 30
0.0
 10
35.4346
 20
-32.9475
 30
0.0
 10
35.4346
 20
-32.9475
 30
0.0
 10
45.9349
 20
-32.9475
 30
0.0
 10
45.9349
 20
-32.9475
 30
0.0
 10
45.9349
 20
-32.9475
 30
0.0
 10
45.9349
 20
-32.9475
 30
0.0
 10
45.9349
 20
-28.9474
 30
0.0
 10
45.9349
 20
-28.9474
 30
0.0
 10
45.9349
 20
-28.9474
 30
0.0
 10
45.9349
 20
-28.9474
 30
0.0
 10
35.4346
 20
-28.9474
 30
0.0
 10
35.4346
 20
-28.9474
 30
0.0
 10
35.4346
 20
-28.9474
 30
0.0
 10
35.4346
 20
-28.9474
 30
0.0
 10
35.4346
 20
-18.4475
 30
0.0
 10
35.4346
 20
-18.4475
 30
0.0
 10
35.4346
 20
-18.4475
 30
0.0
 10
35.4346
 20
-18.4475
 30
0.0
 10
31.4349
 20
-18.4475
 30
0.0
 10
31.4349
 20
-18.4475
 30
0.0
 10
31.4349
 20
-18.4475
 30
0.0
 10
31.4349
 20
-18.4475
 30
0.0
 10
31.4349
 20
-28.9474
 30
0.0
 10
31.4349
 20
-28.9474
 30
0.0
 10
31.4349
 20
-28.9474
 30
0.0
 10
31.4349
 20
-28.9474
 30
0.0
 10
20.9349
 20
-28.9474
 30
0.0
 10
20.9349
 20
-28.9474
 30
0.0
 10
20.9349
 20
-28.9474
 30
0.0
 10
20.9349
 20
-28.9474
 30
0.0
 10
20.9349
 20
-32.9475
 30
0.0
 10
20.9349
 20
-32.9475
 30
0.0
  0
SPLINE
  5
52
330
1F
100
AcDbEntity
  8
layer 1
370
     9
100
AcDbSpline
210
0.0
220
0.0
230
1.0
 70
    11
 71
     3
 72
    20
 73
    16
 74
     0
 42
0.0000000001
 43
0.0000000001
 40
0.0
 40
0.0
 40
0.0
 40
0.0
 40
0.2
 40
0.2
 40
0.2
 40
0.2
 40
0.4
 40
0.4
 40
0.4
 40
0.4
 40
0.6
 40
0.6
 40
0.6
 40
0.6
 40
1.0
 40
1.0
 40
1.0
 40
1.0
 10
-45.4045
 20
-60.9486
 30
0.0
 10
-45.4045
 20
-55.4257
 30
0.0
 10
-40.9272
 20
-50.9485
 30
0.0
 10
-35.4047
 20
-50.9485
 30
0.0
 10
-35.4047
 20
-50.9485
 30
0.0
 10
-29.8816
 20
-50.9485
 30
0.0
 10
-25.4043
 20
-55.4257
 30
0.0
 10
-25.4043
 20
-60.9486
 30
0.0
 10
-25.4043
 20
-60.9486
 30
0.0
 10
-25.4043
 20
-66.4714
 30
0.0
 10
-29.8816
 20
-70.9487
 30
0.0
 10
-35.4047
 20
-70.9487
 30
0.0
 10
-35.4047
 20
-70.9487
 30
0.0
 10
-40.9272
 20
-70.9487
 30
0.0
 10
-45.4045
 20
-66.4714
 30
0.0
 10
-45.4045
 20
-60.9486
 30
0.0
  0
SPLINE
  5
53
330
1F
100
AcDbEntity
  8
layer 1
370
     9
100
AcDbSpline
210
0.0
220
0.0
230
1.0
 70
    11
 71
     3
 72
    52
 73
    48
 74
     0
 42
0.0000000001
 43
0.0000000001
 40
0.0
 40
0.0
 40
0.0
 40
0.0
 40
0.0769230769230769
 40
0.0769230769230769
 40
0.0769230769230769
 40
0.0769230769230769
 40
0.1538461538461539
 40
0.1538461538461539
 40
0.1538461538461539
 40
0.1538461538461539
 40
0.2307692307692308
 40
0.2307692307692308
 40
0.2307692307692308
 40
0.2307692307692308
 40
0.3076923076923077
 40
0.3076923076923077
 40
0.3076923076923077
 40
0.3076923076923077
 40
0.3846153846153846
 40
0.3846153846153846
 40
0.3846153846153846
 40
0.3846153846153846
 40
0.4615384615384616
 40
0.4615384615384616
 40
0.4615384615384616
 40
0.4615384615384616
 40
0.5384615384615384
 40
0.5384615384615384
 40
0.5384615384615384
 40
0.5384615384615384
 40
0.6153846153846154
 40
0.6153846153846154
 40
0.6153846153846154
 40
0.6153846153846154
 40
0.6923076923076923
 40
0.6923076923076923
 40
0.6923076923076923
 40
0.6923076923076923
 40
0.7692307692307693
 40
0.7692307692307693
 40
0.7692307692307693
 40
0.7692307692307693
 40
0.8461538461538461
 40
0.8461538461538461
 40
0.8461538461538461
 40
0.8461538461538461
 40
1.0
 40
1.0
 40
1.0
 40
1.0
 10
-42.9044
 20
-62.9485
 30
0.0
 10
-42.9044
 20
-62.9485
 30
0.0
 10
-37.4043
 20
-62.9485
 30
0.0
 10
-37.4043
 20
-62.9485
 30
0.0
 10
-37.4043
 20
-62.9485
 30
0.0
 10
-37.4043
 20
-62.9485
 30
0.0
 10
-37.4043
 20
-68.4486
 30
0.0
 10
-37.4043
 20
-68.4486
 30
0.0
 10
-37.4043
 20
-68.4486
 30
0.0
 10
-37.4043
 20
-68.4486
 30
0.0
 10
-33.4045
 20
-68.4486
 30
0.0
 10
-33.4045
 20
-68.4486
 30
0.0
 10
-33.4045
 20
-68.4486
 30
0.0
 10
-33.4045
 20
-68.4486
 30
0.0
 10
-33.4045
 20
-62.9485
 30
0.0
 10
-33.4045
 20
-62.9485
 30
0.0
 10
-33.4045
 20
-62.9485
 30
0.0
 10
-33.4045
 20
-62.9485
 30
0.0
 10
-27.9044
 20
-62.9485
 30
0.0
 10
-27.9044
 20
-62.9485
 30
0.0
 10
-27.9044
 20
-62.9485
 30
0.0
 10
-27.9044
 20
-62.9485
 30
0.0
 10
-27.9044
 20
-58.9487
 30
0.0
 10
-27.9044
 20
-58.9487
 30
0.0
 10
-27.9044
 20
-58.9487
 30
0.0
 10
-27.9044
 20
-58.9487
 30
0.0
 10
-33.4045
 20
-58.9487
 30
0.0
 10
-33.4045
 20
-58.9487
 30
0.0
 10
-33.4045
 20
-58.9487
 30
0.0
 10
-33.4045
 20
-58.9487
 30
0.0
 10
-33.4045
 20
-53.4486
 30
0.0
 10
-33.4045
 20
-53.4486
 30
0.0
 10
-33.4045
 20
-53.4486
 30
0.0
 10
-33.4045
 20
-53.4486
 30
0.0
 10
-37.4043
 20
-53.4486
 30
0.0
 10
-37.4043
 20
-53.4486
 30
0.0
 10
-37.4043
 20
-53.4486
 30
0.0
 10
-37.4043
 20
-53.4486
 30
0.0
 10
-37.4043
 20
-58.9487
 30
0.0
 10
-37.4043
 20
-58.9487
 30
0.0
 10
-37.4043
 20
-58.9487
 30
0.0
 10
-37.4043
 20
-58.9487
 30
0.0
 10
-42.9044
 20
-58.9487
 30
0.0
 10
-42.9044
 20
-58.9487
 30
0.0
 10
-42.9044
 20
-58.9487
 30
0.0
 10
-42.9044
 20
-58.9487
 30
0.0
 10
-42.9044
 20
-62.9485
 30
0.0
 10
-42.9044
 20
-62.9485
 30
0.0
  0
SPLINE
  5
54
330
1F
100
AcDbEntity
  8
layer 1
370
     9
100
AcDbSpline
210
0.0
220
0.0
230
1.0
 70
     8
 71
     3
 72
     8
 73
     4
 74
     0
 42
0.0000000001
 43
0.0000000001
 40
0.0
 40
0.0
 40
0.0
 40
0.0
 40
1.0
 40
1.0
 40
1.0
 40
1.0
 10
26.4652
 20
-67.4529
 30
0.0
 10
26.4652
 20
-70.8395
 30
0.0
 10
25.2136
 20
-73.8822
 30
0.0
 10
23.2241
 20
-75.9816
 30
0.0
  0
SPLINE
  5
55
330
1F
100
AcDbEntity
  8
layer 1
370
     9
100
AcDbSpline
210
0.0
220
0.0
230
1.0
 70
     8
 71
     3
 72
    40
 73
    36
 74
     0
 42
0.0000000001
 43
0.0000000001
 40
0.0
 40
0.0
 40
0.0
 40
0.0
 40
0.1
 40
0.1
 40
0.1
 40
0.1
 40
0.2
 40
0.2
 40
0.2
 40
0.2
 40
0.3
 40
0.3
 40
0.3
 40
0.3
 40
0.4
 40
0.4
 40
0.4
 40
0.4
 40
0.5
 40
0.5
 40
0.5
 40
0.5
 40
0.6
 40
0.6
 40
0.6
 40
0.6
 40
0.7
 40
0.7
 40
0.7
 40
0.7
 40
0.8
 40
0.8
 40
0.8
 40
0.8
 40
1.0
 40
1.0
 40
1.0
 40
1.0
 10
23.2241
 20
-75.9816
 30
0.0
 10
23.2241
 20
-75.9816
 30
0.0
 10
23.2425
 20
-75.9816
 30
0.0
 10
23.2425
 20
-75.9816
 30
0.0
 10
23.2425
 20
-75.9816
 30
0.0
 10
23.2425
 20
-75.9816
 30
0.0
 10
23.2425
 20
-79.9814
 30
0.0
 10
23.2425
 20
-79.9814
 30
0.0
 10
23.2425
 20
-79.9814
 30
0.0
 10
23.2425
 20
-79.9814
 30
0.0
 10
28.7424
 20
-79.9814
 30
0.0
 10
28.7424
 20
-79.9814
 30
0.0
 10
28.7424
 20
-79.9814
 30
0.0
 10
28.7424
 20
-79.9814
 30
0.0
 10
28.7424
 20
-65.9819
 30
0.0
 10
28.7424
 20
-65.9819
 30
0.0
 10
28.7424
 20
-65.9819
 30
0.0
 10
28.7424
 20
-65.9819
 30
0.0
 10
32.7424
 20
-65.9819
 30
0.0
 10
32.7424
 20
-65.9819
 30
0.0
 10
32.7424
 20
-65.9819
 30
0.0
 10
32.7424
 20
-65.9819
 30
0.0
 10
32.7424
 20
-79.9814
 30
0.0
 10
32.7424
 20
-79.9814
 30
0.0
 10
32.7424
 20
-79.9814
 30
0.0
 10
32.7424
 20
-79.9814
 30
0.0
 10
38.2425
 20
-79.9814
 30
0.0
 10
38.2425
 20
-79.9814
 30
0.0
 10
38.2425
 20
-79.9814
 30
0.0
 10
38.2425
 20
-79.9814
 30
0.0
 10
38.2425
 20
-75.9816
 30
0.0
 10
38.2425
 20
-75.9816
 30
0.0
 10
38.2425
 20
-75.9816
 30
0.0
 10
38.2425
 20
-75.9816
 30
0.0
 10
38.1429
 20
-75.9816
 30
0.0
 10
38.1429
 20
-75.9816
 30
0.0
  0
SPLINE
  5
56
330
1F
100
AcDbEntity
  8
layer 1
370
     9
100
AcDbSpline
210
0.0
220
0.0
230
1.0
 70
     8
 71
     3
 72
    12
 73
     8
 74
     0
 42
0.0000000001
 43
0.0000000001
 40
0.0
 40
0.0
 40
0.0
 40
0.0
 40
0.3333333333333333
 40
0.3333333333333333
 40
0.3333333333333333
 40
0.3333333333333333
 40
1.0
 40
1.0
 40
1.0
 40
1.0
 10
38.1429
 20
-75.9816
 30
0.0
 10
36.1535
 20
-73.8822
 30
0.0
 10
34.9019
 20
-70.8395
 30
0.0
 10
34.9019
 20
-67.4529
 30
0.0
 10
34.9019
 20
-67.4529
 30
0.0
 10
34.9019
 20
-61.6913
 30
0.0
 10
38.5239
 20
-56.9233
 30
0.0
 10
43.2425
 20
-56.1062
 30
0.0
  0
SPLINE
  5
57
330
1F
100
AcDbEntity
  8
layer 1
370
     9
100
AcDbSpline
210
0.0
220
0.0
230
1.0
 70
     8
 71
     3
 72
    16
 73
    12
 74
     0
 42
0.0000000001
 43
0.0000000001
 40
0.0
 40
0.0
 40
0.0
 40
0.0
 40
0.25
 40
0.25
 40
0.25
 40
0.25
 40
0.5
 40
0.5
 40
0.5
 40
0.5
 40
1.0
 40
1.0
 40
1.0
 40
1.0
 10
43.2425
 20
-56.1062
 30
0.0
 10
43.2425
 20
-56.1062
 30
0.0
 10
43.2425
 20
-51.9817
 30
0.0
 10
43.2425
 20
-51.9817
 30
0.0
 10
43.2425
 20
-51.9817
 30
0.0
 10
43.2425
 20
-51.9817
 30
0.0
 10
18.2425
 20
-51.9817
 30
0.0
 10
18.2425
 20
-51.9817
 30
0.0
 10
18.2425
 20
-51.9817
 30
0.0
 10
18.2425
 20
-51.9817
 30
0.0
 10
18.2425
 20
-56.1282
 30
0.0
 10
18.2425
 20
-56.1282
 30
0.0
  0
SPLINE
  5
58
330
1F
100
AcDbEntity
  8
layer 1
370
     9
100
AcDbSpline
210
0.0
220
0.0
230
1.0
 70
     8
 71
     3
 72
     8
 73
     4
 74
     0
 42
0.0000000001
 43
0.0000000001
 40
0.0
 40
0.0
 40
0.0
 40
0.0
 40
1.0
 40
1.0
 40
1.0
 40
1.0
 10
18.2425
 20
-56.1282
 30
0.0
 10
22.9035
 20
-57.0033
 30
0.0
 10
26.4652
 20
-61.7396
 30
0.0
 10
26.4652
 20
-67.4529
 30
0.0
  0
SPLINE
  5
59
330
1F
100
AcDbEntity
  8
layer 1
370
     9
100
AcDbSpline
210
0.0
220
0.0
230
1.0
 70
     8
 71
     3
 72
     8
 73
     4
 74
     0
 42
0.0000000001
 43
0.0000000001
 40
0.0
 40
0.0
 40
0.0
 40
0.0
 40
1.0
 40
1.0
 40
1.0
 40
1.0
 10
-2.2473
 20
-67.4733
 30
0.0
 10
-2.2473
 20
-70.8594
 30
0.0
 10
-3.4989
 20
-73.9021
 30
0.0
 10
-5.4884
 20
-76.0023
 30
0.0
  0
SPLINE
  5
5A
330
1F
100
AcDbEntity
  8
layer 1
370
     9
100
AcDbSpline
210
0.0
220
0.0
230
1.0
 70
     8
 71
     3
 72
    24
 73
    20
 74
     0
 42
0.0000000001
 43
0.0000000001
 40
0.0
 40
0.0
 40
0.0
 40
0.0
 40
0.1666666666666667
 40
0.1666666666666667
 40
0.1666666666666667
 40
0.1666666666666667
 40
0.3333333333333333
 40
0.3333333333333333
 40
0.3333333333333333
 40
0.3333333333333333
 40
0.5
 40
0.5
 40
0.5
 40
0.5
 40
0.6666666666666666
 40
0.6666666666666666
 40
0.6666666666666666
 40
0.6666666666666666
 40
1.0
 40
1.0
 40
1.0
 40
1.0
 10
-5.4884
 20
-76.0023
 30
0.0
 10
-5.4884
 20
-76.0023
 30
0.0
 10
-5.4698
 20
-76.0023
 30
0.0
 10
-5.4698
 20
-76.0023
 30
0.0
 10
-5.4698
 20
-76.0023
 30
0.0
 10
-5.4698
 20
-76.0023
 30
0.0
 10
-5.4698
 20
-80.002
 30
0.0
 10
-5.4698
 20
-80.002
 30
0.0
 10
-5.4698
 20
-80.002
 30
0.0
 10
-5.4698
 20
-80.002
 30
0.0
 10
9.5302
 20
-80.002
 30
0.0
 10
9.5302
 20
-80.002
 30
0.0
 10
9.5302
 20
-80.002
 30
0.0
 10
9.5302
 20
-80.002
 30
0.0
 10
9.5302
 20
-76.0023
 30
0.0
 10
9.5302
 20
-76.0023
 30
0.0
 10
9.5302
 20
-76.0023
 30
0.0
 10
9.5302
 20
-76.0023
 30
0.0
 10
9.4302
 20
-76.0023
 30
0.0
 10
9.4302
 20
-76.0023
 30
0.0
  0
SPLINE
  5
5B
330
1F
100
AcDbEntity
  8
layer 1
370
     9
100
AcDbSpline
210
0.0
220
0.0
230
1.0
 70
     8
 71
     3
 72
    12
 73
     8
 74
     0
 42
0.0000000001
 43
0.0000000001
 40
0.0
 40
0.0
 40
0.0
 40
0.0
 40
0.3333333333333333
 40
0.3333333333333333
 40
0.3333333333333333
 40
0.3333333333333333
 40
1.0
 40
1.0
 40
1.0
 40
1.0
 10
9.4302
 20
-76.0023
 30
0.0
 10
7.441
 20
-73.9021
 30
0.0
 10
6.1895
 20
-70.8594
 30
0.0
 10
6.1895
 20
-67.4733
 30
0.0
 10
6.1895
 20
-67.4733
 30
0.0
 10
6.1895
 20
-61.7117
 30
0.0
 10
9.8113
 20
-56.9437
 30
0.0
 10
14.53
 20
-56.1265
 30
0.0
  0
SPLINE
  5
5C
330
1F
100
AcDbEntity
  8
layer 1
370
     9
100
AcDbSpline
210
0.0
220
0.0
230
1.0
 70
     8
 71
     3
 72
    32
 73
    28
 74
     0
 42
0.0000000001
 43
0.0000000001
 40
0.0
 40
0.0
 40
0.0
 40
0.0
 40
0.125
 40
0.125
 40
0.125
 40
0.125
 40
0.25
 40
0.25
 40
0.25
 40
0.25
 40
0.375
 40
0.375
 40
0.375
 40
0.375
 40
0.5
 40
0.5
 40
0.5
 40
0.5
 40
0.625
 40
0.625
 40
0.625
 40
0.625
 40
0.75
 40
0.75
 40
0.75
 40
0.75
 40
1.0
 40
1.0
 40
1.0
 40
1.0
 10
14.53
 20
-56.1265
 30
0.0
 10
14.53
 20
-56.1265
 30
0.0
 10
14.53
 20
-52.002
 30
0.0
 10
14.53
 20
-52.002
 30
0.0
 10
14.53
 20
-52.002
 30
0.0
 10
14.53
 20
-52.002
 30
0.0
 10
4.0297
 20
-52.002
 30
0.0
 10
4.0297
 20
-52.002
 30
0.0
 10
4.0297
 20
-52.002
 30
0.0
 10
4.0297
 20
-52.002
 30
0.0
 10
4.0297
 20
-66.0022
 30
0.0
 10
4.0297
 20
-66.0022
 30
0.0
 10
4.0297
 20
-66.0022
 30
0.0
 10
4.0297
 20
-66.0022
 30
0.0
 10
0.03
 20
-66.0022
 30
0.0
 10
0.03
 20
-66.0022
 30
0.0
 10
0.03
 20
-66.0022
 30
0.0
 10
0.03
 20
-66.0022
 30
0.0
 10
0.03
 20
-52.002
 30
0.0
 10
0.03
 20
-52.002
 30
0.0
 10
0.03
 20
-52.002
 30
0.0
 10
0.03
 20
-52.002
 30
0.0
 10
-10.47
 20
-52.002
 30
0.0
 10
-10.47
 20
-52.002
 30
0.0
 10
-10.47
 20
-52.002
 30
0.0
 10
-10.47
 20
-52.002
 30
0.0
 10
-10.47
 20
-56.1485
 30
0.0
 10
-10.47
 20
-56.1485
 30
0.0
  0
SPLINE
  5
5D
330
1F
100
AcDbEntity
  8
layer 1
370
     9
100
AcDbSpline
210
0.0
220
0.0
230
1.0
 70
     8
 71
     3
 72
     8
 73
     4
 74
     0
 42
0.0000000001
 43
0.0000000001
 40
0.0
 40
0.0
 40
0.0
 40
0.0
 40
1.0
 40
1.0
 40
1.0
 40
1.0
 10
-10.47
 20
-56.1485
 30
0.0
 10
-5.8088
 20
-57.0236
 30
0.0
 10
-2.2473
 20
-61.7599
 30
0.0
 10
-2.2473
 20
-67.4733
 30
0.0
  0
SPLINE
  5
5E
330
1F
100
AcDbEntity
  8
layer 1
370
    70
100
AcDbSpline
210
0.0
220
0.0
230
1.0
 70
    11
 71
     3
 72
    20
 73
    16
 74
     0
 42
0.0000000001
 43
0.0000000001
 40
0.0
 40
0.0
 40
0.0
 40
0.0
 40
0.2
 40
0.2
 40
0.2
 40
0.2
 40
0.4
 40
0.4
 40
0.4
 40
0.4
 40
0.6
 40
0.6
 40
0.6
 40
0.6
 40
1.0
 40
1.0
 40
1.0
 40
1.0
 10
70.6513
 20
-93.3301
 30
0.0
 10
70.6513
 20
-93.3301
 30
0.0
 10
-70.5525
 20
-93.3301
 30
0.0
 10
-70.5525
 20
-93.3301
 30
0.0
 10
-70.5525
 20
-93.3301
 30
0.0
 10
-70.5525
 20
-93.3301
 30
0.0
 10
-70.5525
 20
0.0194
 30
0.0
 10
-70.5525
 20
0.0194
 30
0.0
 10
-70.5525
 20
0.0194
 30
0.0
 10
-70.5525
 20
0.0194
 30
0.0
 10
70.6513
 20
0.0194
 30
0.0
 10
70.6513
 20
0.0194
 30
0.0
 10
70.6513
 20
0.0194
 30
0.0
 10
70.6513
 20
0.0194
 30
0.0
 10
70.6513
 20
-93.3301
 30
0.0
 10
70.6513
 20
-93.3301
 30
0.0
  0
SPLINE
  5
5F
330
1F
100
AcDbEntity
  8
layer 1
 62
     1
370
     9
100
AcDbSpline
210
0.0
220
0.0
230
1.0
 70
    11
 71
     3
 72
    36
 73
    32
 74
     0
 42
0.0000000001
 43
0.0000000001
 40
0.0
 40
0.0
 40
0.0
 40
0.0
 40
0.1111111111111111
 40
0.1111111111111111
 40
0.1111111111111111
 40
0.1111111111111111
 40
0.2222222222222222
 40
0.2222222222222222
 40
0.2222222222222222
 40
0.2222222222222222
 40
0.3333333333333333
 40
0.3333333333333333
 40
0.3333333333333333
 40
0.3333333333333333
 40
0.4444444444444444
 40
0.4444444444444444
 40
0.4444444444444444
 40
0.4444444444444444
 40
0.5555555555555556
 40
0.5555555555555556
 40
0.5555555555555556
 40
0.5555555555555556
 40
0.6666666666666666
 40
0.6666666666666666
 40
0.6666666666666666
 40
0.6666666666666666
 40
0.7777777777777778
 40
0.7777777777777778
 40
0.7777777777777778
 40
0.7777777777777778
 40
1.0
 40
1.0
 40
1.0
 40
1.0
 10
11.6254
 20
67.5638
 30
0.0
 10
11.6254
 20
64.8029
 30
0.0
 10
9.3869
 20
62.5643
 30
0.0
 10
6.6257
 20
62.5643
 30
0.0
 10
6.6257
 20
62.5643
 30
0.0
 10
6.6257
 20
62.5643
 30
0.0
 10
-18.6522
 20
62.5643
 30
0.0
 10
-18.6522
 20
62.5643
 30
0.0
 10
-18.6522
 20
62.5643
 30
0.0
 10
-21.4136
 20
62.5643
 30
0.0
 10
-23.6522
 20
64.8029
 30
0.0
 10
-23.6522
 20
67.5638
 30
0.0
 10
-23.6522
 20
67.5638
 30
0.0
 10
-23.6522
 20
67.5638
 30
0.0
 10
-23.6522
 20
92.8419
 30
0.0
 10
-23.6522
 20
92.8419
 30
0.0
 10
-23.6522
 20
92.8419
 30
0.0
 10
-23.6522
 20
95.6033
 30
0.0
 10
-21.4136
 20
97.8419
 30
0.0
 10
-18.6522
 20
97.8419
 30
0.0
 10
-18.6522
 20
97.8419
 30
0.0
 10
-18.6522
 20
97.8419
 30
0.0
 10
6.6257
 20
97.8419
 30
0.0
 10
6.6257
 20
97.8419
 30
0.0
 10
6.6257
 20
97.8419
 30
0.0
 10
9.3869
 20
97.8419
 30
0.0
 10
11.6254
 20
95.6033
 30
0.0
 10
11.6254
 20
92.8419
 30
0.0
 10
11.6254
 20
92.8419
 30
0.0
 10
11.6254
 20
92.8419
 30
0.0
 10
11.6254
 20
67.5638
 30
0.0
 10
11.6254
 20
67.5638
 30
0.0
  0
SPLINE
  5
60
330
1F
100
AcDbEntity
  8
layer 1
370
     9
100
AcDbSpline
210
0.0
220
0.0
230
1.0
 70
    11
 71
     3
 72
    20
 73
    16
 74
     0
 42
0.0000000001
 43
0.0000000001
 40
0.0
 40
0.0
 40
0.0
 40
0.0
 40
0.2
 40
0.2
 40
0.2
 40
0.2
 40
0.4
 40
0.4
 40
0.4
 40
0.4
 40
0.6
 40
0.6
 40
0.6
 40
0.6
 40
1.0
 40
1.0
 40
1.0
 40
1.0
 10
-27.6651
 20
74.7708
 30
0.0
 10
-27.6651
 20
67.8668
 30
0.0
 10
-33.2616
 20
62.2706
 30
0.0
 10
-40.1653
 20
62.2706
 30
0.0
 10
-40.1653
 20
62.2706
 30
0.0
 10
-47.0689
 20
62.2706
 30
0.0
 10
-52.6655
 20
67.8668
 30
0.0
 10
-52.6655
 20
74.7708
 30
0.0
 10
-52.6655
 20
74.7708
 30
0.0
 10
-52.6655
 20
81.674
 30
0.0
 10
-47.0689
 20
87.2706
 30
0.0
 10
-40.1653
 20
87.2706
 30
0.0
 10
-40.1653
 20
87.2706
 30
0.0
 10
-33.2616
 20
87.2706
 30
0.0
 10
-27.6651
 20
81.674
 30
0.0
 10
-27.6651
 20
74.7708
 30
0.0
  0
SPLINE
  5
61
330
1F
100
AcDbEntity
  8
layer 1
 62
     1
100
AcDbSpline
210
0.0
220
0.0
230
1.0
 70
    11
 71
     3
 72
    20
 73
    16
 74
     0
 42
0.0000000001
 43
0.0000000001
 40
0.0
 40
0.0
 40
0.0
 40
0.0
 40
0.2
 40
0.2
 40
0.2
 40
0.2
 40
0.4
 40
0.4
 40
0.4
 40
0.4
 40
0.6
 40
0.6
 40
0.6
 40
0.6
 40
1.0
 40
1.0
 40
1.0
 40
1.0
 10
-51.6653
 20
74.7708
 30
0.0
 10
-51.6646
 20
81.1221
 30
0.0
 10
-46.5166
 20
86.2705
 30
0.0
 10
-40.1649
 20
86.2705
 30
0.0
 10
-40.1649
 20
86.2705
 30
0.0
 10
-33.8139
 20
86.2705
 30
0.0
 10
-28.6652
 20
81.1221
 30
0.0
 10
-28.6652
 20
74.7708
 30
0.0
 10
-28.6652
 20
74.7708
 30
0.0
 10
-28.6652
 20
68.4187
 30
0.0
 10
-33.8139
 20
63.271
 30
0.0
 10
-40.1649
 20
63.271
 30
0.0
 10
-40.1649
 20
63.271
 30
0.0
 10
-46.5166
 20
63.271
 30
0.0
 10
-51.6646
 20
68.4187
 30
0.0
 10
-51.6653
 20
74.7708
 30
0.0
  0
SPLINE
  5
62
330
1F
100
AcDbEntity
  8
layer 1
 62
     1
100
AcDbSpline
210
0.0
220
0.0
230
1.0
 70
    11
 71
     3
 72
    24
 73
    20
 74
     0
 42
0.0000000001
 43
0.0000000001
 40
0.0
 40
0.0
 40
0.0
 40
0.0
 40
0.1666666666666667
 40
0.1666666666666667
 40
0.1666666666666667
 40
0.1666666666666667
 40
0.3333333333333333
 40
0.3333333333333333
 40
0.3333333333333333
 40
0.3333333333333333
 40
0.5
 40
0.5
 40
0.5
 40
0.5
 40
0.6666666666666666
 40
0.6666666666666666
 40
0.6666666666666666
 40
0.6666666666666666
 40
1.0
 40
1.0
 40
1.0
 40
1.0
 10
-50.9598
 20
74.7708
 30
0.0
 10
-50.9598
 20
74.7708
 30
0.0
 10
-50.9598
 20
74.7708
 30
0.0
 10
-50.9598
 20
74.7708
 30
0.0
 10
-50.9598
 20
74.7708
 30
0.0
 10
-50.9488
 20
68.8093
 30
0.0
 10
-46.127
 20
63.9869
 30
0.0
 10
-40.1649
 20
63.9759
 30
0.0
 10
-40.1649
 20
63.9759
 30
0.0
 10
-34.2035
 20
63.9869
 30
0.0
 10
-29.3814
 20
68.8093
 30
0.0
 10
-29.3707
 20
74.7708
 30
0.0
 10
-29.3707
 20
74.7708
 30
0.0
 10
-29.3814
 20
80.7321
 30
0.0
 10
-34.2035
 20
85.5539
 30
0.0
 10
-40.1649
 20
85.5649
 30
0.0
 10
-40.1649
 20
85.5649
 30
0.0
 10
-46.127
 20
85.5539
 30
0.0
 10
-50.9488
 20
80.7321
 30
0.0
 10
-50.9598
 20
74.7708
 30
0.0
  0
SPLINE
  5
63
330
1F
100
AcDbEntity
  8
layer 1
370
     9
100
AcDbSpline
210
0.0
220
0.0
230
1.0
 70
     8
 71
     3
 72
     8
 73
     4
 74
     0
 42
0.0000000001
 43
0.0000000001
 40
0.0
 40
0.0
 40
0.0
 40
0.0
 40
1.0
 40
1.0
 40
1.0
 40
1.0
 10
14.1058
 20
90.6419
 30
0.0
 10
14.1058
 20
92.9226
 30
0.0
 10
15.9544
 20
94.7716
 30
0.0
 10
18.2351
 20
94.7716
 30
0.0
  0
SPLINE
  5
64
330
1F
100
AcDbEntity
  8
layer 1
370
     9
100
AcDbSpline
210
0.0
220
0.0
230
1.0
 70
    24
 71
     3
 72
     8
 73
     4
 74
     0
 42
0.0000000001
 43
0.0000000001
 40
0.0
 40
0.0
 40
0.0
 40
0.0
 40
1.0
 40
1.0
 40
1.0
 40
1.0
 10
18.2351
 20
94.7716
 30
0.0
 10
18.2351
 20
94.7716
 30
0.0
 10
39.1129
 20
94.7716
 30
0.0
 10
39.1129
 20
94.7716
 30
0.0
  0
SPLINE
  5
65
330
1F
100
AcDbEntity
  8
layer 1
370
     9
100
AcDbSpline
210
0.0
220
0.0
230
1.0
 70
     8
 71
     3
 72
     8
 73
     4
 74
     0
 42
0.0000000001
 43
0.0000000001
 40
0.0
 40
0.0
 40
0.0
 40
0.0
 40
1.0
 40
1.0
 40
1.0
 40
1.0
 10
39.1129
 20
94.7716
 30
0.0
 10
41.3935
 20
94.7716
 30
0.0
 10
43.2425
 20
92.9226
 30
0.0
 10
43.2425
 20
90.6419
 30
0.0
  0
SPLINE
  5
66
330
1F
100
AcDbEntity
  8
layer 1
370
     9
100
AcDbSpline
210
0.0
220
0.0
230
1.0
 70
    24
 71
     3
 72
     8
 73
     4
 74
     0
 42
0.0000000001
 43
0.0000000001
 40
0.0
 40
0.0
 40
0.0
 40
0.0
 40
1.0
 40
1.0
 40
1.0
 40
1.0
 10
43.2425
 20
90.6419
 30
0.0
 10
43.2425
 20
90.6419
 30
0.0
 10
43.2425
 20
69.7647
 30
0.0
 10
43.2425
 20
69.7647
 30
0.0
  0
SPLINE
  5
67
330
1F
100
AcDbEntity
  8
layer 1
370
     9
100
AcDbSpline
210
0.0
220
0.0
230
1.0
 70
     8
 71
     3
 72
     8
 73
     4
 74
     0
 42
0.0000000001
 43
0.0000000001
 40
0.0
 40
0.0
 40
0.0
 40
0.0
 40
1.0
 40
1.0
 40
1.0
 40
1.0
 10
43.2425
 20
69.7647
 30
0.0
 10
43.2425
 20
67.4836
 30
0.0
 10
41.3935
 20
65.6347
 30
0.0
 10
39.1129
 20
65.6347
 30
0.0
  0
SPLINE
  5
68
330
1F
100
AcDbEntity
  8
layer 1
370
     9
100
AcDbSpline
210
0.0
220
0.0
230
1.0
 70
    24
 71
     3
 72
     8
 73
     4
 74
     0
 42
0.0000000001
 43
0.0000000001
 40
0.0
 40
0.0
 40
0.0
 40
0.0
 40
1.0
 40
1.0
 40
1.0
 40
1.0
 10
39.1129
 20
65.6347
 30
0.0
 10
39.1129
 20
65.6347
 30
0.0
 10
18.2351
 20
65.6347
 30
0.0
 10
18.2351
 20
65.6347
 30
0.0
  0
SPLINE
  5
69
330
1F
100
AcDbEntity
  8
layer 1
370
     9
100
AcDbSpline
210
0.0
220
0.0
230
1.0
 70
     8
 71
     3
 72
     8
 73
     4
 74
     0
 42
0.0000000001
 43
0.0000000001
 40
0.0
 40
0.0
 40
0.0
 40
0.0
 40
1.0
 40
1.0
 40
1.0
 40
1.0
 10
18.2351
 20
65.6347
 30
0.0
 10
15.9544
 20
65.6347
 30
0.0
 10
14.1058
 20
67.4836
 30
0.0
 10
14.1058
 20
69.7647
 30
0.0
  0
SPLINE
  5
6A
330
1F
100
AcDbEntity
  8
layer 1
370
     9
100
AcDbSpline
210
0.0
220
0.0
230
1.0
 70
    24
 71
     3
 72
     8
 73
     4
 74
     0
 42
0.0000000001
 43
0.0000000001
 40
0.0
 40
0.0
 40
0.0
 40
0.0
 40
1.0
 40
1.0
 40
1.0
 40
1.0
 10
14.1058
 20
69.7647
 30
0.0
 10
14.1058
 20
69.7647
 30
0.0
 10
14.1058
 20
90.6419
 30
0.0
 10
14.1058
 20
90.6419
 30
0.0
  0
SPLINE
  5
6B
330
1F
100
AcDbEntity
  8
layer 1
370
     9
100
AcDbSpline
210
0.0
220
0.0
230
1.0
 70
    11
 71
     3
 72
    52
 73
    48
 74
     0
 42
0.0000000001
 43
0.0000000001
 40
0.0
 40
0.0
 40
0.0
 40
0.0
 40
0.0769230769230769
 40
0.0769230769230769
 40
0.0769230769230769
 40
0.0769230769230769
 40
0.1538461538461539
 40
0.1538461538461539
 40
0.1538461538461539
 40
0.1538461538461539
 40
0.2307692307692308
 40
0.2307692307692308
 40
0.2307692307692308
 40
0.2307692307692308
 40
0.3076923076923077
 40
0.3076923076923077
 40
0.3076923076923077
 40
0.3076923076923077
 40
0.3846153846153846
 40
0.3846153846153846
 40
0.3846153846153846
 40
0.3846153846153846
 40
0.4615384615384616
 40
0.4615384615384616
 40
0.4615384615384616
 40
0.4615384615384616
 40
0.5384615384615384
 40
0.5384615384615384
 40
0.5384615384615384
 40
0.5384615384615384
 40
0.6153846153846154
 40
0.6153846153846154
 40
0.6153846153846154
 40
0.6153846153846154
 40
0.6923076923076923
 40
0.6923076923076923
 40
0.6923076923076923
 40
0.6923076923076923
 40
0.7692307692307693
 40
0.7692307692307693
 40
0.7692307692307693
 40
0.7692307692307693
 40
0.8461538461538461
 40
0.8461538461538461
 40
0.8461538461538461
 40
0.8461538461538461
 40
1.0
 40
1.0
 40
1.0
 40
1.0
 10
16.174
 20
78.2031
 30
0.0
 10
16.174
 20
78.2031
 30
0.0
 10
26.674
 20
78.2031
 30
0.0
 10
26.674
 20
78.2031
 30
0.0
 10
26.674
 20
78.2031
 30
0.0
 10
26.674
 20
78.2031
 30
0.0
 10
26.674
 20
67.7031
 30
0.0
 10
26.674
 20
67.7031
 30
0.0
 10
26.674
 20
67.7031
 30
0.0
 10
26.674
 20
67.7031
 30
0.0
 10
30.6738
 20
67.7031
 30
0.0
 10
30.6738
 20
67.7031
 30
0.0
 10
30.6738
 20
67.7031
 30
0.0
 10
30.6738
 20
67.7031
 30
0.0
 10
30.6738
 20
78.2031
 30
0.0
 10
30.6738
 20
78.2031
 30
0.0
 10
30.6738
 20
78.2031
 30
0.0
 10
30.6738
 20
78.2031
 30
0.0
 10
41.1741
 20
78.2031
 30
0.0
 10
41.1741
 20
78.2031
 30
0.0
 10
41.1741
 20
78.2031
 30
0.0
 10
41.1741
 20
78.2031
 30
0.0
 10
41.1741
 20
82.2032
 30
0.0
 10
41.1741
 20
82.2032
 30
0.0
 10
41.1741
 20
82.2032
 30
0.0
 10
41.1741
 20
82.2032
 30
0.0
 10
30.6738
 20
82.2032
 30
0.0
 10
30.6738
 20
82.2032
 30
0.0
 10
30.6738
 20
82.2032
 30
0.0
 10
30.6738
 20
82.2032
 30
0.0
 10
30.6738
 20
92.7031
 30
0.0
 10
30.6738
 20
92.7031
 30
0.0
 10
30.6738
 20
92.7031
 30
0.0
 10
30.6738
 20
92.7031
 30
0.0
 10
26.674
 20
92.7031
 30
0.0
 10
26.674
 20
92.7031
 30
0.0
 10
26.674
 20
92.7031
 30
0.0
 10
26.674
 20
92.7031
 30
0.0
 10
26.674
 20
82.2032
 30
0.0
 10
26.674
 20
82.2032
 30
0.0
 10
26.674
 20
82.2032
 30
0.0
 10
26.674
 20
82.2032
 30
0.0
 10
16.174
 20
82.2032
 30
0.0
 10
16.174
 20
82.2032
 30
0.0
 10
16.174
 20
82.2032
 30
0.0
 10
16.174
 20
82.2032
 30
0.0
 10
16.174
 20
78.2031
 30
0.0
 10
16.174
 20
78.2031
 30
0.0
  0
SPLINE
  5
6C
330
1F
100
AcDbEntity
  8
layer 1
370
     9
100
AcDbSpline
210
0.0
220
0.0
230
1.0
 70
    11
 71
     3
 72
    20
 73
    16
 74
     0
 42
0.0000000001
 43
0.0000000001
 40
0.0
 40
0.0
 40
0.0
 40
0.0
 40
0.2
 40
0.2
 40
0.2
 40
0.2
 40
0.4
 40
0.4
 40
0.4
 40
0.4
 40
0.6
 40
0.6
 40
0.6
 40
0.6
 40
1.0
 40
1.0
 40
1.0
 40
1.0
 10
-50.1653
 20
50.202
 30
0.0
 10
-50.1653
 20
55.7249
 30
0.0
 10
-45.6881
 20
60.2021
 30
0.0
 10
-40.1656
 20
60.2021
 30
0.0
 10
-40.1656
 20
60.2021
 30
0.0
 10
-34.6424
 20
60.2021
 30
0.0
 10
-30.1652
 20
55.7249
 30
0.0
 10
-30.1652
 20
50.202
 30
0.0
 10
-30.1652
 20
50.202
 30
0.0
 10
-30.1652
 20
44.6792
 30
0.0
 10
-34.6424
 20
40.202
 30
0.0
 10
-40.1656
 20
40.202
 30
0.0
 10
-40.1656
 20
40.202
 30
0.0
 10
-45.6881
 20
40.202
 30
0.0
 10
-50.1653
 20
44.6792
 30
0.0
 10
-50.1653
 20
50.202
 30
0.0
  0
SPLINE
  5
6D
330
1F
100
AcDbEntity
  8
layer 1
370
     9
100
AcDbSpline
210
0.0
220
0.0
230
1.0
 70
    11
 71
     3
 72
    52
 73
    48
 74
     0
 42
0.0000000001
 43
0.0000000001
 40
0.0
 40
0.0
 40
0.0
 40
0.0
 40
0.0769230769230769
 40
0.0769230769230769
 40
0.0769230769230769
 40
0.0769230769230769
 40
0.1538461538461539
 40
0.1538461538461539
 40
0.1538461538461539
 40
0.1538461538461539
 40
0.2307692307692308
 40
0.2307692307692308
 40
0.2307692307692308
 40
0.2307692307692308
 40
0.3076923076923077
 40
0.3076923076923077
 40
0.3076923076923077
 40
0.3076923076923077
 40
0.3846153846153846
 40
0.3846153846153846
 40
0.3846153846153846
 40
0.3846153846153846
 40
0.4615384615384616
 40
0.4615384615384616
 40
0.4615384615384616
 40
0.4615384615384616
 40
0.5384615384615384
 40
0.5384615384615384
 40
0.5384615384615384
 40
0.5384615384615384
 40
0.6153846153846154
 40
0.6153846153846154
 40
0.6153846153846154
 40
0.6153846153846154
 40
0.6923076923076923
 40
0.6923076923076923
 40
0.6923076923076923
 40
0.6923076923076923
 40
0.7692307692307693
 40
0.7692307692307693
 40
0.7692307692307693
 40
0.7692307692307693
 40
0.8461538461538461
 40
0.8461538461538461
 40
0.8461538461538461
 40
0.8461538461538461
 40
1.0
 40
1.0
 40
1.0
 40
1.0
 10
-47.6652
 20
48.2021
 30
0.0
 10
-47.6652
 20
48.2021
 30
0.0
 10
-42.1651
 20
48.2021
 30
0.0
 10
-42.1651
 20
48.2021
 30
0.0
 10
-42.1651
 20
48.2021
 30
0.0
 10
-42.1651
 20
48.2021
 30
0.0
 10
-42.1651
 20
42.7021
 30
0.0
 10
-42.1651
 20
42.7021
 30
0.0
 10
-42.1651
 20
42.7021
 30
0.0
 10
-42.1651
 20
42.7021
 30
0.0
 10
-38.1654
 20
42.7021
 30
0.0
 10
-38.1654
 20
42.7021
 30
0.0
 10
-38.1654
 20
42.7021
 30
0.0
 10
-38.1654
 20
42.7021
 30
0.0
 10
-38.1654
 20
48.2021
 30
0.0
 10
-38.1654
 20
48.2021
 30
0.0
 10
-38.1654
 20
48.2021
 30
0.0
 10
-38.1654
 20
48.2021
 30
0.0
 10
-32.6653
 20
48.2021
 30
0.0
 10
-32.6653
 20
48.2021
 30
0.0
 10
-32.6653
 20
48.2021
 30
0.0
 10
-32.6653
 20
48.2021
 30
0.0
 10
-32.6653
 20
52.2019
 30
0.0
 10
-32.6653
 20
52.2019
 30
0.0
 10
-32.6653
 20
52.2019
 30
0.0
 10
-32.6653
 20
52.2019
 30
0.0
 10
-38.1654
 20
52.2019
 30
0.0
 10
-38.1654
 20
52.2019
 30
0.0
 10
-38.1654
 20
52.2019
 30
0.0
 10
-38.1654
 20
52.2019
 30
0.0
 10
-38.1654
 20
57.702
 30
0.0
 10
-38.1654
 20
57.702
 30
0.0
 10
-38.1654
 20
57.702
 30
0.0
 10
-38.1654
 20
57.702
 30
0.0
 10
-42.1651
 20
57.702
 30
0.0
 10
-42.1651
 20
57.702
 30
0.0
 10
-42.1651
 20
57.702
 30
0.0
 10
-42.1651
 20
57.702
 30
0.0
 10
-42.1651
 20
52.2019
 30
0.0
 10
-42.1651
 20
52.2019
 30
0.0
 10
-42.1651
 20
52.2019
 30
0.0
 10
-42.1651
 20
52.2019
 30
0.0
 10
-47.6652
 20
52.2019
 30
0.0
 10
-47.6652
 20
52.2019
 30
0.0
 10
-47.6652
 20
52.2019
 30
0.0
 10
-47.6652
 20
52.2019
 30
0.0
 10
-47.6652
 20
48.2021
 30
0.0
 10
-47.6652
 20
48.2021
 30
0.0
  0
SPLINE
  5
6E
330
1F
100
AcDbEntity
  8
layer 1
370
     9
100
AcDbSpline
210
0.0
220
0.0
230
1.0
 70
     8
 71
     3
 72
     8
 73
     4
 74
     0
 42
0.0000000001
 43
0.0000000001
 40
0.0
 40
0.0
 40
0.0
 40
0.0
 40
1.0
 40
1.0
 40
1.0
 40
1.0
 10
21.7043
 20
43.6976
 30
0.0
 10
21.7043
 20
40.3111
 30
0.0
 10
20.4528
 20
37.2684
 30
0.0
 10
18.4632
 20
35.1689
 30
0.0
  0
SPLINE
  5
6F
330
1F
100
AcDbEntity
  8
layer 1
370
     9
100
AcDbSpline
210
0.0
220
0.0
230
1.0
 70
     8
 71
     3
 72
    40
 73
    36
 74
     0
 42
0.0000000001
 43
0.0000000001
 40
0.0
 40
0.0
 40
0.0
 40
0.0
 40
0.1
 40
0.1
 40
0.1
 40
0.1
 40
0.2
 40
0.2
 40
0.2
 40
0.2
 40
0.3
 40
0.3
 40
0.3
 40
0.3
 40
0.4
 40
0.4
 40
0.4
 40
0.4
 40
0.5
 40
0.5
 40
0.5
 40
0.5
 40
0.6
 40
0.6
 40
0.6
 40
0.6
 40
0.7
 40
0.7
 40
0.7
 40
0.7
 40
0.8
 40
0.8
 40
0.8
 40
0.8
 40
1.0
 40
1.0
 40
1.0
 40
1.0
 10
18.4632
 20
35.1689
 30
0.0
 10
18.4632
 20
35.1689
 30
0.0
 10
18.4816
 20
35.1689
 30
0.0
 10
18.4816
 20
35.1689
 30
0.0
 10
18.4816
 20
35.1689
 30
0.0
 10
18.4816
 20
35.1689
 30
0.0
 10
18.4816
 20
31.1692
 30
0.0
 10
18.4816
 20
31.1692
 30
0.0
 10
18.4816
 20
31.1692
 30
0.0
 10
18.4816
 20
31.1692
 30
0.0
 10
23.9816
 20
31.1692
 30
0.0
 10
23.9816
 20
31.1692
 30
0.0
 10
23.9816
 20
31.1692
 30
0.0
 10
23.9816
 20
31.1692
 30
0.0
 10
23.9816
 20
45.1687
 30
0.0
 10
23.9816
 20
45.1687
 30
0.0
 10
23.9816
 20
45.1687
 30
0.0
 10
23.9816
 20
45.1687
 30
0.0
 10
27.9815
 20
45.1687
 30
0.0
 10
27.9815
 20
45.1687
 30
0.0
 10
27.9815
 20
45.1687
 30
0.0
 10
27.9815
 20
45.1687
 30
0.0
 10
27.9815
 20
31.1692
 30
0.0
 10
27.9815
 20
31.1692
 30
0.0
 10
27.9815
 20
31.1692
 30
0.0
 10
27.9815
 20
31.1692
 30
0.0
 10
33.4816
 20
31.1692
 30
0.0
 10
33.4816
 20
31.1692
 30
0.0
 10
33.4816
 20
31.1692
 30
0.0
 10
33.4816
 20
31.1692
 30
0.0
 10
33.4816
 20
35.1689
 30
0.0
 10
33.4816
 20
35.1689
 30
0.0
 10
33.4816
 20
35.1689
 30
0.0
 10
33.4816
 20
35.1689
 30
0.0
 10
33.382
 20
35.1689
 30
0.0
 10
33.382
 20
35.1689
 30
0.0
  0
SPLINE
  5
70
330
1F
100
AcDbEntity
  8
layer 1
370
     9
100
AcDbSpline
210
0.0
220
0.0
230
1.0
 70
     8
 71
     3
 72
    12
 73
     8
 74
     0
 42
0.0000000001
 43
0.0000000001
 40
0.0
 40
0.0
 40
0.0
 40
0.0
 40
0.3333333333333333
 40
0.3333333333333333
 40
0.3333333333333333
 40
0.3333333333333333
 40
1.0
 40
1.0
 40
1.0
 40
1.0
 10
33.382
 20
35.1689
 30
0.0
 10
31.3926
 20
37.2684
 30
0.0
 10
30.1411
 20
40.3111
 30
0.0
 10
30.1411
 20
43.6976
 30
0.0
 10
30.1411
 20
43.6976
 30
0.0
 10
30.1411
 20
49.4592
 30
0.0
 10
33.7631
 20
54.2272
 30
0.0
 10
38.4816
 20
55.0444
 30
0.0
  0
SPLINE
  5
71
330
1F
100
AcDbEntity
  8
layer 1
370
     9
100
AcDbSpline
210
0.0
220
0.0
230
1.0
 70
     8
 71
     3
 72
    16
 73
    12
 74
     0
 42
0.0000000001
 43
0.0000000001
 40
0.0
 40
0.0
 40
0.0
 40
0.0
 40
0.25
 40
0.25
 40
0.25
 40
0.25
 40
0.5
 40
0.5
 40
0.5
 40
0.5
 40
1.0
 40
1.0
 40
1.0
 40
1.0
 10
38.4816
 20
55.0444
 30
0.0
 10
38.4816
 20
55.0444
 30
0.0
 10
38.4816
 20
59.1689
 30
0.0
 10
38.4816
 20
59.1689
 30
0.0
 10
38.4816
 20
59.1689
 30
0.0
 10
38.4816
 20
59.1689
 30
0.0
 10
13.4816
 20
59.1689
 30
0.0
 10
13.4816
 20
59.1689
 30
0.0
 10
13.4816
 20
59.1689
 30
0.0
 10
13.4816
 20
59.1689
 30
0.0
 10
13.4816
 20
55.0224
 30
0.0
 10
13.4816
 20
55.0224
 30
0.0
  0
SPLINE
  5
72
330
1F
100
AcDbEntity
  8
layer 1
370
     9
100
AcDbSpline
210
0.0
220
0.0
230
1.0
 70
     8
 71
     3
 72
     8
 73
     4
 74
     0
 42
0.0000000001
 43
0.0000000001
 40
0.0
 40
0.0
 40
0.0
 40
0.0
 40
1.0
 40
1.0
 40
1.0
 40
1.0
 10
13.4816
 20
55.0224
 30
0.0
 10
18.1427
 20
54.1473
 30
0.0
 10
21.7043
 20
49.411
 30
0.0
 10
21.7043
 20
43.6976
 30
0.0
  0
SPLINE
  5
73
330
1F
100
AcDbEntity
  8
layer 1
370
     9
100
AcDbSpline
210
0.0
220
0.0
230
1.0
 70
     8
 71
     3
 72
     8
 73
     4
 74
     0
 42
0.0000000001
 43
0.0000000001
 40
0.0
 40
0.0
 40
0.0
 40
0.0
 40
1.0
 40
1.0
 40
1.0
 40
1.0
 10
-7.0081
 20
43.6773
 30
0.0
 10
-7.0081
 20
40.2911
 30
0.0
 10
-8.2597
 20
37.2484
 30
0.0
 10
-10.2493
 20
35.1483
 30
0.0
  0
SPLINE
  5
74
330
1F
100
AcDbEntity
  8
layer 1
370
     9
100
AcDbSpline
210
0.0
220
0.0
230
1.0
 70
     8
 71
     3
 72
    24
 73
    20
 74
     0
 42
0.0000000001
 43
0.0000000001
 40
0.0
 40
0.0
 40
0.0
 40
0.0
 40
0.1666666666666667
 40
0.1666666666666667
 40
0.1666666666666667
 40
0.1666666666666667
 40
0.3333333333333333
 40
0.3333333333333333
 40
0.3333333333333333
 40
0.3333333333333333
 40
0.5
 40
0.5
 40
0.5
 40
0.5
 40
0.6666666666666666
 40
0.6666666666666666
 40
0.6666666666666666
 40
0.6666666666666666
 40
1.0
 40
1.0
 40
1.0
 40
1.0
 10
-10.2493
 20
35.1483
 30
0.0
 10
-10.2493
 20
35.1483
 30
0.0
 10
-10.2306
 20
35.1483
 30
0.0
 10
-10.2306
 20
35.1483
 30
0.0
 10
-10.2306
 20
35.1483
 30
0.0
 10
-10.2306
 20
35.1483
 30
0.0
 10
-10.2306
 20
31.1485
 30
0.0
 10
-10.2306
 20
31.1485
 30
0.0
 10
-10.2306
 20
31.1485
 30
0.0
 10
-10.2306
 20
31.1485
 30
0.0
 10
4.7693
 20
31.1485
 30
0.0
 10
4.7693
 20
31.1485
 30
0.0
 10
4.7693
 20
31.1485
 30
0.0
 10
4.7693
 20
31.1485
 30
0.0
 10
4.7693
 20
35.1483
 30
0.0
 10
4.7693
 20
35.1483
 30
0.0
 10
4.7693
 20
35.1483
 30
0.0
 10
4.7693
 20
35.1483
 30
0.0
 10
4.6694
 20
35.1483
 30
0.0
 10
4.6694
 20
35.1483
 30
0.0
  0
SPLINE
  5
75
330
1F
100
AcDbEntity
  8
layer 1
370
     9
100
AcDbSpline
210
0.0
220
0.0
230
1.0
 70
     8
 71
     3
 72
    12
 73
     8
 74
     0
 42
0.0000000001
 43
0.0000000001
 40
0.0
 40
0.0
 40
0.0
 40
0.0
 40
0.3333333333333333
 40
0.3333333333333333
 40
0.3333333333333333
 40
0.3333333333333333
 40
1.0
 40
1.0
 40
1.0
 40
1.0
 10
4.6694
 20
35.1483
 30
0.0
 10
2.6802
 20
37.2484
 30
0.0
 10
1.4286
 20
40.2911
 30
0.0
 10
1.4286
 20
43.6773
 30
0.0
 10
1.4286
 20
43.6773
 30
0.0
 10
1.4286
 20
49.4389
 30
0.0
 10
5.0504
 20
54.2069
 30
0.0
 10
9.7692
 20
55.0241
 30
0.0
  0
SPLINE
  5
76
330
1F
100
AcDbEntity
  8
layer 1
370
     9
100
AcDbSpline
210
0.0
220
0.0
230
1.0
 70
     8
 71
     3
 72
    32
 73
    28
 74
     0
 42
0.0000000001
 43
0.0000000001
 40
0.0
 40
0.0
 40
0.0
 40
0.0
 40
0.125
 40
0.125
 40
0.125
 40
0.125
 40
0.25
 40
0.25
 40
0.25
 40
0.25
 40
0.375
 40
0.375
 40
0.375
 40
0.375
 40
0.5
 40
0.5
 40
0.5
 40
0.5
 40
0.625
 40
0.625
 40
0.625
 40
0.625
 40
0.75
 40
0.75
 40
0.75
 40
0.75
 40
1.0
 40
1.0
 40
1.0
 40
1.0
 10
9.7692
 20
55.0241
 30
0.0
 10
9.7692
 20
55.0241
 30
0.0
 10
9.7692
 20
59.1486
 30
0.0
 10
9.7692
 20
59.1486
 30
0.0
 10
9.7692
 20
59.1486
 30
0.0
 10
9.7692
 20
59.1486
 30
0.0
 10
-0.7311
 20
59.1486
 30
0.0
 10
-0.7311
 20
59.1486
 30
0.0
 10
-0.7311
 20
59.1486
 30
0.0
 10
-0.7311
 20
59.1486
 30
0.0
 10
-0.7311
 20
45.1484
 30
0.0
 10
-0.7311
 20
45.1484
 30
0.0
 10
-0.7311
 20
45.1484
 30
0.0
 10
-0.7311
 20
45.1484
 30
0.0
 10
-4.7309
 20
45.1484
 30
0.0
 10
-4.7309
 20
45.1484
 30
0.0
 10
-4.7309
 20
45.1484
 30
0.0
 10
-4.7309
 20
45.1484
 30
0.0
 10
-4.7309
 20
59.1486
 30
0.0
 10
-4.7309
 20
59.1486
 30
0.0
 10
-4.7309
 20
59.1486
 30
0.0
 10
-4.7309
 20
59.1486
 30
0.0
 10
-15.2309
 20
59.1486
 30
0.0
 10
-15.2309
 20
59.1486
 30
0.0
 10
-15.2309
 20
59.1486
 30
0.0
 10
-15.2309
 20
59.1486
 30
0.0
 10
-15.2309
 20
55.002
 30
0.0
 10
-15.2309
 20
55.002
 30
0.0
  0
SPLINE
  5
77
330
1F
100
AcDbEntity
  8
layer 1
370
     9
100
AcDbSpline
210
0.0
220
0.0
230
1.0
 70
     8
 71
     3
 72
     8
 73
     4
 74
     0
 42
0.0000000001
 43
0.0000000001
 40
0.0
 40
0.0
 40
0.0
 40
0.0
 40
1.0
 40
1.0
 40
1.0
 40
1.0
 10
-15.2309
 20
55.002
 30
0.0
 10
-10.5696
 20
54.127
 30
0.0
 10
-7.0081
 20
49.3907
 30
0.0
 10
-7.0081
 20
43.6773
 30
0.0
  0
SPLINE
  5
78
330
1F
100
AcDbEntity
  8
layer 1
100
AcDbSpline
210
0.0
220
0.0
230
1.0
 70
    11
 71
     3
 72
    52
 73
    48
 74
     0
 42
0.0000000001
 43
0.0000000001
 40
0.0
 40
0.0
 40
0.0
 40
0.0
 40
0.0769230769230769
 40
0.0769230769230769
 40
0.0769230769230769
 40
0.0769230769230769
 40
0.1538461538461539
 40
0.1538461538461539
 40
0.1538461538461539
 40
0.1538461538461539
 40
0.2307692307692308
 40
0.2307692307692308
 40
0.2307692307692308
 40
0.2307692307692308
 40
0.3076923076923077
 40
0.3076923076923077
 40
0.3076923076923077
 40
0.3076923076923077
 40
0.3846153846153846
 40
0.3846153846153846
 40
0.3846153846153846
 40
0.3846153846153846
 40
0.4615384615384616
 40
0.4615384615384616
 40
0.4615384615384616
 40
0.4615384615384616
 40
0.5384615384615384
 40
0.5384615384615384
 40
0.5384615384615384
 40
0.5384615384615384
 40
0.6153846153846154
 40
0.6153846153846154
 40
0.6153846153846154
 40
0.6153846153846154
 40
0.6923076923076923
 40
0.6923076923076923
 40
0.6923076923076923
 40
0.6923076923076923
 40
0.7692307692307693
 40
0.7692307692307693
 40
0.7692307692307693
 40
0.7692307692307693
 40
0.8461538461538461
 40
0.8461538461538461
 40
0.8461538461538461
 40
0.8461538461538461
 40
1.0
 40
1.0
 40
1.0
 40
1.0
 10
-16.7201
 20
-109.0032
 30
0.0
 10
-16.7201
 20
-109.0032
 30
0.0
 10
-21.8248
 20
-109.0032
 30
0.0
 10
-21.8248
 20
-109.0032
 30
0.0
 10
-21.8248
 20
-109.0032
 30
0.0
 10
-21.8248
 20
-109.0032
 30
0.0
 10
-21.8248
 20
-99.3269
 30
0.0
 10
-21.8248
 20
-99.3269
 30
0.0
 10
-21.8248
 20
-99.3269
 30
0.0
 10
-21.8248
 20
-99.3269
 30
0.0
 10
-16.9359
 20
-99.3269
 30
0.0
 10
-16.9359
 20
-99.3269
 30
0.0
 10
-16.9359
 20
-99.3269
 30
0.0
 10
-16.9359
 20
-99.3269
 30
0.0
 10
-16.9359
 20
-100.2158
 30
0.0
 10
-16.9359
 20
-100.2158
 30
0.0
 10
-16.9359
 20
-100.2158
 30
0.0
 10
-16.9359
 20
-100.2158
 30
0.0
 10
-20.7708
 20
-100.2158
 30
0.0
 10
-20.7708
 20
-100.2158
 30
0.0
 10
-20.7708
 20
-100.2158
 30
0.0
 10
-20.7708
 20
-100.2158
 30
0.0
 10
-20.7708
 20
-103.4921
 30
0.0
 10
-20.7708
 20
-103.4921
 30
0.0
 10
-20.7708
 20
-103.4921
 30
0.0
 10
-20.7708
 20
-103.4921
 30
0.0
 10
-17.1645
 20
-103.4921
 30
0.0
 10
-17.1645
 20
-103.4921
 30
0.0
 10
-17.1645
 20
-103.4921
 30
0.0
 10
-17.1645
 20
-103.4921
 30
0.0
 10
-17.1645
 20
-104.3681
 30
0.0
 10
-17.1645
 20
-104.3681
 30
0.0
 10
-17.1645
 20
-104.3681
 30
0.0
 10
-17.1645
 20
-104.3681
 30
0.0
 10
-20.7708
 20
-104.3681
 30
0.0
 10
-20.7708
 20
-104.3681
 30
0.0
 10
-20.7708
 20
-104.3681
 30
0.0
 10
-20.7708
 20
-104.3681
 30
0.0
 10
-20.7708
 20
-108.1143
 30
0.0
 10
-20.7708
 20
-108.1143
 30
0.0
 10
-20.7708
 20
-108.1143
 30
0.0
 10
-20.7708
 20
-108.1143
 30
0.0
 10
-16.7201
 20
-108.1143
 30
0.0
 10
-16.7201
 20
-108.1143
 30
0.0
 10
-16.7201
 20
-108.1143
 30
0.0
 10
-16.7201
 20
-108.1143
 30
0.0
 10
-16.7201
 20
-109.0032
 30
0.0
 10
-16.7201
 20
-109.0032
 30
0.0
  0
SPLINE
  5
79
330
1F
100
AcDbEntity
  8
layer 1
100
AcDbSpline
210
0.0
220
0.0
230
1.0
 70
    11
 71
     3
 72
    76
 73
    72
 74
     0
 42
0.0000000001
 43
0.0000000001
 40
0.0
 40
0.0
 40
0.0
 40
0.0
 40
0.0526315789473684
 40
0.0526315789473684
 40
0.0526315789473684
 40
0.0526315789473684
 40
0.1052631578947368
 40
0.1052631578947368
 40
0.1052631578947368
 40
0.1052631578947368
 40
0.1578947368421053
 40
0.1578947368421053
 40
0.1578947368421053
 40
0.1578947368421053
 40
0.2105263157894737
 40
0.2105263157894737
 40
0.2105263157894737
 40
0.2105263157894737
 40
0.2631578947368421
 40
0.2631578947368421
 40
0.2631578947368421
 40
0.2631578947368421
 40
0.3157894736842105
 40
0.3157894736842105
 40
0.3157894736842105
 40
0.3157894736842105
 40
0.3684210526315789
 40
0.3684210526315789
 40
0.3684210526315789
 40
0.3684210526315789
 40
0.4210526315789473
 40
0.4210526315789473
 40
0.4210526315789473
 40
0.4210526315789473
 40
0.4736842105263158
 40
0.4736842105263158
 40
0.4736842105263158
 40
0.4736842105263158
 40
0.5263157894736842
 40
0.5263157894736842
 40
0.5263157894736842
 40
0.5263157894736842
 40
0.5789473684210527
 40
0.5789473684210527
 40
0.5789473684210527
 40
0.5789473684210527
 40
0.631578947368421
 40
0.631578947368421
 40
0.631578947368421
 40
0.631578947368421
 40
0.6842105263157895
 40
0.6842105263157895
 40
0.6842105263157895
 40
0.6842105263157895
 40
0.7368421052631579
 40
0.7368421052631579
 40
0.7368421052631579
 40
0.7368421052631579
 40
0.7894736842105263
 40
0.7894736842105263
 40
0.7894736842105263
 40
0.7894736842105263
 40
0.8421052631578947
 40
0.8421052631578947
 40
0.8421052631578947
 40
0.8421052631578947
 40
0.8947368421052632
 40
0.8947368421052632
 40
0.8947368421052632
 40
0.8947368421052632
 40
1.0
 40
1.0
 40
1.0
 40
1.0
 10
-10.2304
 20
-102.0827
 30
0.0
 10
-10.2304
 20
-102.0827
 30
0.0
 10
-12.516
 20
-105.4351
 30
0.0
 10
-12.516
 20
-105.4351
 30
0.0
 10
-12.516
 20
-105.4351
 30
0.0
 10
-12.516
 20
-105.4351
 30
0.0
 10
-10.1668
 20
-109.0032
 30
0.0
 10
-10.1668
 20
-109.0032
 30
0.0
 10
-10.1668
 20
-109.0032
 30
0.0
 10
-10.1668
 20
-109.0032
 30
0.0
 10
-11.3733
 20
-109.0032
 30
0.0
 10
-11.3733
 20
-109.0032
 30
0.0
 10
-11.3733
 20
-109.0032
 30
0.0
 10
-11.3733
 20
-109.0032
 30
0.0
 10
-12.4146
 20
-107.3905
 30
0.0
 10
-12.4146
 20
-107.3905
 30
0.0
 10
-12.4146
 20
-107.3905
 30
0.0
 10
-12.6685
 20
-106.9713
 30
0.0
 10
-12.8971
 20
-106.5906
 30
0.0
 10
-13.151
 20
-106.1461
 30
0.0
 10
-13.151
 20
-106.1461
 30
0.0
 10
-13.151
 20
-106.1461
 30
0.0
 10
-13.1765
 20
-106.1461
 30
0.0
 10
-13.1765
 20
-106.1461
 30
0.0
 10
-13.1765
 20
-106.1461
 30
0.0
 10
-13.3923
 20
-106.5778
 30
0.0
 10
-13.6462
 20
-106.9588
 30
0.0
 10
-13.9128
 20
-107.3905
 30
0.0
 10
-13.9128
 20
-107.3905
 30
0.0
 10
-13.9128
 20
-107.3905
 30
0.0
 10
-14.9288
 20
-109.0032
 30
0.0
 10
-14.9288
 20
-109.0032
 30
0.0
 10
-14.9288
 20
-109.0032
 30
0.0
 10
-14.9288
 20
-109.0032
 30
0.0
 10
-16.097
 20
-109.0032
 30
0.0
 10
-16.097
 20
-109.0032
 30
0.0
 10
-16.097
 20
-109.0032
 30
0.0
 10
-16.097
 20
-109.0032
 30
0.0
 10
-13.7225
 20
-105.473
 30
0.0
 10
-13.7225
 20
-105.473
 30
0.0
 10
-13.7225
 20
-105.473
 30
0.0
 10
-13.7225
 20
-105.473
 30
0.0
 10
-15.9828
 20
-102.0827
 30
0.0
 10
-15.9828
 20
-102.0827
 30
0.0
 10
-15.9828
 20
-102.0827
 30
0.0
 10
-15.9828
 20
-102.0827
 30
0.0
 10
-14.8018
 20
-102.0827
 30
0.0
 10
-14.8018
 20
-102.0827
 30
0.0
 10
-14.8018
 20
-102.0827
 30
0.0
 10
-14.8018
 20
-102.0827
 30
0.0
 10
-13.7987
 20
-103.6192
 30
0.0
 10
-13.7987
 20
-103.6192
 30
0.0
 10
-13.7987
 20
-103.6192
 30
0.0
 10
-13.5447
 20
-104.0126
 30
0.0
 10
-13.3287
 20
-104.3681
 30
0.0
 10
-13.1002
 20
-104.7746
 30
0.0
 10
-13.1002
 20
-104.7746
 30
0.0
 10
-13.1002
 20
-104.7746
 30
0.0
 10
-13.0621
 20
-104.7746
 30
0.0
 10
-13.0621
 20
-104.7746
 30
0.0
 10
-13.0621
 20
-104.7746
 30
0.0
 10
-12.8463
 20
-104.3681
 30
0.0
 10
-12.6049
 20
-103.9875
 30
0.0
 10
-12.3638
 20
-103.6192
 30
0.0
 10
-12.3638
 20
-103.6192
 30
0.0
 10
-12.3638
 20
-103.6192
 30
0.0
 10
-11.3859
 20
-102.0827
 30
0.0
 10
-11.3859
 20
-102.0827
 30
0.0
 10
-11.3859
 20
-102.0827
 30
0.0
 10
-11.3859
 20
-102.0827
 30
0.0
 10
-10.2304
 20
-102.0827
 30
0.0
 10
-10.2304
 20
-102.0827
 30
0.0
  0
SPLINE
  5
7A
330
1F
100
AcDbEntity
  8
layer 1
100
AcDbSpline
210
0.0
220
0.0
230
1.0
 70
    11
 71
     3
 72
    56
 73
    52
 74
     0
 42
0.0000000001
 43
0.0000000001
 40
0.0
 40
0.0
 40
0.0
 40
0.0
 40
0.0714285714285714
 40
0.0714285714285714
 40
0.0714285714285714
 40
0.0714285714285714
 40
0.1428571428571428
 40
0.1428571428571428
 40
0.1428571428571428
 40
0.1428571428571428
 40
0.2142857142857143
 40
0.2142857142857143
 40
0.2142857142857143
 40
0.2142857142857143
 40
0.2857142857142857
 40
0.2857142857142857
 40
0.2857142857142857
 40
0.2857142857142857
 40
0.3571428571428572
 40
0.3571428571428572
 40
0.3571428571428572
 40
0.3571428571428572
 40
0.4285714285714285
 40
0.4285714285714285
 40
0.4285714285714285
 40
0.4285714285714285
 40
0.5
 40
0.5
 40
0.5
 40
0.5
 40
0.5714285714285714
 40
0.5714285714285714
 40
0.5714285714285714
 40
0.5714285714285714
 40
0.6428571428571429
 40
0.6428571428571429
 40
0.6428571428571429
 40
0.6428571428571429
 40
0.7142857142857143
 40
0.7142857142857143
 40
0.7142857142857143
 40
0.7142857142857143
 40
0.7857142857142857
 40
0.7857142857142857
 40
0.7857142857142857
 40
0.7857142857142857
 40
0.8571428571428571
 40
0.8571428571428571
 40
0.8571428571428571
 40
0.8571428571428571
 40
1.0
 40
1.0
 40
1.0
 40
1.0
 10
-4.4138
 20
-107.3523
 30
0.0
 10
-4.4138
 20
-107.9238
 30
0.0
 10
-4.4013
 20
-108.5205
 30
0.0
 10
-4.3124
 20
-109.0032
 30
0.0
 10
-4.3124
 20
-109.0032
 30
0.0
 10
-4.3124
 20
-109.0032
 30
0.0
 10
-5.2774
 20
-109.0032
 30
0.0
 10
-5.2774
 20
-109.0032
 30
0.0
 10
-5.2774
 20
-109.0032
 30
0.0
 10
-5.2774
 20
-109.0032
 30
0.0
 10
-5.379
 20
-108.1143
 30
0.0
 10
-5.379
 20
-108.1143
 30
0.0
 10
-5.379
 20
-108.1143
 30
0.0
 10
-5.379
 20
-108.1143
 30
0.0
 10
-5.4171
 20
-108.1143
 30
0.0
 10
-5.4171
 20
-108.1143
 30
0.0
 10
-5.4171
 20
-108.1143
 30
0.0
 10
-5.7726
 20
-108.6604
 30
0.0
 10
-6.4838
 20
-109.1554
 30
0.0
 10
-7.4616
 20
-109.1554
 30
0.0
 10
-7.4616
 20
-109.1554
 30
0.0
 10
-8.7822
 20
-109.1554
 30
0.0
 10
-9.4806
 20
-108.1905
 30
0.0
 10
-9.4806
 20
-107.1873
 30
0.0
 10
-9.4806
 20
-107.1873
 30
0.0
 10
-9.4806
 20
-105.5239
 30
0.0
 10
-8.0329
 20
-104.6224
 30
0.0
 10
-5.4679
 20
-104.6348
 30
0.0
 10
-5.4679
 20
-104.6348
 30
0.0
 10
-5.4679
 20
-104.0509
 30
0.0
 10
-5.4679
 20
-102.73
 30
0.0
 10
-7.0425
 20
-102.73
 30
0.0
 10
-7.0425
 20
-102.73
 30
0.0
 10
-7.6393
 20
-102.73
 30
0.0
 10
-8.2615
 20
-102.8954
 30
0.0
 10
-8.7314
 20
-103.2254
 30
0.0
 10
-8.7314
 20
-103.2254
 30
0.0
 10
-8.7314
 20
-103.2254
 30
0.0
 10
-8.9853
 20
-102.5016
 30
0.0
 10
-8.9853
 20
-102.5016
 30
0.0
 10
-8.9853
 20
-102.5016
 30
0.0
 10
-8.4267
 20
-102.1333
 30
0.0
 10
-7.6521
 20
-101.9173
 30
0.0
 10
-6.8774
 20
-101.9173
 30
0.0
 10
-6.8774
 20
-101.9173
 30
0.0
 10
-4.9218
 20
-101.9173
 30
0.0
 10
-4.4138
 20
-103.3015
 30
0.0
 10
-4.4138
 20
-104.673
 30
0.0
 10
-4.4138
 20
-104.673
 30
0.0
 10
-4.4138
 20
-104.673
 30
0.0
 10
-4.4138
 20
-107.3523
 30
0.0
 10
-4.4138
 20
-107.3523
 30
0.0
  0
SPLINE
  5
7B
330
1F
100
AcDbEntity
  8
layer 1
100
AcDbSpline
210
0.0
220
0.0
230
1.0
 70
    11
 71
     3
 72
    24
 73
    20
 74
     0
 42
0.0000000001
 43
0.0000000001
 40
0.0
 40
0.0
 40
0.0
 40
0.0
 40
0.1666666666666667
 40
0.1666666666666667
 40
0.1666666666666667
 40
0.1666666666666667
 40
0.3333333333333333
 40
0.3333333333333333
 40
0.3333333333333333
 40
0.3333333333333333
 40
0.5
 40
0.5
 40
0.5
 40
0.5
 40
0.6666666666666666
 40
0.6666666666666666
 40
0.6666666666666666
 40
0.6666666666666666
 40
1.0
 40
1.0
 40
1.0
 40
1.0
 10
-5.4551
 20
-105.4096
 30
0.0
 10
-5.4551
 20
-105.4096
 30
0.0
 10
-5.4551
 20
-105.4096
 30
0.0
 10
-5.4551
 20
-105.4096
 30
0.0
 10
-5.4551
 20
-105.4096
 30
0.0
 10
-6.7631
 20
-105.4096
 30
0.0
 10
-8.4012
 20
-105.6001
 30
0.0
 10
-8.4012
 20
-107.0605
 30
0.0
 10
-8.4012
 20
-107.0605
 30
0.0
 10
-8.4012
 20
-107.9493
 30
0.0
 10
-7.8426
 20
-108.3427
 30
0.0
 10
-7.2077
 20
-108.3427
 30
0.0
 10
-7.2077
 20
-108.3427
 30
0.0
 10
-6.1789
 20
-108.3427
 30
0.0
 10
-5.4551
 20
-107.5555
 30
0.0
 10
-5.4551
 20
-106.7174
 30
0.0
 10
-5.4551
 20
-106.7174
 30
0.0
 10
-5.4551
 20
-106.7174
 30
0.0
 10
-5.4551
 20
-105.4096
 30
0.0
 10
-5.4551
 20
-105.4096
 30
0.0
  0
SPLINE
  5
7C
330
1F
100
AcDbEntity
  8
layer 1
100
AcDbSpline
210
0.0
220
0.0
230
1.0
 70
    11
 71
     3
 72
    92
 73
    88
 74
     0
 42
0.0000000001
 43
0.0000000001
 40
0.0
 40
0.0
 40
0.0
 40
0.0
 40
0.0434782608695652
 40
0.0434782608695652
 40
0.0434782608695652
 40
0.0434782608695652
 40
0.0869565217391304
 40
0.0869565217391304
 40
0.0869565217391304
 40
0.0869565217391304
 40
0.1304347826086956
 40
0.1304347826086956
 40
0.1304347826086956
 40
0.1304347826086956
 40
0.1739130434782609
 40
0.1739130434782609
 40
0.1739130434782609
 40
0.1739130434782609
 40
0.2173913043478261
 40
0.2173913043478261
 40
0.2173913043478261
 40
0.2173913043478261
 40
0.2608695652173913
 40
0.2608695652173913
 40
0.2608695652173913
 40
0.2608695652173913
 40
0.3043478260869565
 40
0.3043478260869565
 40
0.3043478260869565
 40
0.3043478260869565
 40
0.3478260869565217
 40
0.3478260869565217
 40
0.3478260869565217
 40
0.3478260869565217
 40
0.391304347826087
 40
0.391304347826087
 40
0.391304347826087
 40
0.391304347826087
 40
0.4347826086956522
 40
0.4347826086956522
 40
0.4347826086956522
 40
0.4347826086956522
 40
0.4782608695652174
 40
0.4782608695652174
 40
0.4782608695652174
 40
0.4782608695652174
 40
0.5217391304347826
 40
0.5217391304347826
 40
0.5217391304347826
 40
0.5217391304347826
 40
0.5652173913043478
 40
0.5652173913043478
 40
0.5652173913043478
 40
0.5652173913043478
 40
0.6086956521739131
 40
0.6086956521739131
 40
0.6086956521739131
 40
0.6086956521739131
 40
0.6521739130434783
 40
0.6521739130434783
 40
0.6521739130434783
 40
0.6521739130434783
 40
0.6956521739130435
 40
0.6956521739130435
 40
0.6956521739130435
 40
0.6956521739130435
 40
0.7391304347826086
 40
0.7391304347826086
 40
0.7391304347826086
 40
0.7391304347826086
 40
0.782608695652174
 40
0.782608695652174
 40
0.782608695652174
 40
0.782608695652174
 40
0.8260869565217391
 40
0.8260869565217391
 40
0.8260869565217391
 40
0.8260869565217391
 40
0.8695652173913043
 40
0.8695652173913043
 40
0.8695652173913043
 40
0.8695652173913043
 40
0.9130434782608695
 40
0.9130434782608695
 40
0.9130434782608695
 40
0.9130434782608695
 40
1.0
 40
1.0
 40
1.0
 40
1.0
 10
7.0407
 20
-109.0032
 30
0.0
 10
7.0407
 20
-109.0032
 30
0.0
 10
5.9993
 20
-109.0032
 30
0.0
 10
5.9993
 20
-109.0032
 30
0.0
 10
5.9993
 20
-109.0032
 30
0.0
 10
5.9993
 20
-109.0032
 30
0.0
 10
5.9993
 20
-105.0031
 30
0.0
 10
5.9993
 20
-105.0031
 30
0.0
 10
5.9993
 20
-105.0031
 30
0.0
 10
5.9993
 20
-103.6571
 30
0.0
 10
5.517
 20
-102.7937
 30
0.0
 10
4.4755
 20
-102.7937
 30
0.0
 10
4.4755
 20
-102.7937
 30
0.0
 10
3.6249
 20
-102.7937
 30
0.0
 10
2.8501
 20
-103.5937
 30
0.0
 10
2.8501
 20
-104.6475
 30
0.0
 10
2.8501
 20
-104.6475
 30
0.0
 10
2.8501
 20
-104.6475
 30
0.0
 10
2.8501
 20
-109.0032
 30
0.0
 10
2.8501
 20
-109.0032
 30
0.0
 10
2.8501
 20
-109.0032
 30
0.0
 10
2.8501
 20
-109.0032
 30
0.0
 10
1.809
 20
-109.0032
 30
0.0
 10
1.809
 20
-109.0032
 30
0.0
 10
1.809
 20
-109.0032
 30
0.0
 10
1.809
 20
-109.0032
 30
0.0
 10
1.809
 20
-104.7364
 30
0.0
 10
1.809
 20
-104.7364
 30
0.0
 10
1.809
 20
-104.7364
 30
0.0
 10
1.809
 20
-103.6316
 30
0.0
 10
1.3391
 20
-102.7937
 30
0.0
 10
0.3614
 20
-102.7937
 30
0.0
 10
0.3614
 20
-102.7937
 30
0.0
 10
-0.5402
 20
-102.7937
 30
0.0
 10
-1.3401
 20
-103.6826
 30
0.0
 10
-1.3401
 20
-104.7619
 30
0.0
 10
-1.3401
 20
-104.7619
 30
0.0
 10
-1.3401
 20
-104.7619
 30
0.0
 10
-1.3401
 20
-109.0032
 30
0.0
 10
-1.3401
 20
-109.0032
 30
0.0
 10
-1.3401
 20
-109.0032
 30
0.0
 10
-1.3401
 20
-109.0032
 30
0.0
 10
-2.3814
 20
-109.0032
 30
0.0
 10
-2.3814
 20
-109.0032
 30
0.0
 10
-2.3814
 20
-109.0032
 30
0.0
 10
-2.3814
 20
-109.0032
 30
0.0
 10
-2.3814
 20
-103.8603
 30
0.0
 10
-2.3814
 20
-103.8603
 30
0.0
 10
-2.3814
 20
-103.8603
 30
0.0
 10
-2.3814
 20
-103.1493
 30
0.0
 10
-2.4069
 20
-102.6411
 30
0.0
 10
-2.4322
 20
-102.0699
 30
0.0
 10
-2.4322
 20
-102.0699
 30
0.0
 10
-2.4322
 20
-102.0699
 30
0.0
 10
-1.5052
 20
-102.0699
 30
0.0
 10
-1.5052
 20
-102.0699
 30
0.0
 10
-1.5052
 20
-102.0699
 30
0.0
 10
-1.5052
 20
-102.0699
 30
0.0
 10
-1.4418
 20
-103.1871
 30
0.0
 10
-1.4418
 20
-103.1871
 30
0.0
 10
-1.4418
 20
-103.1871
 30
0.0
 10
-1.4418
 20
-103.1871
 30
0.0
 10
-1.4037
 20
-103.1871
 30
0.0
 10
-1.4037
 20
-103.1871
 30
0.0
 10
-1.4037
 20
-103.1871
 30
0.0
 10
-1.0227
 20
-102.5143
 30
0.0
 10
-0.3877
 20
-101.9173
 30
0.0
 10
0.7042
 20
-101.9173
 30
0.0
 10
0.7042
 20
-101.9173
 30
0.0
 10
1.6058
 20
-101.9173
 30
0.0
 10
2.3041
 20
-102.4761
 30
0.0
 10
2.5962
 20
-103.3015
 30
0.0
 10
2.5962
 20
-103.3015
 30
0.0
 10
2.5962
 20
-103.3015
 30
0.0
 10
2.6217
 20
-103.3015
 30
0.0
 10
2.6217
 20
-103.3015
 30
0.0
 10
2.6217
 20
-103.3015
 30
0.0
 10
3.0789
 20
-102.4761
 30
0.0
 10
3.7772
 20
-101.9173
 30
0.0
 10
4.8438
 20
-101.9173
 30
0.0
 10
4.8438
 20
-101.9173
 30
0.0
 10
5.6948
 20
-101.9173
 30
0.0
 10
7.0407
 20
-102.4634
 30
0.0
 10
7.0407
 20
-104.838
 30
0.0
 10
7.0407
 20
-104.838
 30
0.0
 10
7.0407
 20
-104.838
 30
0.0
 10
7.0407
 20
-109.0032
 30
0.0
 10
7.0407
 20
-109.0032
 30
0.0
  0
SPLINE
  5
7D
330
1F
100
AcDbEntity
  8
layer 1
100
AcDbSpline
210
0.0
220
0.0
230
1.0
 70
    11
 71
     3
 72
    52
 73
    48
 74
     0
 42
0.0000000001
 43
0.0000000001
 40
0.0
 40
0.0
 40
0.0
 40
0.0
 40
0.0769230769230769
 40
0.0769230769230769
 40
0.0769230769230769
 40
0.0769230769230769
 40
0.1538461538461539
 40
0.1538461538461539
 40
0.1538461538461539
 40
0.1538461538461539
 40
0.2307692307692308
 40
0.2307692307692308
 40
0.2307692307692308
 40
0.2307692307692308
 40
0.3076923076923077
 40
0.3076923076923077
 40
0.3076923076923077
 40
0.3076923076923077
 40
0.3846153846153846
 40
0.3846153846153846
 40
0.3846153846153846
 40
0.3846153846153846
 40
0.4615384615384616
 40
0.4615384615384616
 40
0.4615384615384616
 40
0.4615384615384616
 40
0.5384615384615384
 40
0.5384615384615384
 40
0.5384615384615384
 40
0.5384615384615384
 40
0.6153846153846154
 40
0.6153846153846154
 40
0.6153846153846154
 40
0.6153846153846154
 40
0.6923076923076923
 40
0.6923076923076923
 40
0.6923076923076923
 40
0.6923076923076923
 40
0.7692307692307693
 40
0.7692307692307693
 40
0.7692307692307693
 40
0.7692307692307693
 40
0.8461538461538461
 40
0.8461538461538461
 40
0.8461538461538461
 40
0.8461538461538461
 40
1.0
 40
1.0
 40
1.0
 40
1.0
 10
10.0769
 20
-103.2509
 30
0.0
 10
10.5596
 20
-102.4
 30
0.0
 10
11.3595
 20
-101.9173
 30
0.0
 10
12.4389
 20
-101.9173
 30
0.0
 10
12.4389
 20
-101.9173
 30
0.0
 10
14.077
 20
-101.9173
 30
0.0
 10
15.258
 20
-103.327
 30
0.0
 10
15.258
 20
-105.4475
 30
0.0
 10
15.258
 20
-105.4475
 30
0.0
 10
15.258
 20
-107.9872
 30
0.0
 10
13.7721
 20
-109.1554
 30
0.0
 10
12.2483
 20
-109.1554
 30
0.0
 10
12.2483
 20
-109.1554
 30
0.0
 10
11.334
 20
-109.1554
 30
0.0
 10
10.5723
 20
-108.7365
 30
0.0
 10
10.1658
 20
-108.0509
 30
0.0
 10
10.1658
 20
-108.0509
 30
0.0
 10
10.1658
 20
-108.0509
 30
0.0
 10
10.1406
 20
-108.0509
 30
0.0
 10
10.1406
 20
-108.0509
 30
0.0
 10
10.1406
 20
-108.0509
 30
0.0
 10
10.1406
 20
-108.0509
 30
0.0
 10
10.1406
 20
-111.835
 30
0.0
 10
10.1406
 20
-111.835
 30
0.0
 10
10.1406
 20
-111.835
 30
0.0
 10
10.1406
 20
-111.835
 30
0.0
 10
9.0864
 20
-111.835
 30
0.0
 10
9.0864
 20
-111.835
 30
0.0
 10
9.0864
 20
-111.835
 30
0.0
 10
9.0864
 20
-111.835
 30
0.0
 10
9.0864
 20
-104.3047
 30
0.0
 10
9.0864
 20
-104.3047
 30
0.0
 10
9.0864
 20
-104.3047
 30
0.0
 10
9.0864
 20
-103.4032
 30
0.0
 10
9.061
 20
-102.7048
 30
0.0
 10
9.0358
 20
-102.0699
 30
0.0
 10
9.0358
 20
-102.0699
 30
0.0
 10
9.0358
 20
-102.0699
 30
0.0
 10
9.988
 20
-102.0699
 30
0.0
 10
9.988
 20
-102.0699
 30
0.0
 10
9.988
 20
-102.0699
 30
0.0
 10
9.988
 20
-102.0699
 30
0.0
 10
10.0518
 20
-103.2509
 30
0.0
 10
10.0518
 20
-103.2509
 30
0.0
 10
10.0518
 20
-103.2509
 30
0.0
 10
10.0518
 20
-103.2509
 30
0.0
 10
10.0769
 20
-103.2509
 30
0.0
 10
10.0769
 20
-103.2509
 30
0.0
  0
SPLINE
  5
7E
330
1F
100
AcDbEntity
  8
layer 1
100
AcDbSpline
210
0.0
220
0.0
230
1.0
 70
    11
 71
     3
 72
    28
 73
    24
 74
     0
 42
0.0000000001
 43
0.0000000001
 40
0.0
 40
0.0
 40
0.0
 40
0.0
 40
0.1428571428571428
 40
0.1428571428571428
 40
0.1428571428571428
 40
0.1428571428571428
 40
0.2857142857142857
 40
0.2857142857142857
 40
0.2857142857142857
 40
0.2857142857142857
 40
0.4285714285714285
 40
0.4285714285714285
 40
0.4285714285714285
 40
0.4285714285714285
 40
0.5714285714285714
 40
0.5714285714285714
 40
0.5714285714285714
 40
0.5714285714285714
 40
0.7142857142857143
 40
0.7142857142857143
 40
0.7142857142857143
 40
0.7142857142857143
 40
1.0
 40
1.0
 40
1.0
 40
1.0
 10
10.1406
 20
-106.2478
 30
0.0
 10
10.1406
 20
-106.2478
 30
0.0
 10
10.1406
 20
-106.2478
 30
0.0
 10
10.1406
 20
-106.2478
 30
0.0
 10
10.1406
 20
-106.2478
 30
0.0
 10
10.1406
 20
-107.5938
 30
0.0
 10
11.1435
 20
-108.3049
 30
0.0
 10
12.0833
 20
-108.3049
 30
0.0
 10
12.0833
 20
-108.3049
 30
0.0
 10
13.4421
 20
-108.3049
 30
0.0
 10
14.1914
 20
-107.1366
 30
0.0
 10
14.1914
 20
-105.4857
 30
0.0
 10
14.1914
 20
-105.4857
 30
0.0
 10
14.1914
 20
-104.0509
 30
0.0
 10
13.4676
 20
-102.781
 30
0.0
 10
12.1216
 20
-102.781
 30
0.0
 10
12.1216
 20
-102.781
 30
0.0
 10
10.9406
 20
-102.781
 30
0.0
 10
10.1406
 20
-103.9237
 30
0.0
 10
10.1406
 20
-104.9269
 30
0.0
 10
10.1406
 20
-104.9269
 30
0.0
 10
10.1406
 20
-104.9269
 30
0.0
 10
10.1406
 20
-106.2478
 30
0.0
 10
10.1406
 20
-106.2478
 30
0.0
  0
SPLINE
  5
7F
330
1F
100
AcDbEntity
  8
layer 1
100
AcDbSpline
210
0.0
220
0.0
230
1.0
 70
    11
 71
     3
 72
    20
 73
    16
 74
     0
 42
0.0000000001
 43
0.0000000001
 40
0.0
 40
0.0
 40
0.0
 40
0.0
 40
0.2
 40
0.2
 40
0.2
 40
0.2
 40
0.4
 40
0.4
 40
0.4
 40
0.4
 40
0.6
 40
0.6
 40
0.6
 40
0.6
 40
1.0
 40
1.0
 40
1.0
 40
1.0
 10
17.9
 20
-109.0032
 30
0.0
 10
17.9
 20
-109.0032
 30
0.0
 10
16.8458
 20
-109.0032
 30
0.0
 10
16.8458
 20
-109.0032
 30
0.0
 10
16.8458
 20
-109.0032
 30
0.0
 10
16.8458
 20
-109.0032
 30
0.0
 10
16.8458
 20
-98.8443
 30
0.0
 10
16.8458
 20
-98.8443
 30
0.0
 10
16.8458
 20
-98.8443
 30
0.0
 10
16.8458
 20
-98.8443
 30
0.0
 10
17.9
 20
-98.8443
 30
0.0
 10
17.9
 20
-98.8443
 30
0.0
 10
17.9
 20
-98.8443
 30
0.0
 10
17.9
 20
-98.8443
 30
0.0
 10
17.9
 20
-109.0032
 30
0.0
 10
17.9
 20
-109.0032
 30
0.0
  0
SPLINE
  5
80
330
1F
100
AcDbEntity
  8
layer 1
100
AcDbSpline
210
0.0
220
0.0
230
1.0
 70
    11
 71
     3
 72
    40
 73
    36
 74
     0
 42
0.0000000001
 43
0.0000000001
 40
0.0
 40
0.0
 40
0.0
 40
0.0
 40
0.1
 40
0.1
 40
0.1
 40
0.1
 40
0.2
 40
0.2
 40
0.2
 40
0.2
 40
0.3
 40
0.3
 40
0.3
 40
0.3
 40
0.4
 40
0.4
 40
0.4
 40
0.4
 40
0.5
 40
0.5
 40
0.5
 40
0.5
 40
0.6
 40
0.6
 40
0.6
 40
0.6
 40
0.7
 40
0.7
 40
0.7
 40
0.7
 40
0.8
 40
0.8
 40
0.8
 40
0.8
 40
1.0
 40
1.0
 40
1.0
 40
1.0
 10
24.897
 20
-108.711
 30
0.0
 10
24.5036
 20
-108.9015
 30
0.0
 10
23.7798
 20
-109.1427
 30
0.0
 10
22.7256
 20
-109.1427
 30
0.0
 10
22.7256
 20
-109.1427
 30
0.0
 10
20.7068
 20
-109.1427
 30
0.0
 10
19.5003
 20
-107.7206
 30
0.0
 10
19.5003
 20
-105.6507
 30
0.0
 10
19.5003
 20
-105.6507
 30
0.0
 10
19.5003
 20
-103.4793
 30
0.0
 10
20.7191
 20
-101.9173
 30
0.0
 10
22.586
 20
-101.9173
 30
0.0
 10
22.586
 20
-101.9173
 30
0.0
 10
24.7192
 20
-101.9173
 30
0.0
 10
25.2653
 20
-103.8731
 30
0.0
 10
25.2653
 20
-105.0792
 30
0.0
 10
25.2653
 20
-105.0792
 30
0.0
 10
25.2653
 20
-105.3207
 30
0.0
 10
25.2525
 20
-105.4985
 30
0.0
 10
25.2398
 20
-105.6635
 30
0.0
 10
25.2398
 20
-105.6635
 30
0.0
 10
25.2398
 20
-105.6635
 30
0.0
 10
20.529
 20
-105.6635
 30
0.0
 10
20.529
 20
-105.6635
 30
0.0
 10
20.529
 20
-105.6635
 30
0.0
 10
20.5414
 20
-107.581
 30
0.0
 10
21.6335
 20
-108.3049
 30
0.0
 10
22.8782
 20
-108.3049
 30
0.0
 10
22.8782
 20
-108.3049
 30
0.0
 10
23.7415
 20
-108.3049
 30
0.0
 10
24.2621
 20
-108.1271
 30
0.0
 10
24.6937
 20
-107.9493
 30
0.0
 10
24.6937
 20
-107.9493
 30
0.0
 10
24.6937
 20
-107.9493
 30
0.0
 10
24.897
 20
-108.711
 30
0.0
 10
24.897
 20
-108.711
 30
0.0
  0
SPLINE
  5
81
330
1F
100
AcDbEntity
  8
layer 1
100
AcDbSpline
210
0.0
220
0.0
230
1.0
 70
    11
 71
     3
 72
    20
 73
    16
 74
     0
 42
0.0000000001
 43
0.0000000001
 40
0.0
 40
0.0
 40
0.0
 40
0.0
 40
0.2
 40
0.2
 40
0.2
 40
0.2
 40
0.4
 40
0.4
 40
0.4
 40
0.4
 40
0.6
 40
0.6
 40
0.6
 40
0.6
 40
1.0
 40
1.0
 40
1.0
 40
1.0
 10
24.2242
 20
-104.8763
 30
0.0
 10
24.2242
 20
-104.8763
 30
0.0
 10
24.2242
 20
-104.8763
 30
0.0
 10
24.2242
 20
-104.8763
 30
0.0
 10
24.2242
 20
-104.8763
 30
0.0
 10
24.2369
 20
-103.9364
 30
0.0
 10
23.8432
 20
-102.7176
 30
0.0
 10
22.4844
 20
-102.7176
 30
0.0
 10
22.4844
 20
-102.7176
 30
0.0
 10
21.2145
 20
-102.7176
 30
0.0
 10
20.6558
 20
-103.9237
 30
0.0
 10
20.5541
 20
-104.8763
 30
0.0
 10
20.5541
 20
-104.8763
 30
0.0
 10
20.5541
 20
-104.8763
 30
0.0
 10
24.2242
 20
-104.8763
 30
0.0
 10
24.2242
 20
-104.8763
 30
0.0
  0
ENDSEC
  0
SECTION
  2
OBJECTS
  0
DICTIONARY
  5
C
330
0
100
AcDbDictionary
281
     1
  3
ACAD_GROUP
350
D
  3
ACAD_LAYOUT
350
1A
  3
ACAD_MATERIAL
350
3B
  3
ACAD_MLEADERSTYLE
350
A3
  3
ACAD_MLINESTYLE
350
17
  3
ACAD_PLOTSETTINGS
350
19
  3
ACAD_PLOTSTYLENAME
350
E
  3
ACAD_TABLESTYLE
350
A2
  3
ACAD_VISUALSTYLE
350
2A
  0
DICTIONARY
  5
D
102
{ACAD_REACTORS
330
C
102
}
330
C
100
AcDbDictionary
281
     1
  0
DICTIONARY
  5
1A
102
{ACAD_REACTORS
330
C
102
}
330
C
100
AcDbDictionary
281
     1
  3
Layout1
350
1E
  3
Layout2
350
26
  3
Model
350
22
  0
DICTIONARY
  5
3B
102
{ACAD_REACTORS
330
C
102
}
330
C
100
AcDbDictionary
281
     1
  3
ByBlock
350
3D
  3
ByLayer
350
3C
  3
Global
350
3E
  0
DICTIONARY
  5
A3
102
{ACAD_REACTORS
330
C
102
}
330
C
100
AcDbDictionary
281
     1
  0
DICTIONARY
  5
17
102
{ACAD_REACTORS
330
C
102
}
330
C
100
AcDbDictionary
281
     1
  3
Standard
350
18
  0
DICTIONARY
  5
19
102
{ACAD_REACTORS
330
C
102
}
330
C
100
AcDbDictionary
281
     1
  0
ACDBDICTIONARYWDFLT
  5
E
102
{ACAD_REACTORS
330
C
102
}
330
C
100
AcDbDictionary
281
     1
  3
Normal
350
F
100
AcDbDictionaryWithDefault
340
F
  0
DICTIONARY
  5
A2
102
{ACAD_REACTORS
330
C
102
}
330
C
100
AcDbDictionary
281
     1
  0
DICTIONARY
  5
2A
102
{ACAD_REACTORS
330
C
102
}
330
C
100
AcDbDictionary
281
     1
  3
2dWireframe
350
2F
  3
3D Hidden
350
31
  3
3dWireframe
350
30
  3
Basic
350
32
  3
Brighten
350
36
  3
ColorChange
350
3A
  3
Conceptual
350
34
  3
Dim
350
35
  3
Facepattern
350
39
  3
Flat
350
2B
  3
FlatWithEdges
350
2C
  3
Gouraud
350
2D
  3
GouraudWithEdges
350
2E
  3
Linepattern
350
38
  3
Realistic
350
33
  3
Thicken
350
37
  0
LAYOUT
  5
1E
102
{ACAD_REACTORS
330
1A
102
}
330
1A
100
AcDbPlotSettings
  1

  2
none_device
  4

  6

 40
0.0
 41
0.0
 42
0.0
 43
0.0
 44
0.0
 45
0.0
 46
0.0
 47
0.0
 48
0.0
 49
0.0
140
0.0
141
0.0
142
1.0
143
1.0
 70
   688
 72
     0
 73
     0
 74
     5
  7

 75
    16
 76
     0
 77
     2
 78
   300
147
1.0
148
0.0
149
0.0
100
AcDbLayout
  1
Layout1
 70
     1
 71
     1
 10
0.0
 20
0.0
 11
12.0
 21
9.0
 12
0.0
 22
0.0
 32
0.0
 14
1.000000000000000E+20
 24
1.000000000000000E+20
 34
1.000000000000000E+20
 15
-1.000000000000000E+20
 25
-1.000000000000000E+20
 35
-1.000000000000000E+20
146
0.0
 13
0.0
 23
0.0
 33
0.0
 16
1.0
 26
0.0
 36
0.0
 17
0.0
 27
1.0
 37
0.0
 76
     0
330
1B
  0
LAYOUT
  5
26
102
{ACAD_REACTORS
330
1A
102
}
330
1A
100
AcDbPlotSettings
  1

  2
none_device
  4

  6

 40
0.0
 41
0.0
 42
0.0
 43
0.0
 44
0.0
 45
0.0
 46
0.0
 47
0.0
 48
0.0
 49
0.0
140
0.0
141
0.0
142
1.0
143
1.0
 70
   688
 72
     0
 73
     0
 74
     5
  7

 75
    16
 76
     0
 77
     2
 78
   300
147
1.0
148
0.0
149
0.0
100
AcDbLayout
  1
Layout2
 70
     1
 71
     2
 10
0.0
 20
0.0
 11
0.0
 21
0.0
 12
0.0
 22
0.0
 32
0.0
 14
0.0
 24
0.0
 34
0.0
 15
0.0
 25
0.0
 35
0.0
146
0.0
 13
0.0
 23
0.0
 33
0.0
 16
1.0
 26
0.0
 36
0.0
 17
0.0
 27
1.0
 37
0.0
 76
     0
330
23
  0
LAYOUT
  5
22
102
{ACAD_REACTORS
330
1A
102
}
330
1A
100
AcDbPlotSettings
  1

  2
none_device
  4

  6

 40
0.0
 41
0.0
 42
0.0
 43
0.0
 44
0.0
 45
0.0
 46
0.0
 47
0.0
 48
0.0
 49
0.0
140
0.0
141
0.0
142
1.0
143
1.0
 70
  1712
 72
     0
 73
     0
 74
     0
  7

 75
     0
 76
     0
 77
     2
 78
   300
147
1.0
148
0.0
149
0.0
100
AcDbLayout
  1
Model
 70
     1
 71
     0
 10
0.0
 20
0.0
 11
12.0
 21
9.0
 12
0.0
 22
0.0
 32
0.0
 14
-70.9053
 24
-111.835
 34
0.0
 15
71.0041
 25
97.88
 35
0.0
146
0.0
 13
0.0
 23
0.0
 33
0.0
 16
1.0
 26
0.0
 36
0.0
 17
0.0
 27
1.0
 37
0.0
 76
     0
330
1F
331
29
  0
MATERIAL
  5
3D
102
{ACAD_REACTORS
330
3B
102
}
330
3B
100
AcDbMaterial
  1
ByBlock
 72
     1
 94
      127
  0
MATERIAL
  5
3C
102
{ACAD_REACTORS
330
3B
102
}
330
3B
100
AcDbMaterial
  1
ByLayer
 72
     1
 94
      127
  0
MATERIAL
  5
3E
102
{ACAD_REACTORS
330
3B
102
}
330
3B
100
AcDbMaterial
  1
Global
 72
     1
 94
      127
  0
MLINESTYLE
  5
18
102
{ACAD_REACTORS
330
17
102
}
330
17
100
AcDbMlineStyle
  2
Standard
 70
     0
  3

 62
   256
 51
90.0
 52
90.0
 71
     2
 49
0.5
 62
   256
  6
BYLAYER
 49
-0.5
 62
   256
  6
BYLAYER
  0
ACDBPLACEHOLDER
  5
F
102
{ACAD_REACTORS
330
E
102
}
330
E
  0
VISUALSTYLE
  5
2F
102
{ACAD_REACTORS
330
2A
102
}
102
{ACAD_XDICTIONARY
360
8A
102
}
330
2A
100
AcDbVisualStyle
  2
2dWireframe
 70
     4
 71
     0
 72
     2
 73
     0
 90
        0
 40
-0.6
 41
-30.0
 62
     5
 63
     7
421
 16777215
 74
     1
 91
        4
 64
     7
 65
   257
 75
     1
175
     1
 42
1.0
 92
        0
 66
   257
 43
1.0
 76
     1
 77
     6
 78
     2
 67
     7
 79
     5
170
     0
171
     0
290
     0
174
     0
 93
        1
 44
0.0
173
     0
291
     0
 45
0.0
  0
VISUALSTYLE
  5
31
102
{ACAD_REACTORS
330
2A
102
}
102
{ACAD_XDICTIONARY
360
8E
102
}
330
2A
100
AcDbVisualStyle
  2
3D Hidden
 70
     6
 71
     1
 72
     2
 73
     2
 90
        0
 40
-0.6
 41
-30.0
 62
     5
 63
     7
421
 16777215
 74
     2
 91
        2
 64
     7
 65
   257
 75
     2
175
     1
 42
40.0
 92
        0
 66
   257
 43
1.0
 76
     1
 77
     6
 78
     2
 67
     7
 79
     3
170
     0
171
     0
290
     0
174
     0
 93
        1
 44
0.0
173
     0
291
     0
 45
0.0
  0
VISUALSTYLE
  5
30
102
{ACAD_REACTORS
330
2A
102
}
102
{ACAD_XDICTIONARY
360
8C
102
}
330
2A
100
AcDbVisualStyle
  2
3dWireframe
 70
     5
 71
     0
 72
     2
 73
     0
 90
        0
 40
-0.6
 41
-30.0
 62
     5
 63
     7
421
 16777215
 74
     1
 91
        4
 64
     7
 65
   257
 75
     1
175
     1
 42
1.0
 92
        0
 66
   257
 43
1.0
 76
     1
 77
     6
 78
     2
 67
     7
 79
     5
170
     0
171
     0
290
     0
174
     0
 93
        1
 44
0.0
173
     0
291
     0
 45
0.0
  0
VISUALSTYLE
  5
32
102
{ACAD_REACTORS
330
2A
102
}
102
{ACAD_XDICTIONARY
360
90
102
}
330
2A
100
AcDbVisualStyle
  2
Basic
 70
     7
 71
     1
 72
     0
 73
     1
 90
        0
 40
-0.6
 41
-30.0
 62
     5
 63
     7
421
 16777215
 74
     0
 91
        4
 64
     7
 65
   257
 75
     1
175
     1
 42
1.0
 92
        8
 66
     7
 43
1.0
 76
     1
 77
     6
 78
     2
 67
     7
 79
     5
170
     0
171
     0
290
     0
174
     0
 93
        1
 44
0.0
173
     0
291
     1
 45
0.0
  0
VISUALSTYLE
  5
36
102
{ACAD_REACTORS
330
2A
102
}
102
{ACAD_XDICTIONARY
360
98
102
}
330
2A
100
AcDbVisualStyle
  2
Brighten
 70
    12
 71
     2
 72
     2
 73
     0
 90
        0
 40
-0.6
 41
-30.0
 62
     5
 63
     7
421
 16777215
 74
     1
 91
        4
 64
     7
 65
   257
 75
     1
175
     1
 42
1.0
 92
        8
 66
     7
 43
1.0
 76
     1
 77
     6
 78
     2
 67
     7
 79
     5
170
     0
171
     0
290
     0
174
     0
 93
        1
 44
50.0
173
     0
291
     1
 45
0.0
  0
VISUALSTYLE
  5
3A
102
{ACAD_REACTORS
330
2A
102
}
102
{ACAD_XDICTIONARY
360
A0
102
}
330
2A
100
AcDbVisualStyle
  2
ColorChange
 70
    16
 71
     2
 72
     2
 73
     3
 90
        0
 40
-0.6
 41
-30.0
 62
     5
 63
     8
421
  8421504
 74
     1
 91
        4
 64
     7
 65
   257
 75
     1
175
     1
 42
1.0
 92
        8
 66
     8
424
  8421504
 43
1.0
 76
     1
 77
     6
 78
     2
 67
     7
 79
     5
170
     0
171
     0
290
     0
174
     0
 93
        1
 44
0.0
173
     0
291
     1
 45
0.0
  0
VISUALSTYLE
  5
34
102
{ACAD_REACTORS
330
2A
102
}
102
{ACAD_XDICTIONARY
360
94
102
}
330
2A
100
AcDbVisualStyle
  2
Conceptual
 70
     9
 71
     3
 72
     2
 73
     0
 90
        0
 40
-0.6
 41
-30.0
 62
     5
 63
     7
421
 16777215
 74
     2
 91
        2
 64
     7
 65
   257
 75
     1
175
     1
 42
40.0
 92
        8
 66
     7
 43
1.0
 76
     1
 77
     6
 78
     2
 67
     7
 79
     3
170
     0
171
     0
290
     0
174
     0
 93
        1
 44
0.0
173
     0
291
     0
 45
0.0
  0
VISUALSTYLE
  5
35
102
{ACAD_REACTORS
330
2A
102
}
102
{ACAD_XDICTIONARY
360
96
102
}
330
2A
100
AcDbVisualStyle
  2
Dim
 70
    11
 71
     2
 72
     2
 73
     0
 90
        0
 40
-0.6
 41
-30.0
 62
     5
 63
     7
421
 16777215
 74
     1
 91
        4
 64
     7
 65
   257
 75
     1
175
     1
 42
1.0
 92
        8
 66
     7
 43
1.0
 76
     1
 77
     6
 78
     2
 67
     7
 79
     5
170
     0
171
     0
290
     0
174
     0
 93
        1
 44
-50.0
173
     0
291
     1
 45
0.0
  0
VISUALSTYLE
  5
39
102
{ACAD_REACTORS
330
2A
102
}
102
{ACAD_XDICTIONARY
360
9E
102
}
330
2A
100
AcDbVisualStyle
  2
Facepattern
 70
    15
 71
     2
 72
     2
 73
     0
 90
        0
 40
-0.6
 41
-30.0
 62
     5
 63
     7
421
 16777215
 74
     1
 91
        4
 64
     7
 65
   257
 75
     1
175
     1
 42
1.0
 92
        8
 66
     7
 43
1.0
 76
     1
 77
     6
 78
     2
 67
     7
 79
     5
170
     0
171
     0
290
     0
174
     0
 93
        1
 44
0.0
173
     0
291
     1
 45
0.0
  0
VISUALSTYLE
  5
2B
102
{ACAD_REACTORS
330
2A
102
}
102
{ACAD_XDICTIONARY
360
82
102
}
330
2A
100
AcDbVisualStyle
  2
Flat
 70
     0
 71
     2
 72
     1
 73
     1
 90
        2
 40
-0.6
 41
30.0
 62
     5
 63
     7
421
 16777215
 74
     0
 91
        4
 64
     7
 65
   257
 75
     1
175
     1
 42
1.0
 92
        8
 66
     7
 43
1.0
 76
     1
 77
     6
 78
     2
 67
     7
 79
     5
170
     0
171
     0
290
     0
174
     0
 93
       13
 44
0.0
173
     0
291
     1
 45
0.0
  0
VISUALSTYLE
  5
2C
102
{ACAD_REACTORS
330
2A
102
}
102
{ACAD_XDICTIONARY
360
84
102
}
330
2A
100
AcDbVisualStyle
  2
FlatWithEdges
 70
     1
 71
     2
 72
     1
 73
     1
 90
        2
 40
-0.6
 41
30.0
 62
     5
 63
     7
421
 16777215
 74
     1
 91
        4
 64
     7
 65
   257
 75
     1
175
     1
 42
1.0
 92
        0
 66
   257
 43
1.0
 76
     1
 77
     6
 78
     2
 67
     7
 79
     5
170
     0
171
     0
290
     0
174
     0
 93
       13
 44
0.0
173
     0
291
     1
 45
0.0
  0
VISUALSTYLE
  5
2D
102
{ACAD_REACTORS
330
2A
102
}
102
{ACAD_XDICTIONARY
360
86
102
}
330
2A
100
AcDbVisualStyle
  2
Gouraud
 70
     2
 71
     2
 72
     2
 73
     1
 90
        2
 40
-0.6
 41
30.0
 62
     5
 63
     7
421
 16777215
 74
     0
 91
        4
 64
     7
 65
   257
 75
     1
175
     1
 42
1.0
 92
        0
 66
     7
 43
1.0
 76
     1
 77
     6
 78
     2
 67
     7
 79
     5
170
     0
171
     0
290
     0
174
     0
 93
       13
 44
0.0
173
     0
291
     1
 45
0.0
  0
VISUALSTYLE
  5
2E
102
{ACAD_REACTORS
330
2A
102
}
102
{ACAD_XDICTIONARY
360
88
102
}
330
2A
100
AcDbVisualStyle
  2
GouraudWithEdges
 70
     3
 71
     2
 72
     2
 73
     1
 90
        2
 40
-0.6
 41
30.0
 62
     5
 63
     7
421
 16777215
 74
     1
 91
        4
 64
     7
 65
   257
 75
     1
175
     1
 42
1.0
 92
        0
 66
   257
 43
1.0
 76
     1
 77
     6
 78
     2
 67
     7
 79
     5
170
     0
171
     0
290
     0
174
     0
 93
       13
 44
0.0
173
     0
291
     1
 45
0.0
  0
VISUALSTYLE
  5
38
102
{ACAD_REACTORS
330
2A
102
}
102
{ACAD_XDICTIONARY
360
9C
102
}
330
2A
100
AcDbVisualStyle
  2
Linepattern
 70
    14
 71
     2
 72
     2
 73
     0
 90
        0
 40
-0.6
 41
-30.0
 62
     5
 63
     7
421
 16777215
 74
     1
 91
        4
 64
     7
 65
   257
 75
     7
175
     7
 42
1.0
 92
        8
 66
     7
 43
1.0
 76
     1
 77
     6
 78
     2
 67
     7
 79
     5
170
     0
171
     0
290
     0
174
     0
 93
        1
 44
0.0
173
     0
291
     1
 45
0.0
  0
VISUALSTYLE
  5
33
102
{ACAD_REACTORS
330
2A
102
}
102
{ACAD_XDICTIONARY
360
92
102
}
330
2A
100
AcDbVisualStyle
  2
Realistic
 70
     8
 71
     2
 72
     2
 73
     0
 90
        0
 40
-0.6
 41
-30.0
 62
     5
 63
     7
421
 16777215
 74
     1
 91
        0
 64
     7
 65
   257
 75
     1
175
     1
 42
1.0
 92
        8
 66
     8
424
  7895160
 43
1.0
 76
     1
 77
     6
 78
     2
 67
     7
 79
     5
170
     0
171
     0
290
     0
174
     0
 93
       13
 44
0.0
173
     0
291
     0
 45
0.0
  0
VISUALSTYLE
  5
37
102
{ACAD_REACTORS
330
2A
102
}
102
{ACAD_XDICTIONARY
360
9A
102
}
330
2A
100
AcDbVisualStyle
  2
Thicken
 70
    13
 71
     2
 72
     2
 73
     0
 90
        0
 40
-0.6
 41
-30.0
 62
     5
 63
     7
421
 16777215
 74
     1
 91
        4
 64
     7
 65
   257
 75
     1
175
     1
 42
1.0
 92
       12
 66
     7
 43
1.0
 76
     1
 77
     6
 78
     2
 67
     7
 79
     5
170
     0
171
     0
290
     0
174
     0
 93
        1
 44
0.0
173
     0
291
     1
 45
0.0
  0
DICTIONARY
  5
8A
330
2F
100
AcDbDictionary
280
     1
281
     1
  3
ACAD_XREC_ROUNDTRIP
360
8B
  0
DICTIONARY
  5
8E
330
31
100
AcDbDictionary
280
     1
281
     1
  3
ACAD_XREC_ROUNDTRIP
360
8F
  0
DICTIONARY
  5
8C
330
30
100
AcDbDictionary
280
     1
281
     1
  3
ACAD_XREC_ROUNDTRIP
360
8D
  0
DICTIONARY
  5
90
330
32
100
AcDbDictionary
280
     1
281
     1
  3
ACAD_XREC_ROUNDTRIP
360
91
  0
DICTIONARY
  5
98
330
36
100
AcDbDictionary
280
     1
281
     1
  3
ACAD_XREC_ROUNDTRIP
360
99
  0
DICTIONARY
  5
A0
330
3A
100
AcDbDictionary
280
     1
281
     1
  3
ACAD_XREC_ROUNDTRIP
360
A1
  0
DICTIONARY
  5
94
330
34
100
AcDbDictionary
280
     1
281
     1
  3
ACAD_XREC_ROUNDTRIP
360
95
  0
DICTIONARY
  5
96
330
35
100
AcDbDictionary
280
     1
281
     1
  3
ACAD_XREC_ROUNDTRIP
360
97
  0
DICTIONARY
  5
9E
330
39
100
AcDbDictionary
280
     1
281
     1
  3
ACAD_XREC_ROUNDTRIP
360
9F
  0
DICTIONARY
  5
82
330
2B
100
AcDbDictionary
280
     1
281
     1
  3
ACAD_XREC_ROUNDTRIP
360
83
  0
DICTIONARY
  5
84
330
2C
100
AcDbDictionary
280
     1
281
     1
  3
ACAD_XREC_ROUNDTRIP
360
85
  0
DICTIONARY
  5
86
330
2D
100
AcDbDictionary
280
     1
281
     1
  3
ACAD_XREC_ROUNDTRIP
360
87
  0
DICTIONARY
  5
88
330
2E
100
AcDbDictionary
280
     1
281
     1
  3
ACAD_XREC_ROUNDTRIP
360
89
  0
DICTIONARY
  5
9C
330
38
100
AcDbDictionary
280
     1
281
     1
  3
ACAD_XREC_ROUNDTRIP
360
9D
  0
DICTIONARY
  5
92
330
33
100
AcDbDictionary
280
     1
281
     1
  3
ACAD_XREC_ROUNDTRIP
360
93
  0
DICTIONARY
  5
9A
330
37
100
AcDbDictionary
280
     1
281
     1
  3
ACAD_XREC_ROUNDTRIP
360
9B
  0
XRECORD
  5
8B
102
{ACAD_REACTORS
330
8A
102
}
330
8A
100
AcDbXrecord
280
     1
102
RTVSPropertyOp0
 70
     1
102
RTVSPropertyOp1
 70
     1
102
RTVSPropertyOp2
 70
     1
102
RTVSPropertyOp3
 70
     1
102
RTVSPropertyOp4
 70
     1
102
RTVSPropertyOp5
 70
     1
102
RTVSPropertyOp6
 70
     1
102
RTVSPropertyOp7
 70
     1
102
RTVSPropertyOp8
 70
     1
102
RTVSPropertyOp9
 70
     1
102
RTVSPropertyOp10
 70
     1
102
RTVSPropertyOp11
 70
     1
102
RTVSPropertyOp12
 70
     1
102
RTVSPropertyOp13
 70
     1
102
RTVSPropertyOp14
 70
     1
102
RTVSPropertyOp15
 70
     1
102
RTVSPropertyOp16
 70
     1
102
RTVSPropertyOp17
 70
     1
102
RTVSPropertyOp18
 70
     1
102
RTVSPropertyOp19
 70
     1
102
RTVSPropertyOp20
 70
     1
102
RTVSPropertyOp21
 70
     1
102
RTVSPropertyOp22
 70
     1
102
RTVSPropertyOp23
 70
     1
102
RTVSPropertyOp24
 70
     1
102
RTVSPropertyOp25
 70
     1
102
RTVSPropertyOp26
 70
     1
102
RTVSPropertyOp27
 70
     1
  0
XRECORD
  5
8F
102
{ACAD_REACTORS
330
8E
102
}
330
8E
100
AcDbXrecord
280
     1
102
RTVSPropertyOp0
 70
     1
102
RTVSPropertyOp1
 70
     1
102
RTVSPropertyOp2
 70
     1
102
RTVSPropertyOp3
 70
     1
102
RTVSPropertyOp4
 70
     1
102
RTVSPropertyOp5
 70
     1
102
RTVSPropertyOp6
 70
     1
102
RTVSPropertyOp7
 70
     1
102
RTVSPropertyOp8
 70
     1
102
RTVSPropertyOp9
 70
     1
102
RTVSPropertyOp10
 70
     1
102
RTVSPropertyOp11
 70
     1
102
RTVSPropertyOp12
 70
     1
102
RTVSPropertyOp13
 70
     1
102
RTVSPropertyOp14
 70
     1
102
RTVSPropertyOp15
 70
     1
102
RTVSPropertyOp16
 70
     1
102
RTVSPropertyOp17
 70
     1
102
RTVSPropertyOp18
 70
     1
102
RTVSPropertyOp19
 70
     1
102
RTVSPropertyOp20
 70
     1
102
RTVSPropertyOp21
 70
     1
102
RTVSPropertyOp22
 70
     1
102
RTVSPropertyOp23
 70
     1
102
RTVSPropertyOp24
 70
     1
102
RTVSPropertyOp25
 70
     1
102
RTVSPropertyOp26
 70
     1
102
RTVSPropertyOp27
 70
     1
  0
XRECORD
  5
8D
102
{ACAD_REACTORS
330
8C
102
}
330
8C
100
AcDbXrecord
280
     1
102
RTVSPropertyOp0
 70
     1
102
RTVSPropertyOp1
 70
     1
102
RTVSPropertyOp2
 70
     1
102
RTVSPropertyOp3
 70
     1
102
RTVSPropertyOp4
 70
     1
102
RTVSPropertyOp5
 70
     1
102
RTVSPropertyOp6
 70
     1
102
RTVSPropertyOp7
 70
     1
102
RTVSPropertyOp8
 70
     1
102
RTVSPropertyOp9
 70
     1
102
RTVSPropertyOp10
 70
     1
102
RTVSPropertyOp11
 70
     1
102
RTVSPropertyOp12
 70
     1
102
RTVSPropertyOp13
 70
     1
102
RTVSPropertyOp14
 70
     1
102
RTVSPropertyOp15
 70
     1
102
RTVSPropertyOp16
 70
     1
102
RTVSPropertyOp17
 70
     1
102
RTVSPropertyOp18
 70
     1
102
RTVSPropertyOp19
 70
     1
102
RTVSPropertyOp20
 70
     1
102
RTVSPropertyOp21
 70
     1
102
RTVSPropertyOp22
 70
     1
102
RTVSPropertyOp23
 70
     1
102
RTVSPropertyOp24
 70
     1
102
RTVSPropertyOp25
 70
     1
102
RTVSPropertyOp26
 70
     1
102
RTVSPropertyOp27
 70
     1
  0
XRECORD
  5
91
102
{ACAD_REACTORS
330
90
102
}
330
90
100
AcDbXrecord
280
     1
102
RTVSPropertyOp0
 70
     1
102
RTVSPropertyOp1
 70
     1
102
RTVSPropertyOp2
 70
     1
102
RTVSPropertyOp3
 70
     1
102
RTVSPropertyOp4
 70
     1
102
RTVSPropertyOp5
 70
     1
102
RTVSPropertyOp6
 70
     1
102
RTVSPropertyOp7
 70
     1
102
RTVSPropertyOp8
 70
     1
102
RTVSPropertyOp9
 70
     1
102
RTVSPropertyOp10
 70
     1
102
RTVSPropertyOp11
 70
     1
102
RTVSPropertyOp12
 70
     1
102
RTVSPropertyOp13
 70
     1
102
RTVSPropertyOp14
 70
     1
102
RTVSPropertyOp15
 70
     1
102
RTVSPropertyOp16
 70
     1
102
RTVSPropertyOp17
 70
     1
102
RTVSPropertyOp18
 70
     1
102
RTVSPropertyOp19
 70
     1
102
RTVSPropertyOp20
 70
     1
102
RTVSPropertyOp21
 70
     1
102
RTVSPropertyOp22
 70
     1
102
RTVSPropertyOp23
 70
     1
102
RTVSPropertyOp24
 70
     1
102
RTVSPropertyOp25
 70
     1
102
RTVSPropertyOp26
 70
     1
102
RTVSPropertyOp27
 70
     1
  0
XRECORD
  5
99
102
{ACAD_REACTORS
330
98
102
}
330
98
100
AcDbXrecord
280
     1
102
RTVSPropertyOp0
 70
     1
102
RTVSPropertyOp1
 70
     1
102
RTVSPropertyOp2
 70
     1
102
RTVSPropertyOp3
 70
     1
102
RTVSPropertyOp4
 70
     1
102
RTVSPropertyOp5
 70
     1
102
RTVSPropertyOp6
 70
     1
102
RTVSPropertyOp7
 70
     1
102
RTVSPropertyOp8
 70
     1
102
RTVSPropertyOp9
 70
     1
102
RTVSPropertyOp10
 70
     1
102
RTVSPropertyOp11
 70
     1
102
RTVSPropertyOp12
 70
     1
102
RTVSPropertyOp13
 70
     1
102
RTVSPropertyOp14
 70
     1
102
RTVSPropertyOp15
 70
     1
102
RTVSPropertyOp16
 70
     1
102
RTVSPropertyOp17
 70
     1
102
RTVSPropertyOp18
 70
     1
102
RTVSPropertyOp19
 70
     1
102
RTVSPropertyOp20
 70
     1
102
RTVSPropertyOp21
 70
     1
102
RTVSPropertyOp22
 70
     1
102
RTVSPropertyOp23
 70
     1
102
RTVSPropertyOp24
 70
     1
102
RTVSPropertyOp25
 70
     1
102
RTVSPropertyOp26
 70
     1
102
RTVSPropertyOp27
 70
     1
  0
XRECORD
  5
A1
102
{ACAD_REACTORS
330
A0
102
}
330
A0
100
AcDbXrecord
280
     1
102
RTVSPropertyOp0
 70
     1
102
RTVSPropertyOp1
 70
     1
102
RTVSPropertyOp2
 70
     1
102
RTVSPropertyOp3
 70
     1
102
RTVSPropertyOp4
 70
     1
102
RTVSPropertyOp5
 70
     1
102
RTVSPropertyOp6
 70
     1
102
RTVSPropertyOp7
 70
     1
102
RTVSPropertyOp8
 70
     1
102
RTVSPropertyOp9
 70
     1
102
RTVSPropertyOp10
 70
     1
102
RTVSPropertyOp11
 70
     1
102
RTVSPropertyOp12
 70
     1
102
RTVSPropertyOp13
 70
     1
102
RTVSPropertyOp14
 70
     1
102
RTVSPropertyOp15
 70
     1
102
RTVSPropertyOp16
 70
     1
102
RTVSPropertyOp17
 70
     1
102
RTVSPropertyOp18
 70
     1
102
RTVSPropertyOp19
 70
     1
102
RTVSPropertyOp20
 70
     1
102
RTVSPropertyOp21
 70
     1
102
RTVSPropertyOp22
 70
     1
102
RTVSPropertyOp23
 70
     1
102
RTVSPropertyOp24
 70
     1
102
RTVSPropertyOp25
 70
     1
102
RTVSPropertyOp26
 70
     1
102
RTVSPropertyOp27
 70
     1
  0
XRECORD
  5
95
102
{ACAD_REACTORS
330
94
102
}
330
94
100
AcDbXrecord
280
     1
102
RTVSPropertyOp0
 70
     1
102
RTVSPropertyOp1
 70
     1
102
RTVSPropertyOp2
 70
     1
102
RTVSPropertyOp3
 70
     1
102
RTVSPropertyOp4
 70
     1
102
RTVSPropertyOp5
 70
     1
102
RTVSPropertyOp6
 70
     1
102
RTVSPropertyOp7
 70
     1
102
RTVSPropertyOp8
 70
     1
102
RTVSPropertyOp9
 70
     1
102
RTVSPropertyOp10
 70
     1
102
RTVSPropertyOp11
 70
     1
102
RTVSPropertyOp12
 70
     1
102
RTVSPropertyOp13
 70
     1
102
RTVSPropertyOp14
 70
     1
102
RTVSPropertyOp15
 70
     1
102
RTVSPropertyOp16
 70
     1
102
RTVSPropertyOp17
 70
     1
102
RTVSPropertyOp18
 70
     1
102
RTVSPropertyOp19
 70
     1
102
RTVSPropertyOp20
 70
     1
102
RTVSPropertyOp21
 70
     1
102
RTVSPropertyOp22
 70
     1
102
RTVSPropertyOp23
 70
     1
102
RTVSPropertyOp24
 70
     1
102
RTVSPropertyOp25
 70
     1
102
RTVSPropertyOp26
 70
     1
102
RTVSPropertyOp27
 70
     1
  0
XRECORD
  5
97
102
{ACAD_REACTORS
330
96
102
}
330
96
100
AcDbXrecord
280
     1
102
RTVSPropertyOp0
 70
     1
102
RTVSPropertyOp1
 70
     1
102
RTVSPropertyOp2
 70
     1
102
RTVSPropertyOp3
 70
     1
102
RTVSPropertyOp4
 70
     1
102
RTVSPropertyOp5
 70
     1
102
RTVSPropertyOp6
 70
     1
102
RTVSPropertyOp7
 70
     1
102
RTVSPropertyOp8
 70
     1
102
RTVSPropertyOp9
 70
     1
102
RTVSPropertyOp10
 70
     1
102
RTVSPropertyOp11
 70
     1
102
RTVSPropertyOp12
 70
     1
102
RTVSPropertyOp13
 70
     1
102
RTVSPropertyOp14
 70
     1
102
RTVSPropertyOp15
 70
     1
102
RTVSPropertyOp16
 70
     1
102
RTVSPropertyOp17
 70
     1
102
RTVSPropertyOp18
 70
     1
102
RTVSPropertyOp19
 70
     1
102
RTVSPropertyOp20
 70
     1
102
RTVSPropertyOp21
 70
     1
102
RTVSPropertyOp22
 70
     1
102
RTVSPropertyOp23
 70
     1
102
RTVSPropertyOp24
 70
     1
102
RTVSPropertyOp25
 70
     1
102
RTVSPropertyOp26
 70
     1
102
RTVSPropertyOp27
 70
     1
  0
XRECORD
  5
9F
102
{ACAD_REACTORS
330
9E
102
}
330
9E
100
AcDbXrecord
280
     1
102
RTVSPropertyOp0
 70
     1
102
RTVSPropertyOp1
 70
     1
102
RTVSPropertyOp2
 70
     1
102
RTVSPropertyOp3
 70
     1
102
RTVSPropertyOp4
 70
     1
102
RTVSPropertyOp5
 70
     1
102
RTVSPropertyOp6
 70
     1
102
RTVSPropertyOp7
 70
     1
102
RTVSPropertyOp8
 70
     1
102
RTVSPropertyOp9
 70
     1
102
RTVSPropertyOp10
 70
     1
102
RTVSPropertyOp11
 70
     1
102
RTVSPropertyOp12
 70
     1
102
RTVSPropertyOp13
 70
     1
102
RTVSPropertyOp14
 70
     1
102
RTVSPropertyOp15
 70
     1
102
RTVSPropertyOp16
 70
     1
102
RTVSPropertyOp17
 70
     1
102
RTVSPropertyOp18
 70
     1
102
RTVSPropertyOp19
 70
     1
102
RTVSPropertyOp20
 70
     1
102
RTVSPropertyOp21
 70
     1
102
RTVSPropertyOp22
 70
     1
102
RTVSPropertyOp23
 70
     1
102
RTVSPropertyOp24
 70
     1
102
RTVSPropertyOp25
 70
     1
102
RTVSPropertyOp26
 70
     1
102
RTVSPropertyOp27
 70
     1
  0
XRECORD
  5
83
102
{ACAD_REACTORS
330
82
102
}
330
82
100
AcDbXrecord
280
     1
102
RTVSPropertyOp0
 70
     1
102
RTVSPropertyOp1
 70
     1
102
RTVSPropertyOp2
 70
     1
102
RTVSPropertyOp3
 70
     1
102
RTVSPropertyOp4
 70
     1
102
RTVSPropertyOp5
 70
     1
102
RTVSPropertyOp6
 70
     1
102
RTVSPropertyOp7
 70
     1
102
RTVSPropertyOp8
 70
     1
102
RTVSPropertyOp9
 70
     1
102
RTVSPropertyOp10
 70
     1
102
RTVSPropertyOp11
 70
     1
102
RTVSPropertyOp12
 70
     1
102
RTVSPropertyOp13
 70
     1
102
RTVSPropertyOp14
 70
     1
102
RTVSPropertyOp15
 70
     1
102
RTVSPropertyOp16
 70
     1
102
RTVSPropertyOp17
 70
     1
102
RTVSPropertyOp18
 70
     1
102
RTVSPropertyOp19
 70
     1
102
RTVSPropertyOp20
 70
     1
102
RTVSPropertyOp21
 70
     1
102
RTVSPropertyOp22
 70
     1
102
RTVSPropertyOp23
 70
     1
102
RTVSPropertyOp24
 70
     1
102
RTVSPropertyOp25
 70
     1
102
RTVSPropertyOp26
 70
     1
102
RTVSPropertyOp27
 70
     1
  0
XRECORD
  5
85
102
{ACAD_REACTORS
330
84
102
}
330
84
100
AcDbXrecord
280
     1
102
RTVSPropertyOp0
 70
     1
102
RTVSPropertyOp1
 70
     1
102
RTVSPropertyOp2
 70
     1
102
RTVSPropertyOp3
 70
     1
102
RTVSPropertyOp4
 70
     1
102
RTVSPropertyOp5
 70
     1
102
RTVSPropertyOp6
 70
     1
102
RTVSPropertyOp7
 70
     1
102
RTVSPropertyOp8
 70
     1
102
RTVSPropertyOp9
 70
     1
102
RTVSPropertyOp10
 70
     1
102
RTVSPropertyOp11
 70
     1
102
RTVSPropertyOp12
 70
     1
102
RTVSPropertyOp13
 70
     1
102
RTVSPropertyOp14
 70
     1
102
RTVSPropertyOp15
 70
     1
102
RTVSPropertyOp16
 70
     1
102
RTVSPropertyOp17
 70
     1
102
RTVSPropertyOp18
 70
     1
102
RTVSPropertyOp19
 70
     1
102
RTVSPropertyOp20
 70
     1
102
RTVSPropertyOp21
 70
     1
102
RTVSPropertyOp22
 70
     1
102
RTVSPropertyOp23
 70
     1
102
RTVSPropertyOp24
 70
     1
102
RTVSPropertyOp25
 70
     1
102
RTVSPropertyOp26
 70
     1
102
RTVSPropertyOp27
 70
     1
  0
XRECORD
  5
87
102
{ACAD_REACTORS
330
86
102
}
330
86
100
AcDbXrecord
280
     1
102
RTVSPropertyOp0
 70
     1
102
RTVSPropertyOp1
 70
     1
102
RTVSPropertyOp2
 70
     1
102
RTVSPropertyOp3
 70
     1
102
RTVSPropertyOp4
 70
     1
102
RTVSPropertyOp5
 70
     1
102
RTVSPropertyOp6
 70
     1
102
RTVSPropertyOp7
 70
     1
102
RTVSPropertyOp8
 70
     1
102
RTVSPropertyOp9
 70
     1
102
RTVSPropertyOp10
 70
     1
102
RTVSPropertyOp11
 70
     1
102
RTVSPropertyOp12
 70
     1
102
RTVSPropertyOp13
 70
     1
102
RTVSPropertyOp14
 70
     1
102
RTVSPropertyOp15
 70
     1
102
RTVSPropertyOp16
 70
     1
102
RTVSPropertyOp17
 70
     1
102
RTVSPropertyOp18
 70
     1
102
RTVSPropertyOp19
 70
     1
102
RTVSPropertyOp20
 70
     1
102
RTVSPropertyOp21
 70
     1
102
RTVSPropertyOp22
 70
     1
102
RTVSPropertyOp23
 70
     1
102
RTVSPropertyOp24
 70
     1
102
RTVSPropertyOp25
 70
     1
102
RTVSPropertyOp26
 70
     1
102
RTVSPropertyOp27
 70
     1
  0
XRECORD
  5
89
102
{ACAD_REACTORS
330
88
102
}
330
88
100
AcDbXrecord
280
     1
102
RTVSPropertyOp0
 70
     1
102
RTVSPropertyOp1
 70
     1
102
RTVSPropertyOp2
 70
     1
102
RTVSPropertyOp3
 70
     1
102
RTVSPropertyOp4
 70
     1
102
RTVSPropertyOp5
 70
     1
102
RTVSPropertyOp6
 70
     1
102
RTVSPropertyOp7
 70
     1
102
RTVSPropertyOp8
 70
     1
102
RTVSPropertyOp9
 70
     1
102
RTVSPropertyOp10
 70
     1
102
RTVSPropertyOp11
 70
     1
102
RTVSPropertyOp12
 70
     1
102
RTVSPropertyOp13
 70
     1
102
RTVSPropertyOp14
 70
     1
102
RTVSPropertyOp15
 70
     1
102
RTVSPropertyOp16
 70
     1
102
RTVSPropertyOp17
 70
     1
102
RTVSPropertyOp18
 70
     1
102
RTVSPropertyOp19
 70
     1
102
RTVSPropertyOp20
 70
     1
102
RTVSPropertyOp21
 70
     1
102
RTVSPropertyOp22
 70
     1
102
RTVSPropertyOp23
 70
     1
102
RTVSPropertyOp24
 70
     1
102
RTVSPropertyOp25
 70
     1
102
RTVSPropertyOp26
 70
     1
102
RTVSPropertyOp27
 70
     1
  0
XRECORD
  5
9D
102
{ACAD_REACTORS
330
9C
102
}
330
9C
100
AcDbXrecord
280
     1
102
RTVSPropertyOp0
 70
     1
102
RTVSPropertyOp1
 70
     1
102
RTVSPropertyOp2
 70
     1
102
RTVSPropertyOp3
 70
     1
102
RTVSPropertyOp4
 70
     1
102
RTVSPropertyOp5
 70
     1
102
RTVSPropertyOp6
 70
     1
102
RTVSPropertyOp7
 70
     1
102
RTVSPropertyOp8
 70
     1
102
RTVSPropertyOp9
 70
     1
102
RTVSPropertyOp10
 70
     1
102
RTVSPropertyOp11
 70
     1
102
RTVSPropertyOp12
 70
     1
102
RTVSPropertyOp13
 70
     1
102
RTVSPropertyOp14
 70
     1
102
RTVSPropertyOp15
 70
     1
102
RTVSPropertyOp16
 70
     1
102
RTVSPropertyOp17
 70
     1
102
RTVSPropertyOp18
 70
     1
102
RTVSPropertyOp19
 70
     1
102
RTVSPropertyOp20
 70
     1
102
RTVSPropertyOp21
 70
     1
102
RTVSPropertyOp22
 70
     1
102
RTVSPropertyOp23
 70
     1
102
RTVSPropertyOp24
 70
     1
102
RTVSPropertyOp25
 70
     1
102
RTVSPropertyOp26
 70
     1
102
RTVSPropertyOp27
 70
     1
  0
XRECORD
  5
93
102
{ACAD_REACTORS
330
92
102
}
330
92
100
AcDbXrecord
280
     1
102
RTVSPropertyOp0
 70
     1
102
RTVSPropertyOp1
 70
     1
102
RTVSPropertyOp2
 70
     1
102
RTVSPropertyOp3
 70
     1
102
RTVSPropertyOp4
 70
     1
102
RTVSPropertyOp5
 70
     1
102
RTVSPropertyOp6
 70
     1
102
RTVSPropertyOp7
 70
     1
102
RTVSPropertyOp8
 70
     1
102
RTVSPropertyOp9
 70
     1
102
RTVSPropertyOp10
 70
     1
102
RTVSPropertyOp11
 70
     1
102
RTVSPropertyOp12
 70
     1
102
RTVSPropertyOp13
 70
     1
102
RTVSPropertyOp14
 70
     1
102
RTVSPropertyOp15
 70
     1
102
RTVSPropertyOp16
 70
     1
102
RTVSPropertyOp17
 70
     1
102
RTVSPropertyOp18
 70
     1
102
RTVSPropertyOp19
 70
     1
102
RTVSPropertyOp20
 70
     1
102
RTVSPropertyOp21
 70
     1
102
RTVSPropertyOp22
 70
     1
102
RTVSPropertyOp23
 70
     1
102
RTVSPropertyOp24
 70
     1
102
RTVSPropertyOp25
 70
     1
102
RTVSPropertyOp26
 70
     1
102
RTVSPropertyOp27
 70
     1
  0
XRECORD
  5
9B
102
{ACAD_REACTORS
330
9A
102
}
330
9A
100
AcDbXrecord
280
     1
102
RTVSPropertyOp0
 70
     1
102
RTVSPropertyOp1
 70
     1
102
RTVSPropertyOp2
 70
     1
102
RTVSPropertyOp3
 70
     1
102
RTVSPropertyOp4
 70
     1
102
RTVSPropertyOp5
 70
     1
102
RTVSPropertyOp6
 70
     1
102
RTVSPropertyOp7
 70
     1
102
RTVSPropertyOp8
 70
     1
102
RTVSPropertyOp9
 70
     1
102
RTVSPropertyOp10
 70
     1
102
RTVSPropertyOp11
 70
     1
102
RTVSPropertyOp12
 70
     1
102
RTVSPropertyOp13
 70
     1
102
RTVSPropertyOp14
 70
     1
102
RTVSPropertyOp15
 70
     1
102
RTVSPropertyOp16
 70
     1
102
RTVSPropertyOp17
 70
     1
102
RTVSPropertyOp18
 70
     1
102
RTVSPropertyOp19
 70
     1
102
RTVSPropertyOp20
 70
     1
102
RTVSPropertyOp21
 70
     1
102
RTVSPropertyOp22
 70
     1
102
RTVSPropertyOp23
 70
     1
102
RTVSPropertyOp24
 70
     1
102
RTVSPropertyOp25
 70
     1
102
RTVSPropertyOp26
 70
     1
102
RTVSPropertyOp27
 70
     1
  0
ENDSEC
  0
EOF
