  0
SECTION
  2
HEADER
  9
$ACADVER
  1
AC1021
  9
$ACADMAINTVER
 70
    50
  9
$DWGCODEPAGE
  3
ANSI_1254
  9
$LASTSAVEDBY
  1
Autodesk
  9
$INSBASE
 10
0.0
 20
0.0
 30
0.0
  9
$EXTMIN
 10
1.000000000000000E 20
 20
1.000000000000000E 20
 30
1.000000000000000E 20
  9
$EXTMAX
 10
-1.000000000000000E 20
 20
-1.000000000000000E 20
 30
-1.000000000000000E 20
  9
$LIMMIN
 10
0.0
 20
0.0
  9
$LIMMAX
 10
420.0
 20
297.0
  9
$ORTHOMODE
 70
     0
  9
$REGENMODE
 70
     1
  9
$FILLMODE
 70
     1
  9
$QTEXTMODE
 70
     0
  9
$MIRRTEXT
 70
     0
  9
$LTSCALE
 40
1.0
  9
$ATTMODE
 70
     1
  9
$TEXTSIZE
 40
2.5
  9
$TRACEWID
 40
1.0
  9
$TEXTSTYLE
  7
Standard
  9
$CLAYER
  8
0
  9
$CELTYPE
  6
ByLayer
  9
$CECOLOR
 62
   256
  9
$CELTSCALE
 40
1.0
  9
$DISPSILH
 70
     0
  9
$DIMSCALE
 40
1.0
  9
$DIMASZ
 40
2.5
  9
$DIMEXO
 40
0.625
  9
$DIMDLI
 40
3.75
  9
$DIMRND
 40
0.0
  9
$DIMDLE
 40
0.0
  9
$DIMEXE
 40
1.25
  9
$DIMTP
 40
0.0
  9
$DIMTM
 40
0.0
  9
$DIMTXT
 40
2.5
  9
$DIMCEN
 40
2.5
  9
$DIMTSZ
 40
0.0
  9
$DIMTOL
 70
     0
  9
$DIMLIM
 70
     0
  9
$DIMTIH
 70
     0
  9
$DIMTOH
 70
     0
  9
$DIMSE1
 70
     0
  9
$DIMSE2
 70
     0
  9
$DIMTAD
 70
     1
  9
$DIMZIN
 70
     8
  9
$DIMBLK
  1

  9
$DIMASO
 70
     1
  9
$DIMSHO
 70
     1
  9
$DIMPOST
  1

  9
$DIMAPOST
  1

  9
$DIMALT
 70
     0
  9
$DIMALTD
 70
     3
  9
$DIMALTF
 40
0.03937007874016
  9
$DIMLFAC
 40
1.0
  9
$DIMTOFL
 70
     1
  9
$DIMTVP
 40
0.0
  9
$DIMTIX
 70
     0
  9
$DIMSOXD
 70
     0
  9
$DIMSAH
 70
     0
  9
$DIMBLK1
  1

  9
$DIMBLK2
  1

  9
$DIMSTYLE
  2
ISO-25
  9
$DIMCLRD
 70
     0
  9
$DIMCLRE
 70
     0
  9
$DIMCLRT
 70
     0
  9
$DIMTFAC
 40
1.0
  9
$DIMGAP
 40
0.625
  9
$DIMJUST
 70
     0
  9
$DIMSD1
 70
     0
  9
$DIMSD2
 70
     0
  9
$DIMTOLJ
 70
     0
  9
$DIMTZIN
 70
     8
  9
$DIMALTZ
 70
     0
  9
$DIMALTTZ
 70
     0
  9
$DIMUPT
 70
     0
  9
$DIMDEC
 70
     2
  9
$DIMTDEC
 70
     2
  9
$DIMALTU
 70
     2
  9
$DIMALTTD
 70
     3
  9
$DIMTXSTY
  7
Standard
  9
$DIMAUNIT
 70
     0
  9
$DIMADEC
 70
     0
  9
$DIMALTRND
 40
0.0
  9
$DIMAZIN
 70
     0
  9
$DIMDSEP
 70
    44
  9
$DIMATFIT
 70
     3
  9
$DIMFRAC
 70
     0
  9
$DIMLDRBLK
  1

  9
$DIMLUNIT
 70
     2
  9
$DIMLWD
 70
    -2
  9
$DIMLWE
 70
    -2
  9
$DIMTMOVE
 70
     0
  9
$DIMFXL
 40
1.0
  9
$DIMFXLON
 70
     0
  9
$DIMJOGANG
 40
0.7853981633974483
  9
$DIMTFILL
 70
     0
  9
$DIMTFILLCLR
 70
     0
  9
$DIMARCSYM
 70
     0
  9
$DIMLTYPE
  6

  9
$DIMLTEX1
  6

  9
$DIMLTEX2
  6

  9
$LUNITS
 70
     2
  9
$LUPREC
 70
     4
  9
$SKETCHINC
 40
1.0
  9
$FILLETRAD
 40
0.0
  9
$AUNITS
 70
     0
  9
$AUPREC
 70
     0
  9
$MENU
  1
.
  9
$ELEVATION
 40
0.0
  9
$PELEVATION
 40
0.0
  9
$THICKNESS
 40
0.0
  9
$LIMCHECK
 70
     0
  9
$CHAMFERA
 40
0.0
  9
$CHAMFERB
 40
0.0
  9
$CHAMFERC
 40
0.0
  9
$CHAMFERD
 40
0.0
  9
$SKPOLY
 70
     0
  9
$TDCREATE
 40
2456309.566412037
  9
$TDUCREATE
 40
2456309.483080509
  9
$TDUPDATE
 40
2457765.238518518
  9
$TDUUPDATE
 40
2457765.155185185
  9
$TDINDWG
 40
0.0000477315
  9
$TDUSRTIMER
 40
0.0000475463
  9
$USRTIMER
 70
     1
  9
$ANGBASE
 50
0.0
  9
$ANGDIR
 70
     0
  9
$PDMODE
 70
     0
  9
$PDSIZE
 40
0.0
  9
$PLINEWID
 40
0.0
  9
$SPLFRAME
 70
     0
  9
$SPLINETYPE
 70
     6
  9
$SPLINESEGS
 70
     8
  9
$HANDSEED
  5
2C3
  9
$SURFTAB1
 70
     6
  9
$SURFTAB2
 70
     6
  9
$SURFTYPE
 70
     6
  9
$SURFU
 70
     6
  9
$SURFV
 70
     6
  9
$UCSBASE
  2

  9
$UCSNAME
  2

  9
$UCSORG
 10
0.0
 20
0.0
 30
0.0
  9
$UCSXDIR
 10
1.0
 20
0.0
 30
0.0
  9
$UCSYDIR
 10
0.0
 20
1.0
 30
0.0
  9
$UCSORTHOREF
  2

  9
$UCSORTHOVIEW
 70
     0
  9
$UCSORGTOP
 10
0.0
 20
0.0
 30
0.0
  9
$UCSORGBOTTOM
 10
0.0
 20
0.0
 30
0.0
  9
$UCSORGLEFT
 10
0.0
 20
0.0
 30
0.0
  9
$UCSORGRIGHT
 10
0.0
 20
0.0
 30
0.0
  9
$UCSORGFRONT
 10
0.0
 20
0.0
 30
0.0
  9
$UCSORGBACK
 10
0.0
 20
0.0
 30
0.0
  9
$PUCSBASE
  2

  9
$PUCSNAME
  2

  9
$PUCSORG
 10
0.0
 20
0.0
 30
0.0
  9
$PUCSXDIR
 10
1.0
 20
0.0
 30
0.0
  9
$PUCSYDIR
 10
0.0
 20
1.0
 30
0.0
  9
$PUCSORTHOREF
  2

  9
$PUCSORTHOVIEW
 70
     0
  9
$PUCSORGTOP
 10
0.0
 20
0.0
 30
0.0
  9
$PUCSORGBOTTOM
 10
0.0
 20
0.0
 30
0.0
  9
$PUCSORGLEFT
 10
0.0
 20
0.0
 30
0.0
  9
$PUCSORGRIGHT
 10
0.0
 20
0.0
 30
0.0
  9
$PUCSORGFRONT
 10
0.0
 20
0.0
 30
0.0
  9
$PUCSORGBACK
 10
0.0
 20
0.0
 30
0.0
  9
$USERI1
 70
     0
  9
$USERI2
 70
     0
  9
$USERI3
 70
     0
  9
$USERI4
 70
     0
  9
$USERI5
 70
     0
  9
$USERR1
 40
0.0
  9
$USERR2
 40
0.0
  9
$USERR3
 40
0.0
  9
$USERR4
 40
0.0
  9
$USERR5
 40
0.0
  9
$WORLDVIEW
 70
     1
  9
$SHADEDGE
 70
     3
  9
$SHADEDIF
 70
    70
  9
$TILEMODE
 70
     1
  9
$MAXACTVP
 70
    64
  9
$PINSBASE
 10
0.0
 20
0.0
 30
0.0
  9
$PLIMCHECK
 70
     0
  9
$PEXTMIN
 10
0.0
 20
0.0
 30
0.0
  9
$PEXTMAX
 10
0.0
 20
0.0
 30
0.0
  9
$PLIMMIN
 10
0.0
 20
0.0
  9
$PLIMMAX
 10
12.0
 20
9.0
  9
$UNITMODE
 70
     0
  9
$VISRETAIN
 70
     1
  9
$PLINEGEN
 70
     0
  9
$PSLTSCALE
 70
     1
  9
$TREEDEPTH
 70
  3020
  9
$CMLSTYLE
  2
Standard
  9
$CMLJUST
 70
     0
  9
$CMLSCALE
 40
20.0
  9
$PROXYGRAPHICS
 70
     1
  9
$MEASUREMENT
 70
     1
  9
$CELWEIGHT
370
    -1
  9
$ENDCAPS
280
     0
  9
$JOINSTYLE
280
     0
  9
$LWDISPLAY
290
     0
  9
$INSUNITS
 70
     4
  9
$HYPERLINKBASE
  1

  9
$STYLESHEET
  1

  9
$XEDIT
290
     1
  9
$CEPSNTYPE
380
     0
  9
$PSTYLEMODE
290
     1
  9
$FINGERPRINTGUID
  2
{D36A17C0-B4E2-4527-8874-81943F1C34AC}
  9
$VERSIONGUID
  2
{265A5473-D45D-4B1C-ABB7-7FF2E3BD06BB}
  9
$EXTNAMES
290
     1
  9
$PSVPSCALE
 40
0.0
  9
$OLESTARTUP
290
     0
  9
$SORTENTS
280
   127
  9
$INDEXCTL
280
     0
  9
$HIDETEXT
280
     1
  9
$XCLIPFRAME
290
     0
  9
$HALOGAP
280
     0
  9
$OBSCOLOR
 70
   257
  9
$OBSLTYPE
280
     0
  9
$INTERSECTIONDISPLAY
280
     0
  9
$INTERSECTIONCOLOR
 70
   257
  9
$DIMASSOC
280
     2
  9
$PROJECTNAME
  1

  9
$CAMERADISPLAY
290
     0
  9
$LENSLENGTH
 40
50.0
  9
$CAMERAHEIGHT
 40
0.0
  9
$STEPSPERSEC
 40
2.0
  9
$STEPSIZE
 40
6.0
  9
$3DDWFPREC
 40
2.0
  9
$PSOLWIDTH
 40
5.0
  9
$PSOLHEIGHT
 40
80.0
  9
$LOFTANG1
 40
1.570796326794896
  9
$LOFTANG2
 40
1.570796326794896
  9
$LOFTMAG1
 40
0.0
  9
$LOFTMAG2
 40
0.0
  9
$LOFTPARAM
 70
     7
  9
$LOFTNORMALS
280
     1
  9
$LATITUDE
 40
37.795
  9
$LONGITUDE
 40
-122.394
  9
$NORTHDIRECTION
 40
0.0
  9
$TIMEZONE
 70
 -8000
  9
$LIGHTGLYPHDISPLAY
280
     1
  9
$TILEMODELIGHTSYNCH
280
     1
  9
$CMATERIAL
347
EC
  9
$SOLIDHIST
280
     0
  9
$SHOWHIST
280
     1
  9
$DWFFRAME
280
     2
  9
$DGNFRAME
280
     0
  9
$REALWORLDSCALE
290
     1
  9
$INTERFERECOLOR
 62
     1
  9
$INTERFEREOBJVS
345
F9
  9
$INTERFEREVPVS
346
F6
  9
$CSHADOW
280
     0
  9
$SHADOWPLANELOCATION
 40
0.0
  0
ENDSEC
  0
SECTION
  2
CLASSES
  0
CLASS
  1
ACDBDICTIONARYWDFLT
  2
AcDbDictionaryWithDefault
  3
ObjectDBX Classes
 90
        0
 91
        1
280
     0
281
     0
  0
CLASS
  1
ACDBPLACEHOLDER
  2
AcDbPlaceHolder
  3
ObjectDBX Classes
 90
        0
 91
        1
280
     0
281
     0
  0
CLASS
  1
LAYOUT
  2
AcDbLayout
  3
ObjectDBX Classes
 90
        0
 91
        3
280
     0
281
     0
  0
CLASS
  1
DICTIONARYVAR
  2
AcDbDictionaryVar
  3
ObjectDBX Classes
 90
        0
 91
       12
280
     0
281
     0
  0
CLASS
  1
TABLESTYLE
  2
AcDbTableStyle
  3
ObjectDBX Classes
 90
     4095
 91
        1
280
     0
281
     0
  0
CLASS
  1
MATERIAL
  2
AcDbMaterial
  3
ObjectDBX Classes
 90
     1153
 91
        3
280
     0
281
     0
  0
CLASS
  1
VISUALSTYLE
  2
AcDbVisualStyle
  3
ObjectDBX Classes
 90
     4095
 91
       24
280
     0
281
     0
  0
CLASS
  1
SCALE
  2
AcDbScale
  3
ObjectDBX Classes
 90
     1153
 91
       17
280
     0
281
     0
  0
CLASS
  1
MLEADERSTYLE
  2
AcDbMLeaderStyle
  3
ACDB_MLEADERSTYLE_CLASS
 90
     4095
 91
        2
280
     0
281
     0
  0
CLASS
  1
CELLSTYLEMAP
  2
AcDbCellStyleMap
  3
ObjectDBX Classes
 90
     1152
 91
        1
280
     0
281
     0
  0
CLASS
  1
EXACXREFPANELOBJECT
  2
ExAcXREFPanelObject
  3
EXAC_ESW
 90
     1025
 91
        0
280
     0
281
     0
  0
CLASS
  1
NPOCOLLECTION
  2
AcDbImpNonPersistentObjectsCollection
  3
ObjectDBX Classes
 90
     1153
 91
        0
280
     0
281
     0
  0
CLASS
  1
LAYER_INDEX
  2
AcDbLayerIndex
  3
ObjectDBX Classes
 90
        0
 91
        0
280
     0
281
     0
  0
CLASS
  1
SPATIAL_INDEX
  2
AcDbSpatialIndex
  3
ObjectDBX Classes
 90
        0
 91
        0
280
     0
281
     0
  0
CLASS
  1
IDBUFFER
  2
AcDbIdBuffer
  3
ObjectDBX Classes
 90
        0
 91
        0
280
     0
281
     0
  0
CLASS
  1
ACDBSECTIONVIEWSTYLE
  2
AcDbSectionViewStyle
  3
ObjectDBX Classes
 90
     1025
 91
        1
280
     0
281
     0
  0
CLASS
  1
ACDBDETAILVIEWSTYLE
  2
AcDbDetailViewStyle
  3
ObjectDBX Classes
 90
     1025
 91
        1
280
     0
281
     0
  0
ENDSEC
  0
SECTION
  2
TABLES
  0
TABLE
  2
VPORT
  5
8
330
0
100
AcDbSymbolTable
 70
     1
  0
VPORT
  5
EA
330
8
100
AcDbSymbolTableRecord
100
AcDbViewportTableRecord
  2
*Active
 70
     0
 10
0.0
 20
0.0
 11
1.0
 21
1.0
 12
2630.048781668382
 22
1440.684066268786
 13
0.0
 23
0.0
 14
10.0
 24
10.0
 15
10.0
 25
10.0
 16
0.0
 26
0.0
 36
1.0
 17
0.0
 27
0.0
 37
0.0
 40
2653.730076586097
 41
1.765478424015009
 42
50.0
 43
0.0
 44
0.0
 50
0.0
 51
0.0
 71
     0
 72
  1000
 73
     1
 74
     3
 75
     0
 76
     1
 77
     0
 78
     0
281
     0
 65
     1
110
0.0
120
0.0
130
0.0
111
1.0
121
0.0
131
0.0
112
0.0
122
1.0
132
0.0
 79
     0
146
0.0
348
F5
 60
     3
 61
     5
292
     1
282
     1
141
0.0
142
0.0
 63
   250
421
  3355443
1001
ACAD_NAV_VCDISPLAY
1070
     3
  0
ENDTAB
  0
TABLE
  2
LTYPE
  5
5
330
0
100
AcDbSymbolTable
 70
     1
  0
LTYPE
  5
14
330
5
100
AcDbSymbolTableRecord
100
AcDbLinetypeTableRecord
  2
ByBlock
 70
     0
  3

 72
    65
 73
     0
 40
0.0
  0
LTYPE
  5
15
330
5
100
AcDbSymbolTableRecord
100
AcDbLinetypeTableRecord
  2
ByLayer
 70
     0
  3

 72
    65
 73
     0
 40
0.0
  0
LTYPE
  5
16
330
5
100
AcDbSymbolTableRecord
100
AcDbLinetypeTableRecord
  2
Continuous
 70
     0
  3
Solid line
 72
    65
 73
     0
 40
0.0
  0
ENDTAB
  0
TABLE
  2
LAYER
  5
2
102
{ACAD_XDICTIONARY
360
1FF
102
}
330
0
100
AcDbSymbolTable
 70
     2
  0
LAYER
  5
10
102
{ACAD_XDICTIONARY
360
13C
102
}
330
2
100
AcDbSymbolTableRecord
100
AcDbLayerTableRecord
  2
0
 70
     0
 62
     7
  6
Continuous
370
    -3
390
F
347
EE
  0
LAYER
  5
272
330
2
100
AcDbSymbolTableRecord
100
AcDbLayerTableRecord
  2
Default Layer
 70
     0
 62
     7
  6
Continuous
370
    30
390
F
347
EE
  0
ENDTAB
  0
TABLE
  2
STYLE
  5
3
330
0
100
AcDbSymbolTable
 70
     2
  0
STYLE
  5
11
330
3
100
AcDbSymbolTableRecord
100
AcDbTextStyleTableRecord
  2
Standard
 70
     0
 40
0.0
 41
1.0
 50
0.0
 71
     0
 42
2.5
  3
arial.ttf
  4

1001
ACAD
1000
Arial
1071
       34
  0
STYLE
  5
132
330
3
100
AcDbSymbolTableRecord
100
AcDbTextStyleTableRecord
  2
Annotative
 70
     0
 40
0.0
 41
1.0
 50
0.0
 71
     0
 42
2.5
  3
arial.ttf
  4

1001
AcadAnnotative
1000
AnnotativeData
1002
{
1070
     1
1070
     1
1002
}
1001
ACAD
1000
Arial
1071
       34
  0
ENDTAB
  0
TABLE
  2
VIEW
  5
6
330
0
100
AcDbSymbolTable
 70
     0
  0
ENDTAB
  0
TABLE
  2
UCS
  5
7
330
0
100
AcDbSymbolTable
 70
     0
  0
ENDTAB
  0
TABLE
  2
APPID
  5
9
330
0
100
AcDbSymbolTable
 70
     8
  0
APPID
  5
12
330
9
100
AcDbSymbolTableRecord
100
AcDbRegAppTableRecord
  2
ACAD
 70
     0
  0
APPID
  5
9E
330
9
100
AcDbSymbolTableRecord
100
AcDbRegAppTableRecord
  2
ACAD_PSEXT
 70
     0
  0
APPID
  5
133
330
9
100
AcDbSymbolTableRecord
100
AcDbRegAppTableRecord
  2
AcadAnnoPO
 70
     0
  0
APPID
  5
134
330
9
100
AcDbSymbolTableRecord
100
AcDbRegAppTableRecord
  2
AcadAnnotative
 70
     0
  0
APPID
  5
135
330
9
100
AcDbSymbolTableRecord
100
AcDbRegAppTableRecord
  2
ACAD_DSTYLE_DIMJAG
 70
     0
  0
APPID
  5
136
330
9
100
AcDbSymbolTableRecord
100
AcDbRegAppTableRecord
  2
ACAD_DSTYLE_DIMTALN
 70
     0
  0
APPID
  5
165
330
9
100
AcDbSymbolTableRecord
100
AcDbRegAppTableRecord
  2
ACAD_MLEADERVER
 70
     0
  0
APPID
  5
217
330
9
100
AcDbSymbolTableRecord
100
AcDbRegAppTableRecord
  2
ACAD_NAV_VCDISPLAY
 70
     0
  0
ENDTAB
  0
TABLE
  2
DIMSTYLE
  5
A
330
0
100
AcDbSymbolTable
 70
     3
100
AcDbDimStyleTable
 71
     2
340
27
340
137
  0
DIMSTYLE
105
1B0
330
A
100
AcDbSymbolTableRecord
100
AcDbDimStyleTableRecord
  2
Standard
 70
     0
340
11
  0
DIMSTYLE
105
137
330
A
100
AcDbSymbolTableRecord
100
AcDbDimStyleTableRecord
  2
Annotative
 70
     0
 40
0.0
 41
2.5
 42
0.625
 43
3.75
 44
1.25
 73
     0
 74
     0
 77
     1
 78
     8
140
2.5
141
2.5
143
0.03937007874016
147
0.625
171
     3
172
     1
271
     2
272
     2
274
     3
278
    44
283
     0
284
     8
340
11
1001
AcadAnnotative
1000
AnnotativeData
1002
{
1070
     1
1070
     1
1002
}
1001
ACAD_DSTYLE_DIMJAG
1070
   388
1040
1.5
1001
ACAD_DSTYLE_DIMTALN
1070
   392
1070
     0
  0
DIMSTYLE
105
27
330
A
100
AcDbSymbolTableRecord
100
AcDbDimStyleTableRecord
  2
ISO-25
 70
     0
 41
2.5
 42
0.625
 43
3.75
 44
1.25
 73
     0
 74
     0
 77
     1
 78
     8
140
2.5
141
2.5
143
0.03937007874016
147
0.625
171
     3
172
     1
271
     2
272
     2
274
     3
278
    44
283
     0
284
     8
340
11
  0
ENDTAB
  0
TABLE
  2
BLOCK_RECORD
  5
1
330
0
100
AcDbSymbolTable
 70
     1
  0
BLOCK_RECORD
  5
1F
102
{ACAD_XDICTIONARY
360
1CE
102
}
330
1
100
AcDbSymbolTableRecord
100
AcDbBlockTableRecord
  2
*Model_Space
340
22
 70
     0
280
     1
281
     0
  0
BLOCK_RECORD
  5
D2
330
1
100
AcDbSymbolTableRecord
100
AcDbBlockTableRecord
  2
*Paper_Space
340
D3
 70
     0
280
     1
281
     0
  0
BLOCK_RECORD
  5
D6
330
1
100
AcDbSymbolTableRecord
100
AcDbBlockTableRecord
  2
*Paper_Space0
340
D7
 70
     0
280
     1
281
     0
  0
ENDTAB
  0
ENDSEC
  0
SECTION
  2
BLOCKS
  0
BLOCK
  5
20
330
1F
100
AcDbEntity
  8
0
100
AcDbBlockBegin
  2
*Model_Space
 70
     0
 10
0.0
 20
0.0
 30
0.0
  3
*Model_Space
  1

  0
ENDBLK
  5
21
330
1F
100
AcDbEntity
  8
0
100
AcDbBlockEnd
  0
BLOCK
  5
D4
330
D2
100
AcDbEntity
 67
     1
  8
0
100
AcDbBlockBegin
  2
*Paper_Space
 70
     0
 10
0.0
 20
0.0
 30
0.0
  3
*Paper_Space
  1

  0
ENDBLK
  5
D5
330
D2
100
AcDbEntity
 67
     1
  8
0
100
AcDbBlockEnd
  0
BLOCK
  5
D8
330
D6
100
AcDbEntity
 67
     1
  8
0
100
AcDbBlockBegin
  2
*Paper_Space0
 70
     0
 10
0.0
 20
0.0
 30
0.0
  3
*Paper_Space0
  1

  0
ENDBLK
  5
D9
330
D6
100
AcDbEntity
 67
     1
  8
0
100
AcDbBlockEnd
  0
ENDSEC
  0
SECTION
  2
ENTITIES
  0
LWPOLYLINE
  5
273
330
1F
100
AcDbEntity
  8
Default Layer
 62
    18
420
        0
370
    30
100
AcDbPolyline
 90
      185
 70
     0
 43
0.0
 10
-96.95057667452497
 20
4.06516727303159
 10
-93.40115334904995
 20
7.025067080893649
 10
-93.40115334904995
 20
7.025067080893649
 10
-88.45057667452497
 20
5.523357831339978
 10
-88.45057667452497
 20
5.523357831339978
 10
-87.8737333107591
 20
5.348787574482745
 10
-87.31277077469444
 20
5.179822827806061
 10
-86.77165793211628
 20
5.01762114248884
 10
-86.25436364880988
 20
4.863340069709995
 10
-85.76485679056046
 20
4.71813716064844
 10
-85.30710622315334
 20
4.583169966483088
 10
-84.88508081237375
 20
4.459596038392852
 10
-84.50274942400694
 20
4.348572927556646
 10
-84.16408092383818
 20
4.251258185153382
 10
-83.87304417765275
 20
4.168809362361974
 10
-83.63360805123589
 20
4.102384010361336
 10
-83.44974141037289
 20
4.05313968033038
 10
-83.32541312084897
 20
4.02223392344802
 10
-83.26459204844942
 20
4.010824290893168
 10
-83.26459204844942
 20
4.010824290893168
 10
-83.25071522115164
 20
4.043758795842433
 10
-83.26367670503852
 20
4.142538724113618
 10
-83.30213092305362
 20
4.303301535847435
 10
-83.36473229814052
 20
4.522184691184596
 10
-83.45013525324274
 20
4.795325650265813
 10
-83.55699421130385
 20
5.118861873231797
 10
-83.68396359526739
 20
5.48893082022326
 10
-83.82969782807693
 20
5.901669951380913
 10
-83.99285133267602
 20
6.353216726845468
 10
-84.17207853200819
 20
6.839708606757636
 10
-84.36603384901705
 20
7.357283051258129
 10
-84.5733717066461
 20
7.902077520487658
 10
-84.79274652783891
 20
8.470229474586936
 10
-85.02281273553904
 20
9.057876373696673
 10
-85.02281273553903
 20
9.057876373696672
 10
-87.0164413741792
 20
14.11575274739331
 10
-87.0164413741792
 20
14.11575274739331
 10
-83.96018000852889
 20
18.55787637369667
 10
-83.96018000852889
 20
18.55787637369667
 10
-80.90391864287855
 20
23.0
 10
-80.90391864287855
 20
23.0
 10
-86.40106804166547
 20
23.0
 10
-86.40106804166547
 20
23.0
 10
-87.17079106791985
 20
23.00246444776878
 10
-87.87087844901375
 20
23.01146464509511
 10
-88.50695421731655
 20
23.02941087300897
 10
-89.08464240519764
 20
23.05871341254035
 10
-89.60956704502642
 20
23.10178254471922
 10
-90.08735216917228
 20
23.16102855057557
 10
-90.52362181000459
 20
23.23886171113938
 10
-90.92399999989279
 20
23.33769230744062
 10
-91.2941107712062
 20
23.45993062050928
 10
-91.63957815631427
 20
23.60798693137535
 10
-91.96602618758637
 20
23.7842715210688
 10
-92.27907889739187
 20
23.99119467061961
 10
-92.58436031810019
 20
24.23116666105778
 10
-92.8874944820807
 20
24.50659777341327
 10
-93.19410542170281
 20
24.81989828871607
 10
-93.5098171693359
 20
25.17347848799616
 10
-93.84025375734935
 20
25.56974865228353
 10
-94.19103921811258
 20
26.01111906260815
 10
-94.56779758399495
 20
26.5
 10
-94.56779758399497
 20
26.5
 10
-94.90743498099803
 20
26.93746017296314
 10
-95.24649742559565
 20
27.35914883932636
 10
-95.58170427590402
 20
27.76172052799272
 10
-95.90977489003931
 20
28.14182976786528
 10
-96.22742862611771
 20
28.49613108784707
 10
-96.53138484225536
 20
28.82127901684115
 10
-96.8183628965685
 20
29.11392808375057
 10
-97.08508214717326
 20
29.37073281747838
 10
-97.32826195218585
 20
29.58834774692763
 10
-97.54462166972245
 20
29.76342740100136
 10
-97.73088065789925
 20
29.89262630860264
 10
-97.88375827483241
 20
29.9725989986345
 10
-97.99997387863811
 20
30.0
 10
-97.99997387863811
 20
30.0
 10
-98.10428637208344
 20
29.964271054212
 10
-98.2224235157555
 20
29.85999238685401
 10
-98.35255795450052
 20
29.69152625293502
 10
-98.49286233316473
 20
29.46323490746403
 10
-98.64150929659436
 20
29.17948060545004
 10
-98.79667148963562
 20
28.84462560190205
 10
-98.95652155713474
 20
28.46303215182907
 10
-99.11923214393794
 20
28.03906251024008
 10
-99.28297589489147
 20
27.57707893214411
 10
-99.44592545484155
 20
27.08144367255013
 10
-99.60625346863441
 20
26.55651898646715
 10
-99.76213258111627
 20
26.00666712890417
 10
-99.91173543713333
 20
25.4362503548702
 10
-99.91173543713337
 20
25.4362503548702
 10
-100.0488396526141
 20
24.9010231564177
 10
-100.1826895189935
 20
24.40366943226728
 10
-100.3163458063793
 20
23.94166864874874
 10
-100.4528692848792
 20
23.51250027219188
 10
-100.595320724601
 20
23.1136437689265
 10
-100.7467608956524
 20
22.74257860528239
 10
-100.910250568141
 20
22.39678424758937
 10
-101.0888505121747
 20
22.07374016217722
 10
-101.2856214978612
 20
21.77092581537576
 10
-101.5036242953082
 20
21.48582067351477
 10
-101.7459196746234
 20
21.21590420292407
 10
-102.0155684059146
 20
20.95865586993344
 10
-102.3156312592895
 20
20.7115551408727
 10
-102.6491690048558
 20
20.47208148207164
 10
-103.0192424127213
 20
20.23771435986006
 10
-103.4289122529937
 20
20.00593324056776
 10
-103.8812392957806
 20
19.77421759052455
 10
-104.37928431119
 20
19.54004687606022
 10
-104.9261080693294
 20
19.30090056350456
 10
-105.5247713403066
 20
19.0542581191874
 10
-106.1783348942294
 20
18.79759900943851
 10
-106.8898595012054
 20
18.52840270058771
 10
-107.6624059313425
 20
18.2441486589648
 10
-108.4990349547482
 20
17.94231635089956
 10
-109.4028073415305
 20
17.62038524272181
 10
-109.4028073415305
 20
17.62038524272182
 10
-109.6526176877069
 20
17.52487093227201
 10
-109.8632659115951
 20
17.42770926182815
 10
-110.0332142907429
 20
17.3268728902678
 10
-110.1609251026978
 20
17.22033447646852
 10
-110.2448606250076
 20
17.10606667930787
 10
-110.28348313522
 20
16.98204215766339
 10
-110.2752549108827
 20
16.84623357041266
 10
-110.2186382295434
 20
16.69661357643322
 10
-110.1120953687497
 20
16.53115483460262
 10
-109.9540886060494
 20
16.34783000379843
 10
-109.7430802189901
 20
16.14461174289821
 10
-109.4775324851195
 20
15.9194727107795
 10
-109.1559076819854
 20
15.67038556631987
 10
-108.7766680871354
 20
15.39532296839687
 10
-108.3382759781172
 20
15.09225757588805
 10
-107.8391936324785
 20
14.75916204767098
 10
-107.277883327767
 20
14.39400904262321
 10
-106.6528073415305
 20
13.99477121962229
 10
-106.6528073415305
 20
13.99477121962229
 10
-106.0061346033338
 20
13.58307378058166
 10
-105.4222931529733
 20
13.20573480291969
 10
-104.8980748349521
 20
12.85725700067266
 10
-104.4302714937733
 20
12.53214308787681
 10
-104.0156749739401
 20
12.22489577856841
 10
-103.6510771199554
 20
11.93001778678371
 10
-103.3332697763223
 20
11.64201182655898
 10
-103.059044787544
 20
11.35538061193048
 10
-102.8251939981236
 20
11.06462685693445
 10
-102.6285092525641
 20
10.76425327560718
 10
-102.4657823953686
 20
10.4487625819849
 10
-102.3338052710402
 20
10.11265749010389
 10
-102.2293697240821
 20
9.750440714000399
 10
-102.1492675989972
 20
9.356614967710688
 10
-102.0902907402887
 20
8.925682965271018
 10
-102.0492309924596
 20
8.452147420717649
 10
-102.0228802000132
 20
7.930511048086838
 10
-102.0080302074523
 20
7.355276561414846
 10
-102.0014728592802
 20
6.720946674737933
 10
-102.0
 20
6.022024102092357
 10
-102.0
 20
6.022024102092359
 10
-101.9949298469388
 20
5.438825840717468
 10
-101.9801020408163
 20
4.875529283907171
 10
-101.9560905612244
 20
4.335937536536091
 10
-101.9234693877551
 20
3.823853703478851
 10
-101.8828125
 20
3.343080889610075
 10
-101.834693877551
 20
2.897422199804385
 10
-101.7796874999999
 20
2.490680738936405
 10
-101.7183673469387
 20
2.126659611880757
 10
-101.6513073979591
 20
1.809161923512066
 10
-101.579081632653
 20
1.541990778704952
 10
-101.5022640306122
 20
1.328949282334042
 10
-101.4214285714285
 20
1.173840539273956
 10
-101.3371492346938
 20
1.080467654399318
 10
-101.2499999999999
 20
1.052633732584752
 10
-101.25
 20
1.052633732584752
 10
-101.1284706048256
 20
1.082384984138238
 10
-100.9570067673477
 20
1.156358183669356
 10
-100.7397180865575
 20
1.271673804352918
 10
-100.4807141614461
 20
1.425452319363736
 10
-100.1841045910047
 20
1.614814201876622
 10
-99.8539989742243
 20
1.836879925066387
 10
-99.49450691009605
 20
2.088769962107845
 10
-99.10973799761109
 20
2.367604786175806
 10
-98.70380183576054
 20
2.670504870445083
 10
-98.28080802353554
 20
2.994590688090488
 10
-97.84486615992719
 20
3.336982712286833
 10
-97.40008584392661
 20
3.694801416208929
 10
-96.95057667452495
 20
4.065167273031589
210
0.0
220
0.0
230
-1.0
  0
LWPOLYLINE
  5
274
330
1F
100
AcDbEntity
  8
Default Layer
 62
    18
420
        0
370
    30
100
AcDbPolyline
 90
      110
 70
     0
 43
0.0
 10
103.2956699931825
 20
14.41479646725628
 10
106.5
 20
16.31371883407323
 10
106.5
 20
16.31371883407323
 10
102.7713830844525
 20
17.78441714601891
 10
102.7713830844525
 20
17.78441714601891
 10
102.1479739462507
 20
18.03983633669881
 10
101.5901999565533
 20
18.29068208863232
 10
101.0935436781319
 20
18.54213554435616
 10
100.653487673758
 20
18.79937784640705
 10
100.2655145062032
 20
19.06759013732173
 10
99.92510673823888
 20
19.35195355963691
 10
99.62774693263668
 20
19.65764925588932
 10
99.3689176521681
 20
19.98985836861569
 10
99.14410145960465
 20
20.35376204035275
 10
98.94878091771786
 20
20.75454141363722
 10
98.77843858927926
 20
21.19737763100582
 10
98.62855703706038
 20
21.68745183499528
 10
98.49461882383273
 20
22.22994516814233
 10
98.37210651236787
 20
22.83003877298369
 10
98.37210651236786
 20
22.8300387729837
 10
97.70144685583057
 20
26.40496208800281
 10
97.70144685583057
 20
26.40496208800281
 10
95.10072342791529
 20
23.3492929931366
 10
95.10072342791529
 20
23.3492929931366
 10
94.66412165396533
 20
22.84575030851588
 10
94.25914747004481
 20
22.40198396568721
 10
93.87858806502647
 20
22.01514152329215
 10
93.51523062778298
 20
21.68237053997223
 10
93.16186234718712
 20
21.40081857436903
 10
92.81127041211155
 20
21.16763318512406
 10
92.45624201142906
 20
20.97996193087889
 10
92.08956433401231
 20
20.83495237027507
 10
91.70402456873409
 20
20.72975206195412
 10
91.29240990446707
 20
20.66150856455762
 10
90.84750753008398
 20
20.6273694367271
 10
90.36210463445755
 20
20.6244822371041
 10
89.82898840646051
 20
20.64999452433019
 10
89.24094603496557
 20
20.7010538570469
 10
88.59076470884547
 20
20.77480779389578
 10
88.59076470884547
 20
20.77480779389578
 10
84.68152941769094
 20
21.25599168952115
 10
84.68152941769094
 20
21.25599168952115
 10
86.99692886225077
 20
18.00431301525458
 10
86.99692886225077
 20
18.00431301525458
 10
87.37890465739818
 20
17.45918623894791
 10
87.71166568716084
 20
16.96215405976149
 10
87.99652436632854
 20
16.50591532415076
 10
88.23479310969103
 20
16.08316887857121
 10
88.42778433203806
 20
15.68661356947829
 10
88.57681044815938
 20
15.30894824332747
 10
88.6831838728448
 20
14.94287174657422
 10
88.74821702088402
 20
14.58108292567401
 10
88.77322230706681
 20
14.2162806270823
 10
88.75951214618295
 20
13.84116369725455
 10
88.7083989530222
 20
13.44843098264624
 10
88.62119514237429
 20
13.03078132971283
 10
88.499213129029
 20
12.58091358490978
 10
88.34376532777609
 20
12.09152659469256
 10
88.1561641534053
 20
11.55531920551664
 10
88.15616415340532
 20
11.55531920551664
 10
87.9164186575379
 20
10.8897379702063
 10
87.70585419425279
 20
10.29438004338246
 10
87.5263567805792
 20
9.766478561564905
 10
87.37981243354635
 20
9.303266661273427
 10
87.26810717018343
 20
8.901977479027811
 10
87.19312700751968
 20
8.559844151347842
 10
87.15675796258429
 20
8.274099814753309
 10
87.16088605240647
 20
8.041977605763998
 10
87.20739729401547
 20
7.860710660899694
 10
87.29817770444045
 20
7.727532116680185
 10
87.43511330071063
 20
7.639675109625258
 10
87.62009009985526
 20
7.594372776254699
 10
87.85499411890352
 20
7.588858253088295
 10
88.14171137488463
 20
7.620364676645833
 10
88.48212788482781
 20
7.686125183447099
 10
88.87812966576227
 20
7.783372910011881
 10
89.3316027347172
 20
7.909340992859965
 10
89.84443310872185
 20
8.061262568511137
 10
90.41850680480539
 20
8.236370773485186
 10
90.41850680480539
 20
8.236370773485191
 10
91.05631107885143
 20
8.423601547262643
 10
91.63333327055662
 20
8.572183617157982
 10
92.15901235495591
 20
8.680573445550839
 10
92.64278730708422
 20
8.747227494820847
 10
93.09409710197645
 20
8.770602227347639
 10
93.5223807146675
 20
8.749154105510845
 10
93.93707712019233
 20
8.681339591690097
 10
94.34762529358582
 20
8.565615148265028
 10
94.7634642098829
 20
8.400437237615269
 10
95.19403284411849
 20
8.184262322120455
 10
95.64877017132749
 20
7.915546864160214
 10
96.13711516654483
 20
7.592747326114181
 10
96.66850680480541
 20
7.214320170361986
 10
96.66850680480539
 20
7.214320170361986
 10
99.50000000000001
 20
5.143099970105993
 10
99.50000000000001
 20
5.143099970105993
 10
99.79566999318249
 20
8.829487035272677
 10
99.79566999318249
 20
8.829487035272677
 10
99.8652650807165
 20
9.526191569179079
 10
99.95964198033277
 20
10.15596216637677
 10
100.083479143632
 20
10.72626471253794
 10
100.2414550222151
 20
11.24456509333477
 10
100.4382480676826
 20
11.71832919443947
 10
100.6785367316354
 20
12.15502290152421
 10
100.966999465674
 20
12.56211210026119
 10
101.3083147213994
 20
12.9470626763226
 10
101.7071609504122
 20
13.31734051538062
 10
102.1682166043132
 20
13.68041150310745
 10
102.696160134703
 20
14.04374152517528
 10
103.2956699931825
 20
14.41479646725628
  0
LWPOLYLINE
  5
275
330
1F
100
AcDbEntity
  8
Default Layer
 62
    18
420
        0
370
    30
100
AcDbPolyline
 90
      587
 70
     0
 43
0.0
 10
-0.6146369898552697
 20
3.81451345404622
 10
-0.5750174123263371
 20
3.947439356017353
 10
-0.5793846677930851
 20
4.14379992508006
 10
-0.6263542760762597
 20
4.401285347396966
 10
-0.714541756996607
 20
4.7175858091307
 10
-0.8425626303748732
 20
5.090391496443888
 10
-1.009032416031804
 20
5.517392595499158
 10
-1.212566633788147
 20
5.996279292459137
 10
-1.451780803464646
 20
6.524741773486451
 10
-1.72529044488205
 20
7.100470224743729
 10
-2.031711077861103
 20
7.721154832393596
 10
-2.369658222222552
 20
8.38448578259868
 10
-2.737747397787142
 20
9.088153261521609
 10
-3.134594124375621
 20
9.82984745532501
 10
-3.558813921808734
 20
10.6072585501715
 10
-4.009022309907228
 20
11.41807673222373
 10
-4.483834808491848
 20
12.25999218764431
 10
-4.981866937383341
 20
13.13069510259586
 10
-5.501734216402453
 20
14.02787566324102
 10
-6.04205216536993
 20
14.94922405574242
 10
-6.601436304106518
 20
15.89243046626268
 10
-7.178502152432963
 20
16.85518508096443
 10
-7.771865230170012
 20
17.83517808601029
 10
-8.380141057138411
 20
18.83009966756289
 10
-9.001945153158905
 20
19.83764001178487
 10
-9.635893038052241
 20
20.85548930483884
 10
-10.28060023163916
 20
21.88133773288743
 10
-10.93468225374042
 20
22.91287548209328
 10
-11.59675462417676
 20
23.947792738619
 10
-12.26543286276893
 20
24.98377968862723
 10
-12.93933248933767
 20
26.0185265182806
 10
-13.61706902370372
 20
27.04972341374172
 10
-14.29725798568784
 20
28.07506056117322
 10
-14.97851489511078
 20
29.09222814673775
 10
-15.65945527179327
 20
30.09891635659791
 10
-16.33869463555607
 20
31.09281537691634
 10
-17.01484850621991
 20
32.07161539385567
 10
-17.68653240360555
 20
33.03300659357851
 10
-18.35236184753373
 20
33.97467916224751
 10
-19.0109523578252
 20
34.89432328602529
 10
-19.6609194543007
 20
35.78962915107446
 10
-20.30087865678098
 20
36.65828694355766
 10
-20.30087865678097
 20
36.65828694355767
 10
-22.36396476019014
 20
39.3823418965481
 10
-24.50113107664817
 20
42.09782521702681
 10
-26.71013776755817
 20
44.80299871189698
 10
-28.98874499432323
 20
47.49612418806175
 10
-31.33471291834646
 20
50.17546345242427
 10
-33.74580170103097
 20
52.83927831188772
 10
-36.21977150377985
 20
55.48583057335523
 10
-38.75438248799623
 20
58.11338204372997
 10
-41.34739481508318
 20
60.72019452991509
 10
-43.99656864644383
 20
63.30452983881375
 10
-46.69966414348129
 20
65.8646497773291
 10
-49.45444146759864
 20
68.3988161523643
 10
-52.25866078019901
 20
70.9052907708225
 10
-55.11008224268548
 20
73.38233543960686
 10
-58.00646601646118
 20
75.82821196562054
 10
-60.94557226292919
 20
78.24118215576669
 10
-63.92516114349263
 20
80.61950781694847
 10
-66.9429928195546
 20
82.96145075606904
 10
-69.99682745251821
 20
85.26527278003156
 10
-73.08442520378655
 20
87.52923569573914
 10
-76.20354623476274
 20
89.751601310095
 10
-79.35195070684987
 20
91.93063143000225
 10
-82.52739878145106
 20
94.06458786236408
 10
-85.72765061996943
 20
96.15173241408362
 10
-88.95046638380804
 20
98.19032689206402
 10
-92.19360623437003
 20
100.1786331032084
 10
-95.45483033305849
 20
102.1149128544201
 10
-98.73189884127654
 20
103.997427952602
 10
-102.0225719204272
 20
105.8244402046575
 10
-105.3246097319137
 20
107.5942114174896
 10
-108.6357724371391
 20
109.3050033980016
 10
-111.9538201975065
 20
110.9550779530964
 10
-115.276513174419
 20
112.5426968896775
 10
-118.6016115292797
 20
114.0661220146478
 10
-121.9268754234917
 20
115.5236151349105
 10
-121.9268754234918
 20
115.5236151349105
 10
-122.7068016882985
 20
115.8608567653738
 10
-123.4688700756037
 20
116.1966613256071
 10
-124.2103026933516
 20
116.5295738982924
 10
-124.9283216494863
 20
116.8581395661115
 10
-125.6201490519523
 20
117.1809034117461
 10
-126.2830070086935
 20
117.4964105178782
 10
-126.9141176276543
 20
117.8032059671896
 10
-127.5107030167788
 20
118.0998348423622
 10
-128.0699852840114
 20
118.3848422260778
 10
-128.589186537296
 20
118.6567732010182
 10
-129.065528884577
 20
118.9141728498654
 10
-129.4962344337987
 20
119.155586255301
 10
-129.8785252929051
 20
119.3795585000071
 10
-130.2096235698405
 20
119.5846346666654
 10
-130.4867513725491
 20
119.7693598379578
 10
-130.7071308089752
 20
119.9322790965661
 10
-130.8679839870628
 20
120.0719375251722
 10
-130.9665330147564
 20
120.186880206458
 10
-131.0
 20
120.2756522231052
 10
-131.0
 20
120.2756522231052
 10
-130.9784336701178
 20
120.3889630881507
 10
-130.915070647809
 20
120.5586787864034
 10
-130.8119148840805
 20
120.7816208888703
 10
-130.6709703299389
 20
121.0546109665579
 10
-130.494240936391
 20
121.3744705904731
 10
-130.2837306544436
 20
121.7380213316226
 10
-130.0414434351034
 20
122.1420847610132
 10
-129.7693832293771
 20
122.5834824496517
 10
-129.4695539882716
 20
123.0590359685448
 10
-129.1439596627935
 20
123.5655668886993
 10
-128.7946042039497
 20
124.099896781122
 10
-128.4234915627468
 20
124.6588472168195
 10
-128.0326256901916
 20
125.2392397667987
 10
-127.6240105372909
 20
125.8378960020663
 10
-127.1996500550515
 20
126.4516374936291
 10
-126.76154819448
 20
127.0772858124939
 10
-126.3117089065833
 20
127.7116625296674
 10
-126.3117089065833
 20
127.7116625296674
 10
-121.6234178131667
 20
134.281713729634
 10
-121.6234178131667
 20
134.281713729634
 10
-132.8117089065833
 20
133.640856864817
 10
-132.8117089065833
 20
133.640856864817
 10
-133.8704177962872
 20
133.5805259133705
 10
-134.9900913713298
 20
133.5173069542462
 10
-136.1628300412968
 20
133.4516251924418
 10
-137.3807342157737
 20
133.3839058329552
 10
-138.6359043043464
 20
133.3145740807842
 10
-139.9204407166006
 20
133.2440551409266
 10
-141.2264438621219
 20
133.1727742183803
 10
-142.5460141504961
 20
133.101156518143
 10
-143.8712519913089
 20
133.0296272452126
 10
-145.1942577941458
 20
132.9586116045869
 10
-146.5071319685928
 20
132.8885348012637
 10
-147.8019749242355
 20
132.8198220402409
 10
-149.0708870706595
 20
132.7528985265163
 10
-150.3059688174506
 20
132.6881894650877
 10
-151.4993205741945
 20
132.6261200609529
 10
-152.6430427504769
 20
132.5671155191098
 10
-153.7292357558835
 20
132.5116010445561
 10
-154.75
 20
132.4600018422897
 10
-154.75
 20
132.4600018422898
 10
-165.5
 20
131.9200036845795
 10
-165.5
 20
131.9200036845795
 10
-178.3979342983368
 20
148.9787342106195
 10
-178.3979342983368
 20
148.9787342106195
 10
-179.1810537863941
 20
150.0133959238648
 10
-179.9530632290055
 20
151.0312308820267
 10
-180.7125603818596
 20
152.0304477425188
 10
-181.4581430006442
 20
153.0092551627545
 10
-182.1884088410477
 20
153.9658618001472
 10
-182.9019556587583
 20
154.8984763121104
 10
-183.597381209464
 20
155.8053073560576
 10
-184.2732832488531
 20
156.6845635894021
 10
-184.9282595326139
 20
157.5344536695574
 10
-185.5609078164344
 20
158.3531862539371
 10
-186.1698258560028
 20
159.1389699999544
 10
-186.7536114070074
 20
159.8900135650229
 10
-187.3108622251362
 20
160.604525606556
 10
-187.8401760660776
 20
161.2807147819671
 10
-188.3401506855197
 20
161.9167897486697
 10
-188.8093838391506
 20
162.5109591640772
 10
-189.2464732826585
 20
163.061431685603
 10
-189.6500167717317
 20
163.5664159706608
 10
-190.0186120620584
 20
164.0241206766637
 10
-190.3508569093266
 20
164.4327544610254
 10
-190.6453490692246
 20
164.7905259811591
 10
-190.9006862974406
 20
165.0956438944785
 10
-191.1154663496627
 20
165.3463168583969
 10
-191.2882869815791
 20
165.5407535303278
 10
-191.4177459488781
 20
165.6771625676846
 10
-191.5024410072478
 20
165.7537526278808
 10
-191.5409699123763
 20
165.7687323683297
 10
-191.5409699123763
 20
165.7687323683298
 10
-191.5670064803125
 20
165.7137230431619
 10
-191.6123223994302
 20
165.5857598186978
 10
-191.6762570532025
 20
165.387230812568
 10
-191.7581498251021
 20
165.1205241424027
 10
-191.8573400986022
 20
164.7880279258322
 10
-191.9731672571756
 20
164.3921302804869
 10
-192.1049706842952
 20
163.9352193239969
 10
-192.252089763434
 20
163.4196831739927
 10
-192.4138638780649
 20
162.8479099481045
 10
-192.589632411661
 20
162.2222877639626
 10
-192.7787347476949
 20
161.5452047391973
 10
-192.9805102696399
 20
160.819048991439
 10
-193.1942983609688
 20
160.0462086383179
 10
-193.4194384051545
 20
159.2290717974643
 10
-193.6552697856699
 20
158.3700265865086
 10
-193.9011318859881
 20
157.4714611230811
 10
-194.1563640895819
 20
156.535763524812
 10
-194.4203057799243
 20
155.5653219093317
 10
-194.6922963404882
 20
154.5625243942704
 10
-194.9716751547466
 20
153.5297590972585
 10
-195.2577816061724
 20
152.4694141359262
 10
-195.5499550782385
 20
151.383877627904
 10
-195.8475349544179
 20
150.2755376908219
 10
-196.1498606181836
 20
149.1467824423105
 10
-196.4562714530083
 20
148.0
 10
-196.4562714530083
 20
148.0
 10
-196.7642023661199
 20
146.8472211161936
 10
-197.0710245488897
 20
145.7007278910418
 10
-197.3759818110062
 20
144.5632854639456
 10
-197.6783179621577
 20
143.4376589743059
 10
-197.9772768120326
 20
142.3266135615238
 10
-198.2721021703196
 20
141.2329143650003
 10
-198.5620378467069
 20
140.1593265241364
 10
-198.846327650883
 20
139.108615178333
 10
-199.1242153925363
 20
138.0835454669912
 10
-199.3949448813554
 20
137.086882529512
 10
-199.6577599270285
 20
136.1213915052964
 10
-199.9119043392442
 20
135.1898375337453
 10
-200.1566219276909
 20
134.2949857542598
 10
-200.391156502057
 20
133.4396013062409
 10
-200.6147518720311
 20
132.6264493290896
 10
-200.8266518473014
 20
131.8582949622068
 10
-201.0261002375564
 20
131.1379033449936
 10
-201.2123408524846
 20
130.468039616851
 10
-201.3846175017745
 20
129.8514689171799
 10
-201.5421739951144
 20
129.2909563853814
 10
-201.6842541421928
 20
128.7892671608565
 10
-201.8101017526981
 20
128.3491663830062
 10
-201.9189606363188
 20
127.9734191912314
 10
-202.0100746027433
 20
127.6647907249332
 10
-202.08268746166
 20
127.4260461235126
 10
-202.0826874616601
 20
127.4260461235126
 10
-202.1568404200532
 20
127.1940606953981
 10
-202.2329952621021
 20
126.97196080111
 10
-202.3130966274703
 20
126.7587926096767
 10
-202.3990891558212
 20
126.5536022901265
 10
-202.4929174868185
 20
126.3554360114877
 10
-202.5965262601258
 20
126.1633399427888
 10
-202.7118601154065
 20
125.976360253058
 10
-202.8408636923243
 20
125.7935431113237
 10
-202.9854816305426
 20
125.6139346866143
 10
-203.147658569725
 20
125.4365811479579
 10
-203.329339149535
 20
125.2605286643831
 10
-203.5324680096363
 20
125.0848234049181
 10
-203.7589897896924
 20
124.9085115385913
 10
-204.0108491293667
 20
124.7306392344311
 10
-204.2899906683229
 20
124.5502526614656
 10
-204.5983590462245
 20
124.3663979887234
 10
-204.9378989027351
 20
124.1781213852328
 10
-205.3105548775181
 20
123.984469020022
 10
-205.7182716102373
 20
123.7844870621194
 10
-206.162993740556
 20
123.5772216805534
 10
-206.6466659081378
 20
123.3617190443524
 10
-207.1712327526464
 20
123.1370253225445
 10
-207.7386389137452
 20
122.9021866841583
 10
-208.3508290310978
 20
122.6562492982219
 10
-209.0097477443677
 20
122.3982593337639
 10
-209.7173396932185
 20
122.1272629598124
 10
-210.4755495173138
 20
121.8423063453959
 10
-211.2863218563171
 20
121.5424356595427
 10
-212.1516013498918
 20
121.2266970712811
 10
-213.0733326377017
 20
120.8941367496394
 10
-214.0534603594102
 20
120.5438008636461
 10
-215.0939291546809
 20
120.1747355823294
 10
-216.1966836631773
 20
119.7859870747177
 10
-217.363668524563
 20
119.3766015098394
 10
-218.5968283785015
 20
118.9456250567227
 10
-219.8981078646564
 20
118.492103884396
 10
-221.2694516226913
 20
118.0150841618877
 10
-221.2694516226912
 20
118.0150841618877
 10
-222.4216879944283
 20
117.6139820246198
 10
-223.5629165490936
 20
117.2155688613811
 10
-224.6907323869324
 20
116.8207156980407
 10
-225.8027306081904
 20
116.4302935604675
 10
-226.8965063131129
 20
116.0451734745307
 10
-227.9696546019454
 20
115.6662264660993
 10
-229.0197705749335
 20
115.2943235610424
 10
-230.0444493323225
 20
114.9303357852291
 10
-231.041285974358
 20
114.5751341645285
 10
-232.0078756012854
 20
114.2295897248096
 10
-232.9418133133501
 20
113.8945734919414
 10
-233.8406942107978
 20
113.5709564917931
 10
-234.7021133938738
 20
113.2596097502338
 10
-235.5236659628236
 20
112.9614042931324
 10
-236.3029470178927
 20
112.6772111463582
 10
-237.0375516593266
 20
112.40790133578
 10
-237.7250749873706
 20
112.1543458872672
 10
-238.3631121022704
 20
111.9174158266885
 10
-238.9492581042713
 20
111.6979821799133
 10
-239.4811080936189
 20
111.4969159728105
 10
-239.9562571705586
 20
111.3150882312492
 10
-240.3723004353359
 20
111.1533699810984
 10
-240.7268329881962
 20
111.0126322482273
 10
-241.0174499293851
 20
110.8937460585049
 10
-241.241746359148
 20
110.7975824378004
 10
-241.3973173777304
 20
110.7250124119826
 10
-241.3973173777304
 20
110.7250124119826
 10
-241.5282393295376
 20
110.6506637006833
 10
-241.6366513400917
 20
110.5693093148244
 10
-241.7212237955531
 20
110.4798991160094
 10
-241.7806270820819
 20
110.3813829658421
 10
-241.8135315858386
 20
110.272710725926
 10
-241.8186076929834
 20
110.1528322578648
 10
-241.7945257896767
 20
110.020697423262
 10
-241.7399562620787
 20
109.8752560837213
 10
-241.6535694963499
 20
109.7154581008464
 10
-241.5340358786504
 20
109.5402533362408
 10
-241.3800257951407
 20
109.3485916515082
 10
-241.190209631981
 20
109.1394229082522
 10
-240.9632577753316
 20
108.9116969680764
 10
-240.6978406113529
 20
108.6643636925844
 10
-240.3926285262051
 20
108.3963729433799
 10
-240.0462919060486
 20
108.1066745820665
 10
-239.6575011370437
 20
107.7942184702478
 10
-239.2249266053508
 20
107.4579544695274
 10
-238.74723869713
 20
107.096832441509
 10
-238.2231077985418
 20
106.7098022477962
 10
-237.6512042957464
 20
106.2958137499925
 10
-237.0301985749042
 20
105.8538168097017
 10
-236.3587610221754
 20
105.3827612885273
 10
-235.6355620237205
 20
104.881597048073
 10
-234.8592719656996
 20
104.3492739499424
 10
-234.0285612342732
 20
103.7847418557391
 10
-233.1421002156015
 20
103.1869506270667
 10
-232.1985592958449
 20
102.5548501255289
 10
-231.1966088611636
 20
101.8873902127293
 10
-230.134919297718
 20
101.1835207502715
 10
-229.0121609916683
 20
100.4421915997591
 10
-227.827004329175
 20
99.66235262279575
 10
-226.5781196963982
 20
98.84295368098506
 10
-225.2641774794984
 20
97.98294463593066
 10
-225.2641774794984
 20
97.98294463593066
 10
-207.2337202035361
 20
86.19394052464601
 10
-207.2337202035361
 20
86.19394052464601
 10
-206.8465839582647
 20
65.66002745215033
 10
-206.8465839582647
 20
65.66002745215033
 10
-206.8218581071473
 20
64.41275878528148
 10
-206.7950725872428
 20
63.18216163978649
 10
-206.7663404704229
 20
61.97049856837516
 10
-206.7357748285591
 20
60.78003212375726
 10
-206.7034887335231
 20
59.6130248586426
 10
-206.6695952571867
 20
58.47173932574098
 10
-206.6342074714214
 20
57.3584380777622
 10
-206.5974384480989
 20
56.27538366741603
 10
-206.5594012590908
 20
55.22483864741229
 10
-206.5202089762688
 20
54.20906557046075
 10
-206.4799746715046
 20
53.23032698927122
 10
-206.4388114166697
 20
52.2908854565535
 10
-206.3968322836359
 20
51.39300352501736
 10
-206.3541503442749
 20
50.53894374737262
 10
-206.3108786704581
 20
49.73096867632906
 10
-206.2671303340573
 20
48.97134086459648
 10
-206.2230184069443
 20
48.26232286488468
 10
-206.1786559609905
 20
47.60617722990343
 10
-206.1341560680677
 20
47.00516651236255
 10
-206.0896318000475
 20
46.46155326497183
 10
-206.0451962288015
 20
45.97760004044106
 10
-206.0009624262015
 20
45.55556939148003
 10
-205.957043464119
 20
45.19772387079854
 10
-205.9135524144258
 20
44.90632603110638
 10
-205.8706023489935
 20
44.68363842511335
 10
-205.8283063396936
 20
44.53192360552924
 10
-205.7867774583979
 20
44.45344412506385
 10
-205.7867774583979
 20
44.45344412506384
 10
-205.7141366839289
 20
44.43562754450048
 10
-205.5828645890922
 20
44.46661928687738
 10
-205.3948704490413
 20
44.54501551059412
 10
-205.1520635389298
 20
44.66941237405023
 10
-204.8563531339111
 20
44.83840603564527
 10
-204.5096485091389
 20
45.05059265377878
 10
-204.1138589397668
 20
45.3045683868503
 10
-203.6708937009481
 20
45.59892939325941
 10
-203.1826620678364
 20
45.93227183140563
 10
-202.6510733155854
 20
46.30319185968853
 10
-202.0780367193486
 20
46.71028563650764
 10
-201.4654615542794
 20
47.15214932026252
 10
-200.8152570955314
 20
47.62737906935273
 10
-200.1293326182582
 20
48.13457104217779
 10
-199.4095973976133
 20
48.67232139713728
 10
-198.6579607087503
 20
49.23922629263074
 10
-197.8763318268227
 20
49.83388188705771
 10
-197.066620026984
 20
50.45488433881775
 10
-196.2307345843878
 20
51.10082980631041
 10
-195.3705847741876
 20
51.77031444793524
 10
-194.488079871537
 20
52.46193442209177
 10
-193.5851291515895
 20
53.17428588717957
 10
-192.6636418894986
 20
53.90596500159819
 10
-191.7255273604179
 20
54.65556792374717
 10
-190.7726948395009
 20
55.42169081202606
 10
-189.8070536019012
 20
56.20292982483442
 10
-189.8070536019013
 20
56.2029298248344
 10
-188.8402970875941
 20
56.9869584886333
 10
-187.8841636685659
 20
57.76133794106694
 10
-186.9406300179873
 20
58.52449575730955
 10
-186.0116728090284
 20
59.27485951253535
 10
-185.0992687148597
 20
60.01085678191856
 10
-184.2053944086517
 20
60.73091514063341
 10
-183.3320265635746
 20
61.4334621638541
 10
-182.481141852799
 20
62.11692542675487
 10
-181.6547169494952
 20
62.77973250450994
 10
-180.8547285268335
 20
63.42031097229352
 10
-180.0831532579845
 20
64.03708840527984
 10
-179.3419678161185
 20
64.62849237864313
 10
-178.6331488744058
 20
65.19295046755759
 10
-177.9586731060169
 20
65.72889024719747
 10
-177.3205171841222
 20
66.23473929273696
 10
-176.7206577818921
 20
66.7089251793503
 10
-176.1610715724969
 20
67.14987548221171
 10
-175.6437352291071
 20
67.55601777649541
 10
-175.170625424893
 20
67.92577963737563
 10
-174.7437188330252
 20
68.25758864002657
 10
-174.3649921266738
 20
68.54987235962247
 10
-174.0364219790094
 20
68.80105837133754
 10
-173.7599850632023
 20
69.00957425034602
 10
-173.537658052423
 20
69.17384757182211
 10
-173.3714176198418
 20
69.29230591094004
 10
-173.2632404386291
 20
69.36337684287403
 10
-173.2632404386292
 20
69.36337684287403
 10
-173.1511784818519
 20
69.39708181515404
 10
-172.9676754940246
 20
69.40833895533128
 10
-172.7150165459854
 20
69.39771496008596
 10
-172.3954867085728
 20
69.3657765260983
 10
-172.0113710526251
 20
69.3130903500485
 10
-171.5649546489808
 20
69.24022312861675
 10
-171.0585225684781
 20
69.14774155848327
 10
-170.4943598819555
 20
69.03621233632827
 10
-169.8747516602514
 20
68.90620215883195
 10
-169.201982974204
 20
68.75827772267453
 10
-168.4783388946518
 20
68.59300572453621
 10
-167.7061044924331
 20
68.41095286109719
 10
-166.8875648383863
 20
68.21268582903766
 10
-166.0250050033498
 20
67.99877132503787
 10
-165.120710058162
 20
67.76977604577798
 10
-164.1769650736612
 20
67.52626668793823
 10
-163.1960551206858
 20
67.26880994819881
 10
-162.1802652700741
 20
66.99797252323993
 10
-161.1318805926646
 20
66.71432110974179
 10
-160.0531861592956
 20
66.41842240438461
 10
-158.9464670408054
 20
66.11084310384859
 10
-157.8140083080326
 20
65.79214990481394
 10
-156.6580950318153
 20
65.46290950396086
 10
-155.481012282992
 20
65.12368859796956
 10
-154.2850451324011
 20
64.77505388352025
 10
-153.0724786508809
 20
64.41757205729311
 10
-151.8455979092698
 20
64.05180981596839
 10
-151.8455979092698
 20
64.05180981596839
 10
-150.6205541962702
 20
63.6851502248473
 10
-149.4134275584775
 20
63.32501114950017
 10
-148.22639620357
 20
62.97201148701089
 10
-147.0616383392257
 20
62.62677013446332
 10
-145.9213321731229
 20
62.28990598894135
 10
-144.8076559129397
 20
61.96203794752884
 10
-143.7227877663541
 20
61.64378490730967
 10
-142.6689059410445
 20
61.3357657653677
 10
-141.6481886446888
 20
61.03859941878683
 10
-140.6628140849654
 20
60.75290476465092
 10
-139.7149604695522
 20
60.47930070004383
 10
-138.8068060061275
 20
60.21840612204945
 10
-137.9405289023694
 20
59.97083992775165
 10
-137.1183073659561
 20
59.7372210142343
 10
-136.3423196045657
 20
59.51816827858127
 10
-135.6147438258763
 20
59.31430061787644
 10
-134.9377582375662
 20
59.12623692920369
 10
-134.3135410473134
 20
58.95459610964689
 10
-133.744270462796
 20
58.79999705628989
 10
-133.2321246916924
 20
58.6630586662166
 10
-132.7792819416805
 20
58.54439983651086
 10
-132.3879204204386
 20
58.44463946425658
 10
-132.0602183356447
 20
58.3643964465376
 10
-131.7983538949771
 20
58.3042896804378
 10
-131.6045053061139
 20
58.26493806304107
 10
-131.4808507767332
 20
58.24696049143128
 10
-131.4295685145132
 20
58.25097586269228
 10
-131.4295685145131
 20
58.25097586269226
 10
-131.4187196387364
 20
58.30899366100491
 10
-131.4338889496827
 20
58.42944963413831
 10
-131.4739019289856
 20
58.6089894918652
 10
-131.5375840582786
 20
58.84425894395829
 10
-131.6237608191952
 20
59.13190370019035
 10
-131.731257693369
 20
59.4685694703341
 10
-131.8589001624334
 20
59.85090196416226
 10
-132.0055137080219
 20
60.27554689144761
 10
-132.1699238117682
 20
60.73914996196283
 10
-132.3509559553056
 20
61.23835688548071
 10
-132.5474356202677
 20
61.76981337177395
 10
-132.758188288288
 20
62.33016513061532
 10
-132.9820394410001
 20
62.91605787177751
 10
-133.2178145600374
 20
63.52413730503331
 10
-133.4643391270334
 20
64.15104914015542
 10
-133.7204386236217
 20
64.79343908691659
 10
-133.7204386236218
 20
64.79343908691657
 10
-133.9749592059888
 20
65.43733595049946
 10
-134.2168510529048
 20
66.06866925686081
 10
-134.4450956798793
 20
66.68393579693452
 10
-134.6586746024218
 20
67.27963236165448
 10
-134.8565693360418
 20
67.85225574195455
 10
-135.0377613962489
 20
68.39830272876864
 10
-135.2012322985525
 20
68.91427011303062
 10
-135.3459635584622
 20
69.39665468567439
 10
-135.4709366914875
 20
69.84195323763382
 10
-135.5751332131378
 20
70.2466625598428
 10
-135.6575346389227
 20
70.60727944323521
 10
-135.7171224843516
 20
70.92030067874495
 10
-135.7528782649342
 20
71.18222305730589
 10
-135.7637834961798
 20
71.38954336985192
 10
-135.7488196935981
 20
71.53875840731692
 10
-135.7069683726984
 20
71.62636496063477
 10
-135.7069683726984
 20
71.62636496063479
 10
-135.6035906866832
 20
71.6825809972961
 10
-135.4275875084983
 20
71.71940459617378
 10
-135.1818386793623
 20
71.73741396918178
 10
-134.8692240404937
 20
71.73718732823413
 10
-134.4926234331111
 20
71.71930288524476
 10
-134.0549166984328
 20
71.68433885212767
 10
-133.5589836776775
 20
71.63287344079683
 10
-133.0077042120637
 20
71.56548486316622
 10
-132.4039581428098
 20
71.48275133114982
 10
-131.7506253111344
 20
71.3852510566616
 10
-131.050585558256
 20
71.27356225161555
 10
-130.3067187253932
 20
71.14826312792565
 10
-129.5219046537643
 20
71.00993189750588
 10
-128.699023184588
 20
70.8591467722702
 10
-127.8409541590827
 20
70.69648596413259
 10
-126.950577418467
 20
70.52252768500705
 10
-126.0307728039594
 20
70.33785014680754
 10
-125.0844201567783
 20
70.14303156144804
 10
-124.1143993181424
 20
69.93865014084253
 10
-123.12359012927
 20
69.72528409690498
 10
-122.1148724313799
 20
69.50351164154939
 10
-121.0911260656903
 20
69.27391098668973
 10
-120.0552308734199
 20
69.03706034423996
 10
-119.0100666957871
 20
68.79353792611408
 10
-117.9585133740105
 20
68.54392194422605
 10
-116.9034507493086
 20
68.28879061048986
 10
-115.8477586629
 20
68.02872213681951
 10
-114.794316956003
 20
67.76429473512894
 10
-113.7460054698362
 20
67.49608661733214
 10
-112.7057040456182
 20
67.22467599534309
 10
-111.6762925245675
 20
66.95064108107577
 10
-110.6606507479025
 20
66.67456008644416
 10
-109.6616585568418
 20
66.39701122336224
 10
-109.6616585568418
 20
66.39701122336226
 10
-106.6768115985486
 20
65.52773708403474
 10
-103.6608210621928
 20
64.58895989798434
 10
-100.6159285038035
 20
63.58193799474234
 10
-97.54437547940982
 20
62.50792970384004
 10
-94.44840354504062
 20
61.36819335480875
 10
-91.33025425672494
 20
60.16398727717975
 10
-88.19216917049178
 20
58.89656980048434
 10
-85.03638984237015
 20
57.56719925425382
 10
-81.86515782838906
 20
56.17713396801949
 10
-78.68071468457749
 20
54.72763227131263
 10
-75.48530196696446
 20
53.21995249366455
 10
-72.28116123157895
 20
51.65535296460656
 10
-69.07053403444997
 20
50.03509201366992
 10
-65.85566193160655
 20
48.36042797038595
 10
-62.63878647907765
 20
46.63261916428595
 10
-59.42214923289229
 20
44.85292392490121
 10
-56.20799174907947
 20
43.02260058176302
 10
-52.9985555836682
 20
41.14290746440268
 10
-49.79608229268746
 20
39.2151029023515
 10
-46.60281343216627
 20
37.24044522514076
 10
-43.42099055813362
 20
35.22019276230175
 10
-40.25285522661852
 20
33.15560384336578
 10
-37.10064899364998
 20
31.04793679786415
 10
-33.96661341525697
 20
28.89844995532815
 10
-30.85299004746853
 20
26.70840164528907
 10
-27.76202044631363
 20
24.47905019727822
 10
-24.69594616782128
 20
22.21165394082688
 10
-21.6570087680205
 20
19.90747120546636
 10
-18.64744980294026
 20
17.56776032072795
 10
-15.66951082860959
 20
15.19377961614294
 10
-12.72543340105748
 20
12.78678742124264
 10
-9.817459076312932
 20
10.34804206555834
 10
-9.817459076312923
 20
10.34804206555836
 10
-9.106308030343436
 20
9.748233313021701
 10
-8.407084638708473
 20
9.166885023654653
 10
-7.72220464220573
 20
8.60571224871774
 10
-7.054083781632902
 20
8.06643003947148
 10
-6.405137797787683
 20
7.550753447176396
 10
-5.77778243146777
 20
7.06039752309301
 10
-5.174433423470856
 20
6.597077318481844
 10
-4.597506514594638
 20
6.162507884603421
 10
-4.04941744563681
 20
5.758404272718262
 10
-3.532581957395067
 20
5.38648153408689
 10
-3.049415790667104
 20
5.048454719969825
 10
-2.602334686250618
 20
4.74603888162759
 10
-2.193754384943302
 20
4.480949070320708
 10
-1.826090627542853
 20
4.254900337309698
 10
-1.501759154846964
 20
4.069607733855084
 10
-1.223175707653332
 20
3.926786311217389
 10
-0.9927560267596511
 20
3.828151120657133
 10
-0.8129158529636168
 20
3.775417213434838
 10
-0.6860709270629242
 20
3.770299640811027
 10
-0.6146369898552683
 20
3.814513454046222
210
0.0
220
0.0
230
-1.0
  0
LWPOLYLINE
  5
276
330
1F
100
AcDbEntity
  8
Default Layer
 62
    18
420
        0
370
    30
100
AcDbPolyline
 90
      194
 70
     0
 43
0.0
 10
35.43007948155945
 20
37.91643520513128
 10
38.9452069919866
 20
40.64422385210284
 10
42.50387557812917
 20
43.30752913339114
 10
46.10494370015057
 20
45.90578644606774
 10
49.74726981821421
 20
48.43843118720425
 10
53.42971239248349
 20
50.90489875387221
 10
57.1511298831218
 20
53.30462454314322
 10
60.91038075029257
 20
55.63704395208887
 10
64.7063234541592
 20
57.90159237778073
 10
68.53781645488509
 20
60.0977052172904
 10
72.40371821263363
 20
62.22481786768944
 10
76.30288718756826
 20
64.28236572604943
 10
80.23418183985235
 20
66.26978418944196
 10
84.19646062964933
 20
68.18650865493862
 10
88.18858201712258
 20
70.03197451961098
 10
92.20940446243552
 20
71.80561718053063
 10
96.25778642575157
 20
73.50687203476915
 10
100.3325863672341
 20
75.1351744793981
 10
104.4326627470466
 20
76.68995991148908
 10
108.5568740253523
 20
78.17066372811368
 10
112.7040786623148
 20
79.57672132634346
 10
116.8731351180974
 20
80.90756810325002
 10
121.0629018528635
 20
82.16263945590492
 10
125.2722373267766
 20
83.34137078137976
 10
129.5
 20
84.44319747674612
 10
129.5
 20
84.44319747674612
 10
142.5
 20
87.70558575158911
 10
142.5
 20
87.70558575158911
 10
144.4485363803309
 20
93.26110802852904
 10
144.4485363803309
 20
93.26110802852904
 10
144.7119775346655
 20
94.02267524608586
 10
144.9457975826418
 20
94.72248481105113
 10
145.150362350668
 20
95.36423344585383
 10
145.326037665152
 20
95.9516178729229
 10
145.4731893525022
 20
96.48833481468734
 10
145.5921832391266
 20
96.97808099357608
 10
145.6833851514334
 20
97.42455313201809
 10
145.7471609158308
 20
97.83144795244231
 10
145.7838763587268
 20
98.20246217727772
 10
145.7938973065296
 20
98.54129252895331
 10
145.7775895856475
 20
98.85163572989801
 10
145.7353190224884
 20
99.13718850254078
 10
145.6674514434607
 20
99.40164756931061
 10
145.5743526749723
 20
99.64870965263642
 10
145.4563885434315
 20
99.88207147494723
 10
145.3139248752465
 20
100.1054297586719
 10
145.1473274968253
 20
100.3224812262395
 10
145.1473274968252
 20
100.3224812262395
 10
145.0023417207053
 20
100.488105646538
 10
144.8536781661054
 20
100.6372586322124
 10
144.6981276937969
 20
100.7696708874692
 10
144.532481164551
 20
100.8850731165148
 10
144.3535294391388
 20
100.9831960235556
 10
144.1580633783317
 20
101.0637703127983
 10
143.9428738429008
 20
101.1265266884492
 10
143.7047516936173
 20
101.1711958547148
 10
143.4404877912525
 20
101.1975085158015
 10
143.1468729965777
 20
101.2051953759159
 10
142.820698170364
 20
101.1939871392643
 10
142.4587541733826
 20
101.1636145100533
 10
142.0578318664049
 20
101.1138081924894
 10
141.6147221102019
 20
101.0442988907789
 10
141.126215765545
 20
100.9548173091284
 10
140.5891036932054
 20
100.8450941517443
 10
140.0001767539543
 20
100.7148601228331
 10
139.3562258085628
 20
100.5638459266013
 10
138.6540417178024
 20
100.3917822672553
 10
137.8904153424441
 20
100.1983998490015
 10
137.0621375432591
 20
99.98342937604657
 10
136.1659991810188
 20
99.74660155259682
 10
135.1987911164944
 20
99.48764708285875
 10
135.1987911164943
 20
99.48764708285871
 10
132.7334932820675
 20
98.81115570107231
 10
130.3114153149733
 20
98.11960728953842
 10
127.9264298183168
 20
97.41069794414826
 10
125.5724093952034
 20
96.68212376079305
 10
123.2432266487381
 20
95.93158083536398
 10
120.9327541820262
 20
95.15676526375226
 10
118.6348645981728
 20
94.35537314184914
 10
116.3434305002831
 20
93.52510056554582
 10
114.0523244914624
 20
92.66364363073348
 10
111.7554191748158
 20
91.7686984333034
 10
109.4465871534484
 20
90.83796106914673
 10
107.1197010304656
 20
89.86912763415475
 10
104.7686334089724
 20
88.85989422421863
 10
102.387256892074
 20
87.80795693522959
 10
99.96944408287575
 20
86.71101186307884
 10
97.50906758448266
 20
85.56675510365762
 10
95.0
 20
84.37288275285714
 10
95.0
 20
84.37288275285714
 10
91.8013931951541
 20
82.81082845806402
 10
88.67076333470071
 20
81.23361075233056
 10
85.60377827433283
 20
79.63833437334542
 10
82.59610586974346
 20
78.02210405879725
 10
79.64341397662558
 20
76.38202454637472
 10
76.74137045067216
 20
74.7152005737665
 10
73.88564314757622
 20
73.01873687866121
 10
71.07189992303071
 20
71.28973819874755
 10
68.29580863272863
 20
69.52530927171416
 10
65.55303713236298
 20
67.72255483524969
 10
62.83925327762674
 20
65.87857962704281
 10
60.15012492421289
 20
63.99048838478217
 10
57.48131992781442
 20
62.05538584615642
 10
54.82850614412432
 20
60.07037674885424
 10
52.18735142883558
 20
58.03256583056427
 10
49.55352363764118
 20
55.93905782897518
 10
46.92269062623411
 20
53.78695748177562
 10
44.29052025030736
 20
51.57336952665424
 10
41.6526803655539
 20
49.29539870129971
 10
39.00483882766675
 20
46.95014974340068
 10
39.00483882766674
 20
46.95014974340068
 10
38.40220207973009
 20
46.40438355608254
 10
37.77168321333616
 20
45.82299438877375
 10
37.11524319513598
 20
45.20811763708216
 10
36.43484299178059
 20
44.56188869661565
 10
35.73244356992099
 20
43.88644296298205
 10
35.01000589620822
 20
43.18391583178924
 10
34.2694909372933
 20
42.45644269864508
 10
33.51285965982728
 20
41.7061589591574
 10
32.74207303046116
 20
40.93520000893407
 10
31.95909201584597
 20
40.14570124358296
 10
31.16587758263275
 20
39.33979805871192
 10
30.36439069747252
 20
38.51962584992881
 10
29.55659232701631
 20
37.68732001284148
 10
28.74444343791513
 20
36.84501594305781
 10
27.92990499682003
 20
35.99484903618563
 10
27.11493797038203
 20
35.13895468783281
 10
26.30150332525215
 20
34.27946829360721
 10
25.49156202808142
 20
33.41852524911669
 10
24.68707504552086
 20
32.55826094996909
 10
23.89000334422151
 20
31.70081079177229
 10
23.10230789083439
 20
30.84831017013414
 10
22.32594965201053
 20
30.00289448066249
 10
21.56288959440095
 20
29.16669911896521
 10
20.81508868465669
 20
28.34185948065015
 10
20.08450788942876
 20
27.53051096132516
 10
19.37310817536819
 20
26.73478895659812
 10
18.68285050912602
 20
25.95682886207687
 10
18.01569585735327
 20
25.19876607336928
 10
17.37360518670096
 20
24.4627359860832
 10
16.75853946382012
 20
23.75087399582648
 10
16.17245965536178
 20
23.06531549820699
 10
15.61732672797696
 20
22.40819588883259
 10
15.0951016483167
 20
21.78165056331113
 10
14.60774538303202
 20
21.18781491725047
 10
14.15721889877394
 20
20.62882434625847
 10
13.7454831621935
 20
20.10681424594298
 10
13.37449913994171
 20
19.62392001191187
 10
13.04622779866961
 20
19.18227703977299
 10
12.76263010502823
 20
18.7840207251342
 10
12.52566702566858
 20
18.43128646360335
 10
12.3372995272417
 20
18.12620965078831
 10
12.19948857639861
 20
17.87092568229694
 10
12.11419513979034
 20
17.66756995373708
 10
12.11419513979033
 20
17.66756995373708
 10
12.1089420588714
 20
17.59740771805691
 10
12.1555281180492
 20
17.57844868440659
 10
12.25198456732372
 20
17.60901079932151
 10
12.39634265669498
 20
17.68741200933702
 10
12.58663363616297
 20
17.81197026098851
 10
12.82088875572768
 20
17.98100350081135
 10
13.09713926538913
 20
18.19282967534089
 10
13.41341641514731
 20
18.44576673111253
 10
13.76775145500221
 20
18.73813261466163
 10
14.15817563495385
 20
19.06824527252356
 10
14.58272020500221
 20
19.43442265123369
 10
15.03941641514731
 20
19.8349826973274
 10
15.52629551538913
 20
20.26824335734006
 10
16.04138875572768
 20
20.73252257780703
 10
16.58272738616297
 20
21.2261383052637
 10
17.14834265669498
 20
21.74740848624542
 10
17.73626581732372
 20
22.29465106728758
 10
18.3445281180492
 20
22.86618399492555
 10
18.9711608088714
 20
23.46032521569469
 10
19.61419513979033
 20
24.07539267613038
 10
19.61419513979033
 20
24.07539267613038
 10
20.36185174196887
 20
24.78806564093624
 10
21.15529397741144
 20
25.53393993506932
 10
21.98882682603612
 20
26.30803164403875
 10
22.856755267761
 20
27.10535685335361
 10
23.75338428250417
 20
27.92093164852301
 10
24.67301885018372
 20
28.74977211505607
 10
25.60996395071774
 20
29.58689433846187
 10
26.5585245640243
 20
30.42731440424953
 10
27.51300567002151
 20
31.26604839792815
 10
28.46771224862743
 20
32.09811240500684
 10
29.41694927976018
 20
32.9185225109947
 10
30.35502174333782
 20
33.72229480140084
 10
31.27623461927845
 20
34.50444536173435
 10
32.17489288750015
 20
35.25999027750435
 10
33.04530152792102
 20
35.98394563421994
 10
33.88176552045913
 20
36.67132751739022
 10
34.67858984503259
 20
37.3171520125243
 10
35.43007948155946
 20
37.91643520513128
  0
LWPOLYLINE
  5
277
330
1F
100
AcDbEntity
  8
Default Layer
 62
    18
420
        0
370
    30
100
AcDbPolyline
 90
      167
 70
     0
 43
0.0
 10
50.02559486043863
 20
41.51542121232597
 10
52.42192500415665
 20
42.94019021243235
 10
54.85096996232867
 20
44.34696569630164
 10
57.30973800011245
 20
45.73453472783675
 10
59.79523738266577
 20
47.10168437094063
 10
62.30447637514639
 20
48.44720168951617
 10
64.83446324271206
 20
49.76987374746629
 10
67.38220625052057
 20
51.06848760869391
 10
69.94471366372967
 20
52.34183033710196
 10
72.51899374749715
 20
53.58868899659334
 10
75.10205476698075
 20
54.80785065107098
 10
77.69090498733826
 20
55.99810236443779
 10
80.28255267372742
 20
57.15823120059669
 10
82.87400609130601
 20
58.2870242234506
 10
85.4622735052318
 20
59.38326849690242
 10
88.04436318066256
 20
60.4457510848551
 10
90.61728338275603
 20
61.47325905121153
 10
93.17804237666999
 20
62.46457945987464
 10
95.7236484275622
 20
63.41849937474735
 10
98.25110980059045
 20
64.33380585973257
 10
100.7574347609125
 20
65.20928597873321
 10
103.2396315736861
 20
66.0437267956522
 10
105.694708504069
 20
66.83591537439247
 10
108.119673817219
 20
67.58463877885692
 10
110.5115357782939
 20
68.28868407294845
 10
112.8673026524514
 20
68.94683832057001
 10
115.1839827048492
 20
69.55788858562449
 10
117.4585842006453
 20
70.12062193201484
 10
119.6881154049972
 20
70.63382542364395
 10
121.8695845830629
 20
71.09628612441476
 10
124.0
 20
71.50679109823016
 10
124.0
 20
71.50679109823016
 10
125.1935736009923
 20
71.72524345173552
 10
126.3150844286087
 20
71.93220104557646
 10
127.3671385190421
 20
72.12903437091583
 10
128.3523419084856
 20
72.31711391891647
 10
129.2733006331322
 20
72.49781018074125
 10
130.1326207291751
 20
72.672493647553
 10
130.9329082328071
 20
72.84253481051456
 10
131.6767691802215
 20
73.00930416078879
 10
132.3668096076112
 20
73.17417218953853
 10
133.0056355511692
 20
73.33850938792661
 10
133.5958530470887
 20
73.50368624711589
 10
134.1400681315626
 20
73.67107325826923
 10
134.6408868407841
 20
73.84204091254947
 10
135.1009152109461
 20
74.01795970111944
 10
135.5227592782417
 20
74.200200115142
 10
135.9090250788639
 20
74.39013264577998
 10
136.2623186490059
 20
74.58912778419625
 10
136.5852460248606
 20
74.79855602155364
 10
136.8804132426211
 20
75.019787849015
 10
137.1504263384804
 20
75.25419375774318
 10
137.3978913486316
 20
75.50314423890101
 10
137.6254143092678
 20
75.76800978365136
 10
137.8356012565818
 20
76.05016088315707
 10
138.031058226767
 20
76.35096802858098
 10
138.2143912560161
 20
76.67180171108594
 10
138.3882063805224
 20
77.01403242183478
 10
138.5551096364789
 20
77.37903065199038
 10
138.7177070600786
 20
77.76816689271555
 10
138.8786046875145
 20
78.18281163517316
 10
139.0404085549797
 20
78.62433537052606
 10
139.2057246986673
 20
79.09410858993706
 10
139.3771591547702
 20
79.59350178456904
 10
139.3771591547702
 20
79.59350178456904
 10
139.5757998713317
 20
80.19012271543154
 10
139.760502104458
 20
80.7720110069707
 10
139.9301435464656
 20
81.33420721355763
 10
140.0836018896709
 20
81.87175188956345
 10
140.2197548263904
 20
82.37968558935927
 10
140.3374800489407
 20
82.85304886731619
 10
140.4356552496381
 20
83.28688227780531
 10
140.5131581207991
 20
83.67622637519778
 10
140.5688663547402
 20
84.01612171386465
 10
140.6016576437778
 20
84.30160884817707
 10
140.6104096802286
 20
84.52772833250614
 10
140.5940001564088
 20
84.68952072122297
 10
140.5513067646349
 20
84.78202656869868
 10
140.5513067646349
 20
84.78202656869868
 10
140.4434211250327
 20
84.84155088276141
 10
140.2641361826248
 20
84.8779473326669
 10
140.0160855485886
 20
84.89187553341288
 10
139.7019028341009
 20
84.88399509999707
 10
139.3242216503392
 20
84.85496564741715
 10
138.8856756084804
 20
84.8054467906709
 10
138.3888983197018
 20
84.73609814475599
 10
137.8365233951804
 20
84.64757932467017
 10
137.2311844460935
 20
84.54054994541115
 10
136.5755150836181
 20
84.41566962197663
 10
135.8721489189315
 20
84.27359796936435
 10
135.1237195632107
 20
84.11499460257203
 10
134.332860627633
 20
83.94051913659739
 10
133.5022057233754
 20
83.75083118643813
 10
132.6343884616152
 20
83.54659036709199
 10
131.7320424535294
 20
83.32845629355668
 10
130.7978013102953
 20
83.09708858082991
 10
129.8342986430899
 20
82.85314684390943
 10
128.8441680630903
 20
82.59729069779293
 10
127.8300431814739
 20
82.33017975747813
 10
126.7945576094176
 20
82.05247363796278
 10
125.7403449580987
 20
81.76483195424456
 10
124.6700388386943
 20
81.4679143213212
 10
123.5862728623815
 20
81.16238035419044
 10
122.4916806403375
 20
80.84888966784999
 10
121.3888957837395
 20
80.52810187729756
 10
120.2805519037645
 20
80.20067659753086
 10
119.1692826115898
 20
79.86727344354765
 10
118.0577215183924
 20
79.52855203034559
 10
116.9485022353496
 20
79.18517197292245
 10
115.8442583736384
 20
78.83779288627592
 10
114.7476235444361
 20
78.48707438540373
 10
113.6612313589197
 20
78.1336760853036
 10
112.5877154282665
 20
77.77825760097326
 10
112.5877154282665
 20
77.77825760097329
 10
109.1040149998363
 20
76.581418955245
 10
105.6141716951065
 20
75.3171136178465
 10
102.1211702221995
 20
73.9871053513493
 10
98.62799528923773
 20
72.59315791832488
 10
95.13763160434354
 20
71.13703508134475
 10
91.65306387563939
 20
69.62050060298039
 10
88.1772768112477
 20
68.04531824580333
 10
84.71325511929087
 20
66.41325177238504
 10
81.26398350789136
 20
64.72606494529703
 10
77.83244668517153
 20
62.98552152711078
 10
74.42162935925384
 20
61.19338528039781
 10
71.03451623826069
 20
59.35141996772961
 10
67.6740920303145
 20
57.46138935167768
 10
64.34334144353768
 20
55.52505719481351
 10
61.04524918605265
 20
53.54418725970861
 10
57.78279996598183
 20
51.52054330893445
 10
54.55897849144763
 20
49.45588910506256
 10
51.37676947057248
 20
47.35198841066443
 10
48.23915761147879
 20
45.21060498831154
 10
45.14912762228897
 20
43.0335026005754
 10
42.10966421112544
 20
40.82244501002752
 10
39.12375208611063
 20
38.57919597923938
 10
36.19437595536695
 20
36.30551927078248
 10
33.32452052701681
 20
34.00317864722832
 10
30.51717050918263
 20
31.6739378711484
 10
27.77531060998683
 20
29.31956070511421
 10
25.10192553755182
 20
26.94181091169725
 10
22.50000000000002
 20
24.54245225346902
 10
22.5
 20
24.54245225346904
 10
15.5
 20
17.96712850289086
 10
15.5
 20
17.96712850289086
 10
27.24697620357825
 20
26.41792599652877
 10
27.24697620357825
 20
26.41792599652877
 10
28.24352673693437
 20
27.13055078103026
 10
29.29094100514734
 20
27.87140148642173
 10
30.38323962081975
 20
28.63651502020902
 10
31.51444319655416
 20
29.42192828989799
 10
32.67857234495317
 20
30.22367820299449
 10
33.86964767861933
 20
31.03780166700438
 10
35.08168981015521
 20
31.8603355894335
 10
36.30871935216341
 20
32.68731687778771
 10
37.54475691724649
 20
33.51478243957288
 10
38.78382311800702
 20
34.33876918229483
 10
40.01993856704758
 20
35.15531401345944
 10
41.24712387697075
 20
35.96045384057255
 10
42.45939966037908
 20
36.75022557114001
 10
43.65078652987517
 20
37.52066611266769
 10
44.81530509806159
 20
38.26781237266143
 10
45.9469759775409
 20
38.98770125862709
 10
47.03981978091569
 20
39.67636967807052
 10
48.08785712078853
 20
40.32985453849757
 10
49.08510860976198
 20
40.94419274741411
 10
50.02559486043863
 20
41.51542121232597
  0
LWPOLYLINE
  5
278
330
1F
100
AcDbEntity
  8
Default Layer
 62
    18
420
        0
370
    30
100
AcDbPolyline
 90
      212
 70
     0
 43
0.0
 10
28.45410110793632
 20
38.84941204558823
 10
30.40553880639915
 20
40.83289348379
 10
32.40771741550102
 20
42.81545149940039
 10
34.45592696096737
 20
44.79318084243877
 10
36.54545746852364
 20
46.7621762629246
 10
38.67159896389527
 20
48.71853251087728
 10
40.82964147280771
 20
50.65834433631623
 10
43.01487502098638
 20
52.57770648926087
 10
45.22258963415675
 20
54.47271371973063
 10
47.44807533804423
 20
56.33946077774492
 10
49.68662215837429
 20
58.17404241332317
 10
51.93352012087235
 20
59.97255337648478
 10
54.18405925126386
 20
61.7310884172492
 10
56.43352957527426
 20
63.44574228563583
 10
58.67722111862899
 20
65.11260973166409
 10
60.91042390705348
 20
66.7277855053534
 10
63.12842796627319
 20
68.2873643567232
 10
65.32652332201355
 20
69.78744103579289
 10
67.50000000000001
 20
71.2241102925819
 10
67.5
 20
71.22411029258191
 10
69.52946993072098
 20
72.52170222150937
 10
71.62476034272938
 20
73.81970829813886
 10
73.78129704881779
 20
75.11608571650355
 10
75.99450586177884
 20
76.40879167063658
 10
78.25981259440514
 20
77.69578335457113
 10
80.57264305948924
 20
78.97501796234035
 10
82.92842306982382
 20
80.24445268797739
 10
85.32257843820143
 20
81.50204472551541
 10
87.75053497741469
 20
82.74575126898756
 10
90.20771850025621
 20
83.97352951242702
 10
92.68955481951858
 20
85.18333664986693
 10
95.19146974799442
 20
86.37312987534045
 10
97.70888909847633
 20
87.54086638288075
 10
100.2372386837569
 20
88.68450336652097
 10
102.7719443166287
 20
89.80199802029428
 10
105.3084318098844
 20
90.89130753823381
 10
107.8421269763167
 20
91.95038911437277
 10
110.368455628718
 20
92.97719994274428
 10
112.882843579881
 20
93.9696972173815
 10
115.3807166425983
 20
94.92583813231759
 10
117.8575006296625
 20
95.8435798815857
 10
120.3086213538662
 20
96.72087965921901
 10
122.729504628002
 20
97.55569465925066
 10
125.1155762648626
 20
98.34598207571382
 10
127.4622620772404
 20
99.08969910264163
 10
129.7649878779282
 20
99.78480293406727
 10
132.0191794797186
 20
100.4292507640238
 10
134.220262695404
 20
101.0209997865446
 10
134.220262695404
 20
101.0209997865446
 10
135.2437964960953
 20
101.2922593025602
 10
136.2016034665311
 20
101.5568891511361
 10
137.092948063966
 20
101.8145822171336
 10
137.9170947456547
 20
102.0650313854141
 10
138.6733079688516
 20
102.3079295408388
 10
139.3608521908114
 20
102.5429695682693
 10
139.9789918687887
 20
102.7698443525667
 10
140.5269914600379
 20
102.9882467785925
 10
141.0041154218137
 20
103.197869731208
 10
141.4096282113708
 20
103.3984060952746
 10
141.7427942859635
 20
103.5895487556536
 10
142.0028781028466
 20
103.7709905972064
 10
142.1891441192745
 20
103.9424245047944
 10
142.3008567925019
 20
104.1035433632788
 10
142.3372805797833
 20
104.2540400575211
 10
142.2976799383734
 20
104.3936074723826
 10
142.2976799383734
 20
104.3936074723826
 10
142.2091694731073
 20
104.5389052371672
 10
142.0779616349298
 20
104.7440796650131
 10
141.9066614484246
 20
105.0053426443899
 10
141.6978739381758
 20
105.3189060637672
 10
141.4542041287674
 20
105.6809818116145
 10
141.1782570447833
 20
106.0877817764016
 10
140.8726377108074
 20
106.535517846598
 10
140.5399511514238
 20
107.0204019106734
 10
140.1828023912164
 20
107.5386458570973
 10
139.8037964547692
 20
108.0864615743393
 10
139.4055383666661
 20
108.6600609508691
 10
138.9906331514911
 20
109.2556558751564
 10
138.5616858338281
 20
109.8694582356706
 10
138.1213014382612
 20
110.4976799208815
 10
137.6720849893742
 20
111.1365328192585
 10
137.2166415117511
 20
111.7822288192714
 10
137.2166415117511
 20
111.7822288192714
 10
136.6853245658427
 20
112.5293489145235
 10
136.1894571018265
 20
113.2155136581145
 10
135.7266825584007
 20
113.842758583134
 10
135.2946443742632
 20
114.4131192226712
 10
134.8909859881118
 20
114.9286311098158
 10
134.5133508386444
 20
115.391329777657
 10
134.1593823645592
 20
115.8032507592845
 10
133.826724004554
 20
116.1664295877875
 10
133.5130191973267
 20
116.4829017962556
 10
133.2159113815753
 20
116.7547029177783
 10
132.9330439959977
 20
116.9838684854449
 10
132.6620604792918
 20
117.1724340323449
 10
132.4006042701557
 20
117.3224350915677
 10
132.1463188072873
 20
117.4359071962029
 10
131.8968475293844
 20
117.5148858793398
 10
131.649833875145
 20
117.561406674068
 10
131.4029212832671
 20
117.5775051134767
 10
131.1537531924486
 20
117.5652167306556
 10
130.8999730413875
 20
117.526577058694
 10
130.6392242687816
 20
117.4636216306814
 10
130.6392242687817
 20
117.4636216306814
 10
130.4648084078524
 20
117.4073495317737
 10
130.2255679032672
 20
117.3186065935146
 10
129.9239469671112
 20
117.1985373240429
 10
129.5623898114697
 20
117.0482862314978
 10
129.1433406484277
 20
116.8689978240183
 10
128.6692436900705
 20
116.6618166097434
 10
128.1425431484831
 20
116.4278870968122
 10
127.5656832357508
 20
116.1683537933638
 10
126.9411081639587
 20
115.8843612075371
 10
126.271262145192
 20
115.5770538474712
 10
125.5585893915359
 20
115.2475762213052
 10
124.8055341150754
 20
114.8970728371781
 10
124.0145405278958
 20
114.5266882032289
 10
123.1880528420823
 20
114.1375668275967
 10
122.32851526972
 20
113.7308532184205
 10
121.438372022894
 20
113.3076918838394
 10
120.5200673136896
 20
112.8692273319924
 10
119.5760453541919
 20
112.4166040710185
 10
118.608750356486
 20
111.9509666090568
 10
117.6206265326571
 20
111.4734594542464
 10
116.6141180947904
 20
110.9852271147262
 10
115.5916692549711
 20
110.4874140986354
 10
114.5557242252843
 20
109.9811649141129
 10
113.5087272178151
 20
109.4676240692979
 10
112.4531224446488
 20
108.9479360723293
 10
112.4531224446488
 20
108.9479360723293
 10
108.4914353396341
 20
106.9574652261185
 10
104.579353094769
 20
104.9187393645457
 10
100.7175457769016
 20
102.8323144287431
 10
96.90668345287999
 20
100.6987463598427
 10
93.14743618955217
 20
98.51859109897675
 10
89.4404740537662
 20
96.2924045872773
 10
85.78646711237011
 20
94.02074276587651
 10
82.18608543221199
 20
91.70416157590651
 10
78.63999908013983
 20
89.34321695849945
 10
75.14887812300172
 20
86.93846485478747
 10
71.71339262764568
 20
84.49046120590269
 10
68.33421266091979
 20
81.99976195297724
 10
65.01200828967206
 20
79.46692303714326
 10
61.74744958075056
 20
76.89250039953289
 10
58.54120660100332
 20
74.27704998127826
 10
55.3939494172784
 20
71.62112772351154
 10
52.30634809642384
 20
68.92528956736481
 10
49.27907270528769
 20
66.19009145397024
 10
46.31279331071799
 20
63.41608932445994
 10
43.40817997956279
 20
60.60383911996607
 10
40.56590277867014
 20
57.75389678162075
 10
37.78663177488809
 20
54.86681825055612
 10
35.07103703506467
 20
51.94315946790432
 10
32.41978862604794
 20
48.98347637479746
 10
29.83355661468594
 20
45.9883249123677
 10
27.31301106782673
 20
42.95826102174717
 10
24.85882205231833
 20
39.893840644068
 10
22.47165963500882
 20
36.79561972046233
 10
20.15219388274622
 20
33.6641541920623
 10
17.90109486237858
 20
30.50000000000003
 10
17.90109486237854
 20
30.5
 10
17.16716846476332
 20
29.44483730903166
 10
16.47918074090967
 20
28.4511911501867
 10
15.83709943926089
 20
27.51899781962033
 10
15.24089230826024
 20
26.64819361348776
 10
14.69052709635103
 20
25.83871482794422
 10
14.18597155197654
 20
25.09049775914489
 10
13.72719342358004
 20
24.40347870324501
 10
13.31416045960484
 20
23.77759395639978
 10
12.9468404084942
 20
23.21277981476441
 10
12.62520101869143
 20
22.70897257449413
 10
12.3492100386398
 20
22.26610853174414
 10
12.11883521678259
 20
21.88412398266965
 10
11.93404430156311
 20
21.56295522342588
 10
11.79480504142462
 20
21.30253855016804
 10
11.70108518481042
 20
21.10281025905134
 10
11.65285248016379
 20
20.96370664623099
 10
11.65007467592801
 20
20.88516400786222
 10
11.69271952054638
 20
20.86711864010023
 10
11.78075476246218
 20
20.90950683910023
 10
11.91414815011869
 20
21.01226490101743
 10
12.0928674319592
 20
21.17532912200705
 10
12.316880356427
 20
21.39863579822431
 10
12.58615467196536
 20
21.68212122582441
 10
12.90065812701758
 20
22.02572170096257
 10
13.26035847002694
 20
22.42937351979399
 10
13.66522344943673
 20
22.89301297847389
 10
14.11522081369023
 20
23.4165763731575
 10
14.61031831123073
 20
24.00000000000001
 10
14.61031831123074
 20
24.0
 10
14.92037108410751
 20
24.36308980499042
 10
15.2790266352313
 20
24.77540681792714
 10
15.68355469188674
 20
25.23402243575835
 10
16.1312249813585
 20
25.73600805543222
 10
16.61930723093121
 20
26.27843507389695
 10
17.14507116788953
 20
26.85837488810072
 10
17.70578651951809
 20
27.4728988949917
 10
18.29872301310156
 20
28.11907849151809
 10
18.92115037592456
 20
28.79398507462807
 10
19.57033833527176
 20
29.49469004126983
 10
20.24355661842779
 20
30.21826478839154
 10
20.9380749526773
 20
30.96178071294139
 10
21.65116306530495
 20
31.72230921186757
 10
22.38009068359537
 20
32.49692168211826
 10
23.12212753483322
 20
33.28268952064164
 10
23.87454334630313
 20
34.0766841243859
 10
24.63460784528976
 20
34.87597689029922
 10
25.39959075907776
 20
35.67763921532979
 10
26.16676181495177
 20
36.47874249642579
 10
26.93339074019644
 20
37.27635813053541
 10
27.6967472620964
 20
38.06755751460682
 10
28.45410110793632
 20
38.84941204558822
  0
LWPOLYLINE
  5
279
330
1F
100
AcDbEntity
  8
Default Layer
 62
    18
420
        0
370
    30
100
AcDbPolyline
 90
      368
 70
     0
 43
0.0
 10
203.9297147373896
 20
70.65966850958699
 10
204.0
 20
87.81933701917401
 10
204.0
 20
87.81933701917401
 10
219.9794805776022
 20
98.15966850958702
 10
219.9794805776022
 20
98.15966850958702
 10
220.9861855995382
 20
98.81207560123243
 10
221.9768616910347
 20
99.45600671043699
 10
222.949597654437
 20
100.0901666223549
 10
223.9024822920906
 20
100.7132601221403
 10
224.8336044063406
 20
101.3239919949475
 10
225.7410527995325
 20
101.9210670259307
 10
226.6229162740116
 20
102.5031900002439
 10
227.4772836321231
 20
103.0690657030415
 10
228.3022436762126
 20
103.6173989194776
 10
229.0958852086253
 20
104.1468944347064
 10
229.8562970317066
 20
104.6562570338822
 10
230.5815679478017
 20
105.144191502159
 10
231.2697867592561
 20
105.6094026246911
 10
231.919042268415
 20
106.0505951866328
 10
232.5274232776239
 20
106.4664739731381
 10
233.093018589228
 20
106.8557437693613
 10
233.6139170055727
 20
107.2171093604566
 10
234.0882073290033
 20
107.5492755315782
 10
234.5139783618652
 20
107.8509470678802
 10
234.8893189065038
 20
108.1208287545169
 10
235.2123177652643
 20
108.3576253766424
 10
235.481063740492
 20
108.560041719411
 10
235.6936456345324
 20
108.7267825679769
 10
235.8481522497308
 20
108.8565527074942
 10
235.9426723884325
 20
108.9480569231172
 10
235.9752948529829
 20
109.0
 10
235.9752948529829
 20
109.0
 10
235.940999843359
 20
109.0440151442033
 10
235.8374635153321
 20
109.1120549605145
 10
235.6668186049386
 20
109.2033033321778
 10
235.4311978482149
 20
109.3169441424373
 10
235.1327339811975
 20
109.4521612745373
 10
234.7735597399228
 20
109.6081386117218
 10
234.3558078604273
 20
109.7840600372351
 10
233.8816110787474
 20
109.9791094343214
 10
233.3531021309196
 20
110.1924706862248
 10
232.7724137529803
 20
110.4233276761896
 10
232.1416786809659
 20
110.6708642874598
 10
231.463029650913
 20
110.9342644032796
 10
230.7385993988579
 20
111.2127119068933
 10
229.9705206608371
 20
111.5053906815451
 10
229.160926172887
 20
111.811484610479
 10
228.311948671044
 20
112.1301775769393
 10
227.4257208913448
 20
112.4606534641701
 10
226.5043755698255
 20
112.8020961554156
 10
225.5500454425229
 20
113.1536895339201
 10
224.5648632454731
 20
113.5146174829277
 10
223.5509617147128
 20
113.8840638856825
 10
222.5104735862783
 20
114.2612126254287
 10
221.4455315962061
 20
114.6452475854105
 10
220.3582684805327
 20
115.0353526488722
 10
219.2508169752944
 20
115.4307116990578
 10
218.1253098165278
 20
115.8305086192115
 10
218.1253098165278
 20
115.8305086192115
 10
200.258991082294
 20
122.1610172384231
 10
200.258991082294
 20
122.1610172384231
 10
195.379495541147
 20
140.5753470767697
 10
195.379495541147
 20
140.5753470767697
 10
195.0711093077642
 20
141.7353113171171
 10
194.7656996942653
 20
142.8765378367027
 10
194.463909448752
 20
143.9968324371803
 10
194.166381319326
 20
145.0940009202035
 10
193.8737580540892
 20
146.1658490874263
 10
193.5866824011432
 20
147.2101827405025
 10
193.3057971085897
 20
148.2248076810858
 10
193.0317449245307
 20
149.20752971083
 10
192.7651685970677
 20
150.156154631389
 10
192.5067108743026
 20
151.0684882444165
 10
192.2570145043371
 20
151.9423363515664
 10
192.016722235273
 20
152.7755047544924
 10
191.7864768152119
 20
153.5657992548484
 10
191.5669209922558
 20
154.3110256542882
 10
191.3586975145062
 20
155.0089897544655
 10
191.1624491300651
 20
155.6574973570342
 10
190.9788185870341
 20
156.2543542636481
 10
190.808448633515
 20
156.797366275961
 10
190.6519820176095
 20
157.2843391956266
 10
190.5100614874194
 20
157.7130788242988
 10
190.3833297910464
 20
158.0813909636314
 10
190.2724296765923
 20
158.3870814152782
 10
190.1780038921589
 20
158.627955980893
 10
190.1006951858479
 20
158.8018204621295
 10
190.041146305761
 20
158.9064806606417
 10
190.0
 20
158.9397423780832
 10
190.0
 20
158.9397423780833
 10
189.9460304410225
 20
158.9068544774873
 10
189.8485284215596
 20
158.8157308424698
 10
189.7089116201231
 20
158.6681748055587
 10
189.5285977152252
 20
158.4659896992821
 10
189.3090043853776
 20
158.210978856168
 10
189.0515493090925
 20
157.9049456087443
 10
188.7576501648817
 20
157.5496932895391
 10
188.4287246312572
 20
157.1470252310804
 10
188.066190386731
 20
156.6987447658962
 10
187.6714651098149
 20
156.2066552265144
 10
187.2459664790211
 20
155.6725599454633
 10
186.7911121728614
 20
155.0982622552707
 10
186.3083198698478
 20
154.4855654884645
 10
185.7990072484922
 20
153.836272977573
 10
185.2645919873067
 20
153.152188055124
 10
184.7064917648032
 20
152.4351140536457
 10
184.1261242594935
 20
151.6868543056659
 10
183.5249071498898
 20
150.9092121437127
 10
182.904258114504
 20
150.1039909003141
 10
182.2655948318479
 20
149.2729939079982
 10
181.6103349804336
 20
148.4180244992929
 10
180.9398962387731
 20
147.5408860067262
 10
180.2556962853782
 20
146.6433817628262
 10
179.559152798761
 20
145.7273151001209
 10
178.8516834574334
 20
144.7944893511382
 10
178.1347059399074
 20
143.8467078484062
 10
178.1347059399073
 20
143.8467078484063
 10
166.7694118798147
 20
128.8036078557623
 10
166.7694118798147
 20
128.8036078557623
 10
152.1347059399073
 20
129.439556200326
 10
152.1347059399073
 20
129.439556200326
 10
151.0331917802551
 20
129.4884209861056
 10
149.9264215691154
 20
129.5394639322397
 10
148.818244871735
 20
129.5924462994478
 10
147.7125112533602
 20
129.6471293484494
 10
146.6130702792376
 20
129.7032743399642
 10
145.5237715146138
 20
129.7606425347117
 10
144.4484645247354
 20
129.8189951934114
 10
143.3909988748488
 20
129.8780935767831
 10
142.3552241302005
 20
129.9376989455461
 10
141.3449898560372
 20
129.9975725604201
 10
140.3641456176054
 20
130.0574756821246
 10
139.4165409801516
 20
130.1171695713792
 10
138.5060255089224
 20
130.1764154889036
 10
137.6364487691642
 20
130.2349746954172
 10
136.8116603261237
 20
130.2926084516396
 10
136.0355097450474
 20
130.3490780182903
 10
135.3118465911818
 20
130.4041446560891
 10
134.6445204297734
 20
130.4575696257554
 10
134.0373808260688
 20
130.5091141880087
 10
133.4942773453145
 20
130.5585396035687
 10
133.0190595527571
 20
130.605607133155
 10
132.6155770136431
 20
130.650078037487
 10
132.6155770136431
 20
130.650078037487
 10
127.7311540272862
 20
131.2246515300844
 10
127.7311540272862
 20
131.2246515300844
 10
137.5240166937743
 20
116.8623257650422
 10
137.5240166937743
 20
116.8623257650422
 10
138.1951902343297
 20
115.8789313796559
 10
138.8610579683779
 20
114.9051897695529
 10
139.5199184894549
 20
113.9435335647775
 10
140.1700703910968
 20
112.9963953953738
 10
140.8098122668395
 20
112.0662078913857
 10
141.4374427102191
 20
111.1554036828575
 10
142.0512603147716
 20
110.2664153998333
 10
142.649563674033
 20
109.4016756723571
 10
143.2306513815395
 20
108.563617130473
 10
143.7928220308269
 20
107.7546724042252
 10
144.3343742154314
 20
106.9772741236578
 10
144.8536065288889
 20
106.2338549188148
 10
145.3488175647355
 20
105.5268474197405
 10
145.8183059165072
 20
104.8586842564788
 10
146.2603701777401
 20
104.2317980590739
 10
146.6733089419702
 20
103.64862145757
 10
147.0554208027334
 20
103.111587082011
 10
147.4050043535659
 20
102.6231275624412
 10
147.7203581880036
 20
102.1856755289046
 10
147.9997808995826
 20
101.8016636114453
 10
148.241571081839
 20
101.4735244401075
 10
148.4440273283087
 20
101.2036906449352
 10
148.6054482325277
 20
100.9945948559725
 10
148.7241323880322
 20
100.8486697032637
 10
148.7241323880323
 20
100.8486697032637
 10
148.8309462810995
 20
100.7139736680212
 10
148.9266331580358
 20
100.5717808936923
 10
149.0106113765004
 20
100.4200116968827
 10
149.0822992941528
 20
100.2565863941981
 10
149.1411152686524
 20
100.0794253022442
 10
149.1864776576585
 20
99.88644873762668
 10
149.2178048188304
 20
99.67557701695115
 10
149.2345151098277
 20
99.44473045682336
 10
149.2360268883096
 20
99.19182937384896
 10
149.2217585119356
 20
98.91479408463366
 10
149.191128338365
 20
98.61154490578314
 10
149.1435547252571
 20
98.28000215390307
 10
149.0784560302714
 20
97.91808614559915
 10
148.9952506110672
 20
97.52371719747705
 10
148.8933568253038
 20
97.09481562614245
 10
148.7721930306408
 20
96.62930174820106
 10
148.6311775847374
 20
96.12509588025854
 10
148.469728845253
 20
95.58011833892058
 10
148.287265169847
 20
94.99228944079288
 10
148.0832049161788
 20
94.35952950248109
 10
147.8569664419077
 20
93.67975884059092
 10
147.6079681046931
 20
92.95089777172805
 10
147.3356282621944
 20
92.17086661249815
 10
147.039365272071
 20
91.33758567950692
 10
146.7185974919822
 20
90.44897528936004
 10
146.3727432795874
 20
89.5029557586632
 10
146.001220992546
 20
88.49744740402208
 10
145.6034489885174
 20
87.43037054204235
 10
145.1788456251609
 20
86.29964548932973
 10
144.7268292601358
 20
85.10319256248985
 10
144.2468182511017
 20
83.83893207812844
 10
143.7382309557179
 20
82.50478435285115
 10
143.2004857316437
 20
81.0986697032637
 10
143.2004857316437
 20
81.0986697032637
 10
142.7651321095364
 20
79.95849264199046
 10
142.3392629406523
 20
78.83654193789448
 10
141.9236291005097
 20
77.7349800401324
 10
141.5189814646269
 20
76.65596939786084
 10
141.1260709085225
 20
75.60167246023644
 10
140.7456483077149
 20
74.57425167641581
 10
140.3784645377224
 20
73.57586949555559
 10
140.0252704740636
 20
72.6086883668124
 10
139.6868169922567
 20
71.67487073934286
 10
139.3638549678203
 20
70.7765790623036
 10
139.0571352762728
 20
69.91597578485124
 10
138.7674087931325
 20
69.09522335614241
 10
138.4954263939178
 20
68.31648422533374
 10
138.2419389541474
 20
67.58192084158185
 10
138.0076973493394
 20
66.89369565404337
 10
137.7934524550124
 20
66.25397111187492
 10
137.5999551466848
 20
65.66490966423313
 10
137.4279562998749
 20
65.12867376027464
 10
137.2782067901013
 20
64.64742584915605
 10
137.1514574928823
 20
64.223328380034
 10
137.0484592837363
 20
63.85854380206511
 10
136.9699630381817
 20
63.55523456440601
 10
136.9167196317371
 20
63.31556311621333
 10
136.8894799399208
 20
63.14169190664368
 10
136.8889948382511
 20
63.0357833848537
 10
136.9160152022466
 20
63.00000000000001
 10
136.9160152022466
 20
63.0
 10
136.9943482906225
 20
63.010688
 10
137.1424522764239
 20
63.042304
 10
137.3579772133044
 20
63.094176
 10
137.6385731549174
 20
63.165632
 10
137.9818901549164
 20
63.256
 10
138.385578266955
 20
63.364608
 10
138.8472875446865
 20
63.49078399999999
 10
139.3646680417646
 20
63.63385599999999
 10
139.9353698118426
 20
63.79315199999999
 10
140.5570429085742
 20
63.96799999999998
 10
141.2273373856127
 20
64.15772799999999
 10
141.9439032966116
 20
64.36166399999999
 10
142.7043906952246
 20
64.57913599999999
 10
143.5064496351049
 20
64.80947199999999
 10
144.3477301699062
 20
65.05199999999999
 10
145.225882353282
 20
65.30604799999998
 10
146.1385562388857
 20
65.57094399999998
 10
147.0834018803708
 20
65.84601599999998
 10
148.0580693313908
 20
66.13059199999998
 10
149.0602086455992
 20
66.42399999999998
 10
150.0874698766495
 20
66.72556799999998
 10
151.1375030781951
 20
67.03462399999998
 10
152.2079583038897
 20
67.35049599999998
 10
153.2964856073865
 20
67.67251199999998
 10
154.4007350423393
 20
67.99999999999998
 10
154.4007350423394
 20
68.0
 10
155.5066944841433
 20
68.327488
 10
156.6002801312598
 20
68.64950400000001
 10
157.6790345219415
 20
68.96537600000001
 10
158.7405001944412
 20
69.274432
 10
159.7822196870114
 20
69.57600000000001
 10
160.8017355379049
 20
69.86940800000001
 10
161.7965902853743
 20
70.15398400000001
 10
162.7643264676723
 20
70.429056
 10
163.7024866230516
 20
70.69395199999999
 10
164.6086132897648
 20
70.94799999999999
 10
165.4802490060646
 20
71.19052799999998
 10
166.3149363102037
 20
71.42086399999998
 10
167.1102177404347
 20
71.63833599999998
 10
167.8636358350104
 20
71.84227199999998
 10
168.5727331321833
 20
72.03199999999998
 10
169.2350521702062
 20
72.20684799999998
 10
169.8481354873318
 20
72.36614399999997
 10
170.4095256218126
 20
72.50921599999998
 10
170.9167651119014
 20
72.63539199999998
 10
171.3673964958508
 20
72.74399999999999
 10
171.7589623119136
 20
72.83436799999998
 10
172.0890050983423
 20
72.90582399999998
 10
172.3550673933897
 20
72.95769599999998
 10
172.5546917353084
 20
72.98931199999998
 10
172.6854206623511
 20
72.99999999999998
 10
172.6854206623511
 20
73.0
 10
172.8104468879336
 20
72.97541442255718
 10
172.9932021608622
 20
72.90268822341495
 10
173.2315875724756
 20
72.78336720235265
 10
173.523504214112
 20
72.61899715914961
 10
173.8668531771102
 20
72.41112389358518
 10
174.2595355528084
 20
72.1612932054387
 10
174.6994524325453
 20
71.8710508944895
 10
175.1845049076593
 20
71.54194276051692
 10
175.7125940694889
 20
71.1755146033003
 10
176.2816210093726
 20
70.77331222261898
 10
176.8894868186489
 20
70.3368814182523
 10
177.5340925886563
 20
69.8677679899796
 10
178.2133394107332
 20
69.36751773758022
 10
178.9251283762182
 20
68.83767646083349
 10
179.6673605764498
 20
68.27978995951875
 10
180.4379371027664
 20
67.69540403341536
 10
181.2347590465065
 20
67.08606448230263
 10
182.0557274990087
 20
66.45331710595991
 10
182.8987435516113
 20
65.79870770416654
 10
183.761708295653
 20
65.12378207670187
 10
184.6425228224722
 20
64.43008602334522
 10
185.5390882234074
 20
63.71916534387594
 10
186.449305589797
 20
62.99256583807337
 10
187.3710760129796
 20
62.25183330571684
 10
188.3023005842937
 20
61.49851354658569
 10
188.3023005842937
 20
61.49851354658569
 10
189.4157165878452
 20
60.59605403010044
 10
190.4724336642038
 20
59.74226035960893
 10
191.4739452309386
 20
58.93615291923217
 10
192.421744705619
 20
58.17675209309117
 10
193.317325505814
 20
57.46307826530696
 10
194.1621810490929
 20
56.79415182000052
 10
194.9578047530248
 20
56.16899314129289
 10
195.7056900351789
 20
55.58662261330508
 10
196.4073303131244
 20
55.0460606201581
 10
197.0642190044305
 20
54.54632754597295
 10
197.6778495266663
 20
54.08644377487067
 10
198.249715297401
 20
53.66542969097225
 10
198.7813097342039
 20
53.28230567839872
 10
199.274126254644
 20
52.93609212127108
 10
199.7296582762906
 20
52.62580940371036
 10
200.1493992167129
 20
52.35047790983756
 10
200.53484249348
 20
52.10911802377371
 10
200.8874815241611
 20
51.9007501296398
 10
201.2088097263254
 20
51.72439461155685
 10
201.500320517542
 20
51.57907185364589
 10
201.7635073153802
 20
51.46380224002791
 10
201.9998635374092
 20
51.37760615482394
 10
202.210882601198
 20
51.31950398215499
 10
202.398057924316
 20
51.28851610614208
 10
202.5628829243323
 20
51.2836629109062
 10
202.706851018816
 20
51.30396478056839
 10
202.8314556253363
 20
51.34844209924965
 10
202.9381901614624
 20
51.416115251071
 10
203.0285480447636
 20
51.50600462015344
 10
203.1040226928089
 20
51.61713059061801
 10
203.1661075231676
 20
51.7485135465857
 10
203.1661075231676
 20
51.74851354658568
 10
203.2135577000154
 20
51.90775518274989
 10
203.2604991293056
 20
52.14273551169981
 10
203.3068158116784
 20
52.45058174513812
 10
203.3523917477741
 20
52.82842109476749
 10
203.3971109382327
 20
53.27338077229058
 10
203.4408573836947
 20
53.78258798941008
 10
203.4835150848
 20
54.35316995782862
 10
203.524968042189
 20
54.98225388924891
 10
203.5651002565018
 20
55.66696699537359
 10
203.6037957283786
 20
56.40443648790534
 10
203.6409384584596
 20
57.19178957854683
 10
203.6764124473851
 20
58.02615347900074
 10
203.7101016957952
 20
58.90465540096972
 10
203.7418902043302
 20
59.82442255615644
 10
203.7716619736301
 20
60.78258215626359
 10
203.7993010043354
 20
61.77626141299382
 10
203.824691297086
 20
62.8025875380498
 10
203.8477168525223
 20
63.85868774313421
 10
203.8682616712844
 20
64.94168923994971
 10
203.8862097540126
 20
66.04871924019898
 10
203.901445101347
 20
67.17690495558468
 10
203.9138517139278
 20
68.32337359780947
 10
203.9233135923953
 20
69.48525237857602
 10
203.9297147373896
 20
70.65966850958702
  0
LWPOLYLINE
  5
27A
330
1F
100
AcDbEntity
  8
Default Layer
 62
    18
420
        0
370
    30
100
AcDbPolyline
 90
      110
 70
     0
 43
0.0
 10
-170.3684097966045
 20
16.33407613004448
 10
-169.8684137832665
 20
16.75087944744401
 10
-169.4116815725468
 20
17.11782698302102
 10
-168.991976081073
 20
17.43644267052249
 10
-168.6030602254727
 20
17.70825044369539
 10
-168.2386969223737
 20
17.93477423628669
 10
-167.8926490884037
 20
18.11753798204337
 10
-167.5586796401903
 20
18.25806561471241
 10
-167.2305514943612
 20
18.35788106804078
 10
-166.9020275675442
 20
18.41850827577545
 10
-166.5668707763668
 20
18.44147117166341
 10
-166.2188440374567
 20
18.42829368945161
 10
-165.8517102674418
 20
18.38049976288705
 10
-165.4592323829495
 20
18.29961332571669
 10
-165.0351733006077
 20
18.18715831168751
 10
-164.573295937044
 20
18.04465865454648
 10
-164.0673632088861
 20
17.87363828804058
 10
-164.0673632088861
 20
17.87363828804058
 10
-163.4343460705775
 20
17.66078931399554
 10
-162.8626367707183
 20
17.48625635611536
 10
-162.3507982744441
 20
17.35148847781883
 10
-161.8973935468905
 20
17.25793474252472
 10
-161.5009855531932
 20
17.20704421365181
 10
-161.1601372584876
 20
17.20026595461887
 10
-160.8734116279096
 20
17.23904902884469
 10
-160.6393716265946
 20
17.32484249974804
 10
-160.4565802196783
 20
17.45909543074771
 10
-160.3236003722964
 20
17.64325688526246
 10
-160.2389950495843
 20
17.87877592671107
 10
-160.2013272166778
 20
18.16710161851234
 10
-160.2091598387125
 20
18.50968302408502
 10
-160.261055880824
 20
18.9079692068479
 10
-160.3555783081479
 20
19.36340923021976
 10
-160.4912900858198
 20
19.87745215761938
 10
-160.6667541789753
 20
20.45154705246552
 10
-160.8805335527501
 20
21.08714297817698
 10
-160.8805335527501
 20
21.08714297817698
 10
-161.0661116194963
 20
21.64279043110321
 10
-161.2171659819797
 20
22.15346440480124
 10
-161.3325362686402
 20
22.62703459393185
 10
-161.4110621079174
 20
23.0713706931558
 10
-161.4515831282514
 20
23.49434239713384
 10
-161.4529389580819
 20
23.90381940052673
 10
-161.4139692258488
 20
24.30767139799522
 10
-161.3335135599921
 20
24.71376808420008
 10
-161.2104115889515
 20
25.12997915380206
 10
-161.0435029411669
 20
25.56417430146192
 10
-160.8316272450782
 20
26.02422322184042
 10
-160.5736241291253
 20
26.51799560959832
 10
-160.2683332217479
 20
27.05336115939637
 10
-159.914594151386
 20
27.63818956589534
 10
-159.9145941513861
 20
27.63818956589535
 10
-157.8368810393754
 20
31.0
 10
-157.8368810393754
 20
31.0
 10
-161.8459626478466
 20
31.0
 10
-161.8459626478466
 20
31.0
 10
-162.5240587026908
 20
31.00896669075548
 10
-163.1418746171155
 20
31.03809506794994
 10
-163.7062442613299
 20
31.0907275889754
 10
-164.2240015055431
 20
31.17020671122388
 10
-164.7019802199643
 20
31.27987489208742
 10
-165.1470142748027
 20
31.42307458895804
 10
-165.5659375402675
 20
31.60314825922777
 10
-165.9655838865679
 20
31.82343836028862
 10
-166.3527871839131
 20
32.08728734953263
 10
-166.7343813025122
 20
32.39803768435182
 10
-167.1172001125745
 20
32.75903182213822
 10
-167.508077484309
 20
33.17361222028385
 10
-167.9138472879251
 20
33.64512133618074
 10
-168.3413433936319
 20
34.17690162722092
 10
-168.3413433936318
 20
34.17690162722093
 10
-170.8276425309457
 20
37.35380325444186
 10
-170.8276425309457
 20
37.35380325444186
 10
-171.9332053521427
 20
33.24805638458963
 10
-171.9332053521427
 20
33.24805638458963
 10
-172.1177543403547
 20
32.59064686045432
 10
-172.301967130584
 20
31.99810381927584
 10
-172.4902968501313
 20
31.46545723244205
 10
-172.6871966262976
 20
30.98773707134077
 10
-172.8971195863836
 20
30.55997330735986
 10
-173.1245188576902
 20
30.17719591188716
 10
-173.3738475675181
 20
29.83443485631052
 10
-173.6495588431682
 20
29.52672011201779
 10
-173.9561058119413
 20
29.2490816503968
 10
-174.2979416011383
 20
28.99654944283541
 10
-174.6795193380599
 20
28.76415346072147
 10
-175.1052921500069
 20
28.5469236754428
 10
-175.5797131642803
 20
28.33989005838727
 10
-176.1072355081808
 20
28.13808258094272
 10
-176.6923123090092
 20
27.93653121449699
 10
-176.6923123090093
 20
27.936531214497
 10
-180.3458564446788
 20
26.73075291425659
 10
-180.3458564446788
 20
26.73075291425659
 10
-177.2176074171567
 20
24.11537645712829
 10
-177.2176074171567
 20
24.11537645712829
 10
-176.6111405340661
 20
23.58531662014443
 10
-176.0758828503223
 20
23.0658601423925
 10
-175.6077840721531
 20
22.54929135572096
 10
-175.2027939057864
 20
22.02789459197825
 10
-174.8568620574497
 20
21.4939541830128
 10
-174.5659382333711
 20
20.93975446067306
 10
-174.325972139778
 20
20.35757975680748
 10
-174.1329134828983
 20
19.73971440326449
 10
-173.9827119689598
 20
19.07844273189255
 10
-173.8713173041902
 20
18.3660490745401
 10
-173.7946791948173
 20
17.59481776305557
 10
-173.7946791948173
 20
17.59481776305557
 10
-173.5
 20
13.68963552611115
 10
-173.5
 20
13.68963552611115
 10
-170.3684097966045
 20
16.33407613004448
210
0.0
220
0.0
230
-1.0
  0
LWPOLYLINE
  5
27B
330
1F
100
AcDbEntity
  8
Default Layer
 62
    18
420
        0
370
    30
100
AcDbPolyline
 90
      132
 70
     0
 43
0.0
 10
172.0
 20
20.46481624151198
 10
172.0300834691076
 20
20.94506128610085
 10
172.1176378208889
 20
21.42012395897307
 10
172.2586189720317
 20
21.88285597130706
 10
172.448982839224
 20
22.32610903428124
 10
172.6846853391534
 20
22.74273485907405
 10
172.9616823885079
 20
23.1255851568639
 10
173.2759299039753
 20
23.46751163882923
 10
173.6233838022434
 20
23.76136601614845
 10
174.0
 20
24.0
 10
174.0
 20
24.0
 10
174.500772893644
 20
24.28534408917845
 10
174.9249947562157
 20
24.56411334807899
 10
175.2727233126775
 20
24.83591401810787
 10
175.5440162879921
 20
25.10035234067134
 10
175.7389314071218
 20
25.35703455717566
 10
175.8575263950291
 20
25.60556690902706
 10
175.8998589766766
 20
25.84555563763181
 10
175.8659868770267
 20
26.07660698439615
 10
175.7559678210419
 20
26.29832719072634
 10
175.5698595336847
 20
26.51032249802863
 10
175.3077197399176
 20
26.71219914770926
 10
174.969606164703
 20
26.9035633811745
 10
174.5555765330036
 20
27.08402143983058
 10
174.0656885697817
 20
27.25317956508377
 10
173.4999999999999
 20
27.4106439983403
 10
173.5
 20
27.4106439983403
 10
173.0146043033948
 20
27.55843376696099
 10
172.572517160561
 20
27.74549785356924
 10
172.1774225397566
 20
27.96823813909446
 10
171.8330044092397
 20
28.22305650446604
 10
171.5429467372682
 20
28.50635483061338
 10
171.3109334921005
 20
28.81453499846587
 10
171.1406486419945
 20
29.14399888895292
 10
171.0357761552083
 20
29.49114838300392
 10
171.0
 20
29.85238536154828
 10
171.0
 20
29.85238536154827
 10
170.9844416478652
 20
30.38714389264859
 10
170.9387616645669
 20
30.85909423542562
 10
170.864452659764
 20
31.26760943376924
 10
170.7630072431159
 20
31.6120625315693
 10
170.6359180242813
 20
31.89182657271568
 10
170.4846776129197
 20
32.10627460109823
 10
170.3107786186898
 20
32.25477966060682
 10
170.1157136512509
 20
32.33671479513131
 10
169.900975320262
 20
32.35145304856157
 10
169.6680562353822
 20
32.29836746478746
 10
169.4184490062706
 20
32.17683108769884
 10
169.1536462425863
 20
31.98621696118558
 10
168.8751405539883
 20
31.72589812913754
 10
168.5844245501357
 20
31.39524763544459
 10
168.2829908406876
 20
30.9936385239966
 10
168.2829908406876
 20
30.9936385239966
 10
167.9667740174223
 20
30.60141632359081
 10
167.5958840987802
 20
30.24614050258691
 10
167.1756953115917
 20
29.93026691361807
 10
166.7115818826874
 20
29.65625140931749
 10
166.2089180388978
 20
29.42654984231836
 10
165.6730780070534
 20
29.24361806525386
 10
165.1094360139847
 20
29.10991193075717
 10
164.5233662865223
 20
29.02788729146149
 10
163.9202430514966
 20
29.0
 10
163.9202430514967
 20
29.0
 10
163.380063797908
 20
28.99853290053508
 10
162.9136218535844
 20
28.99154757241428
 10
162.5185953360143
 20
28.97516797104856
 10
162.192662362686
 20
28.94551805184888
 10
161.9335010510878
 20
28.89872177022621
 10
161.738789518708
 20
28.83090308159148
 10
161.6062058830349
 20
28.73818594135566
 10
161.5334282615569
 20
28.61669430492971
 10
161.5181347717622
 20
28.46255212772459
 10
161.5580035311392
 20
28.27188336515126
 10
161.6507126571762
 20
28.04081197262066
 10
161.7939402673615
 20
27.76546190554376
 10
161.9853644791835
 20
27.44195711933151
 10
162.2226634101303
 20
27.06642156939488
 10
162.5035151776905
 20
26.63497921114482
 10
162.5035151776905
 20
26.63497921114481
 10
162.820381494713
 20
26.11978000605261
 10
163.0775123657903
 20
25.62869273917684
 10
163.2757415659376
 20
25.15466133395483
 10
163.4159028701701
 20
24.69062971382392
 10
163.4988300535031
 20
24.22954180222144
 10
163.5253568909516
 20
23.76434152258472
 10
163.4963171575309
 20
23.2879727983511
 10
163.4125446282562
 20
22.7933795529579
 10
163.2748730781427
 20
22.27350570984247
 10
163.0841362822056
 20
21.72129519244214
 10
163.0841362822056
 20
21.72129519244214
 10
162.9113025514824
 20
21.2616237325319
 10
162.7682775786199
 20
20.86303842696044
 10
162.6581029237936
 20
20.5228168501101
 10
162.5838201471788
 20
20.2382365763632
 10
162.5484708089513
 20
20.00657518010207
 10
162.5550964692863
 20
19.82511023570901
 10
162.6067386883594
 20
19.69111931756638
 10
162.7064390263462
 20
19.60188000005647
 10
162.857239043422
 20
19.55466985756163
 10
163.0621802997624
 20
19.54676646446417
 10
163.3243043555429
 20
19.57544739514641
 10
163.646652770939
 20
19.63799022399069
 10
164.0322671061261
 20
19.73167252537932
 10
164.4841889212798
 20
19.85377187369462
 10
165.0054597765755
 20
20.00156584331893
 10
165.0054597765755
 20
20.00156584331893
 10
165.6028254364086
 20
20.15793879550761
 10
166.1471665168912
 20
20.2680629431335
 10
166.642460735217
 20
20.33136454204777
 10
167.0926858085793
 20
20.34726984810159
 10
167.5018194541717
 20
20.31520511714617
 10
167.8738393891876
 20
20.23459660503267
 10
168.2127233308206
 20
20.10487056761228
 10
168.5224489962641
 20
19.92545326073618
 10
168.8069941027117
 20
19.69577094025556
 10
169.0703363673568
 20
19.4152498620216
 10
169.0703363673568
 20
19.4152498620216
 10
169.4151477291568
 20
19.02379250743299
 10
169.742951541271
 20
18.699811788642
 10
170.0527440364963
 20
18.44294810112022
 10
170.3435214476298
 20
18.25284184033923
 10
170.6142800074687
 20
18.1291334017706
 10
170.8640159488099
 20
18.07146318088592
 10
171.0917255044504
 20
18.07947157315676
 10
171.2964049071875
 20
18.15279897405471
 10
171.477050389818
 20
18.29108577905135
 10
171.6326581851391
 20
18.49397238361824
 10
171.7622245259479
 20
18.76109918322698
 10
171.8647456450413
 20
19.09210657334914
 10
171.9392177752164
 20
19.48663494945631
 10
171.9846371492703
 20
19.94432470702006
 10
172.0
 20
20.46481624151197
  0
LWPOLYLINE
  5
27C
330
1F
100
AcDbEntity
  8
Default Layer
 62
    18
420
        0
370
    30
100
AcDbPolyline
 90
      144
 70
     0
 43
0.0
 10
-53.0
 20
113.0953015874261
 10
-52.40646844760526
 20
113.5864751955723
 10
-51.82251258876327
 20
114.0303130963279
 10
-51.25117596244941
 20
114.4253957693237
 10
-50.6955021076391
 20
114.7703036941903
 10
-50.15853456330774
 20
115.0636173505584
 10
-49.64331686843074
 20
115.3039172180586
 10
-49.15289256198348
 20
115.4897837763215
 10
-48.69030518294137
 20
115.619797504978
 10
-48.25859827027983
 20
115.6925388836585
 10
-47.86081536297423
 20
115.7065883919938
 10
-47.5
 20
115.6605265096145
 10
-47.5
 20
115.6605265096145
 10
-47.1334674539216
 20
115.5782688565183
 10
-46.70127252021186
 20
115.4812604143896
 10
-46.21451925565898
 20
115.3719942824926
 10
-45.68431171705112
 20
115.2529635600912
 10
-45.12175396117648
 20
115.1266613464496
 10
-44.53795004482326
 20
114.9955807408317
 10
-43.94400402477961
 20
114.8622148425016
 10
-43.35101995783373
 20
114.7290567507234
 10
-42.77010190077382
 20
114.5985995647611
 10
-42.21235391038804
 20
114.4733363838787
 10
-42.21235391038803
 20
114.4733363838787
 10
-38.92470782077606
 20
113.7349415641552
 10
-38.92470782077606
 20
113.7349415641552
 10
-40.86375480171399
 20
118.6543431629722
 10
-40.86375480171399
 20
118.6543431629722
 10
-42.80280178265193
 20
123.5737447617892
 10
-42.80280178265193
 20
123.5737447617892
 10
-39.84160412006418
 20
127.5368723808946
 10
-39.84160412006418
 20
127.5368723808946
 10
-36.88040645747644
 20
131.5
 10
-36.88040645747644
 20
131.5
 10
-42.33664434752038
 20
131.7968139007142
 10
-42.33664434752038
 20
131.7968139007142
 10
-43.10853883051087
 20
131.8412500934716
 10
-43.80951149804844
 20
131.8885946735988
 10
-44.44549307556154
 20
131.9419822541108
 10
-45.0224142884786
 20
132.0045474480225
 10
-45.54620586222807
 20
132.079424868349
 10
-46.0227985222384
 20
132.1697491281053
 10
-46.45812299393799
 20
132.2786548403064
 10
-46.85811000275533
 20
132.4092766179673
 10
-47.22869027411883
 20
132.5647490741031
 10
-47.57579453345694
 20
132.7482068217287
 10
-47.90535350619811
 20
132.9627844738592
 10
-48.22329791777078
 20
133.2116166435095
 10
-48.53555849360337
 20
133.4978379436947
 10
-48.84806595912435
 20
133.8245829874298
 10
-49.16675103976213
 20
134.1949863877299
 10
-49.49754446094519
 20
134.6121827576098
 10
-49.84637694810195
 20
135.0793067100847
 10
-50.21917922666084
 20
135.5994928581696
 10
-50.62188202205032
 20
136.1758758148794
 10
-50.62188202205033
 20
136.1758758148795
 10
-53.45088180653633
 20
140.2581238283306
 10
-53.45088180653633
 20
140.2581238283306
 10
-54.68033698077682
 20
137.3790619141653
 10
-54.68033698077682
 20
137.3790619141653
 10
-54.87967152627356
 20
136.8914251292165
 10
-55.07017057252898
 20
136.3850032689324
 10
-55.24915754543995
 20
135.8693934276445
 10
-55.41395587090334
 20
135.3541926996844
 10
-55.561888974816
 20
134.8489981793836
 10
-55.6902802830748
 20
134.3634069610738
 10
-55.79645322157659
 20
133.9070161390865
 10
-55.87773121621826
 20
133.4894228077532
 10
-55.93143769289667
 20
133.1202240614054
 10
-55.95489607750866
 20
132.8090169943749
 10
-55.95489607750866
 20
132.8090169943749
 10
-55.97301809166464
 20
132.49506334702
 10
-56.01215906957563
 20
132.1998331258351
 10
-56.07541083982492
 20
131.9211570104872
 10
-56.16586523099585
 20
131.6568656806435
 10
-56.28661407167175
 20
131.4047898159711
 10
-56.44074919043592
 20
131.1627600961369
 10
-56.63136241587168
 20
130.9286072008081
 10
-56.86154557656237
 20
130.7001618096517
 10
-57.13439050109129
 20
130.4752546023349
 10
-57.45298901804177
 20
130.2517162585246
 10
-57.82043295599713
 20
130.0273774578881
 10
-58.23981414354069
 20
129.8000688800923
 10
-58.71422440925576
 20
129.5676212048043
 10
-59.24675558172568
 20
129.3278651116912
 10
-59.84049948953376
 20
129.07863128042
 10
-60.49854796126331
 20
128.8177503906579
 10
-61.22399282549767
 20
128.5430531220719
 10
-62.01992591082014
 20
128.2523701543292
 10
-62.88943904581405
 20
127.9435321670966
 10
-62.88943904581405
 20
127.9435321670966
 10
-67.32153173348324
 20
126.3870643341932
 10
-67.32153173348324
 20
126.3870643341932
 10
-62.66255395077159
 20
123.4435321670966
 10
-62.66255395077159
 20
123.4435321670966
 10
-62.00884949446129
 20
123.0292276204908
 10
-61.41932343836781
 20
122.6503900701142
 10
-60.89065949057738
 20
122.3011895418275
 10
-60.41954135917618
 20
121.9757960614918
 10
-60.0026527522504
 20
121.6683796549681
 10
-59.63667737788625
 20
121.3731103481173
 10
-59.31829894416994
 20
121.0841581668003
 10
-59.04420115918764
 20
120.7956931368782
 10
-58.81106773102557
 20
120.5018852842119
 10
-58.61558236776991
 20
120.1969046346623
 10
-58.45442877750687
 20
119.8749212140905
 10
-58.32429066832265
 20
119.5301050483574
 10
-58.22185174830344
 20
119.1566261633239
 10
-58.14379572553544
 20
118.7486545848509
 10
-58.08680630810485
 20
118.3003603387996
 10
-58.04756720409788
 20
117.8059134510308
 10
-58.02276212160069
 20
117.2594839474055
 10
-58.00907476869952
 20
116.6552418537846
 10
-58.00318885348056
 20
115.9873571960291
 10
-58.00178808402999
 20
115.25
 10
-58.00178808402997
 20
115.25
 10
-57.99651015742904
 20
114.640230096431
 10
-57.98148141992516
 20
114.0510782221122
 10
-57.95727721954183
 20
113.4865311316253
 10
-57.92447290430254
 20
112.9505755795523
 10
-57.88364382223077
 20
112.4471983204752
 10
-57.83536532135003
 20
111.9803861089758
 10
-57.78021274968381
 20
111.5541256996362
 10
-57.71876145525559
 20
111.1724038470382
 10
-57.65158678608887
 20
110.8392073057638
 10
-57.57926409020714
 20
110.5585228303948
 10
-57.50236871563389
 20
110.3343371755133
 10
-57.42147601039262
 20
110.1706370957012
 10
-57.33716132250682
 20
110.0714093455403
 10
-57.24999999999998
 20
110.0406406796127
 10
-57.25
 20
110.0406406796127
 10
-57.12885753299954
 20
110.0693166370759
 10
-56.95852298588985
 20
110.1430814997746
 10
-56.7430587164315
 20
110.2590154734866
 10
-56.48652708238508
 20
110.4141987639895
 10
-56.19299044151116
 20
110.605711577061
 10
-55.86651115157033
 20
110.8306341184788
 10
-55.51115157032317
 20
111.0860465940206
 10
-55.13097405553027
 20
111.3690292094641
 10
-54.73004096495221
 20
111.6766621705869
 10
-54.31241465634957
 20
112.0060256831669
 10
-53.88215748748293
 20
112.3541999529816
 10
-53.44333181611288
 20
112.7182651858088
 10
-53.0
 20
113.0953015874261
210
0.0
220
0.0
230
-1.0
  0
LWPOLYLINE
  5
27D
330
1F
100
AcDbEntity
  8
Default Layer
 62
    18
420
        0
370
    30
100
AcDbPolyline
 90
      115
 70
     0
 43
0.0
 10
59.36329022144763
 20
123.9192578543356
 10
62.22658044289526
 20
125.7886114975031
 10
62.22658044289526
 20
125.7886114975031
 10
58.5430313445838
 20
127.1206001330708
 10
58.5430313445838
 20
127.1206001330708
 10
57.88792189718455
 20
127.3714140838433
 10
57.29978215784232
 20
127.6273415553584
 10
56.7749705834981
 20
127.8919245654149
 10
56.30984563109286
 20
128.168705131812
 10
55.90076575756764
 20
128.4612252723486
 10
55.54408941986341
 20
128.7730270048236
 10
55.23617507492117
 20
129.1076523470362
 10
54.97338117968192
 20
129.4686433167853
 10
54.75206619108665
 20
129.8595419318698
 10
54.56858856607637
 20
130.2838902100889
 10
54.41930676159207
 20
130.7452301692414
 10
54.30057923457474
 20
131.2471038271264
 10
54.30057923457473
 20
131.2471038271263
 10
54.16051194077789
 20
131.8913720546221
 10
54.01203170704501
 20
132.4641492709667
 10
53.85468083168958
 20
132.9655951428113
 10
53.68800161302505
 20
133.3958693368071
 10
53.5115363493649
 20
133.7551315196052
 10
53.32482733902261
 20
134.0435413578566
 10
53.12741688031165
 20
134.2612585182125
 10
52.91884727154549
 20
134.4084426673241
 10
52.6986608110376
 20
134.4852534718424
 10
52.46639979710146
 20
134.4918505984185
 10
52.22160652805055
 20
134.4283937137036
 10
51.96382330219832
 20
134.2950424843489
 10
51.69259241785826
 20
134.0919565770053
 10
51.40745617334383
 20
133.8192956583242
 10
51.10795686696852
 20
133.4772193949564
 10
50.79363679704579
 20
133.0658874535533
 10
50.46403826188912
 20
132.5854595007659
 10
50.46403826188913
 20
132.585459500766
 10
50.12877970226089
 20
132.1123264884124
 10
49.77478301710617
 20
131.6915274318047
 10
49.39644505063299
 20
131.3203000889865
 10
48.98816264704932
 20
130.9958822180011
 10
48.54433265056321
 20
130.7155115768921
 10
48.05935190538264
 20
130.4764259237029
 10
47.52761725571563
 20
130.275863016477
 10
46.94352554577019
 20
130.1110606132578
 10
46.30147361975432
 20
129.9792564720888
 10
45.59585832187604
 20
129.8776883510136
 10
44.82107649634335
 20
129.8035940080754
 10
44.82107649634334
 20
129.8035940080754
 10
40.80194057405023
 20
129.5
 10
40.80194057405023
 20
129.5
 10
43.00547798929648
 20
126.7094106933825
 10
43.00547798929648
 20
126.7094106933825
 10
43.39577766636742
 20
126.2060647659765
 10
43.73108427276442
 20
125.7498620590818
 10
44.01278407686993
 20
125.3324914332054
 10
44.24226334706641
 20
124.9456417488546
 10
44.42090835173632
 20
124.5810018665364
 10
44.55010535926212
 20
124.2302606467578
 10
44.63124063802627
 20
123.8851069500261
 10
44.66570045641122
 20
123.5372296368483
 10
44.65487108279944
 20
123.1783175677315
 10
44.60013878557338
 20
122.8000596031829
 10
44.5028898331155
 20
122.3941446037094
 10
44.36451049380827
 20
121.9522614298184
 10
44.18638703603414
 20
121.4660989420167
 10
43.96990572817556
 20
120.9273460008116
 10
43.96990572817555
 20
120.9273460008116
 10
43.72071171586067
 20
120.3105070545602
 10
43.51295938461816
 20
119.758920823442
 10
43.34847173824869
 20
119.270488044094
 10
43.22907178055295
 20
118.8431094531531
 10
43.15658251533161
 20
118.4746857872562
 10
43.13282694638535
 20
118.1631177830404
 10
43.15962807751484
 20
117.9063061771426
 10
43.23880891252075
 20
117.7021517061997
 10
43.37219245520377
 20
117.5485551068487
 10
43.56160170936457
 20
117.4434171157266
 10
43.80885967880383
 20
117.3846384694702
 10
44.11578936732222
 20
117.3701199047167
 10
44.4842137787204
 20
117.3977621581028
 10
44.91595591679907
 20
117.4654659662655
 10
45.41283878535891
 20
117.5711320658419
 10
45.97668538820057
 20
117.7126611934689
 10
46.60931872912475
 20
117.8879540857834
 10
46.60931872912475
 20
117.8879540857834
 10
47.14666558949579
 20
118.0308341500295
 10
47.64413770468876
 20
118.1372194017883
 10
48.10893258944969
 20
118.2052726948137
 10
48.54824775852462
 20
118.2331568828598
 10
48.96928072665958
 20
118.2190348196805
 10
49.3792290086006
 20
118.1610693590297
 10
49.78529011909372
 20
118.0574233546613
 10
50.19466157288495
 20
117.9062596603294
 10
50.61454088472034
 20
117.7057411297879
 10
51.05212556934592
 20
117.4540306167907
 10
51.51461314150771
 20
117.1492909750918
 10
52.00920111595175
 20
116.7896850584451
 10
52.54308700742408
 20
116.3733757206046
 10
52.54308700742408
 20
116.3733757206046
 10
55.5
 20
114.0050464929078
 10
55.5
 20
114.0050464929078
 10
56.0
 20
118.0274753520379
 10
56.0
 20
118.0274753520379
 10
56.10395642947192
 20
118.7506134666513
 10
56.23020362483483
 20
119.4144315966497
 10
56.38167168844772
 20
120.0240626698128
 10
56.56129072266959
 20
120.5846396139203
 10
56.77199082985944
 20
121.1012953567518
 10
57.01670211237626
 20
121.579162826087
 10
57.29835467257906
 20
122.0233749497055
 10
57.61987861282683
 20
122.439064655387
 10
57.98420403547858
 20
122.8313648709111
 10
58.3942610428933
 20
123.2054085240575
 10
58.85297973742998
 20
123.5663285426058
 10
59.36329022144763
 20
123.9192578543356
  0
LWPOLYLINE
  5
27E
330
1F
100
AcDbEntity
  8
Default Layer
 62
    18
420
        0
370
    30
100
AcDbPolyline
 90
      162
 70
     0
 43
0.0
 10
-228.6663298855198
 20
160.2449235273506
 10
-224.8326597710396
 20
163.3282345798266
 10
-224.8326597710396
 20
163.3282345798266
 10
-219.8345902745951
 20
161.7299156328247
 10
-219.8345902745951
 20
161.7299156328247
 10
-219.1293212080472
 20
161.5073604582614
 10
-218.4920139699388
 20
161.3129209935387
 10
-217.9202421834411
 20
161.1464522264308
 10
-217.4115794717252
 20
161.0078091447116
 10
-216.9635994579621
 20
160.8968467361553
 10
-216.5738757653232
 20
160.8134199885358
 10
-216.2399820169794
 20
160.7573838896272
 10
-215.9594918361019
 20
160.7285934272036
 10
-215.7299788458618
 20
160.726903589039
 10
-215.5490166694303
 20
160.7521693629075
 10
-215.4141789299785
 20
160.8042457365831
 10
-215.3230392506775
 20
160.8829876978399
 10
-215.2731712546984
 20
160.9882502344519
 10
-215.2621485652124
 20
161.1198883341932
 10
-215.2875448053906
 20
161.2777569848379
 10
-215.3469335984042
 20
161.4617111741599
 10
-215.3469335984042
 20
161.4617111741598
 10
-215.7117872156088
 20
162.4216958036963
 10
-216.0439196278002
 20
163.3174169555819
 10
-216.3434114379941
 20
164.1530205696572
 10
-216.6103432492062
 20
164.9326525857631
 10
-216.8447956644523
 20
165.6604589437404
 10
-217.046849286748
 20
166.3405855834298
 10
-217.216584719109
 20
166.977178444672
 10
-217.3540825645511
 20
167.5743834673079
 10
-217.4594234260901
 20
168.1363465911782
 10
-217.5326879067416
 20
168.6672137561237
 10
-217.5739566095213
 20
169.1711309019851
 10
-217.583310137445
 20
169.6522439686033
 10
-217.5608290935283
 20
170.1146988958189
 10
-217.506594080787
 20
170.5626416234728
 10
-217.4206857022368
 20
171.0002180914057
 10
-217.3031845608935
 20
171.4315742394583
 10
-217.1541712597726
 20
171.8608560074715
 10
-216.9737264018901
 20
172.2922093352861
 10
-216.7619305902615
 20
172.7297801627427
 10
-216.5188644279027
 20
173.1777144296822
 10
-216.2446085178292
 20
173.6401580759453
 10
-215.9392434630568
 20
174.1212570413728
 10
-215.6028498666013
 20
174.6251572658055
 10
-215.6028498666013
 20
174.6251572658055
 10
-212.9639320522548
 20
178.5
 10
-212.9639320522548
 20
178.5
 10
-218.3784071449096
 20
178.7968139007142
 10
-218.3784071449096
 20
178.7968139007142
 10
-219.1438737287188
 20
178.8412589620554
 10
-219.8391794981557
 20
178.8887052447696
 10
-220.4702221680404
 20
178.9422972778173
 10
-221.0428994531934
 20
179.0051795901589
 10
-221.5631090684351
 20
179.0804967107549
 10
-222.0367487285858
 20
179.1713931685657
 10
-222.4697161484658
 20
179.2810134925517
 10
-222.8679090428955
 20
179.4125022116735
 10
-223.2372251266954
 20
179.5690038548915
 10
-223.5835621146856
 20
179.7536629511661
 10
-223.9128177216866
 20
179.9696240294579
 10
-224.2308896625188
 20
180.2200316187272
 10
-224.5436756520025
 20
180.5080302479345
 10
-224.857073404958
 20
180.8367644460403
 10
-225.1769806362057
 20
181.209378742005
 10
-225.5092950605661
 20
181.6290176647891
 10
-225.8599143928593
 20
182.0988257433531
 10
-226.2347363479059
 20
182.6219475066574
 10
-226.6396586405261
 20
183.2015274836624
 10
-226.6396586405261
 20
183.2015274836624
 10
-229.4864350434878
 20
187.3094271658964
 10
-229.4864350434878
 20
187.3094271658964
 10
-231.1116292172392
 20
181.9174936716266
 10
-231.1116292172392
 20
181.9174936716266
 10
-231.3342566963246
 20
181.1857908530509
 10
-231.5426260188164
 20
180.5210919648719
 10
-231.7406962045825
 20
179.9190751021596
 10
-231.9324262734907
 20
179.3754183599843
 10
-232.1217752454089
 20
178.8857998334163
 10
-232.3127021402048
 20
178.4458976175255
 10
-232.5091659777463
 20
178.0513898073824
 10
-232.7151257779012
 20
177.6979544980569
 10
-232.9345405605375
 20
177.3812697846194
 10
-233.1713693455227
 20
177.09701376214
 10
-233.4295711527248
 20
176.8408645256888
 10
-233.7131050020117
 20
176.6085001703362
 10
-234.0259299132511
 20
176.3955987911523
 10
-234.3720049063109
 20
176.1978384832072
 10
-234.7552890010588
 20
176.0108973415711
 10
-235.1797412173628
 20
175.8304534613143
 10
-235.6493205750906
 20
175.652184937507
 10
-236.1679860941101
 20
175.4717698652192
 10
-236.7396967942891
 20
175.2848863395212
 10
-237.3684116954954
 20
175.0872124554831
 10
-237.3684116954953
 20
175.0872124554832
 10
-237.9473075300046
 20
174.902829136447
 10
-238.5053327572246
 20
174.716089703437
 10
-239.0380602786394
 20
174.5289313869645
 10
-239.5410629957332
 20
174.3432914175409
 10
-240.0099138099898
 20
174.1611070256776
 10
-240.4401856228935
 20
173.9843154418859
 10
-240.8274513359283
 20
173.8148538966772
 10
-241.1672838505784
 20
173.6546596205628
 10
-241.4552560683278
 20
173.5056698440542
 10
-241.6869408906605
 20
173.3698217976628
 10
-241.8579112190608
 20
173.2490527118997
 10
-241.9637399550126
 20
173.1452998172766
 10
-242.0
 20
173.0605003443046
 10
-242.0
 20
173.0605003443046
 10
-241.968684569868
 20
172.9676074905362
 10
-241.8772872098316
 20
172.8402332170769
 10
-241.7296313154301
 20
172.6813028997679
 10
-241.529540282203
 20
172.4937419144504
 10
-241.2808375056896
 20
172.2804756369654
 10
-240.9873463814292
 20
172.0444294431543
 10
-240.6528903049613
 20
171.7885287088581
 10
-240.2812926718252
 20
171.515698809918
 10
-239.8763768775603
 20
171.2288651221752
 10
-239.441966317706
 20
170.9309530214708
 10
-238.9818843878015
 20
170.624887883646
 10
-238.4999544833865
 20
170.313595084542
 10
-238.0
 20
170.0
 10
-238.0
 20
170.0
 10
-237.3943870012547
 20
169.6191588877948
 10
-236.8509390570368
 20
169.2617665237197
 10
-236.3663699462285
 20
168.9229899435644
 10
-235.9373934477121
 20
168.5979961831183
 10
-235.5607233403696
 20
168.2819522781711
 10
-235.2330734030834
 20
167.9700252645124
 10
-234.9511574147354
 20
167.6573821779318
 10
-234.711689154208
 20
167.3391900542188
 10
-234.5113824003834
 20
167.010615929163
 10
-234.3469509321435
 20
166.666826838554
 10
-234.2151085283708
 20
166.3029898181815
 10
-234.1125689679474
 20
165.9142719038349
 10
-234.0360460297553
 20
165.4958401313039
 10
-233.9822534926769
 20
165.0428615363781
 10
-233.9479051355943
 20
164.550503154847
 10
-233.9297147373896
 20
164.0139320225002
 10
-233.9297147373896
 20
164.0139320225002
 10
-233.9070666414861
 20
163.1439690243112
 10
-233.8743642305979
 20
162.3481153851423
 10
-233.8300214138287
 20
161.6252353358578
 10
-233.7724521002818
 20
160.9741931073225
 10
-233.700070199061
 20
160.3938529304007
 10
-233.6112896192696
 20
159.8830790359571
 10
-233.5045242700114
 20
159.4407356548561
 10
-233.3781880603897
 20
159.0656870179624
 10
-233.2306948995082
 20
158.7567973561404
 10
-233.0604586964705
 20
158.5129309002547
 10
-232.86589336038
 20
158.3329518811699
 10
-232.6454128003403
 20
158.2157245297505
 10
-232.3974309254551
 20
158.1601130768609
 10
-232.1203616448277
 20
158.1649817533658
 10
-231.8126188675618
 20
158.2291947901298
 10
-231.4726165027609
 20
158.3516164180172
 10
-231.0987684595286
 20
158.5311108678927
 10
-230.6894886469684
 20
158.7665423706209
 10
-230.2431909741839
 20
159.0567751570662
 10
-229.7582893502786
 20
159.4006734580933
 10
-229.2331976843561
 20
159.7971015045665
 10
-228.6663298855198
 20
160.2449235273506
210
0.0
220
0.0
230
-1.0
  0
LWPOLYLINE
  5
27F
330
1F
100
AcDbEntity
  8
Default Layer
 62
    18
420
        0
370
    30
100
AcDbPolyline
 90
      122
 70
     0
 43
0.0
 10
232.0
 20
164.9017986210518
 10
232.008202430782
 20
165.5701746009248
 10
232.0351929873717
 20
166.1734457464616
 10
232.0845465661347
 20
166.718337885078
 10
232.1598380634365
 20
167.2115768441898
 10
232.2646423756427
 20
167.659888451213
 10
232.4025343991188
 20
168.0699985335633
 10
232.5770890302304
 20
168.4486329186567
 10
232.791881165343
 20
168.8025174339089
 10
233.0504857008222
 20
169.138377906736
 10
233.3564775330336
 20
169.4629401645536
 10
233.7134315583427
 20
169.7829300347778
 10
234.1249226731151
 20
170.1050733448242
 10
234.5945257737163
 20
170.4360959221089
 10
235.1258157565118
 20
170.7827235940476
 10
235.1258157565118
 20
170.7827235940476
 10
238.2516315130235
 20
172.7618499459914
 10
238.2516315130235
 20
172.7618499459914
 10
234.6841242884774
 20
173.9392335049614
 10
234.6841242884774
 20
173.9392335049614
 10
234.0232322281609
 20
174.1727902421924
 10
233.4291311473251
 20
174.4177506061571
 10
232.8961652783472
 20
174.6798230608708
 10
232.4186788536043
 20
174.9647160703489
 10
231.9910161054734
 20
175.2781380986066
 10
231.6075212663317
 20
175.6257976096593
 10
231.2625385685563
 20
176.0134030675223
 10
230.9504122445241
 20
176.4466629362108
 10
230.6654865266125
 20
176.9312856797402
 10
230.4021056471984
 20
177.4729797621259
 10
230.1546138386588
 20
178.077453647383
 10
229.917355333371
 20
178.7504157995269
 10
229.917355333371
 20
178.7504157995268
 10
228.7180936028105
 20
182.3842145351222
 10
228.7180936028105
 20
182.3842145351222
 10
226.5714822504601
 20
179.6921072675611
 10
226.5714822504601
 20
179.6921072675611
 10
226.129728112915
 20
179.1664709116952
 10
225.6926791386992
 20
178.7075284251078
 10
225.2527078413187
 20
178.3117751401422
 10
224.8021867342794
 20
177.9757063891417
 10
224.3334883310871
 20
177.6958175044497
 10
223.8389851452479
 20
177.4686038184094
 10
223.3110496902677
 20
177.2905606633641
 10
222.7420544796523
 20
177.1581833716573
 10
222.1243720269078
 20
177.0679672756321
 10
221.4503748455399
 20
177.0164077076319
 10
220.7124354490548
 20
177.0
 10
220.7124354490548
 20
177.0
 10
220.0373193429551
 20
176.9968319355593
 10
219.4375530579622
 20
176.9853923500418
 10
218.9117678394792
 20
176.9627781551546
 10
218.4585949329094
 20
176.9260862626047
 10
218.0766655836558
 20
176.8724135840992
 10
217.7646110371217
 20
176.7988570313452
 10
217.5210625387103
 20
176.7025135160496
 10
217.3446513338247
 20
176.5804799499195
 10
217.234008667868
 20
176.429853244662
 10
217.1877657862435
 20
176.247730311984
 10
217.2045539343543
 20
176.0312080635927
 10
217.2830043576037
 20
175.7773834111951
 10
217.4217483013947
 20
175.4833532664982
 10
217.6194170111306
 20
175.1462145412091
 10
217.8746417322145
 20
174.7630641470348
 10
218.1860537100495
 20
174.3309989956824
 10
218.552284190039
 20
173.8471159988589
 10
218.9719644175859
 20
173.3085120682713
 10
218.971964417586
 20
173.3085120682714
 10
219.2910566093237
 20
172.8968369195037
 10
219.5692700986331
 20
172.5211889170569
 10
219.8071889818941
 20
172.1749584363541
 10
220.0053973554864
 20
171.8515358528186
 10
220.1644793157898
 20
171.5443115418734
 10
220.2850189591841
 20
171.2466758789416
 10
220.3676003820492
 20
170.9520192394465
 10
220.4128076807647
 20
170.6537319988111
 10
220.4212249517106
 20
170.3452045324587
 10
220.3934362912665
 20
170.0198272158123
 10
220.3300257958123
 20
169.6709904242952
 10
220.2315775617277
 20
169.2920845333303
 10
220.0986756853926
 20
168.876499918341
 10
219.9319042631869
 20
168.4176269547504
 10
219.7318473914901
 20
167.9088560179815
 10
219.4990891666822
 20
167.3435774834576
 10
219.4990891666822
 20
167.3435774834577
 10
218.0542494981924
 20
163.8855894155369
 10
218.0542494981924
 20
163.8855894155369
 10
222.300180389202
 20
164.5223060743271
 10
222.300180389202
 20
164.5223060743271
 10
223.0184617005564
 20
164.62345257214
 10
223.6673121880612
 20
164.6993672695646
 10
224.2532981413437
 20
164.7485041450573
 10
224.7829858500313
 20
164.7693171770748
 10
225.2629416037514
 20
164.7602603440737
 10
225.6997316921315
 20
164.7197876245105
 10
226.0999224047989
 20
164.6463529968418
 10
226.470080031381
 20
164.5384104395241
 10
226.8167708615052
 20
164.3944139310141
 10
227.1465611847991
 20
164.2128174497683
 10
227.4660172908898
 20
163.9920749742433
 10
227.7817054694049
 20
163.7306404828956
 10
228.1001920099718
 20
163.4269679541819
 10
228.4280432022178
 20
163.0795113665586
 10
228.4280432022178
 20
163.0795113665586
 10
228.8652383932703
 20
162.6093451127289
 10
229.2686607534488
 20
162.2035030173293
 10
229.6393760750115
 20
161.8625288102418
 10
229.9784501502163
 20
161.5869662213483
 10
230.2869487713213
 20
161.3773589805305
 10
230.5659377305845
 20
161.2342508176704
 10
230.8164828202639
 20
161.15818546265
 10
231.0396498326175
 20
161.1497066453509
 10
231.2365045599034
 20
161.2093580956551
 10
231.4081127943795
 20
161.3376835434446
 10
231.555540328304
 20
161.5352267186011
 10
231.6798529539347
 20
161.8025313510065
 10
231.7821164635297
 20
162.1401411705428
 10
231.8633966493471
 20
162.5485999070917
 10
231.9247593036447
 20
163.0284512905352
 10
231.9672702186808
 20
163.5802390507552
 10
231.9919951867132
 20
164.2045069176334
 10
232.0
 20
164.9017986210519
  0
LWPOLYLINE
  5
280
330
1F
100
AcDbEntity
  8
Default Layer
 62
    18
420
        0
370
    30
100
AcDbPolyline
 90
      199
 70
     0
 43
0.0
 10
-123.6524913847379
 20
164.9483433014634
 10
-117.8049827694758
 20
169.784993645941
 10
-117.8049827694758
 20
169.784993645941
 10
-110.1921486696627
 20
167.436172871379
 10
-110.1921486696627
 20
167.436172871379
 10
-109.4607210441386
 20
167.2117844765935
 10
-108.7464536482822
 20
166.9951754725262
 10
-108.0526915388097
 20
166.7872587864288
 10
-107.3827797724375
 20
166.5889473455534
 10
-106.7400634058819
 20
166.401154077152
 10
-106.1278874958592
 20
166.2247919084765
 10
-105.5495970990856
 20
166.0607737667789
 10
-105.0085372722776
 20
165.9100125793112
 10
-104.5080530721514
 20
165.7734212733253
 10
-104.0514895554233
 20
165.6519127760733
 10
-103.6421917788097
 20
165.546400014807
 10
-103.2835047990268
 20
165.4577959167786
 10
-102.978773672791
 20
165.3870134092398
 10
-102.7313434568186
 20
165.3349654194428
 10
-102.5445592078259
 20
165.3025648746396
 10
-102.4217659825291
 20
165.2907247020819
 10
-102.3663088376447
 20
165.300357829022
 10
-102.3663088376447
 20
165.3003578290219
 10
-102.3593391028631
 20
165.3552651959912
 10
-102.3790044630013
 20
165.4764431445811
 10
-102.4241445074652
 20
165.6605977036341
 10
-102.4935988256606
 20
165.9044349019922
 10
-102.5862070069935
 20
166.2046607684978
 10
-102.7008086408696
 20
166.5579813319928
 10
-102.8362433166948
 20
166.9611026213196
 10
-102.991350623875
 20
167.4107306653203
 10
-103.1649701518161
 20
167.9035714928371
 10
-103.3559414899239
 20
168.4363311327122
 10
-103.5631042276043
 20
169.0057156137877
 10
-103.7852979542633
 20
169.608430964906
 10
-104.0213622593065
 20
170.241183214909
 10
-104.2701367321399
 20
170.9006783926391
 10
-104.5304609621695
 20
171.5836225269384
 10
-104.8011745388009
 20
172.2867216466491
 10
-105.0811170514402
 20
173.0066817806134
 10
-105.0811170514402
 20
173.0066817806135
 10
-108.0089309974407
 20
180.5
 10
-108.0089309974407
 20
180.5
 10
-104.1835882924608
 20
186.0
 10
-104.1835882924608
 20
186.0
 10
-103.7637042986931
 20
186.604856878972
 10
-103.3475376789753
 20
187.206600063766
 10
-102.937953383042
 20
187.800988376199
 10
-102.5378163606278
 20
188.3837806380881
 10
-102.1499915614672
 20
188.9507356712502
 10
-101.777343935295
 20
189.4976122975025
 10
-101.4227384318457
 20
190.0201693386619
 10
-101.0890400008538
 20
190.5141656165455
 10
-100.779113592054
 20
190.9753599529702
 10
-100.495824155181
 20
191.3995111697532
 10
-100.2420366399692
 20
191.7823780887113
 10
-100.0206159961533
 20
192.1197195316618
 10
-99.83442717346786
 20
192.4072943204215
 10
-99.68633512164752
 20
192.6408612768076
 10
-99.57920479042686
 20
192.816179222637
 10
-99.57920479042684
 20
192.816179222637
 10
-99.50215305549413
 20
192.9677160477749
 10
-99.45917401069086
 20
193.1071226104426
 10
-99.45248682593586
 20
193.2347255193407
 10
-99.48431067114789
 20
193.3508513831695
 10
-99.55686471624574
 20
193.4558268106296
 10
-99.67236813114823
 20
193.5499784104216
 10
-99.83304008577411
 20
193.6336327912458
 10
-100.0410997500421
 20
193.7071165618029
 10
-100.2987662938712
 20
193.7707563307932
 10
-100.60825888718
 20
193.8248787069174
 10
-100.9717966998873
 20
193.8698102988758
 10
-101.391598901912
 20
193.9058777153691
 10
-101.8698846631728
 20
193.9334075650976
 10
-102.4088731535885
 20
193.952726456762
 10
-103.010783543078
 20
193.9641609990626
 10
-103.6778350015599
 20
193.9680378007
 10
-104.4122466989531
 20
193.9646834703747
 10
-105.2162378051763
 20
193.9544246167872
 10
-106.0920274901484
 20
193.937587848638
 10
-107.0418349237881
 20
193.9144997746276
 10
-107.0418349237881
 20
193.9144997746276
 10
-115.2835058542036
 20
193.6966411039812
 10
-115.2835058542036
 20
193.6966411039812
 10
-119.6907692370968
 20
199.5983205519906
 10
-119.6907692370968
 20
199.5983205519906
 10
-120.1434620972364
 20
200.2008407468355
 10
-120.5907901334528
 20
200.7890751575417
 10
-121.0301246385244
 20
201.3598666025951
 10
-121.4588369052294
 20
201.9100579004811
 10
-121.8742982263465
 20
202.4364918696854
 10
-122.2738798946541
 20
202.9360113286936
 10
-122.6549532029306
 20
203.4054590959913
 10
-123.0148894439545
 20
203.8416779900641
 10
-123.3510599105041
 20
204.2415108293976
 10
-123.6608358953581
 20
204.6018004324774
 10
-123.9415886912948
 20
204.9193896177891
 10
-124.1906895910926
 20
205.1911212038184
 10
-124.40550988753
 20
205.4138380090509
 10
-124.5834208733855
 20
205.5843828519721
 10
-124.7217938414375
 20
205.6995985510676
 10
-124.8180000844645
 20
205.7563279248232
 10
-124.8180000844645
 20
205.7563279248232
 10
-124.8962607774605
 20
205.7456953585065
 10
-124.9905106231743
 20
205.6661490533873
 10
-125.0995888569385
 20
205.5208527606751
 10
-125.2223347140855
 20
205.3129702315793
 10
-125.357587429948
 20
205.0456652173096
 10
-125.5041862398586
 20
204.7221014690754
 10
-125.6609703791498
 20
204.3454427380863
 10
-125.8267790831541
 20
203.9188527755516
 10
-126.0004515872043
 20
203.4454953326811
 10
-126.1808271266328
 20
202.9285341606841
 10
-126.3667449367722
 20
202.3711330107701
 10
-126.5570442529551
 20
201.7764556341488
 10
-126.7505643105141
 20
201.1476657820296
 10
-126.9461443447817
 20
200.4879272056219
 10
-127.1426235910906
 20
199.8004036561353
 10
-127.3388412847732
 20
199.0882588847794
 10
-127.5336366611622
 20
198.3546566427637
 10
-127.5336366611622
 20
198.3546566427637
 10
-129.5293057733853
 20
190.6966574358809
 10
-129.5293057733853
 20
190.6966574358809
 10
-136.7646528866926
 20
188.1089953427083
 10
-136.7646528866926
 20
188.1089953427083
 10
-137.4588809813829
 20
187.8577516184379
 10
-138.1349949361395
 20
187.6072519857752
 10
-138.7899020929251
 20
187.358877439578
 10
-139.4205097937023
 20
187.1140089747042
 10
-140.0237253804336
 20
186.8740275860114
 10
-140.5964561950815
 20
186.6403142683575
 10
-141.1356095796086
 20
186.4142500166004
 10
-141.6380928759775
 20
186.1972158255977
 10
-142.1008134261508
 20
185.9905926902073
 10
-142.520678572091
 20
185.795761605287
 10
-142.8945956557606
 20
185.6141035656946
 10
-143.2194720191222
 20
185.4469995662879
 10
-143.4922150041384
 20
185.2958306019246
 10
-143.7097319527717
 20
185.1619776674626
 10
-143.8689302069847
 20
185.0468217577597
 10
-143.96671710874
 20
184.9517438676737
 10
-144.0
 20
184.8781249920623
 10
-144.0
 20
184.8781249920623
 10
-143.9700997353958
 20
184.7969286780435
 10
-143.8822511703643
 20
184.6795878715743
 10
-143.7392326480765
 20
184.5281876657719
 10
-143.5438225117036
 20
184.344813153753
 10
-143.2987991044168
 20
184.1315494286345
 10
-143.0069407693873
 20
183.8904815835334
 10
-142.6710258497863
 20
183.6236947115666
 10
-142.2938326887848
 20
183.3332739058509
 10
-141.8781396295542
 20
183.0213042595032
 10
-141.4267250152656
 20
182.6898708656406
 10
-140.9423671890901
 20
182.3410588173797
 10
-140.427844494199
 20
181.9769532078376
 10
-139.8859352737635
 20
181.5996391301312
 10
-139.3194178709546
 20
181.2112016773773
 10
-138.7310706289436
 20
180.8137259426929
 10
-138.1236718909017
 20
180.4092970191948
 10
-137.5
 20
180.0
 10
-137.5
 20
180.0
 10
-131.0
 20
175.765083265411
 10
-131.0
 20
175.765083265411
 10
-131.0
 20
167.8825416327055
 10
-131.0
 20
167.8825416327055
 10
-130.9965499694687
 20
167.1264724295214
 10
-130.9864135965805
 20
166.3906355360952
 10
-130.9699114593934
 20
165.6783763747397
 10
-130.9473641359658
 20
164.9930403677682
 10
-130.9190922043558
 20
164.3379729374936
 10
-130.8854162426216
 20
163.7165195062288
 10
-130.8466568288214
 20
163.132025496287
 10
-130.8031345410136
 20
162.5878363299812
 10
-130.7551699572562
 20
162.0872974296242
 10
-130.7030836556075
 20
161.6337542175293
 10
-130.6471962141257
 20
161.2305521160093
 10
-130.587828210869
 20
160.8810365473773
 10
-130.5253002238957
 20
160.5885529339464
 10
-130.4599328312639
 20
160.3564466980294
 10
-130.3920466110319
 20
160.1880632619395
 10
-130.3219621412578
 20
160.0867480479897
 10
-130.2499999999999
 20
160.0558464784929
 10
-130.25
 20
160.0558464784929
 10
-130.1432624369936
 20
160.0866279147652
 10
-129.9799922558018
 20
160.1657816472679
 10
-129.7635719681658
 20
160.2907993158134
 10
-129.497384085827
 20
160.4591725602142
 10
-129.1848111205264
 20
160.6683930202826
 10
-128.8292355840054
 20
160.9159523358313
 10
-128.4340399880051
 20
161.1993421466725
 10
-128.0026068442667
 20
161.5160540926188
 10
-127.5383186645316
 20
161.8635798134826
 10
-127.0445579605409
 20
162.2394109490762
 10
-126.5247072440358
 20
162.6410391392123
 10
-125.9821490267576
 20
163.0659560237031
 10
-125.4202658204475
 20
163.5116532423612
 10
-124.8424401368467
 20
163.975622434999
 10
-124.2520544876964
 20
164.4553552414289
 10
-123.6524913847379
 20
164.9483433014634
210
0.0
220
0.0
230
-1.0
  0
LWPOLYLINE
  5
281
330
1F
100
AcDbEntity
  8
Default Layer
 62
    18
420
        0
370
    30
100
AcDbPolyline
 90
      159
 70
     0
 43
0.0
 10
128.881685211574
 20
174.1457544203241
 10
128.9027461383807
 20
174.6377369936301
 10
128.9347416632747
 20
175.0926349501262
 10
128.9807259895922
 20
175.5144930695187
 10
129.0437533206695
 20
175.9073561315139
 10
129.1268778598428
 20
176.2752689158181
 10
129.2331538104483
 20
176.6222762021379
 10
129.3656353758223
 20
176.9524227701794
 10
129.5273767593011
 20
177.269753399649
 10
129.7214321642209
 20
177.5783128702532
 10
129.9508557939179
 20
177.8821459616981
 10
130.2187018517285
 20
178.1852974536902
 10
130.5280245409888
 20
178.4918121259359
 10
130.8818780650352
 20
178.8057347581413
 10
131.2833166272038
 20
179.1311101300131
 10
131.735394430831
 20
179.4719830212573
 10
132.241165679253
 20
179.8323982115805
 10
132.8036845758059
 20
180.2164004806889
 10
133.4260053238262
 20
180.6280346082889
 10
134.11118212665
 20
181.0713453740868
 10
134.1111821266499
 20
181.0713453740868
 10
139.2223642532999
 20
184.3511819075254
 10
139.2223642532999
 20
184.3511819075254
 10
133.3940880599213
 20
186.4255909537627
 10
133.3940880599213
 20
186.4255909537627
 10
132.6212542859597
 20
186.7020048620079
 10
131.9182787954222
 20
186.9580818354398
 10
131.2807757926203
 20
187.1981364122715
 10
130.7043594818658
 20
187.4264831307162
 10
130.1846440674702
 20
187.6474365289872
 10
129.7172437537453
 20
187.8653111452976
 10
129.2977727450027
 20
188.0844215178607
 10
128.921845245554
 20
188.3090821848896
 10
128.5850754597109
 20
188.5436076845975
 10
128.283077591785
 20
188.7923125551978
 10
128.0114658460881
 20
189.0595113349035
 10
127.7658544269317
 20
189.3495185619278
 10
127.5418575386276
 20
189.666648774484
 10
127.3350893854872
 20
190.0152165107853
 10
127.1411641718224
 20
190.399536309045
 10
126.9556961019448
 20
190.823922707476
 10
126.774299380166
 20
191.2926902442919
 10
126.5925882107977
 20
191.8101534577055
 10
126.4061767981515
 20
192.3806268859303
 10
126.210679346539
 20
193.0084250671794
 10
126.001710060272
 20
193.697862539666
 10
126.001710060272
 20
193.697862539666
 10
125.8162416903845
 20
194.305570198855
 10
125.6295965874458
 20
194.9005498944112
 10
125.4433930514675
 20
195.4784023869863
 10
125.2592493824613
 20
196.0347284372318
 10
125.0787838804388
 20
196.5651288057994
 10
124.9036148454117
 20
197.0652042533406
 10
124.7353605773914
 20
197.5305555405071
 10
124.5756393763897
 20
197.9567834279504
 10
124.4260695424182
 20
198.3394886763221
 10
124.2882693754885
 20
198.6742720462739
 10
124.1638571756122
 20
198.9567342984573
 10
124.054451242801
 20
199.1824761935239
 10
123.9616698770664
 20
199.3470984921253
 10
123.8871313784201
 20
199.4462019549131
 10
123.8871313784202
 20
199.4462019549132
 10
123.8013279384317
 20
199.4797571136691
 10
123.675601932923
 20
199.4526815419884
 10
123.5128469382839
 20
199.3679965632434
 10
123.3159565309044
 20
199.2287235008062
 10
123.0878242871746
 20
199.037883678049
 10
122.8313437834843
 20
198.7984984183441
 10
122.5494085962236
 20
198.5135890450635
 10
122.2449123017824
 20
198.1861768815796
 10
121.9207484765507
 20
197.8192832512644
 10
121.5798106969185
 20
197.4159294774902
 10
121.2249925392758
 20
196.9791368836292
 10
120.8591875800126
 20
196.5119267930536
 10
120.4852893955187
 20
196.0173205291355
 10
120.1061915621842
 20
195.4983394152472
 10
120.1061915621842
 20
195.4983394152471
 10
116.8757286215295
 20
191.0
 10
116.8757286215295
 20
191.0
 10
110.3526956353053
 20
191.0
 10
110.3526956353053
 20
191.0
 10
103.8296626490812
 20
191.0
 10
103.8296626490812
 20
191.0
 10
107.4350920823049
 20
186.0884222776945
 10
107.4350920823049
 20
186.0884222776945
 10
111.0405215155286
 20
181.176844555389
 10
111.0405215155286
 20
181.176844555389
 10
109.0202607577643
 20
176.0514019542171
 10
109.0202607577643
 20
176.0514019542171
 10
108.7855085192027
 20
175.4500523792843
 10
108.5584868702753
 20
174.8571948216785
 10
108.3407419289091
 20
174.2774059696311
 10
108.133819813031
 20
173.7152625113741
 10
107.9392666405677
 20
173.1753411351388
 10
107.7586285294462
 20
172.662218529157
 10
107.5934515975933
 20
172.1804713816603
 10
107.4452819629358
 20
171.7346763808803
 10
107.3156657434007
 20
171.3294102150487
 10
107.2061490569147
 20
170.969249572397
 10
107.1182780214048
 20
170.6587711411569
 10
107.0535987547978
 20
170.4025516095601
 10
107.0136573750206
 20
170.2051676658381
 10
107.0
 20
170.0711959982226
 10
107.0
 20
170.0711959982226
 10
107.0338968967364
 20
169.988888237582
 10
107.1332028806425
 20
169.9296296212939
 10
107.2943408922639
 20
169.8928452407174
 10
107.5137338721458
 20
169.8779601872116
 10
107.7878047608336
 20
169.8843995521354
 10
108.1129764988729
 20
169.9115884268481
 10
108.4856720268089
 20
169.9589519027085
 10
108.9023142851871
 20
170.025915071076
 10
109.3593262145528
 20
170.1119030233094
 10
109.8531307554516
 20
170.2163408507678
 10
110.3801508484288
 20
170.3386536448105
 10
110.9368094340297
 20
170.4782664967963
 10
111.5195294527999
 20
170.6346044980844
 10
112.1247338452846
 20
170.8070927400338
 10
112.7488455520294
 20
170.9951563140037
 10
112.7488455520294
 20
170.9951563140037
 10
118.4976911040588
 20
172.7738799846074
 10
118.4976911040588
 20
172.7738799846074
 10
122.2349691387899
 20
169.8139009977545
 10
122.2349691387899
 20
169.8139009977545
 10
122.7079006515757
 20
169.4347230464193
 10
123.1751467638045
 20
169.0512046666771
 10
123.6324253187394
 20
168.6673001480063
 10
124.0754541596432
 20
168.2869637798852
 10
124.4999511297786
 20
167.914149851792
 10
124.9016340724087
 20
167.5528126532052
 10
125.2762208307961
 20
167.2069064736029
 10
125.6194292482039
 20
166.8803856024635
 10
125.9269771678947
 20
166.5772043292654
 10
126.1945824331316
 20
166.3013169434867
 10
126.4179628871773
 20
166.0566777346059
 10
126.5928363732947
 20
165.8472409921011
 10
126.7149207347466
 20
165.6769610054509
 10
126.7149207347466
 20
165.6769610054509
 10
126.8404673542901
 20
165.5192164418948
 10
126.9686980344396
 20
165.4368068428395
 10
127.0988358073299
 20
165.4266954313711
 10
127.2301037050957
 20
165.4858454305756
 10
127.3617247598717
 20
165.6112200635389
 10
127.4929220037924
 20
165.7997825533471
 10
127.6229184689928
 20
166.048496123086
 10
127.7509371876073
 20
166.3543239958419
 10
127.8762011917708
 20
166.7142293947005
 10
127.9979335136179
 20
167.1251755427479
 10
128.1153571852833
 20
167.5841256630701
 10
128.2276952389016
 20
168.0880429787531
 10
128.3341707066076
 20
168.6338907128829
 10
128.4340066205359
 20
169.2186320885455
 10
128.5264260128213
 20
169.8392303288268
 10
128.6106519155985
 20
170.4926486568128
 10
128.685907361002
 20
171.1758502955897
 10
128.7514153811666
 20
171.8857984682432
 10
128.806399008227
 20
172.6194563978594
 10
128.850081274318
 20
173.3737873075244
 10
128.881685211574
 20
174.1457544203241
  0
LWPOLYLINE
  5
282
330
1F
100
AcDbEntity
  8
Default Layer
 62
    18
420
        0
370
    30
100
AcDbPolyline
 90
      167
 70
     0
 43
0.0
 10
-22.69423629867366
 20
175.577774084552
 10
-22.13468137239175
 20
176.0501824007347
 10
-21.61223658561212
 20
176.4662773960862
 10
-21.12042073376824
 20
176.8272127173982
 10
-20.65275261229356
 20
177.1341420114623
 10
-20.20275101662154
 20
177.3882189250702
 10
-19.76393474218563
 20
177.5905971050135
 10
-19.32982258441931
 20
177.742430198084
 10
-18.89393333875604
 20
177.8448718510732
 10
-18.44978580062926
 20
177.8990757107729
 10
-17.99089876547245
 20
177.9061954239747
 10
-17.51079102871906
 20
177.8673846374704
 10
-17.00298138580255
 20
177.7837969980514
 10
-16.46098863215638
 20
177.6565861525096
 10
-15.87833156321401
 20
177.4869057476366
 10
-15.2485289744089
 20
177.275909430224
 10
-14.56509966117452
 20
177.0247508470636
 10
-14.56509966117452
 20
177.0247508470637
 10
-14.12650427136358
 20
176.860575080387
 10
-13.73419866832949
 20
176.7211441542823
 10
-13.3872017722267
 20
176.6090695954241
 10
-13.08453250320969
 20
176.5269629304868
 10
-12.82520978143293
 20
176.477435686145
 10
-12.6082525270509
 20
176.4630993890732
 10
-12.43267966021808
 20
176.486565565946
 10
-12.29751010108893
 20
176.5504457434379
 10
-12.20176276981792
 20
176.6573514482232
 10
-12.14445658655954
 20
176.8098942069767
 10
-12.12461047146826
 20
177.0106855463728
 10
-12.14124334469854
 20
177.2623369930861
 10
-12.19337412640486
 20
177.5674600737909
 10
-12.28002173674169
 20
177.928666315162
 10
-12.40020509586352
 20
178.3485672438737
 10
-12.55294312392481
 20
178.8297743866006
 10
-12.73725474108003
 20
179.3748992700172
 10
-12.95215886748366
 20
179.986553420798
 10
-13.19667442329017
 20
180.6673483656176
 10
-13.19667442329017
 20
180.6673483656176
 10
-13.39262819694889
 20
181.224879449786
 10
-13.55610976625829
 20
181.7308924150088
 10
-13.68595490012342
 20
182.1926992210318
 10
-13.78099936744933
 20
182.6176118276005
 10
-13.84007893714107
 20
183.0129421944606
 10
-13.86202937810369
 20
183.3860022813578
 10
-13.84568645924224
 20
183.7441040480376
 10
-13.78988594946177
 20
184.0945594542457
 10
-13.69346361766733
 20
184.4446804597278
 10
-13.55525523276398
 20
184.8017790242294
 10
-13.37409656365675
 20
185.1731671074963
 10
-13.14882337925071
 20
185.566156669274
 10
-12.87827144845089
 20
185.9880596693082
 10
-12.56127654016237
 20
186.4461880673445
 10
-12.19667442329017
 20
186.9478538231286
 10
-12.19667442329017
 20
186.9478538231286
 10
-11.75912393026063
 20
187.544064724065
 10
-11.37332511910863
 20
188.0814322253971
 10
-11.04023528756133
 20
188.5622166946976
 10
-10.76081173334594
 20
188.9886784995395
 10
-10.53601175418962
 20
189.3630780074956
 10
-10.36679264781957
 20
189.6876755861387
 10
-10.25411171196297
 20
189.9647316030418
 10
-10.198926244347
 20
190.1965064257776
 10
-10.20219354269884
 20
190.3852604219191
 10
-10.26487090474569
 20
190.533253959039
 10
-10.38791562821471
 20
190.6427474047103
 10
-10.57228501083311
 20
190.7160011265058
 10
-10.81893635032805
 20
190.7552754919983
 10
-11.12882694442672
 20
190.7628308687607
 10
-11.50291409085631
 20
190.7409276243659
 10
-11.942155087344
 20
190.6918261263867
 10
-12.44750723161697
 20
190.617786742396
 10
-13.01992782140241
 20
190.5210698399665
 10
-13.66037415442751
 20
190.4039357866713
 10
-13.66037415442751
 20
190.4039357866713
 10
-14.21941500113675
 20
190.3033759032502
 10
-14.72745118092331
 20
190.2233225686234
 10
-15.19016720360782
 20
190.1661659509136
 10
-15.61324757901093
 20
190.1342962182438
 10
-16.00237681695328
 20
190.1301035387364
 10
-16.36323942725554
 20
190.1559780805145
 10
-16.70151991973835
 20
190.2143100117006
 10
-17.02290280422235
 20
190.3074895004176
 10
-17.3330725905282
 20
190.4379067147883
 10
-17.63771378847654
 20
190.6079518229353
 10
-17.94251090788802
 20
190.8200149929815
 10
-18.25314845858328
 20
191.0764863930496
 10
-18.57531095038299
 20
191.3797561912623
 10
-18.91468289310779
 20
191.7322145557425
 10
-19.27694879657831
 20
192.1362516546129
 10
-19.66779317061523
 20
192.5942576559962
 10
-20.09290052503917
 20
193.1086227280152
 10
-20.09290052503918
 20
193.1086227280152
 10
-20.51947258259129
 20
193.6277024168073
 10
-20.90205881923589
 20
194.0856941438047
 10
-21.24382295183322
 20
194.4838846521936
 10
-21.5479286972435
 20
194.8235606851602
 10
-21.81753977232698
 20
195.1060089858905
 10
-22.05581989394387
 20
195.3325162975709
 10
-22.26593277895442
 20
195.5043693633875
 10
-22.45104214421885
 20
195.6228549265264
 10
-22.6143117065974
 20
195.6892597301738
 10
-22.75890518295029
 20
195.7048705175159
 10
-22.88798629013777
 20
195.6709740317388
 10
-23.00471874502005
 20
195.5888570160288
 10
-23.11226626445738
 20
195.4598062135719
 10
-23.21379256530999
 20
195.2851083675545
 10
-23.3124613644381
 20
195.0660502211625
 10
-23.41143637870195
 20
194.8039185175823
 10
-23.51388132496177
 20
194.5
 10
-23.51388132496177
 20
194.5
 10
-23.77887960537871
 20
193.6959275018408
 10
-24.03122576986817
 20
192.9595609693905
 10
-24.27355202933414
 20
192.2875089942336
 10
-24.50849059468062
 20
191.6763801679545
 10
-24.73867367681163
 20
191.1227830821379
 10
-24.96673348663117
 20
190.6233263283682
 10
-25.19530223504323
 20
190.17461849823
 10
-25.42701213295182
 20
189.7732681833079
 10
-25.66449539126095
 20
189.4158839751863
 10
-25.91038422087462
 20
189.0990744654499
 10
-26.16731083269684
 20
188.8194482456832
 10
-26.43790743763159
 20
188.5736139074705
 10
-26.7248062465829
 20
188.3581800423966
 10
-27.03063947045475
 20
188.169755242046
 10
-27.35803932015116
 20
188.0049480980032
 10
-27.70963800657614
 20
187.8603672018527
 10
-28.08806774063367
 20
187.732621145179
 10
-28.49596073322777
 20
187.6183185195668
 10
-28.93594919526244
 20
187.5140679166005
 10
-28.93594919526244
 20
187.5140679166005
 10
-29.54111526796624
 20
187.3710574260815
 10
-30.07567864858458
 20
187.2227487785517
 10
-30.53966433199801
 20
187.0682099928724
 10
-30.93309731308705
 20
186.9065090879046
 10
-31.25600258673224
 20
186.7367140825093
 10
-31.50840514781411
 20
186.5578929955478
 10
-31.6903299912132
 20
186.3691138458811
 10
-31.80180211181006
 20
186.1694446523702
 10
-31.8428465044852
 20
185.9579534338763
 10
-31.81348816411916
 20
185.7337082092606
 10
-31.71375208559249
 20
185.495776997384
 10
-31.54366326378571
 20
185.2432278171077
 10
-31.30324669357936
 20
184.9751286872929
 10
-30.99252736985397
 20
184.6905476268005
 10
-30.61153028749009
 20
184.3885526544917
 10
-30.16028044136824
 20
184.0682117892276
 10
-29.63880282636896
 20
183.7285930498693
 10
-29.0471224373728
 20
183.3687644552779
 10
-29.04712243737278
 20
183.3687644552779
 10
-28.55581897816839
 20
183.0666814971104
 10
-28.11746271929336
 20
182.7694276406733
 10
-27.72878457612926
 20
182.4709890155498
 10
-27.38651546405765
 20
182.1653517513235
 10
-27.08738629846008
 20
181.8465019775776
 10
-26.82812799471815
 20
181.5084258238957
 10
-26.6054714682134
 20
181.145109419861
 10
-26.4161476343274
 20
180.7505388950569
 10
-26.25688740844171
 20
180.3187003790669
 10
-26.12442170593791
 20
179.8435800014744
 10
-26.01548144219755
 20
179.3191638918626
 10
-25.9267975326022
 20
178.7394381798151
 10
-25.85510089253343
 20
178.0983889949151
 10
-25.79712243737279
 20
177.3900024667461
 10
-25.79712243737278
 20
177.3900024667462
 10
-25.5
 20
173.1555481691041
 10
-25.5
 20
173.1555481691041
 10
-22.69423629867366
 20
175.577774084552
210
0.0
220
0.0
230
-1.0
  0
LWPOLYLINE
  5
283
330
1F
100
AcDbEntity
  8
Default Layer
 62
    18
420
        0
370
    30
100
AcDbPolyline
 90
      120
 70
     0
 43
0.0
 10
26.74210421207189
 20
183.6846505870225
 10
29.3689269473462
 20
185.8693011740451
 10
29.3689269473462
 20
185.8693011740451
 10
26.67575846389272
 20
186.5452434352741
 10
26.67575846389272
 20
186.5452434352741
 10
26.12816778604413
 20
186.7129977553218
 10
25.61911553035886
 20
186.9303765765902
 10
25.15155480873225
 20
187.1946308334676
 10
24.72843873305968
 20
187.503011460342
 10
24.35272041523651
 20
187.8527693916015
 10
24.02735296715809
 20
188.2411555616341
 10
23.75528950071979
 20
188.665420904828
 10
23.53948312781698
 20
189.1228163555711
 10
23.382886960345
 20
189.6105928482515
 10
23.38288696034501
 20
189.6105928482516
 10
23.23709628543092
 20
190.1201145344861
 10
23.07238356631607
 20
190.5685489138779
 10
22.8912815814706
 20
190.9551503800021
 10
22.69632310936468
 20
191.279173326434
 10
22.49004092846848
 20
191.5398721467488
 10
22.27496781725216
 20
191.7365012345217
 10
22.05363655418588
 20
191.8683149833278
 10
21.8285799177398
 20
191.9345677867425
 10
21.60233068638411
 20
191.9345140383408
 10
21.37742163858895
 20
191.867408131698
 10
21.15638555282449
 20
191.7325044603894
 10
20.9417552075609
 20
191.52905741799
 10
20.73606338126834
 20
191.2563213980752
 10
20.54184285241698
 20
190.9135507942201
 10
20.36162639947696
 20
190.5
 10
20.36162639947696
 20
190.5
 10
20.2203791743844
 20
190.2324313619357
 10
20.01265365774173
 20
189.9875458558984
 10
19.74188590944199
 20
189.7666346938833
 10
19.41151198937821
 20
189.5709890878857
 10
19.02496795744346
 20
189.4019002499008
 10
18.58568987353076
 20
189.2606593919238
 10
18.09711379753317
 20
189.14855772595
 10
17.56267578934372
 20
189.0668864639746
 10
16.98581190885547
 20
189.0169368179929
 10
16.36995821596145
 20
189.0
 10
16.36995821596144
 20
189.0
 10
15.77622885129505
 20
188.9990890138211
 10
15.25842687170305
 20
188.9941051196756
 10
14.81394692181785
 20
188.9816719141501
 10
14.44018364627182
 20
188.9584129938314
 10
14.13453168969736
 20
188.920951955306
 10
13.89438569672683
 20
188.8659123951606
 10
13.71714031199263
 20
188.7899179099818
 10
13.60019018012714
 20
188.6895920963564
 10
13.54092994576276
 20
188.5615585508709
 10
13.53675425353185
 20
188.4024408701121
 10
13.5850577480668
 20
188.2088626506666
 10
13.68323507400001
 20
187.9774474891211
 10
13.82868087596385
 20
187.7048189820621
 10
14.01878979859071
 20
187.3876007260765
 10
14.25095648651297
 20
187.0224163177507
 10
14.52257558436303
 20
186.6058893536716
 10
14.52257558436303
 20
186.6058893536716
 10
14.86504468012568
 20
186.0223412864442
 10
15.1443842131384
 20
185.416041920159
 10
15.35958341235401
 20
184.7925075884153
 10
15.50963150672532
 20
184.1572546248123
 10
15.59351772520516
 20
183.5157993629493
 10
15.61023129674633
 20
182.8736581364255
 10
15.55876145030166
 20
182.2363472788403
 10
15.43809741482395
 20
181.6093831237929
 10
15.43809741482395
 20
181.6093831237929
 10
15.32627958984441
 20
181.1519705218745
 10
15.23783482997297
 20
180.7532913829613
 10
15.17602353166341
 20
180.4104324954974
 10
15.14410609136951
 20
180.1204806479266
 10
15.14534290554506
 20
179.8805226286932
 10
15.18299437064382
 20
179.6876452262409
 10
15.2603208831196
 20
179.538935229014
 10
15.38058283942615
 20
179.4314794254563
 10
15.54704063601727
 20
179.362364604012
 10
15.76295466934673
 20
179.328677553125
 10
16.03158533586832
 20
179.3275050612393
 10
16.35619303203581
 20
179.3559339167989
 10
16.74003815430299
 20
179.411050908248
 10
17.18638109912363
 20
179.4899428240305
 10
17.69848226295153
 20
179.5896964525903
 10
17.69848226295153
 20
179.5896964525903
 10
18.29783419801029
 20
179.6917468550112
 10
18.85103294316964
 20
179.7477799080094
 10
19.36175270963191
 20
179.7568103404337
 10
19.83366770859941
 20
179.7178528811328
 10
20.27045215127448
 20
179.6299222589555
 10
20.67578024885944
 20
179.4920332027505
 10
21.05332621255664
 20
179.3032004413666
 10
21.40676425356838
 20
179.0624387036525
 10
21.739768583097
 20
178.7687627184571
 10
22.05601341234483
 20
178.421187214629
 10
22.05601341234483
 20
178.421187214629
 10
22.34582061408286
 20
178.0740323065161
 10
22.59574971576404
 20
177.7879285708301
 10
22.80962807930408
 20
177.5643264260105
 10
22.99128306661869
 20
177.4046762904968
 10
23.14454203962359
 20
177.3104285827285
 10
23.27323236023448
 20
177.2830337211452
 10
23.38118139036709
 20
177.3239421241864
 10
23.47221649193714
 20
177.4346042102915
 10
23.55016502686032
 20
177.6164703979002
 10
23.61885435705237
 20
177.8709911054518
 10
23.68211184442898
 20
178.199616751386
 10
23.74376485090589
 20
178.6037977541422
 10
23.80764073839879
 20
179.08498453216
 10
23.8076407383988
 20
179.08498453216
 10
23.88155998286734
 20
179.4644138824293
 10
24.00793890657669
 20
179.8733591768246
 10
24.18214762726184
 20
180.3045632412547
 10
24.39955626265778
 20
180.7507689016286
 10
24.65553493049953
 20
181.2047189838552
 10
24.94545374852208
 20
181.6591563138435
 10
25.26468283446043
 20
182.1068237175024
 10
25.60859230604959
 20
182.5404640207408
 10
25.97255228102455
 20
182.9528200494677
 10
26.35193287712032
 20
183.336634629592
 10
26.74210421207189
 20
183.6846505870226
  0
ENDSEC
  0
SECTION
  2
OBJECTS
  0
DICTIONARY
  5
C
330
0
100
AcDbDictionary
281
     1
  3
ACAD_CIP_PREVIOUS_PRODUCT_INFO
350
216
  3
ACAD_COLOR
350
6B
  3
ACAD_DETAILVIEWSTYLE
350
21B
  3
ACAD_GROUP
350
D
  3
ACAD_LAYOUT
350
1A
  3
ACAD_MATERIAL
350
6A
  3
ACAD_MLEADERSTYLE
350
12D
  3
ACAD_MLINESTYLE
350
17
  3
ACAD_PLOTSETTINGS
350
19
  3
ACAD_PLOTSTYLENAME
350
E
  3
ACAD_SCALELIST
350
10C
  3
ACAD_SECTIONVIEWSTYLE
350
219
  3
ACAD_TABLESTYLE
350
7E
  3
ACAD_VISUALSTYLE
350
EF
  3
ACDB_RECOMPOSE_DATA
350
286
  3
AcDbVariableDictionary
350
5E
  3
AcDsDecomposeData
350
28C
  0
DICTIONARY
  5
1FF
330
2
100
AcDbDictionary
280
     1
281
     1
  3
ACAD_LAYERSTATES
360
200
  0
DICTIONARY
  5
13C
330
10
100
AcDbDictionary
280
     1
281
     1
  0
DICTIONARY
  5
1CE
330
1F
100
AcDbDictionary
280
     1
281
     1
  0
XRECORD
  5
216
102
{ACAD_REACTORS
330
C
102
}
330
C
100
AcDbXrecord
280
     1
300
ACD
300
2018
300

  0
DICTIONARY
  5
6B
102
{ACAD_REACTORS
330
C
102
}
330
C
100
AcDbDictionary
281
     1
  0
DICTIONARY
  5
21B
102
{ACAD_REACTORS
330
C
102
}
330
C
100
AcDbDictionary
281
     1
  3
Metric50
350
21C
  0
DICTIONARY
  5
D
102
{ACAD_REACTORS
330
C
102
}
330
C
100
AcDbDictionary
281
     1
  0
DICTIONARY
  5
1A
102
{ACAD_REACTORS
330
C
102
}
330
C
100
AcDbDictionary
281
     1
  3
Layout1
350
D3
  3
Layout2
350
D7
  3
Model
350
22
  0
DICTIONARY
  5
6A
102
{ACAD_REACTORS
330
C
102
}
330
C
100
AcDbDictionary
281
     1
  3
ByBlock
350
ED
  3
ByLayer
350
EC
  3
Global
350
EE
  0
DICTIONARY
  5
12D
102
{ACAD_REACTORS
330
C
102
}
330
C
100
AcDbDictionary
281
     1
  3
Annotative
350
13B
  3
Standard
350
12E
  0
DICTIONARY
  5
17
102
{ACAD_REACTORS
330
C
102
}
330
C
100
AcDbDictionary
281
     1
  3
Standard
350
18
  0
DICTIONARY
  5
19
102
{ACAD_REACTORS
330
C
102
}
330
C
100
AcDbDictionary
281
     1
  0
ACDBDICTIONARYWDFLT
  5
E
102
{ACAD_REACTORS
330
C
102
}
330
C
100
AcDbDictionary
281
     1
  3
Normal
350
F
100
AcDbDictionaryWithDefault
340
F
  0
DICTIONARY
  5
10C
102
{ACAD_REACTORS
330
C
102
}
330
C
100
AcDbDictionary
281
     1
  3
A0
350
10D
  3
A1
350
1BE
  3
A2
350
1BF
  3
A3
350
1C0
  3
A4
350
1C1
  3
A5
350
1C2
  3
A6
350
1C3
  3
A7
350
1C4
  3
A8
350
1C5
  3
A9
350
1C6
  3
B0
350
1C7
  3
B1
350
1C8
  3
B2
350
1C9
  3
B3
350
1CA
  3
B4
350
1CB
  3
B5
350
1CC
  3
B6
350
1CD
  0
DICTIONARY
  5
219
102
{ACAD_REACTORS
330
C
102
}
330
C
100
AcDbDictionary
281
     1
  3
Metric50
350
21A
  0
DICTIONARY
  5
7E
102
{ACAD_REACTORS
330
C
102
}
330
C
100
AcDbDictionary
281
     1
  3
Standard
350
7F
  0
DICTIONARY
  5
EF
102
{ACAD_REACTORS
330
C
102
}
330
C
100
AcDbDictionary
281
     1
  3
2dWireframe
350
F5
  3
Basic
350
F4
  3
Brighten
350
FB
  3
ColorChange
350
FF
  3
Conceptual
350
F8
  3
Dim
350
FA
  3
EdgeColorOff
350
1E6
  3
Facepattern
350
FE
  3
Flat
350
F0
  3
FlatWithEdges
350
F1
  3
Gouraud
350
F2
  3
GouraudWithEdges
350
F3
  3
Hidden
350
F7
  3
JitterOff
350
1E4
  3
Linepattern
350
FD
  3
OverhangOff
350
1E5
  3
Realistic
350
F9
  3
Shaded
350
1F3
  3
Shaded with edges
350
1F2
  3
Shades of Gray
350
1EF
  3
Sketchy
350
1F0
  3
Thicken
350
FC
  3
Wireframe
350
F6
  3
X-Ray
350
1F1
  0
XRECORD
  5
286
102
{ACAD_REACTORS
330
C
102
}
330
C
100
AcDbXrecord
280
     1
 90
        1
330
7F
  0
DICTIONARY
  5
5E
102
{ACAD_REACTORS
330
C
102
}
330
C
100
AcDbDictionary
281
     1
  3
CANNOSCALE
350
146
  3
CENTEREXE
350
259
  3
CENTERLTYPEFILE
350
25A
  3
CMLEADERSTYLE
350
145
  3
CTABLESTYLE
350
84
  3
CVIEWDETAILSTYLE
350
227
  3
CVIEWSECTIONSTYLE
350
228
  3
DIMASSOC
350
5F
  3
HIDETEXT
350
63
  3
LAYEREVAL
350
1AE
  3
LAYERNOTIFY
350
1AF
  3
XCLIPFRAME
350
284
  0
DICTIONARY
  5
28C
102
{ACAD_REACTORS
330
C
102
}
330
C
100
AcDbDictionary
281
     1
  3
AcDsRecords
350
28E
  3
AcDsSchemas
350
28D
1001
ACAD
1070
     2
  0
DICTIONARY
  5
200
102
{ACAD_REACTORS
330
1FF
102
}
330
1FF
100
AcDbDictionary
281
     1
  0
ACDBDETAILVIEWSTYLE
  5
21C
102
{ACAD_XDICTIONARY
360
2C1
102
}
102
{ACAD_REACTORS
330
21B
102
}
330
21B
100
AcDbModelDocViewStyle
 70
     0
  3
Metric50
290
     0
100
AcDbDetailViewStyle
 70
     0
 71
     0
 90
        3
 71
     1
340
11
 62
   256
 40
5.0
340
0
 62
   256
 40
5.0
300

 40
0.0
280
     1
 71
     2
340
16
 90
       25
 62
   256
 71
     3
340
11
 62
   256
 40
5.0
 90
        0
 40
15.0
 90
        1
300
%<\\AcVar ViewDetailId>% (%<\\AcVar ViewScale \\f \"%sn\">%)
 71
     4
340
16
 90
       25
 62
   256
340
16
 90
       25
 62
   256
280
     0
  0
LAYOUT
  5
D3
102
{ACAD_REACTORS
330
1A
102
}
330
1A
100
AcDbPlotSettings
  1

  2
C:\\Documents and Settings\\basas\\Application Data\\Autodesk\\AutoCAD 2005\\R16.1\\enu\\plotters\\Default Windows System Printer.pc3
  4

  6

 40
0.0
 41
0.0
 42
0.0
 43
0.0
 44
0.0
 45
0.0
 46
0.0
 47
0.0
 48
0.0
 49
0.0
140
0.0
141
0.0
142
1.0
143
1.0
 70
   688
 72
     0
 73
     0
 74
     5
  7

 75
    16
147
1.0
 76
     0
 77
     2
 78
   300
148
0.0
149
0.0
100
AcDbLayout
  1
Layout1
 70
     1
 71
     1
 10
0.0
 20
0.0
 11
12.0
 21
9.0
 12
0.0
 22
0.0
 32
0.0
 14
0.0
 24
0.0
 34
0.0
 15
0.0
 25
0.0
 35
0.0
146
0.0
 13
0.0
 23
0.0
 33
0.0
 16
1.0
 26
0.0
 36
0.0
 17
0.0
 27
1.0
 37
0.0
 76
     0
330
D2
  0
LAYOUT
  5
D7
102
{ACAD_REACTORS
330
1A
102
}
330
1A
100
AcDbPlotSettings
  1

  2
C:\\Documents and Settings\\basas\\Application Data\\Autodesk\\AutoCAD 2005\\R16.1\\enu\\plotters\\Default Windows System Printer.pc3
  4

  6

 40
0.0
 41
0.0
 42
0.0
 43
0.0
 44
0.0
 45
0.0
 46
0.0
 47
0.0
 48
0.0
 49
0.0
140
0.0
141
0.0
142
1.0
143
1.0
 70
   688
 72
     0
 73
     0
 74
     5
  7

 75
    16
147
1.0
 76
     0
 77
     2
 78
   300
148
0.0
149
0.0
100
AcDbLayout
  1
Layout2
 70
     1
 71
     2
 10
0.0
 20
0.0
 11
12.0
 21
9.0
 12
0.0
 22
0.0
 32
0.0
 14
0.0
 24
0.0
 34
0.0
 15
0.0
 25
0.0
 35
0.0
146
0.0
 13
0.0
 23
0.0
 33
0.0
 16
1.0
 26
0.0
 36
0.0
 17
0.0
 27
1.0
 37
0.0
 76
     0
330
D6
  0
LAYOUT
  5
22
102
{ACAD_XDICTIONARY
360
205
102
}
102
{ACAD_REACTORS
330
1A
102
}
330
1A
100
AcDbPlotSettings
  1

  2
none_device
  4
ISO_A4_(210.00_x_297.00_MM)
  6

 40
7.5
 41
20.0
 42
7.5
 43
20.0
 44
210.0
 45
297.0
 46
11.54999923706054
 47
-13.65000009536743
 48
0.0
 49
0.0
140
0.0
141
0.0
142
1.0
143
8.704084754739808
 70
 11952
 72
     1
 73
     0
 74
     0
  7

 75
     0
147
0.1148885871608098
 76
     0
 77
     2
 78
   300
148
0.0
149
0.0
100
AcDbLayout
  1
Model
 70
     1
 71
     0
 10
0.0
 20
0.0
 11
12.0
 21
9.0
 12
0.0
 22
0.0
 32
0.0
 14
0.0
 24
0.0
 34
0.0
 15
0.0
 25
0.0
 35
0.0
146
0.0
 13
0.0
 23
0.0
 33
0.0
 16
1.0
 26
0.0
 36
0.0
 17
0.0
 27
1.0
 37
0.0
 76
     0
330
1F
331
EA
1001
ACAD_PSEXT
1000
None
1000
None
1000
Not applicable
1000
The layout will not be plotted unless a new plotter configuration name is selected.
1070
     0
  0
MATERIAL
  5
ED
102
{ACAD_XDICTIONARY
360
1F9
102
}
102
{ACAD_REACTORS
330
6A
102
}
330
6A
100
AcDbMaterial
  1
ByBlock
 94
       63
  0
MATERIAL
  5
EC
102
{ACAD_XDICTIONARY
360
1F7
102
}
102
{ACAD_REACTORS
330
6A
102
}
330
6A
100
AcDbMaterial
  1
ByLayer
 94
       63
  0
MATERIAL
  5
EE
102
{ACAD_XDICTIONARY
360
173
102
}
102
{ACAD_REACTORS
330
6A
102
}
330
6A
100
AcDbMaterial
  1
Global
 43
0.0007999999797903
 43
0.0
 43
0.0
 43
0.0
 43
0.0
 43
0.0007999999797903
 43
0.0
 43
0.0
 43
0.0
 43
0.0
 43
1.0
 43
0.0
 43
0.0
 43
0.0
 43
0.0
 43
1.0
 49
0.0007999999797903
 49
0.0
 49
0.0
 49
0.0
 49
0.0
 49
0.0007999999797903
 49
0.0
 49
0.0
 49
0.0
 49
0.0
 49
1.0
 49
0.0
 49
0.0
 49
0.0
 49
0.0
 49
1.0
142
0.0007999999797903
142
0.0
142
0.0
142
0.0
142
0.0
142
0.0007999999797903
142
0.0
142
0.0
142
0.0
142
0.0
142
1.0
142
0.0
142
0.0
142
0.0
142
0.0
142
1.0
144
0.0007999999797903
144
0.0
144
0.0
144
0.0
144
0.0
144
0.0007999999797903
144
0.0
144
0.0
144
0.0
144
0.0
144
1.0
144
0.0
144
0.0
144
0.0
144
0.0
144
1.0
 94
       63
1001
ACAD
1070
    -1
1070
     3
1070
     0
1000

1071
        0
1070
     0
  0
MLEADERSTYLE
  5
13B
102
{ACAD_REACTORS
330
12D
102
}
330
12D
100
AcDbMLeaderStyle
170
     2
171
     1
172
     0
 90
        2
 40
0.0
 41
0.0
173
     1
 91
-1056964608
340
14
 92
       -2
290
     1
 42
2.0
291
     1
 43
8.0
  3
Standard
 44
4.0
300

342
11
174
     1
178
     1
175
     1
176
     0
 93
-1056964608
 45
4.0
292
     0
297
     0
 46
4.0
 94
-1056964608
 47
1.0
 49
1.0
140
1.0
293
     1
141
0.0
294
     1
177
     0
142
1.0
295
     0
296
     1
143
3.75
1001
ACAD_MLEADERVER
1070
     2
  0
MLEADERSTYLE
  5
12E
102
{ACAD_REACTORS
330
12D
102
}
330
12D
100
AcDbMLeaderStyle
170
     2
171
     1
172
     0
 90
        2
 40
0.0
 41
0.0
173
     1
 91
-1056964608
340
14
 92
       -2
290
     1
 42
2.0
291
     1
 43
8.0
  3
Standard
 44
4.0
300

342
11
174
     1
178
     1
175
     1
176
     0
 93
-1056964608
 45
4.0
292
     0
297
     0
 46
4.0
 94
-1056964608
 47
1.0
 49
1.0
140
1.0
293
     1
141
0.0
294
     1
177
     0
142
1.0
295
     0
296
     0
143
3.75
1001
ACAD_MLEADERVER
1070
     2
  0
MLINESTYLE
  5
18
102
{ACAD_REACTORS
330
17
102
}
330
17
100
AcDbMlineStyle
  2
STANDARD
 70
     0
  3

 62
   256
 51
90.0
 52
90.0
 71
     2
 49
0.5
 62
   256
  6
BYLAYER
 49
-0.5
 62
   256
  6
BYLAYER
  0
ACDBPLACEHOLDER
  5
F
102
{ACAD_REACTORS
330
E
102
}
330
E
  0
SCALE
  5
10D
102
{ACAD_REACTORS
330
10C
102
}
330
10C
100
AcDbScale
 70
     0
300
1:1
140
1.0
141
1.0
290
     1
  0
SCALE
  5
1BE
102
{ACAD_REACTORS
330
10C
102
}
330
10C
100
AcDbScale
 70
     0
300
1:2
140
1.0
141
2.0
290
     0
  0
SCALE
  5
1BF
102
{ACAD_REACTORS
330
10C
102
}
330
10C
100
AcDbScale
 70
     0
300
1:4
140
1.0
141
4.0
290
     0
  0
SCALE
  5
1C0
102
{ACAD_REACTORS
330
10C
102
}
330
10C
100
AcDbScale
 70
     0
300
1:5
140
1.0
141
5.0
290
     0
  0
SCALE
  5
1C1
102
{ACAD_REACTORS
330
10C
102
}
330
10C
100
AcDbScale
 70
     0
300
1:8
140
1.0
141
8.0
290
     0
  0
SCALE
  5
1C2
102
{ACAD_REACTORS
330
10C
102
}
330
10C
100
AcDbScale
 70
     0
300
1:10
140
1.0
141
10.0
290
     0
  0
SCALE
  5
1C3
102
{ACAD_REACTORS
330
10C
102
}
330
10C
100
AcDbScale
 70
     0
300
1:16
140
1.0
141
16.0
290
     0
  0
SCALE
  5
1C4
102
{ACAD_REACTORS
330
10C
102
}
330
10C
100
AcDbScale
 70
     0
300
1:20
140
1.0
141
20.0
290
     0
  0
SCALE
  5
1C5
102
{ACAD_REACTORS
330
10C
102
}
330
10C
100
AcDbScale
 70
     0
300
1:30
140
1.0
141
30.0
290
     0
  0
SCALE
  5
1C6
102
{ACAD_REACTORS
330
10C
102
}
330
10C
100
AcDbScale
 70
     0
300
1:40
140
1.0
141
40.0
290
     0
  0
SCALE
  5
1C7
102
{ACAD_REACTORS
330
10C
102
}
330
10C
100
AcDbScale
 70
     0
300
1:50
140
1.0
141
50.0
290
     0
  0
SCALE
  5
1C8
102
{ACAD_REACTORS
330
10C
102
}
330
10C
100
AcDbScale
 70
     0
300
1:100
140
1.0
141
100.0
290
     0
  0
SCALE
  5
1C9
102
{ACAD_REACTORS
330
10C
102
}
330
10C
100
AcDbScale
 70
     0
300
2:1
140
2.0
141
1.0
290
     0
  0
SCALE
  5
1CA
102
{ACAD_REACTORS
330
10C
102
}
330
10C
100
AcDbScale
 70
     0
300
4:1
140
4.0
141
1.0
290
     0
  0
SCALE
  5
1CB
102
{ACAD_REACTORS
330
10C
102
}
330
10C
100
AcDbScale
 70
     0
300
8:1
140
8.0
141
1.0
290
     0
  0
SCALE
  5
1CC
102
{ACAD_REACTORS
330
10C
102
}
330
10C
100
AcDbScale
 70
     0
300
10:1
140
10.0
141
1.0
290
     0
  0
SCALE
  5
1CD
102
{ACAD_REACTORS
330
10C
102
}
330
10C
100
AcDbScale
 70
     0
300
100:1
140
100.0
141
1.0
290
     0
  0
ACDBSECTIONVIEWSTYLE
  5
21A
102
{ACAD_XDICTIONARY
360
2BF
102
}
102
{ACAD_REACTORS
330
219
102
}
330
219
100
AcDbModelDocViewStyle
 70
     0
  3
Metric50
290
     0
100
AcDbSectionViewStyle
 70
     0
 71
     0
 90
      102
 71
     1
340
11
 62
   256
 40
5.0
340
0
340
0
 62
   256
 40
5.0
300
I, O, Q, S, X, Z
 40
10.0
 90
        0
 40
2.5
 90
        0
 71
     2
340
16
 90
       25
 62
   256
340
16
 90
       50
 62
   256
 40
5.0
 40
2.5
 40
5.0
 71
     3
340
11
 62
   256
 40
5.0
 90
        0
 40
15.0
 90
        1
300
%<\\AcVar ViewSectionStartId>%-%<\\AcVar ViewSectionEndId>% (%<\\AcVar ViewScale \\f \"%sn\">%)
 71
     4
 62
   256
 62
   257
300
ANSI31
 40
1.0
 90
        0
290
     0
290
     0
 90
        6
 40
0.0
 40
1.570796326794896
 40
0.2617993877991494
 40
1.308996938995747
 40
-0.2617993877991494
 40
1.832595714594046
  0
TABLESTYLE
  5
7F
102
{ACAD_XDICTIONARY
360
162
102
}
102
{ACAD_REACTORS
330
7E
102
}
330
7E
100
AcDbTableStyle
  3
Standard
 70
     0
 71
     0
 40
1.5
 41
1.5
280
     0
281
     0
  7
Standard
140
4.5
170
     2
 62
     0
 63
     7
283
     0
 90
      512
 91
        0
  1

274
    -2
284
     1
 64
     0
275
    -2
285
     1
 65
     0
276
    -2
286
     1
 66
     0
277
    -2
287
     1
 67
     0
278
    -2
288
     1
 68
     0
279
    -2
289
     1
 69
     0
  7
Standard
140
6.0
170
     5
 62
     0
 63
     7
283
     0
 90
      512
 91
        0
  1

274
    -2
284
     1
 64
     0
275
    -2
285
     1
 65
     0
276
    -2
286
     1
 66
     0
277
    -2
287
     1
 67
     0
278
    -2
288
     1
 68
     0
279
    -2
289
     1
 69
     0
  7
Standard
140
4.5
170
     5
 62
     0
 63
     7
283
     0
 90
      512
 91
        0
  1

274
    -2
284
     1
 64
     0
275
    -2
285
     1
 65
     0
276
    -2
286
     1
 66
     0
277
    -2
287
     1
 67
     0
278
    -2
288
     1
 68
     0
279
    -2
289
     1
 69
     0
  0
VISUALSTYLE
  5
F5
102
{ACAD_XDICTIONARY
360
299
102
}
102
{ACAD_REACTORS
330
EF
102
}
330
EF
100
AcDbVisualStyle
  2
2dWireframe
 70
     4
 71
     0
 72
     2
 73
     1
 90
        0
 40
-0.6
 41
-30.0
 62
     5
 63
     7
421
 16777215
 74
     1
 91
        4
 64
     7
 65
   257
 75
     1
175
     1
 42
1.0
 92
        0
 66
   257
 43
1.0
 76
     1
 77
     6
 78
     2
 67
     7
 79
     5
170
     0
171
     0
290
     0
174
     0
 93
        1
 44
0.0
173
     0
291
     0
 45
0.0
1001
ACAD
1000
AcDbSavedByObjectVersion
1070
     0
  0
VISUALSTYLE
  5
F4
102
{ACAD_XDICTIONARY
360
297
102
}
102
{ACAD_REACTORS
330
EF
102
}
330
EF
100
AcDbVisualStyle
  2
Basic
 70
     7
 71
     1
 72
     0
 73
     1
 90
        0
 40
-0.6
 41
-30.0
 62
     5
 63
     7
421
 16777215
 74
     0
 91
        4
 64
     7
 65
   257
 75
     1
175
     1
 42
1.0
 92
        8
 66
     7
 43
1.0
 76
     1
 77
     6
 78
     2
 67
     7
 79
     5
170
     0
171
     0
290
     0
174
     0
 93
        1
 44
0.0
173
     0
291
     1
 45
0.0
1001
ACAD
1000
AcDbSavedByObjectVersion
1070
     0
  0
VISUALSTYLE
  5
FB
102
{ACAD_XDICTIONARY
360
2A5
102
}
102
{ACAD_REACTORS
330
EF
102
}
330
EF
100
AcDbVisualStyle
  2
Brighten
 70
    12
 71
     2
 72
     2
 73
     1
 90
        0
 40
-0.6
 41
-30.0
 62
     5
 63
     7
421
 16777215
 74
     1
 91
        4
 64
     7
 65
   257
 75
     1
175
     1
 42
1.0
 92
        8
 66
     7
 43
1.0
 76
     1
 77
     6
 78
     2
 67
     7
 79
     5
170
     0
171
     0
290
     0
174
     0
 93
        1
 44
50.0
173
     0
291
     1
 45
0.0
1001
ACAD
1000
AcDbSavedByObjectVersion
1070
     0
  0
VISUALSTYLE
  5
FF
102
{ACAD_XDICTIONARY
360
2AD
102
}
102
{ACAD_REACTORS
330
EF
102
}
330
EF
100
AcDbVisualStyle
  2
ColorChange
 70
    16
 71
     2
 72
     2
 73
     3
 90
        0
 40
-0.6
 41
-30.0
 62
     5
 63
     8
421
  8421504
 74
     1
 91
        4
 64
     7
 65
   257
 75
     1
175
     1
 42
1.0
 92
        8
 66
     8
424
  8421504
 43
1.0
 76
     1
 77
     6
 78
     2
 67
     7
 79
     5
170
     0
171
     0
290
     0
174
     0
 93
        1
 44
0.0
173
     0
291
     1
 45
0.0
1001
ACAD
1000
AcDbSavedByObjectVersion
1070
     0
  0
VISUALSTYLE
  5
F8
102
{ACAD_XDICTIONARY
360
29F
102
}
102
{ACAD_REACTORS
330
EF
102
}
330
EF
100
AcDbVisualStyle
  2
Conceptual
 70
     9
 71
     3
 72
     2
 73
     1
 90
        0
 40
-0.6
 41
-30.0
 62
     5
 63
     7
421
 16777215
 74
     2
 91
        2
 64
     7
 65
   257
 75
     1
175
     1
 42
40.0
 92
        8
 66
     7
 43
1.0
 76
     1
 77
     6
 78
     2
 67
     7
 79
     3
170
     0
171
     0
290
     0
174
     0
 93
        1
 44
0.0
173
     0
291
     0
 45
0.0
1001
ACAD
1000
AcDbSavedByObjectVersion
1070
     0
  0
VISUALSTYLE
  5
FA
102
{ACAD_XDICTIONARY
360
2A3
102
}
102
{ACAD_REACTORS
330
EF
102
}
330
EF
100
AcDbVisualStyle
  2
Dim
 70
    11
 71
     2
 72
     2
 73
     1
 90
        0
 40
-0.6
 41
-30.0
 62
     5
 63
     7
421
 16777215
 74
     1
 91
        4
 64
     7
 65
   257
 75
     1
175
     1
 42
1.0
 92
        8
 66
     7
 43
1.0
 76
     1
 77
     6
 78
     2
 67
     7
 79
     5
170
     0
171
     0
290
     0
174
     0
 93
        1
 44
-50.0
173
     0
291
     1
 45
0.0
1001
ACAD
1000
AcDbSavedByObjectVersion
1070
     0
  0
VISUALSTYLE
  5
1E6
102
{ACAD_XDICTIONARY
360
2B3
102
}
102
{ACAD_REACTORS
330
EF
102
}
330
EF
100
AcDbVisualStyle
  2
EdgeColorOff
 70
    22
 71
     2
 72
     2
 73
     0
 90
        0
 40
-0.6
 41
-30.0
 62
     5
 63
     7
421
 16777215
 74
     1
 91
        4
 64
     7
 65
   257
 75
     1
175
     1
 42
1.0
 92
        8
 66
     7
 43
1.0
 76
     1
 77
     6
 78
     2
 67
     7
 79
     5
170
     0
171
     0
290
     0
174
     0
 93
        1
 44
0.0
173
     0
291
     1
 45
0.0
1001
ACAD
1000
AcDbSavedByObjectVersion
1070
     0
  0
VISUALSTYLE
  5
FE
102
{ACAD_XDICTIONARY
360
2AB
102
}
102
{ACAD_REACTORS
330
EF
102
}
330
EF
100
AcDbVisualStyle
  2
Facepattern
 70
    15
 71
     2
 72
     2
 73
     1
 90
        0
 40
-0.6
 41
-30.0
 62
     5
 63
     7
421
 16777215
 74
     1
 91
        4
 64
     7
 65
   257
 75
     1
175
     1
 42
1.0
 92
        8
 66
     7
 43
1.0
 76
     1
 77
     6
 78
     2
 67
     7
 79
     5
170
     0
171
     0
290
     0
174
     0
 93
        1
 44
0.0
173
     0
291
     1
 45
0.0
1001
ACAD
1000
AcDbSavedByObjectVersion
1070
     0
  0
VISUALSTYLE
  5
F0
102
{ACAD_XDICTIONARY
360
28F
102
}
102
{ACAD_REACTORS
330
EF
102
}
330
EF
100
AcDbVisualStyle
  2
Flat
 70
     0
 71
     2
 72
     1
 73
     1
 90
        2
 40
-0.6
 41
30.0
 62
     5
 63
     7
421
 16777215
 74
     0
 91
        0
 64
     7
 65
   257
 75
     1
175
     1
 42
1.0
 92
        8
 66
     7
 43
1.0
 76
     1
 77
     6
 78
     2
 67
     7
 79
     5
170
     0
171
     0
290
     0
174
     0
 93
       13
 44
0.0
173
     0
291
     1
 45
0.0
1001
ACAD
1000
AcDbSavedByObjectVersion
1070
     0
  0
VISUALSTYLE
  5
F1
102
{ACAD_XDICTIONARY
360
291
102
}
102
{ACAD_REACTORS
330
EF
102
}
330
EF
100
AcDbVisualStyle
  2
FlatWithEdges
 70
     1
 71
     2
 72
     1
 73
     1
 90
        2
 40
-0.6
 41
30.0
 62
     5
 63
     7
421
 16777215
 74
     1
 91
        0
 64
     7
 65
   257
 75
     1
175
     1
 42
1.0
 92
        0
 66
   257
 43
1.0
 76
     1
 77
     6
 78
     2
 67
     7
 79
     5
170
     0
171
     0
290
     0
174
     0
 93
       13
 44
0.0
173
     0
291
     1
 45
0.0
1001
ACAD
1000
AcDbSavedByObjectVersion
1070
     0
  0
VISUALSTYLE
  5
F2
102
{ACAD_XDICTIONARY
360
293
102
}
102
{ACAD_REACTORS
330
EF
102
}
330
EF
100
AcDbVisualStyle
  2
Gouraud
 70
     2
 71
     2
 72
     2
 73
     1
 90
        2
 40
-0.6
 41
30.0
 62
     5
 63
     7
421
 16777215
 74
     0
 91
        0
 64
     7
 65
   257
 75
     1
175
     1
 42
1.0
 92
        0
 66
     7
 43
1.0
 76
     1
 77
     6
 78
     2
 67
     7
 79
     5
170
     0
171
     0
290
     0
174
     0
 93
       13
 44
0.0
173
     0
291
     1
 45
0.0
1001
ACAD
1000
AcDbSavedByObjectVersion
1070
     0
  0
VISUALSTYLE
  5
F3
102
{ACAD_XDICTIONARY
360
295
102
}
102
{ACAD_REACTORS
330
EF
102
}
330
EF
100
AcDbVisualStyle
  2
GouraudWithEdges
 70
     3
 71
     2
 72
     2
 73
     1
 90
        2
 40
-0.6
 41
30.0
 62
     5
 63
     7
421
 16777215
 74
     1
 91
        0
 64
     7
 65
   257
 75
     1
175
     1
 42
1.0
 92
        0
 66
   257
 43
1.0
 76
     1
 77
     6
 78
     2
 67
     7
 79
     5
170
     0
171
     0
290
     0
174
     0
 93
       13
 44
0.0
173
     0
291
     1
 45
0.0
1001
ACAD
1000
AcDbSavedByObjectVersion
1070
     0
  0
VISUALSTYLE
  5
F7
102
{ACAD_XDICTIONARY
360
29D
102
}
102
{ACAD_REACTORS
330
EF
102
}
330
EF
100
AcDbVisualStyle
  2
Hidden
 70
     6
 71
     1
 72
     2
 73
     2
 90
        0
 40
-0.6
 41
-30.0
 62
     5
 63
     7
421
 16777215
 74
     2
 91
        2
 64
     7
 65
   257
 75
     2
175
     1
 42
40.0
 92
        0
 66
   257
 43
1.0
 76
     1
 77
     6
 78
     2
 67
     7
 79
     3
170
     0
171
     0
290
     0
174
     0
 93
        1
 44
0.0
173
     0
291
     0
 45
0.0
1001
ACAD
1000
AcDbSavedByObjectVersion
1070
     0
  0
VISUALSTYLE
  5
1E4
102
{ACAD_XDICTIONARY
360
2AF
102
}
102
{ACAD_REACTORS
330
EF
102
}
330
EF
100
AcDbVisualStyle
  2
JitterOff
 70
    20
 71
     2
 72
     2
 73
     0
 90
        0
 40
-0.6
 41
-30.0
 62
     5
 63
     7
421
 16777215
 74
     1
 91
        4
 64
     7
 65
   257
 75
     1
175
     1
 42
1.0
 92
       10
 66
     7
 43
1.0
 76
     1
 77
     6
 78
     2
 67
     7
 79
     5
170
     0
171
     0
290
     0
174
     0
 93
        1
 44
0.0
173
     0
291
     1
 45
0.0
1001
ACAD
1000
AcDbSavedByObjectVersion
1070
     0
  0
VISUALSTYLE
  5
FD
102
{ACAD_XDICTIONARY
360
2A9
102
}
102
{ACAD_REACTORS
330
EF
102
}
330
EF
100
AcDbVisualStyle
  2
Linepattern
 70
    14
 71
     2
 72
     2
 73
     1
 90
        0
 40
-0.6
 41
-30.0
 62
     5
 63
     7
421
 16777215
 74
     1
 91
        4
 64
     7
 65
   257
 75
     7
175
     7
 42
1.0
 92
        8
 66
     7
 43
1.0
 76
     1
 77
     6
 78
     2
 67
     7
 79
     5
170
     0
171
     0
290
     0
174
     0
 93
        1
 44
0.0
173
     0
291
     1
 45
0.0
1001
ACAD
1000
AcDbSavedByObjectVersion
1070
     0
  0
VISUALSTYLE
  5
1E5
102
{ACAD_XDICTIONARY
360
2B1
102
}
102
{ACAD_REACTORS
330
EF
102
}
330
EF
100
AcDbVisualStyle
  2
OverhangOff
 70
    21
 71
     2
 72
     2
 73
     0
 90
        0
 40
-0.6
 41
-30.0
 62
     5
 63
     7
421
 16777215
 74
     1
 91
        4
 64
     7
 65
   257
 75
     1
175
     1
 42
1.0
 92
        9
 66
     7
 43
1.0
 76
     1
 77
     6
 78
     2
 67
     7
 79
     5
170
     0
171
     0
290
     0
174
     0
 93
        1
 44
0.0
173
     0
291
     1
 45
0.0
1001
ACAD
1000
AcDbSavedByObjectVersion
1070
     0
  0
VISUALSTYLE
  5
F9
102
{ACAD_XDICTIONARY
360
2A1
102
}
102
{ACAD_REACTORS
330
EF
102
}
330
EF
100
AcDbVisualStyle
  2
Realistic
 70
     8
 71
     2
 72
     3
 73
     0
 90
        2
 40
-0.6
 41
30.0
 62
     5
 63
     7
421
 16777215
 74
     0
 91
        0
 64
     7
 65
   257
 75
     1
175
     1
 42
1.0
 92
        8
 66
   257
 43
1.0
 76
     1
 77
     6
 78
     2
 67
     7
 79
     3
170
     0
171
     0
290
     0
174
     0
 93
       13
 44
0.0
173
     0
291
     0
 45
0.0
1001
ACAD
1000
AcDbSavedByObjectVersion
1070
     0
  0
VISUALSTYLE
  5
1F3
102
{ACAD_XDICTIONARY
360
2BD
102
}
102
{ACAD_REACTORS
330
EF
102
}
330
EF
100
AcDbVisualStyle
  2
Shaded
 70
    27
 71
     2
 72
     2
 73
     1
 90
        2
 40
-0.6
 41
30.0
 62
     5
 63
     7
421
 16777215
 74
     0
 91
        4
 64
     7
 65
   257
 75
     1
175
     1
 42
1.0
 92
        8
 66
   257
 43
1.0
 76
     1
 77
     6
 78
     2
 67
     8
425
  7895160
 79
     3
170
     0
171
     0
290
     0
174
     0
 93
        5
 44
0.0
173
     0
291
     0
 45
0.0
1001
ACAD
1000
AcDbSavedByObjectVersion
1070
     0
  0
VISUALSTYLE
  5
1F2
102
{ACAD_XDICTIONARY
360
2BB
102
}
102
{ACAD_REACTORS
330
EF
102
}
330
EF
100
AcDbVisualStyle
  2
Shaded with edges
 70
    26
 71
     2
 72
     2
 73
     1
 90
        2
 40
-0.6
 41
30.0
 62
     5
 63
     7
421
 16777215
 74
     1
 91
        2
 64
     7
 65
   257
 75
     2
175
     1
 42
1.0
 92
        8
 66
   257
 43
1.0
 76
     1
 77
     6
 78
     2
 67
     7
 79
     3
170
     0
171
     0
290
     0
174
     0
 93
        5
 44
0.0
173
     0
291
     0
 45
0.0
1001
ACAD
1000
AcDbSavedByObjectVersion
1070
     0
  0
VISUALSTYLE
  5
1EF
102
{ACAD_XDICTIONARY
360
2B5
102
}
102
{ACAD_REACTORS
330
EF
102
}
330
EF
100
AcDbVisualStyle
  2
Shades of Gray
 70
    23
 71
     2
 72
     2
 73
     3
 90
        0
 40
-0.6
 41
-30.0
 62
     5
 63
     7
421
 16777215
 74
     2
 91
        2
 64
     7
 65
     7
 75
     1
175
     1
 42
40.0
 92
        8
 66
     7
 43
1.0
 76
     1
 77
     6
 78
     2
 67
     7
 79
     3
170
     0
171
     0
290
     0
174
     0
 93
        1
 44
0.0
173
     0
291
     0
 45
0.0
1001
ACAD
1000
AcDbSavedByObjectVersion
1070
     0
  0
VISUALSTYLE
  5
1F0
102
{ACAD_XDICTIONARY
360
2B7
102
}
102
{ACAD_REACTORS
330
EF
102
}
330
EF
100
AcDbVisualStyle
  2
Sketchy
 70
    24
 71
     1
 72
     2
 73
     2
 90
        0
 40
-0.6
 41
-30.0
 62
     5
 63
     7
421
 16777215
 74
     2
 91
        2
 64
     7
 65
     7
 75
     1
175
     1
 42
40.0
 92
       11
 66
     7
 43
1.0
 76
     1
 77
     6
 78
     2
 67
     7
 79
     6
170
     0
171
     0
290
     0
174
     0
 93
        1
 44
0.0
173
     0
291
     0
 45
0.0
1001
ACAD
1000
AcDbSavedByObjectVersion
1070
     0
  0
VISUALSTYLE
  5
FC
102
{ACAD_XDICTIONARY
360
2A7
102
}
102
{ACAD_REACTORS
330
EF
102
}
330
EF
100
AcDbVisualStyle
  2
Thicken
 70
    13
 71
     2
 72
     2
 73
     1
 90
        0
 40
-0.6
 41
-30.0
 62
     5
 63
     7
421
 16777215
 74
     1
 91
        4
 64
     7
 65
   257
 75
     1
175
     1
 42
1.0
 92
       12
 66
     7
 43
1.0
 76
     1
 77
     6
 78
     2
 67
     7
 79
     5
170
     0
171
     0
290
     0
174
     0
 93
        1
 44
0.0
173
     0
291
     1
 45
0.0
1001
ACAD
1000
AcDbSavedByObjectVersion
1070
     0
  0
VISUALSTYLE
  5
F6
102
{ACAD_XDICTIONARY
360
29B
102
}
102
{ACAD_REACTORS
330
EF
102
}
330
EF
100
AcDbVisualStyle
  2
Wireframe
 70
     5
 71
     0
 72
     2
 73
     0
 90
        0
 40
-0.6
 41
-30.0
 62
     5
 63
     7
421
 16777215
 74
     1
 91
        4
 64
     7
 65
   257
 75
     1
175
     1
 42
1.0
 92
        0
 66
   257
 43
1.0
 76
     1
 77
     6
 78
     2
 67
     7
 79
     3
170
     0
171
     0
290
     0
174
     0
 93
        1
 44
0.0
173
     0
291
     0
 45
0.0
1001
ACAD
1000
AcDbSavedByObjectVersion
1070
     0
  0
VISUALSTYLE
  5
1F1
102
{ACAD_XDICTIONARY
360
2B9
102
}
102
{ACAD_REACTORS
330
EF
102
}
330
EF
100
AcDbVisualStyle
  2
X-Ray
 70
    25
 71
     2
 72
     2
 73
     1
 90
        1
 40
0.5
 41
-30.0
 62
     5
 63
     7
421
 16777215
 74
     1
 91
        0
 64
     7
 65
   257
 75
     1
175
     1
 42
1.0
 92
        8
 66
     7
 43
1.0
 76
     1
 77
     6
 78
     2
 67
     7
 79
     3
170
     0
171
     0
290
     0
174
     0
 93
       13
 44
0.0
173
     0
291
     0
 45
0.0
1001
ACAD
1000
AcDbSavedByObjectVersion
1070
     0
  0
DICTIONARYVAR
  5
146
102
{ACAD_REACTORS
330
5E
102
}
330
5E
100
DictionaryVariables
280
     0
  1
1:1
  0
DICTIONARYVAR
  5
259
102
{ACAD_REACTORS
330
5E
102
}
330
5E
100
DictionaryVariables
280
     0
  1
3.500000
  0
DICTIONARYVAR
  5
25A
102
{ACAD_REACTORS
330
5E
102
}
330
5E
100
DictionaryVariables
280
     0
  1
acadiso.lin
  0
DICTIONARYVAR
  5
145
102
{ACAD_REACTORS
330
5E
102
}
330
5E
100
DictionaryVariables
280
     0
  1
STANDARD
  0
DICTIONARYVAR
  5
84
102
{ACAD_REACTORS
330
5E
102
}
330
5E
100
DictionaryVariables
280
     0
  1
STANDARD
  0
DICTIONARYVAR
  5
227
102
{ACAD_REACTORS
330
5E
102
}
330
5E
100
DictionaryVariables
280
     0
  1
Metric50
  0
DICTIONARYVAR
  5
228
102
{ACAD_REACTORS
330
5E
102
}
330
5E
100
DictionaryVariables
280
     0
  1
Metric50
  0
DICTIONARYVAR
  5
5F
102
{ACAD_REACTORS
330
5E
102
}
330
5E
100
DictionaryVariables
280
     0
  1
2
  0
DICTIONARYVAR
  5
63
102
{ACAD_REACTORS
330
5E
102
}
330
5E
100
DictionaryVariables
280
     0
  1
1
  0
DICTIONARYVAR
  5
1AE
102
{ACAD_REACTORS
330
5E
102
}
330
5E
100
DictionaryVariables
280
     0
  1
0
  0
DICTIONARYVAR
  5
1AF
102
{ACAD_REACTORS
330
5E
102
}
330
5E
100
DictionaryVariables
280
     0
  1
0
  0
DICTIONARYVAR
  5
284
102
{ACAD_REACTORS
330
5E
102
}
330
5E
100
DictionaryVariables
280
     0
  1
2
  0
DICTIONARY
  5
28E
102
{ACAD_REACTORS
330
28C
102
}
330
28C
100
AcDbDictionary
281
     1
  0
DICTIONARY
  5
28D
102
{ACAD_REACTORS
330
28C
102
}
330
28C
100
AcDbDictionary
281
     1
  3
264385904
350
287
  3
264385920
350
288
  3
264385936
350
289
  3
264385952
350
28A
  3
264385968
350
28B
  0
DICTIONARY
  5
2C1
330
21C
100
AcDbDictionary
280
     1
281
     1
  3
ACAD_XREC_ROUNDTRIP
360
2C2
  0
DICTIONARY
  5
205
330
22
100
AcDbDictionary
280
     1
281
     1
  0
DICTIONARY
  5
1F9
330
ED
100
AcDbDictionary
280
     1
281
     1
  3
FBXASSET
360
1FA
  0
DICTIONARY
  5
1F7
330
EC
100
AcDbDictionary
280
     1
281
     1
  3
FBXASSET
360
1F8
  0
DICTIONARY
  5
173
330
EE
100
AcDbDictionary
280
     1
281
     1
  3
BUMPTILE
360
175
  3
DIFFUSETILE
360
174
  3
FBXASSET
360
1FB
  3
OPACITYTILE
360
176
  3
REFLECTIONTILE
360
177
  0
DICTIONARY
  5
2BF
330
21A
100
AcDbDictionary
280
     1
281
     1
  3
ACAD_XREC_ROUNDTRIP
360
2C0
  0
DICTIONARY
  5
162
330
7F
100
AcDbDictionary
280
     1
281
     1
  3
ACAD_ROUNDTRIP_2008_TABLESTYLE_CELLSTYLEMAP
360
285
  0
DICTIONARY
  5
299
330
F5
100
AcDbDictionary
280
     1
281
     1
  3
ACAD_XREC_ROUNDTRIP
360
29A
  0
DICTIONARY
  5
297
330
F4
100
AcDbDictionary
280
     1
281
     1
  3
ACAD_XREC_ROUNDTRIP
360
298
  0
DICTIONARY
  5
2A5
330
FB
100
AcDbDictionary
280
     1
281
     1
  3
ACAD_XREC_ROUNDTRIP
360
2A6
  0
DICTIONARY
  5
2AD
330
FF
100
AcDbDictionary
280
     1
281
     1
  3
ACAD_XREC_ROUNDTRIP
360
2AE
  0
DICTIONARY
  5
29F
330
F8
100
AcDbDictionary
280
     1
281
     1
  3
ACAD_XREC_ROUNDTRIP
360
2A0
  0
DICTIONARY
  5
2A3
330
FA
100
AcDbDictionary
280
     1
281
     1
  3
ACAD_XREC_ROUNDTRIP
360
2A4
  0
DICTIONARY
  5
2B3
330
1E6
100
AcDbDictionary
280
     1
281
     1
  3
ACAD_XREC_ROUNDTRIP
360
2B4
  0
DICTIONARY
  5
2AB
330
FE
100
AcDbDictionary
280
     1
281
     1
  3
ACAD_XREC_ROUNDTRIP
360
2AC
  0
DICTIONARY
  5
28F
330
F0
100
AcDbDictionary
280
     1
281
     1
  3
ACAD_XREC_ROUNDTRIP
360
290
  0
DICTIONARY
  5
291
330
F1
100
AcDbDictionary
280
     1
281
     1
  3
ACAD_XREC_ROUNDTRIP
360
292
  0
DICTIONARY
  5
293
330
F2
100
AcDbDictionary
280
     1
281
     1
  3
ACAD_XREC_ROUNDTRIP
360
294
  0
DICTIONARY
  5
295
330
F3
100
AcDbDictionary
280
     1
281
     1
  3
ACAD_XREC_ROUNDTRIP
360
296
  0
DICTIONARY
  5
29D
330
F7
100
AcDbDictionary
280
     1
281
     1
  3
ACAD_XREC_ROUNDTRIP
360
29E
  0
DICTIONARY
  5
2AF
330
1E4
100
AcDbDictionary
280
     1
281
     1
  3
ACAD_XREC_ROUNDTRIP
360
2B0
  0
DICTIONARY
  5
2A9
330
FD
100
AcDbDictionary
280
     1
281
     1
  3
ACAD_XREC_ROUNDTRIP
360
2AA
  0
DICTIONARY
  5
2B1
330
1E5
100
AcDbDictionary
280
     1
281
     1
  3
ACAD_XREC_ROUNDTRIP
360
2B2
  0
DICTIONARY
  5
2A1
330
F9
100
AcDbDictionary
280
     1
281
     1
  3
ACAD_XREC_ROUNDTRIP
360
2A2
  0
DICTIONARY
  5
2BD
330
1F3
100
AcDbDictionary
280
     1
281
     1
  3
ACAD_XREC_ROUNDTRIP
360
2BE
  0
DICTIONARY
  5
2BB
330
1F2
100
AcDbDictionary
280
     1
281
     1
  3
ACAD_XREC_ROUNDTRIP
360
2BC
  0
DICTIONARY
  5
2B5
330
1EF
100
AcDbDictionary
280
     1
281
     1
  3
ACAD_XREC_ROUNDTRIP
360
2B6
  0
DICTIONARY
  5
2B7
330
1F0
100
AcDbDictionary
280
     1
281
     1
  3
ACAD_XREC_ROUNDTRIP
360
2B8
  0
DICTIONARY
  5
2A7
330
FC
100
AcDbDictionary
280
     1
281
     1
  3
ACAD_XREC_ROUNDTRIP
360
2A8
  0
DICTIONARY
  5
29B
330
F6
100
AcDbDictionary
280
     1
281
     1
  3
ACAD_XREC_ROUNDTRIP
360
29C
  0
DICTIONARY
  5
2B9
330
1F1
100
AcDbDictionary
280
     1
281
     1
  3
ACAD_XREC_ROUNDTRIP
360
2BA
  0
XRECORD
  5
287
102
{ACAD_REACTORS
330
28D
102
}
330
28D
100
AcDbXrecord
280
     1
  1
AcDb_Thumbnail_Schema
102
{ATTRRECORD
341
288
  2
AcDbDs::TreatedAsObjectData
280
     1
291
     1
102
ATTRRECORD}
102
{ATTRRECORD
341
289
  2
AcDbDs::Legacy
280
     1
291
     1
102
ATTRRECORD}
  2
AcDbDs::ID
280
    10
 91
        8
102
{ATTRRECORD
341
28A
  2
AcDs:Indexable
280
     1
291
     1
102
ATTRRECORD}
102
{ATTRRECORD
341
28B
  2
AcDbDs::HandleAttribute
280
     7
282
     1
102
ATTRRECORD}
  2
Thumbnail_Data
280
    15
 91
        0
  0
XRECORD
  5
288
102
{ACAD_REACTORS
330
28D
102
}
330
28D
100
AcDbXrecord
280
     1
  1
AcDbDs::TreatedAsObjectDataSchema
  2
AcDbDs::TreatedAsObjectData
280
     1
 91
        0
  0
XRECORD
  5
289
102
{ACAD_REACTORS
330
28D
102
}
330
28D
100
AcDbXrecord
280
     1
  1
AcDbDs::LegacySchema
  2
AcDbDs::Legacy
280
     1
 91
        0
  0
XRECORD
  5
28A
102
{ACAD_REACTORS
330
28D
102
}
330
28D
100
AcDbXrecord
280
     1
  1
AcDbDs::IndexedPropertySchema
  2
AcDs:Indexable
280
     1
 91
        0
  0
XRECORD
  5
28B
102
{ACAD_REACTORS
330
28D
102
}
330
28D
100
AcDbXrecord
280
     1
  1
AcDbDs::HandleAttributeSchema
  2
AcDbDs::HandleAttribute
280
     7
 91
        1
284
     1
  0
XRECORD
  5
2C2
102
{ACAD_REACTORS
330
2C1
102
}
330
2C1
100
AcDbXrecord
280
     1
102
DISPLAYNAME
  1
Metric50
102
FLAGS
 90
        0
  0
XRECORD
  5
1FA
102
{ACAD_REACTORS
330
1F9
102
}
330
1F9
100
AcDbXrecord
280
     1
 70
     1
 90
429727718
  1
D62C5603-E3A1-4AEA-B7FB-FE5D8D0755AF
310
504B03040A0000080000CC70623B3DEE336E79000000790000001B0000006175746F6465736B2D64657369676E2D7061636B6167652E786D6C3C3F786D6C2076657273696F6E3D22312E302220656E636F64696E673D227574662D3822203F3E3C666F726D6174733E3C666F726D61743E687474703A2F2F736368656D612E
310
6175746F6465736B2E636F6D2F64657369676E2D7061636B6167652F323030393C2F666F726D61743E3C2F666F726D6174733E504B0304140006080800CC70623BD486FD9CA0000000F4000000130000005B436F6E74656E745F54797065735D2E786D6C7D8EC10E82300C865F65E91D8A1E8C310C0EEA1BF002731658846E
310
D98AC1B77784ABF1D8FE5FBFBF75BBCE937A534CCEB38643598122B6FEE978D0B0485F9C41B54DDD7D022595594E1A469170414C76A4D9A4D207E29CF43ECE46F218070CC6BECC4078ACAA135ACF422C856C0E68EA1BF5669944DDD7BCDE7B1F8E415D77AECB980613C2E4AC91FC167A2B244592486606FC29C8FD7F045B9A
310
EF7053A7E60B504B0304140006080800CC70623B853B8169EB0000007C01000008000000636F72652E786D6C8D90416EC3201045AF62CDB6C206821CC7C244919D9CA01740401C94182C03558F5F9C3852BBEB6A467FFE9B197D7EFC9E1EC5975982F5AE035262288C535E5B377690E21535501C055FBC8FBF6C503839990E
310
5619041F179FE64D52DE45E362569DD7661365082642A11EB9E920A89B99642953CC8E702F67A9EE7234257977194EC9EAE275C4EABCCF5EAD5940D4AC6F0E35A568B8F43562CD7046CD199FD07E60174276A7BE677B5EADB0E0D14EEFFB6A31321A0D82627C4084204C3F096B71DD52F6819B16635EADF63F509AF53FA164
310
5DDCD1EDDD17164090FCC8732078B56691CB33A85CD7DCC40F504B0304140006080800CC70623B55019EA25F0000007C00000007000000636E782E786D6C4DCB3B0E80201045D1AD90E915ED2CF8AC45050C11660C8261F98AB1B07AC9C97D42D718D865D3E909258CFD00CCE24AC6E326A164D74DC0B4128928FF32603847
310
2BA13128B1252AC747C6BAB984FC68F0B87FE8960A5C09FE86CFB69FBA01504B0304140006080800CC70623BDBABAAF470010000D40300000C0000006662782F636F72652E786D6CC553D16E823014FD95A6AF4B694182CC941A83FA05FB810A9511A125A5257EFE2E82712ECEB8A7F100CD39F7F69E734AF9FADC366850B6
310
AF8DCE7018308C942E4C59EB2AC3DE1D498AD15A706B8CFB56869196ADCAF00863C12B6B7C374385D14E6907A836A59A41D9F7CA615434B0C8705F7CAA5606D23BA8E84F41278B93AC54100640439DE0BDB320004D43C63716C7C399D30917DCFBBA9CD9BA8469F5B156168B24CED3F7248AC8769F27244EB73B92EED8862C
310
B7F13E0C179B3C8F979C8ECD82BBBABDAA2BAC924E9558448CBD9330242CFA08E3154B5651FCC6D215639C8EE5774DBE2B5F6CF2B5768B68963BB5F5588420E442FC700B1139D4CB01F450C1E918227C2E09DF070D8140C84E1E9AAB8F1340832A9CB13130A5F1376A908D57309505ECF2A0DF179C4E9D30F5B239B87E3823
310
7A79C6F31DE1A8A5AEC08474B03C7837EAE4938639B44E5932B833D2C6B6B279CDC613877FA26EE21F4A2A4C63EC7F29A2F301D1F9F7A0E37D145F504B0304140006080800CC70623B9C113CC27E0000009D0000000B0000006662782F636E782E786D6C4DCCDF0A83201C86E15B91DFB94BFB330DD428C8FB886521330DA7
310
6397BF1A1DECE883878F57749FCDA1B7892F1BBC047A23808C7F84D9FA55424E0BE6803A256208E9EF06C84F9B91703228B1C690F78B66B34CD9A5439DF5CF0BFBF65E35BCA1B8D6A5C6F540381E886698B5741C695F9503EBA150A2F8958E3DC3EA0B504B0304140006080800CC70623B7DF2F77C2A010000120200003100
310
00006662782F41393633353835312D344632462D344230382D423046372D3739314545314133324237412F636F72652E786D6C8D51DB8EC22014FC15C2939B0D2DB4B45643319AE817EC0F6041255A68B86CFCFC856D4D76DF7CE190393373060EDB3DC707F856CE6B6B7A480A0C81328395DA5C7B18C3057510EC3873D686
310
3F34088C18550F330C39BB3A1BA7051AAC09CA84841A2BD5020AEF55806078A44B0FFD7053A328440C89E1EFC52486BBB8AA8214A99D789CF9E05200300FC927E4FB4D5B375D43103D5527440FB843077C5AA3F5861C8F645F5787F59E95B390B318B55CE45AA638FAA2957BD7248B390B7A7CC51F9C124149C82B8C378810
310
84AB2F42B7B8DD56F413775B8C5999E9FF4471926F8AA236A1AE96B8B3CC434E5839373893369E1FAF30EA395917409EB7F26AF8801C171837A4A6AC9C89E9F9C9B1A58BA30FD6A5EF5DDDCF894B9AD9B6A59C957943A9FCAE2FD5BC4DFE03504B0304140006080800CC70623BAD7543B64E01000033030000300000006662
310
782F41393633353835312D344632462D344230382D423046372D3739314545314133324237412F636E782E786D6CD593CD6EC32010845F0571AD6CE3D48AD20813A9873E410FBD12D82434182C7EAAE6EDBB2424CD25871E7B41D6EC30B3FA84F9E67BB2E40B4234DE8DB46F1925E094D7C6ED479AD3AE5951B2113C789FEE
310
6C943839C1488B4C05DF079FE72A69D8C96C13AAD6B8631503449F83828872B949AC57D26200B826A308D316B4064D6E46FCDA41C05550DC9E483A00797BFD207EFB092A45DE9514C1BBD22178396BD39D891265658C238DEA00936C654E5E433CB65A26D9F6EDB5EBC14EBF49A45CB856E66048291F6939A9A81BB5C89177
310
38143CA680F4AA299D66A042CEB3354A2684DC9D8D178FE0D9B8B41CAAD720F880EE7EF93C0C18769E099ECC04D5A102C8049A8A05632F4DDF376CF1DE0F6BB65C2F8627B65A33C6BB62177CEBBDAD973006829F89F22E814B54F4BC2BE347F8AA8F681390B50FA73F804400B5F542E796F19FF974E7F78DB802FE05E20750
310
4B0304140006080800CC70623BE75B7789680500003C100000340000006662782F41393633353835312D344632462D344230382D423046372D3739314545314133324237412F6F626A656374732E786D6CAD575B8F9B3818FD2B887D06C22499CB8AA1CA655245D5B455A356FB305264C061D8018C6C3393D95FBFC7600890
310
A4CD5EF210B0B1BFEBF98E3F7B1FF6596ABC522E1296DF9BAE3D320D9A872C4AF2F8DE2CE5CEBA358D0FBEC719939D65A691938CDE9B6ADAF4BD98B3B2D05311DD91329583D9D5FC0F438434A7A611A644887B5384CF34233629258BA878B12322891DEFF6B66BD70BFB62634E8AE781D082709A4B588AF91C528CDA28B73F
310
1C998EEF39EABBEFA97FBD6A7C7E9553F9D3D79FE442923C3C523610337627CB87ABE99D359D4CC6D6E4FACAB5E6ABF9D2726FC6A3C5F56271377BB88362213924694B38DD99FE47C48627A1E7D49F5A8BB5E1A74C0A599ED3B0F21F1E56366B89112D681E218F0915D0D6F17AD41FBA2A369DCF6335D62ABBD39779D5DDD1
310
11D4D8DE3CBB96B2E04FB8202E41051754A1AA8E8F76B4C6DFE810B580B1547F4B84911149794252234D024EF8BBE963A95AE27B3D310A9D5C215C7960FAEE415ED75694C6AFB17BCACA5D99A60A9AA65F217B0BFC53292ACB92BF283FAD0D3621576592CB5BED907C2FA8E9DF794E35E97BEA31BED21FEB401ABB94C44839
310
DCACBF0E1C5DA8DA5B2F4DFFD32AD86F543D9E565E7056502E157C00AD2671CD534549AB752FCA9CDA00677A313F04E51B22FF19E57B300579E3C97EB29F682D92935CEC18CF901B7B54FD8C51F362B56FC72FE0B3C1EAE335EDCCBF5AEC39ADB17DC238973F804BA5E6F6BFE7AF1FB32E523BE9F3BD571418E3631DCA4D48
310
5250CF639223210A9446CA30052EDF057BD35F8329C1ECD84552BF0DC8D18BE7BCE23BFE6BD960AB4A7DE79923A103BEBD80F911CBAA2C60DB19B01CF164A5583B772EE6D3FFA56666CBCDA74DC97724A48F9A58967497E489C4D979006FD7A05E227A1EBDD0F737C623387A9C844D3709995625106D157315F8B8392CD4E0
310
A0B9A720C4BE9829CEF37EA1E13111214D53925356365ADA634861B52519DD27A00AEB808EAF0628E6F435519D446F45CF2C9CF5214F0A15B2F6D06B79DA3EE3CBF7F56780D2F4E7EF73A0F5E5B02A38D07DC852C6B7C1FBB6664213E0C39E3EBA7FF4E1AD23EA2829407C85E586727488B751B2DB9502BC7B228A3FD68B6E
310
A65A22397E690AA8D158D7E404EC8CDA235CC3B7D1898680131CEC2CDF2638C65196279577750F15884AEE19F94199155B92B13297978469D4F8D358DF0AEF7631E28DC8F0D9F437D5D39A83B2231A1D52D543813A824EF8D44BCFF2FA6A31BD1E8DAD87F1CCB526B3879935BF59CDADD5C37479BB1CDD4CA7B3556B516589
310
EF352754B706114D9C885EC9131DE6EFEB43D99AFE2391C2F958179413D7CFEF6B1B6DB1E7600F00DE6E5C67454A339A4BA2E0FBA85ED26F045D454F463DBFCE484C2F90F2E5E3666003662ED8F755951A7D1BECD5B30B550B2785C8E7320B7292A4838DDA71BBC863ED7613CAF659337A3354231D4FF4A182A54904C2898C
310
98B28C4AD0CE056CCF332A80986E571EE9DBC305BB5FEB7E509220A58D25CF042D712A806AC0AD0C657FDEF80D2D9CEAA2EE4D1C76F60BFE74219A06527D6F82DF6412526107381E55E353090704D085B52408A8913C4ED159D79BDA71BB4BC506F4831350EB6F975CD22D69BF7AC49B91A2C0A9DDA3D5CA36AD20FC478E37
310
E61844E2352865EBCB61A275A65283CAAA9DD27703B4102F5AF51EF5F573B75CBB5AD38BC845F7A49F82A0966A49C2E3EA5EA0ECD326CD965F1DB402C6FA8B51A4658C5C5E2EC9E214602E55810345408596591009A82E7E7FFACA19EEA299B14A0081A705CB3296EBC14CDF658DCD336EA6D1136881AAEB87B81AB9EE53D5
310
F5EB8BC8362082DA24122F98680A4E7930C01A0079749CEA14382A0783E5EBA5A10F8C098456A03D6A4AEB6BB881E2513747552A5DB22C7EDAF83BD5528081A365F7FF06504B0304140006080000CC70623B000000000000000000000000350000006662782F41393633353835312D344632462D344230382D423046372D37
310
39314545314133324237412F76657274696365732E62696E504B0304140006080800CC70623BF270F1330600000004000000360000006662782F41393633353835312D344632462D344230382D423046372D3739314545314133324237412F747269616E676C65732E62696E636660600000504B0304140006080000CC7062
310
3B000000000000000000000000370000006662782F41393633353835312D344632462D344230382D423046372D3739314545314133324237412F617474726962757465732E62696E504B0304140006080800CC70623B08DA0BD19000000041010000360000006662782F41393633353835312D344632462D344230382D4230
310
46372D3739314545314133324237412F6469726563746F72792E786D6C858F410AC3201045AF22B36F53E9A60B35CBEEBAE80D244E44489C6234F4F835464A48035D0DF398FF9F8AF63D0E6CC63039F212F8F9020C7D47C6792B21C5FE7403D62A1188E2E60C98D7234A5830286103A55745067B9D86B8A3CF9C7F90C11DE6
310
07FB144396D7B6A82D282E9A152AD114D5EF2CB866EEE831B8EEA07A7BB5A8D7D61A2BAAEB7FD5F70921FF497D00504B0304140006080800CC70623BEDD1DC58FD000000A00100003B0000006662782F41393633353835312D344632462D344230382D423046372D3739314545314133324237412F7265736F75726365732F
310
636F72652E786D6C8D504B6E833010BD0A9A6D65B00922041947112427E8052C33A156828DFCA97AFC9A40A576D7CDCCE87D344F8F9FBFE667F689CE6B6B3A6039850C8DB2A336530731DC4903D95970676DF82583CCC8193B5861107C72362E3BA4AC096842428D1D7107A5F7182053CF7474E0D507CE32973124857FE48B
310
540F3961CEF244279DE03EB81420DB9EAC1384436FA353E879B1B182C7A8C75DA3C7F453DF353A1075D537A7BA6464B8F535A99AE14A9A2BBD90E350DD183B5CFABE3AF262350B1EF4FC9351399401471025A527C218A1E53BAB5A5AB765F5469B96525EACF23FA6B88CFF34456DC2A1DCE36E360F82A5202F42F062ED2BAD
310
579969AFDD8A6F504B010214000A0000080000CC70623B3DEE336E79000000790000001B00000000000000000000000000000000006175746F6465736B2D64657369676E2D7061636B6167652E786D6C504B01021400140006080800CC70623BD486FD9CA0000000F40000001300000000000000000000000000B20000005B
310
436F6E74656E745F54797065735D2E786D6C504B01021400140006080800CC70623B853B8169EB0000007C010000080000000000000000000000000083010000636F72652E786D6C504B01021400140006080800CC70623B55019EA25F0000007C000000070000000000000000000000000094020000636E782E786D6C504B
310
01021400140006080800CC70623BDBABAAF470010000D40300000C00000000000000000000000000180300006662782F636F72652E786D6C504B01021400140006080800CC70623B9C113CC27E0000009D0000000B00000000000000000000000000B20400006662782F636E782E786D6C504B01021400140006080800CC70
310
623B7DF2F77C2A010000120200003100000000000000000000000000590500006662782F41393633353835312D344632462D344230382D423046372D3739314545314133324237412F636F72652E786D6C504B01021400140006080800CC70623BAD7543B64E010000330300003000000000000000000000000000D2060000
310
6662782F41393633353835312D344632462D344230382D423046372D3739314545314133324237412F636E782E786D6C504B01021400140006080800CC70623BE75B7789680500003C10000034000000000000000000000000006E0800006662782F41393633353835312D344632462D344230382D423046372D3739314545
310
314133324237412F6F626A656374732E786D6C504B01021400140006080000CC70623B0000000000000000000000003500000000000000000000000000280E00006662782F41393633353835312D344632462D344230382D423046372D3739314545314133324237412F76657274696365732E62696E504B01021400140006
310
080800CC70623BF270F133060000000400000036000000000000000000000000007B0E00006662782F41393633353835312D344632462D344230382D423046372D3739314545314133324237412F747269616E676C65732E62696E504B01021400140006080000CC70623B0000000000000000000000003700000000000000
310
000000000000D50E00006662782F41393633353835312D344632462D344230382D423046372D3739314545314133324237412F617474726962757465732E62696E504B01021400140006080800CC70623B08DA0BD1900000004101000036000000000000000000000000002A0F00006662782F41393633353835312D344632
310
462D344230382D423046372D3739314545314133324237412F6469726563746F72792E786D6C504B01021400140006080800CC70623BEDD1DC58FD000000A00100003B000000000000000000000000000E1000006662782F41393633353835312D344632462D344230382D423046372D3739314545314133324237412F7265
310
736F75726365732F636F72652E786D6C504B0506000000000E000E0080040000641100000000
  0
XRECORD
  5
1F8
102
{ACAD_REACTORS
330
1F7
102
}
330
1F7
100
AcDbXrecord
280
     1
 70
     1
 90
429727718
  1
30362254-06B7-45E0-A893-8CFA70E3D6BC
310
504B03040A0000080000CC70623B3DEE336E79000000790000001B0000006175746F6465736B2D64657369676E2D7061636B6167652E786D6C3C3F786D6C2076657273696F6E3D22312E302220656E636F64696E673D227574662D3822203F3E3C666F726D6174733E3C666F726D61743E687474703A2F2F736368656D612E
310
6175746F6465736B2E636F6D2F64657369676E2D7061636B6167652F323030393C2F666F726D61743E3C2F666F726D6174733E504B0304140006080800CC70623BD486FD9CA0000000F4000000130000005B436F6E74656E745F54797065735D2E786D6C7D8EC10E82300C865F65E91D8A1E8C310C0EEA1BF002731658846E
310
D98AC1B77784ABF1D8FE5FBFBF75BBCE937A534CCEB38643598122B6FEE978D0B0485F9C41B54DDD7D022595594E1A469170414C76A4D9A4D207E29CF43ECE46F218070CC6BECC4078ACAA135ACF422C856C0E68EA1BF5669944DDD7BCDE7B1F8E415D77AECB980613C2E4AC91FC167A2B244592486606FC29C8FD7F045B9A
310
EF7053A7E60B504B0304140006080800CC70623B1EC5D7A3EB0000007C01000008000000636F72652E786D6C8D90416EC3201045AF82665B6103C6756C6122AB4D4ED00B204C5C94182C03558F5F9C3852BBEB6A467FFE9B197D71FC9E6FE8CBACC17AD7032D0820E3B41FAD9B7A48F1820F808E52ACDEC75F36404ECDA687
310
4D0629A6D5A76597B477D1B89855E747B38B2A041301E95B6E7A08FAD3CCAA50296647B8168BD2573599823EBB0CA76447F43862C7BCCF5EAC59410E4DDD9C7973C2755553CCCFA4C603E3040F1565ED3B1FDE4E432BCA0D9622DAF9795FAF464533826484B498524CD807E51D79ED187F21878E10516EF63F505AC67F42C9
310
BA58B1FDDD071640D2FCC87D2045B96591CB3DA85CB7DCE40F504B0304140006080800CC70623B55019EA25F0000007C00000007000000636E782E786D6C4DCB3B0E80201045D1AD90E915ED2CF8AC45050C11660C8261F98AB1B07AC9C97D42D718D865D3E909258CFD00CCE24AC6E326A164D74DC0B4128928FF32603847
310
2BA13128B1252AC747C6BAB984FC68F0B87FE8960A5C09FE86CFB69FBA01504B0304140006080800CC70623B8C9102E971010000D40300000C0000006662782F636F72652E786D6CC5535B6E833010BC8AE5DF0A6C08340F1947A84D4ED00B38C6A128602363A31CBFCB234A53A551FA553EC09AD9F5CE8C31DB9E9B1AF5CA
310
7695D1198E428A91D2D214952E33ECDD315861B4E5CC1AE3BE9561A445A3323CC098B3D21ADFCE9034DA29ED00D5A6503328BA4E398C640D8B0C77F253352214DE4145770A5B214FA2546114020D759C75CE8200340D19DE981F0F6746269C33EFAB6266AB02A655C74A59CCF365BADC27CB5D902ED22848F6340DF238A141
310
BE88E2F57B92BFEDF23523433367AE6A2EEAA455C2A902F398D2751045018D3FA264435F3771F242571B4A1919CA6F9A7C5B3CD9E42BED16F12C776AEB308F40C848FC700B1139D4891EF410CEC810227CC6846F8386402064270EF5C5C709A05E49676C024C61FC95EA45ED154CA5211D1FF4FB8291A913A68E9B83EBBB33
310
E2A7673CDE118E5AE8124C0807CB8377834E366998436B950D7A7746DAD846D4CFD978E0F04FD455FC5D49D2D4C6FE9722321F10997F0F32DC47FE05504B0304140006080800CC70623BFFEA85907E0000009D0000000B0000006662782F636E782E786D6C4DCCD10A83201886E15B91FFDC95D95A811AB6F23E625948A6C3
310
E9D8E5AF46073BFAE0E1E365ED67B3E8ADC3CB78C7815C7240DA3DFC64DCC221C519D7805AC182F7F1EF06C88D9BE6703008B6049F9E274D7A1E938DBB5AE3D6131B2589BA0D3D965551E0B2EA732C9B9A624AAEB41E3A557677029960D9AFB4EF11165F504B0304140006080800CC70623B4FEEA4082C0100001202000031
310
0000006662782F39464131463745442D413632322D343644302D413938332D3331353338454246344243312F636F72652E786D6C8D515B6EC32010BC0AE2AB55850DD871ED0813254D72825EC00192A2C460F1A872FC42ED48ED5F7E00CDCECCCEB26C731F6FE05B39AFADE921293004CA082BB5B9F43086336A21D870E6AC
310
0D7F68109861543DCC30E4ECE26C9C164858139409093556AA051CBC570102714B8F1E7AF1A5C6A11862480C7F2DA6415C878B2A4891CA89C7990F2E050073937C42DE1DB7E4F87ED8A36D4329AA9B3D46DBAEAD504556557BD81DEBDD0761E52CE42C462D17B996298E3E6BE59E35C962CE821E1FF18553435012728A7187
310
0841987E927A8D9B35ADDF70BBC6989599FE4F1427F9A4286A132ABAC49D651EF234CD5CE04CDA78BA3DC2A8FB645D00B9DF8B57E215725C60BCA2A463E54C4CE327C7A65E1C7DB02E7DEFCBF594B864C5CA6CDBD49C957943E9FA5D5FBAF336F90F504B0304140006080800CC70623BAD7543B64E01000033030000300000
310
006662782F39464131463745442D413632322D343644302D413938332D3331353338454246344243312F636E782E786D6CD593CD6EC32010845F0571AD6CE3D48AD20813A9873E410FBD12D82434182C7EAAE6EDBB2424CD25871E7B41D6EC30B3FA84F9E67BB2E40B4234DE8DB46F1925E094D7C6ED479AD3AE5951B2113C
310
789FEE6C943839C1488B4C05DF079FE72A69D8C96C13AAD6B8631503449F83828872B949AC57D26200B826A308D316B4064D6E46FCDA41C05550DC9E483A00797BFD207EFB092A45DE9514C1BBD22178396BD39D891265658C238DEA00936C654E5E433CB65A26D9F6EDB5EBC14EBF49A45CB856E66048291F6939A9A81BB5
310
C8917738143CA680F4AA299D66A042CEB3354A2684DC9D8D178FE0D9B8B41CAAD720F880EE7EF93C0C18769E099ECC04D5A102C8049A8A05632F4DDF376CF1DE0F6BB65C2F8627B65A33C6BB62177CEBBDAD973006829F89F22E814B54F4BC2BE347F8AA8F681390B50FA73F804400B5F542E796F19FF974E7F78DB802FE05
310
E207504B0304140006080800CC70623B16AB87BA640500003C100000340000006662782F39464131463745442D413632322D343644302D413938332D3331353338454246344243312F6F626A656374732E786D6CAD575B6FA33818FD2B887DE6924B3BED8A326A92B68A663B534DD4D13E548A0C38942D60649B369D5FBFC7
310
600890A493BDE42160637FD7F31D7FF63E6FB3D478A55C242CBF3247B66B1A340F5994E4F19559CA8D75611A9F7D8F33263BCB4C232719BD32D5B4E97B316765A1A722BA21652A07B3B7B33F0D11D29C9A46981221AE4C113ED38CD8A4942CA2E2C58E882476BCD9DA23BB5ED8171B73523C0F841684D35CC252CCE79062D4
310
468DFA43D7747CCF51DF7D4FFDEB5593E3AB9CCA9FBEFE241792E4E19EB28198C968BAB8199F5D5A67D3E9C49A9E8F47D6EC76B6B0469F26EEFC7C3EBFBCBEB98462213924694B38DD98FE1D62C393D073EA4FADC5DAF04326852CCF6958F90F0F2B9BB5C48816348F90C7840A68EB78EDF68723159BCEE7891A6B95DDE9D3
310
BCEAEEE8086A6C6F9E5D4B59F0175C10A7A0820BAA5055C7473B5AE3CFDD452D602CD5DF12616444529E90D448938013FE6EFA58AA96F85E4F8C42275708571E98FE6827AF6B2B4AE3D7D83D64E5A64C53054DD3AF90BD06FEA9149565C94FCA0F6B834DC85599E4F2423B24DF0B6AFA979E534DFA9E7A4CC6FA631D486393
310
921829879BF5D781A373557BCB85E97FB90DB62B558F8795179C15944B051F40AB495CF35451D26A4727654E6D8033BD98EF82F21D91FF8AF2DD9982BCF1643BDD4EB516C9492E368C67C88DED563FC36D5EACF66DFF057C3658BDBFA69DF9578B3DA735B64F18C7F20770A9D45CFCF7FCF563D6456A277DBEF78A02637CA2
310
43B90A490AEAB94F72244481D24819A6C0E59B606BFA4B3025981DBB48EAB701D97BF19C577CC77F2D1B6C55A9EF3C732474C0B727303F625995056C3B02963D9EAC146BE78EC5FCEC7FA999EBC5EACBAAE41B12D27B4D2C0BBA49F244E2ECDC81B76B502F113D8F5EE8FB1BE3111CDD4FC2AA9B844CAB1288B68AB90A7CDC
310
1C166AB0D3DC5310625FCC14E779BFD0709F8890A629C9292B1B2DED31A4B0DA928CEE135085754027E3018A397D4D5427D15BD1330B677DC8934285AC3DF45A9EB68FF8F2B8FC0A509AFEECFD0FF2DE25CC6047F7214B195F07EFEB9A094D800F7BFAE8FED187B78EA8A3A400F115961BCAD1215E47C966530AF0EE8128FE
310
58CEBB996A8964FFA529A046635D9353B0336A8F700DDF46271A024E70B0B37C9DE01847591E54DED53D54202AB947E4076556AC49C6CA5C9E1226B7F1A7B1BE15DEED62C41B91E1B3E9AFAAA735036547343A925075041DF0A9979E893B391F8FCFA6967B3EFB644DCF6E5CEBFAE272625DCC6FAF3FB93793C5F90CE1EF57
310
407342756B10D1C489E8953CD1617E5CEECAD6F4EF8914CE5D5D504E5C3F1F9736DA62CFC11E00BCDDB8CC8A9466349744C1F75EBDA4DF09BA8A9E8C7A7E9991989E20E5DBDD6A6003664ED8F7A04A8DBE0DF6EAD9B9AA858342E47399053949D2C146EDB85DE4B176BB0965FBAC19BD19AA918E27FA50C1D22402E144464C
310
59462568E704B6E71915404CB72B8FF4EDE184DDAF753F284990D2C6926782963815403548A70C657FDEF80D2D9CEAA2AE4C1C76F60BFE74219A06527D6582DF6412526107381E55E353090704D085B52408D0933C4ED159D79BDA71BB4BC506F4831350EB6F979CD22D69BF7AC49B91A2C0A9DDA3D5CA36AD20FC478E37E6
310
1844E2352865EBCB6EA275A652E3836BE04EFB400BF1A2556F515F1FBB35B2AB35BD889C744FFA1004B5544B121E57F70215746DD2F5E2C1412B602CBF19455AC6C8E5E9922C4E01E65215385004546899059180EAFCF7A707CE7017CD8CDB0410789AB32C63B91E5CEBBBACB17AC6CD347A022D5075FD106377347AAABA7E
310
7D11590744509B44E205134DC1290F06580320F78E537D3D73540E06CB970B431F185308AD40BBD794D6D77003C5A36E8EAA54BA64597CD8F83BD552A080A365F7FF06504B0304140006080000CC70623B000000000000000000000000350000006662782F39464131463745442D413632322D343644302D413938332D3331
310
353338454246344243312F76657274696365732E62696E504B0304140006080800CC70623BF270F1330600000004000000360000006662782F39464131463745442D413632322D343644302D413938332D3331353338454246344243312F747269616E676C65732E62696E636660600000504B0304140006080000CC70623B
310
000000000000000000000000370000006662782F39464131463745442D413632322D343644302D413938332D3331353338454246344243312F617474726962757465732E62696E504B0304140006080800CC70623B08DA0BD19000000041010000360000006662782F39464131463745442D413632322D343644302D413938
310
332D3331353338454246344243312F6469726563746F72792E786D6C858F410AC3201045AF22B36F53E9A60B35CBEEBAE80D244E44489C6234F4F835464A48035D0DF398FF9F8AF63D0E6CC63039F212F8F9020C7D47C6792B21C5FE7403D62A1188E2E60C98D7234A5830286103A55745067B9D86B8A3CF9C7F90C11DE607
310
FB144396D7B6A82D282E9A152AD114D5EF2CB866EEE831B8EEA07A7BB5A8D7D61A2BAAEB7FD5F70921FF497D00504B0304140006080800CC70623B0D6EF93BFE000000A00100003B0000006662782F39464131463745442D413632322D343644302D413938332D3331353338454246344243312F7265736F75726365732F63
310
6F72652E786D6C8D50596E833010BD0A9ADFCA60B334011947A8694ED00B586642AC041B79A97AFC9A40A5F6AF3F33A3B7689E1E3F7DCD8FEC139DD7D6F4C0720A191A65476DA61E62B892236427C19DB5E1970C322367EC618541F0C9D9B8EC90B226A009093576C41D94DE63804C3DD2D18357379C652E63480A7FCF17A9
310
EE72C29CE5894E3AC17D702940B63D59270887DE46A7D0F36263058F518FBB468FE9A7BE6A7420864373B8D4873369AA8691FA421B3294352543C5CAF65C0F6FEF43CB8BD52C78D0F34F46E550061C419494B6843142CB0F5677F4B52BEB177AEC28E5C52AFF638ACBF84F53D42654E51E77B379102C05791282176B5F693D
310
CB4C7BED567C03504B010214000A0000080000CC70623B3DEE336E79000000790000001B00000000000000000000000000000000006175746F6465736B2D64657369676E2D7061636B6167652E786D6C504B01021400140006080800CC70623BD486FD9CA0000000F40000001300000000000000000000000000B20000005B
310
436F6E74656E745F54797065735D2E786D6C504B01021400140006080800CC70623B1EC5D7A3EB0000007C010000080000000000000000000000000083010000636F72652E786D6C504B01021400140006080800CC70623B55019EA25F0000007C000000070000000000000000000000000094020000636E782E786D6C504B
310
01021400140006080800CC70623B8C9102E971010000D40300000C00000000000000000000000000180300006662782F636F72652E786D6C504B01021400140006080800CC70623BFFEA85907E0000009D0000000B00000000000000000000000000B30400006662782F636E782E786D6C504B01021400140006080800CC70
310
623B4FEEA4082C0100001202000031000000000000000000000000005A0500006662782F39464131463745442D413632322D343644302D413938332D3331353338454246344243312F636F72652E786D6C504B01021400140006080800CC70623BAD7543B64E010000330300003000000000000000000000000000D5060000
310
6662782F39464131463745442D413632322D343644302D413938332D3331353338454246344243312F636E782E786D6C504B01021400140006080800CC70623B16AB87BA640500003C1000003400000000000000000000000000710800006662782F39464131463745442D413632322D343644302D413938332D3331353338
310
454246344243312F6F626A656374732E786D6C504B01021400140006080000CC70623B0000000000000000000000003500000000000000000000000000270E00006662782F39464131463745442D413632322D343644302D413938332D3331353338454246344243312F76657274696365732E62696E504B01021400140006
310
080800CC70623BF270F133060000000400000036000000000000000000000000007A0E00006662782F39464131463745442D413632322D343644302D413938332D3331353338454246344243312F747269616E676C65732E62696E504B01021400140006080000CC70623B0000000000000000000000003700000000000000
310
000000000000D40E00006662782F39464131463745442D413632322D343644302D413938332D3331353338454246344243312F617474726962757465732E62696E504B01021400140006080800CC70623B08DA0BD190000000410100003600000000000000000000000000290F00006662782F39464131463745442D413632
310
322D343644302D413938332D3331353338454246344243312F6469726563746F72792E786D6C504B01021400140006080800CC70623B0D6EF93BFE000000A00100003B000000000000000000000000000D1000006662782F39464131463745442D413632322D343644302D413938332D3331353338454246344243312F7265
310
736F75726365732F636F72652E786D6C504B0506000000000E000E0080040000641100000000
  0
XRECORD
  5
175
102
{ACAD_REACTORS
330
173
102
}
330
173
100
AcDbXrecord
280
     1
270
     1
271
     1
  0
XRECORD
  5
174
102
{ACAD_REACTORS
330
173
102
}
330
173
100
AcDbXrecord
280
     1
270
     1
271
     1
  0
XRECORD
  5
1FB
102
{ACAD_REACTORS
330
173
102
}
330
173
100
AcDbXrecord
280
     1
 70
     0
 90
1673772943
  1
ECE7A1D2-D628-4531-984C-D00F80459256
310
504B03040A0000080000CC70623B3DEE336E79000000790000001B0000006175746F6465736B2D64657369676E2D7061636B6167652E786D6C3C3F786D6C2076657273696F6E3D22312E302220656E636F64696E673D227574662D3822203F3E3C666F726D6174733E3C666F726D61743E687474703A2F2F736368656D612E
310
6175746F6465736B2E636F6D2F64657369676E2D7061636B6167652F323030393C2F666F726D61743E3C2F666F726D6174733E504B0304140006080800CC70623BD486FD9CA0000000F4000000130000005B436F6E74656E745F54797065735D2E786D6C7D8EC10E82300C865F65E91D8A1E8C310C0EEA1BF002731658846E
310
D98AC1B77784ABF1D8FE5FBFBF75BBCE937A534CCEB38643598122B6FEE978D0B0485F9C41B54DDD7D022595594E1A469170414C76A4D9A4D207E29CF43ECE46F218070CC6BECC4078ACAA135ACF422C856C0E68EA1BF5669944DDD7BCDE7B1F8E415D77AECB980613C2E4AC91FC167A2B244592486606FC29C8FD7F045B9A
310
EF7053A7E60B504B0304140006080800CC70623BD9DDAED0EC0000007C01000008000000636F72652E786D6C8D90416EC3201045AF82665B61836D9CD8C2444DD39CA01740405C94182C03558F5F9C3852BBEB6A467FFE9B197D7EF89E6EE8CB2CC17A37002D0820E394D7D68D03A478C17B4007C117EFE32F1B20272733C0
310
2A83E0E3E2D3BC49CABB685CCCAAF3DA6CA20CC14440EA969B0182FA34932C648AD911AEC52CD5558EA6A0CF2EC329598D1E47ACCEFBECC59A050463A7EA5833865FEBDD0E37353BE3EE8DBDE3F6786A48D375FBF6CC78B9C282473B3DEFABC5C86834888A900E538A49F5419B9EB47DD5BC907D4F082F57FB1F28CDFA9F50
310
B22ED6D5F6EE030B20687EE43E10BC5CB3C8E51E54AE6B6EE207504B0304140006080800CC70623B55019EA25F0000007C00000007000000636E782E786D6C4DCB3B0E80201045D1AD90E915ED2CF8AC45050C11660C8261F98AB1B07AC9C97D42D718D865D3E909258CFD00CCE24AC6E326A164D74DC0B4128928FF326038
310
472BA13128B1252AC747C6BAB984FC68F0B87FE8960A5C09FE86CFB69FBA01504B0304140006080800CC70623BA24EB22D72010000D40300000C0000006662782F636F72652E786D6CC5535B6E833010BC8AE5DF0A6C5E49888CA3A6694ED00B38E05014B091B1518EDFE511A5A9D228FD2A1F60CDEC7A67C6986DCE4D8D7A
310
69BA4AAB0C073EC548AA5C17952A33ECECD15B61B4E1CC686DBF9561A44423333CC098B3D268D7CE50AE9595CA02AA74216750749DB418E5352C32DCE59FB211BE70162ABA93DF8AFC244AE9073ED050C759670D0840D390E18DF9F1706664C23973AE2A66B62A605A75ACA4C13C4976E1364A12EF355A2EBD384AF65EFA96
310
BC7B8BED2EA6719AAE16FB8491A199335B351775B991C2CA02F390D2D40B028F861F41BCA68B7518BFD0D59A524686F29B26D7164F36B94AD9289CE54E6D1DE6010819891F6E21228B3AD1831EC219194284CF98F06DD01008846CC5A1BEF83801D4CBDC6A1303536877A57A513B0953A94FC707FDBE6064EA84A9E3E6E0FA
310
EE8CF0E9198F7784A316AA0413C2C2F2E0ECA0934D1AE6D05A69BCDE9E91D2A611F573361E38FC1375157F5752AE6B6DFE4B11990F88CCBF0719EE23FF02504B0304140006080800CC70623B408A7D3B7C0000009D0000000B0000006662782F636E782E786D6C4DCCD10A83201886E15B91FFDC552A92A0064DBC8F581632
310
D3703A76F9ABD1C18E3E78F878E5F0D9027ABBFCF2292AE86E2D20171F69F6715550CB827B40839639A5F2770314A7CD293819B45C73AAFB45B35BA61ACAA1C1C7E7855C58C15BC331339661262CC762340413D68D77DA5B42298546CBE6573AF60CEB2F504B0304140006080800CC70623B449FB9BD290100001202000031
310
0000006662782F36394639363044362D344446342D343946362D394244322D3234314243333846323333332F636F72652E786D6C8D515B6EC32010BC0AE22B55850D98B871848994463E412FE002495162B07854397EA176A4F62F3F2C9A9D991D587EB84F37F0AD7D30CEF6905418026DA553C65E7A98E219ED203808EE9D
310
8B7F6810D871D23D2C3014FCE25D9A57483A1BB58D19B54EE9151C43D0110279CB971E06F9A5A7B11A53CC8C70ADE6515EC78BAE4895DB992778883E0700CB907242D17643D7E2538BD869608875438BBAE38922CAC8F1BDD90DB4691A5E2F42C153326A951B95E398B3D1FE599322163C9AE9115F7A3D46ADA0A018778810
310
84E907617BDCEE297BC5BB3DC6BC2EF47FA234AB2745C9D8D8D035EE220B50105E2F0DC1954B9FB747187D9F9D8FA0CCDB042D5FA0C015C65B42DF78BD10F3F3B363CB56C7109DCFDFBBB97E662ED92EB62D13BC2E1BCAE5777DB9966D8A1F504B0304140006080800CC70623BAD7543B64E01000033030000300000006662
310
782F36394639363044362D344446342D343946362D394244322D3234314243333846323333332F636E782E786D6CD593CD6EC32010845F0571AD6CE3D48AD20813A9873E410FBD12D82434182C7EAAE6EDBB2424CD25871E7B41D6EC30B3FA84F9E67BB2E40B4234DE8DB46F1925E094D7C6ED479AD3AE5951B2113C789FEE
310
6C943839C1488B4C05DF079FE72A69D8C96C13AAD6B8631503449F83828872B949AC57D26200B826A308D316B4064D6E46FCDA41C05550DC9E483A00797BFD207EFB092A45DE9514C1BBD22178396BD39D891265658C238DEA00936C654E5E433CB65A26D9F6EDB5EBC14EBF49A45CB856E66048291F6939A9A81BB5C89177
310
38143CA680F4AA299D66A042CEB3354A2684DC9D8D178FE0D9B8B41CAAD720F880EE7EF93C0C18769E099ECC04D5A102C8049A8A05632F4DDF376CF1DE0F6BB65C2F8627B65A33C6BB62177CEBBDAD973006829F89F22E814B54F4BC2BE347F8AA8F681390B50FA73F804400B5F542E796F19FF974E7F78DB802FE05E20750
310
4B0304140006080800CC70623B8D05915C650500003B100000340000006662782F36394639363044362D344446342D343946362D394244322D3234314243333846323333332F6F626A656374732E786D6CAD575B6FA33814FE2B887D06429276DA1565D4266D158D3A339A6846FB502932E050B66023DB74D2FDF5FB190C01
310
9276B2973C046C8ECFF53B17071F77456EBD502133CEAE6CDF9DD81665314F32965ED995DA3A17B6F5310C04E7AA47665B8C14F4CAD6DB7618A48257A5D94AE89654B91AEDDEDDFC61C998326A5B714EA4BCB265FC440BE2924AF184CA6737218AB8E976E7FA6E4338649B0A523E8D98964450A6A029F619B8588D52FE7039
310
B1BD30F0F4F730D0FF866AF6369557DB33949F31A9088B0F848DD8CCFCF9F2767A76E99CCDE733677E3EF59D9BBB9BA5E37F984D16E78BC5E5F5ED25044B25C0C96822E8D60EEFE11B91C581D77CEA34368A1F5329E68CD1B8B61F16D63A1B8E092D294B10C78C4A48EB593D192E7DED9BDEE7995E1B91FDEDD3ACEA9FE831
310
6A756F9F7D4D79F4274C90A7A04248AA51D5F8C718DAE06FB2F75AC4796EBE65D22A88A22223B995679120E2D50E41AA49C260C046A35368846B0BECD0DFF3EBEB8AD4F835768F69B9ADF25C43D30E6B646F807FAA64AD59F61715C7A54127C4AACA98BA3006A9D792DAE165E0D59B61A01FB3A9F9D838D2DAE62445C86166
310
F37564E842E7DE6A69879FEEA2DD5AE7E371E1A5E025154AC307D06A03D73EB5978C58FFA4C8E9033066E0F3BD53BEC1F39F91BE7B55103791EDE6BBB991A2046172CB4581D8B893FA674DDA17A77B3B7C413D1B511FD2743BFF8A38F03A658705E3ADF8015C3A3417FF3D7E439FF591DA0B5F18BC20C1B8981957AE6392A3
310
F43C640C01D1A0B4728E2DD4F26DB4B3C3152A252A3B4E913CEC1C72F012782FF88EFF8637AA552DBEF76408E8A8DE9E50F9E1CB3A2DA0DB1B6039A893B56063DC5B3E3FFB5F72E67AB9FEB4AEC496C4F4C1149625DD662C53E89D7BF0F6151A046260D1337DFDC94502430F83B0EE07A130A224BCAD7DAE1D9FB6CD422FF6
310
920702629C4BB9AE79C12F243C6432A6794E18E5552BA56B431AAB5D91317302B2B071E86C3A42B1A02F999E24061403B5D0EB639195DA655DD3EBEAB4FB862DDF579F014AD0E73C22F99E28DA57FB98E75C6CA2D74D53086D600F4786E0FE3144B771A8A7B900F03594DB8A633CBC49B2EDB69228BB479CF863B5E807AAAB
310
23872F6DFEB4129B949CA33823F58830E86D65621E10047D9DB34D862E8EAC3C2ABC2F7B2C40D67CDFE01F5545B92105AF983AC54D93D69E56FB8E797F88913F898A9FEC705D3F9D1B54EC8426FB500D40A03BD0119B06E1B95DDC7EB8F6975367793EBD70E66733DFB9BC982F9CE564727731999F5D4ECFCE3B8D6A4DC2A0
310
6D50FD148437D110834A64C6CDDF57FBACB5C307A2A477DFE4939736CFEF2B175371E0E10CF0DD1D5C15654E0BCA14D1E87DD02FF93782A162C0A3D95F1524A52770F972BF1EE9809D13CE7DD599467F8ECE9ADD85CE85A34CD45355448C64F9E8A031DC2D596ACC6E5DD93D9B82DE2EF5CAF81363A8E47996A0DE24564A79
310
4115AACE09C55E14540231FDA13C319787134EBF34E3A022514E5B4D9E0826E25C02D5805B15ABE1BEF51B26383D445DD9E875EE33FE4C22DA16427D65A3BCA92CA6D28DD01DF5DC53330704308475351050232CCD31583787BA75774AFB06E5070DD0C8EF484E19968C5D83BA5B90B244D31E54D55A372320FE4786B7EA58
310
44E135AA5467CB7EA333A61683CC6A8C3257034C10CF46F40EF9F5BE59BE5BD30C3C72D235E95D10345C1D45445A5F0BB47E46A5EBE5570F9380B5FA629579952296A773720405982B9DE04011506178964401AA8BDF1FBF0A8EAB6861DD6580C0E38217056766716DAEB2D6FA0917D3E4116581EADB879C4E7CFFB11EFACD
310
3D641311495D92C8676CB409A72D18610D803CE8A626049E8EC1887CB5B44CC39883690DDA8399B4B9855B481E7D71D4A9D22F96E5BB73BF5793020C02137BF837504B0304140006080000CC70623B000000000000000000000000350000006662782F36394639363044362D344446342D343946362D394244322D32343142
310
43333846323333332F76657274696365732E62696E504B0304140006080800CC70623BF270F1330600000004000000360000006662782F36394639363044362D344446342D343946362D394244322D3234314243333846323333332F747269616E676C65732E62696E636660600000504B0304140006080000CC70623B0000
310
00000000000000000000370000006662782F36394639363044362D344446342D343946362D394244322D3234314243333846323333332F617474726962757465732E62696E504B0304140006080800CC70623B08DA0BD19000000041010000360000006662782F36394639363044362D344446342D343946362D394244322D
310
3234314243333846323333332F6469726563746F72792E786D6C858F410AC3201045AF22B36F53E9A60B35CBEEBAE80D244E44489C6234F4F835464A48035D0DF398FF9F8AF63D0E6CC63039F212F8F9020C7D47C6792B21C5FE7403D62A1188E2E60C98D7234A5830286103A55745067B9D86B8A3CF9C7F90C11DE607FB14
310
4396D7B6A82D282E9A152AD114D5EF2CB866EEE831B8EEA07A7BB5A8D7D61A2BAAEB7FD5F70921FF497D00504B0304140006080800CC70623BCA768048FE000000A00100003B0000006662782F36394639363044362D344446342D343946362D394244322D3234314243333846323333332F7265736F75726365732F636F72
310
652E786D6C8D50596E833010BD0A9ADFCA60D600328E9AA639412F609909B1126CE4A5EAF16B0295DABFFECC8CDEA2797AECF8353F924FB44E193D409E5248504B332A3D0D10FC95B4901C39B3C6F85F3248B49871801506CE266BC2B243D2688FDA47549B11775038871E12F988C7004EDE7016A9083E2ADC3D5D84BC8B09
310
D33C8D74D471E6BC8D0192EDC93A815B742658898E651BCB59086ADC356A8C3FD555A1055ED7E7E254D615792D0F075295F585746FF53B694EE78A565DD736979A65AB9933AFE69F8CD2A2F038022F28ED489E135A7CE4554F9BBEA85E68DB53CAB255FEC71496F19FA6A0B42F8B3DEE6673C0F318E4497096AD7DC5F52C33
310
EEB55BFE0D504B010214000A0000080000CC70623B3DEE336E79000000790000001B00000000000000000000000000000000006175746F6465736B2D64657369676E2D7061636B6167652E786D6C504B01021400140006080800CC70623BD486FD9CA0000000F40000001300000000000000000000000000B20000005B436F
310
6E74656E745F54797065735D2E786D6C504B01021400140006080800CC70623BD9DDAED0EC0000007C010000080000000000000000000000000083010000636F72652E786D6C504B01021400140006080800CC70623B55019EA25F0000007C000000070000000000000000000000000095020000636E782E786D6C504B0102
310
1400140006080800CC70623BA24EB22D72010000D40300000C00000000000000000000000000190300006662782F636F72652E786D6C504B01021400140006080800CC70623B408A7D3B7C0000009D0000000B00000000000000000000000000B50400006662782F636E782E786D6C504B01021400140006080800CC70623B
310
449FB9BD290100001202000031000000000000000000000000005A0500006662782F36394639363044362D344446342D343946362D394244322D3234314243333846323333332F636F72652E786D6C504B01021400140006080800CC70623BAD7543B64E010000330300003000000000000000000000000000D20600006662
310
782F36394639363044362D344446342D343946362D394244322D3234314243333846323333332F636E782E786D6C504B01021400140006080800CC70623B8D05915C650500003B10000034000000000000000000000000006E0800006662782F36394639363044362D344446342D343946362D394244322D32343142433338
310
46323333332F6F626A656374732E786D6C504B01021400140006080000CC70623B0000000000000000000000003500000000000000000000000000250E00006662782F36394639363044362D344446342D343946362D394244322D3234314243333846323333332F76657274696365732E62696E504B010214001400060808
310
00CC70623BF270F13306000000040000003600000000000000000000000000780E00006662782F36394639363044362D344446342D343946362D394244322D3234314243333846323333332F747269616E676C65732E62696E504B01021400140006080000CC70623B00000000000000000000000037000000000000000000
310
00000000D20E00006662782F36394639363044362D344446342D343946362D394244322D3234314243333846323333332F617474726962757465732E62696E504B01021400140006080800CC70623B08DA0BD190000000410100003600000000000000000000000000270F00006662782F36394639363044362D344446342D
310
343946362D394244322D3234314243333846323333332F6469726563746F72792E786D6C504B01021400140006080800CC70623BCA768048FE000000A00100003B000000000000000000000000000B1000006662782F36394639363044362D344446342D343946362D394244322D3234314243333846323333332F7265736F
310
75726365732F636F72652E786D6C504B0506000000000E000E0080040000621100000000
  0
XRECORD
  5
176
102
{ACAD_REACTORS
330
173
102
}
330
173
100
AcDbXrecord
280
     1
270
     1
271
     1
  0
XRECORD
  5
177
102
{ACAD_REACTORS
330
173
102
}
330
173
100
AcDbXrecord
280
     1
270
     1
271
     1
  0
XRECORD
  5
2C0
102
{ACAD_REACTORS
330
2BF
102
}
330
2BF
100
AcDbXrecord
280
     1
102
DISPLAYNAME
  1
Metric50
102
FLAGS
 90
        0
  0
CELLSTYLEMAP
  5
285
102
{ACAD_REACTORS
330
162
102
}
330
162
100
AcDbCellStyleMap
 90
        3
300
CELLSTYLE
  1
TABLEFORMAT_BEGIN
 90
        5
170
     1
 91
        0
 92
    32768
 62
   257
 93
        1
300
CONTENTFORMAT
  1
CONTENTFORMAT_BEGIN
 90
        0
 91
        0
 92
      512
 93
        0
300

 40
0.0
140
1.0
 94
        5
 62
     0
340
11
144
6.0
309
CONTENTFORMAT_END
171
     1
301
MARGIN
  1
CELLMARGIN_BEGIN
 40
1.5
 40
1.5
 40
1.5
 40
1.5
 40
4.5
 40
4.5
309
CELLMARGIN_END
 94
        6
 95
        1
302
GRIDFORMAT
  1
GRIDFORMAT_BEGIN
 90
        0
 91
        1
 62
     0
 92
       -2
340
14
 93
        0
 40
1.125
309
GRIDFORMAT_END
 95
        2
302
GRIDFORMAT
  1
GRIDFORMAT_BEGIN
 90
        0
 91
        1
 62
     0
 92
       -2
340
14
 93
        0
 40
1.125
309
GRIDFORMAT_END
 95
        4
302
GRIDFORMAT
  1
GRIDFORMAT_BEGIN
 90
        0
 91
        1
 62
     0
 92
       -2
340
14
 93
        0
 40
1.125
309
GRIDFORMAT_END
 95
        8
302
GRIDFORMAT
  1
GRIDFORMAT_BEGIN
 90
        0
 91
        1
 62
     0
 92
       -2
340
14
 93
        0
 40
1.125
309
GRIDFORMAT_END
 95
       16
302
GRIDFORMAT
  1
GRIDFORMAT_BEGIN
 90
        0
 91
        1
 62
     0
 92
       -2
340
14
 93
        0
 40
1.125
309
GRIDFORMAT_END
 95
       32
302
GRIDFORMAT
  1
GRIDFORMAT_BEGIN
 90
        0
 91
        1
 62
     0
 92
       -2
340
14
 93
        0
 40
1.125
309
GRIDFORMAT_END
309
TABLEFORMAT_END
  1
CELLSTYLE_BEGIN
 90
        1
 91
        1
300
_TITLE
309
CELLSTYLE_END
300
CELLSTYLE
  1
TABLEFORMAT_BEGIN
 90
        5
170
     1
 91
        0
 92
        0
 62
   257
 93
        1
300
CONTENTFORMAT
  1
CONTENTFORMAT_BEGIN
 90
        0
 91
        0
 92
      512
 93
        0
300

 40
0.0
140
1.0
 94
        5
 62
     0
340
11
144
4.5
309
CONTENTFORMAT_END
171
     1
301
MARGIN
  1
CELLMARGIN_BEGIN
 40
1.5
 40
1.5
 40
1.5
 40
1.5
 40
4.5
 40
4.5
309
CELLMARGIN_END
 94
        6
 95
        1
302
GRIDFORMAT
  1
GRIDFORMAT_BEGIN
 90
        0
 91
        1
 62
     0
 92
       -2
340
14
 93
        0
 40
1.125
309
GRIDFORMAT_END
 95
        2
302
GRIDFORMAT
  1
GRIDFORMAT_BEGIN
 90
        0
 91
        1
 62
     0
 92
       -2
340
14
 93
        0
 40
1.125
309
GRIDFORMAT_END
 95
        4
302
GRIDFORMAT
  1
GRIDFORMAT_BEGIN
 90
        0
 91
        1
 62
     0
 92
       -2
340
14
 93
        0
 40
1.125
309
GRIDFORMAT_END
 95
        8
302
GRIDFORMAT
  1
GRIDFORMAT_BEGIN
 90
        0
 91
        1
 62
     0
 92
       -2
340
14
 93
        0
 40
1.125
309
GRIDFORMAT_END
 95
       16
302
GRIDFORMAT
  1
GRIDFORMAT_BEGIN
 90
        0
 91
        1
 62
     0
 92
       -2
340
14
 93
        0
 40
1.125
309
GRIDFORMAT_END
 95
       32
302
GRIDFORMAT
  1
GRIDFORMAT_BEGIN
 90
        0
 91
        1
 62
     0
 92
       -2
340
14
 93
        0
 40
1.125
309
GRIDFORMAT_END
309
TABLEFORMAT_END
  1
CELLSTYLE_BEGIN
 90
        2
 91
        1
300
_HEADER
309
CELLSTYLE_END
300
CELLSTYLE
  1
TABLEFORMAT_BEGIN
 90
        5
170
     1
 91
        0
 92
        0
 62
   257
 93
        1
300
CONTENTFORMAT
  1
CONTENTFORMAT_BEGIN
 90
        0
 91
        0
 92
      512
 93
        0
300

 40
0.0
140
1.0
 94
        2
 62
     0
340
11
144
4.5
309
CONTENTFORMAT_END
171
     1
301
MARGIN
  1
CELLMARGIN_BEGIN
 40
1.5
 40
1.5
 40
1.5
 40
1.5
 40
4.5
 40
4.5
309
CELLMARGIN_END
 94
        6
 95
        1
302
GRIDFORMAT
  1
GRIDFORMAT_BEGIN
 90
        0
 91
        1
 62
     0
 92
       -2
340
14
 93
        0
 40
1.125
309
GRIDFORMAT_END
 95
        2
302
GRIDFORMAT
  1
GRIDFORMAT_BEGIN
 90
        0
 91
        1
 62
     0
 92
       -2
340
14
 93
        0
 40
1.125
309
GRIDFORMAT_END
 95
        4
302
GRIDFORMAT
  1
GRIDFORMAT_BEGIN
 90
        0
 91
        1
 62
     0
 92
       -2
340
14
 93
        0
 40
1.125
309
GRIDFORMAT_END
 95
        8
302
GRIDFORMAT
  1
GRIDFORMAT_BEGIN
 90
        0
 91
        1
 62
     0
 92
       -2
340
14
 93
        0
 40
1.125
309
GRIDFORMAT_END
 95
       16
302
GRIDFORMAT
  1
GRIDFORMAT_BEGIN
 90
        0
 91
        1
 62
     0
 92
       -2
340
14
 93
        0
 40
1.125
309
GRIDFORMAT_END
 95
       32
302
GRIDFORMAT
  1
GRIDFORMAT_BEGIN
 90
        0
 91
        1
 62
     0
 92
       -2
340
14
 93
        0
 40
1.125
309
GRIDFORMAT_END
309
TABLEFORMAT_END
  1
CELLSTYLE_BEGIN
 90
        3
 91
        2
300
_DATA
309
CELLSTYLE_END
  0
XRECORD
  5
29A
102
{ACAD_REACTORS
330
299
102
}
330
299
100
AcDbXrecord
280
     1
102
RTVSPost2010Prop28
280
     1
102
RTVSPost2010PropOp28
 70
     1
102
RTVSPost2010Prop29
280
     1
102
RTVSPost2010PropOp29
 70
     1
102
RTVSPost2010Prop30
280
     0
102
RTVSPost2010PropOp30
 70
     1
102
RTVSPost2010Prop31
280
     0
102
RTVSPost2010PropOp31
 70
     1
102
RTVSPost2010Prop32
280
     0
102
RTVSPost2010PropOp32
 70
     1
102
RTVSPost2010Prop33
280
     0
102
RTVSPost2010PropOp33
 70
     1
102
RTVSPost2010Prop34
280
     0
102
RTVSPost2010PropOp34
 70
     1
102
RTVSPost2010Prop35
280
     0
102
RTVSPost2010PropOp35
 70
     1
102
RTVSPost2010Prop36
280
     0
102
RTVSPost2010PropOp36
 70
     1
102
RTVSPost2010Prop37
 90
       50
102
RTVSPost2010PropOp37
 70
     1
102
RTVSPost2010Prop38
140
0.0
102
RTVSPost2010PropOp38
 70
     1
102
RTVSPost2010Prop39
140
1.0
102
RTVSPost2010PropOp39
 70
     1
102
RTVSPost2010Prop40
 90
        0
102
RTVSPost2010PropOp40
 70
     1
102
RTVSPost2010Prop41ColorIndex
 90
       18
102
RTVSPost2010Prop41ColorRGB
 90
        0
102
RTVSPost2010PropOp41
 70
     1
102
RTVSPost2010Prop42
 90
       50
102
RTVSPost2010PropOp42
 70
     1
102
RTVSPost2010Prop43
 90
        3
102
RTVSPost2010PropOp43
 70
     1
102
RTVSPost2010Prop44ColorIndex
 90
        5
102
RTVSPost2010Prop44ColorRGB
 90
      255
102
RTVSPost2010PropOp44
 70
     1
102
RTVSPost2010Prop45
280
     0
102
RTVSPost2010PropOp45
 70
     1
102
RTVSPost2010Prop46
 90
       50
102
RTVSPost2010PropOp46
 70
     1
102
RTVSPost2010Prop47
 90
       50
102
RTVSPost2010PropOp47
 70
     1
102
RTVSPost2010Prop48
 90
       50
102
RTVSPost2010PropOp48
 70
     1
102
RTVSPost2010Prop49
280
     0
102
RTVSPost2010PropOp49
 70
     1
102
RTVSPost2010Prop50
 90
       50
102
RTVSPost2010PropOp50
 70
     1
102
RTVSPost2010Prop51ColorIndex
 90
      256
102
RTVSPost2010Prop51ColorRGB
 90
-16777216
102
RTVSPost2010PropOp51
 70
     0
102
RTVSPost2010Prop52
140
1.0
102
RTVSPost2010PropOp52
 70
     0
102
RTVSPost2010Prop53
 90
        2
102
RTVSPost2010PropOp53
 70
     1
102
RTVSPost2010Prop54
  1
strokes_ogs.tif
102
RTVSPost2010PropOp54
 70
     1
102
RTVSPost2010Prop55
280
     0
102
RTVSPost2010PropOp55
 70
     1
102
RTVSPost2010Prop56
140
1.0
102
RTVSPost2010PropOp56
 70
     1
102
RTVSPost2010Prop57
140
1.0
102
RTVSPost2010PropOp57
 70
     1
102
RTVSPropertyOp0
 70
     1
102
RTVSPropertyOp1
 70
     1
102
RTVSPropertyOp2
 70
     1
102
RTVSPropertyOp3
 70
     1
102
RTVSPropertyOp4
 70
     1
102
RTVSPropertyOp5
 70
     1
102
RTVSPropertyOp6
 70
     1
102
RTVSPropertyOp7
 70
     1
102
RTVSPropertyOp8
 70
     1
102
RTVSPropertyOp9
 70
     1
102
RTVSPropertyOp10
 70
     1
102
RTVSPropertyOp11
 70
     1
102
RTVSPropertyOp12
 70
     1
102
RTVSPropertyOp13
 70
     1
102
RTVSPropertyOp14
 70
     1
102
RTVSPropertyOp15
 70
     1
102
RTVSPropertyOp16
 70
     1
102
RTVSPropertyOp17
 70
     1
102
RTVSPropertyOp18
 70
     1
102
RTVSPropertyOp19
 70
     1
102
RTVSPropertyOp20
 70
     1
102
RTVSPropertyOp21
 70
     1
102
RTVSPropertyOp22
 70
     1
102
RTVSPropertyOp23
 70
     1
102
RTVSPropertyOp24
 70
     1
102
RTVSPropertyOp25
 70
     1
102
RTVSPropertyOp26
 70
     1
102
RTVSPropertyOp27
 70
     1
102
RTVSPropertyOp28
 70
     1
102
RTVSPropertyOp29
 70
     1
102
RTVSPropertyOp30
 70
     1
102
RTVSPropertyOp31
 70
     1
102
RTVSPropertyOp32
 70
     1
102
RTVSPropertyOp33
 70
     1
102
RTVSPropertyOp34
 70
     1
102
RTVSPropertyOp35
 70
     1
102
RTVSPropertyOp36
 70
     1
102
RTVSPropertyOp37
 70
     1
102
RTVSPropertyOp38
 70
     1
102
RTVSPropertyOp39
 70
     1
102
RTVSPropertyOp40
 70
     1
102
RTVSPropertyOp41
 70
     1
102
RTVSPropertyOp42
 70
     1
102
RTVSPropertyOp43
 70
     1
102
RTVSPropertyOp44
 70
     1
102
RTVSPropertyOp45
 70
     1
102
RTVSPropertyOp46
 70
     1
102
RTVSPropertyOp47
 70
     1
102
RTVSPropertyOp48
 70
     1
102
RTVSPropertyOp49
 70
     1
102
RTVSPropertyOp50
 70
     1
102
RTVSPropertyOp51
 70
     0
102
RTVSPropertyOp52
 70
     0
102
RTVSPropertyOp53
 70
     1
102
RTVSPropertyOp54
 70
     1
102
RTVSPropertyOp55
 70
     1
102
RTVSPropertyOp56
 70
     1
102
RTVSPropertyOp57
 70
     1
102
RTVSPropertyOp58
 70
     1
102
RTVSPropertyOp59
 70
     1
102
RTVSPropertyOp60
 70
     1
102
RTVSPropertyOp61
 70
     1
102
RTVSPropertyOp62
 70
     1
  0
XRECORD
  5
298
102
{ACAD_REACTORS
330
297
102
}
330
297
100
AcDbXrecord
280
     1
102
RTVSPost2010Prop28
280
     0
102
RTVSPost2010PropOp28
 70
     1
102
RTVSPost2010Prop29
280
     1
102
RTVSPost2010PropOp29
 70
     1
102
RTVSPost2010Prop30
280
     1
102
RTVSPost2010PropOp30
 70
     1
102
RTVSPost2010Prop31
280
     0
102
RTVSPost2010PropOp31
 70
     1
102
RTVSPost2010Prop32
280
     0
102
RTVSPost2010PropOp32
 70
     1
102
RTVSPost2010Prop33
280
     0
102
RTVSPost2010PropOp33
 70
     1
102
RTVSPost2010Prop34
280
     0
102
RTVSPost2010PropOp34
 70
     1
102
RTVSPost2010Prop35
280
     0
102
RTVSPost2010PropOp35
 70
     1
102
RTVSPost2010Prop36
280
     0
102
RTVSPost2010PropOp36
 70
     1
102
RTVSPost2010Prop37
 90
       50
102
RTVSPost2010PropOp37
 70
     1
102
RTVSPost2010Prop38
140
0.0
102
RTVSPost2010PropOp38
 70
     1
102
RTVSPost2010Prop39
140
1.0
102
RTVSPost2010PropOp39
 70
     1
102
RTVSPost2010Prop40
 90
        0
102
RTVSPost2010PropOp40
 70
     1
102
RTVSPost2010Prop41ColorIndex
 90
       18
102
RTVSPost2010Prop41ColorRGB
 90
        0
102
RTVSPost2010PropOp41
 70
     1
102
RTVSPost2010Prop42
 90
       50
102
RTVSPost2010PropOp42
 70
     1
102
RTVSPost2010Prop43
 90
        3
102
RTVSPost2010PropOp43
 70
     1
102
RTVSPost2010Prop44ColorIndex
 90
        5
102
RTVSPost2010Prop44ColorRGB
 90
      255
102
RTVSPost2010PropOp44
 70
     1
102
RTVSPost2010Prop45
280
     0
102
RTVSPost2010PropOp45
 70
     1
102
RTVSPost2010Prop46
 90
       50
102
RTVSPost2010PropOp46
 70
     1
102
RTVSPost2010Prop47
 90
       50
102
RTVSPost2010PropOp47
 70
     1
102
RTVSPost2010Prop48
 90
       50
102
RTVSPost2010PropOp48
 70
     1
102
RTVSPost2010Prop49
280
     0
102
RTVSPost2010PropOp49
 70
     1
102
RTVSPost2010Prop50
 90
       50
102
RTVSPost2010PropOp50
 70
     1
102
RTVSPost2010Prop51ColorIndex
 90
      256
102
RTVSPost2010Prop51ColorRGB
 90
-16777216
102
RTVSPost2010PropOp51
 70
     0
102
RTVSPost2010Prop52
140
1.0
102
RTVSPost2010PropOp52
 70
     0
102
RTVSPost2010Prop53
 90
        2
102
RTVSPost2010PropOp53
 70
     1
102
RTVSPost2010Prop54
  1
strokes_ogs.tif
102
RTVSPost2010PropOp54
 70
     1
102
RTVSPost2010Prop55
280
     0
102
RTVSPost2010PropOp55
 70
     1
102
RTVSPost2010Prop56
140
1.0
102
RTVSPost2010PropOp56
 70
     1
102
RTVSPost2010Prop57
140
1.0
102
RTVSPost2010PropOp57
 70
     1
102
RTVSPropertyOp0
 70
     1
102
RTVSPropertyOp1
 70
     1
102
RTVSPropertyOp2
 70
     1
102
RTVSPropertyOp3
 70
     1
102
RTVSPropertyOp4
 70
     1
102
RTVSPropertyOp5
 70
     1
102
RTVSPropertyOp6
 70
     1
102
RTVSPropertyOp7
 70
     1
102
RTVSPropertyOp8
 70
     1
102
RTVSPropertyOp9
 70
     1
102
RTVSPropertyOp10
 70
     1
102
RTVSPropertyOp11
 70
     1
102
RTVSPropertyOp12
 70
     1
102
RTVSPropertyOp13
 70
     1
102
RTVSPropertyOp14
 70
     1
102
RTVSPropertyOp15
 70
     1
102
RTVSPropertyOp16
 70
     1
102
RTVSPropertyOp17
 70
     1
102
RTVSPropertyOp18
 70
     1
102
RTVSPropertyOp19
 70
     1
102
RTVSPropertyOp20
 70
     1
102
RTVSPropertyOp21
 70
     1
102
RTVSPropertyOp22
 70
     1
102
RTVSPropertyOp23
 70
     1
102
RTVSPropertyOp24
 70
     1
102
RTVSPropertyOp25
 70
     1
102
RTVSPropertyOp26
 70
     1
102
RTVSPropertyOp27
 70
     1
102
RTVSPropertyOp28
 70
     1
102
RTVSPropertyOp29
 70
     1
102
RTVSPropertyOp30
 70
     1
102
RTVSPropertyOp31
 70
     1
102
RTVSPropertyOp32
 70
     1
102
RTVSPropertyOp33
 70
     1
102
RTVSPropertyOp34
 70
     1
102
RTVSPropertyOp35
 70
     1
102
RTVSPropertyOp36
 70
     1
102
RTVSPropertyOp37
 70
     1
102
RTVSPropertyOp38
 70
     1
102
RTVSPropertyOp39
 70
     1
102
RTVSPropertyOp40
 70
     1
102
RTVSPropertyOp41
 70
     1
102
RTVSPropertyOp42
 70
     1
102
RTVSPropertyOp43
 70
     1
102
RTVSPropertyOp44
 70
     1
102
RTVSPropertyOp45
 70
     1
102
RTVSPropertyOp46
 70
     1
102
RTVSPropertyOp47
 70
     1
102
RTVSPropertyOp48
 70
     1
102
RTVSPropertyOp49
 70
     1
102
RTVSPropertyOp50
 70
     1
102
RTVSPropertyOp51
 70
     0
102
RTVSPropertyOp52
 70
     0
102
RTVSPropertyOp53
 70
     1
102
RTVSPropertyOp54
 70
     1
102
RTVSPropertyOp55
 70
     1
102
RTVSPropertyOp56
 70
     1
102
RTVSPropertyOp57
 70
     1
102
RTVSPropertyOp58
 70
     1
102
RTVSPropertyOp59
 70
     1
102
RTVSPropertyOp60
 70
     1
102
RTVSPropertyOp61
 70
     1
102
RTVSPropertyOp62
 70
     1
  0
XRECORD
  5
2A6
102
{ACAD_REACTORS
330
2A5
102
}
330
2A5
100
AcDbXrecord
280
     1
102
RTVSPost2010Prop28
280
     0
102
RTVSPost2010PropOp28
 70
     1
102
RTVSPost2010Prop29
280
     1
102
RTVSPost2010PropOp29
 70
     1
102
RTVSPost2010Prop30
280
     1
102
RTVSPost2010PropOp30
 70
     1
102
RTVSPost2010Prop31
280
     0
102
RTVSPost2010PropOp31
 70
     1
102
RTVSPost2010Prop32
280
     0
102
RTVSPost2010PropOp32
 70
     1
102
RTVSPost2010Prop33
280
     0
102
RTVSPost2010PropOp33
 70
     1
102
RTVSPost2010Prop34
280
     0
102
RTVSPost2010PropOp34
 70
     1
102
RTVSPost2010Prop35
280
     0
102
RTVSPost2010PropOp35
 70
     1
102
RTVSPost2010Prop36
280
     0
102
RTVSPost2010PropOp36
 70
     1
102
RTVSPost2010Prop37
 90
       50
102
RTVSPost2010PropOp37
 70
     1
102
RTVSPost2010Prop38
140
0.0
102
RTVSPost2010PropOp38
 70
     1
102
RTVSPost2010Prop39
140
1.0
102
RTVSPost2010PropOp39
 70
     1
102
RTVSPost2010Prop40
 90
        0
102
RTVSPost2010PropOp40
 70
     1
102
RTVSPost2010Prop41ColorIndex
 90
       18
102
RTVSPost2010Prop41ColorRGB
 90
        0
102
RTVSPost2010PropOp41
 70
     1
102
RTVSPost2010Prop42
 90
       50
102
RTVSPost2010PropOp42
 70
     1
102
RTVSPost2010Prop43
 90
        3
102
RTVSPost2010PropOp43
 70
     1
102
RTVSPost2010Prop44ColorIndex
 90
        5
102
RTVSPost2010Prop44ColorRGB
 90
      255
102
RTVSPost2010PropOp44
 70
     1
102
RTVSPost2010Prop45
280
     0
102
RTVSPost2010PropOp45
 70
     1
102
RTVSPost2010Prop46
 90
       50
102
RTVSPost2010PropOp46
 70
     1
102
RTVSPost2010Prop47
 90
       50
102
RTVSPost2010PropOp47
 70
     1
102
RTVSPost2010Prop48
 90
       50
102
RTVSPost2010PropOp48
 70
     1
102
RTVSPost2010Prop49
280
     0
102
RTVSPost2010PropOp49
 70
     1
102
RTVSPost2010Prop50
 90
       50
102
RTVSPost2010PropOp50
 70
     1
102
RTVSPost2010Prop51ColorIndex
 90
      256
102
RTVSPost2010Prop51ColorRGB
 90
-16777216
102
RTVSPost2010PropOp51
 70
     0
102
RTVSPost2010Prop52
140
1.0
102
RTVSPost2010PropOp52
 70
     0
102
RTVSPost2010Prop53
 90
        2
102
RTVSPost2010PropOp53
 70
     1
102
RTVSPost2010Prop54
  1
strokes_ogs.tif
102
RTVSPost2010PropOp54
 70
     1
102
RTVSPost2010Prop55
280
     0
102
RTVSPost2010PropOp55
 70
     1
102
RTVSPost2010Prop56
140
1.0
102
RTVSPost2010PropOp56
 70
     1
102
RTVSPost2010Prop57
140
1.0
102
RTVSPost2010PropOp57
 70
     1
102
RTVSPropertyOp0
 70
     1
102
RTVSPropertyOp1
 70
     1
102
RTVSPropertyOp2
 70
     1
102
RTVSPropertyOp3
 70
     1
102
RTVSPropertyOp4
 70
     1
102
RTVSPropertyOp5
 70
     1
102
RTVSPropertyOp6
 70
     1
102
RTVSPropertyOp7
 70
     1
102
RTVSPropertyOp8
 70
     1
102
RTVSPropertyOp9
 70
     1
102
RTVSPropertyOp10
 70
     1
102
RTVSPropertyOp11
 70
     1
102
RTVSPropertyOp12
 70
     1
102
RTVSPropertyOp13
 70
     1
102
RTVSPropertyOp14
 70
     1
102
RTVSPropertyOp15
 70
     1
102
RTVSPropertyOp16
 70
     1
102
RTVSPropertyOp17
 70
     1
102
RTVSPropertyOp18
 70
     1
102
RTVSPropertyOp19
 70
     1
102
RTVSPropertyOp20
 70
     1
102
RTVSPropertyOp21
 70
     1
102
RTVSPropertyOp22
 70
     1
102
RTVSPropertyOp23
 70
     1
102
RTVSPropertyOp24
 70
     1
102
RTVSPropertyOp25
 70
     1
102
RTVSPropertyOp26
 70
     1
102
RTVSPropertyOp27
 70
     1
102
RTVSPropertyOp28
 70
     1
102
RTVSPropertyOp29
 70
     1
102
RTVSPropertyOp30
 70
     1
102
RTVSPropertyOp31
 70
     1
102
RTVSPropertyOp32
 70
     1
102
RTVSPropertyOp33
 70
     1
102
RTVSPropertyOp34
 70
     1
102
RTVSPropertyOp35
 70
     1
102
RTVSPropertyOp36
 70
     1
102
RTVSPropertyOp37
 70
     1
102
RTVSPropertyOp38
 70
     1
102
RTVSPropertyOp39
 70
     1
102
RTVSPropertyOp40
 70
     1
102
RTVSPropertyOp41
 70
     1
102
RTVSPropertyOp42
 70
     1
102
RTVSPropertyOp43
 70
     1
102
RTVSPropertyOp44
 70
     1
102
RTVSPropertyOp45
 70
     1
102
RTVSPropertyOp46
 70
     1
102
RTVSPropertyOp47
 70
     1
102
RTVSPropertyOp48
 70
     1
102
RTVSPropertyOp49
 70
     1
102
RTVSPropertyOp50
 70
     1
102
RTVSPropertyOp51
 70
     0
102
RTVSPropertyOp52
 70
     0
102
RTVSPropertyOp53
 70
     1
102
RTVSPropertyOp54
 70
     1
102
RTVSPropertyOp55
 70
     1
102
RTVSPropertyOp56
 70
     1
102
RTVSPropertyOp57
 70
     1
102
RTVSPropertyOp58
 70
     1
102
RTVSPropertyOp59
 70
     1
102
RTVSPropertyOp60
 70
     1
102
RTVSPropertyOp61
 70
     1
102
RTVSPropertyOp62
 70
     1
  0
XRECORD
  5
2AE
102
{ACAD_REACTORS
330
2AD
102
}
330
2AD
100
AcDbXrecord
280
     1
102
RTVSPost2010Prop28
280
     0
102
RTVSPost2010PropOp28
 70
     1
102
RTVSPost2010Prop29
280
     1
102
RTVSPost2010PropOp29
 70
     1
102
RTVSPost2010Prop30
280
     1
102
RTVSPost2010PropOp30
 70
     1
102
RTVSPost2010Prop31
280
     0
102
RTVSPost2010PropOp31
 70
     1
102
RTVSPost2010Prop32
280
     0
102
RTVSPost2010PropOp32
 70
     1
102
RTVSPost2010Prop33
280
     0
102
RTVSPost2010PropOp33
 70
     1
102
RTVSPost2010Prop34
280
     0
102
RTVSPost2010PropOp34
 70
     1
102
RTVSPost2010Prop35
280
     0
102
RTVSPost2010PropOp35
 70
     1
102
RTVSPost2010Prop36
280
     0
102
RTVSPost2010PropOp36
 70
     1
102
RTVSPost2010Prop37
 90
       50
102
RTVSPost2010PropOp37
 70
     1
102
RTVSPost2010Prop38
140
0.0
102
RTVSPost2010PropOp38
 70
     1
102
RTVSPost2010Prop39
140
1.0
102
RTVSPost2010PropOp39
 70
     1
102
RTVSPost2010Prop40
 90
        0
102
RTVSPost2010PropOp40
 70
     1
102
RTVSPost2010Prop41ColorIndex
 90
       18
102
RTVSPost2010Prop41ColorRGB
 90
        0
102
RTVSPost2010PropOp41
 70
     1
102
RTVSPost2010Prop42
 90
       50
102
RTVSPost2010PropOp42
 70
     1
102
RTVSPost2010Prop43
 90
        3
102
RTVSPost2010PropOp43
 70
     1
102
RTVSPost2010Prop44ColorIndex
 90
        5
102
RTVSPost2010Prop44ColorRGB
 90
      255
102
RTVSPost2010PropOp44
 70
     1
102
RTVSPost2010Prop45
280
     0
102
RTVSPost2010PropOp45
 70
     1
102
RTVSPost2010Prop46
 90
       50
102
RTVSPost2010PropOp46
 70
     1
102
RTVSPost2010Prop47
 90
       50
102
RTVSPost2010PropOp47
 70
     1
102
RTVSPost2010Prop48
 90
       50
102
RTVSPost2010PropOp48
 70
     1
102
RTVSPost2010Prop49
280
     0
102
RTVSPost2010PropOp49
 70
     1
102
RTVSPost2010Prop50
 90
       50
102
RTVSPost2010PropOp50
 70
     1
102
RTVSPost2010Prop51ColorIndex
 90
      256
102
RTVSPost2010Prop51ColorRGB
 90
-16777216
102
RTVSPost2010PropOp51
 70
     0
102
RTVSPost2010Prop52
140
1.0
102
RTVSPost2010PropOp52
 70
     0
102
RTVSPost2010Prop53
 90
        2
102
RTVSPost2010PropOp53
 70
     1
102
RTVSPost2010Prop54
  1
strokes_ogs.tif
102
RTVSPost2010PropOp54
 70
     1
102
RTVSPost2010Prop55
280
     0
102
RTVSPost2010PropOp55
 70
     1
102
RTVSPost2010Prop56
140
1.0
102
RTVSPost2010PropOp56
 70
     1
102
RTVSPost2010Prop57
140
1.0
102
RTVSPost2010PropOp57
 70
     1
102
RTVSPropertyOp0
 70
     1
102
RTVSPropertyOp1
 70
     1
102
RTVSPropertyOp2
 70
     1
102
RTVSPropertyOp3
 70
     1
102
RTVSPropertyOp4
 70
     1
102
RTVSPropertyOp5
 70
     1
102
RTVSPropertyOp6
 70
     1
102
RTVSPropertyOp7
 70
     1
102
RTVSPropertyOp8
 70
     1
102
RTVSPropertyOp9
 70
     1
102
RTVSPropertyOp10
 70
     1
102
RTVSPropertyOp11
 70
     1
102
RTVSPropertyOp12
 70
     1
102
RTVSPropertyOp13
 70
     1
102
RTVSPropertyOp14
 70
     1
102
RTVSPropertyOp15
 70
     1
102
RTVSPropertyOp16
 70
     1
102
RTVSPropertyOp17
 70
     1
102
RTVSPropertyOp18
 70
     1
102
RTVSPropertyOp19
 70
     1
102
RTVSPropertyOp20
 70
     1
102
RTVSPropertyOp21
 70
     1
102
RTVSPropertyOp22
 70
     1
102
RTVSPropertyOp23
 70
     1
102
RTVSPropertyOp24
 70
     1
102
RTVSPropertyOp25
 70
     1
102
RTVSPropertyOp26
 70
     1
102
RTVSPropertyOp27
 70
     1
102
RTVSPropertyOp28
 70
     1
102
RTVSPropertyOp29
 70
     1
102
RTVSPropertyOp30
 70
     1
102
RTVSPropertyOp31
 70
     1
102
RTVSPropertyOp32
 70
     1
102
RTVSPropertyOp33
 70
     1
102
RTVSPropertyOp34
 70
     1
102
RTVSPropertyOp35
 70
     1
102
RTVSPropertyOp36
 70
     1
102
RTVSPropertyOp37
 70
     1
102
RTVSPropertyOp38
 70
     1
102
RTVSPropertyOp39
 70
     1
102
RTVSPropertyOp40
 70
     1
102
RTVSPropertyOp41
 70
     1
102
RTVSPropertyOp42
 70
     1
102
RTVSPropertyOp43
 70
     1
102
RTVSPropertyOp44
 70
     1
102
RTVSPropertyOp45
 70
     1
102
RTVSPropertyOp46
 70
     1
102
RTVSPropertyOp47
 70
     1
102
RTVSPropertyOp48
 70
     1
102
RTVSPropertyOp49
 70
     1
102
RTVSPropertyOp50
 70
     1
102
RTVSPropertyOp51
 70
     0
102
RTVSPropertyOp52
 70
     0
102
RTVSPropertyOp53
 70
     1
102
RTVSPropertyOp54
 70
     1
102
RTVSPropertyOp55
 70
     1
102
RTVSPropertyOp56
 70
     1
102
RTVSPropertyOp57
 70
     1
102
RTVSPropertyOp58
 70
     1
102
RTVSPropertyOp59
 70
     1
102
RTVSPropertyOp60
 70
     1
102
RTVSPropertyOp61
 70
     1
102
RTVSPropertyOp62
 70
     1
  0
XRECORD
  5
2A0
102
{ACAD_REACTORS
330
29F
102
}
330
29F
100
AcDbXrecord
280
     1
102
RTVSPost2010Prop28
280
     0
102
RTVSPost2010PropOp28
 70
     1
102
RTVSPost2010Prop29
280
     1
102
RTVSPost2010PropOp29
 70
     1
102
RTVSPost2010Prop30
280
     1
102
RTVSPost2010PropOp30
 70
     1
102
RTVSPost2010Prop31
280
     0
102
RTVSPost2010PropOp31
 70
     1
102
RTVSPost2010Prop32
280
     0
102
RTVSPost2010PropOp32
 70
     1
102
RTVSPost2010Prop33
280
     0
102
RTVSPost2010PropOp33
 70
     1
102
RTVSPost2010Prop34
280
     0
102
RTVSPost2010PropOp34
 70
     1
102
RTVSPost2010Prop35
280
     0
102
RTVSPost2010PropOp35
 70
     1
102
RTVSPost2010Prop36
280
     0
102
RTVSPost2010PropOp36
 70
     1
102
RTVSPost2010Prop37
 90
       50
102
RTVSPost2010PropOp37
 70
     1
102
RTVSPost2010Prop38
140
0.0
102
RTVSPost2010PropOp38
 70
     1
102
RTVSPost2010Prop39
140
1.0
102
RTVSPost2010PropOp39
 70
     1
102
RTVSPost2010Prop40
 90
        0
102
RTVSPost2010PropOp40
 70
     1
102
RTVSPost2010Prop41ColorIndex
 90
       18
102
RTVSPost2010Prop41ColorRGB
 90
        0
102
RTVSPost2010PropOp41
 70
     1
102
RTVSPost2010Prop42
 90
       50
102
RTVSPost2010PropOp42
 70
     1
102
RTVSPost2010Prop43
 90
        3
102
RTVSPost2010PropOp43
 70
     1
102
RTVSPost2010Prop44ColorIndex
 90
        5
102
RTVSPost2010Prop44ColorRGB
 90
      255
102
RTVSPost2010PropOp44
 70
     1
102
RTVSPost2010Prop45
280
     0
102
RTVSPost2010PropOp45
 70
     1
102
RTVSPost2010Prop46
 90
       50
102
RTVSPost2010PropOp46
 70
     1
102
RTVSPost2010Prop47
 90
       50
102
RTVSPost2010PropOp47
 70
     1
102
RTVSPost2010Prop48
 90
       50
102
RTVSPost2010PropOp48
 70
     1
102
RTVSPost2010Prop49
280
     0
102
RTVSPost2010PropOp49
 70
     1
102
RTVSPost2010Prop50
 90
       50
102
RTVSPost2010PropOp50
 70
     1
102
RTVSPost2010Prop51ColorIndex
 90
      256
102
RTVSPost2010Prop51ColorRGB
 90
-16777216
102
RTVSPost2010PropOp51
 70
     0
102
RTVSPost2010Prop52
140
1.0
102
RTVSPost2010PropOp52
 70
     0
102
RTVSPost2010Prop53
 90
        2
102
RTVSPost2010PropOp53
 70
     1
102
RTVSPost2010Prop54
  1
strokes_ogs.tif
102
RTVSPost2010PropOp54
 70
     1
102
RTVSPost2010Prop55
280
     0
102
RTVSPost2010PropOp55
 70
     1
102
RTVSPost2010Prop56
140
1.0
102
RTVSPost2010PropOp56
 70
     1
102
RTVSPost2010Prop57
140
1.0
102
RTVSPost2010PropOp57
 70
     1
102
RTVSPropertyOp0
 70
     1
102
RTVSPropertyOp1
 70
     1
102
RTVSPropertyOp2
 70
     1
102
RTVSPropertyOp3
 70
     1
102
RTVSPropertyOp4
 70
     1
102
RTVSPropertyOp5
 70
     1
102
RTVSPropertyOp6
 70
     1
102
RTVSPropertyOp7
 70
     1
102
RTVSPropertyOp8
 70
     1
102
RTVSPropertyOp9
 70
     1
102
RTVSPropertyOp10
 70
     1
102
RTVSPropertyOp11
 70
     1
102
RTVSPropertyOp12
 70
     1
102
RTVSPropertyOp13
 70
     1
102
RTVSPropertyOp14
 70
     1
102
RTVSPropertyOp15
 70
     1
102
RTVSPropertyOp16
 70
     1
102
RTVSPropertyOp17
 70
     1
102
RTVSPropertyOp18
 70
     1
102
RTVSPropertyOp19
 70
     1
102
RTVSPropertyOp20
 70
     1
102
RTVSPropertyOp21
 70
     1
102
RTVSPropertyOp22
 70
     1
102
RTVSPropertyOp23
 70
     1
102
RTVSPropertyOp24
 70
     1
102
RTVSPropertyOp25
 70
     1
102
RTVSPropertyOp26
 70
     1
102
RTVSPropertyOp27
 70
     1
102
RTVSPropertyOp28
 70
     1
102
RTVSPropertyOp29
 70
     1
102
RTVSPropertyOp30
 70
     1
102
RTVSPropertyOp31
 70
     1
102
RTVSPropertyOp32
 70
     1
102
RTVSPropertyOp33
 70
     1
102
RTVSPropertyOp34
 70
     1
102
RTVSPropertyOp35
 70
     1
102
RTVSPropertyOp36
 70
     1
102
RTVSPropertyOp37
 70
     1
102
RTVSPropertyOp38
 70
     1
102
RTVSPropertyOp39
 70
     1
102
RTVSPropertyOp40
 70
     1
102
RTVSPropertyOp41
 70
     1
102
RTVSPropertyOp42
 70
     1
102
RTVSPropertyOp43
 70
     1
102
RTVSPropertyOp44
 70
     1
102
RTVSPropertyOp45
 70
     1
102
RTVSPropertyOp46
 70
     1
102
RTVSPropertyOp47
 70
     1
102
RTVSPropertyOp48
 70
     1
102
RTVSPropertyOp49
 70
     1
102
RTVSPropertyOp50
 70
     1
102
RTVSPropertyOp51
 70
     0
102
RTVSPropertyOp52
 70
     0
102
RTVSPropertyOp53
 70
     1
102
RTVSPropertyOp54
 70
     1
102
RTVSPropertyOp55
 70
     1
102
RTVSPropertyOp56
 70
     1
102
RTVSPropertyOp57
 70
     1
102
RTVSPropertyOp58
 70
     1
102
RTVSPropertyOp59
 70
     1
102
RTVSPropertyOp60
 70
     1
102
RTVSPropertyOp61
 70
     1
102
RTVSPropertyOp62
 70
     1
  0
XRECORD
  5
2A4
102
{ACAD_REACTORS
330
2A3
102
}
330
2A3
100
AcDbXrecord
280
     1
102
RTVSPost2010Prop28
280
     0
102
RTVSPost2010PropOp28
 70
     1
102
RTVSPost2010Prop29
280
     1
102
RTVSPost2010PropOp29
 70
     1
102
RTVSPost2010Prop30
280
     1
102
RTVSPost2010PropOp30
 70
     1
102
RTVSPost2010Prop31
280
     0
102
RTVSPost2010PropOp31
 70
     1
102
RTVSPost2010Prop32
280
     0
102
RTVSPost2010PropOp32
 70
     1
102
RTVSPost2010Prop33
280
     0
102
RTVSPost2010PropOp33
 70
     1
102
RTVSPost2010Prop34
280
     0
102
RTVSPost2010PropOp34
 70
     1
102
RTVSPost2010Prop35
280
     0
102
RTVSPost2010PropOp35
 70
     1
102
RTVSPost2010Prop36
280
     0
102
RTVSPost2010PropOp36
 70
     1
102
RTVSPost2010Prop37
 90
       50
102
RTVSPost2010PropOp37
 70
     1
102
RTVSPost2010Prop38
140
0.0
102
RTVSPost2010PropOp38
 70
     1
102
RTVSPost2010Prop39
140
1.0
102
RTVSPost2010PropOp39
 70
     1
102
RTVSPost2010Prop40
 90
        0
102
RTVSPost2010PropOp40
 70
     1
102
RTVSPost2010Prop41ColorIndex
 90
       18
102
RTVSPost2010Prop41ColorRGB
 90
        0
102
RTVSPost2010PropOp41
 70
     1
102
RTVSPost2010Prop42
 90
       50
102
RTVSPost2010PropOp42
 70
     1
102
RTVSPost2010Prop43
 90
        3
102
RTVSPost2010PropOp43
 70
     1
102
RTVSPost2010Prop44ColorIndex
 90
        5
102
RTVSPost2010Prop44ColorRGB
 90
      255
102
RTVSPost2010PropOp44
 70
     1
102
RTVSPost2010Prop45
280
     0
102
RTVSPost2010PropOp45
 70
     1
102
RTVSPost2010Prop46
 90
       50
102
RTVSPost2010PropOp46
 70
     1
102
RTVSPost2010Prop47
 90
       50
102
RTVSPost2010PropOp47
 70
     1
102
RTVSPost2010Prop48
 90
       50
102
RTVSPost2010PropOp48
 70
     1
102
RTVSPost2010Prop49
280
     0
102
RTVSPost2010PropOp49
 70
     1
102
RTVSPost2010Prop50
 90
       50
102
RTVSPost2010PropOp50
 70
     1
102
RTVSPost2010Prop51ColorIndex
 90
      256
102
RTVSPost2010Prop51ColorRGB
 90
-16777216
102
RTVSPost2010PropOp51
 70
     0
102
RTVSPost2010Prop52
140
1.0
102
RTVSPost2010PropOp52
 70
     0
102
RTVSPost2010Prop53
 90
        2
102
RTVSPost2010PropOp53
 70
     1
102
RTVSPost2010Prop54
  1
strokes_ogs.tif
102
RTVSPost2010PropOp54
 70
     1
102
RTVSPost2010Prop55
280
     0
102
RTVSPost2010PropOp55
 70
     1
102
RTVSPost2010Prop56
140
1.0
102
RTVSPost2010PropOp56
 70
     1
102
RTVSPost2010Prop57
140
1.0
102
RTVSPost2010PropOp57
 70
     1
102
RTVSPropertyOp0
 70
     1
102
RTVSPropertyOp1
 70
     1
102
RTVSPropertyOp2
 70
     1
102
RTVSPropertyOp3
 70
     1
102
RTVSPropertyOp4
 70
     1
102
RTVSPropertyOp5
 70
     1
102
RTVSPropertyOp6
 70
     1
102
RTVSPropertyOp7
 70
     1
102
RTVSPropertyOp8
 70
     1
102
RTVSPropertyOp9
 70
     1
102
RTVSPropertyOp10
 70
     1
102
RTVSPropertyOp11
 70
     1
102
RTVSPropertyOp12
 70
     1
102
RTVSPropertyOp13
 70
     1
102
RTVSPropertyOp14
 70
     1
102
RTVSPropertyOp15
 70
     1
102
RTVSPropertyOp16
 70
     1
102
RTVSPropertyOp17
 70
     1
102
RTVSPropertyOp18
 70
     1
102
RTVSPropertyOp19
 70
     1
102
RTVSPropertyOp20
 70
     1
102
RTVSPropertyOp21
 70
     1
102
RTVSPropertyOp22
 70
     1
102
RTVSPropertyOp23
 70
     1
102
RTVSPropertyOp24
 70
     1
102
RTVSPropertyOp25
 70
     1
102
RTVSPropertyOp26
 70
     1
102
RTVSPropertyOp27
 70
     1
102
RTVSPropertyOp28
 70
     1
102
RTVSPropertyOp29
 70
     1
102
RTVSPropertyOp30
 70
     1
102
RTVSPropertyOp31
 70
     1
102
RTVSPropertyOp32
 70
     1
102
RTVSPropertyOp33
 70
     1
102
RTVSPropertyOp34
 70
     1
102
RTVSPropertyOp35
 70
     1
102
RTVSPropertyOp36
 70
     1
102
RTVSPropertyOp37
 70
     1
102
RTVSPropertyOp38
 70
     1
102
RTVSPropertyOp39
 70
     1
102
RTVSPropertyOp40
 70
     1
102
RTVSPropertyOp41
 70
     1
102
RTVSPropertyOp42
 70
     1
102
RTVSPropertyOp43
 70
     1
102
RTVSPropertyOp44
 70
     1
102
RTVSPropertyOp45
 70
     1
102
RTVSPropertyOp46
 70
     1
102
RTVSPropertyOp47
 70
     1
102
RTVSPropertyOp48
 70
     1
102
RTVSPropertyOp49
 70
     1
102
RTVSPropertyOp50
 70
     1
102
RTVSPropertyOp51
 70
     0
102
RTVSPropertyOp52
 70
     0
102
RTVSPropertyOp53
 70
     1
102
RTVSPropertyOp54
 70
     1
102
RTVSPropertyOp55
 70
     1
102
RTVSPropertyOp56
 70
     1
102
RTVSPropertyOp57
 70
     1
102
RTVSPropertyOp58
 70
     1
102
RTVSPropertyOp59
 70
     1
102
RTVSPropertyOp60
 70
     1
102
RTVSPropertyOp61
 70
     1
102
RTVSPropertyOp62
 70
     1
  0
XRECORD
  5
2B4
102
{ACAD_REACTORS
330
2B3
102
}
330
2B3
100
AcDbXrecord
280
     1
102
RTVSPost2010Prop28
280
     0
102
RTVSPost2010PropOp28
 70
     1
102
RTVSPost2010Prop29
280
     1
102
RTVSPost2010PropOp29
 70
     1
102
RTVSPost2010Prop30
280
     1
102
RTVSPost2010PropOp30
 70
     1
102
RTVSPost2010Prop31
280
     0
102
RTVSPost2010PropOp31
 70
     1
102
RTVSPost2010Prop32
280
     0
102
RTVSPost2010PropOp32
 70
     1
102
RTVSPost2010Prop33
280
     0
102
RTVSPost2010PropOp33
 70
     1
102
RTVSPost2010Prop34
280
     0
102
RTVSPost2010PropOp34
 70
     1
102
RTVSPost2010Prop35
280
     0
102
RTVSPost2010PropOp35
 70
     1
102
RTVSPost2010Prop36
280
     0
102
RTVSPost2010PropOp36
 70
     1
102
RTVSPost2010Prop37
 90
       50
102
RTVSPost2010PropOp37
 70
     1
102
RTVSPost2010Prop38
140
0.0
102
RTVSPost2010PropOp38
 70
     1
102
RTVSPost2010Prop39
140
1.0
102
RTVSPost2010PropOp39
 70
     1
102
RTVSPost2010Prop40
 90
        0
102
RTVSPost2010PropOp40
 70
     1
102
RTVSPost2010Prop41ColorIndex
 90
       18
102
RTVSPost2010Prop41ColorRGB
 90
        0
102
RTVSPost2010PropOp41
 70
     1
102
RTVSPost2010Prop42
 90
       50
102
RTVSPost2010PropOp42
 70
     1
102
RTVSPost2010Prop43
 90
        3
102
RTVSPost2010PropOp43
 70
     1
102
RTVSPost2010Prop44ColorIndex
 90
        5
102
RTVSPost2010Prop44ColorRGB
 90
      255
102
RTVSPost2010PropOp44
 70
     1
102
RTVSPost2010Prop45
280
     0
102
RTVSPost2010PropOp45
 70
     1
102
RTVSPost2010Prop46
 90
       50
102
RTVSPost2010PropOp46
 70
     1
102
RTVSPost2010Prop47
 90
       50
102
RTVSPost2010PropOp47
 70
     1
102
RTVSPost2010Prop48
 90
       50
102
RTVSPost2010PropOp48
 70
     1
102
RTVSPost2010Prop49
280
     0
102
RTVSPost2010PropOp49
 70
     1
102
RTVSPost2010Prop50
 90
       50
102
RTVSPost2010PropOp50
 70
     1
102
RTVSPost2010Prop51ColorIndex
 90
      256
102
RTVSPost2010Prop51ColorRGB
 90
-16777216
102
RTVSPost2010PropOp51
 70
     0
102
RTVSPost2010Prop52
140
1.0
102
RTVSPost2010PropOp52
 70
     0
102
RTVSPost2010Prop53
 90
        2
102
RTVSPost2010PropOp53
 70
     1
102
RTVSPost2010Prop54
  1
strokes_ogs.tif
102
RTVSPost2010PropOp54
 70
     1
102
RTVSPost2010Prop55
280
     0
102
RTVSPost2010PropOp55
 70
     1
102
RTVSPost2010Prop56
140
1.0
102
RTVSPost2010PropOp56
 70
     1
102
RTVSPost2010Prop57
140
1.0
102
RTVSPost2010PropOp57
 70
     1
102
RTVSPropertyOp0
 70
     0
102
RTVSPropertyOp1
 70
     0
102
RTVSPropertyOp2
 70
     0
102
RTVSPropertyOp3
 70
     0
102
RTVSPropertyOp4
 70
     0
102
RTVSPropertyOp5
 70
     0
102
RTVSPropertyOp6
 70
     0
102
RTVSPropertyOp7
 70
     0
102
RTVSPropertyOp8
 70
     0
102
RTVSPropertyOp9
 70
     0
102
RTVSPropertyOp10
 70
     0
102
RTVSPropertyOp11
 70
     0
102
RTVSPropertyOp12
 70
     0
102
RTVSPropertyOp13
 70
     0
102
RTVSPropertyOp14
 70
     2
102
RTVSPropertyOp15
 70
     0
102
RTVSPropertyOp16
 70
     0
102
RTVSPropertyOp17
 70
     0
102
RTVSPropertyOp18
 70
     0
102
RTVSPropertyOp19
 70
     0
102
RTVSPropertyOp20
 70
     0
102
RTVSPropertyOp21
 70
     0
102
RTVSPropertyOp22
 70
     0
102
RTVSPropertyOp23
 70
     0
102
RTVSPropertyOp24
 70
     0
102
RTVSPropertyOp25
 70
     0
102
RTVSPropertyOp26
 70
     0
102
RTVSPropertyOp27
 70
     0
102
RTVSPropertyOp28
 70
     1
102
RTVSPropertyOp29
 70
     1
102
RTVSPropertyOp30
 70
     1
102
RTVSPropertyOp31
 70
     1
102
RTVSPropertyOp32
 70
     1
102
RTVSPropertyOp33
 70
     1
102
RTVSPropertyOp34
 70
     1
102
RTVSPropertyOp35
 70
     1
102
RTVSPropertyOp36
 70
     1
102
RTVSPropertyOp37
 70
     1
102
RTVSPropertyOp38
 70
     1
102
RTVSPropertyOp39
 70
     1
102
RTVSPropertyOp40
 70
     1
102
RTVSPropertyOp41
 70
     1
102
RTVSPropertyOp42
 70
     1
102
RTVSPropertyOp43
 70
     1
102
RTVSPropertyOp44
 70
     1
102
RTVSPropertyOp45
 70
     1
102
RTVSPropertyOp46
 70
     1
102
RTVSPropertyOp47
 70
     1
102
RTVSPropertyOp48
 70
     1
102
RTVSPropertyOp49
 70
     1
102
RTVSPropertyOp50
 70
     1
102
RTVSPropertyOp51
 70
     0
102
RTVSPropertyOp52
 70
     0
102
RTVSPropertyOp53
 70
     1
102
RTVSPropertyOp54
 70
     1
102
RTVSPropertyOp55
 70
     1
102
RTVSPropertyOp56
 70
     1
102
RTVSPropertyOp57
 70
     1
102
RTVSPropertyOp58
 70
     1
102
RTVSPropertyOp59
 70
     1
102
RTVSPropertyOp60
 70
     1
102
RTVSPropertyOp61
 70
     1
102
RTVSPropertyOp62
 70
     1
  0
XRECORD
  5
2AC
102
{ACAD_REACTORS
330
2AB
102
}
330
2AB
100
AcDbXrecord
280
     1
102
RTVSPost2010Prop28
280
     0
102
RTVSPost2010PropOp28
 70
     1
102
RTVSPost2010Prop29
280
     1
102
RTVSPost2010PropOp29
 70
     1
102
RTVSPost2010Prop30
280
     1
102
RTVSPost2010PropOp30
 70
     1
102
RTVSPost2010Prop31
280
     0
102
RTVSPost2010PropOp31
 70
     1
102
RTVSPost2010Prop32
280
     0
102
RTVSPost2010PropOp32
 70
     1
102
RTVSPost2010Prop33
280
     0
102
RTVSPost2010PropOp33
 70
     1
102
RTVSPost2010Prop34
280
     0
102
RTVSPost2010PropOp34
 70
     1
102
RTVSPost2010Prop35
280
     0
102
RTVSPost2010PropOp35
 70
     1
102
RTVSPost2010Prop36
280
     0
102
RTVSPost2010PropOp36
 70
     1
102
RTVSPost2010Prop37
 90
       50
102
RTVSPost2010PropOp37
 70
     1
102
RTVSPost2010Prop38
140
0.0
102
RTVSPost2010PropOp38
 70
     1
102
RTVSPost2010Prop39
140
1.0
102
RTVSPost2010PropOp39
 70
     1
102
RTVSPost2010Prop40
 90
        0
102
RTVSPost2010PropOp40
 70
     1
102
RTVSPost2010Prop41ColorIndex
 90
       18
102
RTVSPost2010Prop41ColorRGB
 90
        0
102
RTVSPost2010PropOp41
 70
     1
102
RTVSPost2010Prop42
 90
       50
102
RTVSPost2010PropOp42
 70
     1
102
RTVSPost2010Prop43
 90
        3
102
RTVSPost2010PropOp43
 70
     1
102
RTVSPost2010Prop44ColorIndex
 90
        5
102
RTVSPost2010Prop44ColorRGB
 90
      255
102
RTVSPost2010PropOp44
 70
     1
102
RTVSPost2010Prop45
280
     0
102
RTVSPost2010PropOp45
 70
     1
102
RTVSPost2010Prop46
 90
       50
102
RTVSPost2010PropOp46
 70
     1
102
RTVSPost2010Prop47
 90
       50
102
RTVSPost2010PropOp47
 70
     1
102
RTVSPost2010Prop48
 90
       50
102
RTVSPost2010PropOp48
 70
     1
102
RTVSPost2010Prop49
280
     0
102
RTVSPost2010PropOp49
 70
     1
102
RTVSPost2010Prop50
 90
       50
102
RTVSPost2010PropOp50
 70
     1
102
RTVSPost2010Prop51ColorIndex
 90
      256
102
RTVSPost2010Prop51ColorRGB
 90
-16777216
102
RTVSPost2010PropOp51
 70
     0
102
RTVSPost2010Prop52
140
1.0
102
RTVSPost2010PropOp52
 70
     0
102
RTVSPost2010Prop53
 90
        2
102
RTVSPost2010PropOp53
 70
     1
102
RTVSPost2010Prop54
  1
strokes_ogs.tif
102
RTVSPost2010PropOp54
 70
     1
102
RTVSPost2010Prop55
280
     0
102
RTVSPost2010PropOp55
 70
     1
102
RTVSPost2010Prop56
140
1.0
102
RTVSPost2010PropOp56
 70
     1
102
RTVSPost2010Prop57
140
1.0
102
RTVSPost2010PropOp57
 70
     1
102
RTVSPropertyOp0
 70
     1
102
RTVSPropertyOp1
 70
     1
102
RTVSPropertyOp2
 70
     1
102
RTVSPropertyOp3
 70
     1
102
RTVSPropertyOp4
 70
     1
102
RTVSPropertyOp5
 70
     1
102
RTVSPropertyOp6
 70
     1
102
RTVSPropertyOp7
 70
     1
102
RTVSPropertyOp8
 70
     1
102
RTVSPropertyOp9
 70
     1
102
RTVSPropertyOp10
 70
     1
102
RTVSPropertyOp11
 70
     1
102
RTVSPropertyOp12
 70
     1
102
RTVSPropertyOp13
 70
     1
102
RTVSPropertyOp14
 70
     1
102
RTVSPropertyOp15
 70
     1
102
RTVSPropertyOp16
 70
     1
102
RTVSPropertyOp17
 70
     1
102
RTVSPropertyOp18
 70
     1
102
RTVSPropertyOp19
 70
     1
102
RTVSPropertyOp20
 70
     1
102
RTVSPropertyOp21
 70
     1
102
RTVSPropertyOp22
 70
     1
102
RTVSPropertyOp23
 70
     1
102
RTVSPropertyOp24
 70
     1
102
RTVSPropertyOp25
 70
     1
102
RTVSPropertyOp26
 70
     1
102
RTVSPropertyOp27
 70
     1
102
RTVSPropertyOp28
 70
     1
102
RTVSPropertyOp29
 70
     1
102
RTVSPropertyOp30
 70
     1
102
RTVSPropertyOp31
 70
     1
102
RTVSPropertyOp32
 70
     1
102
RTVSPropertyOp33
 70
     1
102
RTVSPropertyOp34
 70
     1
102
RTVSPropertyOp35
 70
     1
102
RTVSPropertyOp36
 70
     1
102
RTVSPropertyOp37
 70
     1
102
RTVSPropertyOp38
 70
     1
102
RTVSPropertyOp39
 70
     1
102
RTVSPropertyOp40
 70
     1
102
RTVSPropertyOp41
 70
     1
102
RTVSPropertyOp42
 70
     1
102
RTVSPropertyOp43
 70
     1
102
RTVSPropertyOp44
 70
     1
102
RTVSPropertyOp45
 70
     1
102
RTVSPropertyOp46
 70
     1
102
RTVSPropertyOp47
 70
     1
102
RTVSPropertyOp48
 70
     1
102
RTVSPropertyOp49
 70
     1
102
RTVSPropertyOp50
 70
     1
102
RTVSPropertyOp51
 70
     0
102
RTVSPropertyOp52
 70
     0
102
RTVSPropertyOp53
 70
     1
102
RTVSPropertyOp54
 70
     1
102
RTVSPropertyOp55
 70
     1
102
RTVSPropertyOp56
 70
     1
102
RTVSPropertyOp57
 70
     1
102
RTVSPropertyOp58
 70
     1
102
RTVSPropertyOp59
 70
     1
102
RTVSPropertyOp60
 70
     1
102
RTVSPropertyOp61
 70
     1
102
RTVSPropertyOp62
 70
     1
  0
XRECORD
  5
290
102
{ACAD_REACTORS
330
28F
102
}
330
28F
100
AcDbXrecord
280
     1
102
RTVSPost2010Prop28
280
     0
102
RTVSPost2010PropOp28
 70
     1
102
RTVSPost2010Prop29
280
     1
102
RTVSPost2010PropOp29
 70
     1
102
RTVSPost2010Prop30
280
     1
102
RTVSPost2010PropOp30
 70
     1
102
RTVSPost2010Prop31
280
     0
102
RTVSPost2010PropOp31
 70
     1
102
RTVSPost2010Prop32
280
     0
102
RTVSPost2010PropOp32
 70
     1
102
RTVSPost2010Prop33
280
     0
102
RTVSPost2010PropOp33
 70
     1
102
RTVSPost2010Prop34
280
     0
102
RTVSPost2010PropOp34
 70
     1
102
RTVSPost2010Prop35
280
     0
102
RTVSPost2010PropOp35
 70
     1
102
RTVSPost2010Prop36
280
     0
102
RTVSPost2010PropOp36
 70
     1
102
RTVSPost2010Prop37
 90
       50
102
RTVSPost2010PropOp37
 70
     1
102
RTVSPost2010Prop38
140
0.0
102
RTVSPost2010PropOp38
 70
     1
102
RTVSPost2010Prop39
140
1.0
102
RTVSPost2010PropOp39
 70
     1
102
RTVSPost2010Prop40
 90
        0
102
RTVSPost2010PropOp40
 70
     1
102
RTVSPost2010Prop41ColorIndex
 90
       18
102
RTVSPost2010Prop41ColorRGB
 90
        0
102
RTVSPost2010PropOp41
 70
     1
102
RTVSPost2010Prop42
 90
       50
102
RTVSPost2010PropOp42
 70
     1
102
RTVSPost2010Prop43
 90
        3
102
RTVSPost2010PropOp43
 70
     1
102
RTVSPost2010Prop44ColorIndex
 90
        5
102
RTVSPost2010Prop44ColorRGB
 90
      255
102
RTVSPost2010PropOp44
 70
     1
102
RTVSPost2010Prop45
280
     0
102
RTVSPost2010PropOp45
 70
     1
102
RTVSPost2010Prop46
 90
       50
102
RTVSPost2010PropOp46
 70
     1
102
RTVSPost2010Prop47
 90
       50
102
RTVSPost2010PropOp47
 70
     1
102
RTVSPost2010Prop48
 90
       50
102
RTVSPost2010PropOp48
 70
     1
102
RTVSPost2010Prop49
280
     0
102
RTVSPost2010PropOp49
 70
     1
102
RTVSPost2010Prop50
 90
       50
102
RTVSPost2010PropOp50
 70
     1
102
RTVSPost2010Prop51ColorIndex
 90
      256
102
RTVSPost2010Prop51ColorRGB
 90
-16777216
102
RTVSPost2010PropOp51
 70
     0
102
RTVSPost2010Prop52
140
1.0
102
RTVSPost2010PropOp52
 70
     0
102
RTVSPost2010Prop53
 90
        2
102
RTVSPost2010PropOp53
 70
     1
102
RTVSPost2010Prop54
  1
strokes_ogs.tif
102
RTVSPost2010PropOp54
 70
     1
102
RTVSPost2010Prop55
280
     0
102
RTVSPost2010PropOp55
 70
     1
102
RTVSPost2010Prop56
140
1.0
102
RTVSPost2010PropOp56
 70
     1
102
RTVSPost2010Prop57
140
1.0
102
RTVSPost2010PropOp57
 70
     1
102
RTVSPropertyOp0
 70
     1
102
RTVSPropertyOp1
 70
     1
102
RTVSPropertyOp2
 70
     1
102
RTVSPropertyOp3
 70
     1
102
RTVSPropertyOp4
 70
     1
102
RTVSPropertyOp5
 70
     1
102
RTVSPropertyOp6
 70
     1
102
RTVSPropertyOp7
 70
     1
102
RTVSPropertyOp8
 70
     1
102
RTVSPropertyOp9
 70
     1
102
RTVSPropertyOp10
 70
     1
102
RTVSPropertyOp11
 70
     1
102
RTVSPropertyOp12
 70
     1
102
RTVSPropertyOp13
 70
     1
102
RTVSPropertyOp14
 70
     1
102
RTVSPropertyOp15
 70
     1
102
RTVSPropertyOp16
 70
     1
102
RTVSPropertyOp17
 70
     1
102
RTVSPropertyOp18
 70
     1
102
RTVSPropertyOp19
 70
     1
102
RTVSPropertyOp20
 70
     1
102
RTVSPropertyOp21
 70
     1
102
RTVSPropertyOp22
 70
     1
102
RTVSPropertyOp23
 70
     1
102
RTVSPropertyOp24
 70
     1
102
RTVSPropertyOp25
 70
     1
102
RTVSPropertyOp26
 70
     1
102
RTVSPropertyOp27
 70
     1
102
RTVSPropertyOp28
 70
     1
102
RTVSPropertyOp29
 70
     1
102
RTVSPropertyOp30
 70
     1
102
RTVSPropertyOp31
 70
     1
102
RTVSPropertyOp32
 70
     1
102
RTVSPropertyOp33
 70
     1
102
RTVSPropertyOp34
 70
     1
102
RTVSPropertyOp35
 70
     1
102
RTVSPropertyOp36
 70
     1
102
RTVSPropertyOp37
 70
     1
102
RTVSPropertyOp38
 70
     1
102
RTVSPropertyOp39
 70
     1
102
RTVSPropertyOp40
 70
     1
102
RTVSPropertyOp41
 70
     1
102
RTVSPropertyOp42
 70
     1
102
RTVSPropertyOp43
 70
     1
102
RTVSPropertyOp44
 70
     1
102
RTVSPropertyOp45
 70
     1
102
RTVSPropertyOp46
 70
     1
102
RTVSPropertyOp47
 70
     1
102
RTVSPropertyOp48
 70
     1
102
RTVSPropertyOp49
 70
     1
102
RTVSPropertyOp50
 70
     1
102
RTVSPropertyOp51
 70
     0
102
RTVSPropertyOp52
 70
     0
102
RTVSPropertyOp53
 70
     1
102
RTVSPropertyOp54
 70
     1
102
RTVSPropertyOp55
 70
     1
102
RTVSPropertyOp56
 70
     1
102
RTVSPropertyOp57
 70
     1
102
RTVSPropertyOp58
 70
     1
102
RTVSPropertyOp59
 70
     1
102
RTVSPropertyOp60
 70
     1
102
RTVSPropertyOp61
 70
     1
102
RTVSPropertyOp62
 70
     1
  0
XRECORD
  5
292
102
{ACAD_REACTORS
330
291
102
}
330
291
100
AcDbXrecord
280
     1
102
RTVSPost2010Prop28
280
     0
102
RTVSPost2010PropOp28
 70
     1
102
RTVSPost2010Prop29
280
     1
102
RTVSPost2010PropOp29
 70
     1
102
RTVSPost2010Prop30
280
     1
102
RTVSPost2010PropOp30
 70
     1
102
RTVSPost2010Prop31
280
     0
102
RTVSPost2010PropOp31
 70
     1
102
RTVSPost2010Prop32
280
     0
102
RTVSPost2010PropOp32
 70
     1
102
RTVSPost2010Prop33
280
     0
102
RTVSPost2010PropOp33
 70
     1
102
RTVSPost2010Prop34
280
     0
102
RTVSPost2010PropOp34
 70
     1
102
RTVSPost2010Prop35
280
     0
102
RTVSPost2010PropOp35
 70
     1
102
RTVSPost2010Prop36
280
     0
102
RTVSPost2010PropOp36
 70
     1
102
RTVSPost2010Prop37
 90
       50
102
RTVSPost2010PropOp37
 70
     1
102
RTVSPost2010Prop38
140
0.0
102
RTVSPost2010PropOp38
 70
     1
102
RTVSPost2010Prop39
140
1.0
102
RTVSPost2010PropOp39
 70
     1
102
RTVSPost2010Prop40
 90
        0
102
RTVSPost2010PropOp40
 70
     1
102
RTVSPost2010Prop41ColorIndex
 90
       18
102
RTVSPost2010Prop41ColorRGB
 90
        0
102
RTVSPost2010PropOp41
 70
     1
102
RTVSPost2010Prop42
 90
       50
102
RTVSPost2010PropOp42
 70
     1
102
RTVSPost2010Prop43
 90
        3
102
RTVSPost2010PropOp43
 70
     1
102
RTVSPost2010Prop44ColorIndex
 90
        5
102
RTVSPost2010Prop44ColorRGB
 90
      255
102
RTVSPost2010PropOp44
 70
     1
102
RTVSPost2010Prop45
280
     0
102
RTVSPost2010PropOp45
 70
     1
102
RTVSPost2010Prop46
 90
       50
102
RTVSPost2010PropOp46
 70
     1
102
RTVSPost2010Prop47
 90
       50
102
RTVSPost2010PropOp47
 70
     1
102
RTVSPost2010Prop48
 90
       50
102
RTVSPost2010PropOp48
 70
     1
102
RTVSPost2010Prop49
280
     0
102
RTVSPost2010PropOp49
 70
     1
102
RTVSPost2010Prop50
 90
       50
102
RTVSPost2010PropOp50
 70
     1
102
RTVSPost2010Prop51ColorIndex
 90
      256
102
RTVSPost2010Prop51ColorRGB
 90
-16777216
102
RTVSPost2010PropOp51
 70
     0
102
RTVSPost2010Prop52
140
1.0
102
RTVSPost2010PropOp52
 70
     0
102
RTVSPost2010Prop53
 90
        2
102
RTVSPost2010PropOp53
 70
     1
102
RTVSPost2010Prop54
  1
strokes_ogs.tif
102
RTVSPost2010PropOp54
 70
     1
102
RTVSPost2010Prop55
280
     0
102
RTVSPost2010PropOp55
 70
     1
102
RTVSPost2010Prop56
140
1.0
102
RTVSPost2010PropOp56
 70
     1
102
RTVSPost2010Prop57
140
1.0
102
RTVSPost2010PropOp57
 70
     1
102
RTVSPropertyOp0
 70
     1
102
RTVSPropertyOp1
 70
     1
102
RTVSPropertyOp2
 70
     1
102
RTVSPropertyOp3
 70
     1
102
RTVSPropertyOp4
 70
     1
102
RTVSPropertyOp5
 70
     1
102
RTVSPropertyOp6
 70
     1
102
RTVSPropertyOp7
 70
     1
102
RTVSPropertyOp8
 70
     1
102
RTVSPropertyOp9
 70
     1
102
RTVSPropertyOp10
 70
     1
102
RTVSPropertyOp11
 70
     1
102
RTVSPropertyOp12
 70
     1
102
RTVSPropertyOp13
 70
     1
102
RTVSPropertyOp14
 70
     1
102
RTVSPropertyOp15
 70
     1
102
RTVSPropertyOp16
 70
     1
102
RTVSPropertyOp17
 70
     1
102
RTVSPropertyOp18
 70
     1
102
RTVSPropertyOp19
 70
     1
102
RTVSPropertyOp20
 70
     1
102
RTVSPropertyOp21
 70
     1
102
RTVSPropertyOp22
 70
     1
102
RTVSPropertyOp23
 70
     1
102
RTVSPropertyOp24
 70
     1
102
RTVSPropertyOp25
 70
     1
102
RTVSPropertyOp26
 70
     1
102
RTVSPropertyOp27
 70
     1
102
RTVSPropertyOp28
 70
     1
102
RTVSPropertyOp29
 70
     1
102
RTVSPropertyOp30
 70
     1
102
RTVSPropertyOp31
 70
     1
102
RTVSPropertyOp32
 70
     1
102
RTVSPropertyOp33
 70
     1
102
RTVSPropertyOp34
 70
     1
102
RTVSPropertyOp35
 70
     1
102
RTVSPropertyOp36
 70
     1
102
RTVSPropertyOp37
 70
     1
102
RTVSPropertyOp38
 70
     1
102
RTVSPropertyOp39
 70
     1
102
RTVSPropertyOp40
 70
     1
102
RTVSPropertyOp41
 70
     1
102
RTVSPropertyOp42
 70
     1
102
RTVSPropertyOp43
 70
     1
102
RTVSPropertyOp44
 70
     1
102
RTVSPropertyOp45
 70
     1
102
RTVSPropertyOp46
 70
     1
102
RTVSPropertyOp47
 70
     1
102
RTVSPropertyOp48
 70
     1
102
RTVSPropertyOp49
 70
     1
102
RTVSPropertyOp50
 70
     1
102
RTVSPropertyOp51
 70
     0
102
RTVSPropertyOp52
 70
     0
102
RTVSPropertyOp53
 70
     1
102
RTVSPropertyOp54
 70
     1
102
RTVSPropertyOp55
 70
     1
102
RTVSPropertyOp56
 70
     1
102
RTVSPropertyOp57
 70
     1
102
RTVSPropertyOp58
 70
     1
102
RTVSPropertyOp59
 70
     1
102
RTVSPropertyOp60
 70
     1
102
RTVSPropertyOp61
 70
     1
102
RTVSPropertyOp62
 70
     1
  0
XRECORD
  5
294
102
{ACAD_REACTORS
330
293
102
}
330
293
100
AcDbXrecord
280
     1
102
RTVSPost2010Prop28
280
     0
102
RTVSPost2010PropOp28
 70
     1
102
RTVSPost2010Prop29
280
     1
102
RTVSPost2010PropOp29
 70
     1
102
RTVSPost2010Prop30
280
     1
102
RTVSPost2010PropOp30
 70
     1
102
RTVSPost2010Prop31
280
     0
102
RTVSPost2010PropOp31
 70
     1
102
RTVSPost2010Prop32
280
     0
102
RTVSPost2010PropOp32
 70
     1
102
RTVSPost2010Prop33
280
     0
102
RTVSPost2010PropOp33
 70
     1
102
RTVSPost2010Prop34
280
     0
102
RTVSPost2010PropOp34
 70
     1
102
RTVSPost2010Prop35
280
     0
102
RTVSPost2010PropOp35
 70
     1
102
RTVSPost2010Prop36
280
     0
102
RTVSPost2010PropOp36
 70
     1
102
RTVSPost2010Prop37
 90
       50
102
RTVSPost2010PropOp37
 70
     1
102
RTVSPost2010Prop38
140
0.0
102
RTVSPost2010PropOp38
 70
     1
102
RTVSPost2010Prop39
140
1.0
102
RTVSPost2010PropOp39
 70
     1
102
RTVSPost2010Prop40
 90
        0
102
RTVSPost2010PropOp40
 70
     1
102
RTVSPost2010Prop41ColorIndex
 90
       18
102
RTVSPost2010Prop41ColorRGB
 90
        0
102
RTVSPost2010PropOp41
 70
     1
102
RTVSPost2010Prop42
 90
       50
102
RTVSPost2010PropOp42
 70
     1
102
RTVSPost2010Prop43
 90
        3
102
RTVSPost2010PropOp43
 70
     1
102
RTVSPost2010Prop44ColorIndex
 90
        5
102
RTVSPost2010Prop44ColorRGB
 90
      255
102
RTVSPost2010PropOp44
 70
     1
102
RTVSPost2010Prop45
280
     0
102
RTVSPost2010PropOp45
 70
     1
102
RTVSPost2010Prop46
 90
       50
102
RTVSPost2010PropOp46
 70
     1
102
RTVSPost2010Prop47
 90
       50
102
RTVSPost2010PropOp47
 70
     1
102
RTVSPost2010Prop48
 90
       50
102
RTVSPost2010PropOp48
 70
     1
102
RTVSPost2010Prop49
280
     0
102
RTVSPost2010PropOp49
 70
     1
102
RTVSPost2010Prop50
 90
       50
102
RTVSPost2010PropOp50
 70
     1
102
RTVSPost2010Prop51ColorIndex
 90
      256
102
RTVSPost2010Prop51ColorRGB
 90
-16777216
102
RTVSPost2010PropOp51
 70
     0
102
RTVSPost2010Prop52
140
1.0
102
RTVSPost2010PropOp52
 70
     0
102
RTVSPost2010Prop53
 90
        2
102
RTVSPost2010PropOp53
 70
     1
102
RTVSPost2010Prop54
  1
strokes_ogs.tif
102
RTVSPost2010PropOp54
 70
     1
102
RTVSPost2010Prop55
280
     0
102
RTVSPost2010PropOp55
 70
     1
102
RTVSPost2010Prop56
140
1.0
102
RTVSPost2010PropOp56
 70
     1
102
RTVSPost2010Prop57
140
1.0
102
RTVSPost2010PropOp57
 70
     1
102
RTVSPropertyOp0
 70
     1
102
RTVSPropertyOp1
 70
     1
102
RTVSPropertyOp2
 70
     1
102
RTVSPropertyOp3
 70
     1
102
RTVSPropertyOp4
 70
     1
102
RTVSPropertyOp5
 70
     1
102
RTVSPropertyOp6
 70
     1
102
RTVSPropertyOp7
 70
     1
102
RTVSPropertyOp8
 70
     1
102
RTVSPropertyOp9
 70
     1
102
RTVSPropertyOp10
 70
     1
102
RTVSPropertyOp11
 70
     1
102
RTVSPropertyOp12
 70
     1
102
RTVSPropertyOp13
 70
     1
102
RTVSPropertyOp14
 70
     1
102
RTVSPropertyOp15
 70
     1
102
RTVSPropertyOp16
 70
     1
102
RTVSPropertyOp17
 70
     1
102
RTVSPropertyOp18
 70
     1
102
RTVSPropertyOp19
 70
     1
102
RTVSPropertyOp20
 70
     1
102
RTVSPropertyOp21
 70
     1
102
RTVSPropertyOp22
 70
     1
102
RTVSPropertyOp23
 70
     1
102
RTVSPropertyOp24
 70
     1
102
RTVSPropertyOp25
 70
     1
102
RTVSPropertyOp26
 70
     1
102
RTVSPropertyOp27
 70
     1
102
RTVSPropertyOp28
 70
     1
102
RTVSPropertyOp29
 70
     1
102
RTVSPropertyOp30
 70
     1
102
RTVSPropertyOp31
 70
     1
102
RTVSPropertyOp32
 70
     1
102
RTVSPropertyOp33
 70
     1
102
RTVSPropertyOp34
 70
     1
102
RTVSPropertyOp35
 70
     1
102
RTVSPropertyOp36
 70
     1
102
RTVSPropertyOp37
 70
     1
102
RTVSPropertyOp38
 70
     1
102
RTVSPropertyOp39
 70
     1
102
RTVSPropertyOp40
 70
     1
102
RTVSPropertyOp41
 70
     1
102
RTVSPropertyOp42
 70
     1
102
RTVSPropertyOp43
 70
     1
102
RTVSPropertyOp44
 70
     1
102
RTVSPropertyOp45
 70
     1
102
RTVSPropertyOp46
 70
     1
102
RTVSPropertyOp47
 70
     1
102
RTVSPropertyOp48
 70
     1
102
RTVSPropertyOp49
 70
     1
102
RTVSPropertyOp50
 70
     1
102
RTVSPropertyOp51
 70
     0
102
RTVSPropertyOp52
 70
     0
102
RTVSPropertyOp53
 70
     1
102
RTVSPropertyOp54
 70
     1
102
RTVSPropertyOp55
 70
     1
102
RTVSPropertyOp56
 70
     1
102
RTVSPropertyOp57
 70
     1
102
RTVSPropertyOp58
 70
     1
102
RTVSPropertyOp59
 70
     1
102
RTVSPropertyOp60
 70
     1
102
RTVSPropertyOp61
 70
     1
102
RTVSPropertyOp62
 70
     1
  0
XRECORD
  5
296
102
{ACAD_REACTORS
330
295
102
}
330
295
100
AcDbXrecord
280
     1
102
RTVSPost2010Prop28
280
     0
102
RTVSPost2010PropOp28
 70
     1
102
RTVSPost2010Prop29
280
     1
102
RTVSPost2010PropOp29
 70
     1
102
RTVSPost2010Prop30
280
     1
102
RTVSPost2010PropOp30
 70
     1
102
RTVSPost2010Prop31
280
     0
102
RTVSPost2010PropOp31
 70
     1
102
RTVSPost2010Prop32
280
     0
102
RTVSPost2010PropOp32
 70
     1
102
RTVSPost2010Prop33
280
     0
102
RTVSPost2010PropOp33
 70
     1
102
RTVSPost2010Prop34
280
     0
102
RTVSPost2010PropOp34
 70
     1
102
RTVSPost2010Prop35
280
     0
102
RTVSPost2010PropOp35
 70
     1
102
RTVSPost2010Prop36
280
     0
102
RTVSPost2010PropOp36
 70
     1
102
RTVSPost2010Prop37
 90
       50
102
RTVSPost2010PropOp37
 70
     1
102
RTVSPost2010Prop38
140
0.0
102
RTVSPost2010PropOp38
 70
     1
102
RTVSPost2010Prop39
140
1.0
102
RTVSPost2010PropOp39
 70
     1
102
RTVSPost2010Prop40
 90
        0
102
RTVSPost2010PropOp40
 70
     1
102
RTVSPost2010Prop41ColorIndex
 90
       18
102
RTVSPost2010Prop41ColorRGB
 90
        0
102
RTVSPost2010PropOp41
 70
     1
102
RTVSPost2010Prop42
 90
       50
102
RTVSPost2010PropOp42
 70
     1
102
RTVSPost2010Prop43
 90
        3
102
RTVSPost2010PropOp43
 70
     1
102
RTVSPost2010Prop44ColorIndex
 90
        5
102
RTVSPost2010Prop44ColorRGB
 90
      255
102
RTVSPost2010PropOp44
 70
     1
102
RTVSPost2010Prop45
280
     0
102
RTVSPost2010PropOp45
 70
     1
102
RTVSPost2010Prop46
 90
       50
102
RTVSPost2010PropOp46
 70
     1
102
RTVSPost2010Prop47
 90
       50
102
RTVSPost2010PropOp47
 70
     1
102
RTVSPost2010Prop48
 90
       50
102
RTVSPost2010PropOp48
 70
     1
102
RTVSPost2010Prop49
280
     0
102
RTVSPost2010PropOp49
 70
     1
102
RTVSPost2010Prop50
 90
       50
102
RTVSPost2010PropOp50
 70
     1
102
RTVSPost2010Prop51ColorIndex
 90
      256
102
RTVSPost2010Prop51ColorRGB
 90
-16777216
102
RTVSPost2010PropOp51
 70
     0
102
RTVSPost2010Prop52
140
1.0
102
RTVSPost2010PropOp52
 70
     0
102
RTVSPost2010Prop53
 90
        2
102
RTVSPost2010PropOp53
 70
     1
102
RTVSPost2010Prop54
  1
strokes_ogs.tif
102
RTVSPost2010PropOp54
 70
     1
102
RTVSPost2010Prop55
280
     0
102
RTVSPost2010PropOp55
 70
     1
102
RTVSPost2010Prop56
140
1.0
102
RTVSPost2010PropOp56
 70
     1
102
RTVSPost2010Prop57
140
1.0
102
RTVSPost2010PropOp57
 70
     1
102
RTVSPropertyOp0
 70
     1
102
RTVSPropertyOp1
 70
     1
102
RTVSPropertyOp2
 70
     1
102
RTVSPropertyOp3
 70
     1
102
RTVSPropertyOp4
 70
     1
102
RTVSPropertyOp5
 70
     1
102
RTVSPropertyOp6
 70
     1
102
RTVSPropertyOp7
 70
     1
102
RTVSPropertyOp8
 70
     1
102
RTVSPropertyOp9
 70
     1
102
RTVSPropertyOp10
 70
     1
102
RTVSPropertyOp11
 70
     1
102
RTVSPropertyOp12
 70
     1
102
RTVSPropertyOp13
 70
     1
102
RTVSPropertyOp14
 70
     1
102
RTVSPropertyOp15
 70
     1
102
RTVSPropertyOp16
 70
     1
102
RTVSPropertyOp17
 70
     1
102
RTVSPropertyOp18
 70
     1
102
RTVSPropertyOp19
 70
     1
102
RTVSPropertyOp20
 70
     1
102
RTVSPropertyOp21
 70
     1
102
RTVSPropertyOp22
 70
     1
102
RTVSPropertyOp23
 70
     1
102
RTVSPropertyOp24
 70
     1
102
RTVSPropertyOp25
 70
     1
102
RTVSPropertyOp26
 70
     1
102
RTVSPropertyOp27
 70
     1
102
RTVSPropertyOp28
 70
     1
102
RTVSPropertyOp29
 70
     1
102
RTVSPropertyOp30
 70
     1
102
RTVSPropertyOp31
 70
     1
102
RTVSPropertyOp32
 70
     1
102
RTVSPropertyOp33
 70
     1
102
RTVSPropertyOp34
 70
     1
102
RTVSPropertyOp35
 70
     1
102
RTVSPropertyOp36
 70
     1
102
RTVSPropertyOp37
 70
     1
102
RTVSPropertyOp38
 70
     1
102
RTVSPropertyOp39
 70
     1
102
RTVSPropertyOp40
 70
     1
102
RTVSPropertyOp41
 70
     1
102
RTVSPropertyOp42
 70
     1
102
RTVSPropertyOp43
 70
     1
102
RTVSPropertyOp44
 70
     1
102
RTVSPropertyOp45
 70
     1
102
RTVSPropertyOp46
 70
     1
102
RTVSPropertyOp47
 70
     1
102
RTVSPropertyOp48
 70
     1
102
RTVSPropertyOp49
 70
     1
102
RTVSPropertyOp50
 70
     1
102
RTVSPropertyOp51
 70
     0
102
RTVSPropertyOp52
 70
     0
102
RTVSPropertyOp53
 70
     1
102
RTVSPropertyOp54
 70
     1
102
RTVSPropertyOp55
 70
     1
102
RTVSPropertyOp56
 70
     1
102
RTVSPropertyOp57
 70
     1
102
RTVSPropertyOp58
 70
     1
102
RTVSPropertyOp59
 70
     1
102
RTVSPropertyOp60
 70
     1
102
RTVSPropertyOp61
 70
     1
102
RTVSPropertyOp62
 70
     1
  0
XRECORD
  5
29E
102
{ACAD_REACTORS
330
29D
102
}
330
29D
100
AcDbXrecord
280
     1
102
RTVSPost2010Prop28
280
     0
102
RTVSPost2010PropOp28
 70
     1
102
RTVSPost2010Prop29
280
     1
102
RTVSPost2010PropOp29
 70
     1
102
RTVSPost2010Prop30
280
     1
102
RTVSPost2010PropOp30
 70
     1
102
RTVSPost2010Prop31
280
     0
102
RTVSPost2010PropOp31
 70
     1
102
RTVSPost2010Prop32
280
     0
102
RTVSPost2010PropOp32
 70
     1
102
RTVSPost2010Prop33
280
     0
102
RTVSPost2010PropOp33
 70
     1
102
RTVSPost2010Prop34
280
     0
102
RTVSPost2010PropOp34
 70
     1
102
RTVSPost2010Prop35
280
     0
102
RTVSPost2010PropOp35
 70
     1
102
RTVSPost2010Prop36
280
     0
102
RTVSPost2010PropOp36
 70
     1
102
RTVSPost2010Prop37
 90
       50
102
RTVSPost2010PropOp37
 70
     1
102
RTVSPost2010Prop38
140
0.0
102
RTVSPost2010PropOp38
 70
     1
102
RTVSPost2010Prop39
140
1.0
102
RTVSPost2010PropOp39
 70
     1
102
RTVSPost2010Prop40
 90
        0
102
RTVSPost2010PropOp40
 70
     1
102
RTVSPost2010Prop41ColorIndex
 90
       18
102
RTVSPost2010Prop41ColorRGB
 90
        0
102
RTVSPost2010PropOp41
 70
     1
102
RTVSPost2010Prop42
 90
       50
102
RTVSPost2010PropOp42
 70
     1
102
RTVSPost2010Prop43
 90
        3
102
RTVSPost2010PropOp43
 70
     1
102
RTVSPost2010Prop44ColorIndex
 90
        5
102
RTVSPost2010Prop44ColorRGB
 90
      255
102
RTVSPost2010PropOp44
 70
     1
102
RTVSPost2010Prop45
280
     0
102
RTVSPost2010PropOp45
 70
     1
102
RTVSPost2010Prop46
 90
       50
102
RTVSPost2010PropOp46
 70
     1
102
RTVSPost2010Prop47
 90
       50
102
RTVSPost2010PropOp47
 70
     1
102
RTVSPost2010Prop48
 90
       50
102
RTVSPost2010PropOp48
 70
     1
102
RTVSPost2010Prop49
280
     0
102
RTVSPost2010PropOp49
 70
     1
102
RTVSPost2010Prop50
 90
       50
102
RTVSPost2010PropOp50
 70
     1
102
RTVSPost2010Prop51ColorIndex
 90
      256
102
RTVSPost2010Prop51ColorRGB
 90
-16777216
102
RTVSPost2010PropOp51
 70
     0
102
RTVSPost2010Prop52
140
1.0
102
RTVSPost2010PropOp52
 70
     0
102
RTVSPost2010Prop53
 90
        2
102
RTVSPost2010PropOp53
 70
     1
102
RTVSPost2010Prop54
  1
strokes_ogs.tif
102
RTVSPost2010PropOp54
 70
     1
102
RTVSPost2010Prop55
280
     0
102
RTVSPost2010PropOp55
 70
     1
102
RTVSPost2010Prop56
140
1.0
102
RTVSPost2010PropOp56
 70
     1
102
RTVSPost2010Prop57
140
1.0
102
RTVSPost2010PropOp57
 70
     1
102
RTVSPropertyOp0
 70
     1
102
RTVSPropertyOp1
 70
     1
102
RTVSPropertyOp2
 70
     1
102
RTVSPropertyOp3
 70
     1
102
RTVSPropertyOp4
 70
     1
102
RTVSPropertyOp5
 70
     1
102
RTVSPropertyOp6
 70
     1
102
RTVSPropertyOp7
 70
     1
102
RTVSPropertyOp8
 70
     1
102
RTVSPropertyOp9
 70
     1
102
RTVSPropertyOp10
 70
     1
102
RTVSPropertyOp11
 70
     1
102
RTVSPropertyOp12
 70
     1
102
RTVSPropertyOp13
 70
     1
102
RTVSPropertyOp14
 70
     1
102
RTVSPropertyOp15
 70
     1
102
RTVSPropertyOp16
 70
     1
102
RTVSPropertyOp17
 70
     1
102
RTVSPropertyOp18
 70
     1
102
RTVSPropertyOp19
 70
     1
102
RTVSPropertyOp20
 70
     1
102
RTVSPropertyOp21
 70
     1
102
RTVSPropertyOp22
 70
     1
102
RTVSPropertyOp23
 70
     1
102
RTVSPropertyOp24
 70
     1
102
RTVSPropertyOp25
 70
     1
102
RTVSPropertyOp26
 70
     1
102
RTVSPropertyOp27
 70
     1
102
RTVSPropertyOp28
 70
     1
102
RTVSPropertyOp29
 70
     1
102
RTVSPropertyOp30
 70
     1
102
RTVSPropertyOp31
 70
     1
102
RTVSPropertyOp32
 70
     1
102
RTVSPropertyOp33
 70
     1
102
RTVSPropertyOp34
 70
     1
102
RTVSPropertyOp35
 70
     1
102
RTVSPropertyOp36
 70
     1
102
RTVSPropertyOp37
 70
     1
102
RTVSPropertyOp38
 70
     1
102
RTVSPropertyOp39
 70
     1
102
RTVSPropertyOp40
 70
     1
102
RTVSPropertyOp41
 70
     1
102
RTVSPropertyOp42
 70
     1
102
RTVSPropertyOp43
 70
     1
102
RTVSPropertyOp44
 70
     1
102
RTVSPropertyOp45
 70
     1
102
RTVSPropertyOp46
 70
     1
102
RTVSPropertyOp47
 70
     1
102
RTVSPropertyOp48
 70
     1
102
RTVSPropertyOp49
 70
     1
102
RTVSPropertyOp50
 70
     1
102
RTVSPropertyOp51
 70
     0
102
RTVSPropertyOp52
 70
     0
102
RTVSPropertyOp53
 70
     1
102
RTVSPropertyOp54
 70
     1
102
RTVSPropertyOp55
 70
     1
102
RTVSPropertyOp56
 70
     1
102
RTVSPropertyOp57
 70
     1
102
RTVSPropertyOp58
 70
     1
102
RTVSPropertyOp59
 70
     1
102
RTVSPropertyOp60
 70
     1
102
RTVSPropertyOp61
 70
     1
102
RTVSPropertyOp62
 70
     1
  0
XRECORD
  5
2B0
102
{ACAD_REACTORS
330
2AF
102
}
330
2AF
100
AcDbXrecord
280
     1
102
RTVSPost2010Prop28
280
     0
102
RTVSPost2010PropOp28
 70
     1
102
RTVSPost2010Prop29
280
     1
102
RTVSPost2010PropOp29
 70
     1
102
RTVSPost2010Prop30
280
     1
102
RTVSPost2010PropOp30
 70
     1
102
RTVSPost2010Prop31
280
     0
102
RTVSPost2010PropOp31
 70
     1
102
RTVSPost2010Prop32
280
     0
102
RTVSPost2010PropOp32
 70
     1
102
RTVSPost2010Prop33
280
     0
102
RTVSPost2010PropOp33
 70
     1
102
RTVSPost2010Prop34
280
     0
102
RTVSPost2010PropOp34
 70
     1
102
RTVSPost2010Prop35
280
     0
102
RTVSPost2010PropOp35
 70
     1
102
RTVSPost2010Prop36
280
     0
102
RTVSPost2010PropOp36
 70
     1
102
RTVSPost2010Prop37
 90
       50
102
RTVSPost2010PropOp37
 70
     1
102
RTVSPost2010Prop38
140
0.0
102
RTVSPost2010PropOp38
 70
     1
102
RTVSPost2010Prop39
140
1.0
102
RTVSPost2010PropOp39
 70
     1
102
RTVSPost2010Prop40
 90
        0
102
RTVSPost2010PropOp40
 70
     1
102
RTVSPost2010Prop41ColorIndex
 90
       18
102
RTVSPost2010Prop41ColorRGB
 90
        0
102
RTVSPost2010PropOp41
 70
     1
102
RTVSPost2010Prop42
 90
       50
102
RTVSPost2010PropOp42
 70
     1
102
RTVSPost2010Prop43
 90
        3
102
RTVSPost2010PropOp43
 70
     1
102
RTVSPost2010Prop44ColorIndex
 90
        5
102
RTVSPost2010Prop44ColorRGB
 90
      255
102
RTVSPost2010PropOp44
 70
     1
102
RTVSPost2010Prop45
280
     0
102
RTVSPost2010PropOp45
 70
     1
102
RTVSPost2010Prop46
 90
       50
102
RTVSPost2010PropOp46
 70
     1
102
RTVSPost2010Prop47
 90
       50
102
RTVSPost2010PropOp47
 70
     1
102
RTVSPost2010Prop48
 90
       50
102
RTVSPost2010PropOp48
 70
     1
102
RTVSPost2010Prop49
280
     0
102
RTVSPost2010PropOp49
 70
     1
102
RTVSPost2010Prop50
 90
       50
102
RTVSPost2010PropOp50
 70
     1
102
RTVSPost2010Prop51ColorIndex
 90
      256
102
RTVSPost2010Prop51ColorRGB
 90
-16777216
102
RTVSPost2010PropOp51
 70
     0
102
RTVSPost2010Prop52
140
1.0
102
RTVSPost2010PropOp52
 70
     0
102
RTVSPost2010Prop53
 90
        2
102
RTVSPost2010PropOp53
 70
     1
102
RTVSPost2010Prop54
  1
strokes_ogs.tif
102
RTVSPost2010PropOp54
 70
     1
102
RTVSPost2010Prop55
280
     0
102
RTVSPost2010PropOp55
 70
     1
102
RTVSPost2010Prop56
140
1.0
102
RTVSPost2010PropOp56
 70
     1
102
RTVSPost2010Prop57
140
1.0
102
RTVSPost2010PropOp57
 70
     1
102
RTVSPropertyOp0
 70
     0
102
RTVSPropertyOp1
 70
     0
102
RTVSPropertyOp2
 70
     0
102
RTVSPropertyOp3
 70
     0
102
RTVSPropertyOp4
 70
     0
102
RTVSPropertyOp5
 70
     0
102
RTVSPropertyOp6
 70
     0
102
RTVSPropertyOp7
 70
     0
102
RTVSPropertyOp8
 70
     0
102
RTVSPropertyOp9
 70
     0
102
RTVSPropertyOp10
 70
     0
102
RTVSPropertyOp11
 70
     0
102
RTVSPropertyOp12
 70
     0
102
RTVSPropertyOp13
 70
     0
102
RTVSPropertyOp14
 70
     2
102
RTVSPropertyOp15
 70
     0
102
RTVSPropertyOp16
 70
     0
102
RTVSPropertyOp17
 70
     0
102
RTVSPropertyOp18
 70
     0
102
RTVSPropertyOp19
 70
     0
102
RTVSPropertyOp20
 70
     0
102
RTVSPropertyOp21
 70
     0
102
RTVSPropertyOp22
 70
     0
102
RTVSPropertyOp23
 70
     0
102
RTVSPropertyOp24
 70
     0
102
RTVSPropertyOp25
 70
     0
102
RTVSPropertyOp26
 70
     0
102
RTVSPropertyOp27
 70
     0
102
RTVSPropertyOp28
 70
     1
102
RTVSPropertyOp29
 70
     1
102
RTVSPropertyOp30
 70
     1
102
RTVSPropertyOp31
 70
     1
102
RTVSPropertyOp32
 70
     1
102
RTVSPropertyOp33
 70
     1
102
RTVSPropertyOp34
 70
     1
102
RTVSPropertyOp35
 70
     1
102
RTVSPropertyOp36
 70
     1
102
RTVSPropertyOp37
 70
     1
102
RTVSPropertyOp38
 70
     1
102
RTVSPropertyOp39
 70
     1
102
RTVSPropertyOp40
 70
     1
102
RTVSPropertyOp41
 70
     1
102
RTVSPropertyOp42
 70
     1
102
RTVSPropertyOp43
 70
     1
102
RTVSPropertyOp44
 70
     1
102
RTVSPropertyOp45
 70
     1
102
RTVSPropertyOp46
 70
     1
102
RTVSPropertyOp47
 70
     1
102
RTVSPropertyOp48
 70
     1
102
RTVSPropertyOp49
 70
     1
102
RTVSPropertyOp50
 70
     1
102
RTVSPropertyOp51
 70
     0
102
RTVSPropertyOp52
 70
     0
102
RTVSPropertyOp53
 70
     1
102
RTVSPropertyOp54
 70
     1
102
RTVSPropertyOp55
 70
     1
102
RTVSPropertyOp56
 70
     1
102
RTVSPropertyOp57
 70
     1
102
RTVSPropertyOp58
 70
     1
102
RTVSPropertyOp59
 70
     1
102
RTVSPropertyOp60
 70
     1
102
RTVSPropertyOp61
 70
     1
102
RTVSPropertyOp62
 70
     1
  0
XRECORD
  5
2AA
102
{ACAD_REACTORS
330
2A9
102
}
330
2A9
100
AcDbXrecord
280
     1
102
RTVSPost2010Prop28
280
     0
102
RTVSPost2010PropOp28
 70
     1
102
RTVSPost2010Prop29
280
     1
102
RTVSPost2010PropOp29
 70
     1
102
RTVSPost2010Prop30
280
     1
102
RTVSPost2010PropOp30
 70
     1
102
RTVSPost2010Prop31
280
     0
102
RTVSPost2010PropOp31
 70
     1
102
RTVSPost2010Prop32
280
     0
102
RTVSPost2010PropOp32
 70
     1
102
RTVSPost2010Prop33
280
     0
102
RTVSPost2010PropOp33
 70
     1
102
RTVSPost2010Prop34
280
     0
102
RTVSPost2010PropOp34
 70
     1
102
RTVSPost2010Prop35
280
     0
102
RTVSPost2010PropOp35
 70
     1
102
RTVSPost2010Prop36
280
     0
102
RTVSPost2010PropOp36
 70
     1
102
RTVSPost2010Prop37
 90
       50
102
RTVSPost2010PropOp37
 70
     1
102
RTVSPost2010Prop38
140
0.0
102
RTVSPost2010PropOp38
 70
     1
102
RTVSPost2010Prop39
140
1.0
102
RTVSPost2010PropOp39
 70
     1
102
RTVSPost2010Prop40
 90
        0
102
RTVSPost2010PropOp40
 70
     1
102
RTVSPost2010Prop41ColorIndex
 90
       18
102
RTVSPost2010Prop41ColorRGB
 90
        0
102
RTVSPost2010PropOp41
 70
     1
102
RTVSPost2010Prop42
 90
       50
102
RTVSPost2010PropOp42
 70
     1
102
RTVSPost2010Prop43
 90
        3
102
RTVSPost2010PropOp43
 70
     1
102
RTVSPost2010Prop44ColorIndex
 90
        5
102
RTVSPost2010Prop44ColorRGB
 90
      255
102
RTVSPost2010PropOp44
 70
     1
102
RTVSPost2010Prop45
280
     0
102
RTVSPost2010PropOp45
 70
     1
102
RTVSPost2010Prop46
 90
       50
102
RTVSPost2010PropOp46
 70
     1
102
RTVSPost2010Prop47
 90
       50
102
RTVSPost2010PropOp47
 70
     1
102
RTVSPost2010Prop48
 90
       50
102
RTVSPost2010PropOp48
 70
     1
102
RTVSPost2010Prop49
280
     0
102
RTVSPost2010PropOp49
 70
     1
102
RTVSPost2010Prop50
 90
       50
102
RTVSPost2010PropOp50
 70
     1
102
RTVSPost2010Prop51ColorIndex
 90
      256
102
RTVSPost2010Prop51ColorRGB
 90
-16777216
102
RTVSPost2010PropOp51
 70
     0
102
RTVSPost2010Prop52
140
1.0
102
RTVSPost2010PropOp52
 70
     0
102
RTVSPost2010Prop53
 90
        2
102
RTVSPost2010PropOp53
 70
     1
102
RTVSPost2010Prop54
  1
strokes_ogs.tif
102
RTVSPost2010PropOp54
 70
     1
102
RTVSPost2010Prop55
280
     0
102
RTVSPost2010PropOp55
 70
     1
102
RTVSPost2010Prop56
140
1.0
102
RTVSPost2010PropOp56
 70
     1
102
RTVSPost2010Prop57
140
1.0
102
RTVSPost2010PropOp57
 70
     1
102
RTVSPropertyOp0
 70
     1
102
RTVSPropertyOp1
 70
     1
102
RTVSPropertyOp2
 70
     1
102
RTVSPropertyOp3
 70
     1
102
RTVSPropertyOp4
 70
     1
102
RTVSPropertyOp5
 70
     1
102
RTVSPropertyOp6
 70
     1
102
RTVSPropertyOp7
 70
     1
102
RTVSPropertyOp8
 70
     1
102
RTVSPropertyOp9
 70
     1
102
RTVSPropertyOp10
 70
     1
102
RTVSPropertyOp11
 70
     1
102
RTVSPropertyOp12
 70
     1
102
RTVSPropertyOp13
 70
     1
102
RTVSPropertyOp14
 70
     1
102
RTVSPropertyOp15
 70
     1
102
RTVSPropertyOp16
 70
     1
102
RTVSPropertyOp17
 70
     1
102
RTVSPropertyOp18
 70
     1
102
RTVSPropertyOp19
 70
     1
102
RTVSPropertyOp20
 70
     1
102
RTVSPropertyOp21
 70
     1
102
RTVSPropertyOp22
 70
     1
102
RTVSPropertyOp23
 70
     1
102
RTVSPropertyOp24
 70
     1
102
RTVSPropertyOp25
 70
     1
102
RTVSPropertyOp26
 70
     1
102
RTVSPropertyOp27
 70
     1
102
RTVSPropertyOp28
 70
     1
102
RTVSPropertyOp29
 70
     1
102
RTVSPropertyOp30
 70
     1
102
RTVSPropertyOp31
 70
     1
102
RTVSPropertyOp32
 70
     1
102
RTVSPropertyOp33
 70
     1
102
RTVSPropertyOp34
 70
     1
102
RTVSPropertyOp35
 70
     1
102
RTVSPropertyOp36
 70
     1
102
RTVSPropertyOp37
 70
     1
102
RTVSPropertyOp38
 70
     1
102
RTVSPropertyOp39
 70
     1
102
RTVSPropertyOp40
 70
     1
102
RTVSPropertyOp41
 70
     1
102
RTVSPropertyOp42
 70
     1
102
RTVSPropertyOp43
 70
     1
102
RTVSPropertyOp44
 70
     1
102
RTVSPropertyOp45
 70
     1
102
RTVSPropertyOp46
 70
     1
102
RTVSPropertyOp47
 70
     1
102
RTVSPropertyOp48
 70
     1
102
RTVSPropertyOp49
 70
     1
102
RTVSPropertyOp50
 70
     1
102
RTVSPropertyOp51
 70
     0
102
RTVSPropertyOp52
 70
     0
102
RTVSPropertyOp53
 70
     1
102
RTVSPropertyOp54
 70
     1
102
RTVSPropertyOp55
 70
     1
102
RTVSPropertyOp56
 70
     1
102
RTVSPropertyOp57
 70
     1
102
RTVSPropertyOp58
 70
     1
102
RTVSPropertyOp59
 70
     1
102
RTVSPropertyOp60
 70
     1
102
RTVSPropertyOp61
 70
     1
102
RTVSPropertyOp62
 70
     1
  0
XRECORD
  5
2B2
102
{ACAD_REACTORS
330
2B1
102
}
330
2B1
100
AcDbXrecord
280
     1
102
RTVSPost2010Prop28
280
     0
102
RTVSPost2010PropOp28
 70
     1
102
RTVSPost2010Prop29
280
     1
102
RTVSPost2010PropOp29
 70
     1
102
RTVSPost2010Prop30
280
     1
102
RTVSPost2010PropOp30
 70
     1
102
RTVSPost2010Prop31
280
     0
102
RTVSPost2010PropOp31
 70
     1
102
RTVSPost2010Prop32
280
     0
102
RTVSPost2010PropOp32
 70
     1
102
RTVSPost2010Prop33
280
     0
102
RTVSPost2010PropOp33
 70
     1
102
RTVSPost2010Prop34
280
     0
102
RTVSPost2010PropOp34
 70
     1
102
RTVSPost2010Prop35
280
     0
102
RTVSPost2010PropOp35
 70
     1
102
RTVSPost2010Prop36
280
     0
102
RTVSPost2010PropOp36
 70
     1
102
RTVSPost2010Prop37
 90
       50
102
RTVSPost2010PropOp37
 70
     1
102
RTVSPost2010Prop38
140
0.0
102
RTVSPost2010PropOp38
 70
     1
102
RTVSPost2010Prop39
140
1.0
102
RTVSPost2010PropOp39
 70
     1
102
RTVSPost2010Prop40
 90
        0
102
RTVSPost2010PropOp40
 70
     1
102
RTVSPost2010Prop41ColorIndex
 90
       18
102
RTVSPost2010Prop41ColorRGB
 90
        0
102
RTVSPost2010PropOp41
 70
     1
102
RTVSPost2010Prop42
 90
       50
102
RTVSPost2010PropOp42
 70
     1
102
RTVSPost2010Prop43
 90
        3
102
RTVSPost2010PropOp43
 70
     1
102
RTVSPost2010Prop44ColorIndex
 90
        5
102
RTVSPost2010Prop44ColorRGB
 90
      255
102
RTVSPost2010PropOp44
 70
     1
102
RTVSPost2010Prop45
280
     0
102
RTVSPost2010PropOp45
 70
     1
102
RTVSPost2010Prop46
 90
       50
102
RTVSPost2010PropOp46
 70
     1
102
RTVSPost2010Prop47
 90
       50
102
RTVSPost2010PropOp47
 70
     1
102
RTVSPost2010Prop48
 90
       50
102
RTVSPost2010PropOp48
 70
     1
102
RTVSPost2010Prop49
280
     0
102
RTVSPost2010PropOp49
 70
     1
102
RTVSPost2010Prop50
 90
       50
102
RTVSPost2010PropOp50
 70
     1
102
RTVSPost2010Prop51ColorIndex
 90
      256
102
RTVSPost2010Prop51ColorRGB
 90
-16777216
102
RTVSPost2010PropOp51
 70
     0
102
RTVSPost2010Prop52
140
1.0
102
RTVSPost2010PropOp52
 70
     0
102
RTVSPost2010Prop53
 90
        2
102
RTVSPost2010PropOp53
 70
     1
102
RTVSPost2010Prop54
  1
strokes_ogs.tif
102
RTVSPost2010PropOp54
 70
     1
102
RTVSPost2010Prop55
280
     0
102
RTVSPost2010PropOp55
 70
     1
102
RTVSPost2010Prop56
140
1.0
102
RTVSPost2010PropOp56
 70
     1
102
RTVSPost2010Prop57
140
1.0
102
RTVSPost2010PropOp57
 70
     1
102
RTVSPropertyOp0
 70
     0
102
RTVSPropertyOp1
 70
     0
102
RTVSPropertyOp2
 70
     0
102
RTVSPropertyOp3
 70
     0
102
RTVSPropertyOp4
 70
     0
102
RTVSPropertyOp5
 70
     0
102
RTVSPropertyOp6
 70
     0
102
RTVSPropertyOp7
 70
     0
102
RTVSPropertyOp8
 70
     0
102
RTVSPropertyOp9
 70
     0
102
RTVSPropertyOp10
 70
     0
102
RTVSPropertyOp11
 70
     0
102
RTVSPropertyOp12
 70
     0
102
RTVSPropertyOp13
 70
     0
102
RTVSPropertyOp14
 70
     2
102
RTVSPropertyOp15
 70
     0
102
RTVSPropertyOp16
 70
     0
102
RTVSPropertyOp17
 70
     0
102
RTVSPropertyOp18
 70
     0
102
RTVSPropertyOp19
 70
     0
102
RTVSPropertyOp20
 70
     0
102
RTVSPropertyOp21
 70
     0
102
RTVSPropertyOp22
 70
     0
102
RTVSPropertyOp23
 70
     0
102
RTVSPropertyOp24
 70
     0
102
RTVSPropertyOp25
 70
     0
102
RTVSPropertyOp26
 70
     0
102
RTVSPropertyOp27
 70
     0
102
RTVSPropertyOp28
 70
     1
102
RTVSPropertyOp29
 70
     1
102
RTVSPropertyOp30
 70
     1
102
RTVSPropertyOp31
 70
     1
102
RTVSPropertyOp32
 70
     1
102
RTVSPropertyOp33
 70
     1
102
RTVSPropertyOp34
 70
     1
102
RTVSPropertyOp35
 70
     1
102
RTVSPropertyOp36
 70
     1
102
RTVSPropertyOp37
 70
     1
102
RTVSPropertyOp38
 70
     1
102
RTVSPropertyOp39
 70
     1
102
RTVSPropertyOp40
 70
     1
102
RTVSPropertyOp41
 70
     1
102
RTVSPropertyOp42
 70
     1
102
RTVSPropertyOp43
 70
     1
102
RTVSPropertyOp44
 70
     1
102
RTVSPropertyOp45
 70
     1
102
RTVSPropertyOp46
 70
     1
102
RTVSPropertyOp47
 70
     1
102
RTVSPropertyOp48
 70
     1
102
RTVSPropertyOp49
 70
     1
102
RTVSPropertyOp50
 70
     1
102
RTVSPropertyOp51
 70
     0
102
RTVSPropertyOp52
 70
     0
102
RTVSPropertyOp53
 70
     1
102
RTVSPropertyOp54
 70
     1
102
RTVSPropertyOp55
 70
     1
102
RTVSPropertyOp56
 70
     1
102
RTVSPropertyOp57
 70
     1
102
RTVSPropertyOp58
 70
     1
102
RTVSPropertyOp59
 70
     1
102
RTVSPropertyOp60
 70
     1
102
RTVSPropertyOp61
 70
     1
102
RTVSPropertyOp62
 70
     1
  0
XRECORD
  5
2A2
102
{ACAD_REACTORS
330
2A1
102
}
330
2A1
100
AcDbXrecord
280
     1
102
RTVSPost2010Prop28
280
     0
102
RTVSPost2010PropOp28
 70
     1
102
RTVSPost2010Prop29
280
     1
102
RTVSPost2010PropOp29
 70
     1
102
RTVSPost2010Prop30
280
     1
102
RTVSPost2010PropOp30
 70
     1
102
RTVSPost2010Prop31
280
     0
102
RTVSPost2010PropOp31
 70
     1
102
RTVSPost2010Prop32
280
     0
102
RTVSPost2010PropOp32
 70
     1
102
RTVSPost2010Prop33
280
     0
102
RTVSPost2010PropOp33
 70
     1
102
RTVSPost2010Prop34
280
     0
102
RTVSPost2010PropOp34
 70
     1
102
RTVSPost2010Prop35
280
     0
102
RTVSPost2010PropOp35
 70
     1
102
RTVSPost2010Prop36
280
     0
102
RTVSPost2010PropOp36
 70
     1
102
RTVSPost2010Prop37
 90
       50
102
RTVSPost2010PropOp37
 70
     1
102
RTVSPost2010Prop38
140
0.0
102
RTVSPost2010PropOp38
 70
     1
102
RTVSPost2010Prop39
140
1.0
102
RTVSPost2010PropOp39
 70
     1
102
RTVSPost2010Prop40
 90
        0
102
RTVSPost2010PropOp40
 70
     1
102
RTVSPost2010Prop41ColorIndex
 90
       18
102
RTVSPost2010Prop41ColorRGB
 90
        0
102
RTVSPost2010PropOp41
 70
     1
102
RTVSPost2010Prop42
 90
       50
102
RTVSPost2010PropOp42
 70
     1
102
RTVSPost2010Prop43
 90
        3
102
RTVSPost2010PropOp43
 70
     1
102
RTVSPost2010Prop44ColorIndex
 90
        5
102
RTVSPost2010Prop44ColorRGB
 90
      255
102
RTVSPost2010PropOp44
 70
     1
102
RTVSPost2010Prop45
280
     0
102
RTVSPost2010PropOp45
 70
     1
102
RTVSPost2010Prop46
 90
       50
102
RTVSPost2010PropOp46
 70
     1
102
RTVSPost2010Prop47
 90
       50
102
RTVSPost2010PropOp47
 70
     1
102
RTVSPost2010Prop48
 90
       50
102
RTVSPost2010PropOp48
 70
     1
102
RTVSPost2010Prop49
280
     0
102
RTVSPost2010PropOp49
 70
     1
102
RTVSPost2010Prop50
 90
       50
102
RTVSPost2010PropOp50
 70
     1
102
RTVSPost2010Prop51ColorIndex
 90
      256
102
RTVSPost2010Prop51ColorRGB
 90
-16777216
102
RTVSPost2010PropOp51
 70
     0
102
RTVSPost2010Prop52
140
1.0
102
RTVSPost2010PropOp52
 70
     0
102
RTVSPost2010Prop53
 90
        2
102
RTVSPost2010PropOp53
 70
     1
102
RTVSPost2010Prop54
  1
strokes_ogs.tif
102
RTVSPost2010PropOp54
 70
     1
102
RTVSPost2010Prop55
280
     0
102
RTVSPost2010PropOp55
 70
     1
102
RTVSPost2010Prop56
140
1.0
102
RTVSPost2010PropOp56
 70
     1
102
RTVSPost2010Prop57
140
1.0
102
RTVSPost2010PropOp57
 70
     1
102
RTVSPropertyOp0
 70
     1
102
RTVSPropertyOp1
 70
     1
102
RTVSPropertyOp2
 70
     1
102
RTVSPropertyOp3
 70
     1
102
RTVSPropertyOp4
 70
     1
102
RTVSPropertyOp5
 70
     1
102
RTVSPropertyOp6
 70
     1
102
RTVSPropertyOp7
 70
     1
102
RTVSPropertyOp8
 70
     1
102
RTVSPropertyOp9
 70
     1
102
RTVSPropertyOp10
 70
     1
102
RTVSPropertyOp11
 70
     1
102
RTVSPropertyOp12
 70
     1
102
RTVSPropertyOp13
 70
     1
102
RTVSPropertyOp14
 70
     1
102
RTVSPropertyOp15
 70
     1
102
RTVSPropertyOp16
 70
     1
102
RTVSPropertyOp17
 70
     1
102
RTVSPropertyOp18
 70
     1
102
RTVSPropertyOp19
 70
     1
102
RTVSPropertyOp20
 70
     1
102
RTVSPropertyOp21
 70
     1
102
RTVSPropertyOp22
 70
     1
102
RTVSPropertyOp23
 70
     1
102
RTVSPropertyOp24
 70
     1
102
RTVSPropertyOp25
 70
     1
102
RTVSPropertyOp26
 70
     1
102
RTVSPropertyOp27
 70
     1
102
RTVSPropertyOp28
 70
     1
102
RTVSPropertyOp29
 70
     1
102
RTVSPropertyOp30
 70
     1
102
RTVSPropertyOp31
 70
     1
102
RTVSPropertyOp32
 70
     1
102
RTVSPropertyOp33
 70
     1
102
RTVSPropertyOp34
 70
     1
102
RTVSPropertyOp35
 70
     1
102
RTVSPropertyOp36
 70
     1
102
RTVSPropertyOp37
 70
     1
102
RTVSPropertyOp38
 70
     1
102
RTVSPropertyOp39
 70
     1
102
RTVSPropertyOp40
 70
     1
102
RTVSPropertyOp41
 70
     1
102
RTVSPropertyOp42
 70
     1
102
RTVSPropertyOp43
 70
     1
102
RTVSPropertyOp44
 70
     1
102
RTVSPropertyOp45
 70
     1
102
RTVSPropertyOp46
 70
     1
102
RTVSPropertyOp47
 70
     1
102
RTVSPropertyOp48
 70
     1
102
RTVSPropertyOp49
 70
     1
102
RTVSPropertyOp50
 70
     1
102
RTVSPropertyOp51
 70
     0
102
RTVSPropertyOp52
 70
     0
102
RTVSPropertyOp53
 70
     1
102
RTVSPropertyOp54
 70
     1
102
RTVSPropertyOp55
 70
     1
102
RTVSPropertyOp56
 70
     1
102
RTVSPropertyOp57
 70
     1
102
RTVSPropertyOp58
 70
     1
102
RTVSPropertyOp59
 70
     1
102
RTVSPropertyOp60
 70
     1
102
RTVSPropertyOp61
 70
     1
102
RTVSPropertyOp62
 70
     1
  0
XRECORD
  5
2BE
102
{ACAD_REACTORS
330
2BD
102
}
330
2BD
100
AcDbXrecord
280
     1
102
RTVSPost2010Prop28
280
     0
102
RTVSPost2010PropOp28
 70
     1
102
RTVSPost2010Prop29
280
     1
102
RTVSPost2010PropOp29
 70
     1
102
RTVSPost2010Prop30
280
     1
102
RTVSPost2010PropOp30
 70
     1
102
RTVSPost2010Prop31
280
     0
102
RTVSPost2010PropOp31
 70
     1
102
RTVSPost2010Prop32
280
     0
102
RTVSPost2010PropOp32
 70
     1
102
RTVSPost2010Prop33
280
     0
102
RTVSPost2010PropOp33
 70
     1
102
RTVSPost2010Prop34
280
     0
102
RTVSPost2010PropOp34
 70
     1
102
RTVSPost2010Prop35
280
     0
102
RTVSPost2010PropOp35
 70
     1
102
RTVSPost2010Prop36
280
     0
102
RTVSPost2010PropOp36
 70
     1
102
RTVSPost2010Prop37
 90
       50
102
RTVSPost2010PropOp37
 70
     1
102
RTVSPost2010Prop38
140
0.0
102
RTVSPost2010PropOp38
 70
     1
102
RTVSPost2010Prop39
140
1.0
102
RTVSPost2010PropOp39
 70
     1
102
RTVSPost2010Prop40
 90
        0
102
RTVSPost2010PropOp40
 70
     1
102
RTVSPost2010Prop41ColorIndex
 90
       18
102
RTVSPost2010Prop41ColorRGB
 90
        0
102
RTVSPost2010PropOp41
 70
     1
102
RTVSPost2010Prop42
 90
       50
102
RTVSPost2010PropOp42
 70
     1
102
RTVSPost2010Prop43
 90
        3
102
RTVSPost2010PropOp43
 70
     1
102
RTVSPost2010Prop44ColorIndex
 90
        5
102
RTVSPost2010Prop44ColorRGB
 90
      255
102
RTVSPost2010PropOp44
 70
     1
102
RTVSPost2010Prop45
280
     0
102
RTVSPost2010PropOp45
 70
     1
102
RTVSPost2010Prop46
 90
       50
102
RTVSPost2010PropOp46
 70
     1
102
RTVSPost2010Prop47
 90
       50
102
RTVSPost2010PropOp47
 70
     1
102
RTVSPost2010Prop48
 90
       50
102
RTVSPost2010PropOp48
 70
     1
102
RTVSPost2010Prop49
280
     0
102
RTVSPost2010PropOp49
 70
     1
102
RTVSPost2010Prop50
 90
       50
102
RTVSPost2010PropOp50
 70
     1
102
RTVSPost2010Prop51ColorIndex
 90
      256
102
RTVSPost2010Prop51ColorRGB
 90
-16777216
102
RTVSPost2010PropOp51
 70
     0
102
RTVSPost2010Prop52
140
1.0
102
RTVSPost2010PropOp52
 70
     0
102
RTVSPost2010Prop53
 90
        2
102
RTVSPost2010PropOp53
 70
     1
102
RTVSPost2010Prop54
  1
strokes_ogs.tif
102
RTVSPost2010PropOp54
 70
     1
102
RTVSPost2010Prop55
280
     0
102
RTVSPost2010PropOp55
 70
     1
102
RTVSPost2010Prop56
140
1.0
102
RTVSPost2010PropOp56
 70
     1
102
RTVSPost2010Prop57
140
1.0
102
RTVSPost2010PropOp57
 70
     1
102
RTVSPropertyOp0
 70
     1
102
RTVSPropertyOp1
 70
     1
102
RTVSPropertyOp2
 70
     1
102
RTVSPropertyOp3
 70
     1
102
RTVSPropertyOp4
 70
     1
102
RTVSPropertyOp5
 70
     1
102
RTVSPropertyOp6
 70
     1
102
RTVSPropertyOp7
 70
     1
102
RTVSPropertyOp8
 70
     1
102
RTVSPropertyOp9
 70
     1
102
RTVSPropertyOp10
 70
     1
102
RTVSPropertyOp11
 70
     1
102
RTVSPropertyOp12
 70
     1
102
RTVSPropertyOp13
 70
     1
102
RTVSPropertyOp14
 70
     1
102
RTVSPropertyOp15
 70
     1
102
RTVSPropertyOp16
 70
     1
102
RTVSPropertyOp17
 70
     1
102
RTVSPropertyOp18
 70
     1
102
RTVSPropertyOp19
 70
     1
102
RTVSPropertyOp20
 70
     1
102
RTVSPropertyOp21
 70
     1
102
RTVSPropertyOp22
 70
     1
102
RTVSPropertyOp23
 70
     1
102
RTVSPropertyOp24
 70
     1
102
RTVSPropertyOp25
 70
     1
102
RTVSPropertyOp26
 70
     1
102
RTVSPropertyOp27
 70
     1
102
RTVSPropertyOp28
 70
     1
102
RTVSPropertyOp29
 70
     1
102
RTVSPropertyOp30
 70
     1
102
RTVSPropertyOp31
 70
     1
102
RTVSPropertyOp32
 70
     1
102
RTVSPropertyOp33
 70
     1
102
RTVSPropertyOp34
 70
     1
102
RTVSPropertyOp35
 70
     1
102
RTVSPropertyOp36
 70
     1
102
RTVSPropertyOp37
 70
     1
102
RTVSPropertyOp38
 70
     1
102
RTVSPropertyOp39
 70
     1
102
RTVSPropertyOp40
 70
     1
102
RTVSPropertyOp41
 70
     1
102
RTVSPropertyOp42
 70
     1
102
RTVSPropertyOp43
 70
     1
102
RTVSPropertyOp44
 70
     1
102
RTVSPropertyOp45
 70
     1
102
RTVSPropertyOp46
 70
     1
102
RTVSPropertyOp47
 70
     1
102
RTVSPropertyOp48
 70
     1
102
RTVSPropertyOp49
 70
     1
102
RTVSPropertyOp50
 70
     1
102
RTVSPropertyOp51
 70
     0
102
RTVSPropertyOp52
 70
     0
102
RTVSPropertyOp53
 70
     1
102
RTVSPropertyOp54
 70
     1
102
RTVSPropertyOp55
 70
     1
102
RTVSPropertyOp56
 70
     1
102
RTVSPropertyOp57
 70
     1
102
RTVSPropertyOp58
 70
     1
102
RTVSPropertyOp59
 70
     1
102
RTVSPropertyOp60
 70
     1
102
RTVSPropertyOp61
 70
     1
102
RTVSPropertyOp62
 70
     1
  0
XRECORD
  5
2BC
102
{ACAD_REACTORS
330
2BB
102
}
330
2BB
100
AcDbXrecord
280
     1
102
RTVSPost2010Prop28
280
     0
102
RTVSPost2010PropOp28
 70
     1
102
RTVSPost2010Prop29
280
     1
102
RTVSPost2010PropOp29
 70
     1
102
RTVSPost2010Prop30
280
     1
102
RTVSPost2010PropOp30
 70
     1
102
RTVSPost2010Prop31
280
     0
102
RTVSPost2010PropOp31
 70
     1
102
RTVSPost2010Prop32
280
     0
102
RTVSPost2010PropOp32
 70
     1
102
RTVSPost2010Prop33
280
     0
102
RTVSPost2010PropOp33
 70
     1
102
RTVSPost2010Prop34
280
     0
102
RTVSPost2010PropOp34
 70
     1
102
RTVSPost2010Prop35
280
     0
102
RTVSPost2010PropOp35
 70
     1
102
RTVSPost2010Prop36
280
     0
102
RTVSPost2010PropOp36
 70
     1
102
RTVSPost2010Prop37
 90
       50
102
RTVSPost2010PropOp37
 70
     1
102
RTVSPost2010Prop38
140
0.0
102
RTVSPost2010PropOp38
 70
     1
102
RTVSPost2010Prop39
140
1.0
102
RTVSPost2010PropOp39
 70
     1
102
RTVSPost2010Prop40
 90
        0
102
RTVSPost2010PropOp40
 70
     1
102
RTVSPost2010Prop41ColorIndex
 90
       18
102
RTVSPost2010Prop41ColorRGB
 90
        0
102
RTVSPost2010PropOp41
 70
     1
102
RTVSPost2010Prop42
 90
       50
102
RTVSPost2010PropOp42
 70
     1
102
RTVSPost2010Prop43
 90
        3
102
RTVSPost2010PropOp43
 70
     1
102
RTVSPost2010Prop44ColorIndex
 90
        5
102
RTVSPost2010Prop44ColorRGB
 90
      255
102
RTVSPost2010PropOp44
 70
     1
102
RTVSPost2010Prop45
280
     0
102
RTVSPost2010PropOp45
 70
     1
102
RTVSPost2010Prop46
 90
       50
102
RTVSPost2010PropOp46
 70
     1
102
RTVSPost2010Prop47
 90
       50
102
RTVSPost2010PropOp47
 70
     1
102
RTVSPost2010Prop48
 90
       50
102
RTVSPost2010PropOp48
 70
     1
102
RTVSPost2010Prop49
280
     0
102
RTVSPost2010PropOp49
 70
     1
102
RTVSPost2010Prop50
 90
       50
102
RTVSPost2010PropOp50
 70
     1
102
RTVSPost2010Prop51ColorIndex
 90
      256
102
RTVSPost2010Prop51ColorRGB
 90
-16777216
102
RTVSPost2010PropOp51
 70
     0
102
RTVSPost2010Prop52
140
1.0
102
RTVSPost2010PropOp52
 70
     0
102
RTVSPost2010Prop53
 90
        2
102
RTVSPost2010PropOp53
 70
     1
102
RTVSPost2010Prop54
  1
strokes_ogs.tif
102
RTVSPost2010PropOp54
 70
     1
102
RTVSPost2010Prop55
280
     0
102
RTVSPost2010PropOp55
 70
     1
102
RTVSPost2010Prop56
140
1.0
102
RTVSPost2010PropOp56
 70
     1
102
RTVSPost2010Prop57
140
1.0
102
RTVSPost2010PropOp57
 70
     1
102
RTVSPropertyOp0
 70
     1
102
RTVSPropertyOp1
 70
     1
102
RTVSPropertyOp2
 70
     1
102
RTVSPropertyOp3
 70
     1
102
RTVSPropertyOp4
 70
     1
102
RTVSPropertyOp5
 70
     1
102
RTVSPropertyOp6
 70
     1
102
RTVSPropertyOp7
 70
     1
102
RTVSPropertyOp8
 70
     1
102
RTVSPropertyOp9
 70
     1
102
RTVSPropertyOp10
 70
     1
102
RTVSPropertyOp11
 70
     1
102
RTVSPropertyOp12
 70
     1
102
RTVSPropertyOp13
 70
     1
102
RTVSPropertyOp14
 70
     1
102
RTVSPropertyOp15
 70
     1
102
RTVSPropertyOp16
 70
     1
102
RTVSPropertyOp17
 70
     1
102
RTVSPropertyOp18
 70
     1
102
RTVSPropertyOp19
 70
     1
102
RTVSPropertyOp20
 70
     1
102
RTVSPropertyOp21
 70
     1
102
RTVSPropertyOp22
 70
     1
102
RTVSPropertyOp23
 70
     1
102
RTVSPropertyOp24
 70
     1
102
RTVSPropertyOp25
 70
     1
102
RTVSPropertyOp26
 70
     1
102
RTVSPropertyOp27
 70
     1
102
RTVSPropertyOp28
 70
     1
102
RTVSPropertyOp29
 70
     1
102
RTVSPropertyOp30
 70
     1
102
RTVSPropertyOp31
 70
     1
102
RTVSPropertyOp32
 70
     1
102
RTVSPropertyOp33
 70
     1
102
RTVSPropertyOp34
 70
     1
102
RTVSPropertyOp35
 70
     1
102
RTVSPropertyOp36
 70
     1
102
RTVSPropertyOp37
 70
     1
102
RTVSPropertyOp38
 70
     1
102
RTVSPropertyOp39
 70
     1
102
RTVSPropertyOp40
 70
     1
102
RTVSPropertyOp41
 70
     1
102
RTVSPropertyOp42
 70
     1
102
RTVSPropertyOp43
 70
     1
102
RTVSPropertyOp44
 70
     1
102
RTVSPropertyOp45
 70
     1
102
RTVSPropertyOp46
 70
     1
102
RTVSPropertyOp47
 70
     1
102
RTVSPropertyOp48
 70
     1
102
RTVSPropertyOp49
 70
     1
102
RTVSPropertyOp50
 70
     1
102
RTVSPropertyOp51
 70
     0
102
RTVSPropertyOp52
 70
     0
102
RTVSPropertyOp53
 70
     1
102
RTVSPropertyOp54
 70
     1
102
RTVSPropertyOp55
 70
     1
102
RTVSPropertyOp56
 70
     1
102
RTVSPropertyOp57
 70
     1
102
RTVSPropertyOp58
 70
     1
102
RTVSPropertyOp59
 70
     1
102
RTVSPropertyOp60
 70
     1
102
RTVSPropertyOp61
 70
     1
102
RTVSPropertyOp62
 70
     1
  0
XRECORD
  5
2B6
102
{ACAD_REACTORS
330
2B5
102
}
330
2B5
100
AcDbXrecord
280
     1
102
RTVSPost2010Prop28
280
     0
102
RTVSPost2010PropOp28
 70
     1
102
RTVSPost2010Prop29
280
     1
102
RTVSPost2010PropOp29
 70
     1
102
RTVSPost2010Prop30
280
     1
102
RTVSPost2010PropOp30
 70
     1
102
RTVSPost2010Prop31
280
     0
102
RTVSPost2010PropOp31
 70
     1
102
RTVSPost2010Prop32
280
     0
102
RTVSPost2010PropOp32
 70
     1
102
RTVSPost2010Prop33
280
     0
102
RTVSPost2010PropOp33
 70
     1
102
RTVSPost2010Prop34
280
     0
102
RTVSPost2010PropOp34
 70
     1
102
RTVSPost2010Prop35
280
     0
102
RTVSPost2010PropOp35
 70
     1
102
RTVSPost2010Prop36
280
     0
102
RTVSPost2010PropOp36
 70
     1
102
RTVSPost2010Prop37
 90
       50
102
RTVSPost2010PropOp37
 70
     1
102
RTVSPost2010Prop38
140
0.0
102
RTVSPost2010PropOp38
 70
     1
102
RTVSPost2010Prop39
140
1.0
102
RTVSPost2010PropOp39
 70
     1
102
RTVSPost2010Prop40
 90
        0
102
RTVSPost2010PropOp40
 70
     1
102
RTVSPost2010Prop41ColorIndex
 90
       18
102
RTVSPost2010Prop41ColorRGB
 90
        0
102
RTVSPost2010PropOp41
 70
     1
102
RTVSPost2010Prop42
 90
       50
102
RTVSPost2010PropOp42
 70
     1
102
RTVSPost2010Prop43
 90
        3
102
RTVSPost2010PropOp43
 70
     1
102
RTVSPost2010Prop44ColorIndex
 90
        5
102
RTVSPost2010Prop44ColorRGB
 90
      255
102
RTVSPost2010PropOp44
 70
     1
102
RTVSPost2010Prop45
280
     0
102
RTVSPost2010PropOp45
 70
     1
102
RTVSPost2010Prop46
 90
       50
102
RTVSPost2010PropOp46
 70
     1
102
RTVSPost2010Prop47
 90
       50
102
RTVSPost2010PropOp47
 70
     1
102
RTVSPost2010Prop48
 90
       50
102
RTVSPost2010PropOp48
 70
     1
102
RTVSPost2010Prop49
280
     0
102
RTVSPost2010PropOp49
 70
     1
102
RTVSPost2010Prop50
 90
       50
102
RTVSPost2010PropOp50
 70
     1
102
RTVSPost2010Prop51ColorIndex
 90
      256
102
RTVSPost2010Prop51ColorRGB
 90
-16777216
102
RTVSPost2010PropOp51
 70
     0
102
RTVSPost2010Prop52
140
1.0
102
RTVSPost2010PropOp52
 70
     0
102
RTVSPost2010Prop53
 90
        2
102
RTVSPost2010PropOp53
 70
     1
102
RTVSPost2010Prop54
  1
strokes_ogs.tif
102
RTVSPost2010PropOp54
 70
     1
102
RTVSPost2010Prop55
280
     0
102
RTVSPost2010PropOp55
 70
     1
102
RTVSPost2010Prop56
140
1.0
102
RTVSPost2010PropOp56
 70
     1
102
RTVSPost2010Prop57
140
1.0
102
RTVSPost2010PropOp57
 70
     1
102
RTVSPropertyOp0
 70
     1
102
RTVSPropertyOp1
 70
     1
102
RTVSPropertyOp2
 70
     1
102
RTVSPropertyOp3
 70
     1
102
RTVSPropertyOp4
 70
     1
102
RTVSPropertyOp5
 70
     1
102
RTVSPropertyOp6
 70
     1
102
RTVSPropertyOp7
 70
     1
102
RTVSPropertyOp8
 70
     1
102
RTVSPropertyOp9
 70
     1
102
RTVSPropertyOp10
 70
     1
102
RTVSPropertyOp11
 70
     1
102
RTVSPropertyOp12
 70
     1
102
RTVSPropertyOp13
 70
     1
102
RTVSPropertyOp14
 70
     1
102
RTVSPropertyOp15
 70
     1
102
RTVSPropertyOp16
 70
     1
102
RTVSPropertyOp17
 70
     1
102
RTVSPropertyOp18
 70
     1
102
RTVSPropertyOp19
 70
     1
102
RTVSPropertyOp20
 70
     1
102
RTVSPropertyOp21
 70
     1
102
RTVSPropertyOp22
 70
     1
102
RTVSPropertyOp23
 70
     1
102
RTVSPropertyOp24
 70
     1
102
RTVSPropertyOp25
 70
     1
102
RTVSPropertyOp26
 70
     1
102
RTVSPropertyOp27
 70
     1
102
RTVSPropertyOp28
 70
     1
102
RTVSPropertyOp29
 70
     1
102
RTVSPropertyOp30
 70
     1
102
RTVSPropertyOp31
 70
     1
102
RTVSPropertyOp32
 70
     1
102
RTVSPropertyOp33
 70
     1
102
RTVSPropertyOp34
 70
     1
102
RTVSPropertyOp35
 70
     1
102
RTVSPropertyOp36
 70
     1
102
RTVSPropertyOp37
 70
     1
102
RTVSPropertyOp38
 70
     1
102
RTVSPropertyOp39
 70
     1
102
RTVSPropertyOp40
 70
     1
102
RTVSPropertyOp41
 70
     1
102
RTVSPropertyOp42
 70
     1
102
RTVSPropertyOp43
 70
     1
102
RTVSPropertyOp44
 70
     1
102
RTVSPropertyOp45
 70
     1
102
RTVSPropertyOp46
 70
     1
102
RTVSPropertyOp47
 70
     1
102
RTVSPropertyOp48
 70
     1
102
RTVSPropertyOp49
 70
     1
102
RTVSPropertyOp50
 70
     1
102
RTVSPropertyOp51
 70
     0
102
RTVSPropertyOp52
 70
     0
102
RTVSPropertyOp53
 70
     1
102
RTVSPropertyOp54
 70
     1
102
RTVSPropertyOp55
 70
     1
102
RTVSPropertyOp56
 70
     1
102
RTVSPropertyOp57
 70
     1
102
RTVSPropertyOp58
 70
     1
102
RTVSPropertyOp59
 70
     1
102
RTVSPropertyOp60
 70
     1
102
RTVSPropertyOp61
 70
     1
102
RTVSPropertyOp62
 70
     1
  0
XRECORD
  5
2B8
102
{ACAD_REACTORS
330
2B7
102
}
330
2B7
100
AcDbXrecord
280
     1
102
RTVSPost2010Prop28
280
     0
102
RTVSPost2010PropOp28
 70
     1
102
RTVSPost2010Prop29
280
     1
102
RTVSPost2010PropOp29
 70
     1
102
RTVSPost2010Prop30
280
     1
102
RTVSPost2010PropOp30
 70
     1
102
RTVSPost2010Prop31
280
     0
102
RTVSPost2010PropOp31
 70
     1
102
RTVSPost2010Prop32
280
     0
102
RTVSPost2010PropOp32
 70
     1
102
RTVSPost2010Prop33
280
     0
102
RTVSPost2010PropOp33
 70
     1
102
RTVSPost2010Prop34
280
     0
102
RTVSPost2010PropOp34
 70
     1
102
RTVSPost2010Prop35
280
     0
102
RTVSPost2010PropOp35
 70
     1
102
RTVSPost2010Prop36
280
     0
102
RTVSPost2010PropOp36
 70
     1
102
RTVSPost2010Prop37
 90
       50
102
RTVSPost2010PropOp37
 70
     1
102
RTVSPost2010Prop38
140
0.0
102
RTVSPost2010PropOp38
 70
     1
102
RTVSPost2010Prop39
140
1.0
102
RTVSPost2010PropOp39
 70
     1
102
RTVSPost2010Prop40
 90
        0
102
RTVSPost2010PropOp40
 70
     1
102
RTVSPost2010Prop41ColorIndex
 90
       18
102
RTVSPost2010Prop41ColorRGB
 90
        0
102
RTVSPost2010PropOp41
 70
     1
102
RTVSPost2010Prop42
 90
       50
102
RTVSPost2010PropOp42
 70
     1
102
RTVSPost2010Prop43
 90
        3
102
RTVSPost2010PropOp43
 70
     1
102
RTVSPost2010Prop44ColorIndex
 90
        5
102
RTVSPost2010Prop44ColorRGB
 90
      255
102
RTVSPost2010PropOp44
 70
     1
102
RTVSPost2010Prop45
280
     0
102
RTVSPost2010PropOp45
 70
     1
102
RTVSPost2010Prop46
 90
       50
102
RTVSPost2010PropOp46
 70
     1
102
RTVSPost2010Prop47
 90
       50
102
RTVSPost2010PropOp47
 70
     1
102
RTVSPost2010Prop48
 90
       50
102
RTVSPost2010PropOp48
 70
     1
102
RTVSPost2010Prop49
280
     0
102
RTVSPost2010PropOp49
 70
     1
102
RTVSPost2010Prop50
 90
       50
102
RTVSPost2010PropOp50
 70
     1
102
RTVSPost2010Prop51ColorIndex
 90
      256
102
RTVSPost2010Prop51ColorRGB
 90
-16777216
102
RTVSPost2010PropOp51
 70
     0
102
RTVSPost2010Prop52
140
1.0
102
RTVSPost2010PropOp52
 70
     0
102
RTVSPost2010Prop53
 90
        2
102
RTVSPost2010PropOp53
 70
     1
102
RTVSPost2010Prop54
  1
strokes_ogs.tif
102
RTVSPost2010PropOp54
 70
     1
102
RTVSPost2010Prop55
280
     0
102
RTVSPost2010PropOp55
 70
     1
102
RTVSPost2010Prop56
140
1.0
102
RTVSPost2010PropOp56
 70
     1
102
RTVSPost2010Prop57
140
1.0
102
RTVSPost2010PropOp57
 70
     1
102
RTVSPropertyOp0
 70
     1
102
RTVSPropertyOp1
 70
     1
102
RTVSPropertyOp2
 70
     1
102
RTVSPropertyOp3
 70
     1
102
RTVSPropertyOp4
 70
     1
102
RTVSPropertyOp5
 70
     1
102
RTVSPropertyOp6
 70
     1
102
RTVSPropertyOp7
 70
     1
102
RTVSPropertyOp8
 70
     1
102
RTVSPropertyOp9
 70
     1
102
RTVSPropertyOp10
 70
     1
102
RTVSPropertyOp11
 70
     1
102
RTVSPropertyOp12
 70
     1
102
RTVSPropertyOp13
 70
     1
102
RTVSPropertyOp14
 70
     1
102
RTVSPropertyOp15
 70
     1
102
RTVSPropertyOp16
 70
     1
102
RTVSPropertyOp17
 70
     1
102
RTVSPropertyOp18
 70
     1
102
RTVSPropertyOp19
 70
     1
102
RTVSPropertyOp20
 70
     1
102
RTVSPropertyOp21
 70
     1
102
RTVSPropertyOp22
 70
     1
102
RTVSPropertyOp23
 70
     1
102
RTVSPropertyOp24
 70
     1
102
RTVSPropertyOp25
 70
     1
102
RTVSPropertyOp26
 70
     1
102
RTVSPropertyOp27
 70
     1
102
RTVSPropertyOp28
 70
     1
102
RTVSPropertyOp29
 70
     1
102
RTVSPropertyOp30
 70
     1
102
RTVSPropertyOp31
 70
     1
102
RTVSPropertyOp32
 70
     1
102
RTVSPropertyOp33
 70
     1
102
RTVSPropertyOp34
 70
     1
102
RTVSPropertyOp35
 70
     1
102
RTVSPropertyOp36
 70
     1
102
RTVSPropertyOp37
 70
     1
102
RTVSPropertyOp38
 70
     1
102
RTVSPropertyOp39
 70
     1
102
RTVSPropertyOp40
 70
     1
102
RTVSPropertyOp41
 70
     1
102
RTVSPropertyOp42
 70
     1
102
RTVSPropertyOp43
 70
     1
102
RTVSPropertyOp44
 70
     1
102
RTVSPropertyOp45
 70
     1
102
RTVSPropertyOp46
 70
     1
102
RTVSPropertyOp47
 70
     1
102
RTVSPropertyOp48
 70
     1
102
RTVSPropertyOp49
 70
     1
102
RTVSPropertyOp50
 70
     1
102
RTVSPropertyOp51
 70
     0
102
RTVSPropertyOp52
 70
     0
102
RTVSPropertyOp53
 70
     1
102
RTVSPropertyOp54
 70
     1
102
RTVSPropertyOp55
 70
     1
102
RTVSPropertyOp56
 70
     1
102
RTVSPropertyOp57
 70
     1
102
RTVSPropertyOp58
 70
     1
102
RTVSPropertyOp59
 70
     1
102
RTVSPropertyOp60
 70
     1
102
RTVSPropertyOp61
 70
     1
102
RTVSPropertyOp62
 70
     1
  0
XRECORD
  5
2A8
102
{ACAD_REACTORS
330
2A7
102
}
330
2A7
100
AcDbXrecord
280
     1
102
RTVSPost2010Prop28
280
     0
102
RTVSPost2010PropOp28
 70
     1
102
RTVSPost2010Prop29
280
     1
102
RTVSPost2010PropOp29
 70
     1
102
RTVSPost2010Prop30
280
     1
102
RTVSPost2010PropOp30
 70
     1
102
RTVSPost2010Prop31
280
     0
102
RTVSPost2010PropOp31
 70
     1
102
RTVSPost2010Prop32
280
     0
102
RTVSPost2010PropOp32
 70
     1
102
RTVSPost2010Prop33
280
     0
102
RTVSPost2010PropOp33
 70
     1
102
RTVSPost2010Prop34
280
     0
102
RTVSPost2010PropOp34
 70
     1
102
RTVSPost2010Prop35
280
     0
102
RTVSPost2010PropOp35
 70
     1
102
RTVSPost2010Prop36
280
     0
102
RTVSPost2010PropOp36
 70
     1
102
RTVSPost2010Prop37
 90
       50
102
RTVSPost2010PropOp37
 70
     1
102
RTVSPost2010Prop38
140
0.0
102
RTVSPost2010PropOp38
 70
     1
102
RTVSPost2010Prop39
140
1.0
102
RTVSPost2010PropOp39
 70
     1
102
RTVSPost2010Prop40
 90
        0
102
RTVSPost2010PropOp40
 70
     1
102
RTVSPost2010Prop41ColorIndex
 90
       18
102
RTVSPost2010Prop41ColorRGB
 90
        0
102
RTVSPost2010PropOp41
 70
     1
102
RTVSPost2010Prop42
 90
       50
102
RTVSPost2010PropOp42
 70
     1
102
RTVSPost2010Prop43
 90
        3
102
RTVSPost2010PropOp43
 70
     1
102
RTVSPost2010Prop44ColorIndex
 90
        5
102
RTVSPost2010Prop44ColorRGB
 90
      255
102
RTVSPost2010PropOp44
 70
     1
102
RTVSPost2010Prop45
280
     0
102
RTVSPost2010PropOp45
 70
     1
102
RTVSPost2010Prop46
 90
       50
102
RTVSPost2010PropOp46
 70
     1
102
RTVSPost2010Prop47
 90
       50
102
RTVSPost2010PropOp47
 70
     1
102
RTVSPost2010Prop48
 90
       50
102
RTVSPost2010PropOp48
 70
     1
102
RTVSPost2010Prop49
280
     0
102
RTVSPost2010PropOp49
 70
     1
102
RTVSPost2010Prop50
 90
       50
102
RTVSPost2010PropOp50
 70
     1
102
RTVSPost2010Prop51ColorIndex
 90
      256
102
RTVSPost2010Prop51ColorRGB
 90
-16777216
102
RTVSPost2010PropOp51
 70
     0
102
RTVSPost2010Prop52
140
1.0
102
RTVSPost2010PropOp52
 70
     0
102
RTVSPost2010Prop53
 90
        2
102
RTVSPost2010PropOp53
 70
     1
102
RTVSPost2010Prop54
  1
strokes_ogs.tif
102
RTVSPost2010PropOp54
 70
     1
102
RTVSPost2010Prop55
280
     0
102
RTVSPost2010PropOp55
 70
     1
102
RTVSPost2010Prop56
140
1.0
102
RTVSPost2010PropOp56
 70
     1
102
RTVSPost2010Prop57
140
1.0
102
RTVSPost2010PropOp57
 70
     1
102
RTVSPropertyOp0
 70
     1
102
RTVSPropertyOp1
 70
     1
102
RTVSPropertyOp2
 70
     1
102
RTVSPropertyOp3
 70
     1
102
RTVSPropertyOp4
 70
     1
102
RTVSPropertyOp5
 70
     1
102
RTVSPropertyOp6
 70
     1
102
RTVSPropertyOp7
 70
     1
102
RTVSPropertyOp8
 70
     1
102
RTVSPropertyOp9
 70
     1
102
RTVSPropertyOp10
 70
     1
102
RTVSPropertyOp11
 70
     1
102
RTVSPropertyOp12
 70
     1
102
RTVSPropertyOp13
 70
     1
102
RTVSPropertyOp14
 70
     1
102
RTVSPropertyOp15
 70
     1
102
RTVSPropertyOp16
 70
     1
102
RTVSPropertyOp17
 70
     1
102
RTVSPropertyOp18
 70
     1
102
RTVSPropertyOp19
 70
     1
102
RTVSPropertyOp20
 70
     1
102
RTVSPropertyOp21
 70
     1
102
RTVSPropertyOp22
 70
     1
102
RTVSPropertyOp23
 70
     1
102
RTVSPropertyOp24
 70
     1
102
RTVSPropertyOp25
 70
     1
102
RTVSPropertyOp26
 70
     1
102
RTVSPropertyOp27
 70
     1
102
RTVSPropertyOp28
 70
     1
102
RTVSPropertyOp29
 70
     1
102
RTVSPropertyOp30
 70
     1
102
RTVSPropertyOp31
 70
     1
102
RTVSPropertyOp32
 70
     1
102
RTVSPropertyOp33
 70
     1
102
RTVSPropertyOp34
 70
     1
102
RTVSPropertyOp35
 70
     1
102
RTVSPropertyOp36
 70
     1
102
RTVSPropertyOp37
 70
     1
102
RTVSPropertyOp38
 70
     1
102
RTVSPropertyOp39
 70
     1
102
RTVSPropertyOp40
 70
     1
102
RTVSPropertyOp41
 70
     1
102
RTVSPropertyOp42
 70
     1
102
RTVSPropertyOp43
 70
     1
102
RTVSPropertyOp44
 70
     1
102
RTVSPropertyOp45
 70
     1
102
RTVSPropertyOp46
 70
     1
102
RTVSPropertyOp47
 70
     1
102
RTVSPropertyOp48
 70
     1
102
RTVSPropertyOp49
 70
     1
102
RTVSPropertyOp50
 70
     1
102
RTVSPropertyOp51
 70
     0
102
RTVSPropertyOp52
 70
     0
102
RTVSPropertyOp53
 70
     1
102
RTVSPropertyOp54
 70
     1
102
RTVSPropertyOp55
 70
     1
102
RTVSPropertyOp56
 70
     1
102
RTVSPropertyOp57
 70
     1
102
RTVSPropertyOp58
 70
     1
102
RTVSPropertyOp59
 70
     1
102
RTVSPropertyOp60
 70
     1
102
RTVSPropertyOp61
 70
     1
102
RTVSPropertyOp62
 70
     1
  0
XRECORD
  5
29C
102
{ACAD_REACTORS
330
29B
102
}
330
29B
100
AcDbXrecord
280
     1
102
RTVSPost2010Prop28
280
     0
102
RTVSPost2010PropOp28
 70
     1
102
RTVSPost2010Prop29
280
     1
102
RTVSPost2010PropOp29
 70
     1
102
RTVSPost2010Prop30
280
     1
102
RTVSPost2010PropOp30
 70
     1
102
RTVSPost2010Prop31
280
     0
102
RTVSPost2010PropOp31
 70
     1
102
RTVSPost2010Prop32
280
     0
102
RTVSPost2010PropOp32
 70
     1
102
RTVSPost2010Prop33
280
     0
102
RTVSPost2010PropOp33
 70
     1
102
RTVSPost2010Prop34
280
     0
102
RTVSPost2010PropOp34
 70
     1
102
RTVSPost2010Prop35
280
     0
102
RTVSPost2010PropOp35
 70
     1
102
RTVSPost2010Prop36
280
     0
102
RTVSPost2010PropOp36
 70
     1
102
RTVSPost2010Prop37
 90
       50
102
RTVSPost2010PropOp37
 70
     1
102
RTVSPost2010Prop38
140
0.0
102
RTVSPost2010PropOp38
 70
     1
102
RTVSPost2010Prop39
140
1.0
102
RTVSPost2010PropOp39
 70
     1
102
RTVSPost2010Prop40
 90
        0
102
RTVSPost2010PropOp40
 70
     1
102
RTVSPost2010Prop41ColorIndex
 90
       18
102
RTVSPost2010Prop41ColorRGB
 90
        0
102
RTVSPost2010PropOp41
 70
     1
102
RTVSPost2010Prop42
 90
       50
102
RTVSPost2010PropOp42
 70
     1
102
RTVSPost2010Prop43
 90
        3
102
RTVSPost2010PropOp43
 70
     1
102
RTVSPost2010Prop44ColorIndex
 90
        5
102
RTVSPost2010Prop44ColorRGB
 90
      255
102
RTVSPost2010PropOp44
 70
     1
102
RTVSPost2010Prop45
280
     0
102
RTVSPost2010PropOp45
 70
     1
102
RTVSPost2010Prop46
 90
       50
102
RTVSPost2010PropOp46
 70
     1
102
RTVSPost2010Prop47
 90
       50
102
RTVSPost2010PropOp47
 70
     1
102
RTVSPost2010Prop48
 90
       50
102
RTVSPost2010PropOp48
 70
     1
102
RTVSPost2010Prop49
280
     0
102
RTVSPost2010PropOp49
 70
     1
102
RTVSPost2010Prop50
 90
       50
102
RTVSPost2010PropOp50
 70
     1
102
RTVSPost2010Prop51ColorIndex
 90
      256
102
RTVSPost2010Prop51ColorRGB
 90
-16777216
102
RTVSPost2010PropOp51
 70
     0
102
RTVSPost2010Prop52
140
1.0
102
RTVSPost2010PropOp52
 70
     0
102
RTVSPost2010Prop53
 90
        2
102
RTVSPost2010PropOp53
 70
     1
102
RTVSPost2010Prop54
  1
strokes_ogs.tif
102
RTVSPost2010PropOp54
 70
     1
102
RTVSPost2010Prop55
280
     0
102
RTVSPost2010PropOp55
 70
     1
102
RTVSPost2010Prop56
140
1.0
102
RTVSPost2010PropOp56
 70
     1
102
RTVSPost2010Prop57
140
1.0
102
RTVSPost2010PropOp57
 70
     1
102
RTVSPropertyOp0
 70
     1
102
RTVSPropertyOp1
 70
     1
102
RTVSPropertyOp2
 70
     1
102
RTVSPropertyOp3
 70
     1
102
RTVSPropertyOp4
 70
     1
102
RTVSPropertyOp5
 70
     1
102
RTVSPropertyOp6
 70
     1
102
RTVSPropertyOp7
 70
     1
102
RTVSPropertyOp8
 70
     1
102
RTVSPropertyOp9
 70
     1
102
RTVSPropertyOp10
 70
     1
102
RTVSPropertyOp11
 70
     1
102
RTVSPropertyOp12
 70
     1
102
RTVSPropertyOp13
 70
     1
102
RTVSPropertyOp14
 70
     1
102
RTVSPropertyOp15
 70
     1
102
RTVSPropertyOp16
 70
     1
102
RTVSPropertyOp17
 70
     1
102
RTVSPropertyOp18
 70
     1
102
RTVSPropertyOp19
 70
     1
102
RTVSPropertyOp20
 70
     1
102
RTVSPropertyOp21
 70
     1
102
RTVSPropertyOp22
 70
     1
102
RTVSPropertyOp23
 70
     1
102
RTVSPropertyOp24
 70
     1
102
RTVSPropertyOp25
 70
     1
102
RTVSPropertyOp26
 70
     1
102
RTVSPropertyOp27
 70
     1
102
RTVSPropertyOp28
 70
     1
102
RTVSPropertyOp29
 70
     1
102
RTVSPropertyOp30
 70
     1
102
RTVSPropertyOp31
 70
     1
102
RTVSPropertyOp32
 70
     1
102
RTVSPropertyOp33
 70
     1
102
RTVSPropertyOp34
 70
     1
102
RTVSPropertyOp35
 70
     1
102
RTVSPropertyOp36
 70
     1
102
RTVSPropertyOp37
 70
     1
102
RTVSPropertyOp38
 70
     1
102
RTVSPropertyOp39
 70
     1
102
RTVSPropertyOp40
 70
     1
102
RTVSPropertyOp41
 70
     1
102
RTVSPropertyOp42
 70
     1
102
RTVSPropertyOp43
 70
     1
102
RTVSPropertyOp44
 70
     1
102
RTVSPropertyOp45
 70
     1
102
RTVSPropertyOp46
 70
     1
102
RTVSPropertyOp47
 70
     1
102
RTVSPropertyOp48
 70
     1
102
RTVSPropertyOp49
 70
     1
102
RTVSPropertyOp50
 70
     1
102
RTVSPropertyOp51
 70
     0
102
RTVSPropertyOp52
 70
     0
102
RTVSPropertyOp53
 70
     1
102
RTVSPropertyOp54
 70
     1
102
RTVSPropertyOp55
 70
     1
102
RTVSPropertyOp56
 70
     1
102
RTVSPropertyOp57
 70
     1
102
RTVSPropertyOp58
 70
     1
102
RTVSPropertyOp59
 70
     1
102
RTVSPropertyOp60
 70
     1
102
RTVSPropertyOp61
 70
     1
102
RTVSPropertyOp62
 70
     1
  0
XRECORD
  5
2BA
102
{ACAD_REACTORS
330
2B9
102
}
330
2B9
100
AcDbXrecord
280
     1
102
RTVSPost2010Prop28
280
     0
102
RTVSPost2010PropOp28
 70
     1
102
RTVSPost2010Prop29
280
     1
102
RTVSPost2010PropOp29
 70
     1
102
RTVSPost2010Prop30
280
     1
102
RTVSPost2010PropOp30
 70
     1
102
RTVSPost2010Prop31
280
     0
102
RTVSPost2010PropOp31
 70
     1
102
RTVSPost2010Prop32
280
     0
102
RTVSPost2010PropOp32
 70
     1
102
RTVSPost2010Prop33
280
     0
102
RTVSPost2010PropOp33
 70
     1
102
RTVSPost2010Prop34
280
     0
102
RTVSPost2010PropOp34
 70
     1
102
RTVSPost2010Prop35
280
     0
102
RTVSPost2010PropOp35
 70
     1
102
RTVSPost2010Prop36
280
     0
102
RTVSPost2010PropOp36
 70
     1
102
RTVSPost2010Prop37
 90
       50
102
RTVSPost2010PropOp37
 70
     1
102
RTVSPost2010Prop38
140
0.0
102
RTVSPost2010PropOp38
 70
     1
102
RTVSPost2010Prop39
140
1.0
102
RTVSPost2010PropOp39
 70
     1
102
RTVSPost2010Prop40
 90
        0
102
RTVSPost2010PropOp40
 70
     1
102
RTVSPost2010Prop41ColorIndex
 90
       18
102
RTVSPost2010Prop41ColorRGB
 90
        0
102
RTVSPost2010PropOp41
 70
     1
102
RTVSPost2010Prop42
 90
       50
102
RTVSPost2010PropOp42
 70
     1
102
RTVSPost2010Prop43
 90
        3
102
RTVSPost2010PropOp43
 70
     1
102
RTVSPost2010Prop44ColorIndex
 90
        5
102
RTVSPost2010Prop44ColorRGB
 90
      255
102
RTVSPost2010PropOp44
 70
     1
102
RTVSPost2010Prop45
280
     0
102
RTVSPost2010PropOp45
 70
     1
102
RTVSPost2010Prop46
 90
       50
102
RTVSPost2010PropOp46
 70
     1
102
RTVSPost2010Prop47
 90
       50
102
RTVSPost2010PropOp47
 70
     1
102
RTVSPost2010Prop48
 90
       50
102
RTVSPost2010PropOp48
 70
     1
102
RTVSPost2010Prop49
280
     0
102
RTVSPost2010PropOp49
 70
     1
102
RTVSPost2010Prop50
 90
       50
102
RTVSPost2010PropOp50
 70
     1
102
RTVSPost2010Prop51ColorIndex
 90
      256
102
RTVSPost2010Prop51ColorRGB
 90
-16777216
102
RTVSPost2010PropOp51
 70
     0
102
RTVSPost2010Prop52
140
1.0
102
RTVSPost2010PropOp52
 70
     0
102
RTVSPost2010Prop53
 90
        2
102
RTVSPost2010PropOp53
 70
     1
102
RTVSPost2010Prop54
  1
strokes_ogs.tif
102
RTVSPost2010PropOp54
 70
     1
102
RTVSPost2010Prop55
280
     0
102
RTVSPost2010PropOp55
 70
     1
102
RTVSPost2010Prop56
140
1.0
102
RTVSPost2010PropOp56
 70
     1
102
RTVSPost2010Prop57
140
1.0
102
RTVSPost2010PropOp57
 70
     1
102
RTVSPropertyOp0
 70
     1
102
RTVSPropertyOp1
 70
     1
102
RTVSPropertyOp2
 70
     1
102
RTVSPropertyOp3
 70
     1
102
RTVSPropertyOp4
 70
     1
102
RTVSPropertyOp5
 70
     1
102
RTVSPropertyOp6
 70
     1
102
RTVSPropertyOp7
 70
     1
102
RTVSPropertyOp8
 70
     1
102
RTVSPropertyOp9
 70
     1
102
RTVSPropertyOp10
 70
     1
102
RTVSPropertyOp11
 70
     1
102
RTVSPropertyOp12
 70
     1
102
RTVSPropertyOp13
 70
     1
102
RTVSPropertyOp14
 70
     1
102
RTVSPropertyOp15
 70
     1
102
RTVSPropertyOp16
 70
     1
102
RTVSPropertyOp17
 70
     1
102
RTVSPropertyOp18
 70
     1
102
RTVSPropertyOp19
 70
     1
102
RTVSPropertyOp20
 70
     1
102
RTVSPropertyOp21
 70
     1
102
RTVSPropertyOp22
 70
     1
102
RTVSPropertyOp23
 70
     1
102
RTVSPropertyOp24
 70
     1
102
RTVSPropertyOp25
 70
     1
102
RTVSPropertyOp26
 70
     1
102
RTVSPropertyOp27
 70
     1
102
RTVSPropertyOp28
 70
     1
102
RTVSPropertyOp29
 70
     1
102
RTVSPropertyOp30
 70
     1
102
RTVSPropertyOp31
 70
     1
102
RTVSPropertyOp32
 70
     1
102
RTVSPropertyOp33
 70
     1
102
RTVSPropertyOp34
 70
     1
102
RTVSPropertyOp35
 70
     1
102
RTVSPropertyOp36
 70
     1
102
RTVSPropertyOp37
 70
     1
102
RTVSPropertyOp38
 70
     1
102
RTVSPropertyOp39
 70
     1
102
RTVSPropertyOp40
 70
     1
102
RTVSPropertyOp41
 70
     1
102
RTVSPropertyOp42
 70
     1
102
RTVSPropertyOp43
 70
     1
102
RTVSPropertyOp44
 70
     1
102
RTVSPropertyOp45
 70
     1
102
RTVSPropertyOp46
 70
     1
102
RTVSPropertyOp47
 70
     1
102
RTVSPropertyOp48
 70
     1
102
RTVSPropertyOp49
 70
     1
102
RTVSPropertyOp50
 70
     1
102
RTVSPropertyOp51
 70
     0
102
RTVSPropertyOp52
 70
     0
102
RTVSPropertyOp53
 70
     1
102
RTVSPropertyOp54
 70
     1
102
RTVSPropertyOp55
 70
     1
102
RTVSPropertyOp56
 70
     1
102
RTVSPropertyOp57
 70
     1
102
RTVSPropertyOp58
 70
     1
102
RTVSPropertyOp59
 70
     1
102
RTVSPropertyOp60
 70
     1
102
RTVSPropertyOp61
 70
     1
102
RTVSPropertyOp62
 70
     1
  0
ENDSEC
  0
EOF
