  0
SECTION
  2
HEADER
  9
$ACADVER
  1
AC1021
  9
$ACADMAINTVER
 70
    25
  9
$DWGCODEPAGE
  3
ANSI_1251
  9
$INSBASE
 10
0.0
 20
0.0
 30
0.0
  9
$EXTMIN
 10
-99.4362
 20
-148.9828
 30
0.0
  9
$EXTMAX
 10
100.4076
 20
150.44
 30
0.0
  9
$LIMMIN
 10
0.0
 20
0.0
  9
$LIMMAX
 10
12.0
 20
9.0
  9
$ORTHOMODE
 70
     0
  9
$REGENMODE
 70
     1
  9
$FILLMODE
 70
     1
  9
$QTEXTMODE
 70
     0
  9
$MIRRTEXT
 70
     1
  9
$LTSCALE
 40
1.0
  9
$ATTMODE
 70
     1
  9
$TEXTSIZE
 40
0.2
  9
$TRACEWID
 40
0.05
  9
$TEXTSTYLE
  7
Standard
  9
$CLAYER
  8
0
  9
$CELTYPE
  6
ByLayer
  9
$CECOLOR
 62
   256
  9
$CELTSCALE
 40
1.0
  9
$DISPSILH
 70
     0
  9
$DIMSCALE
 40
1.0
  9
$DIMASZ
 40
0.18
  9
$DIMEXO
 40
0.0625
  9
$DIMDLI
 40
0.38
  9
$DIMRND
 40
0.0
  9
$DIMDLE
 40
0.0
  9
$DIMEXE
 40
0.18
  9
$DIMTP
 40
0.0
  9
$DIMTM
 40
0.0
  9
$DIMTXT
 40
0.18
  9
$DIMCEN
 40
0.09
  9
$DIMTSZ
 40
0.0
  9
$DIMTOL
 70
     0
  9
$DIMLIM
 70
     0
  9
$DIMTIH
 70
     1
  9
$DIMTOH
 70
     1
  9
$DIMSE1
 70
     0
  9
$DIMSE2
 70
     0
  9
$DIMTAD
 70
     0
  9
$DIMZIN
 70
     0
  9
$DIMBLK
  1

  9
$DIMASO
 70
     1
  9
$DIMSHO
 70
     1
  9
$DIMPOST
  1

  9
$DIMAPOST
  1

  9
$DIMALT
 70
     0
  9
$DIMALTD
 70
     2
  9
$DIMALTF
 40
25.4
  9
$DIMLFAC
 40
1.0
  9
$DIMTOFL
 70
     0
  9
$DIMTVP
 40
0.0
  9
$DIMTIX
 70
     0
  9
$DIMSOXD
 70
     0
  9
$DIMSAH
 70
     0
  9
$DIMBLK1
  1

  9
$DIMBLK2
  1

  9
$DIMSTYLE
  2
Standard
  9
$DIMCLRD
 70
     0
  9
$DIMCLRE
 70
     0
  9
$DIMCLRT
 70
     0
  9
$DIMTFAC
 40
1.0
  9
$DIMGAP
 40
0.09
  9
$DIMJUST
 70
     0
  9
$DIMSD1
 70
     0
  9
$DIMSD2
 70
     0
  9
$DIMTOLJ
 70
     1
  9
$DIMTZIN
 70
     0
  9
$DIMALTZ
 70
     0
  9
$DIMALTTZ
 70
     0
  9
$DIMUPT
 70
     0
  9
$DIMDEC
 70
     4
  9
$DIMTDEC
 70
     4
  9
$DIMALTU
 70
     2
  9
$DIMALTTD
 70
     2
  9
$DIMTXSTY
  7
Standard
  9
$DIMAUNIT
 70
     0
  9
$DIMADEC
 70
     0
  9
$DIMALTRND
 40
0.0
  9
$DIMAZIN
 70
     0
  9
$DIMDSEP
 70
    46
  9
$DIMATFIT
 70
     3
  9
$DIMFRAC
 70
     0
  9
$DIMLDRBLK
  1

  9
$DIMLUNIT
 70
     2
  9
$DIMLWD
 70
    -2
  9
$DIMLWE
 70
    -2
  9
$DIMTMOVE
 70
     0
  9
$DIMFXL
 40
1.0
  9
$DIMFXLON
 70
     0
  9
$DIMJOGANG
 40
0.7853981633974483
  9
$DIMTFILL
 70
     0
  9
$DIMTFILLCLR
 70
     0
  9
$DIMARCSYM
 70
     0
  9
$DIMLTYPE
  6

  9
$DIMLTEX1
  6

  9
$DIMLTEX2
  6

  9
$LUNITS
 70
     2
  9
$LUPREC
 70
     4
  9
$SKETCHINC
 40
0.1
  9
$FILLETRAD
 40
0.5
  9
$AUNITS
 70
     0
  9
$AUPREC
 70
     0
  9
$MENU
  1
.
  9
$ELEVATION
 40
0.0
  9
$PELEVATION
 40
0.0
  9
$THICKNESS
 40
0.0
  9
$LIMCHECK
 70
     0
  9
$CHAMFERA
 40
0.0
  9
$CHAMFERB
 40
0.0
  9
$CHAMFERC
 40
0.0
  9
$CHAMFERD
 40
0.0
  9
$SKPOLY
 70
     0
  9
$TDCREATE
 40
2458533.603424294
  9
$TDUCREATE
 40
2458533.478424294
  9
$TDUPDATE
 40
2458533.603424653
  9
$TDUUPDATE
 40
2458533.478424653
  9
$TDINDWG
 40
0.0000000116
  9
$TDUSRTIMER
 40
0.0000000116
  9
$USRTIMER
 70
     1
  9
$ANGBASE
 50
0.0
  9
$ANGDIR
 70
     0
  9
$PDMODE
 70
     0
  9
$PDSIZE
 40
0.0
  9
$PLINEWID
 40
0.0
  9
$SPLFRAME
 70
     0
  9
$SPLINETYPE
 70
     6
  9
$SPLINESEGS
 70
     8
  9
$HANDSEED
  5
BF
  9
$SURFTAB1
 70
     6
  9
$SURFTAB2
 70
     6
  9
$SURFTYPE
 70
     6
  9
$SURFU
 70
     6
  9
$SURFV
 70
     6
  9
$UCSBASE
  2

  9
$UCSNAME
  2

  9
$UCSORG
 10
0.0
 20
0.0
 30
0.0
  9
$UCSXDIR
 10
1.0
 20
0.0
 30
0.0
  9
$UCSYDIR
 10
0.0
 20
1.0
 30
0.0
  9
$UCSORTHOREF
  2

  9
$UCSORTHOVIEW
 70
     0
  9
$UCSORGTOP
 10
0.0
 20
0.0
 30
0.0
  9
$UCSORGBOTTOM
 10
0.0
 20
0.0
 30
0.0
  9
$UCSORGLEFT
 10
0.0
 20
0.0
 30
0.0
  9
$UCSORGRIGHT
 10
0.0
 20
0.0
 30
0.0
  9
$UCSORGFRONT
 10
0.0
 20
0.0
 30
0.0
  9
$UCSORGBACK
 10
0.0
 20
0.0
 30
0.0
  9
$PUCSBASE
  2

  9
$PUCSNAME
  2

  9
$PUCSORG
 10
0.0
 20
0.0
 30
0.0
  9
$PUCSXDIR
 10
1.0
 20
0.0
 30
0.0
  9
$PUCSYDIR
 10
0.0
 20
1.0
 30
0.0
  9
$PUCSORTHOREF
  2

  9
$PUCSORTHOVIEW
 70
     0
  9
$PUCSORGTOP
 10
0.0
 20
0.0
 30
0.0
  9
$PUCSORGBOTTOM
 10
0.0
 20
0.0
 30
0.0
  9
$PUCSORGLEFT
 10
0.0
 20
0.0
 30
0.0
  9
$PUCSORGRIGHT
 10
0.0
 20
0.0
 30
0.0
  9
$PUCSORGFRONT
 10
0.0
 20
0.0
 30
0.0
  9
$PUCSORGBACK
 10
0.0
 20
0.0
 30
0.0
  9
$USERI1
 70
     0
  9
$USERI2
 70
     0
  9
$USERI3
 70
     0
  9
$USERI4
 70
     0
  9
$USERI5
 70
     0
  9
$USERR1
 40
0.0
  9
$USERR2
 40
0.0
  9
$USERR3
 40
0.0
  9
$USERR4
 40
0.0
  9
$USERR5
 40
0.0
  9
$WORLDVIEW
 70
     1
  9
$SHADEDGE
 70
     3
  9
$SHADEDIF
 70
    70
  9
$TILEMODE
 70
     1
  9
$MAXACTVP
 70
    64
  9
$PINSBASE
 10
0.0
 20
0.0
 30
0.0
  9
$PLIMCHECK
 70
     0
  9
$PEXTMIN
 10
1.000000000000000E+20
 20
1.000000000000000E+20
 30
1.000000000000000E+20
  9
$PEXTMAX
 10
-1.000000000000000E+20
 20
-1.000000000000000E+20
 30
-1.000000000000000E+20
  9
$PLIMMIN
 10
0.0
 20
0.0
  9
$PLIMMAX
 10
12.0
 20
9.0
  9
$UNITMODE
 70
     0
  9
$VISRETAIN
 70
     1
  9
$PLINEGEN
 70
     0
  9
$PSLTSCALE
 70
     1
  9
$TREEDEPTH
 70
  3020
  9
$CMLSTYLE
  2
Standard
  9
$CMLJUST
 70
     0
  9
$CMLSCALE
 40
1.0
  9
$PROXYGRAPHICS
 70
     1
  9
$MEASUREMENT
 70
     0
  9
$CELWEIGHT
370
    -1
  9
$ENDCAPS
280
     0
  9
$JOINSTYLE
280
     0
  9
$LWDISPLAY
290
     0
  9
$INSUNITS
 70
     4
  9
$HYPERLINKBASE
  1

  9
$STYLESHEET
  1

  9
$XEDIT
290
     1
  9
$CEPSNTYPE
380
     0
  9
$PSTYLEMODE
290
     1
  9
$FINGERPRINTGUID
  2
{B26A7D91-DB50-4A4B-943A-1BF89F74F1C3}
  9
$VERSIONGUID
  2
{FAEB1C32-E019-11D5-929B-00C0DF256EC4}
  9
$EXTNAMES
290
     1
  9
$PSVPSCALE
 40
0.0
  9
$OLESTARTUP
290
     0
  9
$SORTENTS
280
   127
  9
$INDEXCTL
280
     0
  9
$HIDETEXT
280
     1
  9
$XCLIPFRAME
290
     0
  9
$HALOGAP
280
     0
  9
$OBSCOLOR
 70
   257
  9
$OBSLTYPE
280
     0
  9
$INTERSECTIONDISPLAY
280
     0
  9
$INTERSECTIONCOLOR
 70
   257
  9
$DIMASSOC
280
     2
  9
$PROJECTNAME
  1

  9
$CAMERADISPLAY
290
     0
  9
$LENSLENGTH
 40
50.0
  9
$CAMERAHEIGHT
 40
0.0
  9
$STEPSPERSEC
 40
2.0
  9
$STEPSIZE
 40
6.0
  9
$3DDWFPREC
 40
2.0
  9
$PSOLWIDTH
 40
0.25
  9
$PSOLHEIGHT
 40
4.0
  9
$LOFTANG1
 40
1.570796326794897
  9
$LOFTANG2
 40
1.570796326794897
  9
$LOFTMAG1
 40
0.0
  9
$LOFTMAG2
 40
0.0
  9
$LOFTPARAM
 70
     7
  9
$LOFTNORMALS
280
     1
  9
$LATITUDE
 40
37.795
  9
$LONGITUDE
 40
-122.394
  9
$NORTHDIRECTION
 40
0.0
  9
$TIMEZONE
 70
 -8000
  9
$LIGHTGLYPHDISPLAY
280
     1
  9
$TILEMODELIGHTSYNCH
280
     1
  9
$CMATERIAL
347
44
  9
$SOLIDHIST
280
     1
  9
$SHOWHIST
280
     1
  9
$DWFFRAME
280
     2
  9
$DGNFRAME
280
     2
  9
$REALWORLDSCALE
290
     1
  9
$INTERFERECOLOR
 62
   256
  9
$CSHADOW
280
     0
  9
$SHADOWPLANELOCATION
 40
0.0
  0
ENDSEC
  0
SECTION
  2
CLASSES
  0
CLASS
  1
ACDBDICTIONARYWDFLT
  2
AcDbDictionaryWithDefault
  3
ObjectDBX Classes
 90
        0
 91
        4
280
     0
281
     0
  0
CLASS
  1
VISUALSTYLE
  2
AcDbVisualStyle
  3
ObjectDBX Classes
 90
     4095
 91
        4
280
     0
281
     0
  0
CLASS
  1
MATERIAL
  2
AcDbMaterial
  3
ObjectDBX Classes
 90
     1153
 91
        4
280
     0
281
     0
  0
CLASS
  1
SCALE
  2
AcDbScale
  3
ObjectDBX Classes
 90
     1153
 91
        4
280
     0
281
     0
  0
CLASS
  1
SUN
  2
AcDbSun
  3
SCENEOE
 90
     1153
 91
        4
280
     0
281
     0
  0
CLASS
  1
DICTIONARYVAR
  2
AcDbDictionaryVar
  3
ObjectDBX Classes
 90
        0
 91
        4
280
     0
281
     0
  0
ENDSEC
  0
SECTION
  2
TABLES
  0
TABLE
  2
VPORT
  5
8
330
0
100
AcDbSymbolTable
 70
     1
  0
VPORT
  5
29
330
8
100
AcDbSymbolTableRecord
100
AcDbViewportTableRecord
  2
*Active
 70
     0
 10
0.0
 20
0.0
 11
1.0
 21
1.0
 12
10.42990654205607
 22
4.5
 13
0.0
 23
0.0
 14
0.5
 24
0.5
 15
0.5
 25
0.5
 16
0.0
 26
0.0
 36
1.0
 17
0.0
 27
0.0
 37
0.0
 40
9.0
 41
1.972972972850329
 42
50.0
 43
0.0
 44
0.0
 50
0.0
 51
0.0
 71
     0
 72
   100
 73
     1
 74
     3
 75
     0
 76
     0
 77
     0
 78
     0
281
     0
 65
     1
110
0.0
120
0.0
130
0.0
111
1.0
121
0.0
131
0.0
112
0.0
122
1.0
132
0.0
 79
     0
146
0.0
 60
     3
 61
     5
292
     1
282
     1
141
0.0
142
0.0
 63
   250
361
69
  0
ENDTAB
  0
TABLE
  2
LTYPE
  5
5
330
0
100
AcDbSymbolTable
 70
     1
  0
LTYPE
  5
14
330
5
100
AcDbSymbolTableRecord
100
AcDbLinetypeTableRecord
  2
ByBlock
 70
     0
  3

 72
    65
 73
     0
 40
0.0
  0
LTYPE
  5
15
330
5
100
AcDbSymbolTableRecord
100
AcDbLinetypeTableRecord
  2
ByLayer
 70
     0
  3

 72
    65
 73
     0
 40
0.0
  0
LTYPE
  5
16
330
5
100
AcDbSymbolTableRecord
100
AcDbLinetypeTableRecord
  2
Continuous
 70
     0
  3
Solid line
 72
    65
 73
     0
 40
0.0
  0
ENDTAB
  0
TABLE
  2
LAYER
  5
2
330
0
100
AcDbSymbolTable
 70
     2
  0
LAYER
  5
10
330
2
100
AcDbSymbolTableRecord
100
AcDbLayerTableRecord
  2
0
 70
     0
 62
     7
  6
Continuous
370
    -3
390
F
347
46
  0
LAYER
  5
6B
330
2
100
AcDbSymbolTableRecord
100
AcDbLayerTableRecord
  2
layer 1
 70
     0
 62
     7
  6
Continuous
370
    -3
390
F
347
46
  0
ENDTAB
  0
TABLE
  2
STYLE
  5
3
330
0
100
AcDbSymbolTable
 70
     1
  0
STYLE
  5
11
330
3
100
AcDbSymbolTableRecord
100
AcDbTextStyleTableRecord
  2
Standard
 70
     0
 40
0.0
 41
1.0
 50
0.0
 71
     0
 42
0.2
  3
txt
  4

  0
ENDTAB
  0
TABLE
  2
VIEW
  5
6
330
0
100
AcDbSymbolTable
 70
     0
  0
ENDTAB
  0
TABLE
  2
UCS
  5
7
330
0
100
AcDbSymbolTable
 70
     0
  0
ENDTAB
  0
TABLE
  2
APPID
  5
9
330
0
100
AcDbSymbolTable
 70
     2
  0
APPID
  5
12
330
9
100
AcDbSymbolTableRecord
100
AcDbRegAppTableRecord
  2
ACAD
 70
     0
  0
APPID
  5
6A
330
9
100
AcDbSymbolTableRecord
100
AcDbRegAppTableRecord
  2
ODA
 70
     0
  0
ENDTAB
  0
TABLE
  2
DIMSTYLE
  5
A
330
0
100
AcDbSymbolTable
 70
     1
100
AcDbDimStyleTable
  0
DIMSTYLE
105
27
330
A
100
AcDbSymbolTableRecord
100
AcDbDimStyleTableRecord
  2
Standard
 70
     0
178
     0
340
11
  0
ENDTAB
  0
TABLE
  2
BLOCK_RECORD
  5
1
330
0
100
AcDbSymbolTable
 70
     1
  0
BLOCK_RECORD
  5
1F
330
1
100
AcDbSymbolTableRecord
100
AcDbBlockTableRecord
  2
*Model_Space
340
22
 70
     0
280
     1
281
     0
  0
BLOCK_RECORD
  5
1B
330
1
100
AcDbSymbolTableRecord
100
AcDbBlockTableRecord
  2
*Paper_Space
340
1E
 70
     0
280
     1
281
     0
  0
BLOCK_RECORD
  5
23
330
1
100
AcDbSymbolTableRecord
100
AcDbBlockTableRecord
  2
*Paper_Space0
340
26
 70
     0
280
     1
281
     0
  0
ENDTAB
  0
ENDSEC
  0
SECTION
  2
BLOCKS
  0
BLOCK
  5
20
330
1F
100
AcDbEntity
  8
0
100
AcDbBlockBegin
  2
*Model_Space
 70
     0
 10
0.0
 20
0.0
 30
0.0
  3
*Model_Space
  1
*Model_Space
  0
ENDBLK
  5
21
330
1F
100
AcDbEntity
  8
0
100
AcDbBlockEnd
  0
BLOCK
  5
1C
330
1B
100
AcDbEntity
 67
     1
  8
0
100
AcDbBlockBegin
  2
*Paper_Space
 70
     0
 10
0.0
 20
0.0
 30
0.0
  3
*Paper_Space
  1
*Paper_Space
  0
ENDBLK
  5
1D
330
1B
100
AcDbEntity
 67
     1
  8
0
100
AcDbBlockEnd
  0
BLOCK
  5
24
330
23
100
AcDbEntity
  8
0
100
AcDbBlockBegin
  2
*Paper_Space0
 70
     0
 10
0.0
 20
0.0
 30
0.0
  3
*Paper_Space0
  1
*Paper_Space0
  0
ENDBLK
  5
25
330
23
100
AcDbEntity
  8
0
100
AcDbBlockEnd
  0
ENDSEC
  0
SECTION
  2
ENTITIES
  0
LWPOLYLINE
  5
6C
330
1F
100
AcDbEntity
  8
layer 1
 62
     2
370
    20
100
AcDbPolyline
 90
        5
 70
     1
 43
0.0
 10
-99.3362
 20
-148.8828
 10
100.3076
 20
-148.8828
 10
100.3076
 20
150.34
 10
-99.3362
 20
150.34
 10
-99.3362
 20
-148.8828
  0
SPLINE
  5
6D
330
1F
100
AcDbEntity
  8
layer 1
100
AcDbSpline
210
0.0
220
0.0
230
1.0
 70
    11
 71
     3
 72
   424
 73
   420
 74
     0
 42
0.000000001
 43
0.0000000001
 40
0.0
 40
0.0
 40
0.0
 40
0.0
 40
0.0094339622641509
 40
0.0094339622641509
 40
0.0094339622641509
 40
0.0094339622641509
 40
0.0188679245283019
 40
0.0188679245283019
 40
0.0188679245283019
 40
0.0188679245283019
 40
0.0283018867924528
 40
0.0283018867924528
 40
0.0283018867924528
 40
0.0283018867924528
 40
0.0377358490566038
 40
0.0377358490566038
 40
0.0377358490566038
 40
0.0377358490566038
 40
0.0471698113207547
 40
0.0471698113207547
 40
0.0471698113207547
 40
0.0471698113207547
 40
0.0566037735849057
 40
0.0566037735849057
 40
0.0566037735849057
 40
0.0566037735849057
 40
0.0660377358490566
 40
0.0660377358490566
 40
0.0660377358490566
 40
0.0660377358490566
 40
0.0754716981132075
 40
0.0754716981132075
 40
0.0754716981132075
 40
0.0754716981132075
 40
0.0849056603773585
 40
0.0849056603773585
 40
0.0849056603773585
 40
0.0849056603773585
 40
0.0943396226415094
 40
0.0943396226415094
 40
0.0943396226415094
 40
0.0943396226415094
 40
0.1037735849056604
 40
0.1037735849056604
 40
0.1037735849056604
 40
0.1037735849056604
 40
0.1132075471698113
 40
0.1132075471698113
 40
0.1132075471698113
 40
0.1132075471698113
 40
0.1226415094339623
 40
0.1226415094339623
 40
0.1226415094339623
 40
0.1226415094339623
 40
0.1320754716981132
 40
0.1320754716981132
 40
0.1320754716981132
 40
0.1320754716981132
 40
0.1415094339622641
 40
0.1415094339622641
 40
0.1415094339622641
 40
0.1415094339622641
 40
0.1509433962264151
 40
0.1509433962264151
 40
0.1509433962264151
 40
0.1509433962264151
 40
0.160377358490566
 40
0.160377358490566
 40
0.160377358490566
 40
0.160377358490566
 40
0.169811320754717
 40
0.169811320754717
 40
0.169811320754717
 40
0.169811320754717
 40
0.1792452830188679
 40
0.1792452830188679
 40
0.1792452830188679
 40
0.1792452830188679
 40
0.1886792452830189
 40
0.1886792452830189
 40
0.1886792452830189
 40
0.1886792452830189
 40
0.1981132075471698
 40
0.1981132075471698
 40
0.1981132075471698
 40
0.1981132075471698
 40
0.2075471698113208
 40
0.2075471698113208
 40
0.2075471698113208
 40
0.2075471698113208
 40
0.2169811320754717
 40
0.2169811320754717
 40
0.2169811320754717
 40
0.2169811320754717
 40
0.2264150943396226
 40
0.2264150943396226
 40
0.2264150943396226
 40
0.2264150943396226
 40
0.2358490566037736
 40
0.2358490566037736
 40
0.2358490566037736
 40
0.2358490566037736
 40
0.2452830188679245
 40
0.2452830188679245
 40
0.2452830188679245
 40
0.2452830188679245
 40
0.2547169811320755
 40
0.2547169811320755
 40
0.2547169811320755
 40
0.2547169811320755
 40
0.2641509433962264
 40
0.2641509433962264
 40
0.2641509433962264
 40
0.2641509433962264
 40
0.2735849056603774
 40
0.2735849056603774
 40
0.2735849056603774
 40
0.2735849056603774
 40
0.2830188679245283
 40
0.2830188679245283
 40
0.2830188679245283
 40
0.2830188679245283
 40
0.2924528301886792
 40
0.2924528301886792
 40
0.2924528301886792
 40
0.2924528301886792
 40
0.3018867924528302
 40
0.3018867924528302
 40
0.3018867924528302
 40
0.3018867924528302
 40
0.3113207547169811
 40
0.3113207547169811
 40
0.3113207547169811
 40
0.3113207547169811
 40
0.3207547169811321
 40
0.3207547169811321
 40
0.3207547169811321
 40
0.3207547169811321
 40
0.330188679245283
 40
0.330188679245283
 40
0.330188679245283
 40
0.330188679245283
 40
0.3396226415094339
 40
0.3396226415094339
 40
0.3396226415094339
 40
0.3396226415094339
 40
0.3490566037735849
 40
0.3490566037735849
 40
0.3490566037735849
 40
0.3490566037735849
 40
0.3584905660377358
 40
0.3584905660377358
 40
0.3584905660377358
 40
0.3584905660377358
 40
0.3679245283018868
 40
0.3679245283018868
 40
0.3679245283018868
 40
0.3679245283018868
 40
0.3773584905660378
 40
0.3773584905660378
 40
0.3773584905660378
 40
0.3773584905660378
 40
0.3867924528301887
 40
0.3867924528301887
 40
0.3867924528301887
 40
0.3867924528301887
 40
0.3962264150943396
 40
0.3962264150943396
 40
0.3962264150943396
 40
0.3962264150943396
 40
0.4056603773584906
 40
0.4056603773584906
 40
0.4056603773584906
 40
0.4056603773584906
 40
0.4150943396226415
 40
0.4150943396226415
 40
0.4150943396226415
 40
0.4150943396226415
 40
0.4245283018867925
 40
0.4245283018867925
 40
0.4245283018867925
 40
0.4245283018867925
 40
0.4339622641509434
 40
0.4339622641509434
 40
0.4339622641509434
 40
0.4339622641509434
 40
0.4433962264150944
 40
0.4433962264150944
 40
0.4433962264150944
 40
0.4433962264150944
 40
0.4528301886792453
 40
0.4528301886792453
 40
0.4528301886792453
 40
0.4528301886792453
 40
0.4622641509433962
 40
0.4622641509433962
 40
0.4622641509433962
 40
0.4622641509433962
 40
0.4716981132075472
 40
0.4716981132075472
 40
0.4716981132075472
 40
0.4716981132075472
 40
0.4811320754716981
 40
0.4811320754716981
 40
0.4811320754716981
 40
0.4811320754716981
 40
0.4905660377358491
 40
0.4905660377358491
 40
0.4905660377358491
 40
0.4905660377358491
 40
0.5
 40
0.5
 40
0.5
 40
0.5
 40
0.5094339622641509
 40
0.5094339622641509
 40
0.5094339622641509
 40
0.5094339622641509
 40
0.5188679245283019
 40
0.5188679245283019
 40
0.5188679245283019
 40
0.5188679245283019
 40
0.5283018867924528
 40
0.5283018867924528
 40
0.5283018867924528
 40
0.5283018867924528
 40
0.5377358490566038
 40
0.5377358490566038
 40
0.5377358490566038
 40
0.5377358490566038
 40
0.5471698113207547
 40
0.5471698113207547
 40
0.5471698113207547
 40
0.5471698113207547
 40
0.5566037735849056
 40
0.5566037735849056
 40
0.5566037735849056
 40
0.5566037735849056
 40
0.5660377358490566
 40
0.5660377358490566
 40
0.5660377358490566
 40
0.5660377358490566
 40
0.5754716981132075
 40
0.5754716981132075
 40
0.5754716981132075
 40
0.5754716981132075
 40
0.5849056603773585
 40
0.5849056603773585
 40
0.5849056603773585
 40
0.5849056603773585
 40
0.5943396226415094
 40
0.5943396226415094
 40
0.5943396226415094
 40
0.5943396226415094
 40
0.6037735849056604
 40
0.6037735849056604
 40
0.6037735849056604
 40
0.6037735849056604
 40
0.6132075471698113
 40
0.6132075471698113
 40
0.6132075471698113
 40
0.6132075471698113
 40
0.6226415094339622
 40
0.6226415094339622
 40
0.6226415094339622
 40
0.6226415094339622
 40
0.6320754716981132
 40
0.6320754716981132
 40
0.6320754716981132
 40
0.6320754716981132
 40
0.6415094339622641
 40
0.6415094339622641
 40
0.6415094339622641
 40
0.6415094339622641
 40
0.6509433962264151
 40
0.6509433962264151
 40
0.6509433962264151
 40
0.6509433962264151
 40
0.660377358490566
 40
0.660377358490566
 40
0.660377358490566
 40
0.660377358490566
 40
0.6698113207547169
 40
0.6698113207547169
 40
0.6698113207547169
 40
0.6698113207547169
 40
0.6792452830188679
 40
0.6792452830188679
 40
0.6792452830188679
 40
0.6792452830188679
 40
0.6886792452830188
 40
0.6886792452830188
 40
0.6886792452830188
 40
0.6886792452830188
 40
0.6981132075471698
 40
0.6981132075471698
 40
0.6981132075471698
 40
0.6981132075471698
 40
0.7075471698113207
 40
0.7075471698113207
 40
0.7075471698113207
 40
0.7075471698113207
 40
0.7169811320754716
 40
0.7169811320754716
 40
0.7169811320754716
 40
0.7169811320754716
 40
0.7264150943396226
 40
0.7264150943396226
 40
0.7264150943396226
 40
0.7264150943396226
 40
0.7358490566037735
 40
0.7358490566037735
 40
0.7358490566037735
 40
0.7358490566037735
 40
0.7452830188679245
 40
0.7452830188679245
 40
0.7452830188679245
 40
0.7452830188679245
 40
0.7547169811320755
 40
0.7547169811320755
 40
0.7547169811320755
 40
0.7547169811320755
 40
0.7641509433962265
 40
0.7641509433962265
 40
0.7641509433962265
 40
0.7641509433962265
 40
0.7735849056603774
 40
0.7735849056603774
 40
0.7735849056603774
 40
0.7735849056603774
 40
0.7830188679245284
 40
0.7830188679245284
 40
0.7830188679245284
 40
0.7830188679245284
 40
0.7924528301886793
 40
0.7924528301886793
 40
0.7924528301886793
 40
0.7924528301886793
 40
0.8018867924528302
 40
0.8018867924528302
 40
0.8018867924528302
 40
0.8018867924528302
 40
0.8113207547169812
 40
0.8113207547169812
 40
0.8113207547169812
 40
0.8113207547169812
 40
0.8207547169811321
 40
0.8207547169811321
 40
0.8207547169811321
 40
0.8207547169811321
 40
0.8301886792452831
 40
0.8301886792452831
 40
0.8301886792452831
 40
0.8301886792452831
 40
0.839622641509434
 40
0.839622641509434
 40
0.839622641509434
 40
0.839622641509434
 40
0.8490566037735849
 40
0.8490566037735849
 40
0.8490566037735849
 40
0.8490566037735849
 40
0.8584905660377359
 40
0.8584905660377359
 40
0.8584905660377359
 40
0.8584905660377359
 40
0.8679245283018868
 40
0.8679245283018868
 40
0.8679245283018868
 40
0.8679245283018868
 40
0.8773584905660378
 40
0.8773584905660378
 40
0.8773584905660378
 40
0.8773584905660378
 40
0.8867924528301887
 40
0.8867924528301887
 40
0.8867924528301887
 40
0.8867924528301887
 40
0.8962264150943396
 40
0.8962264150943396
 40
0.8962264150943396
 40
0.8962264150943396
 40
0.9056603773584906
 40
0.9056603773584906
 40
0.9056603773584906
 40
0.9056603773584906
 40
0.9150943396226415
 40
0.9150943396226415
 40
0.9150943396226415
 40
0.9150943396226415
 40
0.9245283018867925
 40
0.9245283018867925
 40
0.9245283018867925
 40
0.9245283018867925
 40
0.9339622641509434
 40
0.9339622641509434
 40
0.9339622641509434
 40
0.9339622641509434
 40
0.9433962264150944
 40
0.9433962264150944
 40
0.9433962264150944
 40
0.9433962264150944
 40
0.9528301886792453
 40
0.9528301886792453
 40
0.9528301886792453
 40
0.9528301886792453
 40
0.9622641509433962
 40
0.9622641509433962
 40
0.9622641509433962
 40
0.9622641509433962
 40
0.9716981132075472
 40
0.9716981132075472
 40
0.9716981132075472
 40
0.9716981132075472
 40
0.9811320754716981
 40
0.9811320754716981
 40
0.9811320754716981
 40
0.9811320754716981
 40
1.0
 40
1.0
 40
1.0
 40
1.0
 10
32.9677
 20
76.8832
 30
0.0
 10
37.4096
 20
75.0788
 30
0.0
 10
42.788
 20
73.8049
 30
0.0
 10
47.4082
 20
72.3338
 30
0.0
 10
47.4082
 20
72.3338
 30
0.0
 10
53.5168
 20
70.3872
 30
0.0
 10
59.2709
 20
68.6809
 30
0.0
 10
65.1794
 20
66.0116
 30
0.0
 10
65.1794
 20
66.0116
 30
0.0
 10
66.2239
 20
65.5397
 30
0.0
 10
70.1956
 20
63.8403
 30
0.0
 10
70.5332
 20
63.1218
 30
0.0
 10
70.5332
 20
63.1218
 30
0.0
 10
69.7238
 20
63.1558
 30
0.0
 10
66.4762
 20
64.7097
 30
0.0
 10
65.1379
 20
65.051
 30
0.0
 10
65.1379
 20
65.051
 30
0.0
 10
59.0938
 20
66.5927
 30
0.0
 10
53.0638
 20
67.6649
 30
0.0
 10
46.9908
 20
69.0016
 30
0.0
 10
46.9908
 20
69.0016
 30
0.0
 10
43.4741
 20
69.7128
 30
0.0
 10
41.281
 20
70.3509
 30
0.0
 10
37.99
 20
71.0778
 30
0.0
 10
37.99
 20
71.0778
 30
0.0
 10
37.99
 20
71.0778
 30
0.0
 10
31.4231
 20
72.9356
 30
0.0
 10
31.4231
 20
72.9356
 30
0.0
 10
31.4231
 20
72.9356
 30
0.0
 10
27.149
 20
74.1153
 30
0.0
 10
21.1393
 20
76.2499
 30
0.0
 10
17.6066
 20
78.4624
 30
0.0
 10
17.6066
 20
78.4624
 30
0.0
 10
13.7046
 20
80.9063
 30
0.0
 10
11.4758
 20
82.359
 30
0.0
 10
8.6643
 20
86.1138
 30
0.0
 10
8.6643
 20
86.1138
 30
0.0
 10
8.3184
 20
86.5757
 30
0.0
 10
6.6286
 20
89.5348
 30
0.0
 10
6.6265
 20
89.5361
 30
0.0
 10
6.6265
 20
89.5361
 30
0.0
 10
6.4235
 20
88.1311
 30
0.0
 10
7.9051
 20
86.0132
 30
0.0
 10
8.65
 20
84.8316
 30
0.0
 10
8.65
 20
84.8316
 30
0.0
 10
10.1279
 20
82.4872
 30
0.0
 10
12.8118
 20
80.1458
 30
0.0
 10
15.0406
 20
78.5482
 30
0.0
 10
15.0406
 20
78.5482
 30
0.0
 10
18.5459
 20
76.0354
 30
0.0
 10
25.6661
 20
72.7404
 30
0.0
 10
30.0004
 20
71.5058
 30
0.0
 10
30.0004
 20
71.5058
 30
0.0
 10
33.9547
 20
70.2713
 30
0.0
 10
39.2147
 20
68.5786
 30
0.0
 10
43.2452
 20
67.9125
 30
0.0
 10
43.2452
 20
67.9125
 30
0.0
 10
47.3281
 20
67.2383
 30
0.0
 10
52.7239
 20
66.1898
 30
0.0
 10
56.6734
 20
65.2288
 30
0.0
 10
56.6734
 20
65.2288
 30
0.0
 10
75.1055
 20
59.8339
 30
0.0
 10
70.4563
 20
61.3714
 30
0.0
 10
83.385
 20
49.1198
 30
0.0
 10
83.385
 20
49.1198
 30
0.0
 10
83.1274
 20
52.6442
 30
0.0
 10
81.2344
 20
54.363
 30
0.0
 10
79.8651
 20
56.353
 30
0.0
 10
79.8651
 20
56.353
 30
0.0
 10
87.5173
 20
55.7693
 30
0.0
 10
92.7931
 20
31.7067
 30
0.0
 10
86.2877
 20
20.4057
 30
0.0
 10
86.2877
 20
20.4057
 30
0.0
 10
84.6574
 20
26.1969
 30
0.0
 10
87.4036
 20
29.6572
 30
0.0
 10
82.8573
 20
38.0678
 30
0.0
 10
82.8573
 20
38.0678
 30
0.0
 10
80.1272
 20
43.1186
 30
0.0
 10
76.1655
 20
46.936
 30
0.0
 10
71.4643
 20
50.1787
 30
0.0
 10
71.4643
 20
50.1787
 30
0.0
 10
68.1981
 20
52.433
 30
0.0
 10
64.995
 20
54.0623
 30
0.0
 10
61.4997
 20
55.8873
 30
0.0
 10
61.4997
 20
55.8873
 30
0.0
 10
58.7278
 20
57.1324
 30
0.0
 10
56.0198
 20
58.2032
 30
0.0
 10
53.2488
 20
59.3831
 30
0.0
 10
53.2488
 20
59.3831
 30
0.0
 10
50.1216
 20
60.6936
 30
0.0
 10
46.919
 20
61.7981
 30
0.0
 10
43.7603
 20
63.0266
 30
0.0
 10
43.7603
 20
63.0266
 30
0.0
 10
40.1385
 20
64.4432
 30
0.0
 10
36.4626
 20
65.784
 30
0.0
 10
32.8282
 20
67.1866
 30
0.0
 10
32.8282
 20
67.1866
 30
0.0
 10
30.5667
 20
68.1784
 30
0.0
 10
27.9834
 20
69.3906
 30
0.0
 10
25.7482
 20
70.2416
 30
0.0
 10
25.7482
 20
70.2416
 30
0.0
 10
22.081
 20
71.6379
 30
0.0
 10
16.0775
 20
75.1443
 30
0.0
 10
12.7438
 20
77.4038
 30
0.0
 10
12.7438
 20
77.4038
 30
0.0
 10
7.9615
 20
80.6453
 30
0.0
 10
2.1263
 20
87.069
 30
0.0
 10
0.5059
 20
92.8191
 30
0.0
 10
0.5059
 20
92.8191
 30
0.0
 10
0.4351
 20
93.0704
 30
0.0
 10
0.0135
 20
94.5271
 30
0.0
 10
-0.0335
 20
94.6175
 30
0.0
 10
-0.0335
 20
94.6175
 30
0.0
 10
-0.8459
 20
94.5106
 30
0.0
 10
0.8468
 20
90.0745
 30
0.0
 10
1.0585
 20
89.565
 30
0.0
 10
1.0585
 20
89.565
 30
0.0
 10
3.4701
 20
83.7604
 30
0.0
 10
7.4716
 20
79.1775
 30
0.0
 10
12.4087
 20
75.34
 30
0.0
 10
12.4087
 20
75.34
 30
0.0
 10
17.0035
 20
71.7688
 30
0.0
 10
21.4523
 20
69.5773
 30
0.0
 10
26.5318
 20
66.8837
 30
0.0
 10
26.5318
 20
66.8837
 30
0.0
 10
30.8389
 20
64.5995
 30
0.0
 10
35.7391
 20
62.6897
 30
0.0
 10
40.2282
 20
60.7576
 30
0.0
 10
40.2282
 20
60.7576
 30
0.0
 10
41.8856
 20
60.1099
 30
0.0
 10
51.1974
 20
56.3885
 30
0.0
 10
51.3035
 20
56.0692
 30
0.0
 10
51.3035
 20
56.0692
 30
0.0
 10
51.0591
 20
55.7298
 30
0.0
 10
51.1479
 20
55.7876
 30
0.0
 10
50.7023
 20
55.6984
 30
0.0
 10
50.7023
 20
55.6984
 30
0.0
 10
45.8479
 20
55.2166
 30
0.0
 10
38.9235
 20
51.9656
 30
0.0
 10
37.4616
 20
46.8787
 30
0.0
 10
37.4616
 20
46.8787
 30
0.0
 10
37.267
 20
46.2014
 30
0.0
 10
36.8429
 20
45.0325
 30
0.0
 10
36.9942
 20
44.2756
 30
0.0
 10
36.9942
 20
44.2756
 30
0.0
 10
37.2295
 20
44.2635
 30
0.0
 10
39.0249
 20
46.1386
 30
0.0
 10
39.913
 20
46.4983
 30
0.0
 10
39.913
 20
46.4983
 30
0.0
 10
41.1463
 20
44.8897
 30
0.0
 10
44.0187
 20
42.824
 30
0.0
 10
45.6925
 20
46.9661
 30
0.0
 10
45.6925
 20
46.9661
 30
0.0
 10
46.3819
 20
47.2608
 30
0.0
 10
48.0696
 20
46.3603
 30
0.0
 10
48.5129
 20
45.8144
 30
0.0
 10
48.5129
 20
45.8144
 30
0.0
 10
48.6296
 20
44.2259
 30
0.0
 10
46.4439
 20
43.4763
 30
0.0
 10
44.9831
 20
43.4078
 30
0.0
 10
44.9831
 20
43.4078
 30
0.0
 10
43.9998
 20
43.3616
 30
0.0
 10
41.1766
 20
44.1613
 30
0.0
 10
40.0743
 20
44.4642
 30
0.0
 10
40.0743
 20
44.4642
 30
0.0
 10
41.7309
 20
41.6353
 30
0.0
 10
47.4126
 20
41.9238
 30
0.0
 10
49.6667
 20
43.2817
 30
0.0
 10
49.6667
 20
43.2817
 30
0.0
 10
49.8325
 20
39.2776
 30
0.0
 10
48.9422
 20
32.5736
 30
0.0
 10
47.3007
 20
28.9815
 30
0.0
 10
47.3007
 20
28.9815
 30
0.0
 10
45.5275
 20
25.1003
 30
0.0
 10
42.0567
 20
20.2493
 30
0.0
 10
39.2903
 20
16.9416
 30
0.0
 10
39.2903
 20
16.9416
 30
0.0
 10
37.3351
 20
14.6037
 30
0.0
 10
35.7365
 20
12.7585
 30
0.0
 10
33.9139
 20
10.2183
 30
0.0
 10
33.9139
 20
10.2183
 30
0.0
 10
32.1879
 20
7.8128
 30
0.0
 10
31.4352
 20
6.6153
 30
0.0
 10
30.0148
 20
4.0992
 30
0.0
 10
30.0148
 20
4.0992
 30
0.0
 10
29.2697
 20
2.5836
 30
0.0
 10
26.0836
 20
-2.4979
 30
0.0
 10
25.859
 20
-3.1546
 30
0.0
 10
25.859
 20
-3.1546
 30
0.0
 10
26.863
 20
-2.8248
 30
0.0
 10
28.2967
 20
-0.0203
 30
0.0
 10
28.8878
 20
0.9608
 30
0.0
 10
28.8878
 20
0.9608
 30
0.0
 10
32.2658
 20
6.6724
 30
0.0
 10
35.9188
 20
11.8357
 30
0.0
 10
40.5788
 20
16.5737
 30
0.0
 10
40.5788
 20
16.5737
 30
0.0
 10
41.7747
 20
17.7896
 30
0.0
 10
45.1268
 20
22.0161
 30
0.0
 10
46.2264
 20
23.5984
 30
0.0
 10
46.2264
 20
23.5984
 30
0.0
 10
47.6769
 20
25.6859
 30
0.0
 10
49.1007
 20
27.9175
 30
0.0
 10
49.9522
 20
30.3543
 30
0.0
 10
49.9522
 20
30.3543
 30
0.0
 10
51.3565
 20
34.3728
 30
0.0
 10
50.7017
 20
41.1264
 30
0.0
 10
51.4293
 20
43.7508
 30
0.0
 10
51.4293
 20
43.7508
 30
0.0
 10
52.602
 20
43.8564
 30
0.0
 10
54.0914
 20
43.2699
 30
0.0
 10
55.6516
 20
44.5905
 30
0.0
 10
55.6516
 20
44.5905
 30
0.0
 10
55.935
 20
44.8303
 30
0.0
 10
56.3073
 20
45.1802
 30
0.0
 10
56.3772
 20
45.5778
 30
0.0
 10
56.3772
 20
45.5778
 30
0.0
 10
55.0836
 20
45.6976
 30
0.0
 10
53.0907
 20
45.6033
 30
0.0
 10
52.4519
 20
47.0819
 30
0.0
 10
52.4519
 20
47.0819
 30
0.0
 10
52.5985
 20
47.5866
 30
0.0
 10
53.3812
 20
48.6772
 30
0.0
 10
53.6967
 20
49.0813
 30
0.0
 10
53.6967
 20
49.0813
 30
0.0
 10
53.9219
 20
49.3696
 30
0.0
 10
54.1978
 20
49.6502
 30
0.0
 10
54.4366
 20
49.9547
 30
0.0
 10
54.4366
 20
49.9547
 30
0.0
 10
55.366
 20
51.1399
 30
0.0
 10
54.7981
 20
51.4373
 30
0.0
 10
58.4868
 20
49.1864
 30
0.0
 10
58.4868
 20
49.1864
 30
0.0
 10
62.1662
 20
46.9412
 30
0.0
 10
67.572
 20
39.748
 30
0.0
 10
68.7291
 20
35.4463
 30
0.0
 10
68.7291
 20
35.4463
 30
0.0
 10
69.4467
 20
32.7789
 30
0.0
 10
69.8917
 20
30.7197
 30
0.0
 10
69.8275
 20
27.8372
 30
0.0
 10
69.8275
 20
27.8372
 30
0.0
 10
69.5964
 20
17.4219
 30
0.0
 10
64.7094
 20
12.1664
 30
0.0
 10
59.7565
 20
3.9583
 30
0.0
 10
59.7565
 20
3.9583
 30
0.0
 10
58.8967
 20
2.5338
 30
0.0
 10
57.0932
 20
-0.0291
 30
0.0
 10
56.4246
 20
-1.4579
 30
0.0
 10
56.4246
 20
-1.4579
 30
0.0
 10
55.9121
 20
-2.6453
 30
0.0
 10
53.6872
 20
-6.1435
 30
0.0
 10
54.3085
 20
-7.3037
 30
0.0
 10
54.3085
 20
-7.3037
 30
0.0
 10
54.3085
 20
-7.3037
 30
0.0
 10
56.1873
 20
-3.8787
 30
0.0
 10
56.1873
 20
-3.8787
 30
0.0
 10
56.1873
 20
-3.8787
 30
0.0
 10
59.2261
 20
1.1122
 30
0.0
 10
63.5244
 20
5.9883
 30
0.0
 10
66.9945
 20
10.894
 30
0.0
 10
66.9945
 20
10.894
 30
0.0
 10
72.4111
 20
19.6434
 30
0.0
 10
74.2963
 20
29.4759
 30
0.0
 10
69.5092
 20
38.8882
 30
0.0
 10
69.5092
 20
38.8882
 30
0.0
 10
68.4906
 20
40.8914
 30
0.0
 10
67.2406
 20
42.4898
 30
0.0
 10
65.8936
 20
44.2619
 30
0.0
 10
65.8936
 20
44.2619
 30
0.0
 10
62.3802
 20
48.0597
 30
0.0
 10
61.0788
 20
48.8136
 30
0.0
 10
56.7837
 20
50.9353
 30
0.0
 10
56.7837
 20
50.9353
 30
0.0
 10
55.9744
 20
51.3351
 30
0.0
 10
55.5442
 20
51.0676
 30
0.0
 10
55.6871
 20
52.054
 30
0.0
 10
55.6871
 20
52.054
 30
0.0
 10
57.5602
 20
52.1913
 30
0.0
 10
63.4353
 20
48.0098
 30
0.0
 10
65.4461
 20
46.5803
 30
0.0
 10
65.4461
 20
46.5803
 30
0.0
 10
67.8567
 20
44.7798
 30
0.0
 10
68.7142
 20
43.8819
 30
0.0
 10
70.7303
 20
41.8397
 30
0.0
 10
70.7303
 20
41.8397
 30
0.0
 10
75.5311
 20
36.9766
 30
0.0
 10
77.3957
 20
29.8566
 30
0.0
 10
77.0372
 20
22.8789
 30
0.0
 10
77.0372
 20
22.8789
 30
0.0
 10
76.7046
 20
16.4019
 30
0.0
 10
73.0874
 20
8.1441
 30
0.0
 10
69.096
 20
3.1452
 30
0.0
 10
69.096
 20
3.1452
 30
0.0
 10
68.8242
 20
2.7955
 30
0.0
 10
68.0387
 20
2.0616
 30
0.0
 10
68.0976
 20
1.6353
 30
0.0
 10
68.0976
 20
1.6353
 30
0.0
 10
68.8436
 20
1.8187
 30
0.0
 10
71.7134
 20
5.0518
 30
0.0
 10
72.1987
 20
5.6872
 30
0.0
 10
72.1987
 20
5.6872
 30
0.0
 10
78.1244
 20
13.4258
 30
0.0
 10
81.0188
 20
22.979
 30
0.0
 10
78.3851
 20
32.5502
 30
0.0
 10
78.3851
 20
32.5502
 30
0.0
 10
75.4397
 20
43.2536
 30
0.0
 10
66.9613
 20
47.9162
 30
0.0
 10
57.8842
 20
52.612
 30
0.0
 10
57.8842
 20
52.612
 30
0.0
 10
56.6
 20
53.2595
 30
0.0
 10
56.3167
 20
52.9643
 30
0.0
 10
56.3163
 20
53.6141
 30
0.0
 10
56.3163
 20
53.6141
 30
0.0
 10
57.0549
 20
53.8502
 30
0.0
 10
59.3517
 20
52.4362
 30
0.0
 10
60.4351
 20
51.9358
 30
0.0
 10
60.4351
 20
51.9358
 30
0.0
 10
63.5449
 20
50.5002
 30
0.0
 10
66.7048
 20
48.3402
 30
0.0
 10
69.5118
 20
46.3823
 30
0.0
 10
69.5118
 20
46.3823
 30
0.0
 10
72.3919
 20
44.3734
 30
0.0
 10
75.6203
 20
41.2936
 30
0.0
 10
77.5663
 20
38.4267
 30
0.0
 10
77.5663
 20
38.4267
 30
0.0
 10
80.8576
 20
33.5782
 30
0.0
 10
82.4761
 20
26.9767
 30
0.0
 10
81.6201
 20
21.0602
 30
0.0
 10
81.6201
 20
21.0602
 30
0.0
 10
81.3457
 20
19.1646
 30
0.0
 10
81.0767
 20
17.8623
 30
0.0
 10
80.6386
 20
16.13
 30
0.0
 10
80.6386
 20
16.13
 30
0.0
 10
79.6774
 20
12.3287
 30
0.0
 10
76.4087
 20
8.1605
 30
0.0
 10
73.7726
 20
5.6117
 30
0.0
 10
73.7726
 20
5.6117
 30
0.0
 10
68.7931
 20
0.7972
 30
0.0
 10
63.6901
 20
-2.3322
 30
0.0
 10
58.1456
 20
-6.1808
 30
0.0
 10
58.1456
 20
-6.1808
 30
0.0
 10
54.8907
 20
-8.4104
 30
0.0
 10
51.8517
 20
-10.4721
 30
0.0
 10
48.6885
 20
-12.8539
 30
0.0
 10
48.6885
 20
-12.8539
 30
0.0
 10
45.455
 20
-15.4633
 30
0.0
 10
42.398
 20
-18.309
 30
0.0
 10
40.0415
 20
-21.834
 30
0.0
 10
40.0415
 20
-21.834
 30
0.0
 10
39.4759
 20
-22.6801
 30
0.0
 10
35.9357
 20
-28.7286
 30
0.0
 10
36.8026
 20
-29.6887
 30
0.0
 10
36.8026
 20
-29.6887
 30
0.0
 10
42.2589
 20
-22.6832
 30
0.0
 10
40.8384
 20
-21.6013
 30
0.0
 10
49.1376
 20
-15.0325
 30
0.0
 10
49.1376
 20
-15.0325
 30
0.0
 10
51.1829
 20
-13.4136
 30
0.0
 10
58.9258
 20
-8.7534
 30
0.0
 10
61.5392
 20
-7.1528
 30
0.0
 10
61.5392
 20
-7.1528
 30
0.0
 10
61.5392
 20
-7.1528
 30
0.0
 10
67.8631
 20
-3.3402
 30
0.0
 10
67.8631
 20
-3.3402
 30
0.0
 10
67.8631
 20
-3.3402
 30
0.0
 10
69.0064
 20
-2.6166
 30
0.0
 10
69.8629
 20
-2.0741
 30
0.0
 10
70.9389
 20
-1.3488
 30
0.0
 10
70.9389
 20
-1.3488
 30
0.0
 10
73.0609
 20
0.0815
 30
0.0
 10
74.8596
 20
1.5127
 30
0.0
 10
76.6173
 20
3.1115
 30
0.0
 10
76.6173
 20
3.1115
 30
0.0
 10
79.1605
 20
5.4247
 30
0.0
 10
81.5235
 20
8.3054
 30
0.0
 10
83.127
 20
11.3505
 30
0.0
 10
83.127
 20
11.3505
 30
0.0
 10
84.9358
 20
14.7844
 30
0.0
 10
85.3378
 20
17.2493
 30
0.0
 10
87.6335
 20
21.0131
 30
0.0
 10
87.6335
 20
21.0131
 30
0.0
 10
89.0872
 20
23.3971
 30
0.0
 10
89.979
 20
25.8689
 30
0.0
 10
90.6867
 20
28.5476
 30
0.0
 10
90.6867
 20
28.5476
 30
0.0
 10
91.6197
 20
32.0796
 30
0.0
 10
91.9889
 20
36.559
 30
0.0
 10
91.6015
 20
40.1619
 30
0.0
 10
91.6015
 20
40.1619
 30
0.0
 10
90.6637
 20
48.8876
 30
0.0
 10
87.376
 20
56.2012
 30
0.0
 10
81.0872
 20
62.109
 30
0.0
 10
81.0872
 20
62.109
 30
0.0
 10
71.9507
 20
70.6918
 30
0.0
 10
61.018
 20
74.3352
 30
0.0
 10
49.3064
 20
78.1174
 30
0.0
 10
49.3064
 20
78.1174
 30
0.0
 10
36.4672
 20
81.8797
 30
0.0
 10
25.1823
 20
84.5682
 30
0.0
 10
13.4452
 20
91.4723
 30
0.0
 10
13.4452
 20
91.4723
 30
0.0
 10
6.7785
 20
96.2697
 30
0.0
 10
3.5169
 20
97.6544
 30
0.0
 10
0.6423
 20
105.7667
 30
0.0
 10
0.6423
 20
105.7667
 30
0.0
 10
-0.4779
 20
105.8554
 30
0.0
 10
1.5634
 20
100.0054
 30
0.0
 10
1.9297
 20
99.312
 30
0.0
 10
1.9297
 20
99.312
 30
0.0
 10
4.7025
 20
94.0629
 30
0.0
 10
7.2155
 20
91.8945
 30
0.0
 10
11.567
 20
88.2109
 30
0.0
 10
11.567
 20
88.2109
 30
0.0
 10
15.6021
 20
85.2317
 30
0.0
 10
22.0627
 20
81.3036
 30
0.0
 10
26.9119
 20
79.3476
 30
0.0
 10
26.9119
 20
79.3476
 30
0.0
 10
28.9376
 20
78.5304
 30
0.0
 10
30.9252
 20
77.6825
 30
0.0
 10
32.9677
 20
76.8832
 30
0.0
  0
SPLINE
  5
6E
330
1F
100
AcDbEntity
  8
layer 1
100
AcDbSpline
210
0.0
220
0.0
230
1.0
 70
    11
 71
     3
 72
    20
 73
    16
 74
     0
 42
0.000000001
 43
0.0000000001
 40
0.0
 40
0.0
 40
0.0
 40
0.0
 40
0.2
 40
0.2
 40
0.2
 40
0.2
 40
0.4
 40
0.4
 40
0.4
 40
0.4
 40
0.6
 40
0.6
 40
0.6
 40
0.6
 40
1.0
 40
1.0
 40
1.0
 40
1.0
 10
50.0013
 20
49.3087
 30
0.0
 10
48.7737
 20
49.4975
 30
0.0
 10
47.6689
 20
50.068
 30
0.0
 10
46.3586
 20
50.1707
 30
0.0
 10
46.3586
 20
50.1707
 30
0.0
 10
45.4441
 20
50.2425
 30
0.0
 10
44.8855
 20
50.1772
 30
0.0
 10
44.0493
 20
50.0656
 30
0.0
 10
44.0493
 20
50.0656
 30
0.0
 10
42.6099
 20
49.8736
 30
0.0
 10
40.505
 20
48.7568
 30
0.0
 10
40.1588
 20
48.8256
 30
0.0
 10
40.1588
 20
48.8256
 30
0.0
 10
41.2634
 20
51.2707
 30
0.0
 10
48.1548
 20
52.3034
 30
0.0
 10
50.0013
 20
49.3087
 30
0.0
  0
SPLINE
  5
6F
330
1F
100
AcDbEntity
  8
layer 1
100
AcDbSpline
210
0.0
220
0.0
230
1.0
 70
    11
 71
     3
 72
    20
 73
    16
 74
     0
 42
0.000000001
 43
0.0000000001
 40
0.0
 40
0.0
 40
0.0
 40
0.0
 40
0.2
 40
0.2
 40
0.2
 40
0.2
 40
0.4
 40
0.4
 40
0.4
 40
0.4
 40
0.6
 40
0.6
 40
0.6
 40
0.6
 40
1.0
 40
1.0
 40
1.0
 40
1.0
 10
42.9091
 20
46.3991
 30
0.0
 10
43.4925
 20
46.3899
 30
0.0
 10
43.7192
 20
46.6757
 30
0.0
 10
43.9756
 20
46.9363
 30
0.0
 10
43.9756
 20
46.9363
 30
0.0
 10
44.4051
 20
47.3727
 30
0.0
 10
43.8075
 20
47.253
 30
0.0
 10
45.226
 20
47.1965
 30
0.0
 10
45.226
 20
47.1965
 30
0.0
 10
44.9888
 20
44.4782
 30
0.0
 10
41.2515
 20
44.6398
 30
0.0
 10
40.6125
 20
46.753
 30
0.0
 10
40.6125
 20
46.753
 30
0.0
 10
42.2149
 20
47.616
 30
0.0
 10
41.6081
 20
46.4194
 30
0.0
 10
42.9091
 20
46.3991
 30
0.0
  0
SPLINE
  5
70
330
1F
100
AcDbEntity
  8
layer 1
100
AcDbSpline
210
0.0
220
0.0
230
1.0
 70
    11
 71
     3
 72
    24
 73
    20
 74
     0
 42
0.000000001
 43
0.0000000001
 40
0.0
 40
0.0
 40
0.0
 40
0.0
 40
0.1666666666666667
 40
0.1666666666666667
 40
0.1666666666666667
 40
0.1666666666666667
 40
0.3333333333333333
 40
0.3333333333333333
 40
0.3333333333333333
 40
0.3333333333333333
 40
0.5
 40
0.5
 40
0.5
 40
0.5
 40
0.6666666666666666
 40
0.6666666666666666
 40
0.6666666666666666
 40
0.6666666666666666
 40
1.0
 40
1.0
 40
1.0
 40
1.0
 10
51.1493
 20
53.8208
 30
0.0
 10
52.3179
 20
54.3653
 30
0.0
 10
54.0986
 20
54.8659
 30
0.0
 10
55.4343
 20
54.2003
 30
0.0
 10
55.4343
 20
54.2003
 30
0.0
 10
55.6304
 20
53.1621
 30
0.0
 10
54.0615
 20
50.433
 30
0.0
 10
52.9401
 20
50.3732
 30
0.0
 10
52.9401
 20
50.3732
 30
0.0
 10
51.5756
 20
50.3004
 30
0.0
 10
48.9834
 20
51.439
 30
0.0
 10
47.4865
 20
51.8898
 30
0.0
 10
47.4865
 20
51.8898
 30
0.0
 10
47.4865
 20
51.8898
 30
0.0
 10
47.4958
 20
52.3378
 30
0.0
 10
47.4958
 20
52.3378
 30
0.0
 10
47.4958
 20
52.3378
 30
0.0
 10
47.997
 20
52.3801
 30
0.0
 10
50.5055
 20
53.5209
 30
0.0
 10
51.1493
 20
53.8208
 30
0.0
  0
SPLINE
  5
71
330
1F
100
AcDbEntity
  8
layer 1
100
AcDbSpline
210
0.0
220
0.0
230
1.0
 70
    11
 71
     3
 72
   628
 73
   624
 74
     0
 42
0.000000001
 43
0.0000000001
 40
0.0
 40
0.0
 40
0.0
 40
0.0
 40
0.0063694267515924
 40
0.0063694267515924
 40
0.0063694267515924
 40
0.0063694267515924
 40
0.0127388535031847
 40
0.0127388535031847
 40
0.0127388535031847
 40
0.0127388535031847
 40
0.0191082802547771
 40
0.0191082802547771
 40
0.0191082802547771
 40
0.0191082802547771
 40
0.0254777070063694
 40
0.0254777070063694
 40
0.0254777070063694
 40
0.0254777070063694
 40
0.0318471337579618
 40
0.0318471337579618
 40
0.0318471337579618
 40
0.0318471337579618
 40
0.0382165605095541
 40
0.0382165605095541
 40
0.0382165605095541
 40
0.0382165605095541
 40
0.0445859872611465
 40
0.0445859872611465
 40
0.0445859872611465
 40
0.0445859872611465
 40
0.0509554140127389
 40
0.0509554140127389
 40
0.0509554140127389
 40
0.0509554140127389
 40
0.0573248407643312
 40
0.0573248407643312
 40
0.0573248407643312
 40
0.0573248407643312
 40
0.0636942675159236
 40
0.0636942675159236
 40
0.0636942675159236
 40
0.0636942675159236
 40
0.0700636942675159
 40
0.0700636942675159
 40
0.0700636942675159
 40
0.0700636942675159
 40
0.0764331210191083
 40
0.0764331210191083
 40
0.0764331210191083
 40
0.0764331210191083
 40
0.0828025477707006
 40
0.0828025477707006
 40
0.0828025477707006
 40
0.0828025477707006
 40
0.089171974522293
 40
0.089171974522293
 40
0.089171974522293
 40
0.089171974522293
 40
0.0955414012738854
 40
0.0955414012738854
 40
0.0955414012738854
 40
0.0955414012738854
 40
0.1019108280254777
 40
0.1019108280254777
 40
0.1019108280254777
 40
0.1019108280254777
 40
0.1082802547770701
 40
0.1082802547770701
 40
0.1082802547770701
 40
0.1082802547770701
 40
0.1146496815286624
 40
0.1146496815286624
 40
0.1146496815286624
 40
0.1146496815286624
 40
0.1210191082802548
 40
0.1210191082802548
 40
0.1210191082802548
 40
0.1210191082802548
 40
0.1273885350318471
 40
0.1273885350318471
 40
0.1273885350318471
 40
0.1273885350318471
 40
0.1337579617834395
 40
0.1337579617834395
 40
0.1337579617834395
 40
0.1337579617834395
 40
0.1401273885350318
 40
0.1401273885350318
 40
0.1401273885350318
 40
0.1401273885350318
 40
0.1464968152866242
 40
0.1464968152866242
 40
0.1464968152866242
 40
0.1464968152866242
 40
0.1528662420382166
 40
0.1528662420382166
 40
0.1528662420382166
 40
0.1528662420382166
 40
0.1592356687898089
 40
0.1592356687898089
 40
0.1592356687898089
 40
0.1592356687898089
 40
0.1656050955414013
 40
0.1656050955414013
 40
0.1656050955414013
 40
0.1656050955414013
 40
0.1719745222929936
 40
0.1719745222929936
 40
0.1719745222929936
 40
0.1719745222929936
 40
0.178343949044586
 40
0.178343949044586
 40
0.178343949044586
 40
0.178343949044586
 40
0.1847133757961783
 40
0.1847133757961783
 40
0.1847133757961783
 40
0.1847133757961783
 40
0.1910828025477707
 40
0.1910828025477707
 40
0.1910828025477707
 40
0.1910828025477707
 40
0.1974522292993631
 40
0.1974522292993631
 40
0.1974522292993631
 40
0.1974522292993631
 40
0.2038216560509554
 40
0.2038216560509554
 40
0.2038216560509554
 40
0.2038216560509554
 40
0.2101910828025478
 40
0.2101910828025478
 40
0.2101910828025478
 40
0.2101910828025478
 40
0.2165605095541401
 40
0.2165605095541401
 40
0.2165605095541401
 40
0.2165605095541401
 40
0.2229299363057325
 40
0.2229299363057325
 40
0.2229299363057325
 40
0.2229299363057325
 40
0.2292993630573248
 40
0.2292993630573248
 40
0.2292993630573248
 40
0.2292993630573248
 40
0.2356687898089172
 40
0.2356687898089172
 40
0.2356687898089172
 40
0.2356687898089172
 40
0.2420382165605096
 40
0.2420382165605096
 40
0.2420382165605096
 40
0.2420382165605096
 40
0.2484076433121019
 40
0.2484076433121019
 40
0.2484076433121019
 40
0.2484076433121019
 40
0.2547770700636943
 40
0.2547770700636943
 40
0.2547770700636943
 40
0.2547770700636943
 40
0.2611464968152866
 40
0.2611464968152866
 40
0.2611464968152866
 40
0.2611464968152866
 40
0.267515923566879
 40
0.267515923566879
 40
0.267515923566879
 40
0.267515923566879
 40
0.2738853503184713
 40
0.2738853503184713
 40
0.2738853503184713
 40
0.2738853503184713
 40
0.2802547770700637
 40
0.2802547770700637
 40
0.2802547770700637
 40
0.2802547770700637
 40
0.286624203821656
 40
0.286624203821656
 40
0.286624203821656
 40
0.286624203821656
 40
0.2929936305732484
 40
0.2929936305732484
 40
0.2929936305732484
 40
0.2929936305732484
 40
0.2993630573248408
 40
0.2993630573248408
 40
0.2993630573248408
 40
0.2993630573248408
 40
0.3057324840764331
 40
0.3057324840764331
 40
0.3057324840764331
 40
0.3057324840764331
 40
0.3121019108280255
 40
0.3121019108280255
 40
0.3121019108280255
 40
0.3121019108280255
 40
0.3184713375796178
 40
0.3184713375796178
 40
0.3184713375796178
 40
0.3184713375796178
 40
0.3248407643312102
 40
0.3248407643312102
 40
0.3248407643312102
 40
0.3248407643312102
 40
0.3312101910828025
 40
0.3312101910828025
 40
0.3312101910828025
 40
0.3312101910828025
 40
0.3375796178343949
 40
0.3375796178343949
 40
0.3375796178343949
 40
0.3375796178343949
 40
0.3439490445859872
 40
0.3439490445859872
 40
0.3439490445859872
 40
0.3439490445859872
 40
0.3503184713375796
 40
0.3503184713375796
 40
0.3503184713375796
 40
0.3503184713375796
 40
0.356687898089172
 40
0.356687898089172
 40
0.356687898089172
 40
0.356687898089172
 40
0.3630573248407643
 40
0.3630573248407643
 40
0.3630573248407643
 40
0.3630573248407643
 40
0.3694267515923567
 40
0.3694267515923567
 40
0.3694267515923567
 40
0.3694267515923567
 40
0.3757961783439491
 40
0.3757961783439491
 40
0.3757961783439491
 40
0.3757961783439491
 40
0.3821656050955414
 40
0.3821656050955414
 40
0.3821656050955414
 40
0.3821656050955414
 40
0.3885350318471338
 40
0.3885350318471338
 40
0.3885350318471338
 40
0.3885350318471338
 40
0.3949044585987261
 40
0.3949044585987261
 40
0.3949044585987261
 40
0.3949044585987261
 40
0.4012738853503185
 40
0.4012738853503185
 40
0.4012738853503185
 40
0.4012738853503185
 40
0.4076433121019108
 40
0.4076433121019108
 40
0.4076433121019108
 40
0.4076433121019108
 40
0.4140127388535032
 40
0.4140127388535032
 40
0.4140127388535032
 40
0.4140127388535032
 40
0.4203821656050956
 40
0.4203821656050956
 40
0.4203821656050956
 40
0.4203821656050956
 40
0.4267515923566879
 40
0.4267515923566879
 40
0.4267515923566879
 40
0.4267515923566879
 40
0.4331210191082803
 40
0.4331210191082803
 40
0.4331210191082803
 40
0.4331210191082803
 40
0.4394904458598726
 40
0.4394904458598726
 40
0.4394904458598726
 40
0.4394904458598726
 40
0.445859872611465
 40
0.445859872611465
 40
0.445859872611465
 40
0.445859872611465
 40
0.4522292993630573
 40
0.4522292993630573
 40
0.4522292993630573
 40
0.4522292993630573
 40
0.4585987261146497
 40
0.4585987261146497
 40
0.4585987261146497
 40
0.4585987261146497
 40
0.464968152866242
 40
0.464968152866242
 40
0.464968152866242
 40
0.464968152866242
 40
0.4713375796178344
 40
0.4713375796178344
 40
0.4713375796178344
 40
0.4713375796178344
 40
0.4777070063694268
 40
0.4777070063694268
 40
0.4777070063694268
 40
0.4777070063694268
 40
0.4840764331210191
 40
0.4840764331210191
 40
0.4840764331210191
 40
0.4840764331210191
 40
0.4904458598726115
 40
0.4904458598726115
 40
0.4904458598726115
 40
0.4904458598726115
 40
0.4968152866242038
 40
0.4968152866242038
 40
0.4968152866242038
 40
0.4968152866242038
 40
0.5031847133757962
 40
0.5031847133757962
 40
0.5031847133757962
 40
0.5031847133757962
 40
0.5095541401273885
 40
0.5095541401273885
 40
0.5095541401273885
 40
0.5095541401273885
 40
0.5159235668789809
 40
0.5159235668789809
 40
0.5159235668789809
 40
0.5159235668789809
 40
0.5222929936305732
 40
0.5222929936305732
 40
0.5222929936305732
 40
0.5222929936305732
 40
0.5286624203821656
 40
0.5286624203821656
 40
0.5286624203821656
 40
0.5286624203821656
 40
0.535031847133758
 40
0.535031847133758
 40
0.535031847133758
 40
0.535031847133758
 40
0.5414012738853503
 40
0.5414012738853503
 40
0.5414012738853503
 40
0.5414012738853503
 40
0.5477707006369427
 40
0.5477707006369427
 40
0.5477707006369427
 40
0.5477707006369427
 40
0.554140127388535
 40
0.554140127388535
 40
0.554140127388535
 40
0.554140127388535
 40
0.5605095541401274
 40
0.5605095541401274
 40
0.5605095541401274
 40
0.5605095541401274
 40
0.5668789808917197
 40
0.5668789808917197
 40
0.5668789808917197
 40
0.5668789808917197
 40
0.5732484076433121
 40
0.5732484076433121
 40
0.5732484076433121
 40
0.5732484076433121
 40
0.5796178343949044
 40
0.5796178343949044
 40
0.5796178343949044
 40
0.5796178343949044
 40
0.5859872611464968
 40
0.5859872611464968
 40
0.5859872611464968
 40
0.5859872611464968
 40
0.5923566878980892
 40
0.5923566878980892
 40
0.5923566878980892
 40
0.5923566878980892
 40
0.5987261146496815
 40
0.5987261146496815
 40
0.5987261146496815
 40
0.5987261146496815
 40
0.6050955414012739
 40
0.6050955414012739
 40
0.6050955414012739
 40
0.6050955414012739
 40
0.6114649681528662
 40
0.6114649681528662
 40
0.6114649681528662
 40
0.6114649681528662
 40
0.6178343949044586
 40
0.6178343949044586
 40
0.6178343949044586
 40
0.6178343949044586
 40
0.6242038216560509
 40
0.6242038216560509
 40
0.6242038216560509
 40
0.6242038216560509
 40
0.6305732484076433
 40
0.6305732484076433
 40
0.6305732484076433
 40
0.6305732484076433
 40
0.6369426751592356
 40
0.6369426751592356
 40
0.6369426751592356
 40
0.6369426751592356
 40
0.643312101910828
 40
0.643312101910828
 40
0.643312101910828
 40
0.643312101910828
 40
0.6496815286624203
 40
0.6496815286624203
 40
0.6496815286624203
 40
0.6496815286624203
 40
0.6560509554140127
 40
0.6560509554140127
 40
0.6560509554140127
 40
0.6560509554140127
 40
0.6624203821656051
 40
0.6624203821656051
 40
0.6624203821656051
 40
0.6624203821656051
 40
0.6687898089171974
 40
0.6687898089171974
 40
0.6687898089171974
 40
0.6687898089171974
 40
0.6751592356687898
 40
0.6751592356687898
 40
0.6751592356687898
 40
0.6751592356687898
 40
0.6815286624203821
 40
0.6815286624203821
 40
0.6815286624203821
 40
0.6815286624203821
 40
0.6878980891719745
 40
0.6878980891719745
 40
0.6878980891719745
 40
0.6878980891719745
 40
0.6942675159235668
 40
0.6942675159235668
 40
0.6942675159235668
 40
0.6942675159235668
 40
0.7006369426751592
 40
0.7006369426751592
 40
0.7006369426751592
 40
0.7006369426751592
 40
0.7070063694267515
 40
0.7070063694267515
 40
0.7070063694267515
 40
0.7070063694267515
 40
0.7133757961783439
 40
0.7133757961783439
 40
0.7133757961783439
 40
0.7133757961783439
 40
0.7197452229299363
 40
0.7197452229299363
 40
0.7197452229299363
 40
0.7197452229299363
 40
0.7261146496815286
 40
0.7261146496815286
 40
0.7261146496815286
 40
0.7261146496815286
 40
0.732484076433121
 40
0.732484076433121
 40
0.732484076433121
 40
0.732484076433121
 40
0.7388535031847133
 40
0.7388535031847133
 40
0.7388535031847133
 40
0.7388535031847133
 40
0.7452229299363057
 40
0.7452229299363057
 40
0.7452229299363057
 40
0.7452229299363057
 40
0.7515923566878981
 40
0.7515923566878981
 40
0.7515923566878981
 40
0.7515923566878981
 40
0.7579617834394905
 40
0.7579617834394905
 40
0.7579617834394905
 40
0.7579617834394905
 40
0.7643312101910829
 40
0.7643312101910829
 40
0.7643312101910829
 40
0.7643312101910829
 40
0.7707006369426752
 40
0.7707006369426752
 40
0.7707006369426752
 40
0.7707006369426752
 40
0.7770700636942676
 40
0.7770700636942676
 40
0.7770700636942676
 40
0.7770700636942676
 40
0.7834394904458599
 40
0.7834394904458599
 40
0.7834394904458599
 40
0.7834394904458599
 40
0.7898089171974523
 40
0.7898089171974523
 40
0.7898089171974523
 40
0.7898089171974523
 40
0.7961783439490446
 40
0.7961783439490446
 40
0.7961783439490446
 40
0.7961783439490446
 40
0.802547770700637
 40
0.802547770700637
 40
0.802547770700637
 40
0.802547770700637
 40
0.8089171974522293
 40
0.8089171974522293
 40
0.8089171974522293
 40
0.8089171974522293
 40
0.8152866242038217
 40
0.8152866242038217
 40
0.8152866242038217
 40
0.8152866242038217
 40
0.821656050955414
 40
0.821656050955414
 40
0.821656050955414
 40
0.821656050955414
 40
0.8280254777070064
 40
0.8280254777070064
 40
0.8280254777070064
 40
0.8280254777070064
 40
0.8343949044585988
 40
0.8343949044585988
 40
0.8343949044585988
 40
0.8343949044585988
 40
0.8407643312101911
 40
0.8407643312101911
 40
0.8407643312101911
 40
0.8407643312101911
 40
0.8471337579617835
 40
0.8471337579617835
 40
0.8471337579617835
 40
0.8471337579617835
 40
0.8535031847133758
 40
0.8535031847133758
 40
0.8535031847133758
 40
0.8535031847133758
 40
0.8598726114649682
 40
0.8598726114649682
 40
0.8598726114649682
 40
0.8598726114649682
 40
0.8662420382165605
 40
0.8662420382165605
 40
0.8662420382165605
 40
0.8662420382165605
 40
0.8726114649681529
 40
0.8726114649681529
 40
0.8726114649681529
 40
0.8726114649681529
 40
0.8789808917197452
 40
0.8789808917197452
 40
0.8789808917197452
 40
0.8789808917197452
 40
0.8853503184713376
 40
0.8853503184713376
 40
0.8853503184713376
 40
0.8853503184713376
 40
0.89171974522293
 40
0.89171974522293
 40
0.89171974522293
 40
0.89171974522293
 40
0.8980891719745223
 40
0.8980891719745223
 40
0.8980891719745223
 40
0.8980891719745223
 40
0.9044585987261147
 40
0.9044585987261147
 40
0.9044585987261147
 40
0.9044585987261147
 40
0.910828025477707
 40
0.910828025477707
 40
0.910828025477707
 40
0.910828025477707
 40
0.9171974522292994
 40
0.9171974522292994
 40
0.9171974522292994
 40
0.9171974522292994
 40
0.9235668789808917
 40
0.9235668789808917
 40
0.9235668789808917
 40
0.9235668789808917
 40
0.9299363057324841
 40
0.9299363057324841
 40
0.9299363057324841
 40
0.9299363057324841
 40
0.9363057324840764
 40
0.9363057324840764
 40
0.9363057324840764
 40
0.9363057324840764
 40
0.9426751592356688
 40
0.9426751592356688
 40
0.9426751592356688
 40
0.9426751592356688
 40
0.9490445859872612
 40
0.9490445859872612
 40
0.9490445859872612
 40
0.9490445859872612
 40
0.9554140127388535
 40
0.9554140127388535
 40
0.9554140127388535
 40
0.9554140127388535
 40
0.9617834394904459
 40
0.9617834394904459
 40
0.9617834394904459
 40
0.9617834394904459
 40
0.9681528662420382
 40
0.9681528662420382
 40
0.9681528662420382
 40
0.9681528662420382
 40
0.9745222929936306
 40
0.9745222929936306
 40
0.9745222929936306
 40
0.9745222929936306
 40
0.9808917197452229
 40
0.9808917197452229
 40
0.9808917197452229
 40
0.9808917197452229
 40
0.9872611464968153
 40
0.9872611464968153
 40
0.9872611464968153
 40
0.9872611464968153
 40
1.0
 40
1.0
 40
1.0
 40
1.0
 10
-14.2029
 20
63.9814
 30
0.0
 10
-11.4786
 20
64.9689
 30
0.0
 10
-9.019
 20
66.1437
 30
0.0
 10
-6.3983
 20
67.4764
 30
0.0
 10
-6.3983
 20
67.4764
 30
0.0
 10
-3.9653
 20
68.7136
 30
0.0
 10
6.2896
 20
75.6518
 30
0.0
 10
6.3805
 20
78.2978
 30
0.0
 10
6.3805
 20
78.2978
 30
0.0
 10
6.0678
 20
78.2092
 30
0.0
 10
6.0586
 20
78.076
 30
0.0
 10
5.8124
 20
77.8495
 30
0.0
 10
5.8124
 20
77.8495
 30
0.0
 10
1.4577
 20
73.8342
 30
0.0
 10
-2.1358
 20
72.0978
 30
0.0
 10
-7.8681
 20
69.9768
 30
0.0
 10
-7.8681
 20
69.9768
 30
0.0
 10
-10.6659
 20
68.9415
 30
0.0
 10
-14.6516
 20
67.8325
 30
0.0
 10
-17.6304
 20
67.0819
 30
0.0
 10
-17.6304
 20
67.0819
 30
0.0
 10
-21.7602
 20
66.0414
 30
0.0
 10
-26.1554
 20
65.2401
 30
0.0
 10
-30.338
 20
64.3322
 30
0.0
 10
-30.338
 20
64.3322
 30
0.0
 10
-35.772
 20
63.5015
 30
0.0
 10
-41.4442
 20
61.6795
 30
0.0
 10
-46.7812
 20
60.2746
 30
0.0
 10
-46.7812
 20
60.2746
 30
0.0
 10
-50.5828
 20
59.2739
 30
0.0
 10
-54.4161
 20
57.5246
 30
0.0
 10
-58.0355
 20
55.9807
 30
0.0
 10
-58.0355
 20
55.9807
 30
0.0
 10
-63.8295
 20
53.2539
 30
0.0
 10
-67.4241
 20
50.9528
 30
0.0
 10
-72.2571
 20
47.162
 30
0.0
 10
-72.2571
 20
47.162
 30
0.0
 10
-72.5279
 20
46.9496
 30
0.0
 10
-73.2888
 20
46.125
 30
0.0
 10
-73.6467
 20
46.0725
 30
0.0
 10
-73.6467
 20
46.0725
 30
0.0
 10
-73.7955
 20
47.219
 30
0.0
 10
-71.2158
 20
52.6238
 30
0.0
 10
-70.6856
 20
53.659
 30
0.0
 10
-70.6856
 20
53.659
 30
0.0
 10
-69.6027
 20
55.7731
 30
0.0
 10
-67.7723
 20
58.1662
 30
0.0
 10
-66.2454
 20
59.699
 30
0.0
 10
-66.2454
 20
59.699
 30
0.0
 10
-61.4206
 20
63.8424
 30
0.0
 10
-56.4253
 20
66.4662
 30
0.0
 10
-50.0048
 20
67.0583
 30
0.0
 10
-50.0048
 20
67.0583
 30
0.0
 10
-43.8319
 20
67.6285
 30
0.0
 10
-38.6386
 20
66.5012
 30
0.0
 10
-32.6637
 20
66.3273
 30
0.0
 10
-32.6637
 20
66.3273
 30
0.0
 10
-29.2136
 20
66.2269
 30
0.0
 10
-25.8968
 20
66.3899
 30
0.0
 10
-22.5694
 20
66.7496
 30
0.0
 10
-22.5694
 20
66.7496
 30
0.0
 10
-18.6447
 20
67.1738
 30
0.0
 10
-5.2182
 20
70.1907
 30
0.0
 10
-2.3487
 20
74.924
 30
0.0
 10
-2.3487
 20
74.924
 30
0.0
 10
-9.5966
 20
71.2303
 30
0.0
 10
-13.5438
 20
69.0439
 30
0.0
 10
-22.0684
 20
68.3264
 30
0.0
 10
-22.0684
 20
68.3264
 30
0.0
 10
-27.4205
 20
67.8747
 30
0.0
 10
-31.2943
 20
67.8427
 30
0.0
 10
-36.5754
 20
68.409
 30
0.0
 10
-36.5754
 20
68.409
 30
0.0
 10
-41.3187
 20
68.9175
 30
0.0
 10
-46.229
 20
69.3113
 30
0.0
 10
-50.9616
 20
68.5978
 30
0.0
 10
-50.9616
 20
68.5978
 30
0.0
 10
-62.6186
 20
66.8407
 30
0.0
 10
-70.4918
 20
59.8634
 30
0.0
 10
-73.6802
 20
48.4659
 30
0.0
 10
-73.6802
 20
48.4659
 30
0.0
 10
-74.1988
 20
46.612
 30
0.0
 10
-74.3424
 20
45.3039
 30
0.0
 10
-75.5124
 20
44.1946
 30
0.0
 10
-75.5124
 20
44.1946
 30
0.0
 10
-76.4814
 20
43.2757
 30
0.0
 10
-81.0805
 20
37.6532
 30
0.0
 10
-81.1497
 20
37.6329
 30
0.0
 10
-81.1497
 20
37.6329
 30
0.0
 10
-81.4125
 20
40.121
 30
0.0
 10
-80.0094
 20
45.5523
 30
0.0
 10
-79.3136
 20
48.0009
 30
0.0
 10
-79.3136
 20
48.0009
 30
0.0
 10
-78.1955
 20
51.9357
 30
0.0
 10
-75.269
 20
56.4127
 30
0.0
 10
-72.3787
 20
59.2655
 30
0.0
 10
-72.3787
 20
59.2655
 30
0.0
 10
-68.0668
 20
63.5215
 30
0.0
 10
-64.4786
 20
65.045
 30
0.0
 10
-59.0911
 20
67.1684
 30
0.0
 10
-59.0911
 20
67.1684
 30
0.0
 10
-54.3765
 20
68.739
 30
0.0
 10
-49.0227
 20
69.7821
 30
0.0
 10
-44.0686
 20
70.2109
 30
0.0
 10
-44.0686
 20
70.2109
 30
0.0
 10
-44.0686
 20
70.2109
 30
0.0
 10
-27.0759
 20
71.423
 30
0.0
 10
-27.0759
 20
71.423
 30
0.0
 10
-27.0759
 20
71.423
 30
0.0
 10
-25.251
 20
71.5853
 30
0.0
 10
-23.3675
 20
71.7389
 30
0.0
 10
-21.5385
 20
71.8807
 30
0.0
 10
-21.5385
 20
71.8807
 30
0.0
 10
-16.86
 20
72.2439
 30
0.0
 10
-10.6473
 20
73.3369
 30
0.0
 10
-6.4215
 20
75.112
 30
0.0
 10
-6.4215
 20
75.112
 30
0.0
 10
-4.5196
 20
75.911
 30
0.0
 10
2.2219
 20
79.9306
 30
0.0
 10
1.8999
 20
82.2822
 30
0.0
 10
1.8999
 20
82.2822
 30
0.0
 10
1.8663
 20
82.2677
 30
0.0
 10
-0.4362
 20
79.9922
 30
0.0
 10
-0.7622
 20
79.699
 30
0.0
 10
-0.7622
 20
79.699
 30
0.0
 10
-7.8055
 20
73.3656
 30
0.0
 10
-31.3559
 20
75.1755
 30
0.0
 10
-40.0372
 20
74.8215
 30
0.0
 10
-40.0372
 20
74.8215
 30
0.0
 10
-49.36
 20
74.442
 30
0.0
 10
-55.2464
 20
73.5697
 30
0.0
 10
-64.2254
 20
70.2809
 30
0.0
 10
-64.2254
 20
70.2809
 30
0.0
 10
-62.3547
 20
72.9937
 30
0.0
 10
-60.7248
 20
75.2514
 30
0.0
 10
-57.9647
 20
77.2273
 30
0.0
 10
-57.9647
 20
77.2273
 30
0.0
 10
-53.3358
 20
80.5408
 30
0.0
 10
-49.3256
 20
82.8656
 30
0.0
 10
-43.6134
 20
84.1961
 30
0.0
 10
-43.6134
 20
84.1961
 30
0.0
 10
-35.377
 20
86.1149
 30
0.0
 10
-29.3935
 20
86.5336
 30
0.0
 10
-21.0741
 20
84.0447
 30
0.0
 10
-21.0741
 20
84.0447
 30
0.0
 10
-21.0741
 20
84.0447
 30
0.0
 10
-14.8726
 20
82.1461
 30
0.0
 10
-14.8726
 20
82.1461
 30
0.0
 10
-14.8726
 20
82.1461
 30
0.0
 10
-13.1414
 20
81.4746
 30
0.0
 10
-9.2527
 20
80.7526
 30
0.0
 10
-7.4327
 20
80.8053
 30
0.0
 10
-7.4327
 20
80.8053
 30
0.0
 10
-6.1644
 20
80.8421
 30
0.0
 10
-1.8641
 20
81.693
 30
0.0
 10
-1.2583
 20
82.7806
 30
0.0
 10
-1.2583
 20
82.7806
 30
0.0
 10
-1.7166
 20
83.0524
 30
0.0
 10
-3.3097
 20
82.1913
 30
0.0
 10
-3.9531
 20
82.0872
 30
0.0
 10
-3.9531
 20
82.0872
 30
0.0
 10
-8.2486
 20
81.3916
 30
0.0
 10
-9.9277
 20
82.394
 30
0.0
 10
-13.9239
 20
83.7982
 30
0.0
 10
-13.9239
 20
83.7982
 30
0.0
 10
-13.9239
 20
83.7982
 30
0.0
 10
-20.3378
 20
86.2829
 30
0.0
 10
-20.3378
 20
86.2829
 30
0.0
 10
-20.3378
 20
86.2829
 30
0.0
 10
-21.5966
 20
86.9306
 30
0.0
 10
-25.6907
 20
87.6801
 30
0.0
 10
-25.9658
 20
87.8707
 30
0.0
 10
-25.9658
 20
87.8707
 30
0.0
 10
-25.2846
 20
89.4989
 30
0.0
 10
-11.2419
 20
81.5138
 30
0.0
 10
-3.179
 20
87.9926
 30
0.0
 10
-3.179
 20
87.9926
 30
0.0
 10
-2.0488
 20
88.9007
 30
0.0
 10
-0.3714
 20
91.2445
 30
0.0
 10
-0.8682
 20
92.112
 30
0.0
 10
-0.8682
 20
92.112
 30
0.0
 10
-9.1677
 20
84.1735
 30
0.0
 10
-15.8089
 20
89.0128
 30
0.0
 10
-23.4338
 20
88.6772
 30
0.0
 10
-23.4338
 20
88.6772
 30
0.0
 10
-20.7688
 20
91.2918
 30
0.0
 10
1.0607
 20
82.3166
 30
0.0
 10
-0.9834
 20
104.6649
 30
0.0
 10
-0.9834
 20
104.6649
 30
0.0
 10
-3.3094
 20
93.0352
 30
0.0
 10
-10.0051
 20
91.4169
 30
0.0
 10
-15.799
 20
91.4426
 30
0.0
 10
-15.799
 20
91.4426
 30
0.0
 10
-11.5394
 20
93.1055
 30
0.0
 10
-3.6882
 20
97.3193
 30
0.0
 10
-3.1733
 20
106.4916
 30
0.0
 10
-3.1733
 20
106.4916
 30
0.0
 10
-7.6249
 20
100.2001
 30
0.0
 10
-11.7371
 20
95.125
 30
0.0
 10
-28.8574
 20
90.7382
 30
0.0
 10
-28.8574
 20
90.7382
 30
0.0
 10
-30.2597
 20
90.3788
 30
0.0
 10
-34.0499
 20
89.9179
 30
0.0
 10
-35.6615
 20
89.5001
 30
0.0
 10
-35.6615
 20
89.5001
 30
0.0
 10
-35.6615
 20
89.5001
 30
0.0
 10
-40.0177
 20
88.5289
 30
0.0
 10
-40.0177
 20
88.5289
 30
0.0
 10
-40.0177
 20
88.5289
 30
0.0
 10
-44.1004
 20
87.5543
 30
0.0
 10
-48.1244
 20
86.0251
 30
0.0
 10
-51.755
 20
84.1533
 30
0.0
 10
-51.755
 20
84.1533
 30
0.0
 10
-57.434
 20
81.2254
 30
0.0
 10
-62.2204
 20
76.4297
 30
0.0
 10
-65.0382
 20
70.7016
 30
0.0
 10
-65.0382
 20
70.7016
 30
0.0
 10
-65.511
 20
69.7405
 30
0.0
 10
-65.3782
 20
69.6217
 30
0.0
 10
-66.2384
 20
69.1337
 30
0.0
 10
-66.2384
 20
69.1337
 30
0.0
 10
-69.1172
 20
67.4184
 30
0.0
 10
-71.078
 20
66.2497
 30
0.0
 10
-73.6325
 20
63.9761
 30
0.0
 10
-73.6325
 20
63.9761
 30
0.0
 10
-74.4957
 20
63.2078
 30
0.0
 10
-74.8129
 20
62.4844
 30
0.0
 10
-75.3009
 20
62.395
 30
0.0
 10
-75.3009
 20
62.395
 30
0.0
 10
-75.4441
 20
63.7014
 30
0.0
 10
-73.337
 20
68.9775
 30
0.0
 10
-72.7404
 20
70.2279
 30
0.0
 10
-72.7404
 20
70.2279
 30
0.0
 10
-69.207
 20
77.634
 30
0.0
 10
-64.4554
 20
83.8541
 30
0.0
 10
-57.4236
 20
88.3235
 30
0.0
 10
-57.4236
 20
88.3235
 30
0.0
 10
-55.68
 20
89.4318
 30
0.0
 10
-54.5269
 20
90.0942
 30
0.0
 10
-52.5227
 20
91.0278
 30
0.0
 10
-52.5227
 20
91.0278
 30
0.0
 10
-51.3863
 20
91.5572
 30
0.0
 10
-49.9698
 20
92.2007
 30
0.0
 10
-48.8514
 20
92.5302
 30
0.0
 10
-48.8514
 20
92.5302
 30
0.0
 10
-46.7776
 20
93.1614
 30
0.0
 10
-44.8888
 20
93.6978
 30
0.0
 10
-42.783
 20
94.1922
 30
0.0
 10
-42.783
 20
94.1922
 30
0.0
 10
-40.6319
 20
94.6975
 30
0.0
 10
-38.2973
 20
95.0151
 30
0.0
 10
-36.4419
 20
95.443
 30
0.0
 10
-36.4419
 20
95.443
 30
0.0
 10
-36.4419
 20
95.443
 30
0.0
 10
-27.6987
 20
96.9865
 30
0.0
 10
-27.6987
 20
96.9865
 30
0.0
 10
-27.6987
 20
96.9865
 30
0.0
 10
-27.7347
 20
96.4558
 30
0.0
 10
-27.8299
 20
96.5231
 30
0.0
 10
-28.1537
 20
96.263
 30
0.0
 10
-28.1537
 20
96.263
 30
0.0
 10
-30.1974
 20
94.6219
 30
0.0
 10
-31.9161
 20
93.3421
 30
0.0
 10
-34.7163
 20
92.4585
 30
0.0
 10
-34.7163
 20
92.4585
 30
0.0
 10
-35.0967
 20
92.3384
 30
0.0
 10
-35.1773
 20
92.2398
 30
0.0
 10
-35.5364
 20
92.1161
 30
0.0
 10
-35.5364
 20
92.1161
 30
0.0
 10
-35.8566
 20
92.0057
 30
0.0
 10
-36.1182
 20
91.9423
 30
0.0
 10
-36.3926
 20
91.8385
 30
0.0
 10
-36.3926
 20
91.8385
 30
0.0
 10
-38.6196
 20
90.997
 30
0.0
 10
-41.2495
 20
90.3147
 30
0.0
 10
-43.3873
 20
89.5964
 30
0.0
 10
-43.3873
 20
89.5964
 30
0.0
 10
-44.4348
 20
89.2445
 30
0.0
 10
-45.8176
 20
88.8026
 30
0.0
 10
-46.934
 20
88.5406
 30
0.0
 10
-46.934
 20
88.5406
 30
0.0
 10
-49.9652
 20
87.8291
 30
0.0
 10
-52.7881
 20
86.8516
 30
0.0
 10
-55.6887
 20
85.79
 30
0.0
 10
-55.6887
 20
85.79
 30
0.0
 10
-59.2226
 20
84.4964
 30
0.0
 10
-62.9585
 20
82.1999
 30
0.0
 10
-65.3602
 20
79.3242
 30
0.0
 10
-65.3602
 20
79.3242
 30
0.0
 10
-67.3141
 20
76.9844
 30
0.0
 10
-67.6213
 20
76.7384
 30
0.0
 10
-69.2235
 20
73.9657
 30
0.0
 10
-69.2235
 20
73.9657
 30
0.0
 10
-69.9553
 20
72.6993
 30
0.0
 10
-71.4942
 20
68.9031
 30
0.0
 10
-71.7024
 20
67.286
 30
0.0
 10
-71.7024
 20
67.286
 30
0.0
 10
-71.7024
 20
67.286
 30
0.0
 10
-71.6982
 20
66.4213
 30
0.0
 10
-71.6982
 20
66.4213
 30
0.0
 10
-71.6982
 20
66.4213
 30
0.0
 10
-71.56
 20
66.4789
 30
0.0
 10
-68.5584
 20
72.9547
 30
0.0
 10
-67.7921
 20
74.0372
 30
0.0
 10
-67.7921
 20
74.0372
 30
0.0
 10
-65.408
 20
77.4054
 30
0.0
 10
-62.7531
 20
79.9255
 30
0.0
 10
-59.2466
 20
82.0798
 30
0.0
 10
-59.2466
 20
82.0798
 30
0.0
 10
-57.1648
 20
83.3588
 30
0.0
 10
-55.7108
 20
83.8348
 30
0.0
 10
-53.6189
 20
84.7441
 30
0.0
 10
-53.6189
 20
84.7441
 30
0.0
 10
-53.6189
 20
84.7441
 30
0.0
 10
-47.4593
 20
86.8866
 30
0.0
 10
-47.4593
 20
86.8866
 30
0.0
 10
-47.4593
 20
86.8866
 30
0.0
 10
-42.1178
 20
88.5327
 30
0.0
 10
-35.9829
 20
90.2844
 30
0.0
 10
-31.5603
 20
93.1038
 30
0.0
 10
-31.5603
 20
93.1038
 30
0.0
 10
-30.0086
 20
94.0929
 30
0.0
 10
-28.2079
 20
95.4457
 30
0.0
 10
-26.8577
 20
96.6975
 30
0.0
 10
-26.8577
 20
96.6975
 30
0.0
 10
-26.1717
 20
97.3334
 30
0.0
 10
-26.0966
 20
97.4106
 30
0.0
 10
-25.0162
 20
97.6223
 30
0.0
 10
-25.0162
 20
97.6223
 30
0.0
 10
-22.2652
 20
98.1613
 30
0.0
 10
-20.7341
 20
98.7238
 30
0.0
 10
-18.4097
 20
99.3102
 30
0.0
 10
-18.4097
 20
99.3102
 30
0.0
 10
-17.7613
 20
99.474
 30
0.0
 10
-16.9364
 20
99.8789
 30
0.0
 10
-16.2465
 20
100.0027
 30
0.0
 10
-16.2465
 20
100.0027
 30
0.0
 10
-15.4125
 20
100.533
 30
0.0
 10
-11.3672
 20
101.5866
 30
0.0
 10
-7.7555
 20
104.3211
 30
0.0
 10
-7.7555
 20
104.3211
 30
0.0
 10
-6.4202
 20
105.332
 30
0.0
 10
-5.4043
 20
106.2591
 30
0.0
 10
-4.3789
 20
107.3974
 30
0.0
 10
-4.3789
 20
107.3974
 30
0.0
 10
-3.7765
 20
108.0664
 30
0.0
 10
-1.642
 20
110.7157
 30
0.0
 10
-2.0459
 20
111.5552
 30
0.0
 10
-2.0459
 20
111.5552
 30
0.0
 10
-2.8643
 20
110.7713
 30
0.0
 10
-3.4494
 20
109.7209
 30
0.0
 10
-4.3284
 20
108.8455
 30
0.0
 10
-4.3284
 20
108.8455
 30
0.0
 10
-5.1353
 20
108.0419
 30
0.0
 10
-6.0078
 20
107.3621
 30
0.0
 10
-7.0382
 20
106.6014
 30
0.0
 10
-7.0382
 20
106.6014
 30
0.0
 10
-9.0876
 20
105.0881
 30
0.0
 10
-13.0222
 20
103.4709
 30
0.0
 10
-15.6289
 20
102.8502
 30
0.0
 10
-15.6289
 20
102.8502
 30
0.0
 10
-17.2045
 20
102.4754
 30
0.0
 10
-19.8824
 20
101.8457
 30
0.0
 10
-21.2994
 20
101.6528
 30
0.0
 10
-21.2994
 20
101.6528
 30
0.0
 10
-22.2705
 20
101.5207
 30
0.0
 10
-32.1371
 20
99.7311
 30
0.0
 10
-32.7747
 20
100.2466
 30
0.0
 10
-32.7747
 20
100.2466
 30
0.0
 10
-32.7746
 20
100.2467
 30
0.0
 10
-27.5459
 20
101.5443
 30
0.0
 10
-27.0055
 20
101.689
 30
0.0
 10
-27.0055
 20
101.689
 30
0.0
 10
-25.1301
 20
102.1913
 30
0.0
 10
-22.2991
 20
103.6353
 30
0.0
 10
-20.7179
 20
104.6142
 30
0.0
 10
-20.7179
 20
104.6142
 30
0.0
 10
-19.1076
 20
105.6111
 30
0.0
 10
-17.3137
 20
106.7338
 30
0.0
 10
-15.8253
 20
107.9004
 30
0.0
 10
-15.8253
 20
107.9004
 30
0.0
 10
-11.6932
 20
111.1388
 30
0.0
 10
-5.3375
 20
116.6059
 30
0.0
 10
-0.0969
 20
116.3215
 30
0.0
 10
-0.0969
 20
116.3215
 30
0.0
 10
-0.0969
 20
116.3215
 30
0.0
 10
0.3153
 20
116.4802
 30
0.0
 10
0.3153
 20
116.4802
 30
0.0
 10
0.3153
 20
116.4802
 30
0.0
 10
-0.2258
 20
116.8622
 30
0.0
 10
-1.6646
 20
117.2003
 30
0.0
 10
-2.3221
 20
117.3127
 30
0.0
 10
-2.3221
 20
117.3127
 30
0.0
 10
-6.0884
 20
117.9567
 30
0.0
 10
-10.8069
 20
116.3804
 30
0.0
 10
-14.0175
 20
114.7293
 30
0.0
 10
-14.0175
 20
114.7293
 30
0.0
 10
-14.6837
 20
114.3866
 30
0.0
 10
-15.3578
 20
114.1256
 30
0.0
 10
-16.0266
 20
113.7476
 30
0.0
 10
-16.0266
 20
113.7476
 30
0.0
 10
-16.0266
 20
113.7476
 30
0.0
 10
-21.4889
 20
110.4542
 30
0.0
 10
-21.4889
 20
110.4542
 30
0.0
 10
-21.4889
 20
110.4542
 30
0.0
 10
-22.7232
 20
109.6789
 30
0.0
 10
-23.8781
 20
109.0072
 30
0.0
 10
-25.1802
 20
108.2709
 30
0.0
 10
-25.1802
 20
108.2709
 30
0.0
 10
-26.2383
 20
107.6722
 30
0.0
 10
-32.5998
 20
104.4286
 30
0.0
 10
-33.3808
 20
104.9235
 30
0.0
 10
-33.3808
 20
104.9235
 30
0.0
 10
-33.1171
 20
105.4025
 30
0.0
 10
-23.1102
 20
111.3062
 30
0.0
 10
-22.2477
 20
111.7935
 30
0.0
 10
-22.2477
 20
111.7935
 30
0.0
 10
-17.4015
 20
114.5311
 30
0.0
 10
-10.4861
 20
117.9765
 30
0.0
 10
-5.0197
 20
118.274
 30
0.0
 10
-5.0197
 20
118.274
 30
0.0
 10
-3.9793
 20
118.3308
 30
0.0
 10
-3.0531
 20
118.3102
 30
0.0
 10
-2.0185
 20
118.2979
 30
0.0
 10
-2.0185
 20
118.2979
 30
0.0
 10
-1.0745
 20
118.2867
 30
0.0
 10
-0.1387
 20
117.9906
 30
0.0
 10
0.6288
 20
118.0494
 30
0.0
 10
0.6288
 20
118.0494
 30
0.0
 10
-0.0569
 20
118.875
 30
0.0
 10
-1.8862
 20
119.6016
 30
0.0
 10
-2.9512
 20
120.0139
 30
0.0
 10
-2.9512
 20
120.0139
 30
0.0
 10
-11.517
 20
123.3309
 30
0.0
 10
-21.4378
 20
118.4344
 30
0.0
 10
-27.9889
 20
113.0377
 30
0.0
 10
-27.9889
 20
113.0377
 30
0.0
 10
-29.7624
 20
111.5769
 30
0.0
 10
-30.3566
 20
110.8794
 30
0.0
 10
-31.7629
 20
109.6678
 30
0.0
 10
-31.7629
 20
109.6678
 30
0.0
 10
-31.7629
 20
109.6678
 30
0.0
 10
-37.2745
 20
104.4658
 30
0.0
 10
-37.2745
 20
104.4658
 30
0.0
 10
-37.2745
 20
104.4658
 30
0.0
 10
-39.3555
 20
102.3241
 30
0.0
 10
-38.9465
 20
102.6341
 30
0.0
 10
-41.4656
 20
101.5158
 30
0.0
 10
-41.4656
 20
101.5158
 30
0.0
 10
-42.8652
 20
100.8946
 30
0.0
 10
-44.7977
 20
99.7886
 30
0.0
 10
-46.0109
 20
98.9179
 30
0.0
 10
-46.0109
 20
98.9179
 30
0.0
 10
-46.6049
 20
98.4915
 30
0.0
 10
-47.4928
 20
97.69
 30
0.0
 10
-48.0469
 20
97.3822
 30
0.0
 10
-48.0469
 20
97.3822
 30
0.0
 10
-48.2713
 20
97.2575
 30
0.0
 10
-50.4981
 20
96.5325
 30
0.0
 10
-50.6364
 20
96.527
 30
0.0
 10
-50.6364
 20
96.527
 30
0.0
 10
-50.5831
 20
97.0019
 30
0.0
 10
-43.4426
 20
103.7716
 30
0.0
 10
-42.6568
 20
104.5483
 30
0.0
 10
-42.6568
 20
104.5483
 30
0.0
 10
-41.07
 20
106.2066
 30
0.0
 10
-37.9714
 20
109.1073
 30
0.0
 10
-36.2669
 20
110.4868
 30
0.0
 10
-36.2669
 20
110.4868
 30
0.0
 10
-34.8964
 20
111.5962
 30
0.0
 10
-33.6981
 20
112.4561
 30
0.0
 10
-32.1851
 20
113.5475
 30
0.0
 10
-32.1851
 20
113.5475
 30
0.0
 10
-27.5768
 20
116.8709
 30
0.0
 10
-19.4153
 20
120.4612
 30
0.0
 10
-13.5902
 20
121.5515
 30
0.0
 10
-13.5902
 20
121.5515
 30
0.0
 10
-9.3057
 20
122.3537
 30
0.0
 10
-7.9714
 20
122.5438
 30
0.0
 10
-3.4228
 20
122.2971
 30
0.0
 10
-3.4228
 20
122.2971
 30
0.0
 10
-1.5121
 20
122.1935
 30
0.0
 10
0.233
 20
121.5691
 30
0.0
 10
1.1474
 20
121.4955
 30
0.0
 10
1.1474
 20
121.4955
 30
0.0
 10
0.982
 20
122.3558
 30
0.0
 10
-3.5104
 20
123.3953
 30
0.0
 10
-4.3364
 20
123.5648
 30
0.0
 10
-4.3364
 20
123.5648
 30
0.0
 10
-16.3208
 20
126.0256
 30
0.0
 10
-31.1335
 20
119.5238
 30
0.0
 10
-39.2959
 20
111.0466
 30
0.0
 10
-39.2959
 20
111.0466
 30
0.0
 10
-41.828
 20
108.3585
 30
0.0
 10
-44.0585
 20
105.7445
 30
0.0
 10
-46.4451
 20
102.9217
 30
0.0
 10
-46.4451
 20
102.9217
 30
0.0
 10
-46.8647
 20
102.401
 30
0.0
 10
-47.2223
 20
102.1307
 30
0.0
 10
-47.6423
 20
101.5843
 30
0.0
 10
-47.6423
 20
101.5843
 30
0.0
 10
-48.6292
 20
100.3005
 30
0.0
 10
-51.2503
 20
97.3513
 30
0.0
 10
-52.4198
 20
96.2236
 30
0.0
 10
-52.4198
 20
96.2236
 30
0.0
 10
-53.1312
 20
95.5374
 30
0.0
 10
-52.9786
 20
95.6191
 30
0.0
 10
-53.9023
 20
95.1669
 30
0.0
 10
-53.9023
 20
95.1669
 30
0.0
 10
-57.9221
 20
93.1989
 30
0.0
 10
-62.779
 20
89.9596
 30
0.0
 10
-65.6458
 20
86.5232
 30
0.0
 10
-65.6458
 20
86.5232
 30
0.0
 10
-70.4144
 20
80.8066
 30
0.0
 10
-72.4267
 20
77.334
 30
0.0
 10
-74.6778
 20
70.0797
 30
0.0
 10
-74.6778
 20
70.0797
 30
0.0
 10
-75.7159
 20
66.7346
 30
0.0
 10
-76.107
 20
61.3783
 30
0.0
 10
-76.1339
 20
61.2978
 30
0.0
 10
-76.1339
 20
61.2978
 30
0.0
 10
-76.3778
 20
60.5683
 30
0.0
 10
-82.6741
 20
54.5473
 30
0.0
 10
-82.5717
 20
42.3578
 30
0.0
 10
-82.5717
 20
42.3578
 30
0.0
 10
-82.5585
 20
40.8012
 30
0.0
 10
-82.5608
 20
38.9821
 30
0.0
 10
-82.368
 20
37.4394
 30
0.0
 10
-82.368
 20
37.4394
 30
0.0
 10
-82.1131
 20
35.4
 30
0.0
 10
-81.6322
 20
36.5376
 30
0.0
 10
-83.2809
 20
33.755
 30
0.0
 10
-83.2809
 20
33.755
 30
0.0
 10
-83.2809
 20
33.755
 30
0.0
 10
-84.9486
 20
30.3589
 30
0.0
 10
-84.9486
 20
30.3589
 30
0.0
 10
-84.9486
 20
30.3589
 30
0.0
 10
-86.3229
 20
27.3267
 30
0.0
 10
-87.3914
 20
23.9544
 30
0.0
 10
-87.941
 20
20.6706
 30
0.0
 10
-87.941
 20
20.6706
 30
0.0
 10
-88.6672
 20
16.3319
 30
0.0
 10
-88.5183
 20
13.1963
 30
0.0
 10
-87.9905
 20
8.7958
 30
0.0
 10
-87.9905
 20
8.7958
 30
0.0
 10
-87.8047
 20
7.2455
 30
0.0
 10
-86.1403
 20
0.4813
 30
0.0
 10
-85.4259
 20
-0.3481
 30
0.0
 10
-85.4259
 20
-0.3481
 30
0.0
 10
-85.3974
 20
-0.3106
 30
0.0
 10
-86.2841
 20
7.464
 30
0.0
 10
-86.3315
 20
8.828
 30
0.0
 10
-86.3315
 20
8.828
 30
0.0
 10
-86.4144
 20
11.2166
 30
0.0
 10
-86.2536
 20
13.8763
 30
0.0
 10
-85.956
 20
16.1787
 30
0.0
 10
-85.956
 20
16.1787
 30
0.0
 10
-85.6753
 20
18.3504
 30
0.0
 10
-85.1238
 20
20.4284
 30
0.0
 10
-84.5569
 20
22.4748
 30
0.0
 10
-84.5569
 20
22.4748
 30
0.0
 10
-83.777
 20
25.2907
 30
0.0
 10
-82.4174
 20
27.8973
 30
0.0
 10
-80.9919
 20
30.4328
 30
0.0
 10
-80.9919
 20
30.4328
 30
0.0
 10
-80.2266
 20
31.7105
 30
0.0
 10
-78.7323
 20
33.8862
 30
0.0
 10
-77.799
 20
34.9604
 30
0.0
 10
-77.799
 20
34.9604
 30
0.0
 10
-76.3086
 20
36.6759
 30
0.0
 10
-69.092
 20
43.9488
 30
0.0
 10
-67.0841
 20
44.385
 30
0.0
 10
-67.0841
 20
44.385
 30
0.0
 10
-67.5069
 20
43.2845
 30
0.0
 10
-68.7439
 20
42.2428
 30
0.0
 10
-68.8969
 20
41.1271
 30
0.0
 10
-68.8969
 20
41.1271
 30
0.0
 10
-67.5548
 20
41.7475
 30
0.0
 10
-65.8531
 20
44.0669
 30
0.0
 10
-62.6468
 20
45.5033
 30
0.0
 10
-62.6468
 20
45.5033
 30
0.0
 10
-58.5243
 20
47.3505
 30
0.0
 10
-47.2984
 20
48.8672
 30
0.0
 10
-42.7763
 20
49.2028
 30
0.0
 10
-42.7763
 20
49.2028
 30
0.0
 10
-35.396
 20
49.7519
 30
0.0
 10
-28.0368
 20
50.9451
 30
0.0
 10
-21.1325
 20
53.6484
 30
0.0
 10
-21.1325
 20
53.6484
 30
0.0
 10
-16.3236
 20
55.5308
 30
0.0
 10
-13.6484
 20
58.1366
 30
0.0
 10
-12.2822
 20
63.0063
 30
0.0
 10
-12.2822
 20
63.0063
 30
0.0
 10
-12.8566
 20
62.8257
 30
0.0
 10
-13.1036
 20
61.7487
 30
0.0
 10
-13.4143
 20
61.2427
 30
0.0
 10
-13.4143
 20
61.2427
 30
0.0
 10
-16.2166
 20
56.6817
 30
0.0
 10
-24.2235
 20
55.3606
 30
0.0
 10
-29.2472
 20
54.2739
 30
0.0
 10
-29.2472
 20
54.2739
 30
0.0
 10
-32.9575
 20
53.4709
 30
0.0
 10
-37.6568
 20
52.6056
 30
0.0
 10
-41.4167
 20
52.3804
 30
0.0
 10
-41.4167
 20
52.3804
 30
0.0
 10
-43.3257
 20
52.266
 30
0.0
 10
-51.9479
 20
51.088
 30
0.0
 10
-53.7119
 20
50.6307
 30
0.0
 10
-53.7119
 20
50.6307
 30
0.0
 10
-54.358
 20
50.4812
 30
0.0
 10
-56.1971
 20
49.8467
 30
0.0
 10
-56.6848
 20
50.1929
 30
0.0
 10
-56.6848
 20
50.1929
 30
0.0
 10
-56.1345
 20
50.7788
 30
0.0
 10
-49.9543
 20
52.9644
 30
0.0
 10
-48.6813
 20
53.418
 30
0.0
 10
-48.6813
 20
53.418
 30
0.0
 10
-39.638
 20
56.6411
 30
0.0
 10
-28.8849
 20
58.1322
 30
0.0
 10
-20.3352
 20
61.7159
 30
0.0
 10
-20.3352
 20
61.7159
 30
0.0
 10
-18.4243
 20
62.5172
 30
0.0
 10
-16.1715
 20
63.2677
 30
0.0
 10
-14.2029
 20
63.9814
 30
0.0
  0
SPLINE
  5
72
330
1F
100
AcDbEntity
  8
layer 1
100
AcDbSpline
210
0.0
220
0.0
230
1.0
 70
    11
 71
     3
 72
    64
 73
    60
 74
     0
 42
0.000000001
 43
0.0000000001
 40
0.0
 40
0.0
 40
0.0
 40
0.0
 40
0.0625
 40
0.0625
 40
0.0625
 40
0.0625
 40
0.125
 40
0.125
 40
0.125
 40
0.125
 40
0.1875
 40
0.1875
 40
0.1875
 40
0.1875
 40
0.25
 40
0.25
 40
0.25
 40
0.25
 40
0.3125
 40
0.3125
 40
0.3125
 40
0.3125
 40
0.375
 40
0.375
 40
0.375
 40
0.375
 40
0.4375
 40
0.4375
 40
0.4375
 40
0.4375
 40
0.5
 40
0.5
 40
0.5
 40
0.5
 40
0.5625
 40
0.5625
 40
0.5625
 40
0.5625
 40
0.625
 40
0.625
 40
0.625
 40
0.625
 40
0.6875
 40
0.6875
 40
0.6875
 40
0.6875
 40
0.75
 40
0.75
 40
0.75
 40
0.75
 40
0.8125
 40
0.8125
 40
0.8125
 40
0.8125
 40
0.875
 40
0.875
 40
0.875
 40
0.875
 40
1.0
 40
1.0
 40
1.0
 40
1.0
 10
-31.0352
 20
77.7903
 30
0.0
 10
-29.1775
 20
77.6119
 30
0.0
 10
-27.0933
 20
77.3272
 30
0.0
 10
-25.2313
 20
77.1012
 30
0.0
 10
-25.2313
 20
77.1012
 30
0.0
 10
-20.1343
 20
76.4826
 30
0.0
 10
-14.2376
 20
76.4379
 30
0.0
 10
-9.3298
 20
78.1331
 30
0.0
 10
-9.3298
 20
78.1331
 30
0.0
 10
-8.6714
 20
78.3606
 30
0.0
 10
-6.1485
 20
79.1119
 30
0.0
 10
-6.0505
 20
79.7922
 30
0.0
 10
-6.0505
 20
79.7922
 30
0.0
 10
-6.0505
 20
79.7922
 30
0.0
 10
-6.4626
 20
79.8036
 30
0.0
 10
-6.4626
 20
79.8036
 30
0.0
 10
-6.4626
 20
79.8036
 30
0.0
 10
-8.2002
 20
79.8008
 30
0.0
 10
-9.2416
 20
79.1674
 30
0.0
 10
-13.0378
 20
79.4135
 30
0.0
 10
-13.0378
 20
79.4135
 30
0.0
 10
-13.8633
 20
79.467
 30
0.0
 10
-18.7379
 20
80.0226
 30
0.0
 10
-19.1858
 20
80.2093
 30
0.0
 10
-19.1858
 20
80.2093
 30
0.0
 10
-19.1858
 20
80.2093
 30
0.0
 10
-24.607
 20
81.1784
 30
0.0
 10
-24.607
 20
81.1784
 30
0.0
 10
-24.607
 20
81.1784
 30
0.0
 10
-27.3155
 20
81.7712
 30
0.0
 10
-32.6547
 20
82.4394
 30
0.0
 10
-35.5362
 20
82.6093
 30
0.0
 10
-35.5362
 20
82.6093
 30
0.0
 10
-41.1565
 20
82.9408
 30
0.0
 10
-46.4317
 20
83.0714
 30
0.0
 10
-51.3725
 20
80.4257
 30
0.0
 10
-51.3725
 20
80.4257
 30
0.0
 10
-52.9661
 20
79.5723
 30
0.0
 10
-53.7404
 20
78.8584
 30
0.0
 10
-55.0453
 20
77.8786
 30
0.0
 10
-55.0453
 20
77.8786
 30
0.0
 10
-55.8365
 20
77.2843
 30
0.0
 10
-58.744
 20
74.5211
 30
0.0
 10
-58.9461
 20
73.5674
 30
0.0
 10
-58.9461
 20
73.5674
 30
0.0
 10
-58.4313
 20
73.7408
 30
0.0
 10
-57.6982
 20
74.418
 30
0.0
 10
-57.2231
 20
74.7521
 30
0.0
 10
-57.2231
 20
74.7521
 30
0.0
 10
-54.1115
 20
76.816
 30
0.0
 10
-52.3762
 20
77.3518
 30
0.0
 10
-48.803
 20
78.4475
 30
0.0
 10
-48.803
 20
78.4475
 30
0.0
 10
-45.4952
 20
79.4616
 30
0.0
 10
-40.0398
 20
78.8179
 30
0.0
 10
-36.8097
 20
78.5749
 30
0.0
 10
-36.8097
 20
78.5749
 30
0.0
 10
-35.2922
 20
78.4606
 30
0.0
 10
-32.5385
 20
77.9347
 30
0.0
 10
-31.0352
 20
77.7903
 30
0.0
  0
SPLINE
  5
73
330
1F
100
AcDbEntity
  8
layer 1
100
AcDbSpline
210
0.0
220
0.0
230
1.0
 70
    11
 71
     3
 72
   392
 73
   388
 74
     0
 42
0.000000001
 43
0.0000000001
 40
0.0
 40
0.0
 40
0.0
 40
0.0
 40
0.0102040816326531
 40
0.0102040816326531
 40
0.0102040816326531
 40
0.0102040816326531
 40
0.0204081632653061
 40
0.0204081632653061
 40
0.0204081632653061
 40
0.0204081632653061
 40
0.0306122448979592
 40
0.0306122448979592
 40
0.0306122448979592
 40
0.0306122448979592
 40
0.0408163265306122
 40
0.0408163265306122
 40
0.0408163265306122
 40
0.0408163265306122
 40
0.0510204081632653
 40
0.0510204081632653
 40
0.0510204081632653
 40
0.0510204081632653
 40
0.0612244897959184
 40
0.0612244897959184
 40
0.0612244897959184
 40
0.0612244897959184
 40
0.0714285714285714
 40
0.0714285714285714
 40
0.0714285714285714
 40
0.0714285714285714
 40
0.0816326530612245
 40
0.0816326530612245
 40
0.0816326530612245
 40
0.0816326530612245
 40
0.0918367346938776
 40
0.0918367346938776
 40
0.0918367346938776
 40
0.0918367346938776
 40
0.1020408163265306
 40
0.1020408163265306
 40
0.1020408163265306
 40
0.1020408163265306
 40
0.1122448979591837
 40
0.1122448979591837
 40
0.1122448979591837
 40
0.1122448979591837
 40
0.1224489795918367
 40
0.1224489795918367
 40
0.1224489795918367
 40
0.1224489795918367
 40
0.1326530612244898
 40
0.1326530612244898
 40
0.1326530612244898
 40
0.1326530612244898
 40
0.1428571428571428
 40
0.1428571428571428
 40
0.1428571428571428
 40
0.1428571428571428
 40
0.1530612244897959
 40
0.1530612244897959
 40
0.1530612244897959
 40
0.1530612244897959
 40
0.163265306122449
 40
0.163265306122449
 40
0.163265306122449
 40
0.163265306122449
 40
0.173469387755102
 40
0.173469387755102
 40
0.173469387755102
 40
0.173469387755102
 40
0.1836734693877551
 40
0.1836734693877551
 40
0.1836734693877551
 40
0.1836734693877551
 40
0.1938775510204082
 40
0.1938775510204082
 40
0.1938775510204082
 40
0.1938775510204082
 40
0.2040816326530612
 40
0.2040816326530612
 40
0.2040816326530612
 40
0.2040816326530612
 40
0.2142857142857143
 40
0.2142857142857143
 40
0.2142857142857143
 40
0.2142857142857143
 40
0.2244897959183673
 40
0.2244897959183673
 40
0.2244897959183673
 40
0.2244897959183673
 40
0.2346938775510204
 40
0.2346938775510204
 40
0.2346938775510204
 40
0.2346938775510204
 40
0.2448979591836735
 40
0.2448979591836735
 40
0.2448979591836735
 40
0.2448979591836735
 40
0.2551020408163265
 40
0.2551020408163265
 40
0.2551020408163265
 40
0.2551020408163265
 40
0.2653061224489796
 40
0.2653061224489796
 40
0.2653061224489796
 40
0.2653061224489796
 40
0.2755102040816326
 40
0.2755102040816326
 40
0.2755102040816326
 40
0.2755102040816326
 40
0.2857142857142857
 40
0.2857142857142857
 40
0.2857142857142857
 40
0.2857142857142857
 40
0.2959183673469388
 40
0.2959183673469388
 40
0.2959183673469388
 40
0.2959183673469388
 40
0.3061224489795918
 40
0.3061224489795918
 40
0.3061224489795918
 40
0.3061224489795918
 40
0.3163265306122449
 40
0.3163265306122449
 40
0.3163265306122449
 40
0.3163265306122449
 40
0.3265306122448979
 40
0.3265306122448979
 40
0.3265306122448979
 40
0.3265306122448979
 40
0.336734693877551
 40
0.336734693877551
 40
0.336734693877551
 40
0.336734693877551
 40
0.3469387755102041
 40
0.3469387755102041
 40
0.3469387755102041
 40
0.3469387755102041
 40
0.3571428571428572
 40
0.3571428571428572
 40
0.3571428571428572
 40
0.3571428571428572
 40
0.3673469387755102
 40
0.3673469387755102
 40
0.3673469387755102
 40
0.3673469387755102
 40
0.3775510204081632
 40
0.3775510204081632
 40
0.3775510204081632
 40
0.3775510204081632
 40
0.3877551020408163
 40
0.3877551020408163
 40
0.3877551020408163
 40
0.3877551020408163
 40
0.3979591836734694
 40
0.3979591836734694
 40
0.3979591836734694
 40
0.3979591836734694
 40
0.4081632653061225
 40
0.4081632653061225
 40
0.4081632653061225
 40
0.4081632653061225
 40
0.4183673469387755
 40
0.4183673469387755
 40
0.4183673469387755
 40
0.4183673469387755
 40
0.4285714285714285
 40
0.4285714285714285
 40
0.4285714285714285
 40
0.4285714285714285
 40
0.4387755102040816
 40
0.4387755102040816
 40
0.4387755102040816
 40
0.4387755102040816
 40
0.4489795918367347
 40
0.4489795918367347
 40
0.4489795918367347
 40
0.4489795918367347
 40
0.4591836734693878
 40
0.4591836734693878
 40
0.4591836734693878
 40
0.4591836734693878
 40
0.4693877551020408
 40
0.4693877551020408
 40
0.4693877551020408
 40
0.4693877551020408
 40
0.4795918367346939
 40
0.4795918367346939
 40
0.4795918367346939
 40
0.4795918367346939
 40
0.4897959183673469
 40
0.4897959183673469
 40
0.4897959183673469
 40
0.4897959183673469
 40
0.5
 40
0.5
 40
0.5
 40
0.5
 40
0.5102040816326531
 40
0.5102040816326531
 40
0.5102040816326531
 40
0.5102040816326531
 40
0.5204081632653061
 40
0.5204081632653061
 40
0.5204081632653061
 40
0.5204081632653061
 40
0.5306122448979592
 40
0.5306122448979592
 40
0.5306122448979592
 40
0.5306122448979592
 40
0.5408163265306123
 40
0.5408163265306123
 40
0.5408163265306123
 40
0.5408163265306123
 40
0.5510204081632653
 40
0.5510204081632653
 40
0.5510204081632653
 40
0.5510204081632653
 40
0.5612244897959183
 40
0.5612244897959183
 40
0.5612244897959183
 40
0.5612244897959183
 40
0.5714285714285714
 40
0.5714285714285714
 40
0.5714285714285714
 40
0.5714285714285714
 40
0.5816326530612245
 40
0.5816326530612245
 40
0.5816326530612245
 40
0.5816326530612245
 40
0.5918367346938775
 40
0.5918367346938775
 40
0.5918367346938775
 40
0.5918367346938775
 40
0.6020408163265306
 40
0.6020408163265306
 40
0.6020408163265306
 40
0.6020408163265306
 40
0.6122448979591837
 40
0.6122448979591837
 40
0.6122448979591837
 40
0.6122448979591837
 40
0.6224489795918368
 40
0.6224489795918368
 40
0.6224489795918368
 40
0.6224489795918368
 40
0.6326530612244898
 40
0.6326530612244898
 40
0.6326530612244898
 40
0.6326530612244898
 40
0.6428571428571429
 40
0.6428571428571429
 40
0.6428571428571429
 40
0.6428571428571429
 40
0.6530612244897959
 40
0.6530612244897959
 40
0.6530612244897959
 40
0.6530612244897959
 40
0.6632653061224489
 40
0.6632653061224489
 40
0.6632653061224489
 40
0.6632653061224489
 40
0.673469387755102
 40
0.673469387755102
 40
0.673469387755102
 40
0.673469387755102
 40
0.6836734693877551
 40
0.6836734693877551
 40
0.6836734693877551
 40
0.6836734693877551
 40
0.6938775510204082
 40
0.6938775510204082
 40
0.6938775510204082
 40
0.6938775510204082
 40
0.7040816326530612
 40
0.7040816326530612
 40
0.7040816326530612
 40
0.7040816326530612
 40
0.7142857142857143
 40
0.7142857142857143
 40
0.7142857142857143
 40
0.7142857142857143
 40
0.7244897959183674
 40
0.7244897959183674
 40
0.7244897959183674
 40
0.7244897959183674
 40
0.7346938775510204
 40
0.7346938775510204
 40
0.7346938775510204
 40
0.7346938775510204
 40
0.7448979591836735
 40
0.7448979591836735
 40
0.7448979591836735
 40
0.7448979591836735
 40
0.7551020408163265
 40
0.7551020408163265
 40
0.7551020408163265
 40
0.7551020408163265
 40
0.7653061224489796
 40
0.7653061224489796
 40
0.7653061224489796
 40
0.7653061224489796
 40
0.7755102040816326
 40
0.7755102040816326
 40
0.7755102040816326
 40
0.7755102040816326
 40
0.7857142857142857
 40
0.7857142857142857
 40
0.7857142857142857
 40
0.7857142857142857
 40
0.7959183673469388
 40
0.7959183673469388
 40
0.7959183673469388
 40
0.7959183673469388
 40
0.8061224489795918
 40
0.8061224489795918
 40
0.8061224489795918
 40
0.8061224489795918
 40
0.8163265306122449
 40
0.8163265306122449
 40
0.8163265306122449
 40
0.8163265306122449
 40
0.826530612244898
 40
0.826530612244898
 40
0.826530612244898
 40
0.826530612244898
 40
0.8367346938775511
 40
0.8367346938775511
 40
0.8367346938775511
 40
0.8367346938775511
 40
0.8469387755102041
 40
0.8469387755102041
 40
0.8469387755102041
 40
0.8469387755102041
 40
0.8571428571428571
 40
0.8571428571428571
 40
0.8571428571428571
 40
0.8571428571428571
 40
0.8673469387755102
 40
0.8673469387755102
 40
0.8673469387755102
 40
0.8673469387755102
 40
0.8775510204081632
 40
0.8775510204081632
 40
0.8775510204081632
 40
0.8775510204081632
 40
0.8877551020408163
 40
0.8877551020408163
 40
0.8877551020408163
 40
0.8877551020408163
 40
0.8979591836734694
 40
0.8979591836734694
 40
0.8979591836734694
 40
0.8979591836734694
 40
0.9081632653061225
 40
0.9081632653061225
 40
0.9081632653061225
 40
0.9081632653061225
 40
0.9183673469387755
 40
0.9183673469387755
 40
0.9183673469387755
 40
0.9183673469387755
 40
0.9285714285714286
 40
0.9285714285714286
 40
0.9285714285714286
 40
0.9285714285714286
 40
0.9387755102040817
 40
0.9387755102040817
 40
0.9387755102040817
 40
0.9387755102040817
 40
0.9489795918367347
 40
0.9489795918367347
 40
0.9489795918367347
 40
0.9489795918367347
 40
0.9591836734693877
 40
0.9591836734693877
 40
0.9591836734693877
 40
0.9591836734693877
 40
0.9693877551020408
 40
0.9693877551020408
 40
0.9693877551020408
 40
0.9693877551020408
 40
0.9795918367346939
 40
0.9795918367346939
 40
0.9795918367346939
 40
0.9795918367346939
 40
1.0
 40
1.0
 40
1.0
 40
1.0
 10
41.8516
 20
91.1958
 30
0.0
 10
43.6219
 20
90.6754
 30
0.0
 10
45.8621
 20
90.1883
 30
0.0
 10
47.6914
 20
89.7835
 30
0.0
 10
47.6914
 20
89.7835
 30
0.0
 10
51.6165
 20
88.9147
 30
0.0
 10
55.54
 20
87.9765
 30
0.0
 10
59.3051
 20
86.8567
 30
0.0
 10
59.3051
 20
86.8567
 30
0.0
 10
61.2416
 20
86.2807
 30
0.0
 10
65.2806
 20
84.6629
 30
0.0
 10
67.0227
 20
83.6438
 30
0.0
 10
67.0227
 20
83.6438
 30
0.0
 10
69.343
 20
82.2865
 30
0.0
 10
71.4254
 20
81.0621
 30
0.0
 10
73.5298
 20
79.3219
 30
0.0
 10
73.5298
 20
79.3219
 30
0.0
 10
74.277
 20
78.7041
 30
0.0
 10
77.427
 20
75.8786
 30
0.0
 10
77.4879
 20
75.0721
 30
0.0
 10
77.4879
 20
75.0721
 30
0.0
 10
77.123
 20
75.1352
 30
0.0
 10
75.0843
 20
76.417
 30
0.0
 10
74.5866
 20
76.6965
 30
0.0
 10
74.5866
 20
76.6965
 30
0.0
 10
71.8142
 20
78.183
 30
0.0
 10
67.9161
 20
79.8715
 30
0.0
 10
64.9613
 20
80.8811
 30
0.0
 10
64.9613
 20
80.8811
 30
0.0
 10
56.3537
 20
83.5939
 30
0.0
 10
46.1768
 20
86.1135
 30
0.0
 10
37.231
 20
87.7417
 30
0.0
 10
37.231
 20
87.7417
 30
0.0
 10
31.9845
 20
88.6966
 30
0.0
 10
26.6376
 20
91.0078
 30
0.0
 10
21.6621
 20
92.8769
 30
0.0
 10
21.6621
 20
92.8769
 30
0.0
 10
19.2037
 20
93.8004
 30
0.0
 10
12.5952
 20
97.4264
 30
0.0
 10
10.3799
 20
98.8891
 30
0.0
 10
10.3799
 20
98.8891
 30
0.0
 10
8.9543
 20
99.8304
 30
0.0
 10
7.6274
 20
100.7882
 30
0.0
 10
6.3332
 20
101.757
 30
0.0
 10
6.3332
 20
101.757
 30
0.0
 10
5.3588
 20
102.4863
 30
0.0
 10
0.3268
 20
109.6875
 30
0.0
 10
0.14
 20
109.5316
 30
0.0
 10
0.14
 20
109.5316
 30
0.0
 10
0.1848
 20
108.86
 30
0.0
 10
0.2984
 20
108.5404
 30
0.0
 10
0.4958
 20
107.9111
 30
0.0
 10
0.4958
 20
107.9111
 30
0.0
 10
0.8617
 20
106.7437
 30
0.0
 10
2.4564
 20
104.1766
 30
0.0
 10
3.231
 20
103.2622
 30
0.0
 10
3.231
 20
103.2622
 30
0.0
 10
4.5897
 20
101.6585
 30
0.0
 10
5.839
 20
100.3255
 30
0.0
 10
7.4524
 20
99.0734
 30
0.0
 10
7.4524
 20
99.0734
 30
0.0
 10
12.1389
 20
95.4366
 30
0.0
 10
12.6358
 20
95.0284
 30
0.0
 10
17.4723
 20
92.1556
 30
0.0
 10
17.4723
 20
92.1556
 30
0.0
 10
20.2895
 20
90.4823
 30
0.0
 10
23.1098
 20
89.3181
 30
0.0
 10
26.0305
 20
87.9317
 30
0.0
 10
26.0305
 20
87.9317
 30
0.0
 10
32.2392
 20
84.9847
 30
0.0
 10
41.9864
 20
82.9939
 30
0.0
 10
48.7451
 20
81.1629
 30
0.0
 10
48.7451
 20
81.1629
 30
0.0
 10
50.6507
 20
80.4962
 30
0.0
 10
53.4061
 20
79.9684
 30
0.0
 10
55.4291
 20
79.4381
 30
0.0
 10
55.4291
 20
79.4381
 30
0.0
 10
57.6674
 20
78.9586
 30
0.0
 10
59.8554
 20
78.0898
 30
0.0
 10
62.0069
 20
77.4691
 30
0.0
 10
62.0069
 20
77.4691
 30
0.0
 10
64.5687
 20
76.7301
 30
0.0
 10
68.6166
 20
74.9728
 30
0.0
 10
71.0452
 20
73.8445
 30
0.0
 10
71.0452
 20
73.8445
 30
0.0
 10
73.3838
 20
72.758
 30
0.0
 10
76.9936
 20
70.5049
 30
0.0
 10
78.9349
 20
69.0578
 30
0.0
 10
78.9349
 20
69.0578
 30
0.0
 10
80.763
 20
67.6952
 30
0.0
 10
82.0132
 20
66.7214
 30
0.0
 10
83.5172
 20
65.2303
 30
0.0
 10
83.5172
 20
65.2303
 30
0.0
 10
86.6641
 20
62.1102
 30
0.0
 10
88.9038
 20
59.772
 30
0.0
 10
91.0692
 20
55.8488
 30
0.0
 10
91.0692
 20
55.8488
 30
0.0
 10
91.9443
 20
54.2646
 30
0.0
 10
93.1343
 20
51.3437
 30
0.0
 10
93.3454
 20
49.4937
 30
0.0
 10
93.3454
 20
49.4937
 30
0.0
 10
94.2667
 20
41.4173
 30
0.0
 10
92.3696
 20
39.4938
 30
0.0
 10
92.2526
 20
33.2797
 30
0.0
 10
92.2526
 20
33.2797
 30
0.0
 10
93.8648
 20
35.0133
 30
0.0
 10
94.9933
 20
40.8181
 30
0.0
 10
95.4531
 20
43.506
 30
0.0
 10
95.4531
 20
43.506
 30
0.0
 10
95.9674
 20
46.5116
 30
0.0
 10
95.8278
 20
50.1066
 30
0.0
 10
95.0937
 20
53.0837
 30
0.0
 10
95.0937
 20
53.0837
 30
0.0
 10
94.5528
 20
55.2774
 30
0.0
 10
93.7625
 20
57.2124
 30
0.0
 10
92.6945
 20
59.2024
 30
0.0
 10
92.6945
 20
59.2024
 30
0.0
 10
90.4017
 20
63.4747
 30
0.0
 10
87.0193
 20
67.7566
 30
0.0
 10
83.3181
 20
70.7914
 30
0.0
 10
83.3181
 20
70.7914
 30
0.0
 10
79.2025
 20
74.1661
 30
0.0
 10
80.9197
 20
72.1319
 30
0.0
 10
79.2394
 20
75.2385
 30
0.0
 10
79.2394
 20
75.2385
 30
0.0
 10
78.1871
 20
77.1837
 30
0.0
 10
77.111
 20
78.8078
 30
0.0
 10
75.8607
 20
80.2718
 30
0.0
 10
75.8607
 20
80.2718
 30
0.0
 10
75.3276
 20
80.8961
 30
0.0
 10
74.1716
 20
82.0164
 30
0.0
 10
73.8632
 20
82.54
 30
0.0
 10
73.8632
 20
82.54
 30
0.0
 10
72.2986
 20
84.9251
 30
0.0
 10
71.3643
 20
86.4646
 30
0.0
 10
69.3751
 20
88.5333
 30
0.0
 10
69.3751
 20
88.5333
 30
0.0
 10
66.5876
 20
91.3977
 30
0.0
 10
60.3035
 20
95.4006
 30
0.0
 10
56.8988
 20
97.2521
 30
0.0
 10
56.8988
 20
97.2521
 30
0.0
 10
54.203
 20
98.7181
 30
0.0
 10
48.1421
 20
103.1313
 30
0.0
 10
46.0731
 20
105.3244
 30
0.0
 10
46.0731
 20
105.3244
 30
0.0
 10
46.0731
 20
105.3244
 30
0.0
 10
41.8737
 20
109.6502
 30
0.0
 10
41.8737
 20
109.6502
 30
0.0
 10
41.8737
 20
109.6502
 30
0.0
 10
41.0771
 20
110.4216
 30
0.0
 10
40.6711
 20
111.0104
 30
0.0
 10
39.8513
 20
111.7743
 30
0.0
 10
39.8513
 20
111.7743
 30
0.0
 10
38.3528
 20
113.1707
 30
0.0
 10
37.2516
 20
114.419
 30
0.0
 10
35.5967
 20
115.9313
 30
0.0
 10
35.5967
 20
115.9313
 30
0.0
 10
34.4281
 20
116.9993
 30
0.0
 10
31.7914
 20
119.1024
 30
0.0
 10
30.2852
 20
119.4853
 30
0.0
 10
30.2852
 20
119.4853
 30
0.0
 10
30.2852
 20
119.4853
 30
0.0
 10
30.3597
 20
119.1714
 30
0.0
 10
30.3597
 20
119.1714
 30
0.0
 10
30.3597
 20
119.1714
 30
0.0
 10
30.3597
 20
119.1714
 30
0.0
 10
34.8844
 20
114.2976
 30
0.0
 10
34.8844
 20
114.2976
 30
0.0
 10
34.8844
 20
114.2976
 30
0.0
 10
37.5638
 20
110.8862
 30
0.0
 10
40.29
 20
106.8168
 30
0.0
 10
43.1735
 20
103.6914
 30
0.0
 10
43.1735
 20
103.6914
 30
0.0
 10
47.8046
 20
98.6722
 30
0.0
 10
53.9207
 20
95.3991
 30
0.0
 10
60.1838
 20
92.3593
 30
0.0
 10
60.1838
 20
92.3593
 30
0.0
 10
62.7634
 20
90.9822
 30
0.0
 10
71.6993
 20
86.0293
 30
0.0
 10
72.0041
 20
84.1637
 30
0.0
 10
72.0041
 20
84.1637
 30
0.0
 10
71.882
 20
84.1882
 30
0.0
 10
66.2507
 20
87.8817
 30
0.0
 10
65.3
 20
88.3749
 30
0.0
 10
65.3
 20
88.3749
 30
0.0
 10
64.2247
 20
88.9331
 30
0.0
 10
63.1588
 20
89.3475
 30
0.0
 10
62.0671
 20
89.8659
 30
0.0
 10
62.0671
 20
89.8659
 30
0.0
 10
62.0671
 20
89.8659
 30
0.0
 10
53.7253
 20
92.624
 30
0.0
 10
53.7253
 20
92.624
 30
0.0
 10
53.7253
 20
92.624
 30
0.0
 10
53.7253
 20
92.624
 30
0.0
 10
52.6676
 20
93.0556
 30
0.0
 10
52.6676
 20
93.0556
 30
0.0
 10
52.6676
 20
93.0556
 30
0.0
 10
53.8021
 20
93.0916
 30
0.0
 10
54.3219
 20
92.6632
 30
0.0
 10
55.4558
 20
93.0556
 30
0.0
 10
55.4558
 20
93.0556
 30
0.0
 10
55.2398
 20
93.2502
 30
0.0
 10
49.1566
 20
94.8404
 30
0.0
 10
48.3955
 20
95.1007
 30
0.0
 10
48.3955
 20
95.1007
 30
0.0
 10
46.024
 20
95.9115
 30
0.0
 10
44.1623
 20
96.5619
 30
0.0
 10
41.9618
 20
97.7537
 30
0.0
 10
41.9618
 20
97.7537
 30
0.0
 10
40.9365
 20
98.309
 30
0.0
 10
39.9748
 20
98.8982
 30
0.0
 10
39.1106
 20
99.512
 30
0.0
 10
39.1106
 20
99.512
 30
0.0
 10
36.1704
 20
101.6005
 30
0.0
 10
34.9274
 20
103.2687
 30
0.0
 10
32.7535
 20
105.5963
 30
0.0
 10
32.7535
 20
105.5963
 30
0.0
 10
32.6466
 20
105.7108
 30
0.0
 10
32.5574
 20
105.7926
 30
0.0
 10
32.4738
 20
105.8994
 30
0.0
 10
32.4738
 20
105.8994
 30
0.0
 10
32.2773
 20
106.1507
 30
0.0
 10
32.4117
 20
105.9308
 30
0.0
 10
32.2628
 20
106.2268
 30
0.0
 10
32.2628
 20
106.2268
 30
0.0
 10
32.2439
 20
106.2368
 30
0.0
 10
32.2199
 20
106.2587
 30
0.0
 10
32.2118
 20
106.2658
 30
0.0
 10
32.2118
 20
106.2658
 30
0.0
 10
32.2118
 20
106.2658
 30
0.0
 10
31.5223
 20
107.0169
 30
0.0
 10
31.5223
 20
107.0169
 30
0.0
 10
31.5223
 20
107.0169
 30
0.0
 10
31.286
 20
107.3089
 30
0.0
 10
31.0826
 20
107.5915
 30
0.0
 10
30.8689
 20
107.8617
 30
0.0
 10
30.8689
 20
107.8617
 30
0.0
 10
30.8689
 20
107.8617
 30
0.0
 10
23.8981
 20
116.2142
 30
0.0
 10
23.8981
 20
116.2142
 30
0.0
 10
23.8981
 20
116.2142
 30
0.0
 10
22.8932
 20
117.2725
 30
0.0
 10
21.8815
 20
118.3233
 30
0.0
 10
20.7756
 20
119.1974
 30
0.0
 10
20.7756
 20
119.1974
 30
0.0
 10
18.6582
 20
120.8711
 30
0.0
 10
15.8758
 20
122.5552
 30
0.0
 10
12.3607
 20
122.976
 30
0.0
 10
12.3607
 20
122.976
 30
0.0
 10
10.7443
 20
123.1695
 30
0.0
 10
8.1342
 20
123.0148
 30
0.0
 10
6.7464
 20
122.5405
 30
0.0
 10
6.7464
 20
122.5405
 30
0.0
 10
5.9609
 20
122.2721
 30
0.0
 10
5.1994
 20
121.9927
 30
0.0
 10
4.5203
 20
121.6547
 30
0.0
 10
4.5203
 20
121.6547
 30
0.0
 10
4.1668
 20
121.4787
 30
0.0
 10
2.214
 20
120.6993
 30
0.0
 10
2.7029
 20
120.3214
 30
0.0
 10
2.7029
 20
120.3214
 30
0.0
 10
2.7029
 20
120.3214
 30
0.0
 10
3.1333
 20
120.3672
 30
0.0
 10
3.1333
 20
120.3672
 30
0.0
 10
3.1333
 20
120.3672
 30
0.0
 10
4.0788
 20
120.5741
 30
0.0
 10
4.6618
 20
120.9531
 30
0.0
 10
5.9056
 20
121.1037
 30
0.0
 10
5.9056
 20
121.1037
 30
0.0
 10
6.9908
 20
121.2351
 30
0.0
 10
7.9657
 20
121.4109
 30
0.0
 10
9.1589
 20
121.3062
 30
0.0
 10
9.1589
 20
121.3062
 30
0.0
 10
10.3539
 20
121.2012
 30
0.0
 10
11.0864
 20
121.0837
 30
0.0
 10
12.1148
 20
120.7855
 30
0.0
 10
12.1148
 20
120.7855
 30
0.0
 10
12.1148
 20
120.7855
 30
0.0
 10
13.4239
 20
120.347
 30
0.0
 10
13.4239
 20
120.347
 30
0.0
 10
13.4239
 20
120.347
 30
0.0
 10
17.3078
 20
119.2259
 30
0.0
 10
22.8563
 20
112.8753
 30
0.0
 10
25.3435
 20
109.7086
 30
0.0
 10
25.3435
 20
109.7086
 30
0.0
 10
27.3985
 20
107.092
 30
0.0
 10
31.2298
 20
102.6812
 30
0.0
 10
33.6148
 20
100.6982
 30
0.0
 10
33.6148
 20
100.6982
 30
0.0
 10
34.5138
 20
99.951
 30
0.0
 10
35.47
 20
99.3
 30
0.0
 10
36.2667
 20
98.5863
 30
0.0
 10
36.2667
 20
98.5863
 30
0.0
 10
35.7258
 20
98.2782
 30
0.0
 10
33.5419
 20
99.9749
 30
0.0
 10
33.1024
 20
100.3014
 30
0.0
 10
33.1024
 20
100.3014
 30
0.0
 10
31.1131
 20
101.7793
 30
0.0
 10
30.1961
 20
102.5261
 30
0.0
 10
28.4233
 20
104.2619
 30
0.0
 10
28.4233
 20
104.2619
 30
0.0
 10
26.9035
 20
105.7501
 30
0.0
 10
25.6535
 20
107.3861
 30
0.0
 10
24.3433
 20
108.8247
 30
0.0
 10
24.3433
 20
108.8247
 30
0.0
 10
24.3433
 20
108.8247
 30
0.0
 10
23.5234
 20
109.7311
 30
0.0
 10
23.5234
 20
109.7311
 30
0.0
 10
23.5234
 20
109.7311
 30
0.0
 10
23.22
 20
110.0674
 30
0.0
 10
23.0416
 20
110.3008
 30
0.0
 10
22.696
 20
110.6321
 30
0.0
 10
22.696
 20
110.6321
 30
0.0
 10
22.696
 20
110.6321
 30
0.0
 10
21.0187
 20
112.4113
 30
0.0
 10
21.0187
 20
112.4113
 30
0.0
 10
21.0187
 20
112.4113
 30
0.0
 10
19.7989
 20
113.5863
 30
0.0
 10
18.7685
 20
114.6151
 30
0.0
 10
17.4632
 20
115.7689
 30
0.0
 10
17.4632
 20
115.7689
 30
0.0
 10
16.2985
 20
116.7985
 30
0.0
 10
15.0411
 20
117.851
 30
0.0
 10
13.3716
 20
118.6005
 30
0.0
 10
13.3716
 20
118.6005
 30
0.0
 10
10.8972
 20
119.7114
 30
0.0
 10
7.6799
 20
120.4239
 30
0.0
 10
4.8865
 20
119.3314
 30
0.0
 10
4.8865
 20
119.3314
 30
0.0
 10
4.3281
 20
119.113
 30
0.0
 10
3.0541
 20
118.5244
 30
0.0
 10
2.839
 20
118.059
 30
0.0
 10
2.839
 20
118.059
 30
0.0
 10
3.541
 20
117.6575
 30
0.0
 10
7.3549
 20
119.2663
 30
0.0
 10
12.5685
 20
114.2154
 30
0.0
 10
12.5685
 20
114.2154
 30
0.0
 10
12.9821
 20
113.8146
 30
0.0
 10
13.3376
 20
113.4974
 30
0.0
 10
13.7545
 20
113.0958
 30
0.0
 10
13.7545
 20
113.0958
 30
0.0
 10
16.5762
 20
110.2656
 30
0.0
 10
28.3625
 20
100.4146
 30
0.0
 10
29.1655
 20
99.3929
 30
0.0
 10
29.1655
 20
99.3929
 30
0.0
 10
28.8291
 20
99.2078
 30
0.0
 10
25.5494
 20
100.2771
 30
0.0
 10
24.8643
 20
100.5867
 30
0.0
 10
24.8643
 20
100.5867
 30
0.0
 10
24.505
 20
100.749
 30
0.0
 10
24.5531
 20
100.7295
 30
0.0
 10
24.0783
 20
100.8511
 30
0.0
 10
24.0783
 20
100.8511
 30
0.0
 10
24.0783
 20
100.8511
 30
0.0
 10
17.6618
 20
103.1833
 30
0.0
 10
17.6618
 20
103.1833
 30
0.0
 10
17.6618
 20
103.1833
 30
0.0
 10
14.1753
 20
104.6247
 30
0.0
 10
12.0591
 20
105.4675
 30
0.0
 10
8.7334
 20
107.4979
 30
0.0
 10
8.7334
 20
107.4979
 30
0.0
 10
6.8506
 20
108.6474
 30
0.0
 10
3.9018
 20
111.5645
 30
0.0
 10
2.6604
 20
113.5236
 30
0.0
 10
2.6604
 20
113.5236
 30
0.0
 10
2.0702
 20
114.4551
 30
0.0
 10
1.9097
 20
114.8524
 30
0.0
 10
1.551
 20
115.7072
 30
0.0
 10
1.551
 20
115.7072
 30
0.0
 10
1.1303
 20
115.3508
 30
0.0
 10
1.8273
 20
113.5925
 30
0.0
 10
2.0295
 20
113.0155
 30
0.0
 10
2.0295
 20
113.0155
 30
0.0
 10
2.9191
 20
110.4772
 30
0.0
 10
4.4958
 20
108.3082
 30
0.0
 10
6.3261
 20
106.4731
 30
0.0
 10
6.3261
 20
106.4731
 30
0.0
 10
10.7364
 20
102.0512
 30
0.0
 10
19.1775
 20
97.9105
 30
0.0
 10
24.9172
 20
96.0405
 30
0.0
 10
24.9172
 20
96.0405
 30
0.0
 10
24.9172
 20
96.0405
 30
0.0
 10
31.7926
 20
93.8013
 30
0.0
 10
31.7926
 20
93.8013
 30
0.0
 10
31.7926
 20
93.8013
 30
0.0
 10
35.1087
 20
92.7451
 30
0.0
 10
38.5473
 20
92.1667
 30
0.0
 10
41.8516
 20
91.1958
 30
0.0
  0
SPLINE
  5
74
330
1F
100
AcDbEntity
  8
layer 1
100
AcDbSpline
210
0.0
220
0.0
230
1.0
 70
    11
 71
     3
 72
   204
 73
   200
 74
     0
 42
0.000000001
 43
0.0000000001
 40
0.0
 40
0.0
 40
0.0
 40
0.0
 40
0.0196078431372549
 40
0.0196078431372549
 40
0.0196078431372549
 40
0.0196078431372549
 40
0.0392156862745098
 40
0.0392156862745098
 40
0.0392156862745098
 40
0.0392156862745098
 40
0.0588235294117647
 40
0.0588235294117647
 40
0.0588235294117647
 40
0.0588235294117647
 40
0.0784313725490196
 40
0.0784313725490196
 40
0.0784313725490196
 40
0.0784313725490196
 40
0.0980392156862745
 40
0.0980392156862745
 40
0.0980392156862745
 40
0.0980392156862745
 40
0.1176470588235294
 40
0.1176470588235294
 40
0.1176470588235294
 40
0.1176470588235294
 40
0.1372549019607843
 40
0.1372549019607843
 40
0.1372549019607843
 40
0.1372549019607843
 40
0.1568627450980392
 40
0.1568627450980392
 40
0.1568627450980392
 40
0.1568627450980392
 40
0.1764705882352941
 40
0.1764705882352941
 40
0.1764705882352941
 40
0.1764705882352941
 40
0.196078431372549
 40
0.196078431372549
 40
0.196078431372549
 40
0.196078431372549
 40
0.2156862745098039
 40
0.2156862745098039
 40
0.2156862745098039
 40
0.2156862745098039
 40
0.2352941176470588
 40
0.2352941176470588
 40
0.2352941176470588
 40
0.2352941176470588
 40
0.2549019607843137
 40
0.2549019607843137
 40
0.2549019607843137
 40
0.2549019607843137
 40
0.2745098039215687
 40
0.2745098039215687
 40
0.2745098039215687
 40
0.2745098039215687
 40
0.2941176470588235
 40
0.2941176470588235
 40
0.2941176470588235
 40
0.2941176470588235
 40
0.3137254901960784
 40
0.3137254901960784
 40
0.3137254901960784
 40
0.3137254901960784
 40
0.3333333333333333
 40
0.3333333333333333
 40
0.3333333333333333
 40
0.3333333333333333
 40
0.3529411764705883
 40
0.3529411764705883
 40
0.3529411764705883
 40
0.3529411764705883
 40
0.3725490196078431
 40
0.3725490196078431
 40
0.3725490196078431
 40
0.3725490196078431
 40
0.392156862745098
 40
0.392156862745098
 40
0.392156862745098
 40
0.392156862745098
 40
0.4117647058823529
 40
0.4117647058823529
 40
0.4117647058823529
 40
0.4117647058823529
 40
0.4313725490196079
 40
0.4313725490196079
 40
0.4313725490196079
 40
0.4313725490196079
 40
0.4509803921568628
 40
0.4509803921568628
 40
0.4509803921568628
 40
0.4509803921568628
 40
0.4705882352941176
 40
0.4705882352941176
 40
0.4705882352941176
 40
0.4705882352941176
 40
0.4901960784313725
 40
0.4901960784313725
 40
0.4901960784313725
 40
0.4901960784313725
 40
0.5098039215686274
 40
0.5098039215686274
 40
0.5098039215686274
 40
0.5098039215686274
 40
0.5294117647058824
 40
0.5294117647058824
 40
0.5294117647058824
 40
0.5294117647058824
 40
0.5490196078431373
 40
0.5490196078431373
 40
0.5490196078431373
 40
0.5490196078431373
 40
0.5686274509803921
 40
0.5686274509803921
 40
0.5686274509803921
 40
0.5686274509803921
 40
0.5882352941176471
 40
0.5882352941176471
 40
0.5882352941176471
 40
0.5882352941176471
 40
0.6078431372549019
 40
0.6078431372549019
 40
0.6078431372549019
 40
0.6078431372549019
 40
0.6274509803921569
 40
0.6274509803921569
 40
0.6274509803921569
 40
0.6274509803921569
 40
0.6470588235294118
 40
0.6470588235294118
 40
0.6470588235294118
 40
0.6470588235294118
 40
0.6666666666666666
 40
0.6666666666666666
 40
0.6666666666666666
 40
0.6666666666666666
 40
0.6862745098039216
 40
0.6862745098039216
 40
0.6862745098039216
 40
0.6862745098039216
 40
0.7058823529411765
 40
0.7058823529411765
 40
0.7058823529411765
 40
0.7058823529411765
 40
0.7254901960784313
 40
0.7254901960784313
 40
0.7254901960784313
 40
0.7254901960784313
 40
0.7450980392156863
 40
0.7450980392156863
 40
0.7450980392156863
 40
0.7450980392156863
 40
0.7647058823529411
 40
0.7647058823529411
 40
0.7647058823529411
 40
0.7647058823529411
 40
0.7843137254901961
 40
0.7843137254901961
 40
0.7843137254901961
 40
0.7843137254901961
 40
0.803921568627451
 40
0.803921568627451
 40
0.803921568627451
 40
0.803921568627451
 40
0.8235294117647058
 40
0.8235294117647058
 40
0.8235294117647058
 40
0.8235294117647058
 40
0.8431372549019608
 40
0.8431372549019608
 40
0.8431372549019608
 40
0.8431372549019608
 40
0.8627450980392157
 40
0.8627450980392157
 40
0.8627450980392157
 40
0.8627450980392157
 40
0.8823529411764706
 40
0.8823529411764706
 40
0.8823529411764706
 40
0.8823529411764706
 40
0.9019607843137255
 40
0.9019607843137255
 40
0.9019607843137255
 40
0.9019607843137255
 40
0.9215686274509803
 40
0.9215686274509803
 40
0.9215686274509803
 40
0.9215686274509803
 40
0.9411764705882353
 40
0.9411764705882353
 40
0.9411764705882353
 40
0.9411764705882353
 40
0.9607843137254902
 40
0.9607843137254902
 40
0.9607843137254902
 40
0.9607843137254902
 40
1.0
 40
1.0
 40
1.0
 40
1.0
 10
59.2965
 20
104.7229
 30
0.0
 10
59.2965
 20
104.7229
 30
0.0
 10
62.2901
 20
101.0343
 30
0.0
 10
62.2901
 20
101.0343
 30
0.0
 10
62.2901
 20
101.0343
 30
0.0
 10
65.0145
 20
97.6222
 30
0.0
 10
66.9662
 20
94.8145
 30
0.0
 10
69.3072
 20
91.2276
 30
0.0
 10
69.3072
 20
91.2276
 30
0.0
 10
70.4015
 20
89.5511
 30
0.0
 10
71.431
 20
87.7103
 30
0.0
 10
72.3962
 20
85.9025
 30
0.0
 10
72.3962
 20
85.9025
 30
0.0
 10
73.0497
 20
84.6787
 30
0.0
 10
72.5648
 20
85.0534
 30
0.0
 10
73.0246
 20
84.9055
 30
0.0
 10
73.0246
 20
84.9055
 30
0.0
 10
73.2665
 20
85.8658
 30
0.0
 10
72.5303
 20
88.2675
 30
0.0
 10
72.3336
 20
89.4274
 30
0.0
 10
72.3336
 20
89.4274
 30
0.0
 10
72.1066
 20
90.7665
 30
0.0
 10
71.4974
 20
92.2421
 30
0.0
 10
71.0491
 20
93.4388
 30
0.0
 10
71.0491
 20
93.4388
 30
0.0
 10
70.0863
 20
96.0088
 30
0.0
 10
68.6988
 20
98.2618
 30
0.0
 10
67.391
 20
100.3748
 30
0.0
 10
67.391
 20
100.3748
 30
0.0
 10
66.7474
 20
101.4143
 30
0.0
 10
65.9019
 20
102.4712
 30
0.0
 10
65.1515
 20
103.4355
 30
0.0
 10
65.1515
 20
103.4355
 30
0.0
 10
64.0843
 20
104.8064
 30
0.0
 10
63.6436
 20
105.1691
 30
0.0
 10
62.6942
 20
106.277
 30
0.0
 10
62.6942
 20
106.277
 30
0.0
 10
61.6387
 20
107.509
 30
0.0
 10
58.1539
 20
110.4964
 30
0.0
 10
57.0886
 20
111.2746
 30
0.0
 10
57.0886
 20
111.2746
 30
0.0
 10
55.1786
 20
112.6698
 30
0.0
 10
52.0883
 20
114.1644
 30
0.0
 10
49.8574
 20
114.7449
 30
0.0
 10
49.8574
 20
114.7449
 30
0.0
 10
47.4829
 20
115.3629
 30
0.0
 10
47.4907
 20
114.8814
 30
0.0
 10
46.2239
 20
116.4198
 30
0.0
 10
46.2239
 20
116.4198
 30
0.0
 10
45.1991
 20
117.6643
 30
0.0
 10
43.4101
 20
119.2169
 30
0.0
 10
42.018
 20
120.1645
 30
0.0
 10
42.018
 20
120.1645
 30
0.0
 10
38.8681
 20
122.3087
 30
0.0
 10
35.6643
 20
123.2087
 30
0.0
 10
31.7334
 20
123.124
 30
0.0
 10
31.7334
 20
123.124
 30
0.0
 10
26.2705
 20
123.0061
 30
0.0
 10
28.1609
 20
121.3289
 30
0.0
 10
26.0469
 20
123.3175
 30
0.0
 10
26.0469
 20
123.3175
 30
0.0
 10
24.8553
 20
124.4383
 30
0.0
 10
23.9074
 20
125.2484
 30
0.0
 10
22.4801
 20
126.2038
 30
0.0
 10
22.4801
 20
126.2038
 30
0.0
 10
18.7076
 20
128.7292
 30
0.0
 10
12.754
 20
129.4279
 30
0.0
 10
8.551
 20
127.5271
 30
0.0
 10
8.551
 20
127.5271
 30
0.0
 10
7.3082
 20
126.965
 30
0.0
 10
3.8917
 20
125.1028
 30
0.0
 10
3.6299
 20
123.9235
 30
0.0
 10
3.6299
 20
123.9235
 30
0.0
 10
4.1046
 20
123.9336
 30
0.0
 10
4.2887
 20
124.1497
 30
0.0
 10
4.7775
 20
124.3969
 30
0.0
 10
4.7775
 20
124.3969
 30
0.0
 10
5.8971
 20
124.9631
 30
0.0
 10
7.0913
 20
125.3122
 30
0.0
 10
8.3592
 20
125.5507
 30
0.0
 10
8.3592
 20
125.5507
 30
0.0
 10
13.4724
 20
126.5124
 30
0.0
 10
18.9129
 20
124.7352
 30
0.0
 10
22.2054
 20
121.203
 30
0.0
 10
22.2054
 20
121.203
 30
0.0
 10
24.1307
 20
119.1376
 30
0.0
 10
25.9619
 20
116.863
 30
0.0
 10
27.6858
 20
114.2403
 30
0.0
 10
27.6858
 20
114.2403
 30
0.0
 10
27.6858
 20
114.2403
 30
0.0
 10
32.8099
 20
106.9558
 30
0.0
 10
32.8099
 20
106.9558
 30
0.0
 10
32.8099
 20
106.9558
 30
0.0
 10
33.0937
 20
106.7719
 30
0.0
 10
35.4112
 20
103.763
 30
0.0
 10
37.2039
 20
102.2144
 30
0.0
 10
37.2039
 20
102.2144
 30
0.0
 10
38.3415
 20
101.2317
 30
0.0
 10
40.2016
 20
99.8949
 30
0.0
 10
41.5045
 20
99.1402
 30
0.0
 10
41.5045
 20
99.1402
 30
0.0
 10
42.4889
 20
98.57
 30
0.0
 10
44.1512
 20
97.6675
 30
0.0
 10
45.216
 20
97.3155
 30
0.0
 10
45.216
 20
97.3155
 30
0.0
 10
46.0135
 20
97.0518
 30
0.0
 10
50.2452
 20
95.4156
 30
0.0
 10
50.8327
 20
95.8209
 30
0.0
 10
50.8327
 20
95.8209
 30
0.0
 10
50.6753
 20
96.0139
 30
0.0
 10
49.2746
 20
96.5974
 30
0.0
 10
48.9326
 20
96.7715
 30
0.0
 10
48.9326
 20
96.7715
 30
0.0
 10
47.3808
 20
97.5615
 30
0.0
 10
44.9356
 20
99.1413
 30
0.0
 10
43.6724
 20
100.157
 30
0.0
 10
43.6724
 20
100.157
 30
0.0
 10
43.6724
 20
100.157
 30
0.0
 10
40.6011
 20
102.8465
 30
0.0
 10
40.6011
 20
102.8465
 30
0.0
 10
40.6011
 20
102.8465
 30
0.0
 10
37.5704
 20
105.8581
 30
0.0
 10
34.5697
 20
110.9421
 30
0.0
 10
32.4059
 20
114.8176
 30
0.0
 10
32.4059
 20
114.8176
 30
0.0
 10
32.0103
 20
115.5262
 30
0.0
 10
31.7171
 20
115.9152
 30
0.0
 10
31.3212
 20
116.6111
 30
0.0
 10
31.3212
 20
116.6111
 30
0.0
 10
30.9913
 20
117.1909
 30
0.0
 10
29.1842
 20
120.0007
 30
0.0
 10
28.7857
 20
120.3045
 30
0.0
 10
28.7857
 20
120.3045
 30
0.0
 10
28.4511
 20
120.5598
 30
0.0
 10
27.8997
 20
121.1409
 30
0.0
 10
27.9591
 20
121.5946
 30
0.0
 10
27.9591
 20
121.5946
 30
0.0
 10
29.6315
 20
121.8215
 30
0.0
 10
32.0696
 20
120.7572
 30
0.0
 10
33.4216
 20
120.207
 30
0.0
 10
33.4216
 20
120.207
 30
0.0
 10
39.2451
 20
117.8368
 30
0.0
 10
43.7939
 20
112.1193
 30
0.0
 10
47.6085
 20
107.2055
 30
0.0
 10
47.6085
 20
107.2055
 30
0.0
 10
49.8421
 20
104.3283
 30
0.0
 10
51.4303
 20
102.5078
 30
0.0
 10
54.1345
 20
100.137
 30
0.0
 10
54.1345
 20
100.137
 30
0.0
 10
54.683
 20
99.6561
 30
0.0
 10
55.458
 20
99.0985
 30
0.0
 10
56.0992
 20
98.6442
 30
0.0
 10
56.0992
 20
98.6442
 30
0.0
 10
56.753
 20
98.181
 30
0.0
 10
57.3969
 20
97.6959
 30
0.0
 10
58.0769
 20
97.3242
 30
0.0
 10
58.0769
 20
97.3242
 30
0.0
 10
58.0769
 20
97.3242
 30
0.0
 10
58.4583
 20
97.2668
 30
0.0
 10
58.4583
 20
97.2668
 30
0.0
 10
58.4583
 20
97.2668
 30
0.0
 10
58.4583
 20
97.2668
 30
0.0
 10
58.4142
 20
97.5493
 30
0.0
 10
58.4142
 20
97.5493
 30
0.0
 10
58.4142
 20
97.5493
 30
0.0
 10
58.3126
 20
97.8587
 30
0.0
 10
57.9936
 20
98.2153
 30
0.0
 10
57.7379
 20
98.5554
 30
0.0
 10
57.7379
 20
98.5554
 30
0.0
 10
57.7379
 20
98.5554
 30
0.0
 10
55.7196
 20
101.4933
 30
0.0
 10
55.7196
 20
101.4933
 30
0.0
 10
55.7196
 20
101.4933
 30
0.0
 10
53.929
 20
104.2741
 30
0.0
 10
50.6042
 20
110.4681
 30
0.0
 10
49.5252
 20
112.0028
 30
0.0
 10
49.5252
 20
112.0028
 30
0.0
 10
49.1813
 20
112.4919
 30
0.0
 10
48.4734
 20
113.4324
 30
0.0
 10
48.2775
 20
113.9149
 30
0.0
 10
48.2775
 20
113.9149
 30
0.0
 10
48.2775
 20
113.9149
 30
0.0
 10
48.2404
 20
114.1613
 30
0.0
 10
48.2404
 20
114.1613
 30
0.0
 10
48.2404
 20
114.1613
 30
0.0
 10
48.2404
 20
114.1613
 30
0.0
 10
48.5387
 20
114.0267
 30
0.0
 10
48.5387
 20
114.0267
 30
0.0
 10
48.5387
 20
114.0267
 30
0.0
 10
49.9785
 20
113.9238
 30
0.0
 10
55.3897
 20
109.0418
 30
0.0
 10
56.1844
 20
108.2935
 30
0.0
 10
56.1844
 20
108.2935
 30
0.0
 10
56.1844
 20
108.2935
 30
0.0
 10
58.5731
 20
105.6131
 30
0.0
 10
58.5731
 20
105.6131
 30
0.0
 10
58.5731
 20
105.6131
 30
0.0
 10
58.8234
 20
105.3379
 30
0.0
 10
59.0274
 20
105.0634
 30
0.0
 10
59.2965
 20
104.7229
 30
0.0
  0
SPLINE
  5
75
330
1F
100
AcDbEntity
  8
layer 1
100
AcDbSpline
210
0.0
220
0.0
230
1.0
 70
    11
 71
     3
 72
    40
 73
    36
 74
     0
 42
0.000000001
 43
0.0000000001
 40
0.0
 40
0.0
 40
0.0
 40
0.0
 40
0.1
 40
0.1
 40
0.1
 40
0.1
 40
0.2
 40
0.2
 40
0.2
 40
0.2
 40
0.3
 40
0.3
 40
0.3
 40
0.3
 40
0.4
 40
0.4
 40
0.4
 40
0.4
 40
0.5
 40
0.5
 40
0.5
 40
0.5
 40
0.6
 40
0.6
 40
0.6
 40
0.6
 40
0.7
 40
0.7
 40
0.7
 40
0.7
 40
0.8
 40
0.8
 40
0.8
 40
0.8
 40
1.0
 40
1.0
 40
1.0
 40
1.0
 10
25.0515
 20
16.157
 30
0.0
 10
22.9129
 20
15.492
 30
0.0
 10
22.8152
 20
16.1425
 30
0.0
 10
21.3742
 20
16.2591
 30
0.0
 10
21.3742
 20
16.2591
 30
0.0
 10
18.2071
 20
16.5149
 30
0.0
 10
14.8826
 20
14.4814
 30
0.0
 10
11.3087
 20
14.8613
 30
0.0
 10
11.3087
 20
14.8613
 30
0.0
 10
11.2632
 20
13.4323
 30
0.0
 10
14.1723
 20
10.0381
 30
0.0
 10
14.9251
 20
9.2999
 30
0.0
 10
14.9251
 20
9.2999
 30
0.0
 10
17.7833
 20
6.4967
 30
0.0
 10
24.6209
 20
3.7375
 30
0.0
 10
28.5148
 20
5.359
 30
0.0
 10
28.5148
 20
5.359
 30
0.0
 10
29.7971
 20
5.8931
 30
0.0
 10
31.1317
 20
6.7421
 30
0.0
 10
31.7044
 20
7.8291
 30
0.0
 10
31.7044
 20
7.8291
 30
0.0
 10
32.1231
 20
8.6242
 30
0.0
 10
32.363
 20
10.4436
 30
0.0
 10
32.4249
 20
10.5382
 30
0.0
 10
32.4249
 20
10.5382
 30
0.0
 10
32.5737
 20
10.7656
 30
0.0
 10
34.297
 20
11.2348
 30
0.0
 10
33.5478
 20
12.8275
 30
0.0
 10
33.5478
 20
12.8275
 30
0.0
 10
31.6291
 20
16.9071
 30
0.0
 10
28.5274
 20
14.3818
 30
0.0
 10
25.6607
 20
16.1565
 30
0.0
 10
25.6607
 20
16.1565
 30
0.0
 10
25.6607
 20
16.1565
 30
0.0
 10
25.0515
 20
16.157
 30
0.0
 10
25.0515
 20
16.157
 30
0.0
  0
SPLINE
  5
76
330
1F
100
AcDbEntity
  8
layer 1
100
AcDbSpline
210
0.0
220
0.0
230
1.0
 70
    11
 71
     3
 72
    20
 73
    16
 74
     0
 42
0.000000001
 43
0.0000000001
 40
0.0
 40
0.0
 40
0.0
 40
0.0
 40
0.2
 40
0.2
 40
0.2
 40
0.2
 40
0.4
 40
0.4
 40
0.4
 40
0.4
 40
0.6
 40
0.6
 40
0.6
 40
0.6
 40
1.0
 40
1.0
 40
1.0
 40
1.0
 10
25.2005
 20
9.43
 30
0.0
 10
24.7023
 20
7.6561
 30
0.0
 10
19.3905
 20
9.5456
 30
0.0
 10
18.1511
 20
10.4518
 30
0.0
 10
18.1511
 20
10.4518
 30
0.0
 10
17.6441
 20
10.7813
 30
0.0
 10
15.9361
 20
11.7454
 30
0.0
 10
15.6968
 20
12.1824
 30
0.0
 10
15.6968
 20
12.1824
 30
0.0
 10
16.759
 20
12.2551
 30
0.0
 10
19.2534
 20
10.7608
 30
0.0
 10
20.3556
 20
10.3525
 30
0.0
 10
20.3556
 20
10.3525
 30
0.0
 10
22.2276
 20
9.6589
 30
0.0
 10
23.4078
 20
9.7413
 30
0.0
 10
25.2005
 20
9.43
 30
0.0
  0
SPLINE
  5
77
330
1F
100
AcDbEntity
  8
layer 1
100
AcDbSpline
210
0.0
220
0.0
230
1.0
 70
    11
 71
     3
 72
   804
 73
   800
 74
     0
 42
0.000000001
 43
0.0000000001
 40
0.0
 40
0.0
 40
0.0
 40
0.0
 40
0.0049751243781095
 40
0.0049751243781095
 40
0.0049751243781095
 40
0.0049751243781095
 40
0.0099502487562189
 40
0.0099502487562189
 40
0.0099502487562189
 40
0.0099502487562189
 40
0.0149253731343284
 40
0.0149253731343284
 40
0.0149253731343284
 40
0.0149253731343284
 40
0.0199004975124378
 40
0.0199004975124378
 40
0.0199004975124378
 40
0.0199004975124378
 40
0.0248756218905473
 40
0.0248756218905473
 40
0.0248756218905473
 40
0.0248756218905473
 40
0.0298507462686567
 40
0.0298507462686567
 40
0.0298507462686567
 40
0.0298507462686567
 40
0.0348258706467662
 40
0.0348258706467662
 40
0.0348258706467662
 40
0.0348258706467662
 40
0.0398009950248756
 40
0.0398009950248756
 40
0.0398009950248756
 40
0.0398009950248756
 40
0.0447761194029851
 40
0.0447761194029851
 40
0.0447761194029851
 40
0.0447761194029851
 40
0.0497512437810945
 40
0.0497512437810945
 40
0.0497512437810945
 40
0.0497512437810945
 40
0.054726368159204
 40
0.054726368159204
 40
0.054726368159204
 40
0.054726368159204
 40
0.0597014925373134
 40
0.0597014925373134
 40
0.0597014925373134
 40
0.0597014925373134
 40
0.0646766169154229
 40
0.0646766169154229
 40
0.0646766169154229
 40
0.0646766169154229
 40
0.0696517412935323
 40
0.0696517412935323
 40
0.0696517412935323
 40
0.0696517412935323
 40
0.0746268656716418
 40
0.0746268656716418
 40
0.0746268656716418
 40
0.0746268656716418
 40
0.0796019900497512
 40
0.0796019900497512
 40
0.0796019900497512
 40
0.0796019900497512
 40
0.0845771144278607
 40
0.0845771144278607
 40
0.0845771144278607
 40
0.0845771144278607
 40
0.0895522388059701
 40
0.0895522388059701
 40
0.0895522388059701
 40
0.0895522388059701
 40
0.0945273631840796
 40
0.0945273631840796
 40
0.0945273631840796
 40
0.0945273631840796
 40
0.0995024875621891
 40
0.0995024875621891
 40
0.0995024875621891
 40
0.0995024875621891
 40
0.1044776119402985
 40
0.1044776119402985
 40
0.1044776119402985
 40
0.1044776119402985
 40
0.109452736318408
 40
0.109452736318408
 40
0.109452736318408
 40
0.109452736318408
 40
0.1144278606965174
 40
0.1144278606965174
 40
0.1144278606965174
 40
0.1144278606965174
 40
0.1194029850746269
 40
0.1194029850746269
 40
0.1194029850746269
 40
0.1194029850746269
 40
0.1243781094527363
 40
0.1243781094527363
 40
0.1243781094527363
 40
0.1243781094527363
 40
0.1293532338308458
 40
0.1293532338308458
 40
0.1293532338308458
 40
0.1293532338308458
 40
0.1343283582089552
 40
0.1343283582089552
 40
0.1343283582089552
 40
0.1343283582089552
 40
0.1393034825870647
 40
0.1393034825870647
 40
0.1393034825870647
 40
0.1393034825870647
 40
0.1442786069651741
 40
0.1442786069651741
 40
0.1442786069651741
 40
0.1442786069651741
 40
0.1492537313432836
 40
0.1492537313432836
 40
0.1492537313432836
 40
0.1492537313432836
 40
0.154228855721393
 40
0.154228855721393
 40
0.154228855721393
 40
0.154228855721393
 40
0.1592039800995025
 40
0.1592039800995025
 40
0.1592039800995025
 40
0.1592039800995025
 40
0.1641791044776119
 40
0.1641791044776119
 40
0.1641791044776119
 40
0.1641791044776119
 40
0.1691542288557214
 40
0.1691542288557214
 40
0.1691542288557214
 40
0.1691542288557214
 40
0.1741293532338309
 40
0.1741293532338309
 40
0.1741293532338309
 40
0.1741293532338309
 40
0.1791044776119403
 40
0.1791044776119403
 40
0.1791044776119403
 40
0.1791044776119403
 40
0.1840796019900497
 40
0.1840796019900497
 40
0.1840796019900497
 40
0.1840796019900497
 40
0.1890547263681592
 40
0.1890547263681592
 40
0.1890547263681592
 40
0.1890547263681592
 40
0.1940298507462687
 40
0.1940298507462687
 40
0.1940298507462687
 40
0.1940298507462687
 40
0.1990049751243781
 40
0.1990049751243781
 40
0.1990049751243781
 40
0.1990049751243781
 40
0.2039800995024875
 40
0.2039800995024875
 40
0.2039800995024875
 40
0.2039800995024875
 40
0.208955223880597
 40
0.208955223880597
 40
0.208955223880597
 40
0.208955223880597
 40
0.2139303482587065
 40
0.2139303482587065
 40
0.2139303482587065
 40
0.2139303482587065
 40
0.2189054726368159
 40
0.2189054726368159
 40
0.2189054726368159
 40
0.2189054726368159
 40
0.2238805970149254
 40
0.2238805970149254
 40
0.2238805970149254
 40
0.2238805970149254
 40
0.2288557213930348
 40
0.2288557213930348
 40
0.2288557213930348
 40
0.2288557213930348
 40
0.2338308457711443
 40
0.2338308457711443
 40
0.2338308457711443
 40
0.2338308457711443
 40
0.2388059701492537
 40
0.2388059701492537
 40
0.2388059701492537
 40
0.2388059701492537
 40
0.2437810945273632
 40
0.2437810945273632
 40
0.2437810945273632
 40
0.2437810945273632
 40
0.2487562189054726
 40
0.2487562189054726
 40
0.2487562189054726
 40
0.2487562189054726
 40
0.2537313432835821
 40
0.2537313432835821
 40
0.2537313432835821
 40
0.2537313432835821
 40
0.2587064676616915
 40
0.2587064676616915
 40
0.2587064676616915
 40
0.2587064676616915
 40
0.263681592039801
 40
0.263681592039801
 40
0.263681592039801
 40
0.263681592039801
 40
0.2686567164179104
 40
0.2686567164179104
 40
0.2686567164179104
 40
0.2686567164179104
 40
0.2736318407960199
 40
0.2736318407960199
 40
0.2736318407960199
 40
0.2736318407960199
 40
0.2786069651741294
 40
0.2786069651741294
 40
0.2786069651741294
 40
0.2786069651741294
 40
0.2835820895522388
 40
0.2835820895522388
 40
0.2835820895522388
 40
0.2835820895522388
 40
0.2885572139303483
 40
0.2885572139303483
 40
0.2885572139303483
 40
0.2885572139303483
 40
0.2935323383084577
 40
0.2935323383084577
 40
0.2935323383084577
 40
0.2935323383084577
 40
0.2985074626865671
 40
0.2985074626865671
 40
0.2985074626865671
 40
0.2985074626865671
 40
0.3034825870646766
 40
0.3034825870646766
 40
0.3034825870646766
 40
0.3034825870646766
 40
0.3084577114427861
 40
0.3084577114427861
 40
0.3084577114427861
 40
0.3084577114427861
 40
0.3134328358208955
 40
0.3134328358208955
 40
0.3134328358208955
 40
0.3134328358208955
 40
0.318407960199005
 40
0.318407960199005
 40
0.318407960199005
 40
0.318407960199005
 40
0.3233830845771145
 40
0.3233830845771145
 40
0.3233830845771145
 40
0.3233830845771145
 40
0.3283582089552239
 40
0.3283582089552239
 40
0.3283582089552239
 40
0.3283582089552239
 40
0.3333333333333333
 40
0.3333333333333333
 40
0.3333333333333333
 40
0.3333333333333333
 40
0.3383084577114428
 40
0.3383084577114428
 40
0.3383084577114428
 40
0.3383084577114428
 40
0.3432835820895522
 40
0.3432835820895522
 40
0.3432835820895522
 40
0.3432835820895522
 40
0.3482587064676617
 40
0.3482587064676617
 40
0.3482587064676617
 40
0.3482587064676617
 40
0.3532338308457711
 40
0.3532338308457711
 40
0.3532338308457711
 40
0.3532338308457711
 40
0.3582089552238806
 40
0.3582089552238806
 40
0.3582089552238806
 40
0.3582089552238806
 40
0.3631840796019901
 40
0.3631840796019901
 40
0.3631840796019901
 40
0.3631840796019901
 40
0.3681592039800995
 40
0.3681592039800995
 40
0.3681592039800995
 40
0.3681592039800995
 40
0.373134328358209
 40
0.373134328358209
 40
0.373134328358209
 40
0.373134328358209
 40
0.3781094527363184
 40
0.3781094527363184
 40
0.3781094527363184
 40
0.3781094527363184
 40
0.3830845771144278
 40
0.3830845771144278
 40
0.3830845771144278
 40
0.3830845771144278
 40
0.3880597014925373
 40
0.3880597014925373
 40
0.3880597014925373
 40
0.3880597014925373
 40
0.3930348258706468
 40
0.3930348258706468
 40
0.3930348258706468
 40
0.3930348258706468
 40
0.3980099502487562
 40
0.3980099502487562
 40
0.3980099502487562
 40
0.3980099502487562
 40
0.4029850746268657
 40
0.4029850746268657
 40
0.4029850746268657
 40
0.4029850746268657
 40
0.4079601990049751
 40
0.4079601990049751
 40
0.4079601990049751
 40
0.4079601990049751
 40
0.4129353233830846
 40
0.4129353233830846
 40
0.4129353233830846
 40
0.4129353233830846
 40
0.417910447761194
 40
0.417910447761194
 40
0.417910447761194
 40
0.417910447761194
 40
0.4228855721393035
 40
0.4228855721393035
 40
0.4228855721393035
 40
0.4228855721393035
 40
0.4278606965174129
 40
0.4278606965174129
 40
0.4278606965174129
 40
0.4278606965174129
 40
0.4328358208955224
 40
0.4328358208955224
 40
0.4328358208955224
 40
0.4328358208955224
 40
0.4378109452736318
 40
0.4378109452736318
 40
0.4378109452736318
 40
0.4378109452736318
 40
0.4427860696517413
 40
0.4427860696517413
 40
0.4427860696517413
 40
0.4427860696517413
 40
0.4477611940298508
 40
0.4477611940298508
 40
0.4477611940298508
 40
0.4477611940298508
 40
0.4527363184079602
 40
0.4527363184079602
 40
0.4527363184079602
 40
0.4527363184079602
 40
0.4577114427860697
 40
0.4577114427860697
 40
0.4577114427860697
 40
0.4577114427860697
 40
0.4626865671641791
 40
0.4626865671641791
 40
0.4626865671641791
 40
0.4626865671641791
 40
0.4676616915422885
 40
0.4676616915422885
 40
0.4676616915422885
 40
0.4676616915422885
 40
0.472636815920398
 40
0.472636815920398
 40
0.472636815920398
 40
0.472636815920398
 40
0.4776119402985075
 40
0.4776119402985075
 40
0.4776119402985075
 40
0.4776119402985075
 40
0.4825870646766169
 40
0.4825870646766169
 40
0.4825870646766169
 40
0.4825870646766169
 40
0.4875621890547264
 40
0.4875621890547264
 40
0.4875621890547264
 40
0.4875621890547264
 40
0.4925373134328358
 40
0.4925373134328358
 40
0.4925373134328358
 40
0.4925373134328358
 40
0.4975124378109453
 40
0.4975124378109453
 40
0.4975124378109453
 40
0.4975124378109453
 40
0.5024875621890548
 40
0.5024875621890548
 40
0.5024875621890548
 40
0.5024875621890548
 40
0.5074626865671642
 40
0.5074626865671642
 40
0.5074626865671642
 40
0.5074626865671642
 40
0.5124378109452736
 40
0.5124378109452736
 40
0.5124378109452736
 40
0.5124378109452736
 40
0.5174129353233831
 40
0.5174129353233831
 40
0.5174129353233831
 40
0.5174129353233831
 40
0.5223880597014925
 40
0.5223880597014925
 40
0.5223880597014925
 40
0.5223880597014925
 40
0.527363184079602
 40
0.527363184079602
 40
0.527363184079602
 40
0.527363184079602
 40
0.5323383084577115
 40
0.5323383084577115
 40
0.5323383084577115
 40
0.5323383084577115
 40
0.5373134328358209
 40
0.5373134328358209
 40
0.5373134328358209
 40
0.5373134328358209
 40
0.5422885572139303
 40
0.5422885572139303
 40
0.5422885572139303
 40
0.5422885572139303
 40
0.5472636815920398
 40
0.5472636815920398
 40
0.5472636815920398
 40
0.5472636815920398
 40
0.5522388059701493
 40
0.5522388059701493
 40
0.5522388059701493
 40
0.5522388059701493
 40
0.5572139303482587
 40
0.5572139303482587
 40
0.5572139303482587
 40
0.5572139303482587
 40
0.5621890547263682
 40
0.5621890547263682
 40
0.5621890547263682
 40
0.5621890547263682
 40
0.5671641791044776
 40
0.5671641791044776
 40
0.5671641791044776
 40
0.5671641791044776
 40
0.572139303482587
 40
0.572139303482587
 40
0.572139303482587
 40
0.572139303482587
 40
0.5771144278606966
 40
0.5771144278606966
 40
0.5771144278606966
 40
0.5771144278606966
 40
0.582089552238806
 40
0.582089552238806
 40
0.582089552238806
 40
0.582089552238806
 40
0.5870646766169154
 40
0.5870646766169154
 40
0.5870646766169154
 40
0.5870646766169154
 40
0.5920398009950248
 40
0.5920398009950248
 40
0.5920398009950248
 40
0.5920398009950248
 40
0.5970149253731343
 40
0.5970149253731343
 40
0.5970149253731343
 40
0.5970149253731343
 40
0.6019900497512438
 40
0.6019900497512438
 40
0.6019900497512438
 40
0.6019900497512438
 40
0.6069651741293532
 40
0.6069651741293532
 40
0.6069651741293532
 40
0.6069651741293532
 40
0.6119402985074627
 40
0.6119402985074627
 40
0.6119402985074627
 40
0.6119402985074627
 40
0.6169154228855721
 40
0.6169154228855721
 40
0.6169154228855721
 40
0.6169154228855721
 40
0.6218905472636815
 40
0.6218905472636815
 40
0.6218905472636815
 40
0.6218905472636815
 40
0.6268656716417911
 40
0.6268656716417911
 40
0.6268656716417911
 40
0.6268656716417911
 40
0.6318407960199005
 40
0.6318407960199005
 40
0.6318407960199005
 40
0.6318407960199005
 40
0.6368159203980099
 40
0.6368159203980099
 40
0.6368159203980099
 40
0.6368159203980099
 40
0.6417910447761194
 40
0.6417910447761194
 40
0.6417910447761194
 40
0.6417910447761194
 40
0.6467661691542289
 40
0.6467661691542289
 40
0.6467661691542289
 40
0.6467661691542289
 40
0.6517412935323383
 40
0.6517412935323383
 40
0.6517412935323383
 40
0.6517412935323383
 40
0.6567164179104478
 40
0.6567164179104478
 40
0.6567164179104478
 40
0.6567164179104478
 40
0.6616915422885572
 40
0.6616915422885572
 40
0.6616915422885572
 40
0.6616915422885572
 40
0.6666666666666666
 40
0.6666666666666666
 40
0.6666666666666666
 40
0.6666666666666666
 40
0.6716417910447762
 40
0.6716417910447762
 40
0.6716417910447762
 40
0.6716417910447762
 40
0.6766169154228856
 40
0.6766169154228856
 40
0.6766169154228856
 40
0.6766169154228856
 40
0.681592039800995
 40
0.681592039800995
 40
0.681592039800995
 40
0.681592039800995
 40
0.6865671641791045
 40
0.6865671641791045
 40
0.6865671641791045
 40
0.6865671641791045
 40
0.6915422885572139
 40
0.6915422885572139
 40
0.6915422885572139
 40
0.6915422885572139
 40
0.6965174129353234
 40
0.6965174129353234
 40
0.6965174129353234
 40
0.6965174129353234
 40
0.7014925373134329
 40
0.7014925373134329
 40
0.7014925373134329
 40
0.7014925373134329
 40
0.7064676616915423
 40
0.7064676616915423
 40
0.7064676616915423
 40
0.7064676616915423
 40
0.7114427860696517
 40
0.7114427860696517
 40
0.7114427860696517
 40
0.7114427860696517
 40
0.7164179104477612
 40
0.7164179104477612
 40
0.7164179104477612
 40
0.7164179104477612
 40
0.7213930348258707
 40
0.7213930348258707
 40
0.7213930348258707
 40
0.7213930348258707
 40
0.7263681592039801
 40
0.7263681592039801
 40
0.7263681592039801
 40
0.7263681592039801
 40
0.7313432835820896
 40
0.7313432835820896
 40
0.7313432835820896
 40
0.7313432835820896
 40
0.736318407960199
 40
0.736318407960199
 40
0.736318407960199
 40
0.736318407960199
 40
0.7412935323383084
 40
0.7412935323383084
 40
0.7412935323383084
 40
0.7412935323383084
 40
0.746268656716418
 40
0.746268656716418
 40
0.746268656716418
 40
0.746268656716418
 40
0.7512437810945274
 40
0.7512437810945274
 40
0.7512437810945274
 40
0.7512437810945274
 40
0.7562189054726368
 40
0.7562189054726368
 40
0.7562189054726368
 40
0.7562189054726368
 40
0.7611940298507462
 40
0.7611940298507462
 40
0.7611940298507462
 40
0.7611940298507462
 40
0.7661691542288557
 40
0.7661691542288557
 40
0.7661691542288557
 40
0.7661691542288557
 40
0.7711442786069652
 40
0.7711442786069652
 40
0.7711442786069652
 40
0.7711442786069652
 40
0.7761194029850746
 40
0.7761194029850746
 40
0.7761194029850746
 40
0.7761194029850746
 40
0.7810945273631841
 40
0.7810945273631841
 40
0.7810945273631841
 40
0.7810945273631841
 40
0.7860696517412935
 40
0.7860696517412935
 40
0.7860696517412935
 40
0.7860696517412935
 40
0.7910447761194029
 40
0.7910447761194029
 40
0.7910447761194029
 40
0.7910447761194029
 40
0.7960199004975125
 40
0.7960199004975125
 40
0.7960199004975125
 40
0.7960199004975125
 40
0.8009950248756219
 40
0.8009950248756219
 40
0.8009950248756219
 40
0.8009950248756219
 40
0.8059701492537313
 40
0.8059701492537313
 40
0.8059701492537313
 40
0.8059701492537313
 40
0.8109452736318408
 40
0.8109452736318408
 40
0.8109452736318408
 40
0.8109452736318408
 40
0.8159203980099502
 40
0.8159203980099502
 40
0.8159203980099502
 40
0.8159203980099502
 40
0.8208955223880597
 40
0.8208955223880597
 40
0.8208955223880597
 40
0.8208955223880597
 40
0.8258706467661692
 40
0.8258706467661692
 40
0.8258706467661692
 40
0.8258706467661692
 40
0.8308457711442786
 40
0.8308457711442786
 40
0.8308457711442786
 40
0.8308457711442786
 40
0.835820895522388
 40
0.835820895522388
 40
0.835820895522388
 40
0.835820895522388
 40
0.8407960199004975
 40
0.8407960199004975
 40
0.8407960199004975
 40
0.8407960199004975
 40
0.845771144278607
 40
0.845771144278607
 40
0.845771144278607
 40
0.845771144278607
 40
0.8507462686567164
 40
0.8507462686567164
 40
0.8507462686567164
 40
0.8507462686567164
 40
0.8557213930348259
 40
0.8557213930348259
 40
0.8557213930348259
 40
0.8557213930348259
 40
0.8606965174129353
 40
0.8606965174129353
 40
0.8606965174129353
 40
0.8606965174129353
 40
0.8656716417910447
 40
0.8656716417910447
 40
0.8656716417910447
 40
0.8656716417910447
 40
0.8706467661691543
 40
0.8706467661691543
 40
0.8706467661691543
 40
0.8706467661691543
 40
0.8756218905472637
 40
0.8756218905472637
 40
0.8756218905472637
 40
0.8756218905472637
 40
0.8805970149253731
 40
0.8805970149253731
 40
0.8805970149253731
 40
0.8805970149253731
 40
0.8855721393034826
 40
0.8855721393034826
 40
0.8855721393034826
 40
0.8855721393034826
 40
0.8905472636815921
 40
0.8905472636815921
 40
0.8905472636815921
 40
0.8905472636815921
 40
0.8955223880597015
 40
0.8955223880597015
 40
0.8955223880597015
 40
0.8955223880597015
 40
0.900497512437811
 40
0.900497512437811
 40
0.900497512437811
 40
0.900497512437811
 40
0.9054726368159204
 40
0.9054726368159204
 40
0.9054726368159204
 40
0.9054726368159204
 40
0.9104477611940298
 40
0.9104477611940298
 40
0.9104477611940298
 40
0.9104477611940298
 40
0.9154228855721394
 40
0.9154228855721394
 40
0.9154228855721394
 40
0.9154228855721394
 40
0.9203980099502488
 40
0.9203980099502488
 40
0.9203980099502488
 40
0.9203980099502488
 40
0.9253731343283582
 40
0.9253731343283582
 40
0.9253731343283582
 40
0.9253731343283582
 40
0.9303482587064676
 40
0.9303482587064676
 40
0.9303482587064676
 40
0.9303482587064676
 40
0.9353233830845771
 40
0.9353233830845771
 40
0.9353233830845771
 40
0.9353233830845771
 40
0.9402985074626866
 40
0.9402985074626866
 40
0.9402985074626866
 40
0.9402985074626866
 40
0.945273631840796
 40
0.945273631840796
 40
0.945273631840796
 40
0.945273631840796
 40
0.9502487562189055
 40
0.9502487562189055
 40
0.9502487562189055
 40
0.9502487562189055
 40
0.9552238805970149
 40
0.9552238805970149
 40
0.9552238805970149
 40
0.9552238805970149
 40
0.9601990049751243
 40
0.9601990049751243
 40
0.9601990049751243
 40
0.9601990049751243
 40
0.9651741293532339
 40
0.9651741293532339
 40
0.9651741293532339
 40
0.9651741293532339
 40
0.9701492537313433
 40
0.9701492537313433
 40
0.9701492537313433
 40
0.9701492537313433
 40
0.9751243781094527
 40
0.9751243781094527
 40
0.9751243781094527
 40
0.9751243781094527
 40
0.9800995024875622
 40
0.9800995024875622
 40
0.9800995024875622
 40
0.9800995024875622
 40
0.9850746268656716
 40
0.9850746268656716
 40
0.9850746268656716
 40
0.9850746268656716
 40
0.9900497512437811
 40
0.9900497512437811
 40
0.9900497512437811
 40
0.9900497512437811
 40
1.0
 40
1.0
 40
1.0
 40
1.0
 10
-4.7754
 20
9.5289
 30
0.0
 10
-6.4236
 20
11.2703
 30
0.0
 10
-8.1918
 20
13.053
 30
0.0
 10
-9.7304
 20
14.9431
 30
0.0
 10
-9.7304
 20
14.9431
 30
0.0
 10
-14.5246
 20
20.8348
 30
0.0
 10
-16.7214
 20
25.4175
 30
0.0
 10
-17.4686
 20
33.1316
 30
0.0
 10
-17.4686
 20
33.1316
 30
0.0
 10
-17.6894
 20
35.4096
 30
0.0
 10
-17.2674
 20
42.562
 30
0.0
 10
-17.5195
 20
43.5118
 30
0.0
 10
-17.5195
 20
43.5118
 30
0.0
 10
-17.7057
 20
43.3125
 30
0.0
 10
-18.4631
 20
40.1636
 30
0.0
 10
-18.5174
 20
39.8414
 30
0.0
 10
-18.5174
 20
39.8414
 30
0.0
 10
-19.6508
 20
33.1181
 30
0.0
 10
-19.7031
 20
29.3684
 30
0.0
 10
-18.0263
 20
22.6542
 30
0.0
 10
-18.0263
 20
22.6542
 30
0.0
 10
-16.9523
 20
20.1139
 30
0.0
 10
-16.2283
 20
18.3914
 30
0.0
 10
-14.5092
 20
16.1518
 30
0.0
 10
-14.5092
 20
16.1518
 30
0.0
 10
-9.5691
 20
10.3672
 30
0.0
 10
-5.0015
 20
6.0224
 30
0.0
 10
1.2165
 20
1.6978
 30
0.0
 10
1.2165
 20
1.6978
 30
0.0
 10
1.6597
 20
1.3895
 30
0.0
 10
3.9844
 20
-0.0435
 30
0.0
 10
4.1756
 20
-0.2746
 30
0.0
 10
4.1756
 20
-0.2746
 30
0.0
 10
3.7738
 20
-0.5783
 30
0.0
 10
1.8678
 20
0.3853
 30
0.0
 10
0.4857
 20
0.7286
 30
0.0
 10
0.4857
 20
0.7286
 30
0.0
 10
-2.1745
 20
1.3892
 30
0.0
 10
-12.3904
 20
2.8312
 30
0.0
 10
-14.7712
 20
1.7994
 30
0.0
 10
-14.7712
 20
1.7994
 30
0.0
 10
-14.2797
 20
1.3909
 30
0.0
 10
1.1512
 20
0.0071
 30
0.0
 10
8.6819
 20
-6.0467
 30
0.0
 10
8.6819
 20
-6.0467
 30
0.0
 10
12.1012
 20
-8.7956
 30
0.0
 10
13.629
 20
-10.459
 30
0.0
 10
16.1972
 20
-13.9711
 30
0.0
 10
16.1972
 20
-13.9711
 30
0.0
 10
17.9718
 20
-16.3977
 30
0.0
 10
18.8823
 20
-18.2187
 30
0.0
 10
20.2141
 20
-20.7848
 30
0.0
 10
20.2141
 20
-20.7848
 30
0.0
 10
23.2211
 20
-28.4086
 30
0.0
 10
26.8029
 20
-36.608
 30
0.0
 10
28.6694
 20
-44.5869
 30
0.0
 10
28.6694
 20
-44.5869
 30
0.0
 10
28.9296
 20
-45.6105
 30
0.0
 10
31.2839
 20
-53.9175
 30
0.0
 10
30.9273
 20
-54.4306
 30
0.0
 10
30.9273
 20
-54.4306
 30
0.0
 10
30.6251
 20
-54.3555
 30
0.0
 10
29.0194
 20
-49.3078
 30
0.0
 10
28.5126
 20
-48.3151
 30
0.0
 10
28.5126
 20
-48.3151
 30
0.0
 10
25.2806
 20
-41.9845
 30
0.0
 10
22.6628
 20
-39.7838
 30
0.0
 10
15.6414
 20
-35.8395
 30
0.0
 10
15.6414
 20
-35.8395
 30
0.0
 10
11.7643
 20
-33.6617
 30
0.0
 10
7.6631
 20
-32.5513
 30
0.0
 10
3.6793
 20
-30.8658
 30
0.0
 10
3.6793
 20
-30.8658
 30
0.0
 10
-0.686
 20
-29.2605
 30
0.0
 10
-4.6782
 20
-27.572
 30
0.0
 10
-8.9577
 20
-25.8573
 30
0.0
 10
-8.9577
 20
-25.8573
 30
0.0
 10
-14.1384
 20
-23.784
 30
0.0
 10
-19.8211
 20
-19.6593
 30
0.0
 10
-22.7366
 20
-14.8833
 30
0.0
 10
-22.7366
 20
-14.8833
 30
0.0
 10
-26.1259
 20
-9.3307
 30
0.0
 10
-27.1894
 20
-4.1678
 30
0.0
 10
-26.8697
 20
2.8406
 30
0.0
 10
-26.8697
 20
2.8406
 30
0.0
 10
-26.7157
 20
6.2162
 30
0.0
 10
-25.8011
 20
8.8676
 30
0.0
 10
-24.9768
 20
11.9722
 30
0.0
 10
-24.9768
 20
11.9722
 30
0.0
 10
-24.8308
 20
12.5224
 30
0.0
 10
-23.6289
 20
16.0633
 30
0.0
 10
-23.9085
 20
16.4338
 30
0.0
 10
-23.9085
 20
16.4338
 30
0.0
 10
-23.9085
 20
16.4338
 30
0.0
 10
-24.4486
 20
15.3963
 30
0.0
 10
-24.4486
 20
15.3963
 30
0.0
 10
-24.4486
 20
15.3963
 30
0.0
 10
-24.4486
 20
15.3963
 30
0.0
 10
-25.6151
 20
12.6097
 30
0.0
 10
-25.6151
 20
12.6097
 30
0.0
 10
-25.6151
 20
12.6097
 30
0.0
 10
-26.9603
 20
9.2752
 30
0.0
 10
-27.8773
 20
7.2472
 30
0.0
 10
-28.5872
 20
3.5001
 30
0.0
 10
-28.5872
 20
3.5001
 30
0.0
 10
-29.66
 20
-2.161
 30
0.0
 10
-29.4306
 20
-5.4648
 30
0.0
 10
-28.1105
 20
-10.9353
 30
0.0
 10
-28.1105
 20
-10.9353
 30
0.0
 10
-26.7381
 20
-16.6218
 30
0.0
 10
-22.5506
 20
-22.0096
 30
0.0
 10
-18.2112
 20
-25.2261
 30
0.0
 10
-18.2112
 20
-25.2261
 30
0.0
 10
-15.7617
 20
-27.042
 30
0.0
 10
-13.393
 20
-28.2448
 30
0.0
 10
-10.7513
 20
-29.6305
 30
0.0
 10
-10.7513
 20
-29.6305
 30
0.0
 10
-8.6512
 20
-30.7322
 30
0.0
 10
-5.0143
 20
-31.9971
 30
0.0
 10
-2.8024
 20
-32.8668
 30
0.0
 10
-2.8024
 20
-32.8668
 30
0.0
 10
3.858
 20
-35.4854
 30
0.0
 10
12.0542
 20
-37.3488
 30
0.0
 10
18.1152
 20
-40.9724
 30
0.0
 10
18.1152
 20
-40.9724
 30
0.0
 10
21.4926
 20
-42.9916
 30
0.0
 10
22.9359
 20
-43.8273
 30
0.0
 10
25.6993
 20
-47.3301
 30
0.0
 10
25.6993
 20
-47.3301
 30
0.0
 10
26.283
 20
-48.0698
 30
0.0
 10
29.1303
 20
-52.1945
 30
0.0
 10
29.092
 20
-53.2795
 30
0.0
 10
29.092
 20
-53.2795
 30
0.0
 10
28.5156
 20
-53.2768
 30
0.0
 10
24.5183
 20
-51.0095
 30
0.0
 10
24.365
 20
-50.6012
 30
0.0
 10
24.365
 20
-50.6012
 30
0.0
 10
21.6854
 20
-43.4626
 30
0.0
 10
16.9446
 20
-40.8118
 30
0.0
 10
10.1077
 20
-38.2777
 30
0.0
 10
10.1077
 20
-38.2777
 30
0.0
 10
6.7384
 20
-37.2776
 30
0.0
 10
3.8164
 20
-36.6813
 30
0.0
 10
0.4088
 20
-35.8725
 30
0.0
 10
0.4088
 20
-35.8725
 30
0.0
 10
-2.4801
 20
-35.1867
 30
0.0
 10
-5.7938
 20
-34.7413
 30
0.0
 10
-8.7843
 20
-34.1261
 30
0.0
 10
-8.7843
 20
-34.1261
 30
0.0
 10
-14.1398
 20
-33.0235
 30
0.0
 10
-20.1597
 20
-31.2139
 30
0.0
 10
-24.3546
 20
-27.567
 30
0.0
 10
-24.3546
 20
-27.567
 30
0.0
 10
-27.5725
 20
-24.7693
 30
0.0
 10
-29.5382
 20
-20.9112
 30
0.0
 10
-30.7847
 20
-16.8297
 30
0.0
 10
-30.7847
 20
-16.8297
 30
0.0
 10
-32.0845
 20
-12.5741
 30
0.0
 10
-31.5524
 20
-2.0685
 30
0.0
 10
-31.7783
 20
-1.5816
 30
0.0
 10
-31.7783
 20
-1.5816
 30
0.0
 10
-32.2773
 20
-2.2185
 30
0.0
 10
-32.5509
 20
-6.4398
 30
0.0
 10
-32.5996
 20
-7.4163
 30
0.0
 10
-32.5996
 20
-7.4163
 30
0.0
 10
-32.7119
 20
-9.6715
 30
0.0
 10
-32.6595
 20
-11.5879
 30
0.0
 10
-32.4631
 20
-13.7817
 30
0.0
 10
-32.4631
 20
-13.7817
 30
0.0
 10
-32.0799
 20
-18.0621
 30
0.0
 10
-30.2997
 20
-22.7788
 30
0.0
 10
-27.9491
 20
-25.8624
 30
0.0
 10
-27.9491
 20
-25.8624
 30
0.0
 10
-25.1741
 20
-29.5027
 30
0.0
 10
-22.6397
 20
-31.1522
 30
0.0
 10
-18.4255
 20
-33.0418
 30
0.0
 10
-18.4255
 20
-33.0418
 30
0.0
 10
-13.7639
 20
-35.1322
 30
0.0
 10
-7.5
 20
-36.0732
 30
0.0
 10
-2.4941
 20
-37.0451
 30
0.0
 10
-2.4941
 20
-37.0451
 30
0.0
 10
3.656
 20
-38.2395
 30
0.0
 10
12.9562
 20
-39.5221
 30
0.0
 10
17.9815
 20
-43.1804
 30
0.0
 10
17.9815
 20
-43.1804
 30
0.0
 10
19.4304
 20
-44.2352
 30
0.0
 10
23.1202
 20
-48.5975
 30
0.0
 10
23.8326
 20
-50.4524
 30
0.0
 10
23.8326
 20
-50.4524
 30
0.0
 10
23.2687
 20
-50.6163
 30
0.0
 10
22.0489
 20
-49.815
 30
0.0
 10
21.4933
 20
-49.5813
 30
0.0
 10
21.4933
 20
-49.5813
 30
0.0
 10
18.3746
 20
-48.2699
 30
0.0
 10
15.115
 20
-46.9721
 30
0.0
 10
11.8724
 20
-45.9431
 30
0.0
 10
11.8724
 20
-45.9431
 30
0.0
 10
7.9648
 20
-44.7031
 30
0.0
 10
-17.4122
 20
-38.8488
 30
0.0
 10
-17.5948
 20
-38.6437
 30
0.0
 10
-17.5948
 20
-38.6437
 30
0.0
 10
-17.2218
 20
-38.339
 30
0.0
 10
-15.1791
 20
-38.6097
 30
0.0
 10
-14.6443
 20
-38.6781
 30
0.0
 10
-14.6443
 20
-38.6781
 30
0.0
 10
-12.1953
 20
-38.9919
 30
0.0
 10
-9.8387
 20
-38.9021
 30
0.0
 10
-7.2761
 20
-39.2574
 30
0.0
 10
-7.2761
 20
-39.2574
 30
0.0
 10
-3.6318
 20
-39.7626
 30
0.0
 10
0.5354
 20
-41.9436
 30
0.0
 10
2.0304
 20
-42.1086
 30
0.0
 10
2.0304
 20
-42.1086
 30
0.0
 10
1.3415
 20
-38.6438
 30
0.0
 10
-11.9237
 20
-36.6654
 30
0.0
 10
-15.1886
 20
-35.9056
 30
0.0
 10
-15.1886
 20
-35.9056
 30
0.0
 10
-20.3086
 20
-34.7143
 30
0.0
 10
-22.5131
 20
-33.9475
 30
0.0
 10
-26.8385
 20
-30.975
 30
0.0
 10
-26.8385
 20
-30.975
 30
0.0
 10
-32.4551
 20
-27.115
 30
0.0
 10
-35.1345
 20
-18.2692
 30
0.0
 10
-35.2522
 20
-11.7969
 30
0.0
 10
-35.2522
 20
-11.7969
 30
0.0
 10
-35.3257
 20
-7.757
 30
0.0
 10
-34.9242
 20
-5.6151
 30
0.0
 10
-34.0776
 20
-1.8503
 30
0.0
 10
-34.0776
 20
-1.8503
 30
0.0
 10
-33.7633
 20
-0.453
 30
0.0
 10
-32.4425
 20
2.8693
 30
0.0
 10
-31.7492
 20
4.1095
 30
0.0
 10
-31.7492
 20
4.1095
 30
0.0
 10
-31.4986
 20
4.5575
 30
0.0
 10
-30.6171
 20
5.9073
 30
0.0
 10
-30.5663
 20
6.3123
 30
0.0
 10
-30.5663
 20
6.3123
 30
0.0
 10
-31.3613
 20
5.9881
 30
0.0
 10
-33.5245
 20
2.8828
 30
0.0
 10
-34.0018
 20
2.1
 30
0.0
 10
-34.0018
 20
2.1
 30
0.0
 10
-36.9454
 20
-2.7282
 30
0.0
 10
-38.5162
 20
-7.6879
 30
0.0
 10
-38.5017
 20
-13.7556
 30
0.0
 10
-38.5017
 20
-13.7556
 30
0.0
 10
-38.4927
 20
-17.5564
 30
0.0
 10
-37.8063
 20
-21.6714
 30
0.0
 10
-36.2463
 20
-25.0571
 30
0.0
 10
-36.2463
 20
-25.0571
 30
0.0
 10
-35.2484
 20
-27.2229
 30
0.0
 10
-33.9695
 20
-29.6895
 30
0.0
 10
-32.3038
 20
-31.37
 30
0.0
 10
-32.3038
 20
-31.37
 30
0.0
 10
-32.0107
 20
-31.6657
 30
0.0
 10
-29.341
 20
-34.0619
 30
0.0
 10
-29.3304
 20
-34.1347
 30
0.0
 10
-29.3304
 20
-34.1347
 30
0.0
 10
-30.6561
 20
-34.2586
 30
0.0
 10
-36.3907
 20
-28.9936
 30
0.0
 10
-37.395
 20
-27.9362
 30
0.0
 10
-37.395
 20
-27.9362
 30
0.0
 10
-40.698
 20
-24.4587
 30
0.0
 10
-41.6789
 20
-20.9121
 30
0.0
 10
-42.1756
 20
-16.117
 30
0.0
 10
-42.1756
 20
-16.117
 30
0.0
 10
-42.43
 20
-13.6616
 30
0.0
 10
-41.9936
 20
-11.7645
 30
0.0
 10
-41.6201
 20
-9.6577
 30
0.0
 10
-41.6201
 20
-9.6577
 30
0.0
 10
-41.4879
 20
-8.9115
 30
0.0
 10
-40.7623
 20
-7.2505
 30
0.0
 10
-40.9583
 20
-6.8763
 30
0.0
 10
-40.9583
 20
-6.8763
 30
0.0
 10
-41.1138
 20
-7.0236
 30
0.0
 10
-41.5414
 20
-7.8141
 30
0.0
 10
-41.653
 20
-8.1087
 30
0.0
 10
-41.653
 20
-8.1087
 30
0.0
 10
-44.4099
 20
-15.3862
 30
0.0
 10
-44.0352
 20
-23.8975
 30
0.0
 10
-38.7667
 20
-29.9998
 30
0.0
 10
-38.7667
 20
-29.9998
 30
0.0
 10
-34.8315
 20
-34.5577
 30
0.0
 10
-29.0291
 20
-38.8854
 30
0.0
 10
-23.3832
 20
-40.8692
 30
0.0
 10
-23.3832
 20
-40.8692
 30
0.0
 10
-23.0735
 20
-40.978
 30
0.0
 10
-19.5713
 20
-42.2137
 30
0.0
 10
-19.4366
 20
-42.3308
 30
0.0
 10
-19.4366
 20
-42.3308
 30
0.0
 10
-19.7975
 20
-42.6196
 30
0.0
 10
-29.3264
 20
-40.8174
 30
0.0
 10
-30.4952
 20
-40.6237
 30
0.0
 10
-30.4952
 20
-40.6237
 30
0.0
 10
-35.0934
 20
-39.6263
 30
0.0
 10
-41.2916
 20
-38.7975
 30
0.0
 10
-43.222
 20
-33.0724
 30
0.0
 10
-43.222
 20
-33.0724
 30
0.0
 10
-44.033
 20
-30.6668
 30
0.0
 10
-44.0665
 20
-29.0914
 30
0.0
 10
-44.4809
 20
-26.731
 30
0.0
 10
-44.4809
 20
-26.731
 30
0.0
 10
-44.5767
 20
-26.1842
 30
0.0
 10
-44.7735
 20
-24.0156
 30
0.0
 10
-44.9902
 20
-23.7716
 30
0.0
 10
-44.9902
 20
-23.7716
 30
0.0
 10
-45.2899
 20
-25.8172
 30
0.0
 10
-45.2312
 20
-30.6937
 30
0.0
 10
-44.914
 20
-32.5968
 30
0.0
 10
-44.914
 20
-32.5968
 30
0.0
 10
-44.4046
 20
-35.6534
 30
0.0
 10
-44.2718
 20
-36.4397
 30
0.0
 10
-42.6669
 20
-38.5087
 30
0.0
 10
-42.6669
 20
-38.5087
 30
0.0
 10
-39.1337
 20
-43.0634
 30
0.0
 10
-31.8915
 20
-43.9872
 30
0.0
 10
-26.528
 20
-44.9602
 30
0.0
 10
-26.528
 20
-44.9602
 30
0.0
 10
-21.389
 20
-45.8927
 30
0.0
 10
-15.2403
 20
-46.1108
 30
0.0
 10
-10.373
 20
-48.141
 30
0.0
 10
-10.373
 20
-48.141
 30
0.0
 10
-9.3547
 20
-48.5897
 30
0.0
 10
-6.2031
 20
-49.7346
 30
0.0
 10
-5.9482
 20
-50.7168
 30
0.0
 10
-5.9482
 20
-50.7168
 30
0.0
 10
-7.1757
 20
-50.5211
 30
0.0
 10
-8.6427
 20
-50.501
 30
0.0
 10
-9.989
 20
-50.4538
 30
0.0
 10
-9.989
 20
-50.4538
 30
0.0
 10
-9.989
 20
-50.4538
 30
0.0
 10
-22.1552
 20
-49.5796
 30
0.0
 10
-22.1552
 20
-49.5796
 30
0.0
 10
-22.1552
 20
-49.5796
 30
0.0
 10
-29.1496
 20
-48.5821
 30
0.0
 10
-36.5094
 20
-47.4328
 30
0.0
 10
-41.4541
 20
-42.7121
 30
0.0
 10
-41.4541
 20
-42.7121
 30
0.0
 10
-44.3468
 20
-39.9505
 30
0.0
 10
-46.1941
 20
-34.4625
 30
0.0
 10
-46.3464
 20
-30.3483
 30
0.0
 10
-46.3464
 20
-30.3483
 30
0.0
 10
-46.4444
 20
-27.7018
 30
0.0
 10
-45.7807
 20
-17.5347
 30
0.0
 10
-46.1423
 20
-16.833
 30
0.0
 10
-46.1423
 20
-16.833
 30
0.0
 10
-46.6065
 20
-17.3227
 30
0.0
 10
-49.5213
 20
-33.6594
 30
0.0
 10
-49.8597
 20
-36.858
 30
0.0
 10
-49.8597
 20
-36.858
 30
0.0
 10
-50.4986
 20
-42.8959
 30
0.0
 10
-49.822
 20
-48.6933
 30
0.0
 10
-47.3319
 20
-54.1154
 30
0.0
 10
-47.3319
 20
-54.1154
 30
0.0
 10
-45.6083
 20
-57.8682
 30
0.0
 10
-43.2825
 20
-60.5089
 30
0.0
 10
-39.7963
 20
-62.7191
 30
0.0
 10
-39.7963
 20
-62.7191
 30
0.0
 10
-30.4096
 20
-68.6701
 30
0.0
 10
-16.7018
 20
-68.5335
 30
0.0
 10
-5.4044
 20
-67.4788
 30
0.0
 10
-5.4044
 20
-67.4788
 30
0.0
 10
-0.5357
 20
-67.0243
 30
0.0
 10
4.6008
 20
-66.4146
 30
0.0
 10
9.7303
 20
-66.525
 30
0.0
 10
9.7303
 20
-66.525
 30
0.0
 10
16.5686
 20
-66.6726
 30
0.0
 10
18.2474
 20
-67.909
 30
0.0
 10
24.3122
 20
-69.4467
 30
0.0
 10
24.3122
 20
-69.4467
 30
0.0
 10
24.0825
 20
-68.8929
 30
0.0
 10
22.3389
 20
-67.8716
 30
0.0
 10
21.8043
 20
-67.5897
 30
0.0
 10
21.8043
 20
-67.5897
 30
0.0
 10
17.1595
 20
-65.141
 30
0.0
 10
12.1383
 20
-63.4921
 30
0.0
 10
6.8494
 20
-63.1798
 30
0.0
 10
6.8494
 20
-63.1798
 30
0.0
 10
0.6296
 20
-62.8125
 30
0.0
 10
-2.1368
 20
-62.7489
 30
0.0
 10
-8.7026
 20
-63.0587
 30
0.0
 10
-8.7026
 20
-63.0587
 30
0.0
 10
-13.037
 20
-63.2633
 30
0.0
 10
-16.9615
 20
-63.0418
 30
0.0
 10
-21.1898
 20
-62.7682
 30
0.0
 10
-21.1898
 20
-62.7682
 30
0.0
 10
-25.1502
 20
-62.5121
 30
0.0
 10
-30.7011
 20
-61.3156
 30
0.0
 10
-34.2733
 20
-59.7306
 30
0.0
 10
-34.2733
 20
-59.7306
 30
0.0
 10
-37.8524
 20
-58.1422
 30
0.0
 10
-41.178
 20
-56.0653
 30
0.0
 10
-43.3182
 20
-52.6405
 30
0.0
 10
-43.3182
 20
-52.6405
 30
0.0
 10
-44.6114
 20
-50.5711
 30
0.0
 10
-44.5882
 20
-50.0903
 30
0.0
 10
-45.3779
 20
-48.2466
 30
0.0
 10
-45.3779
 20
-48.2466
 30
0.0
 10
-46.0287
 20
-46.7273
 30
0.0
 10
-47.7391
 20
-37.6629
 30
0.0
 10
-46.9487
 20
-36.7748
 30
0.0
 10
-46.9487
 20
-36.7748
 30
0.0
 10
-46.8471
 20
-36.9152
 30
0.0
 10
-46.4495
 20
-38.2203
 30
0.0
 10
-46.3979
 20
-38.4366
 30
0.0
 10
-46.3979
 20
-38.4366
 30
0.0
 10
-44.4761
 20
-46.4919
 30
0.0
 10
-36.3434
 20
-50.2962
 30
0.0
 10
-29.0249
 20
-52.2803
 30
0.0
 10
-29.0249
 20
-52.2803
 30
0.0
 10
-27.2098
 20
-52.6964
 30
0.0
 10
-25.4126
 20
-53.0451
 30
0.0
 10
-23.607
 20
-53.4382
 30
0.0
 10
-23.607
 20
-53.4382
 30
0.0
 10
-20.7599
 20
-54.0576
 30
0.0
 10
-14.8239
 20
-54.4199
 30
0.0
 10
-11.7034
 20
-54.6069
 30
0.0
 10
-11.7034
 20
-54.6069
 30
0.0
 10
-7.7913
 20
-54.8411
 30
0.0
 10
-3.0152
 20
-54.9428
 30
0.0
 10
0.8619
 20
-55.2656
 30
0.0
 10
0.8619
 20
-55.2656
 30
0.0
 10
4.6398
 20
-55.58
 30
0.0
 10
8.6325
 20
-56.1822
 30
0.0
 10
12.3705
 20
-56.8407
 30
0.0
 10
12.3705
 20
-56.8407
 30
0.0
 10
16.5961
 20
-57.4583
 30
0.0
 10
29.3148
 20
-61.6895
 30
0.0
 10
32.2042
 20
-64.6847
 30
0.0
 10
32.2042
 20
-64.6847
 30
0.0
 10
31.6808
 20
-64.6704
 30
0.0
 10
29.8167
 20
-63.6728
 30
0.0
 10
29.2151
 20
-63.4013
 30
0.0
 10
29.2151
 20
-63.4013
 30
0.0
 10
21.1931
 20
-59.8619
 30
0.0
 10
12.6985
 20
-58.7055
 30
0.0
 10
4.0153
 20
-57.9163
 30
0.0
 10
4.0153
 20
-57.9163
 30
0.0
 10
-5.2648
 20
-57.073
 30
0.0
 10
-15.8729
 20
-57.1183
 30
0.0
 10
-25.1731
 20
-56.3754
 30
0.0
 10
-25.1731
 20
-56.3754
 30
0.0
 10
-30.1918
 20
-55.9743
 30
0.0
 10
-35.9922
 20
-54.7213
 30
0.0
 10
-40.0595
 20
-51.6874
 30
0.0
 10
-40.0595
 20
-51.6874
 30
0.0
 10
-40.7959
 20
-51.1381
 30
0.0
 10
-41.661
 20
-50.3645
 30
0.0
 10
-42.2178
 20
-49.6968
 30
0.0
 10
-42.2178
 20
-49.6968
 30
0.0
 10
-42.2178
 20
-49.6968
 30
0.0
 10
-42.7137
 20
-49.1725
 30
0.0
 10
-42.7137
 20
-49.1725
 30
0.0
 10
-42.7137
 20
-49.1725
 30
0.0
 10
-43.9093
 20
-48.1228
 30
0.0
 10
-40.6564
 20
-52.5106
 30
0.0
 10
-38.7488
 20
-53.7142
 30
0.0
 10
-38.7488
 20
-53.7142
 30
0.0
 10
-33.9342
 20
-56.5647
 30
0.0
 10
-31.6977
 20
-57.2687
 30
0.0
 10
-26.1363
 20
-58.5111
 30
0.0
 10
-26.1363
 20
-58.5111
 30
0.0
 10
-23.061
 20
-59.1982
 30
0.0
 10
-13.917
 20
-60.2329
 30
0.0
 10
-10.6618
 20
-60.3971
 30
0.0
 10
-10.6618
 20
-60.3971
 30
0.0
 10
-5.3682
 20
-60.6642
 30
0.0
 10
0.2426
 20
-61.094
 30
0.0
 10
5.5155
 20
-61.637
 30
0.0
 10
5.5155
 20
-61.637
 30
0.0
 10
11.9207
 20
-62.2966
 30
0.0
 10
17.5228
 20
-63.4844
 30
0.0
 10
23.7268
 20
-65.2066
 30
0.0
 10
23.7268
 20
-65.2066
 30
0.0
 10
30.2359
 20
-67.0133
 30
0.0
 10
38.3942
 20
-71.297
 30
0.0
 10
43.6909
 20
-75.6537
 30
0.0
 10
43.6909
 20
-75.6537
 30
0.0
 10
45.2329
 20
-76.9222
 30
0.0
 10
46.5981
 20
-78.4387
 30
0.0
 10
47.8834
 20
-80.1029
 30
0.0
 10
47.8834
 20
-80.1029
 30
0.0
 10
50.1686
 20
-83.0616
 30
0.0
 10
53.0424
 20
-88.9751
 30
0.0
 10
53.2765
 20
-92.7326
 30
0.0
 10
53.2765
 20
-92.7326
 30
0.0
 10
52.7782
 20
-92.7974
 30
0.0
 10
52.4147
 20
-92.1829
 30
0.0
 10
52.0505
 20
-91.8352
 30
0.0
 10
52.0505
 20
-91.8352
 30
0.0
 10
51.3049
 20
-91.123
 30
0.0
 10
49.8293
 20
-84.0049
 30
0.0
 10
44.3345
 20
-78.9282
 30
0.0
 10
44.3345
 20
-78.9282
 30
0.0
 10
36.8737
 20
-72.0349
 30
0.0
 10
27.5646
 20
-70.0865
 30
0.0
 10
16.1816
 20
-69.6608
 30
0.0
 10
16.1816
 20
-69.6608
 30
0.0
 10
9.0258
 20
-69.3932
 30
0.0
 10
2.1489
 20
-70.4941
 30
0.0
 10
-4.8967
 20
-71.133
 30
0.0
 10
-4.8967
 20
-71.133
 30
0.0
 10
-8.1949
 20
-71.4322
 30
0.0
 10
-15.6532
 20
-72.6129
 30
0.0
 10
-18.2651
 20
-72.7094
 30
0.0
 10
-18.2651
 20
-72.7094
 30
0.0
 10
-30.9706
 20
-73.1777
 30
0.0
 10
-28.1913
 20
-72.9017
 30
0.0
 10
-39.6246
 20
-69.5931
 30
0.0
 10
-39.6246
 20
-69.5931
 30
0.0
 10
-39.3685
 20
-70.578
 30
0.0
 10
-37.1304
 20
-71.9233
 30
0.0
 10
-36.2356
 20
-72.4047
 30
0.0
 10
-36.2356
 20
-72.4047
 30
0.0
 10
-28.5659
 20
-76.5317
 30
0.0
 10
-16.8404
 20
-75.0693
 30
0.0
 10
-8.3569
 20
-74.7156
 30
0.0
 10
-8.3569
 20
-74.7156
 30
0.0
 10
-4.0071
 20
-74.5341
 30
0.0
 10
0.3978
 20
-74.1507
 30
0.0
 10
4.7644
 20
-73.9516
 30
0.0
 10
4.7644
 20
-73.9516
 30
0.0
 10
16.8118
 20
-73.4032
 30
0.0
 10
29.2496
 20
-74.0918
 30
0.0
 10
39.9109
 20
-80.1294
 30
0.0
 10
39.9109
 20
-80.1294
 30
0.0
 10
42.0939
 20
-81.3656
 30
0.0
 10
50.1397
 20
-87.7115
 30
0.0
 10
50.4071
 20
-90.276
 30
0.0
 10
50.4071
 20
-90.276
 30
0.0
 10
50.1201
 20
-90.2385
 30
0.0
 10
46.4423
 20
-87.7701
 30
0.0
 10
45.4625
 20
-87.2457
 30
0.0
 10
45.4625
 20
-87.2457
 30
0.0
 10
41.9915
 20
-85.388
 30
0.0
 10
40.7052
 20
-84.9533
 30
0.0
 10
37.123
 20
-83.6088
 30
0.0
 10
37.123
 20
-83.6088
 30
0.0
 10
35.0529
 20
-82.8318
 30
0.0
 10
29.8659
 20
-81.454
 30
0.0
 10
27.7934
 20
-81.0933
 30
0.0
 10
27.7934
 20
-81.0933
 30
0.0
 10
13.6371
 20
-78.6288
 30
0.0
 10
-2.5661
 20
-78.7804
 30
0.0
 10
-17.1117
 20
-78.2744
 30
0.0
 10
-17.1117
 20
-78.2744
 30
0.0
 10
-23.2353
 20
-78.0615
 30
0.0
 10
-31.4208
 20
-77.0151
 30
0.0
 10
-37.1219
 20
-74.4484
 30
0.0
 10
-37.1219
 20
-74.4484
 30
0.0
 10
-41.1523
 20
-72.6336
 30
0.0
 10
-43.6629
 20
-71.2361
 30
0.0
 10
-46.4374
 20
-67.8589
 30
0.0
 10
-46.4374
 20
-67.8589
 30
0.0
 10
-46.9167
 20
-67.2755
 30
0.0
 10
-49.4079
 20
-63.4734
 30
0.0
 10
-49.0223
 20
-62.8398
 30
0.0
 10
-49.0223
 20
-62.8398
 30
0.0
 10
-44.6284
 20
-65.9236
 30
0.0
 10
-29.0025
 20
-72.5953
 30
0.0
 10
-24.8383
 20
-71.8189
 30
0.0
 10
-24.8383
 20
-71.8189
 30
0.0
 10
-25.0393
 20
-71.3838
 30
0.0
 10
-32.4293
 20
-68.3492
 30
0.0
 10
-33.3692
 20
-67.937
 30
0.0
 10
-33.3692
 20
-67.937
 30
0.0
 10
-37.5525
 20
-66.1229
 30
0.0
 10
-40.8669
 20
-64.3884
 30
0.0
 10
-44.6994
 20
-61.9755
 30
0.0
 10
-44.6994
 20
-61.9755
 30
0.0
 10
-47.5573
 20
-60.1757
 30
0.0
 10
-50.0989
 20
-57.5945
 30
0.0
 10
-51.7771
 20
-54.6516
 30
0.0
 10
-51.7771
 20
-54.6516
 30
0.0
 10
-55.3117
 20
-48.4539
 30
0.0
 10
-55.2883
 20
-43.961
 30
0.0
 10
-54.6694
 20
-37.1347
 30
0.0
 10
-54.6694
 20
-37.1347
 30
0.0
 10
-54.277
 20
-32.806
 30
0.0
 10
-52.7783
 20
-28.6267
 30
0.0
 10
-51.3729
 20
-24.5383
 30
0.0
 10
-51.3729
 20
-24.5383
 30
0.0
 10
-46.6671
 20
-13.235
 30
0.0
 10
-44.0381
 20
-9.9216
 30
0.0
 10
-37.7544
 20
-1.1758
 30
0.0
 10
-37.7544
 20
-1.1758
 30
0.0
 10
-34.7608
 20
2.9908
 30
0.0
 10
-31.9075
 20
6.6181
 30
0.0
 10
-28.8261
 20
10.9805
 30
0.0
 10
-28.8261
 20
10.9805
 30
0.0
 10
-27.3797
 20
13.0281
 30
0.0
 10
-25.9425
 20
14.9802
 30
0.0
 10
-24.6392
 20
17.2831
 30
0.0
 10
-24.6392
 20
17.2831
 30
0.0
 10
-23.0475
 20
20.0955
 30
0.0
 10
-23.1976
 20
20.1564
 30
0.0
 10
-22.0631
 20
22.6488
 30
0.0
 10
-22.0631
 20
22.6488
 30
0.0
 10
-20.9398
 20
25.116
 30
0.0
 10
-18.1545
 20
41.7869
 30
0.0
 10
-19.5953
 20
41.7817
 30
0.0
 10
-19.5953
 20
41.7817
 30
0.0
 10
-19.8307
 20
40.0929
 30
0.0
 10
-19.9575
 20
37.7867
 30
0.0
 10
-20.2687
 20
35.9309
 30
0.0
 10
-20.2687
 20
35.9309
 30
0.0
 10
-20.5717
 20
34.2194
 30
0.0
 10
-20.9191
 20
32.6377
 30
0.0
 10
-21.2665
 20
30.9628
 30
0.0
 10
-21.2665
 20
30.9628
 30
0.0
 10
-23.1305
 20
21.9729
 30
0.0
 10
-27.6525
 20
17.7105
 30
0.0
 10
-32.8143
 20
10.8183
 30
0.0
 10
-32.8143
 20
10.8183
 30
0.0
 10
-35.4131
 20
7.5886
 30
0.0
 10
-38.0723
 20
4.4066
 30
0.0
 10
-40.686
 20
1.1808
 30
0.0
 10
-40.686
 20
1.1808
 30
0.0
 10
-43.82
 20
-2.5468
 30
0.0
 10
-46.1674
 20
-6.0816
 30
0.0
 10
-48.8632
 20
-9.9987
 30
0.0
 10
-48.8632
 20
-9.9987
 30
0.0
 10
-48.8632
 20
-9.9987
 30
0.0
 10
-51.3131
 20
-13.9977
 30
0.0
 10
-51.3131
 20
-13.9977
 30
0.0
 10
-51.3131
 20
-13.9977
 30
0.0
 10
-52.0118
 20
-15.4067
 30
0.0
 10
-52.8446
 20
-16.747
 30
0.0
 10
-53.5499
 20
-18.2197
 30
0.0
 10
-53.5499
 20
-18.2197
 30
0.0
 10
-54.8812
 20
-21.0001
 30
0.0
 10
-55.3929
 20
-22.3449
 30
0.0
 10
-56.4147
 20
-25.1387
 30
0.0
 10
-56.4147
 20
-25.1387
 30
0.0
 10
-56.4147
 20
-25.1387
 30
0.0
 10
-57.2229
 20
-27.5509
 30
0.0
 10
-57.2229
 20
-27.5509
 30
0.0
 10
-57.2229
 20
-27.5509
 30
0.0
 10
-59.3815
 20
-33.9559
 30
0.0
 10
-60.2734
 20
-43.5835
 30
0.0
 10
-58.1528
 20
-49.9691
 30
0.0
 10
-58.1528
 20
-49.9691
 30
0.0
 10
-57.8055
 20
-51.0148
 30
0.0
 10
-56.7878
 20
-53.587
 30
0.0
 10
-56.2357
 20
-54.5008
 30
0.0
 10
-56.2357
 20
-54.5008
 30
0.0
 10
-54.7665
 20
-56.9329
 30
0.0
 10
-54.0003
 20
-58.1419
 30
0.0
 10
-52.1463
 20
-60.0885
 30
0.0
 10
-52.1463
 20
-60.0885
 30
0.0
 10
-51.2698
 20
-61.0087
 30
0.0
 10
-51.4089
 20
-60.6219
 30
0.0
 10
-50.9124
 20
-62.0852
 30
0.0
 10
-50.9124
 20
-62.0852
 30
0.0
 10
-50.3304
 20
-63.7993
 30
0.0
 10
-49.9036
 20
-65.2286
 30
0.0
 10
-49.2119
 20
-66.9434
 30
0.0
 10
-49.2119
 20
-66.9434
 30
0.0
 10
-47.6214
 20
-70.8866
 30
0.0
 10
-43.642
 20
-74.8839
 30
0.0
 10
-39.8945
 20
-76.9871
 30
0.0
 10
-39.8945
 20
-76.9871
 30
0.0
 10
-33.16
 20
-80.7666
 30
0.0
 10
-27.5857
 20
-81.7621
 30
0.0
 10
-20.2157
 20
-83.1124
 30
0.0
 10
-20.2157
 20
-83.1124
 30
0.0
 10
-15.2144
 20
-84.0275
 30
0.0
 10
-7.6765
 20
-84.3917
 30
0.0
 10
-2.2569
 20
-84.5901
 30
0.0
 10
-2.2569
 20
-84.5901
 30
0.0
 10
1.7792
 20
-84.7377
 30
0.0
 10
6.167
 20
-84.7679
 30
0.0
 10
10.1496
 20
-85.0478
 30
0.0
 10
10.1496
 20
-85.0478
 30
0.0
 10
12.5577
 20
-85.217
 30
0.0
 10
26.8213
 20
-86.0518
 30
0.0
 10
27.7482
 20
-86.8067
 30
0.0
 10
27.7482
 20
-86.8067
 30
0.0
 10
27.1822
 20
-87.2009
 30
0.0
 10
25.7717
 20
-86.9072
 30
0.0
 10
25.1579
 20
-86.8505
 30
0.0
 10
25.1579
 20
-86.8505
 30
0.0
 10
20.1737
 20
-86.3898
 30
0.0
 10
12.4674
 20
-87.2332
 30
0.0
 10
7.6696
 20
-87.8505
 30
0.0
 10
7.6696
 20
-87.8505
 30
0.0
 10
7.6696
 20
-87.8505
 30
0.0
 10
-6.528
 20
-89.9075
 30
0.0
 10
-6.528
 20
-89.9075
 30
0.0
 10
-6.528
 20
-89.9075
 30
0.0
 10
-13.914
 20
-91.6302
 30
0.0
 10
-28.1006
 20
-92.3144
 30
0.0
 10
-34.5311
 20
-88.9071
 30
0.0
 10
-34.5311
 20
-88.9071
 30
0.0
 10
-36.1828
 20
-88.0319
 30
0.0
 10
-39.8917
 20
-84.3831
 30
0.0
 10
-39.9082
 20
-84.3777
 30
0.0
 10
-39.9082
 20
-84.3777
 30
0.0
 10
-39.983
 20
-87.9413
 30
0.0
 10
-34.209
 20
-92.6996
 30
0.0
 10
-31.1343
 20
-94.023
 30
0.0
 10
-31.1343
 20
-94.023
 30
0.0
 10
-24.4388
 20
-96.9053
 30
0.0
 10
-12.913
 20
-96.0324
 30
0.0
 10
-5.9404
 20
-94.8622
 30
0.0
 10
-5.9404
 20
-94.8622
 30
0.0
 10
-0.272
 20
-93.9115
 30
0.0
 10
4.9831
 20
-92.6059
 30
0.0
 10
10.5443
 20
-91.4164
 30
0.0
 10
10.5443
 20
-91.4164
 30
0.0
 10
16.3623
 20
-90.1719
 30
0.0
 10
21.4458
 20
-88.9914
 30
0.0
 10
27.4156
 20
-88.4951
 30
0.0
 10
27.4156
 20
-88.4951
 30
0.0
 10
28.3384
 20
-88.4183
 30
0.0
 10
32.4269
 20
-88.7307
 30
0.0
 10
32.7779
 20
-88.4198
 30
0.0
 10
32.7779
 20
-88.4198
 30
0.0
 10
31.8735
 20
-87.6471
 30
0.0
 10
28.5035
 20
-87.6448
 30
0.0
 10
28.4189
 20
-87.0701
 30
0.0
 10
28.4189
 20
-87.0701
 30
0.0
 10
29.9512
 20
-86.5339
 30
0.0
 10
38.6573
 20
-89.3268
 30
0.0
 10
40.3812
 20
-90.0188
 30
0.0
 10
40.3812
 20
-90.0188
 30
0.0
 10
45.0847
 20
-91.9071
 30
0.0
 10
49.4836
 20
-93.9796
 30
0.0
 10
53.4162
 20
-97.2661
 30
0.0
 10
53.4162
 20
-97.2661
 30
0.0
 10
54.4836
 20
-98.1582
 30
0.0
 10
57.4648
 20
-101.236
 30
0.0
 10
58.3397
 20
-102.3719
 30
0.0
 10
58.3397
 20
-102.3719
 30
0.0
 10
59.0988
 20
-103.3589
 30
0.0
 10
60.5174
 20
-105.9915
 30
0.0
 10
61.2748
 20
-106.4719
 30
0.0
 10
61.2748
 20
-106.4719
 30
0.0
 10
60.6819
 20
-102.1436
 30
0.0
 10
57.3289
 20
-98.8285
 30
0.0
 10
55.3603
 20
-95.3383
 30
0.0
 10
55.3603
 20
-95.3383
 30
0.0
 10
55.1275
 20
-94.924
 30
0.0
 10
55.392
 20
-91.9731
 30
0.0
 10
55.3521
 20
-91.1851
 30
0.0
 10
55.3521
 20
-91.1851
 30
0.0
 10
55.1984
 20
-88.1496
 30
0.0
 10
55.0074
 20
-86.0825
 30
0.0
 10
54.353
 20
-83.3348
 30
0.0
 10
54.353
 20
-83.3348
 30
0.0
 10
52.1314
 20
-74.0061
 30
0.0
 10
47.1958
 20
-67.7013
 30
0.0
 10
40.5898
 20
-61.588
 30
0.0
 10
40.5898
 20
-61.588
 30
0.0
 10
39.1299
 20
-60.2369
 30
0.0
 10
37.3632
 20
-58.9196
 30
0.0
 10
35.6687
 20
-57.6373
 30
0.0
 10
35.6687
 20
-57.6373
 30
0.0
 10
31.1062
 20
-54.1848
 30
0.0
 10
32.6705
 20
-56.608
 30
0.0
 10
31.7562
 20
-52.668
 30
0.0
 10
31.7562
 20
-52.668
 30
0.0
 10
31.7562
 20
-52.668
 30
0.0
 10
29.9279
 20
-44.481
 30
0.0
 10
29.9279
 20
-44.481
 30
0.0
 10
29.9279
 20
-44.481
 30
0.0
 10
29.1774
 20
-41.5155
 30
0.0
 10
28.5182
 20
-38.4377
 30
0.0
 10
27.7872
 20
-35.4469
 30
0.0
 10
27.7872
 20
-35.4469
 30
0.0
 10
26.6744
 20
-31.3665
 30
0.0
 10
24.8724
 20
-24.9847
 30
0.0
 10
23.2888
 20
-21.16
 30
0.0
 10
23.2888
 20
-21.16
 30
0.0
 10
22.8623
 20
-20.1299
 30
0.0
 10
22.4509
 20
-19.1437
 30
0.0
 10
21.9457
 20
-18.1298
 30
0.0
 10
21.9457
 20
-18.1298
 30
0.0
 10
20.5733
 20
-15.376
 30
0.0
 10
20.5504
 20
-15.1319
 30
0.0
 10
18.8081
 20
-12.4018
 30
0.0
 10
18.8081
 20
-12.4018
 30
0.0
 10
17.5563
 20
-10.4403
 30
0.0
 10
16.3956
 20
-9.0827
 30
0.0
 10
14.8546
 20
-7.4775
 30
0.0
 10
14.8546
 20
-7.4775
 30
0.0
 10
13.8683
 20
-6.4502
 30
0.0
 10
9.4416
 20
-3.1894
 30
0.0
 10
9.2846
 20
-2.8549
 30
0.0
 10
9.2846
 20
-2.8549
 30
0.0
 10
9.8563
 20
-2.9119
 30
0.0
 10
12.4342
 20
-3.9654
 30
0.0
 10
13.3199
 20
-4.2849
 30
0.0
 10
13.3199
 20
-4.2849
 30
0.0
 10
15.1876
 20
-4.9583
 30
0.0
 10
19.5573
 20
-5.992
 30
0.0
 10
21.4415
 20
-5.3854
 30
0.0
 10
21.4415
 20
-5.3854
 30
0.0
 10
8.1791
 20
-0.1397
 30
0.0
 10
6.3155
 20
-2.1899
 30
0.0
 10
-4.7754
 20
9.5289
 30
0.0
  0
SPLINE
  5
78
330
1F
100
AcDbEntity
  8
layer 1
100
AcDbSpline
210
0.0
220
0.0
230
1.0
 70
    11
 71
     3
 72
    56
 73
    52
 74
     0
 42
0.000000001
 43
0.0000000001
 40
0.0
 40
0.0
 40
0.0
 40
0.0
 40
0.0714285714285714
 40
0.0714285714285714
 40
0.0714285714285714
 40
0.0714285714285714
 40
0.1428571428571428
 40
0.1428571428571428
 40
0.1428571428571428
 40
0.1428571428571428
 40
0.2142857142857143
 40
0.2142857142857143
 40
0.2142857142857143
 40
0.2142857142857143
 40
0.2857142857142857
 40
0.2857142857142857
 40
0.2857142857142857
 40
0.2857142857142857
 40
0.3571428571428572
 40
0.3571428571428572
 40
0.3571428571428572
 40
0.3571428571428572
 40
0.4285714285714285
 40
0.4285714285714285
 40
0.4285714285714285
 40
0.4285714285714285
 40
0.5
 40
0.5
 40
0.5
 40
0.5
 40
0.5714285714285714
 40
0.5714285714285714
 40
0.5714285714285714
 40
0.5714285714285714
 40
0.6428571428571429
 40
0.6428571428571429
 40
0.6428571428571429
 40
0.6428571428571429
 40
0.7142857142857143
 40
0.7142857142857143
 40
0.7142857142857143
 40
0.7142857142857143
 40
0.7857142857142857
 40
0.7857142857142857
 40
0.7857142857142857
 40
0.7857142857142857
 40
0.8571428571428571
 40
0.8571428571428571
 40
0.8571428571428571
 40
0.8571428571428571
 40
1.0
 40
1.0
 40
1.0
 40
1.0
 10
10.5562
 20
-50.6092
 30
0.0
 10
25.043
 20
-54.4648
 30
0.0
 10
33.8491
 20
-59.7621
 30
0.0
 10
42.7905
 20
-68.9501
 30
0.0
 10
42.7905
 20
-68.9501
 30
0.0
 10
46.137
 20
-72.3881
 30
0.0
 10
49.24
 20
-76.3517
 30
0.0
 10
51.4907
 20
-81.1036
 30
0.0
 10
51.4907
 20
-81.1036
 30
0.0
 10
52.5803
 20
-83.4042
 30
0.0
 10
54.1869
 20
-88.0077
 30
0.0
 10
54.4815
 20
-90.6372
 30
0.0
 10
54.4815
 20
-90.6372
 30
0.0
 10
54.5915
 20
-91.6185
 30
0.0
 10
54.9851
 20
-93.577
 30
0.0
 10
54.7586
 20
-94.5091
 30
0.0
 10
54.7586
 20
-94.5091
 30
0.0
 10
54.3531
 20
-89.7797
 30
0.0
 10
51.7935
 20
-82.8284
 30
0.0
 10
50.031
 20
-79.6804
 30
0.0
 10
50.031
 20
-79.6804
 30
0.0
 10
46.8318
 20
-73.9666
 30
0.0
 10
41.2331
 20
-69.5219
 30
0.0
 10
35.533
 20
-66.4195
 30
0.0
 10
35.533
 20
-66.4195
 30
0.0
 10
33.7012
 20
-65.4225
 30
0.0
 10
34.4796
 20
-65.6648
 30
0.0
 10
33.6086
 20
-64.4213
 30
0.0
 10
33.6086
 20
-64.4213
 30
0.0
 10
31.538
 20
-61.4647
 30
0.0
 10
29.2853
 20
-59.8031
 30
0.0
 10
26.4318
 20
-57.777
 30
0.0
 10
26.4318
 20
-57.777
 30
0.0
 10
21.6711
 20
-55.1925
 30
0.0
 10
18.8519
 20
-54.2379
 30
0.0
 10
13.6342
 20
-52.7021
 30
0.0
 10
13.6342
 20
-52.7021
 30
0.0
 10
9.8368
 20
-51.5841
 30
0.0
 10
2.8432
 20
-51.125
 30
0.0
 10
-1.4587
 20
-50.8955
 30
0.0
 10
-1.4587
 20
-50.8955
 30
0.0
 10
-5.5636
 20
-50.6764
 30
0.0
 10
-4.4426
 20
-51.2047
 30
0.0
 10
-5.9175
 20
-49.5703
 30
0.0
 10
-5.9175
 20
-49.5703
 30
0.0
 10
-8.9138
 20
-46.2511
 30
0.0
 10
-15.3834
 20
-43.9335
 30
0.0
 10
-15.7815
 20
-43.483
 30
0.0
 10
-15.7815
 20
-43.483
 30
0.0
 10
-14.8559
 20
-42.8804
 30
0.0
 10
8.2064
 20
-49.6894
 30
0.0
 10
10.5562
 20
-50.6092
 30
0.0
  0
SPLINE
  5
79
330
1F
100
AcDbEntity
  8
layer 1
100
AcDbSpline
210
0.0
220
0.0
230
1.0
 70
    11
 71
     3
 72
   324
 73
   320
 74
     0
 42
0.000000001
 43
0.0000000001
 40
0.0
 40
0.0
 40
0.0
 40
0.0
 40
0.0123456790123457
 40
0.0123456790123457
 40
0.0123456790123457
 40
0.0123456790123457
 40
0.0246913580246914
 40
0.0246913580246914
 40
0.0246913580246914
 40
0.0246913580246914
 40
0.037037037037037
 40
0.037037037037037
 40
0.037037037037037
 40
0.037037037037037
 40
0.0493827160493827
 40
0.0493827160493827
 40
0.0493827160493827
 40
0.0493827160493827
 40
0.0617283950617284
 40
0.0617283950617284
 40
0.0617283950617284
 40
0.0617283950617284
 40
0.0740740740740741
 40
0.0740740740740741
 40
0.0740740740740741
 40
0.0740740740740741
 40
0.0864197530864197
 40
0.0864197530864197
 40
0.0864197530864197
 40
0.0864197530864197
 40
0.0987654320987654
 40
0.0987654320987654
 40
0.0987654320987654
 40
0.0987654320987654
 40
0.1111111111111111
 40
0.1111111111111111
 40
0.1111111111111111
 40
0.1111111111111111
 40
0.1234567901234568
 40
0.1234567901234568
 40
0.1234567901234568
 40
0.1234567901234568
 40
0.1358024691358025
 40
0.1358024691358025
 40
0.1358024691358025
 40
0.1358024691358025
 40
0.1481481481481481
 40
0.1481481481481481
 40
0.1481481481481481
 40
0.1481481481481481
 40
0.1604938271604938
 40
0.1604938271604938
 40
0.1604938271604938
 40
0.1604938271604938
 40
0.1728395061728395
 40
0.1728395061728395
 40
0.1728395061728395
 40
0.1728395061728395
 40
0.1851851851851852
 40
0.1851851851851852
 40
0.1851851851851852
 40
0.1851851851851852
 40
0.1975308641975309
 40
0.1975308641975309
 40
0.1975308641975309
 40
0.1975308641975309
 40
0.2098765432098765
 40
0.2098765432098765
 40
0.2098765432098765
 40
0.2098765432098765
 40
0.2222222222222222
 40
0.2222222222222222
 40
0.2222222222222222
 40
0.2222222222222222
 40
0.2345679012345679
 40
0.2345679012345679
 40
0.2345679012345679
 40
0.2345679012345679
 40
0.2469135802469136
 40
0.2469135802469136
 40
0.2469135802469136
 40
0.2469135802469136
 40
0.2592592592592592
 40
0.2592592592592592
 40
0.2592592592592592
 40
0.2592592592592592
 40
0.2716049382716049
 40
0.2716049382716049
 40
0.2716049382716049
 40
0.2716049382716049
 40
0.2839506172839506
 40
0.2839506172839506
 40
0.2839506172839506
 40
0.2839506172839506
 40
0.2962962962962963
 40
0.2962962962962963
 40
0.2962962962962963
 40
0.2962962962962963
 40
0.308641975308642
 40
0.308641975308642
 40
0.308641975308642
 40
0.308641975308642
 40
0.3209876543209876
 40
0.3209876543209876
 40
0.3209876543209876
 40
0.3209876543209876
 40
0.3333333333333333
 40
0.3333333333333333
 40
0.3333333333333333
 40
0.3333333333333333
 40
0.345679012345679
 40
0.345679012345679
 40
0.345679012345679
 40
0.345679012345679
 40
0.3580246913580247
 40
0.3580246913580247
 40
0.3580246913580247
 40
0.3580246913580247
 40
0.3703703703703703
 40
0.3703703703703703
 40
0.3703703703703703
 40
0.3703703703703703
 40
0.382716049382716
 40
0.382716049382716
 40
0.382716049382716
 40
0.382716049382716
 40
0.3950617283950617
 40
0.3950617283950617
 40
0.3950617283950617
 40
0.3950617283950617
 40
0.4074074074074074
 40
0.4074074074074074
 40
0.4074074074074074
 40
0.4074074074074074
 40
0.4197530864197531
 40
0.4197530864197531
 40
0.4197530864197531
 40
0.4197530864197531
 40
0.4320987654320987
 40
0.4320987654320987
 40
0.4320987654320987
 40
0.4320987654320987
 40
0.4444444444444444
 40
0.4444444444444444
 40
0.4444444444444444
 40
0.4444444444444444
 40
0.4567901234567901
 40
0.4567901234567901
 40
0.4567901234567901
 40
0.4567901234567901
 40
0.4691358024691358
 40
0.4691358024691358
 40
0.4691358024691358
 40
0.4691358024691358
 40
0.4814814814814815
 40
0.4814814814814815
 40
0.4814814814814815
 40
0.4814814814814815
 40
0.4938271604938271
 40
0.4938271604938271
 40
0.4938271604938271
 40
0.4938271604938271
 40
0.5061728395061729
 40
0.5061728395061729
 40
0.5061728395061729
 40
0.5061728395061729
 40
0.5185185185185185
 40
0.5185185185185185
 40
0.5185185185185185
 40
0.5185185185185185
 40
0.5308641975308642
 40
0.5308641975308642
 40
0.5308641975308642
 40
0.5308641975308642
 40
0.5432098765432098
 40
0.5432098765432098
 40
0.5432098765432098
 40
0.5432098765432098
 40
0.5555555555555556
 40
0.5555555555555556
 40
0.5555555555555556
 40
0.5555555555555556
 40
0.5679012345679012
 40
0.5679012345679012
 40
0.5679012345679012
 40
0.5679012345679012
 40
0.5802469135802469
 40
0.5802469135802469
 40
0.5802469135802469
 40
0.5802469135802469
 40
0.5925925925925926
 40
0.5925925925925926
 40
0.5925925925925926
 40
0.5925925925925926
 40
0.6049382716049383
 40
0.6049382716049383
 40
0.6049382716049383
 40
0.6049382716049383
 40
0.6172839506172839
 40
0.6172839506172839
 40
0.6172839506172839
 40
0.6172839506172839
 40
0.6296296296296297
 40
0.6296296296296297
 40
0.6296296296296297
 40
0.6296296296296297
 40
0.6419753086419753
 40
0.6419753086419753
 40
0.6419753086419753
 40
0.6419753086419753
 40
0.654320987654321
 40
0.654320987654321
 40
0.654320987654321
 40
0.654320987654321
 40
0.6666666666666666
 40
0.6666666666666666
 40
0.6666666666666666
 40
0.6666666666666666
 40
0.6790123456790124
 40
0.6790123456790124
 40
0.6790123456790124
 40
0.6790123456790124
 40
0.691358024691358
 40
0.691358024691358
 40
0.691358024691358
 40
0.691358024691358
 40
0.7037037037037037
 40
0.7037037037037037
 40
0.7037037037037037
 40
0.7037037037037037
 40
0.7160493827160493
 40
0.7160493827160493
 40
0.7160493827160493
 40
0.7160493827160493
 40
0.7283950617283951
 40
0.7283950617283951
 40
0.7283950617283951
 40
0.7283950617283951
 40
0.7407407407407407
 40
0.7407407407407407
 40
0.7407407407407407
 40
0.7407407407407407
 40
0.7530864197530864
 40
0.7530864197530864
 40
0.7530864197530864
 40
0.7530864197530864
 40
0.7654320987654321
 40
0.7654320987654321
 40
0.7654320987654321
 40
0.7654320987654321
 40
0.7777777777777778
 40
0.7777777777777778
 40
0.7777777777777778
 40
0.7777777777777778
 40
0.7901234567901234
 40
0.7901234567901234
 40
0.7901234567901234
 40
0.7901234567901234
 40
0.8024691358024691
 40
0.8024691358024691
 40
0.8024691358024691
 40
0.8024691358024691
 40
0.8148148148148148
 40
0.8148148148148148
 40
0.8148148148148148
 40
0.8148148148148148
 40
0.8271604938271605
 40
0.8271604938271605
 40
0.8271604938271605
 40
0.8271604938271605
 40
0.8395061728395061
 40
0.8395061728395061
 40
0.8395061728395061
 40
0.8395061728395061
 40
0.8518518518518519
 40
0.8518518518518519
 40
0.8518518518518519
 40
0.8518518518518519
 40
0.8641975308641975
 40
0.8641975308641975
 40
0.8641975308641975
 40
0.8641975308641975
 40
0.8765432098765432
 40
0.8765432098765432
 40
0.8765432098765432
 40
0.8765432098765432
 40
0.8888888888888888
 40
0.8888888888888888
 40
0.8888888888888888
 40
0.8888888888888888
 40
0.9012345679012346
 40
0.9012345679012346
 40
0.9012345679012346
 40
0.9012345679012346
 40
0.9135802469135802
 40
0.9135802469135802
 40
0.9135802469135802
 40
0.9135802469135802
 40
0.9259259259259259
 40
0.9259259259259259
 40
0.9259259259259259
 40
0.9259259259259259
 40
0.9382716049382716
 40
0.9382716049382716
 40
0.9382716049382716
 40
0.9382716049382716
 40
0.9506172839506173
 40
0.9506172839506173
 40
0.9506172839506173
 40
0.9506172839506173
 40
0.9629629629629629
 40
0.9629629629629629
 40
0.9629629629629629
 40
0.9629629629629629
 40
0.9753086419753086
 40
0.9753086419753086
 40
0.9753086419753086
 40
0.9753086419753086
 40
1.0
 40
1.0
 40
1.0
 40
1.0
 10
-65.8312
 20
-37.7346
 30
0.0
 10
-65.5708
 20
-34.755
 30
0.0
 10
-64.7567
 20
-31.6473
 30
0.0
 10
-63.9171
 20
-28.9193
 30
0.0
 10
-63.9171
 20
-28.9193
 30
0.0
 10
-60.9094
 20
-19.1449
 30
0.0
 10
-54.387
 20
-12.1865
 30
0.0
 10
-47.4017
 20
-5.3524
 30
0.0
 10
-47.4017
 20
-5.3524
 30
0.0
 10
-43.8298
 20
-1.8579
 30
0.0
 10
-41.7137
 20
0.5369
 30
0.0
 10
-38.7992
 20
4.71
 30
0.0
 10
-38.7992
 20
4.71
 30
0.0
 10
-38.3323
 20
5.3787
 30
0.0
 10
-36.8515
 20
7.6168
 30
0.0
 10
-36.8245
 20
8.3822
 30
0.0
 10
-36.8245
 20
8.3822
 30
0.0
 10
-37.3987
 20
8.3813
 30
0.0
 10
-39.9991
 20
4.4874
 30
0.0
 10
-40.7245
 20
3.7544
 30
0.0
 10
-40.7245
 20
3.7544
 30
0.0
 10
-42.2796
 20
2.183
 30
0.0
 10
-42.9611
 20
1.2938
 30
0.0
 10
-44.8238
 20
-0.3257
 30
0.0
 10
-44.8238
 20
-0.3257
 30
0.0
 10
-45.1855
 20
-0.6402
 30
0.0
 10
-45.5219
 20
-1.0067
 30
0.0
 10
-45.8813
 20
-1.3432
 30
0.0
 10
-45.8813
 20
-1.3432
 30
0.0
 10
-47.4676
 20
-2.8282
 30
0.0
 10
-50.8555
 20
-5.4962
 30
0.0
 10
-52.5801
 20
-6.9708
 30
0.0
 10
-52.5801
 20
-6.9708
 30
0.0
 10
-54.4651
 20
-8.5824
 30
0.0
 10
-55.9242
 20
-10.1784
 30
0.0
 10
-57.7757
 20
-11.9139
 30
0.0
 10
-57.7757
 20
-11.9139
 30
0.0
 10
-59.2051
 20
-13.254
 30
0.0
 10
-60.3702
 20
-14.7923
 30
0.0
 10
-61.5868
 20
-16.2832
 30
0.0
 10
-61.5868
 20
-16.2832
 30
0.0
 10
-62.8082
 20
-17.78
 30
0.0
 10
-63.9133
 20
-19.3828
 30
0.0
 10
-64.9467
 20
-21.1065
 30
0.0
 10
-64.9467
 20
-21.1065
 30
0.0
 10
-65.9859
 20
-22.8402
 30
0.0
 10
-66.7706
 20
-24.7718
 30
0.0
 10
-67.5697
 20
-26.6261
 30
0.0
 10
-67.5697
 20
-26.6261
 30
0.0
 10
-69.0031
 20
-24.2364
 30
0.0
 10
-68.3086
 20
-17.02
 30
0.0
 10
-67.0192
 20
-14.3087
 30
0.0
 10
-67.0192
 20
-14.3087
 30
0.0
 10
-63.1622
 20
-6.1978
 30
0.0
 10
-54.0977
 20
-1.4007
 30
0.0
 10
-46.6619
 20
3.1268
 30
0.0
 10
-46.6619
 20
3.1268
 30
0.0
 10
-46.6619
 20
3.1268
 30
0.0
 10
-38.0398
 20
8.3318
 30
0.0
 10
-38.0398
 20
8.3318
 30
0.0
 10
-38.0398
 20
8.3318
 30
0.0
 10
-36.1891
 20
9.5086
 30
0.0
 10
-34.0986
 20
11.1175
 30
0.0
 10
-32.6098
 20
12.6919
 30
0.0
 10
-32.6098
 20
12.6919
 30
0.0
 10
-31.5435
 20
13.8196
 30
0.0
 10
-30.6648
 20
14.7001
 30
0.0
 10
-29.6312
 20
16.0495
 30
0.0
 10
-29.6312
 20
16.0495
 30
0.0
 10
-28.0507
 20
18.1129
 30
0.0
 10
-27.1567
 20
19.4558
 30
0.0
 10
-25.988
 20
21.8575
 30
0.0
 10
-25.988
 20
21.8575
 30
0.0
 10
-25.6627
 20
22.5261
 30
0.0
 10
-23.8034
 20
26.0256
 30
0.0
 10
-24.3819
 20
26.4676
 30
0.0
 10
-24.3819
 20
26.4676
 30
0.0
 10
-24.616
 20
25.7988
 30
0.0
 10
-24.837
 20
25.1174
 30
0.0
 10
-25.1882
 20
24.4989
 30
0.0
 10
-25.1882
 20
24.4989
 30
0.0
 10
-25.193
 20
24.4946
 30
0.0
 10
-26.0048
 20
22.8976
 30
0.0
 10
-26.0846
 20
22.7549
 30
0.0
 10
-26.0846
 20
22.7549
 30
0.0
 10
-26.4419
 20
22.1153
 30
0.0
 10
-26.7474
 20
21.5522
 30
0.0
 10
-27.1577
 20
20.95
 30
0.0
 10
-27.1577
 20
20.95
 30
0.0
 10
-30.3978
 20
16.194
 30
0.0
 10
-33.6937
 20
12.6349
 30
0.0
 10
-38.6829
 20
9.5458
 30
0.0
 10
-38.6829
 20
9.5458
 30
0.0
 10
-38.6829
 20
9.5458
 30
0.0
 10
-44.0909
 20
6.3135
 30
0.0
 10
-44.0909
 20
6.3135
 30
0.0
 10
-44.0909
 20
6.3135
 30
0.0
 10
-46.796
 20
4.8824
 30
0.0
 10
-53.6602
 20
0.5752
 30
0.0
 10
-56.4525
 20
-1.3711
 30
0.0
 10
-56.4525
 20
-1.3711
 30
0.0
 10
-58.7512
 20
-2.9733
 30
0.0
 10
-60.9636
 20
-4.6788
 30
0.0
 10
-62.7162
 20
-6.6267
 30
0.0
 10
-62.7162
 20
-6.6267
 30
0.0
 10
-63.2049
 20
-7.1699
 30
0.0
 10
-63.6715
 20
-7.524
 30
0.0
 10
-64.117
 20
-8.1069
 30
0.0
 10
-64.117
 20
-8.1069
 30
0.0
 10
-64.117
 20
-8.1069
 30
0.0
 10
-65.9232
 20
-10.5644
 30
0.0
 10
-65.9232
 20
-10.5644
 30
0.0
 10
-65.9232
 20
-10.5644
 30
0.0
 10
-71.3917
 20
-20.1329
 30
0.0
 10
-67.7796
 20
-25.1933
 30
0.0
 10
-68.3101
 20
-28.7933
 30
0.0
 10
-68.3101
 20
-28.7933
 30
0.0
 10
-69.7416
 20
-32.8668
 30
0.0
 10
-70.1424
 20
-37.206
 30
0.0
 10
-70.4106
 20
-41.4807
 30
0.0
 10
-70.4106
 20
-41.4807
 30
0.0
 10
-70.5258
 20
-43.3167
 30
0.0
 10
-70.2036
 20
-46.7528
 30
0.0
 10
-70.2677
 20
-47.127
 30
0.0
 10
-70.2677
 20
-47.127
 30
0.0
 10
-70.9795
 20
-46.8902
 30
0.0
 10
-72.5773
 20
-41.8128
 30
0.0
 10
-72.7712
 20
-41.209
 30
0.0
 10
-72.7712
 20
-41.209
 30
0.0
 10
-73.4181
 20
-39.1941
 30
0.0
 10
-73.9641
 20
-36.085
 30
0.0
 10
-74.0963
 20
-33.8193
 30
0.0
 10
-74.0963
 20
-33.8193
 30
0.0
 10
-74.5159
 20
-26.631
 30
0.0
 10
-73.0167
 20
-18.8266
 30
0.0
 10
-69.093
 20
-13.2697
 30
0.0
 10
-69.093
 20
-13.2697
 30
0.0
 10
-66.951
 20
-10.2359
 30
0.0
 10
-65.0978
 20
-7.6623
 30
0.0
 10
-62.3208
 20
-5.0639
 30
0.0
 10
-62.3208
 20
-5.0639
 30
0.0
 10
-60.9405
 20
-3.7725
 30
0.0
 10
-56.562
 20
0.1839
 30
0.0
 10
-55.4052
 20
0.9235
 30
0.0
 10
-55.4052
 20
0.9235
 30
0.0
 10
-55.4052
 20
0.9235
 30
0.0
 10
-51.7141
 20
3.6853
 30
0.0
 10
-51.7141
 20
3.6853
 30
0.0
 10
-51.7141
 20
3.6853
 30
0.0
 10
-50.0014
 20
4.8829
 30
0.0
 10
-48.3891
 20
6.07
 30
0.0
 10
-46.6366
 20
7.2479
 30
0.0
 10
-46.6366
 20
7.2479
 30
0.0
 10
-43.1562
 20
9.5873
 30
0.0
 10
-39.7032
 20
11.8939
 30
0.0
 10
-36.5948
 20
14.3728
 30
0.0
 10
-36.5948
 20
14.3728
 30
0.0
 10
-33.1236
 20
17.1412
 30
0.0
 10
-28.4159
 20
21.7141
 30
0.0
 10
-26.197
 20
25.4055
 30
0.0
 10
-26.197
 20
25.4055
 30
0.0
 10
-25.6214
 20
26.3633
 30
0.0
 10
-25.2419
 20
27.2494
 30
0.0
 10
-24.7047
 20
28.2921
 30
0.0
 10
-24.7047
 20
28.2921
 30
0.0
 10
-24.065
 20
29.5338
 30
0.0
 10
-22.047
 20
36.2607
 30
0.0
 10
-22.8716
 20
37.544
 30
0.0
 10
-22.8716
 20
37.544
 30
0.0
 10
-23.2123
 20
37.2927
 30
0.0
 10
-23.2026
 20
37.2975
 30
0.0
 10
-23.2583
 20
36.797
 30
0.0
 10
-23.2583
 20
36.797
 30
0.0
 10
-23.1769
 20
33.8683
 30
0.0
 10
-26.0854
 20
28.3408
 30
0.0
 10
-27.6368
 20
26.3842
 30
0.0
 10
-27.6368
 20
26.3842
 30
0.0
 10
-29.1521
 20
24.4731
 30
0.0
 10
-29.9659
 20
23.7375
 30
0.0
 10
-31.6253
 20
22.0753
 30
0.0
 10
-31.6253
 20
22.0753
 30
0.0
 10
-31.8818
 20
21.8183
 30
0.0
 10
-31.7992
 20
21.9371
 30
0.0
 10
-32.0828
 20
21.7255
 30
0.0
 10
-32.0828
 20
21.7255
 30
0.0
 10
-32.2927
 20
21.5689
 30
0.0
 10
-32.2728
 20
21.5474
 30
0.0
 10
-32.5094
 20
21.3473
 30
0.0
 10
-32.5094
 20
21.3473
 30
0.0
 10
-32.8068
 20
21.0959
 30
0.0
 10
-33.166
 20
20.8177
 30
0.0
 10
-33.4708
 20
20.581
 30
0.0
 10
-33.4708
 20
20.581
 30
0.0
 10
-34.0783
 20
20.1091
 30
0.0
 10
-34.634
 20
19.6367
 30
0.0
 10
-35.2679
 20
19.1528
 30
0.0
 10
-35.2679
 20
19.1528
 30
0.0
 10
-39.4574
 20
15.9536
 30
0.0
 10
-44.9223
 20
12.8523
 30
0.0
 10
-49.5128
 20
10.1272
 30
0.0
 10
-49.5128
 20
10.1272
 30
0.0
 10
-59.324
 20
4.3028
 30
0.0
 10
-72.4661
 20
-5.1464
 30
0.0
 10
-75.6812
 20
-16.7989
 30
0.0
 10
-75.6812
 20
-16.7989
 30
0.0
 10
-76.4128
 20
-19.4492
 30
0.0
 10
-76.4794
 20
-19.0822
 30
0.0
 10
-76.9604
 20
-22.1091
 30
0.0
 10
-76.9604
 20
-22.1091
 30
0.0
 10
-78.3631
 20
-30.9347
 30
0.0
 10
-76.9011
 20
-39.9101
 30
0.0
 10
-71.7358
 20
-47.306
 30
0.0
 10
-71.7358
 20
-47.306
 30
0.0
 10
-70.9968
 20
-48.3639
 30
0.0
 10
-69.8758
 20
-49.1598
 30
0.0
 10
-69.7673
 20
-50.279
 30
0.0
 10
-69.7673
 20
-50.279
 30
0.0
 10
-69.4841
 20
-53.1989
 30
0.0
 10
-67.7735
 20
-57.7082
 30
0.0
 10
-66.4706
 20
-60.2377
 30
0.0
 10
-66.4706
 20
-60.2377
 30
0.0
 10
-65.9584
 20
-61.232
 30
0.0
 10
-64.7836
 20
-62.7914
 30
0.0
 10
-64.6227
 20
-63.3493
 30
0.0
 10
-64.6227
 20
-63.3493
 30
0.0
 10
-64.0038
 20
-65.4934
 30
0.0
 10
-63.2683
 20
-67.2808
 30
0.0
 10
-62.2541
 20
-69.2786
 30
0.0
 10
-62.2541
 20
-69.2786
 30
0.0
 10
-61.865
 20
-70.0449
 30
0.0
 10
-61.4688
 20
-70.7042
 30
0.0
 10
-61.0186
 20
-71.3859
 30
0.0
 10
-61.0186
 20
-71.3859
 30
0.0
 10
-58.2012
 20
-75.6525
 30
0.0
 10
-55.4071
 20
-78.4853
 30
0.0
 10
-50.4661
 20
-80.754
 30
0.0
 10
-50.4661
 20
-80.754
 30
0.0
 10
-49.0887
 20
-81.3863
 30
0.0
 10
-47.1796
 20
-82.1962
 30
0.0
 10
-45.6316
 20
-82.6085
 30
0.0
 10
-45.6316
 20
-82.6085
 30
0.0
 10
-41.7162
 20
-83.6516
 30
0.0
 10
-37.5243
 20
-84.4372
 30
0.0
 10
-33.4657
 20
-84.5602
 30
0.0
 10
-33.4657
 20
-84.5602
 30
0.0
 10
-31.0881
 20
-84.6321
 30
0.0
 10
-28.76
 20
-84.8445
 30
0.0
 10
-26.3274
 20
-84.8821
 30
0.0
 10
-26.3274
 20
-84.8821
 30
0.0
 10
-23.9564
 20
-84.9187
 30
0.0
 10
-21.4831
 20
-84.9228
 30
0.0
 10
-19.084
 20
-85.0021
 30
0.0
 10
-19.084
 20
-85.0021
 30
0.0
 10
-17.8943
 20
-85.0414
 30
0.0
 10
-16.8456
 20
-85.1383
 30
0.0
 10
-15.7265
 20
-85.2761
 30
0.0
 10
-15.7265
 20
-85.2761
 30
0.0
 10
-11.8842
 20
-85.7922
 30
0.0
 10
-9.094
 20
-87.7664
 30
0.0
 10
-7.0686
 20
-88.1096
 30
0.0
 10
-7.0686
 20
-88.1096
 30
0.0
 10
-7.4308
 20
-87.1799
 30
0.0
 10
-10.7043
 20
-85.7765
 30
0.0
 10
-11.6277
 20
-85.4875
 30
0.0
 10
-11.6277
 20
-85.4875
 30
0.0
 10
-11.8478
 20
-85.3511
 30
0.0
 10
-14.3845
 20
-84.725
 30
0.0
 10
-14.9446
 20
-84.6412
 30
0.0
 10
-14.9446
 20
-84.6412
 30
0.0
 10
-17.1293
 20
-84.3141
 30
0.0
 10
-20.4884
 20
-83.9597
 30
0.0
 10
-22.649
 20
-83.8533
 30
0.0
 10
-22.649
 20
-83.8533
 30
0.0
 10
-22.649
 20
-83.8533
 30
0.0
 10
-30.7434
 20
-83.3744
 30
0.0
 10
-30.7434
 20
-83.3744
 30
0.0
 10
-30.7434
 20
-83.3744
 30
0.0
 10
-36.6774
 20
-82.75
 30
0.0
 10
-42.7978
 20
-82.0719
 30
0.0
 10
-48.2969
 20
-79.6256
 30
0.0
 10
-48.2969
 20
-79.6256
 30
0.0
 10
-52.1408
 20
-77.9156
 30
0.0
 10
-55.5746
 20
-75.6918
 30
0.0
 10
-58.2038
 20
-72.4838
 30
0.0
 10
-58.2038
 20
-72.4838
 30
0.0
 10
-58.9271
 20
-71.6013
 30
0.0
 10
-62.2701
 20
-67.529
 30
0.0
 10
-61.5428
 20
-66.7383
 30
0.0
 10
-61.5428
 20
-66.7383
 30
0.0
 10
-59.2224
 20
-69.9062
 30
0.0
 10
-52.2265
 20
-73.8813
 30
0.0
 10
-48.6577
 20
-75.3792
 30
0.0
 10
-48.6577
 20
-75.3792
 30
0.0
 10
-47.0845
 20
-76.0395
 30
0.0
 10
-40.1418
 20
-78.6491
 30
0.0
 10
-39.2083
 20
-78.165
 30
0.0
 10
-39.2083
 20
-78.165
 30
0.0
 10
-39.3723
 20
-77.8242
 30
0.0
 10
-39.7171
 20
-77.7578
 30
0.0
 10
-40.4008
 20
-77.4975
 30
0.0
 10
-40.4008
 20
-77.4975
 30
0.0
 10
-42.0793
 20
-76.8587
 30
0.0
 10
-44.7121
 20
-75.4428
 30
0.0
 10
-46.3294
 20
-74.5565
 30
0.0
 10
-46.3294
 20
-74.5565
 30
0.0
 10
-48.9693
 20
-73.1097
 30
0.0
 10
-51.3563
 20
-71.3353
 30
0.0
 10
-53.6482
 20
-69.5419
 30
0.0
 10
-53.6482
 20
-69.5419
 30
0.0
 10
-57.2667
 20
-66.7109
 30
0.0
 10
-60.3052
 20
-63.2074
 30
0.0
 10
-62.532
 20
-59.1888
 30
0.0
 10
-62.532
 20
-59.1888
 30
0.0
 10
-63.758
 20
-56.9762
 30
0.0
 10
-64.8514
 20
-53.8825
 30
0.0
 10
-65.3408
 20
-51.4088
 30
0.0
 10
-65.3408
 20
-51.4088
 30
0.0
 10
-66.2358
 20
-46.8825
 30
0.0
 10
-66.2333
 20
-42.3385
 30
0.0
 10
-65.8312
 20
-37.7346
 30
0.0
  0
SPLINE
  5
7A
330
1F
100
AcDbEntity
  8
layer 1
100
AcDbSpline
210
0.0
220
0.0
230
1.0
 70
    11
 71
     3
 72
   116
 73
   112
 74
     0
 42
0.000000001
 43
0.0000000001
 40
0.0
 40
0.0
 40
0.0
 40
0.0
 40
0.0344827586206897
 40
0.0344827586206897
 40
0.0344827586206897
 40
0.0344827586206897
 40
0.0689655172413793
 40
0.0689655172413793
 40
0.0689655172413793
 40
0.0689655172413793
 40
0.103448275862069
 40
0.103448275862069
 40
0.103448275862069
 40
0.103448275862069
 40
0.1379310344827586
 40
0.1379310344827586
 40
0.1379310344827586
 40
0.1379310344827586
 40
0.1724137931034483
 40
0.1724137931034483
 40
0.1724137931034483
 40
0.1724137931034483
 40
0.2068965517241379
 40
0.2068965517241379
 40
0.2068965517241379
 40
0.2068965517241379
 40
0.2413793103448276
 40
0.2413793103448276
 40
0.2413793103448276
 40
0.2413793103448276
 40
0.2758620689655172
 40
0.2758620689655172
 40
0.2758620689655172
 40
0.2758620689655172
 40
0.3103448275862069
 40
0.3103448275862069
 40
0.3103448275862069
 40
0.3103448275862069
 40
0.3448275862068966
 40
0.3448275862068966
 40
0.3448275862068966
 40
0.3448275862068966
 40
0.3793103448275862
 40
0.3793103448275862
 40
0.3793103448275862
 40
0.3793103448275862
 40
0.4137931034482759
 40
0.4137931034482759
 40
0.4137931034482759
 40
0.4137931034482759
 40
0.4482758620689655
 40
0.4482758620689655
 40
0.4482758620689655
 40
0.4482758620689655
 40
0.4827586206896552
 40
0.4827586206896552
 40
0.4827586206896552
 40
0.4827586206896552
 40
0.5172413793103449
 40
0.5172413793103449
 40
0.5172413793103449
 40
0.5172413793103449
 40
0.5517241379310345
 40
0.5517241379310345
 40
0.5517241379310345
 40
0.5517241379310345
 40
0.5862068965517241
 40
0.5862068965517241
 40
0.5862068965517241
 40
0.5862068965517241
 40
0.6206896551724138
 40
0.6206896551724138
 40
0.6206896551724138
 40
0.6206896551724138
 40
0.6551724137931034
 40
0.6551724137931034
 40
0.6551724137931034
 40
0.6551724137931034
 40
0.6896551724137931
 40
0.6896551724137931
 40
0.6896551724137931
 40
0.6896551724137931
 40
0.7241379310344828
 40
0.7241379310344828
 40
0.7241379310344828
 40
0.7241379310344828
 40
0.7586206896551724
 40
0.7586206896551724
 40
0.7586206896551724
 40
0.7586206896551724
 40
0.7931034482758621
 40
0.7931034482758621
 40
0.7931034482758621
 40
0.7931034482758621
 40
0.8275862068965517
 40
0.8275862068965517
 40
0.8275862068965517
 40
0.8275862068965517
 40
0.8620689655172413
 40
0.8620689655172413
 40
0.8620689655172413
 40
0.8620689655172413
 40
0.896551724137931
 40
0.896551724137931
 40
0.896551724137931
 40
0.896551724137931
 40
0.9310344827586207
 40
0.9310344827586207
 40
0.9310344827586207
 40
0.9310344827586207
 40
1.0
 40
1.0
 40
1.0
 40
1.0
 10
-82.3995
 20
-6.6468
 30
0.0
 10
-78.4189
 20
11.8352
 30
0.0
 10
-64.4242
 20
19.813
 30
0.0
 10
-50.5162
 20
25.4279
 30
0.0
 10
-50.5162
 20
25.4279
 30
0.0
 10
-44.5815
 20
27.824
 30
0.0
 10
-32.869
 20
33.2371
 30
0.0
 10
-28.3644
 20
36.2153
 30
0.0
 10
-28.3644
 20
36.2153
 30
0.0
 10
-24.2761
 20
38.848
 30
0.0
 10
-21.0044
 20
41.0692
 30
0.0
 10
-17.4602
 20
44.5499
 30
0.0
 10
-17.4602
 20
44.5499
 30
0.0
 10
-14.0256
 20
47.9233
 30
0.0
 10
-5.4598
 20
63.5425
 30
0.0
 10
-7.665
 20
65.6416
 30
0.0
 10
-7.665
 20
65.6416
 30
0.0
 10
-9.4177
 20
60.2408
 30
0.0
 10
-11.758
 20
55.8715
 30
0.0
 10
-15.3958
 20
51.4725
 30
0.0
 10
-15.3958
 20
51.4725
 30
0.0
 10
-17.0743
 20
49.4428
 30
0.0
 10
-20.422
 20
46.5792
 30
0.0
 10
-22.5162
 20
45.2276
 30
0.0
 10
-22.5162
 20
45.2276
 30
0.0
 10
-24.8663
 20
43.7109
 30
0.0
 10
-28.5501
 20
41.6199
 30
0.0
 10
-31.0088
 20
40.361
 30
0.0
 10
-31.0088
 20
40.361
 30
0.0
 10
-31.777
 20
39.9677
 30
0.0
 10
-32.4819
 20
39.5916
 30
0.0
 10
-33.2514
 20
39.2605
 30
0.0
 10
-33.2514
 20
39.2605
 30
0.0
 10
-33.7011
 20
39.067
 30
0.0
 10
-33.9446
 20
38.9148
 30
0.0
 10
-34.4041
 20
38.682
 30
0.0
 10
-34.4041
 20
38.682
 30
0.0
 10
-34.4041
 20
38.682
 30
0.0
 10
-37.9207
 20
37.131
 30
0.0
 10
-37.9207
 20
37.131
 30
0.0
 10
-37.9207
 20
37.131
 30
0.0
 10
-39.3041
 20
36.43
 30
0.0
 10
-43.3896
 20
34.8102
 30
0.0
 10
-44.965
 20
34.1583
 30
0.0
 10
-44.965
 20
34.1583
 30
0.0
 10
-44.965
 20
34.1583
 30
0.0
 10
-49.7017
 20
32.2144
 30
0.0
 10
-49.7017
 20
32.2144
 30
0.0
 10
-49.7017
 20
32.2144
 30
0.0
 10
-51.3024
 20
31.5652
 30
0.0
 10
-53.0368
 20
30.9283
 30
0.0
 10
-54.5231
 20
30.2329
 30
0.0
 10
-54.5231
 20
30.2329
 30
0.0
 10
-60.4945
 20
27.4391
 30
0.0
 10
-61.2981
 20
26.9721
 30
0.0
 10
-67.3
 20
22.9618
 30
0.0
 10
-67.3
 20
22.9618
 30
0.0
 10
-69.2331
 20
21.6698
 30
0.0
 10
-72.5163
 20
18.8051
 30
0.0
 10
-74.1018
 20
16.9736
 30
0.0
 10
-74.1018
 20
16.9736
 30
0.0
 10
-74.1018
 20
16.9736
 30
0.0
 10
-77.1852
 20
13.4916
 30
0.0
 10
-77.1852
 20
13.4916
 30
0.0
 10
-77.1852
 20
13.4916
 30
0.0
 10
-77.9737
 20
12.5471
 30
0.0
 10
-80.2077
 20
9.3085
 30
0.0
 10
-80.773
 20
8.2049
 30
0.0
 10
-80.773
 20
8.2049
 30
0.0
 10
-81.0312
 20
7.7008
 30
0.0
 10
-81.3078
 20
7.3459
 30
0.0
 10
-81.5666
 20
6.8129
 30
0.0
 10
-81.5666
 20
6.8129
 30
0.0
 10
-84.1217
 20
1.547
 30
0.0
 10
-84.3741
 20
0.7272
 30
0.0
 10
-85.5399
 20
-4.6657
 30
0.0
 10
-85.5399
 20
-4.6657
 30
0.0
 10
-85.7518
 20
-5.6457
 30
0.0
 10
-86.0005
 20
-9.6878
 30
0.0
 10
-86.0152
 20
-10.7598
 30
0.0
 10
-86.0152
 20
-10.7598
 30
0.0
 10
-86.0336
 20
-12.1123
 30
0.0
 10
-85.7965
 20
-15.555
 30
0.0
 10
-85.5824
 20
-16.9285
 30
0.0
 10
-85.5824
 20
-16.9285
 30
0.0
 10
-85.4853
 20
-17.5521
 30
0.0
 10
-85.3085
 20
-18.1047
 30
0.0
 10
-85.1991
 20
-18.829
 30
0.0
 10
-85.1991
 20
-18.829
 30
0.0
 10
-84.9308
 20
-20.6051
 30
0.0
 10
-83.7183
 20
-23.9356
 30
0.0
 10
-82.9468
 20
-25.4522
 30
0.0
 10
-82.9468
 20
-25.4522
 30
0.0
 10
-82.4452
 20
-26.4382
 30
0.0
 10
-82.0187
 20
-27.3218
 30
0.0
 10
-81.406
 20
-28.2872
 30
0.0
 10
-81.406
 20
-28.2872
 30
0.0
 10
-81.0659
 20
-28.8233
 30
0.0
 10
-79.5271
 20
-31.2282
 30
0.0
 10
-78.9746
 20
-31.4337
 30
0.0
 10
-78.9746
 20
-31.4337
 30
0.0
 10
-78.726
 20
-30.8121
 30
0.0
 10
-81.0314
 20
-27.056
 30
0.0
 10
-81.4149
 20
-25.9899
 30
0.0
 10
-81.4149
 20
-25.9899
 30
0.0
 10
-82.7577
 20
-22.2564
 30
0.0
 10
-83.2818
 20
-18.2182
 30
0.0
 10
-83.2311
 20
-14.2144
 30
0.0
 10
-83.2311
 20
-14.2144
 30
0.0
 10
-83.1998
 20
-11.7434
 30
0.0
 10
-82.8858
 20
-8.9124
 30
0.0
 10
-82.3995
 20
-6.6468
 30
0.0
  0
SPLINE
  5
7B
330
1F
100
AcDbEntity
  8
layer 1
100
AcDbSpline
210
0.0
220
0.0
230
1.0
 70
    11
 71
     3
 72
   104
 73
   100
 74
     0
 42
0.000000001
 43
0.0000000001
 40
0.0
 40
0.0
 40
0.0
 40
0.0
 40
0.0384615384615385
 40
0.0384615384615385
 40
0.0384615384615385
 40
0.0384615384615385
 40
0.0769230769230769
 40
0.0769230769230769
 40
0.0769230769230769
 40
0.0769230769230769
 40
0.1153846153846154
 40
0.1153846153846154
 40
0.1153846153846154
 40
0.1153846153846154
 40
0.1538461538461539
 40
0.1538461538461539
 40
0.1538461538461539
 40
0.1538461538461539
 40
0.1923076923076923
 40
0.1923076923076923
 40
0.1923076923076923
 40
0.1923076923076923
 40
0.2307692307692308
 40
0.2307692307692308
 40
0.2307692307692308
 40
0.2307692307692308
 40
0.2692307692307692
 40
0.2692307692307692
 40
0.2692307692307692
 40
0.2692307692307692
 40
0.3076923076923077
 40
0.3076923076923077
 40
0.3076923076923077
 40
0.3076923076923077
 40
0.3461538461538461
 40
0.3461538461538461
 40
0.3461538461538461
 40
0.3461538461538461
 40
0.3846153846153846
 40
0.3846153846153846
 40
0.3846153846153846
 40
0.3846153846153846
 40
0.4230769230769231
 40
0.4230769230769231
 40
0.4230769230769231
 40
0.4230769230769231
 40
0.4615384615384616
 40
0.4615384615384616
 40
0.4615384615384616
 40
0.4615384615384616
 40
0.5
 40
0.5
 40
0.5
 40
0.5
 40
0.5384615384615384
 40
0.5384615384615384
 40
0.5384615384615384
 40
0.5384615384615384
 40
0.5769230769230769
 40
0.5769230769230769
 40
0.5769230769230769
 40
0.5769230769230769
 40
0.6153846153846154
 40
0.6153846153846154
 40
0.6153846153846154
 40
0.6153846153846154
 40
0.6538461538461539
 40
0.6538461538461539
 40
0.6538461538461539
 40
0.6538461538461539
 40
0.6923076923076923
 40
0.6923076923076923
 40
0.6923076923076923
 40
0.6923076923076923
 40
0.7307692307692307
 40
0.7307692307692307
 40
0.7307692307692307
 40
0.7307692307692307
 40
0.7692307692307693
 40
0.7692307692307693
 40
0.7692307692307693
 40
0.7692307692307693
 40
0.8076923076923077
 40
0.8076923076923077
 40
0.8076923076923077
 40
0.8076923076923077
 40
0.8461538461538461
 40
0.8461538461538461
 40
0.8461538461538461
 40
0.8461538461538461
 40
0.8846153846153846
 40
0.8846153846153846
 40
0.8846153846153846
 40
0.8846153846153846
 40
0.9230769230769231
 40
0.9230769230769231
 40
0.9230769230769231
 40
0.9230769230769231
 40
1.0
 40
1.0
 40
1.0
 40
1.0
 10
-68.4393
 20
30.5552
 30
0.0
 10
-65.2861
 20
32.4448
 30
0.0
 10
-62.1525
 20
33.8976
 30
0.0
 10
-58.7304
 20
35.2437
 30
0.0
 10
-58.7304
 20
35.2437
 30
0.0
 10
-57.0643
 20
35.9436
 30
0.0
 10
-34.619
 20
41.8026
 30
0.0
 10
-34.2018
 20
41.3944
 30
0.0
 10
-34.2018
 20
41.3944
 30
0.0
 10
-37.7222
 20
39.3968
 30
0.0
 10
-39.3462
 20
38.4601
 30
0.0
 10
-43.5699
 20
37.6967
 30
0.0
 10
-43.5699
 20
37.6967
 30
0.0
 10
-46.3302
 20
37.1979
 30
0.0
 10
-51.9464
 20
36.5023
 30
0.0
 10
-54.0352
 20
35.9625
 30
0.0
 10
-54.0352
 20
35.9625
 30
0.0
 10
-60.4765
 20
34.2175
 30
0.0
 10
-68.2723
 20
32.4032
 30
0.0
 10
-70.9029
 20
25.4098
 30
0.0
 10
-70.9029
 20
25.4098
 30
0.0
 10
-71.7507
 20
23.156
 30
0.0
 10
-71.7948
 20
22.2601
 30
0.0
 10
-71.7169
 20
19.99
 30
0.0
 10
-71.7169
 20
19.99
 30
0.0
 10
-69.4581
 20
23.2201
 30
0.0
 10
-71.4096
 20
27.162
 30
0.0
 10
-64.5137
 20
30.7721
 30
0.0
 10
-64.5137
 20
30.7721
 30
0.0
 10
-62.3724
 20
31.8932
 30
0.0
 10
-58.1934
 20
33.2614
 30
0.0
 10
-55.8504
 20
33.7497
 30
0.0
 10
-55.8504
 20
33.7497
 30
0.0
 10
-50.082
 20
34.9518
 30
0.0
 10
-37.4427
 20
36.945
 30
0.0
 10
-33.8663
 20
40.9102
 30
0.0
 10
-33.8663
 20
40.9102
 30
0.0
 10
-32.5343
 20
42.387
 30
0.0
 10
-34.0107
 20
41.6433
 30
0.0
 10
-30.1414
 20
42.9534
 30
0.0
 10
-30.1414
 20
42.9534
 30
0.0
 10
-27.8937
 20
43.7145
 30
0.0
 10
-24.2572
 20
45.3486
 30
0.0
 10
-22.2198
 20
46.66
 30
0.0
 10
-22.2198
 20
46.66
 30
0.0
 10
-20.1594
 20
47.9863
 30
0.0
 10
-17.74
 20
50.345
 30
0.0
 10
-16.5132
 20
52.5918
 30
0.0
 10
-16.5132
 20
52.5918
 30
0.0
 10
-16.184
 20
53.1946
 30
0.0
 10
-14.7386
 20
56.1054
 30
0.0
 10
-15.1532
 20
56.8383
 30
0.0
 10
-15.1532
 20
56.8383
 30
0.0
 10
-15.9801
 20
55.9993
 30
0.0
 10
-16.5649
 20
54.1801
 30
0.0
 10
-17.9938
 20
52.9197
 30
0.0
 10
-17.9938
 20
52.9197
 30
0.0
 10
-21.1238
 20
50.1596
 30
0.0
 10
-25.4875
 20
48.0664
 30
0.0
 10
-29.5388
 20
47.1878
 30
0.0
 10
-29.5388
 20
47.1878
 30
0.0
 10
-35.227
 20
45.9019
 30
0.0
 10
-41.0028
 20
44.653
 30
0.0
 10
-46.7451
 20
43.6507
 30
0.0
 10
-46.7451
 20
43.6507
 30
0.0
 10
-48.5793
 20
43.3304
 30
0.0
 10
-50.5445
 20
42.8153
 30
0.0
 10
-52.3688
 20
42.3728
 30
0.0
 10
-52.3688
 20
42.3728
 30
0.0
 10
-62.8245
 20
39.8375
 30
0.0
 10
-74.4083
 20
34.5314
 30
0.0
 10
-79.8972
 20
25.0767
 30
0.0
 10
-79.8972
 20
25.0767
 30
0.0
 10
-80.7893
 20
23.54
 30
0.0
 10
-81.5561
 20
22.3116
 30
0.0
 10
-82.2669
 20
20.5311
 30
0.0
 10
-82.2669
 20
20.5311
 30
0.0
 10
-83.64
 20
17.0922
 30
0.0
 10
-84.0065
 20
13.4876
 30
0.0
 10
-84.6048
 20
9.8568
 30
0.0
 10
-84.6048
 20
9.8568
 30
0.0
 10
-84.71
 20
9.2181
 30
0.0
 10
-84.7879
 20
8.3504
 30
0.0
 10
-84.8198
 20
7.6752
 30
0.0
 10
-84.8198
 20
7.6752
 30
0.0
 10
-84.8642
 20
6.7367
 30
0.0
 10
-84.9887
 20
3.2807
 30
0.0
 10
-84.7802
 20
2.5328
 30
0.0
 10
-84.7802
 20
2.5328
 30
0.0
 10
-84.599
 20
2.6097
 30
0.0
 10
-82.6183
 20
11.6814
 30
0.0
 10
-82.1857
 20
12.9574
 30
0.0
 10
-82.1857
 20
12.9574
 30
0.0
 10
-80.9889
 20
16.4875
 30
0.0
 10
-80.2059
 20
18.3229
 30
0.0
 10
-78.0595
 20
21.3986
 30
0.0
 10
-78.0595
 20
21.3986
 30
0.0
 10
-75.9889
 20
24.3655
 30
0.0
 10
-71.655
 20
28.6276
 30
0.0
 10
-68.4393
 20
30.5552
 30
0.0
  0
SPLINE
  5
7C
330
1F
100
AcDbEntity
  8
layer 1
100
AcDbSpline
210
0.0
220
0.0
230
1.0
 70
    11
 71
     3
 72
    40
 73
    36
 74
     0
 42
0.000000001
 43
0.0000000001
 40
0.0
 40
0.0
 40
0.0
 40
0.0
 40
0.1
 40
0.1
 40
0.1
 40
0.1
 40
0.2
 40
0.2
 40
0.2
 40
0.2
 40
0.3
 40
0.3
 40
0.3
 40
0.3
 40
0.4
 40
0.4
 40
0.4
 40
0.4
 40
0.5
 40
0.5
 40
0.5
 40
0.5
 40
0.6
 40
0.6
 40
0.6
 40
0.6
 40
0.7
 40
0.7
 40
0.7
 40
0.7
 40
0.8
 40
0.8
 40
0.8
 40
0.8
 40
1.0
 40
1.0
 40
1.0
 40
1.0
 10
-73.8488
 20
35.1577
 30
0.0
 10
-70.2668
 20
37.9616
 30
0.0
 10
-65.3698
 20
40.0798
 30
0.0
 10
-60.9947
 20
41.5393
 30
0.0
 10
-60.9947
 20
41.5393
 30
0.0
 10
-54.744
 20
43.6251
 30
0.0
 10
-47.2231
 20
44.0285
 30
0.0
 10
-41.3697
 20
46.1148
 30
0.0
 10
-41.3697
 20
46.1148
 30
0.0
 10
-40.4602
 20
46.439
 30
0.0
 10
-37.6888
 20
47.4975
 30
0.0
 10
-37.4273
 20
48.3943
 30
0.0
 10
-37.4273
 20
48.3943
 30
0.0
 10
-37.8219
 20
48.3112
 30
0.0
 10
-38.26
 20
48.0781
 30
0.0
 10
-38.5787
 20
47.8653
 30
0.0
 10
-38.5787
 20
47.8653
 30
0.0
 10
-46.141
 20
45.4399
 30
0.0
 10
-59.1485
 20
44.8653
 30
0.0
 10
-68.8258
 20
40.0388
 30
0.0
 10
-68.8258
 20
40.0388
 30
0.0
 10
-73.6388
 20
37.6387
 30
0.0
 10
-76.2223
 20
35.8963
 30
0.0
 10
-79.5425
 20
31.7497
 30
0.0
 10
-79.5425
 20
31.7497
 30
0.0
 10
-80.6119
 20
30.4139
 30
0.0
 10
-82.2733
 20
27.2624
 30
0.0
 10
-82.8731
 20
25.5158
 30
0.0
 10
-82.8731
 20
25.5158
 30
0.0
 10
-84.4694
 20
20.8669
 30
0.0
 10
-84.5312
 20
19.0458
 30
0.0
 10
-84.6517
 20
14.4328
 30
0.0
 10
-84.6517
 20
14.4328
 30
0.0
 10
-81.3931
 20
24.4649
 30
0.0
 10
-82.531
 20
27.5396
 30
0.0
 10
-73.8488
 20
35.1577
 30
0.0
  0
SPLINE
  5
7D
330
1F
100
AcDbEntity
  8
layer 1
100
AcDbSpline
210
0.0
220
0.0
230
1.0
 70
    11
 71
     3
 72
   100
 73
    96
 74
     0
 42
0.000000001
 43
0.0000000001
 40
0.0
 40
0.0
 40
0.0
 40
0.0
 40
0.04
 40
0.04
 40
0.04
 40
0.04
 40
0.08
 40
0.08
 40
0.08
 40
0.08
 40
0.12
 40
0.12
 40
0.12
 40
0.12
 40
0.16
 40
0.16
 40
0.16
 40
0.16
 40
0.2
 40
0.2
 40
0.2
 40
0.2
 40
0.24
 40
0.24
 40
0.24
 40
0.24
 40
0.28
 40
0.28
 40
0.28
 40
0.28
 40
0.32
 40
0.32
 40
0.32
 40
0.32
 40
0.36
 40
0.36
 40
0.36
 40
0.36
 40
0.4
 40
0.4
 40
0.4
 40
0.4
 40
0.44
 40
0.44
 40
0.44
 40
0.44
 40
0.48
 40
0.48
 40
0.48
 40
0.48
 40
0.52
 40
0.52
 40
0.52
 40
0.52
 40
0.56
 40
0.56
 40
0.56
 40
0.56
 40
0.6
 40
0.6
 40
0.6
 40
0.6
 40
0.64
 40
0.64
 40
0.64
 40
0.64
 40
0.68
 40
0.68
 40
0.68
 40
0.68
 40
0.72
 40
0.72
 40
0.72
 40
0.72
 40
0.76
 40
0.76
 40
0.76
 40
0.76
 40
0.8
 40
0.8
 40
0.8
 40
0.8
 40
0.84
 40
0.84
 40
0.84
 40
0.84
 40
0.88
 40
0.88
 40
0.88
 40
0.88
 40
0.92
 40
0.92
 40
0.92
 40
0.92
 40
1.0
 40
1.0
 40
1.0
 40
1.0
 10
-62.4617
 20
13.6295
 30
0.0
 10
-67.732
 20
10.304
 30
0.0
 10
-71.6828
 20
8.2021
 30
0.0
 10
-74.999
 20
2.5521
 30
0.0
 10
-74.999
 20
2.5521
 30
0.0
 10
-75.365
 20
1.9285
 30
0.0
 10
-76.1641
 20
0.3209
 30
0.0
 10
-76.5208
 20
-0.5699
 30
0.0
 10
-76.5208
 20
-0.5699
 30
0.0
 10
-75.6123
 20
4.892
 30
0.0
 10
-72.4224
 20
9.5453
 30
0.0
 10
-67.8454
 20
12.677
 30
0.0
 10
-67.8454
 20
12.677
 30
0.0
 10
-60.0521
 20
17.325
 30
0.0
 10
-52.616
 20
19.3862
 30
0.0
 10
-44.2402
 20
22.2583
 30
0.0
 10
-44.2402
 20
22.2583
 30
0.0
 10
-39.7014
 20
23.7905
 30
0.0
 10
-35.4011
 20
25.699
 30
0.0
 10
-31.5425
 20
28.4466
 30
0.0
 10
-31.5425
 20
28.4466
 30
0.0
 10
-30.7068
 20
29.0415
 30
0.0
 10
-29.7847
 20
29.8496
 30
0.0
 10
-29.0902
 20
30.602
 30
0.0
 10
-29.0902
 20
30.602
 30
0.0
 10
-28.373
 20
31.3787
 30
0.0
 10
-26.1715
 20
34.2645
 30
0.0
 10
-26.5581
 20
35.0294
 30
0.0
 10
-26.5581
 20
35.0294
 30
0.0
 10
-26.9104
 20
34.8678
 30
0.0
 10
-27.2054
 20
33.991
 30
0.0
 10
-27.4699
 20
33.5992
 30
0.0
 10
-27.4699
 20
33.5992
 30
0.0
 10
-28.6009
 20
31.9253
 30
0.0
 10
-28.984
 20
31.5054
 30
0.0
 10
-30.6015
 20
30.1556
 30
0.0
 10
-30.6015
 20
30.1556
 30
0.0
 10
-32.9998
 20
28.1544
 30
0.0
 10
-37.7464
 20
25.9748
 30
0.0
 10
-40.5618
 20
25.0228
 30
0.0
 10
-40.5618
 20
25.0228
 30
0.0
 10
-48.509
 20
22.335
 30
0.0
 10
-58.1884
 20
20.0893
 30
0.0
 10
-65.636
 20
16.1117
 30
0.0
 10
-65.636
 20
16.1117
 30
0.0
 10
-71.9474
 20
12.7397
 30
0.0
 10
-77.2057
 20
5.6883
 30
0.0
 10
-77.6918
 20
-1.5414
 30
0.0
 10
-77.6918
 20
-1.5414
 30
0.0
 10
-77.9071
 20
-5.2896
 30
0.0
 10
-79.5078
 20
-7.4387
 30
0.0
 10
-79.6817
 20
-13.0642
 30
0.0
 10
-79.6817
 20
-13.0642
 30
0.0
 10
-79.7205
 20
-14.3204
 30
0.0
 10
-79.7447
 20
-25.9967
 30
0.0
 10
-78.483
 20
-25.5832
 30
0.0
 10
-78.483
 20
-25.5832
 30
0.0
 10
-78.9551
 20
-18.0679
 30
0.0
 10
-77.8183
 20
-8.83
 30
0.0
 10
-75.06
 20
-3.1537
 30
0.0
 10
-75.06
 20
-3.1537
 30
0.0
 10
-72.6045
 20
1.8996
 30
0.0
 10
-70.2256
 20
4.4076
 30
0.0
 10
-66.0515
 20
7.3091
 30
0.0
 10
-66.0515
 20
7.3091
 30
0.0
 10
-63.2258
 20
9.2734
 30
0.0
 10
-60.7722
 20
10.5059
 30
0.0
 10
-57.7439
 20
12.0208
 30
0.0
 10
-57.7439
 20
12.0208
 30
0.0
 10
-55.2299
 20
13.2782
 30
0.0
 10
-51.32
 20
14.9984
 30
0.0
 10
-48.6722
 20
15.8484
 30
0.0
 10
-48.6722
 20
15.8484
 30
0.0
 10
-45.0594
 20
17.0079
 30
0.0
 10
-40.7777
 20
18.9706
 30
0.0
 10
-37.44
 20
20.8633
 30
0.0
 10
-37.44
 20
20.8633
 30
0.0
 10
-34.9308
 20
22.2866
 30
0.0
 10
-29.7355
 20
26.1941
 30
0.0
 10
-29.698
 20
29.3359
 30
0.0
 10
-29.698
 20
29.3359
 30
0.0
 10
-30.42
 20
28.5665
 30
0.0
 10
-30.8192
 20
27.8186
 30
0.0
 10
-31.4476
 20
27.0848
 30
0.0
 10
-31.4476
 20
27.0848
 30
0.0
 10
-33.244
 20
24.986
 30
0.0
 10
-35.6164
 20
23.6293
 30
0.0
 10
-38.1559
 20
22.6184
 30
0.0
 10
-38.1559
 20
22.6184
 30
0.0
 10
-41.9192
 20
21.1202
 30
0.0
 10
-45.8166
 20
19.8739
 30
0.0
 10
-49.782
 20
18.6898
 30
0.0
 10
-49.782
 20
18.6898
 30
0.0
 10
-53.9695
 20
17.3935
 30
0.0
 10
-58.7002
 20
15.798
 30
0.0
 10
-62.4617
 20
13.6295
 30
0.0
  0
SPLINE
  5
7E
330
1F
100
AcDbEntity
  8
layer 1
100
AcDbSpline
210
0.0
220
0.0
230
1.0
 70
    11
 71
     3
 72
    32
 73
    28
 74
     0
 42
0.000000001
 43
0.0000000001
 40
0.0
 40
0.0
 40
0.0
 40
0.0
 40
0.125
 40
0.125
 40
0.125
 40
0.125
 40
0.25
 40
0.25
 40
0.25
 40
0.25
 40
0.375
 40
0.375
 40
0.375
 40
0.375
 40
0.5
 40
0.5
 40
0.5
 40
0.5
 40
0.625
 40
0.625
 40
0.625
 40
0.625
 40
0.75
 40
0.75
 40
0.75
 40
0.75
 40
1.0
 40
1.0
 40
1.0
 40
1.0
 10
-49.7999
 20
12.6741
 30
0.0
 10
-53.879
 20
11.0282
 30
0.0
 10
-60.9346
 20
8.5914
 30
0.0
 10
-64.4611
 20
6.5262
 30
0.0
 10
-64.4611
 20
6.5262
 30
0.0
 10
-68.2395
 20
4.314
 30
0.0
 10
-71.016
 20
2.5308
 30
0.0
 10
-73.4959
 20
-1.4905
 30
0.0
 10
-73.4959
 20
-1.4905
 30
0.0
 10
-76.158
 20
-5.8077
 30
0.0
 10
-77.0775
 20
-11.0654
 30
0.0
 10
-75.9794
 20
-16.0121
 30
0.0
 10
-75.9794
 20
-16.0121
 30
0.0
 10
-74.3658
 20
-14.2424
 30
0.0
 10
-78.6955
 20
-2.7947
 30
0.0
 10
-64.4841
 20
5.0566
 30
0.0
 10
-64.4841
 20
5.0566
 30
0.0
 10
-62.9476
 20
5.9056
 30
0.0
 10
-61.2223
 20
6.7457
 30
0.0
 10
-59.517
 20
7.4501
 30
0.0
 10
-59.517
 20
7.4501
 30
0.0
 10
-57.8853
 20
8.0865
 30
0.0
 10
-43.5356
 20
13.7486
 30
0.0
 10
-44.8751
 20
16.316
 30
0.0
 10
-44.8751
 20
16.316
 30
0.0
 10
-45.4784
 20
15.2298
 30
0.0
 10
-47.5829
 20
13.5687
 30
0.0
 10
-49.7999
 20
12.6741
 30
0.0
  0
SPLINE
  5
7F
330
1F
100
AcDbEntity
  8
layer 1
100
AcDbSpline
210
0.0
220
0.0
230
1.0
 70
    11
 71
     3
 72
    44
 73
    40
 74
     0
 42
0.000000001
 43
0.0000000001
 40
0.0
 40
0.0
 40
0.0
 40
0.0
 40
0.0909090909090909
 40
0.0909090909090909
 40
0.0909090909090909
 40
0.0909090909090909
 40
0.1818181818181818
 40
0.1818181818181818
 40
0.1818181818181818
 40
0.1818181818181818
 40
0.2727272727272727
 40
0.2727272727272727
 40
0.2727272727272727
 40
0.2727272727272727
 40
0.3636363636363636
 40
0.3636363636363636
 40
0.3636363636363636
 40
0.3636363636363636
 40
0.4545454545454545
 40
0.4545454545454545
 40
0.4545454545454545
 40
0.4545454545454545
 40
0.5454545454545454
 40
0.5454545454545454
 40
0.5454545454545454
 40
0.5454545454545454
 40
0.6363636363636364
 40
0.6363636363636364
 40
0.6363636363636364
 40
0.6363636363636364
 40
0.7272727272727273
 40
0.7272727272727273
 40
0.7272727272727273
 40
0.7272727272727273
 40
0.8181818181818182
 40
0.8181818181818182
 40
0.8181818181818182
 40
0.8181818181818182
 40
1.0
 40
1.0
 40
1.0
 40
1.0
 10
-20.5873
 20
2.6026
 30
0.0
 10
-20.9107
 20
-3.6084
 30
0.0
 10
-20.5064
 20
-11.6964
 30
0.0
 10
-17.5753
 20
-16.8683
 30
0.0
 10
-17.5753
 20
-16.8683
 30
0.0
 10
-16.3911
 20
-18.9579
 30
0.0
 10
-12.2583
 20
-24.9769
 30
0.0
 10
-9.8435
 20
-25.0158
 30
0.0
 10
-9.8435
 20
-25.0158
 30
0.0
 10
-9.8311
 20
-25.0126
 30
0.0
 10
-13.9194
 20
-19.8565
 30
0.0
 10
-14.7574
 20
-18.4281
 30
0.0
 10
-14.7574
 20
-18.4281
 30
0.0
 10
-17.9277
 20
-13.0246
 30
0.0
 10
-18.637
 20
-3.0285
 30
0.0
 10
-18.4496
 20
3.1866
 30
0.0
 10
-18.4496
 20
3.1866
 30
0.0
 10
-18.4047
 20
4.6758
 30
0.0
 10
-18.2086
 20
5.9767
 30
0.0
 10
-18.1825
 20
7.5605
 30
0.0
 10
-18.1825
 20
7.5605
 30
0.0
 10
-18.1363
 20
10.3797
 30
0.0
 10
-18.1501
 20
13.5742
 30
0.0
 10
-18.7755
 20
16.1432
 30
0.0
 10
-18.7755
 20
16.1432
 30
0.0
 10
-19.1033
 20
17.4904
 30
0.0
 10
-19.3971
 20
18.5963
 30
0.0
 10
-19.7296
 20
19.7948
 30
0.0
 10
-19.7296
 20
19.7948
 30
0.0
 10
-20.0459
 20
20.5627
 30
0.0
 10
-20.6182
 20
22.751
 30
0.0
 10
-21.2975
 20
23.0402
 30
0.0
 10
-21.2975
 20
23.0402
 30
0.0
 10
-21.3683
 20
19.4204
 30
0.0
 10
-19.5359
 20
15.1685
 30
0.0
 10
-20.0098
 20
9.5216
 30
0.0
 10
-20.0098
 20
9.5216
 30
0.0
 10
-20.2099
 20
7.1368
 30
0.0
 10
-20.4618
 20
5.0137
 30
0.0
 10
-20.5873
 20
2.6026
 30
0.0
  0
SPLINE
  5
80
330
1F
100
AcDbEntity
  8
layer 1
100
AcDbSpline
210
0.0
220
0.0
230
1.0
 70
    11
 71
     3
 72
    68
 73
    64
 74
     0
 42
0.000000001
 43
0.0000000001
 40
0.0
 40
0.0
 40
0.0
 40
0.0
 40
0.0588235294117647
 40
0.0588235294117647
 40
0.0588235294117647
 40
0.0588235294117647
 40
0.1176470588235294
 40
0.1176470588235294
 40
0.1176470588235294
 40
0.1176470588235294
 40
0.1764705882352941
 40
0.1764705882352941
 40
0.1764705882352941
 40
0.1764705882352941
 40
0.2352941176470588
 40
0.2352941176470588
 40
0.2352941176470588
 40
0.2352941176470588
 40
0.2941176470588235
 40
0.2941176470588235
 40
0.2941176470588235
 40
0.2941176470588235
 40
0.3529411764705883
 40
0.3529411764705883
 40
0.3529411764705883
 40
0.3529411764705883
 40
0.4117647058823529
 40
0.4117647058823529
 40
0.4117647058823529
 40
0.4117647058823529
 40
0.4705882352941176
 40
0.4705882352941176
 40
0.4705882352941176
 40
0.4705882352941176
 40
0.5294117647058824
 40
0.5294117647058824
 40
0.5294117647058824
 40
0.5294117647058824
 40
0.5882352941176471
 40
0.5882352941176471
 40
0.5882352941176471
 40
0.5882352941176471
 40
0.6470588235294118
 40
0.6470588235294118
 40
0.6470588235294118
 40
0.6470588235294118
 40
0.7058823529411765
 40
0.7058823529411765
 40
0.7058823529411765
 40
0.7058823529411765
 40
0.7647058823529411
 40
0.7647058823529411
 40
0.7647058823529411
 40
0.7647058823529411
 40
0.8235294117647058
 40
0.8235294117647058
 40
0.8235294117647058
 40
0.8235294117647058
 40
0.8823529411764706
 40
0.8823529411764706
 40
0.8823529411764706
 40
0.8823529411764706
 40
1.0
 40
1.0
 40
1.0
 40
1.0
 10
4.9694
 20
52.1137
 30
0.0
 10
6.0357
 20
51.6983
 30
0.0
 10
6.5357
 20
50.5069
 30
0.0
 10
8.5004
 20
49.3066
 30
0.0
 10
8.5004
 20
49.3066
 30
0.0
 10
11.2343
 20
47.6364
 30
0.0
 10
14.7649
 20
46.6949
 30
0.0
 10
18.8317
 20
47.2088
 30
0.0
 10
18.8317
 20
47.2088
 30
0.0
 10
19.3888
 20
47.2476
 30
0.0
 10
19.4585
 20
47.1159
 30
0.0
 10
19.6683
 20
47.4275
 30
0.0
 10
19.6683
 20
47.4275
 30
0.0
 10
16.7933
 20
48.5434
 30
0.0
 10
14.3861
 20
47.3521
 30
0.0
 10
10.4934
 20
50.0339
 30
0.0
 10
10.4934
 20
50.0339
 30
0.0
 10
9.9986
 20
50.3748
 30
0.0
 10
8.9143
 20
51.1093
 30
0.0
 10
8.9573
 20
51.66
 30
0.0
 10
8.9573
 20
51.66
 30
0.0
 10
8.9573
 20
51.66
 30
0.0
 10
10.5327
 20
51.8628
 30
0.0
 10
10.5327
 20
51.8628
 30
0.0
 10
10.5327
 20
51.8628
 30
0.0
 10
10.9994
 20
51.4357
 30
0.0
 10
11.2073
 20
50.7791
 30
0.0
 10
11.7302
 20
50.3482
 30
0.0
 10
11.7302
 20
50.3482
 30
0.0
 10
12.2231
 20
49.942
 30
0.0
 10
12.8922
 20
49.5927
 30
0.0
 10
13.7622
 20
49.5867
 30
0.0
 10
13.7622
 20
49.5867
 30
0.0
 10
16.208
 20
49.5701
 30
0.0
 10
16.8765
 20
51.6841
 30
0.0
 10
17.0089
 20
51.7606
 30
0.0
 10
17.0089
 20
51.7606
 30
0.0
 10
17.59
 20
52.0972
 30
0.0
 10
21.5689
 20
50.227
 30
0.0
 10
22.3092
 20
48.2346
 30
0.0
 10
22.3092
 20
48.2346
 30
0.0
 10
22.5823
 20
48.1142
 30
0.0
 10
22.3469
 20
48.0405
 30
0.0
 10
22.8882
 20
47.8607
 30
0.0
 10
22.8882
 20
47.8607
 30
0.0
 10
22.7811
 20
50.4455
 30
0.0
 10
21.7037
 20
53.07
 30
0.0
 10
19.5474
 20
54.2462
 30
0.0
 10
19.5474
 20
54.2462
 30
0.0
 10
17.6244
 20
55.2951
 30
0.0
 10
15.367
 20
55.7119
 30
0.0
 10
13.1864
 20
55.6222
 30
0.0
 10
13.1864
 20
55.6222
 30
0.0
 10
9.7575
 20
55.4808
 30
0.0
 10
5.7586
 20
54.2825
 30
0.0
 10
2.7105
 20
55.9633
 30
0.0
 10
2.7105
 20
55.9633
 30
0.0
 10
2.7105
 20
55.9633
 30
0.0
 10
1.9658
 20
56.0672
 30
0.0
 10
1.9658
 20
56.0672
 30
0.0
 10
1.9658
 20
56.0672
 30
0.0
 10
2.1774
 20
54.1936
 30
0.0
 10
3.1433
 20
52.825
 30
0.0
 10
4.9694
 20
52.1137
 30
0.0
  0
SPLINE
  5
81
330
1F
100
AcDbEntity
  8
layer 1
100
AcDbSpline
210
0.0
220
0.0
230
1.0
 70
    11
 71
     3
 72
    20
 73
    16
 74
     0
 42
0.000000001
 43
0.0000000001
 40
0.0
 40
0.0
 40
0.0
 40
0.0
 40
0.2
 40
0.2
 40
0.2
 40
0.2
 40
0.4
 40
0.4
 40
0.4
 40
0.4
 40
0.6
 40
0.6
 40
0.6
 40
0.6
 40
1.0
 40
1.0
 40
1.0
 40
1.0
 10
14.3491
 20
50.0342
 30
0.0
 10
11.8372
 20
49.7873
 30
0.0
 10
10.0688
 20
52.3347
 30
0.0
 10
12.1403
 20
52.0414
 30
0.0
 10
12.1403
 20
52.0414
 30
0.0
 10
12.6772
 20
51.9653
 30
0.0
 10
12.9506
 20
51.4603
 30
0.0
 10
13.5598
 20
51.3607
 30
0.0
 10
13.5598
 20
51.3607
 30
0.0
 10
14.8682
 20
51.147
 30
0.0
 10
14.7666
 20
52.735
 30
0.0
 10
16.4903
 20
51.8823
 30
0.0
 10
16.4903
 20
51.8823
 30
0.0
 10
16.4063
 20
51.0911
 30
0.0
 10
15.2145
 20
50.1193
 30
0.0
 10
14.3491
 20
50.0342
 30
0.0
  0
SPLINE
  5
82
330
1F
100
AcDbEntity
  8
layer 1
100
AcDbSpline
210
0.0
220
0.0
230
1.0
 70
    11
 71
     3
 72
    36
 73
    32
 74
     0
 42
0.000000001
 43
0.0000000001
 40
0.0
 40
0.0
 40
0.0
 40
0.0
 40
0.1111111111111111
 40
0.1111111111111111
 40
0.1111111111111111
 40
0.1111111111111111
 40
0.2222222222222222
 40
0.2222222222222222
 40
0.2222222222222222
 40
0.2222222222222222
 40
0.3333333333333333
 40
0.3333333333333333
 40
0.3333333333333333
 40
0.3333333333333333
 40
0.4444444444444444
 40
0.4444444444444444
 40
0.4444444444444444
 40
0.4444444444444444
 40
0.5555555555555556
 40
0.5555555555555556
 40
0.5555555555555556
 40
0.5555555555555556
 40
0.6666666666666666
 40
0.6666666666666666
 40
0.6666666666666666
 40
0.6666666666666666
 40
0.7777777777777778
 40
0.7777777777777778
 40
0.7777777777777778
 40
0.7777777777777778
 40
1.0
 40
1.0
 40
1.0
 40
1.0
 10
19.4012
 20
60.5563
 30
0.0
 10
20.5005
 20
59.62
 30
0.0
 10
22.7721
 20
56.8952
 30
0.0
 10
24.1041
 20
56.0416
 30
0.0
 10
24.1041
 20
56.0416
 30
0.0
 10
24.8674
 20
55.5526
 30
0.0
 10
26.5524
 20
54.7454
 30
0.0
 10
27.7788
 20
55.2982
 30
0.0
 10
27.7788
 20
55.2982
 30
0.0
 10
27.7625
 20
57.0597
 30
0.0
 10
20.4848
 20
62.7043
 30
0.0
 10
18.9063
 20
63.6317
 30
0.0
 10
18.9063
 20
63.6317
 30
0.0
 10
13.4772
 20
66.875
 30
0.0
 10
8.8203
 20
66.2929
 30
0.0
 10
3.3269
 20
63.9775
 30
0.0
 10
3.3269
 20
63.9775
 30
0.0
 10
2.952
 20
63.782
 30
0.0
 10
1.595
 20
63.1605
 30
0.0
 10
1.3895
 20
62.8674
 30
0.0
 10
1.3895
 20
62.8674
 30
0.0
 10
1.5606
 20
62.7826
 30
0.0
 10
1.4412
 20
62.6637
 30
0.0
 10
1.8165
 20
62.823
 30
0.0
 10
1.8165
 20
62.823
 30
0.0
 10
4.4965
 20
63.9555
 30
0.0
 10
6.6438
 20
64.7394
 30
0.0
 10
9.726
 20
64.82
 30
0.0
 10
9.726
 20
64.82
 30
0.0
 10
14.267
 20
64.9386
 30
0.0
 10
16.3597
 20
63.1465
 30
0.0
 10
19.4012
 20
60.5563
 30
0.0
  0
SPLINE
  5
83
330
1F
100
AcDbEntity
  8
layer 1
100
AcDbSpline
210
0.0
220
0.0
230
1.0
 70
    11
 71
     3
 72
    32
 73
    28
 74
     0
 42
0.000000001
 43
0.0000000001
 40
0.0
 40
0.0
 40
0.0
 40
0.0
 40
0.125
 40
0.125
 40
0.125
 40
0.125
 40
0.25
 40
0.25
 40
0.25
 40
0.25
 40
0.375
 40
0.375
 40
0.375
 40
0.375
 40
0.5
 40
0.5
 40
0.5
 40
0.5
 40
0.625
 40
0.625
 40
0.625
 40
0.625
 40
0.75
 40
0.75
 40
0.75
 40
0.75
 40
1.0
 40
1.0
 40
1.0
 40
1.0
 10
23.9497
 20
51.3227
 30
0.0
 10
23.5472
 20
56.1599
 30
0.0
 10
19.3616
 20
58.4882
 30
0.0
 10
14.7989
 20
58.3151
 30
0.0
 10
14.7989
 20
58.3151
 30
0.0
 10
12.8307
 20
58.2406
 30
0.0
 10
10.9333
 20
57.5972
 30
0.0
 10
9.2035
 20
56.706
 30
0.0
 10
9.2035
 20
56.706
 30
0.0
 10
9.0142
 20
56.5876
 30
0.0
 10
9.1192
 20
56.658
 30
0.0
 10
9.0043
 20
56.5301
 30
0.0
 10
9.0043
 20
56.5301
 30
0.0
 10
9.0045
 20
56.5299
 30
0.0
 10
9.2364
 20
56.2128
 30
0.0
 10
9.8211
 20
56.5475
 30
0.0
 10
9.8211
 20
56.5475
 30
0.0
 10
12.7607
 20
58.807
 30
0.0
 10
22.7293
 20
56.087
 30
0.0
 10
23.5331
 20
51.3611
 30
0.0
 10
23.5331
 20
51.3611
 30
0.0
 10
23.5331
 20
51.3611
 30
0.0
 10
23.64
 20
50.9844
 30
0.0
 10
23.64
 20
50.9844
 30
0.0
 10
23.64
 20
50.9844
 30
0.0
 10
24.0011
 20
51.1323
 30
0.0
 10
23.7977
 20
50.8532
 30
0.0
 10
23.9497
 20
51.3227
 30
0.0
  0
SPLINE
  5
84
330
1F
100
AcDbEntity
  8
layer 1
100
AcDbSpline
210
0.0
220
0.0
230
1.0
 70
    11
 71
     3
 72
    40
 73
    36
 74
     0
 42
0.000000001
 43
0.0000000001
 40
0.0
 40
0.0
 40
0.0
 40
0.0
 40
0.1
 40
0.1
 40
0.1
 40
0.1
 40
0.2
 40
0.2
 40
0.2
 40
0.2
 40
0.3
 40
0.3
 40
0.3
 40
0.3
 40
0.4
 40
0.4
 40
0.4
 40
0.4
 40
0.5
 40
0.5
 40
0.5
 40
0.5
 40
0.6
 40
0.6
 40
0.6
 40
0.6
 40
0.7
 40
0.7
 40
0.7
 40
0.7
 40
0.8
 40
0.8
 40
0.8
 40
0.8
 40
1.0
 40
1.0
 40
1.0
 40
1.0
 10
56.8454
 20
58.8308
 30
0.0
 10
61.7075
 20
57.3605
 30
0.0
 10
65.7415
 20
56.0033
 30
0.0
 10
70.3515
 20
53.902
 30
0.0
 10
70.3515
 20
53.902
 30
0.0
 10
75.5844
 20
51.2491
 30
0.0
 10
81.7144
 20
47.5164
 30
0.0
 10
84.5957
 20
42.342
 30
0.0
 10
84.5957
 20
42.342
 30
0.0
 10
87.5902
 20
36.9656
 30
0.0
 10
87.5608
 20
25.3911
 30
0.0
 10
87.6064
 20
25.3215
 30
0.0
 10
87.6064
 20
25.3215
 30
0.0
 10
88.0547
 20
26.03
 30
0.0
 10
88.4533
 20
30.6045
 30
0.0
 10
88.4659
 20
31.642
 30
0.0
 10
88.4659
 20
31.642
 30
0.0
 10
88.5119
 20
35.425
 30
0.0
 10
87.6027
 20
39.0876
 30
0.0
 10
86.0219
 20
42.3907
 30
0.0
 10
86.0219
 20
42.3907
 30
0.0
 10
82.7184
 20
49.292
 30
0.0
 10
77.2515
 20
52.4217
 30
0.0
 10
70.8616
 20
55.7947
 30
0.0
 10
70.8616
 20
55.7947
 30
0.0
 10
68.1282
 20
57.1114
 30
0.0
 10
65.02
 20
58.107
 30
0.0
 10
62.1068
 20
59.0185
 30
0.0
 10
62.1068
 20
59.0185
 30
0.0
 10
54.2599
 20
61.0759
 30
0.0
 10
46.2278
 20
65.3484
 30
0.0
 10
39.7086
 20
67.0173
 30
0.0
 10
39.7086
 20
67.0173
 30
0.0
 10
42.3505
 20
64.6578
 30
0.0
 10
53.3025
 20
59.9021
 30
0.0
 10
56.8454
 20
58.8308
 30
0.0
  0
SPLINE
  5
85
330
1F
100
AcDbEntity
  8
layer 1
100
AcDbSpline
210
0.0
220
0.0
230
1.0
 70
    11
 71
     3
 72
    24
 73
    20
 74
     0
 42
0.000000001
 43
0.0000000001
 40
0.0
 40
0.0
 40
0.0
 40
0.0
 40
0.1666666666666667
 40
0.1666666666666667
 40
0.1666666666666667
 40
0.1666666666666667
 40
0.3333333333333333
 40
0.3333333333333333
 40
0.3333333333333333
 40
0.3333333333333333
 40
0.5
 40
0.5
 40
0.5
 40
0.5
 40
0.6666666666666666
 40
0.6666666666666666
 40
0.6666666666666666
 40
0.6666666666666666
 40
1.0
 40
1.0
 40
1.0
 40
1.0
 10
30.8859
 20
21.6859
 30
0.0
 10
30.1876
 20
21.7169
 30
0.0
 10
28.7125
 20
22.8342
 30
0.0
 10
27.9734
 20
23.1587
 30
0.0
 10
27.9734
 20
23.1587
 30
0.0
 10
26.8473
 20
23.653
 30
0.0
 10
24.6301
 20
23.3296
 30
0.0
 10
23.6256
 20
22.7699
 30
0.0
 10
23.6256
 20
22.7699
 30
0.0
 10
23.9094
 20
22.07
 30
0.0
 10
26.0146
 20
22.8511
 30
0.0
 10
27.754
 20
22.2526
 30
0.0
 10
27.754
 20
22.2526
 30
0.0
 10
28.4277
 20
22.0207
 30
0.0
 10
31.1444
 20
20.3544
 30
0.0
 10
31.5403
 20
21.5024
 30
0.0
 10
31.5403
 20
21.5024
 30
0.0
 10
31.3653
 20
21.7149
 30
0.0
 10
31.1786
 20
21.6561
 30
0.0
 10
30.8859
 20
21.6859
 30
0.0
  0
SPLINE
  5
86
330
1F
100
AcDbEntity
  8
layer 1
100
AcDbSpline
210
0.0
220
0.0
230
1.0
 70
    11
 71
     3
 72
    72
 73
    68
 74
     0
 42
0.000000001
 43
0.0000000001
 40
0.0
 40
0.0
 40
0.0
 40
0.0
 40
0.0555555555555556
 40
0.0555555555555556
 40
0.0555555555555556
 40
0.0555555555555556
 40
0.1111111111111111
 40
0.1111111111111111
 40
0.1111111111111111
 40
0.1111111111111111
 40
0.1666666666666667
 40
0.1666666666666667
 40
0.1666666666666667
 40
0.1666666666666667
 40
0.2222222222222222
 40
0.2222222222222222
 40
0.2222222222222222
 40
0.2222222222222222
 40
0.2777777777777778
 40
0.2777777777777778
 40
0.2777777777777778
 40
0.2777777777777778
 40
0.3333333333333333
 40
0.3333333333333333
 40
0.3333333333333333
 40
0.3333333333333333
 40
0.3888888888888889
 40
0.3888888888888889
 40
0.3888888888888889
 40
0.3888888888888889
 40
0.4444444444444444
 40
0.4444444444444444
 40
0.4444444444444444
 40
0.4444444444444444
 40
0.5
 40
0.5
 40
0.5
 40
0.5
 40
0.5555555555555556
 40
0.5555555555555556
 40
0.5555555555555556
 40
0.5555555555555556
 40
0.6111111111111112
 40
0.6111111111111112
 40
0.6111111111111112
 40
0.6111111111111112
 40
0.6666666666666666
 40
0.6666666666666666
 40
0.6666666666666666
 40
0.6666666666666666
 40
0.7222222222222222
 40
0.7222222222222222
 40
0.7222222222222222
 40
0.7222222222222222
 40
0.7777777777777778
 40
0.7777777777777778
 40
0.7777777777777778
 40
0.7777777777777778
 40
0.8333333333333334
 40
0.8333333333333334
 40
0.8333333333333334
 40
0.8333333333333334
 40
0.8888888888888888
 40
0.8888888888888888
 40
0.8888888888888888
 40
0.8888888888888888
 40
1.0
 40
1.0
 40
1.0
 40
1.0
 10
30.6975
 20
-95.6008
 30
0.0
 10
29.2363
 20
-95.7628
 30
0.0
 10
27.6803
 20
-95.6945
 30
0.0
 10
26.1621
 20
-95.881
 30
0.0
 10
26.1621
 20
-95.881
 30
0.0
 10
21.3894
 20
-96.4674
 30
0.0
 10
17.9307
 20
-96.8895
 30
0.0
 10
13.081
 20
-97.6415
 30
0.0
 10
13.081
 20
-97.6415
 30
0.0
 10
13.081
 20
-97.6415
 30
0.0
 10
6.6262
 20
-98.6742
 30
0.0
 10
6.6262
 20
-98.6742
 30
0.0
 10
6.6262
 20
-98.6742
 30
0.0
 10
1.5724
 20
-99.7885
 30
0.0
 10
-4.8458
 20
-100.7697
 30
0.0
 10
-10.0843
 20
-100.8389
 30
0.0
 10
-10.0843
 20
-100.8389
 30
0.0
 10
-17.8507
 20
-100.9417
 30
0.0
 10
-20.8518
 20
-97.8538
 30
0.0
 10
-24.1574
 20
-97.3935
 30
0.0
 10
-24.1574
 20
-97.3935
 30
0.0
 10
-23.9281
 20
-98.0838
 30
0.0
 10
-21.5755
 20
-99.6566
 30
0.0
 10
-20.7996
 20
-100.0519
 30
0.0
 10
-20.7996
 20
-100.0519
 30
0.0
 10
-16.5035
 20
-102.2408
 30
0.0
 10
-14.5751
 20
-102.8461
 30
0.0
 10
-9.2773
 20
-103.2917
 30
0.0
 10
-9.2773
 20
-103.2917
 30
0.0
 10
-6.4336
 20
-103.3833
 30
0.0
 10
-3.9315
 20
-103.3445
 30
0.0
 10
-1.0992
 20
-103.2807
 30
0.0
 10
-1.0992
 20
-103.2807
 30
0.0
 10
4.1548
 20
-102.8297
 30
0.0
 10
8.6706
 20
-102.3721
 30
0.0
 10
13.8669
 20
-101.6392
 30
0.0
 10
13.8669
 20
-101.6392
 30
0.0
 10
15.5857
 20
-101.4363
 30
0.0
 10
17.3921
 20
-101.0549
 30
0.0
 10
19.1533
 20
-100.8453
 30
0.0
 10
19.1533
 20
-100.8453
 30
0.0
 10
22.7216
 20
-100.4208
 30
0.0
 10
26.1334
 20
-99.7202
 30
0.0
 10
29.8842
 20
-99.4019
 30
0.0
 10
29.8842
 20
-99.4019
 30
0.0
 10
34.8491
 20
-98.9803
 30
0.0
 10
41.7719
 20
-98.3765
 30
0.0
 10
46.5635
 20
-100.2122
 30
0.0
 10
46.5635
 20
-100.2122
 30
0.0
 10
48.9196
 20
-101.1151
 30
0.0
 10
48.7936
 20
-101.2683
 30
0.0
 10
50.5844
 20
-102.2135
 30
0.0
 10
50.5844
 20
-102.2135
 30
0.0
 10
50.5844
 20
-102.2135
 30
0.0
 10
50.8003
 20
-102.2124
 30
0.0
 10
50.8003
 20
-102.2124
 30
0.0
 10
50.8003
 20
-102.2124
 30
0.0
 10
50.7985
 20
-101.328
 30
0.0
 10
48.1038
 20
-99.3164
 30
0.0
 10
47.3375
 20
-98.8555
 30
0.0
 10
47.3375
 20
-98.8555
 30
0.0
 10
45.9563
 20
-98.0249
 30
0.0
 10
44.5115
 20
-97.3337
 30
0.0
 10
42.7587
 20
-96.8559
 30
0.0
 10
42.7587
 20
-96.8559
 30
0.0
 10
38.672
 20
-95.7422
 30
0.0
 10
35.3567
 20
-95.4958
 30
0.0
 10
30.6975
 20
-95.6008
 30
0.0
  0
SPLINE
  5
87
330
1F
100
AcDbEntity
  8
layer 1
100
AcDbSpline
210
0.0
220
0.0
230
1.0
 70
    11
 71
     3
 72
    48
 73
    44
 74
     0
 42
0.000000001
 43
0.0000000001
 40
0.0
 40
0.0
 40
0.0
 40
0.0
 40
0.0833333333333333
 40
0.0833333333333333
 40
0.0833333333333333
 40
0.0833333333333333
 40
0.1666666666666667
 40
0.1666666666666667
 40
0.1666666666666667
 40
0.1666666666666667
 40
0.25
 40
0.25
 40
0.25
 40
0.25
 40
0.3333333333333333
 40
0.3333333333333333
 40
0.3333333333333333
 40
0.3333333333333333
 40
0.4166666666666667
 40
0.4166666666666667
 40
0.4166666666666667
 40
0.4166666666666667
 40
0.5
 40
0.5
 40
0.5
 40
0.5
 40
0.5833333333333334
 40
0.5833333333333334
 40
0.5833333333333334
 40
0.5833333333333334
 40
0.6666666666666666
 40
0.6666666666666666
 40
0.6666666666666666
 40
0.6666666666666666
 40
0.75
 40
0.75
 40
0.75
 40
0.75
 40
0.8333333333333334
 40
0.8333333333333334
 40
0.8333333333333334
 40
0.8333333333333334
 40
1.0
 40
1.0
 40
1.0
 40
1.0
 10
48.016
 20
-102.7707
 30
0.0
 10
41.126
 20
-101.3629
 30
0.0
 10
34.9365
 20
-101.3698
 30
0.0
 10
27.9376
 20
-102.1681
 30
0.0
 10
27.9376
 20
-102.1681
 30
0.0
 10
24.6771
 20
-102.5398
 30
0.0
 10
21.7105
 20
-103.2296
 30
0.0
 10
18.3751
 20
-103.4029
 30
0.0
 10
18.3751
 20
-103.4029
 30
0.0
 10
16.4441
 20
-103.5034
 30
0.0
 10
14.4734
 20
-103.1711
 30
0.0
 10
12.5692
 20
-103.3324
 30
0.0
 10
12.5692
 20
-103.3324
 30
0.0
 10
13.6407
 20
-105.3191
 30
0.0
 10
29.3235
 20
-104.3019
 30
0.0
 10
31.9641
 20
-104.2717
 30
0.0
 10
31.9641
 20
-104.2717
 30
0.0
 10
35.5198
 20
-104.231
 30
0.0
 10
38.4096
 20
-104.5936
 30
0.0
 10
41.7586
 20
-104.9096
 30
0.0
 10
41.7586
 20
-104.9096
 30
0.0
 10
63.2298
 20
-107.7726
 30
0.0
 10
64.6844
 20
-112.9111
 30
0.0
 10
69.7501
 20
-127.6769
 30
0.0
 10
69.7501
 20
-127.6769
 30
0.0
 10
70.2918
 20
-126.9765
 30
0.0
 10
69.7887
 20
-123.8034
 30
0.0
 10
69.628
 20
-122.8719
 30
0.0
 10
69.628
 20
-122.8719
 30
0.0
 10
69.4257
 20
-121.1715
 30
0.0
 10
68.8266
 20
-119.3417
 30
0.0
 10
68.2649
 20
-117.9135
 30
0.0
 10
68.2649
 20
-117.9135
 30
0.0
 10
67.956
 20
-117.1284
 30
0.0
 10
67.6155
 20
-116.4717
 30
0.0
 10
67.2366
 20
-115.7043
 30
0.0
 10
67.2366
 20
-115.7043
 30
0.0
 10
66.1973
 20
-113.5998
 30
0.0
 10
63.046
 20
-109.7979
 30
0.0
 10
61.396
 20
-108.5275
 30
0.0
 10
61.396
 20
-108.5275
 30
0.0
 10
57.6305
 20
-105.4933
 30
0.0
 10
52.6535
 20
-103.9044
 30
0.0
 10
48.016
 20
-102.7707
 30
0.0
  0
SPLINE
  5
88
330
1F
100
AcDbEntity
  8
layer 1
100
AcDbSpline
210
0.0
220
0.0
230
1.0
 70
    11
 71
     3
 72
    40
 73
    36
 74
     0
 42
0.000000001
 43
0.0000000001
 40
0.0
 40
0.0
 40
0.0
 40
0.0
 40
0.1
 40
0.1
 40
0.1
 40
0.1
 40
0.2
 40
0.2
 40
0.2
 40
0.2
 40
0.3
 40
0.3
 40
0.3
 40
0.3
 40
0.4
 40
0.4
 40
0.4
 40
0.4
 40
0.5
 40
0.5
 40
0.5
 40
0.5
 40
0.6
 40
0.6
 40
0.6
 40
0.6
 40
0.7
 40
0.7
 40
0.7
 40
0.7
 40
0.8
 40
0.8
 40
0.8
 40
0.8
 40
1.0
 40
1.0
 40
1.0
 40
1.0
 10
48.208
 20
-111.5889
 30
0.0
 10
45.5169
 20
-111.7839
 30
0.0
 10
42.9609
 20
-112.0104
 30
0.0
 10
40.1434
 20
-112.0903
 30
0.0
 10
40.1434
 20
-112.0903
 30
0.0
 10
34.7006
 20
-112.2447
 30
0.0
 10
29.8367
 20
-111.8025
 30
0.0
 10
25.1053
 20
-109.5692
 30
0.0
 10
25.1053
 20
-109.5692
 30
0.0
 10
22.793
 20
-108.4778
 30
0.0
 10
20.5045
 20
-105.6031
 30
0.0
 10
19.5823
 20
-105.3042
 30
0.0
 10
19.5823
 20
-105.3042
 30
0.0
 10
20.1647
 20
-107.2965
 30
0.0
 10
22.694
 20
-110.1027
 30
0.0
 10
24.1802
 20
-111.2982
 30
0.0
 10
24.1802
 20
-111.2982
 30
0.0
 10
28.1438
 20
-114.4867
 30
0.0
 10
33.8796
 20
-115.2561
 30
0.0
 10
38.9938
 20
-115.0995
 30
0.0
 10
38.9938
 20
-115.0995
 30
0.0
 10
43.2616
 20
-114.9685
 30
0.0
 10
47.2739
 20
-113.9184
 30
0.0
 10
51.4323
 20
-113.5659
 30
0.0
 10
51.4323
 20
-113.5659
 30
0.0
 10
54.54
 20
-113.3029
 30
0.0
 10
57.0092
 20
-112.8305
 30
0.0
 10
60.1463
 20
-113.5797
 30
0.0
 10
60.1463
 20
-113.5797
 30
0.0
 10
61.033
 20
-113.7915
 30
0.0
 10
63.3586
 20
-115.2096
 30
0.0
 10
63.5428
 20
-115.0362
 30
0.0
 10
63.5428
 20
-115.0362
 30
0.0
 10
62.0242
 20
-111.0315
 30
0.0
 10
51.3929
 20
-111.4616
 30
0.0
 10
48.208
 20
-111.5889
 30
0.0
  0
ENDSEC
  0
SECTION
  2
OBJECTS
  0
DICTIONARY
  5
C
330
0
100
AcDbDictionary
281
     1
  3
ACAD_DETAILVIEWSTYLE
350
BD
  3
ACAD_GROUP
350
D
  3
ACAD_LAYOUT
350
1A
  3
ACAD_MATERIAL
350
43
  3
ACAD_MLEADERSTYLE
350
BC
  3
ACAD_MLINESTYLE
350
17
  3
ACAD_PLOTSETTINGS
350
19
  3
ACAD_PLOTSTYLENAME
350
E
  3
ACAD_SCALELIST
350
47
  3
ACAD_SECTIONVIEWSTYLE
350
BE
  3
ACAD_TABLESTYLE
350
BB
  3
ACAD_VISUALSTYLE
350
2A
  3
AcDbVariableDictionary
350
89
  0
SUN
  5
69
330
29
100
AcDbSun
 90
        1
290
     0
 63
     7
421
 16777215
 40
1.0
291
     1
 91
  2455826
 92
 54000000
292
     0
 70
     2
 71
   256
280
     1
  0
DICTIONARY
  5
BD
102
{ACAD_REACTORS
330
C
102
}
330
C
100
AcDbDictionary
281
     1
  0
DICTIONARY
  5
D
102
{ACAD_REACTORS
330
C
102
}
330
C
100
AcDbDictionary
281
     1
  0
DICTIONARY
  5
1A
102
{ACAD_REACTORS
330
C
102
}
330
C
100
AcDbDictionary
281
     1
  3
Layout1
350
1E
  3
Layout2
350
26
  3
Model
350
22
  0
DICTIONARY
  5
43
102
{ACAD_REACTORS
330
C
102
}
330
C
100
AcDbDictionary
281
     1
  3
ByBlock
350
45
  3
ByLayer
350
44
  3
Global
350
46
  0
DICTIONARY
  5
BC
102
{ACAD_REACTORS
330
C
102
}
330
C
100
AcDbDictionary
281
     1
  0
DICTIONARY
  5
17
102
{ACAD_REACTORS
330
C
102
}
330
C
100
AcDbDictionary
281
     1
  3
Standard
350
18
  0
DICTIONARY
  5
19
102
{ACAD_REACTORS
330
C
102
}
330
C
100
AcDbDictionary
281
     1
  0
ACDBDICTIONARYWDFLT
  5
E
102
{ACAD_REACTORS
330
C
102
}
330
C
100
AcDbDictionary
281
     1
  3
Normal
350
F
100
AcDbDictionaryWithDefault
340
F
  0
DICTIONARY
  5
47
102
{ACAD_REACTORS
330
C
102
}
330
C
100
AcDbDictionary
281
     1
  3
A0
350
48
  3
A1
350
49
  3
A2
350
4A
  3
A3
350
4B
  3
A4
350
4C
  3
A5
350
4D
  3
A6
350
4E
  3
A7
350
4F
  3
A8
350
50
  3
A9
350
51
  3
B0
350
52
  3
B1
350
53
  3
B2
350
54
  3
B3
350
55
  3
B4
350
56
  3
B5
350
57
  3
B6
350
58
  3
B7
350
59
  3
B8
350
5A
  3
B9
350
5B
  3
C0
350
5C
  3
C1
350
5D
  3
C2
350
5E
  3
C3
350
5F
  3
C4
350
60
  3
C5
350
61
  3
C6
350
62
  3
C7
350
63
  3
C8
350
64
  3
C9
350
65
  3
D0
350
66
  3
D1
350
67
  3
D2
350
68
  0
DICTIONARY
  5
BE
102
{ACAD_REACTORS
330
C
102
}
330
C
100
AcDbDictionary
281
     1
  0
DICTIONARY
  5
BB
102
{ACAD_REACTORS
330
C
102
}
330
C
100
AcDbDictionary
281
     1
  0
DICTIONARY
  5
2A
102
{ACAD_REACTORS
330
C
102
}
330
C
100
AcDbDictionary
281
     1
  3
2dWireframe
350
2F
  3
Basic
350
32
  3
Brighten
350
36
  3
ColorChange
350
3A
  3
Conceptual
350
34
  3
Dim
350
35
  3
EdgeColorOff
350
3D
  3
Facepattern
350
39
  3
Flat
350
2B
  3
FlatWithEdges
350
2C
  3
Gouraud
350
2D
  3
GouraudWithEdges
350
2E
  3
Hidden
350
31
  3
JitterOff
350
3B
  3
Linepattern
350
38
  3
OverhangOff
350
3C
  3
Realistic
350
33
  3
Shaded
350
42
  3
Shaded with edges
350
41
  3
Shades of Gray
350
3E
  3
Sketchy
350
3F
  3
Thicken
350
37
  3
Wireframe
350
30
  3
X-Ray
350
40
  0
DICTIONARY
  5
89
102
{ACAD_REACTORS
330
C
102
}
330
C
100
AcDbDictionary
281
     1
  3
CANNOSCALE
350
8A
  0
LAYOUT
  5
1E
102
{ACAD_REACTORS
330
1A
102
}
330
1A
100
AcDbPlotSettings
  1

  2
none_device
  4

  6

 40
0.0
 41
0.0
 42
0.0
 43
0.0
 44
0.0
 45
0.0
 46
0.0
 47
0.0
 48
0.0
 49
0.0
140
0.0
141
0.0
142
1.0
143
1.0
 70
   688
 72
     0
 73
     0
 74
     5
  7

 75
    16
 76
     0
 77
     2
 78
   300
147
1.0
148
0.0
149
0.0
100
AcDbLayout
  1
Layout1
 70
     1
 71
     1
 10
0.0
 20
0.0
 11
12.0
 21
9.0
 12
0.0
 22
0.0
 32
0.0
 14
1.000000000000000E+20
 24
1.000000000000000E+20
 34
1.000000000000000E+20
 15
-1.000000000000000E+20
 25
-1.000000000000000E+20
 35
-1.000000000000000E+20
146
0.0
 13
0.0
 23
0.0
 33
0.0
 16
1.0
 26
0.0
 36
0.0
 17
0.0
 27
1.0
 37
0.0
 76
     0
330
1B
  0
LAYOUT
  5
26
102
{ACAD_REACTORS
330
1A
102
}
330
1A
100
AcDbPlotSettings
  1

  2
none_device
  4

  6

 40
0.0
 41
0.0
 42
0.0
 43
0.0
 44
0.0
 45
0.0
 46
0.0
 47
0.0
 48
0.0
 49
0.0
140
0.0
141
0.0
142
1.0
143
1.0
 70
   688
 72
     0
 73
     0
 74
     5
  7

 75
    16
 76
     0
 77
     2
 78
   300
147
1.0
148
0.0
149
0.0
100
AcDbLayout
  1
Layout2
 70
     1
 71
     2
 10
0.0
 20
0.0
 11
0.0
 21
0.0
 12
0.0
 22
0.0
 32
0.0
 14
0.0
 24
0.0
 34
0.0
 15
0.0
 25
0.0
 35
0.0
146
0.0
 13
0.0
 23
0.0
 33
0.0
 16
1.0
 26
0.0
 36
0.0
 17
0.0
 27
1.0
 37
0.0
 76
     0
330
23
  0
LAYOUT
  5
22
102
{ACAD_REACTORS
330
1A
102
}
330
1A
100
AcDbPlotSettings
  1

  2
none_device
  4
Letter_(8.50_x_11.00_Inches)
  6

 40
6.35
 41
6.35
 42
6.35000508
 43
6.35000508
 44
215.9
 45
279.4
 46
0.0
 47
0.0
 48
0.0
 49
0.0
140
0.0
141
0.0
142
1.0
143
1.0
 70
  1712
 72
     0
 73
     0
 74
     0
  7

 75
     0
 76
     0
 77
     2
 78
   300
147
1.0
148
0.0
149
0.0
100
AcDbLayout
  1
Model
 70
     1
 71
     0
 10
0.0
 20
0.0
 11
12.0
 21
9.0
 12
0.0
 22
0.0
 32
0.0
 14
-99.4362
 24
-148.9828
 34
0.0
 15
100.4076
 25
150.44
 35
0.0
146
0.0
 13
0.0
 23
0.0
 33
0.0
 16
1.0
 26
0.0
 36
0.0
 17
0.0
 27
1.0
 37
0.0
 76
     0
330
1F
331
29
  0
MATERIAL
  5
45
102
{ACAD_REACTORS
330
43
102
}
330
43
100
AcDbMaterial
  1
ByBlock
 72
     1
 94
      127
  0
MATERIAL
  5
44
102
{ACAD_REACTORS
330
43
102
}
330
43
100
AcDbMaterial
  1
ByLayer
 72
     1
 94
      127
  0
MATERIAL
  5
46
102
{ACAD_REACTORS
330
43
102
}
330
43
100
AcDbMaterial
  1
Global
 72
     1
 94
      127
  0
MLINESTYLE
  5
18
102
{ACAD_REACTORS
330
17
102
}
330
17
100
AcDbMlineStyle
  2
Standard
 70
     0
  3

 62
   256
 51
90.0
 52
90.0
 71
     2
 49
0.5
 62
   256
  6
BYLAYER
 49
-0.5
 62
   256
  6
BYLAYER
  0
ACDBPLACEHOLDER
  5
F
102
{ACAD_REACTORS
330
E
102
}
330
E
  0
SCALE
  5
48
102
{ACAD_REACTORS
330
47
102
}
330
47
100
AcDbScale
 70
     0
300
1:1
140
1.0
141
1.0
290
     1
  0
SCALE
  5
49
102
{ACAD_REACTORS
330
47
102
}
330
47
100
AcDbScale
 70
     0
300
1:2
140
1.0
141
2.0
290
     0
  0
SCALE
  5
4A
102
{ACAD_REACTORS
330
47
102
}
330
47
100
AcDbScale
 70
     0
300
1:4
140
1.0
141
4.0
290
     0
  0
SCALE
  5
4B
102
{ACAD_REACTORS
330
47
102
}
330
47
100
AcDbScale
 70
     0
300
1:5
140
1.0
141
5.0
290
     0
  0
SCALE
  5
4C
102
{ACAD_REACTORS
330
47
102
}
330
47
100
AcDbScale
 70
     0
300
1:8
140
1.0
141
8.0
290
     0
  0
SCALE
  5
4D
102
{ACAD_REACTORS
330
47
102
}
330
47
100
AcDbScale
 70
     0
300
1:10
140
1.0
141
10.0
290
     0
  0
SCALE
  5
4E
102
{ACAD_REACTORS
330
47
102
}
330
47
100
AcDbScale
 70
     0
300
1:16
140
1.0
141
16.0
290
     0
  0
SCALE
  5
4F
102
{ACAD_REACTORS
330
47
102
}
330
47
100
AcDbScale
 70
     0
300
1:20
140
1.0
141
20.0
290
     0
  0
SCALE
  5
50
102
{ACAD_REACTORS
330
47
102
}
330
47
100
AcDbScale
 70
     0
300
1:30
140
1.0
141
30.0
290
     0
  0
SCALE
  5
51
102
{ACAD_REACTORS
330
47
102
}
330
47
100
AcDbScale
 70
     0
300
1:40
140
1.0
141
40.0
290
     0
  0
SCALE
  5
52
102
{ACAD_REACTORS
330
47
102
}
330
47
100
AcDbScale
 70
     0
300
1:50
140
1.0
141
50.0
290
     0
  0
SCALE
  5
53
102
{ACAD_REACTORS
330
47
102
}
330
47
100
AcDbScale
 70
     0
300
1:100
140
1.0
141
100.0
290
     0
  0
SCALE
  5
54
102
{ACAD_REACTORS
330
47
102
}
330
47
100
AcDbScale
 70
     0
300
2:1
140
2.0
141
1.0
290
     0
  0
SCALE
  5
55
102
{ACAD_REACTORS
330
47
102
}
330
47
100
AcDbScale
 70
     0
300
4:1
140
4.0
141
1.0
290
     0
  0
SCALE
  5
56
102
{ACAD_REACTORS
330
47
102
}
330
47
100
AcDbScale
 70
     0
300
8:1
140
8.0
141
1.0
290
     0
  0
SCALE
  5
57
102
{ACAD_REACTORS
330
47
102
}
330
47
100
AcDbScale
 70
     0
300
10:1
140
10.0
141
1.0
290
     0
  0
SCALE
  5
58
102
{ACAD_REACTORS
330
47
102
}
330
47
100
AcDbScale
 70
     0
300
100:1
140
100.0
141
1.0
290
     0
  0
SCALE
  5
59
102
{ACAD_REACTORS
330
47
102
}
330
47
100
AcDbScale
 70
     0
300
1/128" = 1'-0"
140
0.0078125
141
12.0
290
     0
  0
SCALE
  5
5A
102
{ACAD_REACTORS
330
47
102
}
330
47
100
AcDbScale
 70
     0
300
1/64" = 1'-0"
140
0.015625
141
12.0
290
     0
  0
SCALE
  5
5B
102
{ACAD_REACTORS
330
47
102
}
330
47
100
AcDbScale
 70
     0
300
1/32" = 1'-0"
140
0.03125
141
12.0
290
     0
  0
SCALE
  5
5C
102
{ACAD_REACTORS
330
47
102
}
330
47
100
AcDbScale
 70
     0
300
1/16" = 1'-0"
140
0.0625
141
12.0
290
     0
  0
SCALE
  5
5D
102
{ACAD_REACTORS
330
47
102
}
330
47
100
AcDbScale
 70
     0
300
3/32" = 1'-0"
140
0.09375
141
12.0
290
     0
  0
SCALE
  5
5E
102
{ACAD_REACTORS
330
47
102
}
330
47
100
AcDbScale
 70
     0
300
1/8" = 1'-0"
140
0.125
141
12.0
290
     0
  0
SCALE
  5
5F
102
{ACAD_REACTORS
330
47
102
}
330
47
100
AcDbScale
 70
     0
300
3/16" = 1'-0"
140
0.1875
141
12.0
290
     0
  0
SCALE
  5
60
102
{ACAD_REACTORS
330
47
102
}
330
47
100
AcDbScale
 70
     0
300
1/4" = 1'-0"
140
0.25
141
12.0
290
     0
  0
SCALE
  5
61
102
{ACAD_REACTORS
330
47
102
}
330
47
100
AcDbScale
 70
     0
300
3/8" = 1'-0"
140
0.375
141
12.0
290
     0
  0
SCALE
  5
62
102
{ACAD_REACTORS
330
47
102
}
330
47
100
AcDbScale
 70
     0
300
1/2" = 1'-0"
140
0.5
141
12.0
290
     0
  0
SCALE
  5
63
102
{ACAD_REACTORS
330
47
102
}
330
47
100
AcDbScale
 70
     0
300
3/4" = 1'-0"
140
0.75
141
12.0
290
     0
  0
SCALE
  5
64
102
{ACAD_REACTORS
330
47
102
}
330
47
100
AcDbScale
 70
     0
300
1" = 1'-0"
140
1.0
141
12.0
290
     0
  0
SCALE
  5
65
102
{ACAD_REACTORS
330
47
102
}
330
47
100
AcDbScale
 70
     0
300
1-1/2" = 1'-0"
140
1.5
141
12.0
290
     0
  0
SCALE
  5
66
102
{ACAD_REACTORS
330
47
102
}
330
47
100
AcDbScale
 70
     0
300
3" = 1'-0"
140
3.0
141
12.0
290
     0
  0
SCALE
  5
67
102
{ACAD_REACTORS
330
47
102
}
330
47
100
AcDbScale
 70
     0
300
6" = 1'-0"
140
6.0
141
12.0
290
     0
  0
SCALE
  5
68
102
{ACAD_REACTORS
330
47
102
}
330
47
100
AcDbScale
 70
     0
300
1'-0" = 1'-0"
140
12.0
141
12.0
290
     0
  0
VISUALSTYLE
  5
2F
102
{ACAD_REACTORS
330
2A
102
}
102
{ACAD_XDICTIONARY
360
93
102
}
330
2A
100
AcDbVisualStyle
  2
2dWireframe
 70
     4
 71
     0
 72
     2
 73
     0
 90
        0
 40
0.6
 41
30.0
 62
     5
 63
     7
421
 16777215
 74
     1
 91
        4
 64
     7
 65
   257
 75
     1
175
     1
 42
1.0
 92
        0
 66
   257
 43
1.0
 76
     1
 77
     6
 78
     2
 67
     7
 79
     5
170
     0
171
     0
290
     0
174
     0
 93
        1
 44
0.0
173
     0
291
     0
 45
0.0
  0
VISUALSTYLE
  5
32
102
{ACAD_REACTORS
330
2A
102
}
102
{ACAD_XDICTIONARY
360
99
102
}
330
2A
100
AcDbVisualStyle
  2
Basic
 70
     7
 71
     1
 72
     0
 73
     1
 90
        0
 40
0.6
 41
30.0
 62
     5
 63
     7
421
 16777215
 74
     0
 91
        4
 64
     7
 65
   257
 75
     1
175
     1
 42
1.0
 92
        8
 66
     7
 43
1.0
 76
     1
 77
     6
 78
     2
 67
     7
 79
     5
170
     0
171
     0
290
     0
174
     0
 93
        1
 44
0.0
173
     0
291
     1
 45
0.0
  0
VISUALSTYLE
  5
36
102
{ACAD_REACTORS
330
2A
102
}
102
{ACAD_XDICTIONARY
360
A1
102
}
330
2A
100
AcDbVisualStyle
  2
Brighten
 70
    12
 71
     2
 72
     2
 73
     0
 90
        0
 40
0.6
 41
30.0
 62
     5
 63
     7
421
 16777215
 74
     1
 91
        4
 64
     7
 65
   257
 75
     1
175
     1
 42
1.0
 92
        8
 66
     7
 43
1.0
 76
     1
 77
     6
 78
     2
 67
     7
 79
     5
170
     0
171
     0
290
     0
174
     0
 93
        1
 44
50.0
173
     0
291
     1
 45
0.0
  0
VISUALSTYLE
  5
3A
102
{ACAD_REACTORS
330
2A
102
}
102
{ACAD_XDICTIONARY
360
A9
102
}
330
2A
100
AcDbVisualStyle
  2
ColorChange
 70
    16
 71
     2
 72
     2
 73
     3
 90
        0
 40
0.6
 41
30.0
 62
     5
 63
     8
421
  8421504
 74
     1
 91
        4
 64
     7
 65
   257
 75
     1
175
     1
 42
1.0
 92
        8
 66
     8
424
  8421504
 43
1.0
 76
     1
 77
     6
 78
     2
 67
     7
 79
     5
170
     0
171
     0
290
     0
174
     0
 93
        1
 44
0.0
173
     0
291
     1
 45
0.0
  0
VISUALSTYLE
  5
34
102
{ACAD_REACTORS
330
2A
102
}
102
{ACAD_XDICTIONARY
360
9D
102
}
330
2A
100
AcDbVisualStyle
  2
Conceptual
 70
     9
 71
     3
 72
     2
 73
     0
 90
        0
 40
0.6
 41
30.0
 62
     5
 63
     7
421
 16777215
 74
     2
 91
        2
 64
     7
 65
   257
 75
     1
175
     1
 42
179.0
 92
        8
 66
     7
 43
1.0
 76
     1
 77
     6
 78
     2
 67
     7
 79
     3
170
     0
171
     0
290
     0
174
     0
 93
        1
 44
0.0
173
     0
291
     0
 45
0.0
  0
VISUALSTYLE
  5
35
102
{ACAD_REACTORS
330
2A
102
}
102
{ACAD_XDICTIONARY
360
9F
102
}
330
2A
100
AcDbVisualStyle
  2
Dim
 70
    11
 71
     2
 72
     2
 73
     0
 90
        0
 40
0.6
 41
30.0
 62
     5
 63
     7
421
 16777215
 74
     1
 91
        4
 64
     7
 65
   257
 75
     1
175
     1
 42
1.0
 92
        8
 66
     7
 43
1.0
 76
     1
 77
     6
 78
     2
 67
     7
 79
     5
170
     0
171
     0
290
     0
174
     0
 93
        1
 44
-50.0
173
     0
291
     1
 45
0.0
  0
VISUALSTYLE
  5
3D
102
{ACAD_REACTORS
330
2A
102
}
102
{ACAD_XDICTIONARY
360
AF
102
}
330
2A
100
AcDbVisualStyle
  2
EdgeColorOff
 70
    22
 71
     2
 72
     2
 73
     0
 90
        0
 40
0.6
 41
30.0
 62
     5
 63
     7
421
 16777215
 74
     1
 91
        4
 64
     7
 65
   257
 75
     1
175
     1
 42
1.0
 92
        8
 66
     7
 43
1.0
 76
     1
 77
     6
 78
     2
 67
     7
 79
     5
170
     0
171
     0
290
     0
174
     0
 93
        1
 44
0.0
173
     0
291
     1
 45
0.0
  0
VISUALSTYLE
  5
39
102
{ACAD_REACTORS
330
2A
102
}
102
{ACAD_XDICTIONARY
360
A7
102
}
330
2A
100
AcDbVisualStyle
  2
Facepattern
 70
    15
 71
     2
 72
     2
 73
     0
 90
        0
 40
0.6
 41
30.0
 62
     5
 63
     7
421
 16777215
 74
     1
 91
        4
 64
     7
 65
   257
 75
     1
175
     1
 42
1.0
 92
        8
 66
     7
 43
1.0
 76
     1
 77
     6
 78
     2
 67
     7
 79
     5
170
     0
171
     0
290
     0
174
     0
 93
        1
 44
0.0
173
     0
291
     1
 45
0.0
  0
VISUALSTYLE
  5
2B
102
{ACAD_REACTORS
330
2A
102
}
102
{ACAD_XDICTIONARY
360
8B
102
}
330
2A
100
AcDbVisualStyle
  2
Flat
 70
     0
 71
     2
 72
     1
 73
     1
 90
        2
 40
0.6
 41
30.0
 62
     5
 63
     7
421
 16777215
 74
     0
 91
        0
 64
     7
 65
   257
 75
     1
175
     1
 42
1.0
 92
        8
 66
     7
 43
1.0
 76
     1
 77
     6
 78
     2
 67
     7
 79
     5
170
     0
171
     0
290
     0
174
     0
 93
       13
 44
0.0
173
     0
291
     1
 45
0.0
  0
VISUALSTYLE
  5
2C
102
{ACAD_REACTORS
330
2A
102
}
102
{ACAD_XDICTIONARY
360
8D
102
}
330
2A
100
AcDbVisualStyle
  2
FlatWithEdges
 70
     1
 71
     2
 72
     1
 73
     1
 90
        2
 40
0.6
 41
30.0
 62
     5
 63
     7
421
 16777215
 74
     1
 91
        0
 64
     7
 65
   257
 75
     1
175
     1
 42
1.0
 92
        0
 66
   257
 43
1.0
 76
     1
 77
     6
 78
     2
 67
     7
 79
     5
170
     0
171
     0
290
     0
174
     0
 93
       13
 44
0.0
173
     0
291
     1
 45
0.0
  0
VISUALSTYLE
  5
2D
102
{ACAD_REACTORS
330
2A
102
}
102
{ACAD_XDICTIONARY
360
8F
102
}
330
2A
100
AcDbVisualStyle
  2
Gouraud
 70
     2
 71
     2
 72
     2
 73
     1
 90
        2
 40
0.6
 41
30.0
 62
     5
 63
     7
421
 16777215
 74
     0
 91
        0
 64
     7
 65
   257
 75
     1
175
     1
 42
1.0
 92
        0
 66
     7
 43
1.0
 76
     1
 77
     6
 78
     2
 67
     7
 79
     5
170
     0
171
     0
290
     0
174
     0
 93
       13
 44
0.0
173
     0
291
     1
 45
0.0
  0
VISUALSTYLE
  5
2E
102
{ACAD_REACTORS
330
2A
102
}
102
{ACAD_XDICTIONARY
360
91
102
}
330
2A
100
AcDbVisualStyle
  2
GouraudWithEdges
 70
     3
 71
     2
 72
     2
 73
     1
 90
        2
 40
0.6
 41
30.0
 62
     5
 63
     7
421
 16777215
 74
     1
 91
        0
 64
     7
 65
   257
 75
     1
175
     1
 42
1.0
 92
        0
 66
   257
 43
1.0
 76
     1
 77
     6
 78
     2
 67
     7
 79
     5
170
     0
171
     0
290
     0
174
     0
 93
       13
 44
0.0
173
     0
291
     1
 45
0.0
  0
VISUALSTYLE
  5
31
102
{ACAD_REACTORS
330
2A
102
}
102
{ACAD_XDICTIONARY
360
97
102
}
330
2A
100
AcDbVisualStyle
  2
Hidden
 70
     6
 71
     1
 72
     2
 73
     2
 90
        0
 40
0.6
 41
30.0
 62
     5
 63
     7
421
 16777215
 74
     2
 91
        2
 64
     7
 65
   257
 75
     2
175
     1
 42
40.0
 92
        0
 66
   257
 43
1.0
 76
     1
 77
     6
 78
     2
 67
     7
 79
     3
170
     0
171
     0
290
     0
174
     0
 93
        1
 44
0.0
173
     0
291
     0
 45
0.0
  0
VISUALSTYLE
  5
3B
102
{ACAD_REACTORS
330
2A
102
}
102
{ACAD_XDICTIONARY
360
AB
102
}
330
2A
100
AcDbVisualStyle
  2
JitterOff
 70
    20
 71
     2
 72
     2
 73
     0
 90
        0
 40
0.6
 41
30.0
 62
     5
 63
     7
421
 16777215
 74
     1
 91
        4
 64
     7
 65
   257
 75
     1
175
     1
 42
1.0
 92
       10
 66
     7
 43
1.0
 76
     1
 77
     6
 78
     2
 67
     7
 79
     5
170
     0
171
     0
290
     0
174
     0
 93
        1
 44
0.0
173
     0
291
     1
 45
0.0
  0
VISUALSTYLE
  5
38
102
{ACAD_REACTORS
330
2A
102
}
102
{ACAD_XDICTIONARY
360
A5
102
}
330
2A
100
AcDbVisualStyle
  2
Linepattern
 70
    14
 71
     2
 72
     2
 73
     0
 90
        0
 40
0.6
 41
30.0
 62
     5
 63
     7
421
 16777215
 74
     1
 91
        4
 64
     7
 65
   257
 75
     7
175
     7
 42
1.0
 92
        8
 66
     7
 43
1.0
 76
     1
 77
     6
 78
     2
 67
     7
 79
     5
170
     0
171
     0
290
     0
174
     0
 93
        1
 44
0.0
173
     0
291
     1
 45
0.0
  0
VISUALSTYLE
  5
3C
102
{ACAD_REACTORS
330
2A
102
}
102
{ACAD_XDICTIONARY
360
AD
102
}
330
2A
100
AcDbVisualStyle
  2
OverhangOff
 70
    21
 71
     2
 72
     2
 73
     0
 90
        0
 40
0.6
 41
30.0
 62
     5
 63
     7
421
 16777215
 74
     1
 91
        4
 64
     7
 65
   257
 75
     1
175
     1
 42
1.0
 92
        9
 66
     7
 43
1.0
 76
     1
 77
     6
 78
     2
 67
     7
 79
     5
170
     0
171
     0
290
     0
174
     0
 93
        1
 44
0.0
173
     0
291
     1
 45
0.0
  0
VISUALSTYLE
  5
33
102
{ACAD_REACTORS
330
2A
102
}
102
{ACAD_XDICTIONARY
360
9B
102
}
330
2A
100
AcDbVisualStyle
  2
Realistic
 70
     8
 71
     2
 72
     3
 73
     0
 90
        2
 40
0.6
 41
30.0
 62
     5
 63
     7
421
 16777215
 74
     0
 91
        0
 64
     7
 65
   257
 75
     1
175
     1
 42
1.0
 92
        8
 66
   257
 43
1.0
 76
     1
 77
     6
 78
     2
 67
     7
 79
     3
170
     0
171
     0
290
     0
174
     0
 93
       13
 44
0.0
173
     0
291
     0
 45
0.0
  0
VISUALSTYLE
  5
42
102
{ACAD_REACTORS
330
2A
102
}
102
{ACAD_XDICTIONARY
360
B9
102
}
330
2A
100
AcDbVisualStyle
  2
Shaded
 70
    27
 71
     2
 72
     2
 73
     1
 90
        2
 40
0.6
 41
30.0
 62
     5
 63
     7
421
 16777215
 74
     0
 91
        4
 64
     7
 65
   257
 75
     1
175
     1
 42
1.0
 92
        8
 66
   257
 43
1.0
 76
     1
 77
     6
 78
     2
 67
     8
425
  7895160
 79
     3
170
     0
171
     0
290
     0
174
     0
 93
        5
 44
0.0
173
     0
291
     0
 45
0.0
  0
VISUALSTYLE
  5
41
102
{ACAD_REACTORS
330
2A
102
}
102
{ACAD_XDICTIONARY
360
B7
102
}
330
2A
100
AcDbVisualStyle
  2
Shaded with edges
 70
    26
 71
     2
 72
     2
 73
     1
 90
        2
 40
0.6
 41
30.0
 62
     5
 63
     7
421
 16777215
 74
     1
 91
       10
 64
     7
 65
   257
 75
     2
175
     1
 42
1.0
 92
        8
 66
   257
 43
1.0
 76
     1
 77
     6
 78
     2
 67
     7
 79
     3
170
     0
171
     0
290
     0
174
     0
 93
        5
 44
0.0
173
     0
291
     0
 45
0.0
  0
VISUALSTYLE
  5
3E
102
{ACAD_REACTORS
330
2A
102
}
102
{ACAD_XDICTIONARY
360
B1
102
}
330
2A
100
AcDbVisualStyle
  2
Shades of Gray
 70
    23
 71
     2
 72
     2
 73
     3
 90
        0
 40
0.6
 41
30.0
 62
     5
 63
     7
421
 16777215
 74
     2
 91
        2
 64
     7
 65
     7
 75
     1
175
     1
 42
40.0
 92
        8
 66
     7
 43
1.0
 76
     1
 77
     6
 78
     2
 67
     7
 79
     3
170
     0
171
     0
290
     0
174
     0
 93
        1
 44
0.0
173
     0
291
     0
 45
0.0
  0
VISUALSTYLE
  5
3F
102
{ACAD_REACTORS
330
2A
102
}
102
{ACAD_XDICTIONARY
360
B3
102
}
330
2A
100
AcDbVisualStyle
  2
Sketchy
 70
    24
 71
     1
 72
     2
 73
     2
 90
        0
 40
0.6
 41
30.0
 62
     5
 63
     7
421
 16777215
 74
     2
 91
        2
 64
     7
 65
     7
 75
     1
175
     1
 42
40.0
 92
       11
 66
     7
 43
1.0
 76
     1
 77
     6
 78
     2
 67
     7
 79
     6
170
     0
171
     0
290
     0
174
     0
 93
        1
 44
0.0
173
     0
291
     0
 45
0.0
  0
VISUALSTYLE
  5
37
102
{ACAD_REACTORS
330
2A
102
}
102
{ACAD_XDICTIONARY
360
A3
102
}
330
2A
100
AcDbVisualStyle
  2
Thicken
 70
    13
 71
     2
 72
     2
 73
     0
 90
        0
 40
0.6
 41
30.0
 62
     5
 63
     7
421
 16777215
 74
     1
 91
        4
 64
     7
 65
   257
 75
     1
175
     1
 42
1.0
 92
       12
 66
     7
 43
1.0
 76
     1
 77
     6
 78
     2
 67
     7
 79
     5
170
     0
171
     0
290
     0
174
     0
 93
        1
 44
0.0
173
     0
291
     1
 45
0.0
  0
VISUALSTYLE
  5
30
102
{ACAD_REACTORS
330
2A
102
}
102
{ACAD_XDICTIONARY
360
95
102
}
330
2A
100
AcDbVisualStyle
  2
Wireframe
 70
     5
 71
     0
 72
     2
 73
     0
 90
        0
 40
0.6
 41
30.0
 62
     5
 63
     7
421
 16777215
 74
     1
 91
        4
 64
     7
 65
   257
 75
     1
175
     1
 42
1.0
 92
        0
 66
   257
 43
1.0
 76
     1
 77
     6
 78
     2
 67
     7
 79
     3
170
     0
171
     0
290
     0
174
     0
 93
        1
 44
0.0
173
     0
291
     0
 45
0.0
  0
VISUALSTYLE
  5
40
102
{ACAD_REACTORS
330
2A
102
}
102
{ACAD_XDICTIONARY
360
B5
102
}
330
2A
100
AcDbVisualStyle
  2
X-Ray
 70
    25
 71
     2
 72
     2
 73
     1
 90
        1
 40
0.5
 41
30.0
 62
     5
 63
     7
421
 16777215
 74
     1
 91
        0
 64
     7
 65
   257
 75
     1
175
     1
 42
1.0
 92
        8
 66
     7
 43
1.0
 76
     1
 77
     6
 78
     2
 67
     7
 79
     3
170
     0
171
     0
290
     0
174
     0
 93
       13
 44
0.0
173
     0
291
     0
 45
0.0
  0
DICTIONARYVAR
  5
8A
102
{ACAD_REACTORS
330
89
102
}
330
89
100
DictionaryVariables
280
     0
  1
1:1
  0
DICTIONARY
  5
93
330
2F
100
AcDbDictionary
280
     1
281
     1
  3
ACAD_XREC_ROUNDTRIP
360
94
  0
DICTIONARY
  5
99
330
32
100
AcDbDictionary
280
     1
281
     1
  3
ACAD_XREC_ROUNDTRIP
360
9A
  0
DICTIONARY
  5
A1
330
36
100
AcDbDictionary
280
     1
281
     1
  3
ACAD_XREC_ROUNDTRIP
360
A2
  0
DICTIONARY
  5
A9
330
3A
100
AcDbDictionary
280
     1
281
     1
  3
ACAD_XREC_ROUNDTRIP
360
AA
  0
DICTIONARY
  5
9D
330
34
100
AcDbDictionary
280
     1
281
     1
  3
ACAD_XREC_ROUNDTRIP
360
9E
  0
DICTIONARY
  5
9F
330
35
100
AcDbDictionary
280
     1
281
     1
  3
ACAD_XREC_ROUNDTRIP
360
A0
  0
DICTIONARY
  5
AF
330
3D
100
AcDbDictionary
280
     1
281
     1
  3
ACAD_XREC_ROUNDTRIP
360
B0
  0
DICTIONARY
  5
A7
330
39
100
AcDbDictionary
280
     1
281
     1
  3
ACAD_XREC_ROUNDTRIP
360
A8
  0
DICTIONARY
  5
8B
330
2B
100
AcDbDictionary
280
     1
281
     1
  3
ACAD_XREC_ROUNDTRIP
360
8C
  0
DICTIONARY
  5
8D
330
2C
100
AcDbDictionary
280
     1
281
     1
  3
ACAD_XREC_ROUNDTRIP
360
8E
  0
DICTIONARY
  5
8F
330
2D
100
AcDbDictionary
280
     1
281
     1
  3
ACAD_XREC_ROUNDTRIP
360
90
  0
DICTIONARY
  5
91
330
2E
100
AcDbDictionary
280
     1
281
     1
  3
ACAD_XREC_ROUNDTRIP
360
92
  0
DICTIONARY
  5
97
330
31
100
AcDbDictionary
280
     1
281
     1
  3
ACAD_XREC_ROUNDTRIP
360
98
  0
DICTIONARY
  5
AB
330
3B
100
AcDbDictionary
280
     1
281
     1
  3
ACAD_XREC_ROUNDTRIP
360
AC
  0
DICTIONARY
  5
A5
330
38
100
AcDbDictionary
280
     1
281
     1
  3
ACAD_XREC_ROUNDTRIP
360
A6
  0
DICTIONARY
  5
AD
330
3C
100
AcDbDictionary
280
     1
281
     1
  3
ACAD_XREC_ROUNDTRIP
360
AE
  0
DICTIONARY
  5
9B
330
33
100
AcDbDictionary
280
     1
281
     1
  3
ACAD_XREC_ROUNDTRIP
360
9C
  0
DICTIONARY
  5
B9
330
42
100
AcDbDictionary
280
     1
281
     1
  3
ACAD_XREC_ROUNDTRIP
360
BA
  0
DICTIONARY
  5
B7
330
41
100
AcDbDictionary
280
     1
281
     1
  3
ACAD_XREC_ROUNDTRIP
360
B8
  0
DICTIONARY
  5
B1
330
3E
100
AcDbDictionary
280
     1
281
     1
  3
ACAD_XREC_ROUNDTRIP
360
B2
  0
DICTIONARY
  5
B3
330
3F
100
AcDbDictionary
280
     1
281
     1
  3
ACAD_XREC_ROUNDTRIP
360
B4
  0
DICTIONARY
  5
A3
330
37
100
AcDbDictionary
280
     1
281
     1
  3
ACAD_XREC_ROUNDTRIP
360
A4
  0
DICTIONARY
  5
95
330
30
100
AcDbDictionary
280
     1
281
     1
  3
ACAD_XREC_ROUNDTRIP
360
96
  0
DICTIONARY
  5
B5
330
40
100
AcDbDictionary
280
     1
281
     1
  3
ACAD_XREC_ROUNDTRIP
360
B6
  0
XRECORD
  5
94
102
{ACAD_REACTORS
330
93
102
}
330
93
100
AcDbXrecord
280
     1
102
RTVSPropertyOp0
 70
     1
102
RTVSPropertyOp1
 70
     1
102
RTVSPropertyOp2
 70
     1
102
RTVSPropertyOp3
 70
     1
102
RTVSPropertyOp4
 70
     1
102
RTVSPropertyOp5
 70
     1
102
RTVSPropertyOp6
 70
     1
102
RTVSPropertyOp7
 70
     1
102
RTVSPropertyOp8
 70
     1
102
RTVSPropertyOp9
 70
     1
102
RTVSPropertyOp10
 70
     1
102
RTVSPropertyOp11
 70
     1
102
RTVSPropertyOp12
 70
     1
102
RTVSPropertyOp13
 70
     1
102
RTVSPropertyOp14
 70
     1
102
RTVSPropertyOp15
 70
     1
102
RTVSPropertyOp16
 70
     1
102
RTVSPropertyOp17
 70
     1
102
RTVSPropertyOp18
 70
     1
102
RTVSPropertyOp19
 70
     1
102
RTVSPropertyOp20
 70
     1
102
RTVSPropertyOp21
 70
     1
102
RTVSPropertyOp22
 70
     1
102
RTVSPropertyOp23
 70
     1
102
RTVSPropertyOp24
 70
     1
102
RTVSPropertyOp25
 70
     1
102
RTVSPropertyOp26
 70
     1
102
RTVSPropertyOp27
 70
     1
102
RTVSPropertyOp28
 70
     1
102
RTVSPropertyOp29
 70
     1
102
RTVSPropertyOp30
 70
     1
102
RTVSPropertyOp31
 70
     1
102
RTVSPropertyOp32
 70
     1
102
RTVSPropertyOp33
 70
     1
102
RTVSPropertyOp34
 70
     1
102
RTVSPropertyOp35
 70
     1
102
RTVSPropertyOp36
 70
     1
102
RTVSPropertyOp37
 70
     1
102
RTVSPropertyOp38
 70
     1
102
RTVSPropertyOp39
 70
     1
102
RTVSPropertyOp40
 70
     1
102
RTVSPropertyOp41
 70
     1
102
RTVSPropertyOp42
 70
     1
102
RTVSPropertyOp43
 70
     1
102
RTVSPropertyOp44
 70
     1
102
RTVSPropertyOp45
 70
     1
102
RTVSPropertyOp46
 70
     1
102
RTVSPropertyOp47
 70
     1
102
RTVSPropertyOp48
 70
     1
102
RTVSPropertyOp49
 70
     1
102
RTVSPropertyOp50
 70
     1
102
RTVSPropertyOp51
 70
     0
102
RTVSPropertyOp52
 70
     0
102
RTVSPropertyOp53
 70
     1
102
RTVSPropertyOp54
 70
     1
102
RTVSPropertyOp55
 70
     1
102
RTVSPropertyOp56
 70
     1
102
RTVSPropertyOp57
 70
     1
102
RTVSPost2010Prop28
280
     1
102
RTVSPost2010PropOp28
 70
     1
102
RTVSPost2010Prop29
280
     1
102
RTVSPost2010PropOp29
 70
     1
102
RTVSPost2010Prop30
280
     0
102
RTVSPost2010PropOp30
 70
     1
102
RTVSPost2010Prop31
280
     0
102
RTVSPost2010PropOp31
 70
     1
102
RTVSPost2010Prop32
280
     0
102
RTVSPost2010PropOp32
 70
     1
102
RTVSPost2010Prop33
280
     0
102
RTVSPost2010PropOp33
 70
     1
102
RTVSPost2010Prop34
280
     0
102
RTVSPost2010PropOp34
 70
     1
102
RTVSPost2010Prop35
280
     0
102
RTVSPost2010PropOp35
 70
     1
102
RTVSPost2010Prop36
280
     0
102
RTVSPost2010PropOp36
 70
     1
102
RTVSPost2010Prop37
 90
       50
102
RTVSPost2010PropOp37
 70
     1
102
RTVSPost2010Prop38
140
0.0
102
RTVSPost2010PropOp38
 70
     1
102
RTVSPost2010Prop39
140
1.0
102
RTVSPost2010PropOp39
 70
     1
102
RTVSPost2010Prop40
 90
        0
102
RTVSPost2010PropOp40
 70
     1
102
RTVSPost2010Prop41ColorIndex
 90
       18
102
RTVSPost2010Prop41ColorRGB
 90
        0
102
RTVSPost2010PropOp41
 70
     1
102
RTVSPost2010Prop42
 90
       50
102
RTVSPost2010PropOp42
 70
     1
102
RTVSPost2010Prop43
 90
        3
102
RTVSPost2010PropOp43
 70
     1
102
RTVSPost2010Prop44ColorIndex
 90
        5
102
RTVSPost2010Prop44ColorRGB
 90
      255
102
RTVSPost2010PropOp44
 70
     1
102
RTVSPost2010Prop45
280
     0
102
RTVSPost2010PropOp45
 70
     1
102
RTVSPost2010Prop46
 90
       50
102
RTVSPost2010PropOp46
 70
     1
102
RTVSPost2010Prop47
 90
       50
102
RTVSPost2010PropOp47
 70
     1
102
RTVSPost2010Prop48
 90
       50
102
RTVSPost2010PropOp48
 70
     1
102
RTVSPost2010Prop49
280
     0
102
RTVSPost2010PropOp49
 70
     1
102
RTVSPost2010Prop50
 90
       50
102
RTVSPost2010PropOp50
 70
     1
102
RTVSPost2010Prop51ColorIndex
 90
      256
102
RTVSPost2010Prop51ColorRGB
 90
-16777216
102
RTVSPost2010PropOp51
 70
     0
102
RTVSPost2010Prop52
140
1.0
102
RTVSPost2010PropOp52
 70
     0
102
RTVSPost2010Prop53
 90
        2
102
RTVSPost2010PropOp53
 70
     1
102
RTVSPost2010Prop54
  1
strokes_ogs.tif
102
RTVSPost2010PropOp54
 70
     1
102
RTVSPost2010Prop55
280
     0
102
RTVSPost2010PropOp55
 70
     1
102
RTVSPost2010Prop56
140
1.0
102
RTVSPost2010PropOp56
 70
     1
102
RTVSPost2010Prop57
140
1.0
102
RTVSPost2010PropOp57
 70
     1
  0
XRECORD
  5
9A
102
{ACAD_REACTORS
330
99
102
}
330
99
100
AcDbXrecord
280
     1
102
RTVSPropertyOp0
 70
     1
102
RTVSPropertyOp1
 70
     1
102
RTVSPropertyOp2
 70
     1
102
RTVSPropertyOp3
 70
     1
102
RTVSPropertyOp4
 70
     1
102
RTVSPropertyOp5
 70
     1
102
RTVSPropertyOp6
 70
     1
102
RTVSPropertyOp7
 70
     1
102
RTVSPropertyOp8
 70
     1
102
RTVSPropertyOp9
 70
     1
102
RTVSPropertyOp10
 70
     1
102
RTVSPropertyOp11
 70
     1
102
RTVSPropertyOp12
 70
     1
102
RTVSPropertyOp13
 70
     1
102
RTVSPropertyOp14
 70
     1
102
RTVSPropertyOp15
 70
     1
102
RTVSPropertyOp16
 70
     1
102
RTVSPropertyOp17
 70
     1
102
RTVSPropertyOp18
 70
     1
102
RTVSPropertyOp19
 70
     1
102
RTVSPropertyOp20
 70
     1
102
RTVSPropertyOp21
 70
     1
102
RTVSPropertyOp22
 70
     1
102
RTVSPropertyOp23
 70
     1
102
RTVSPropertyOp24
 70
     1
102
RTVSPropertyOp25
 70
     1
102
RTVSPropertyOp26
 70
     1
102
RTVSPropertyOp27
 70
     1
102
RTVSPropertyOp28
 70
     1
102
RTVSPropertyOp29
 70
     1
102
RTVSPropertyOp30
 70
     1
102
RTVSPropertyOp31
 70
     1
102
RTVSPropertyOp32
 70
     1
102
RTVSPropertyOp33
 70
     1
102
RTVSPropertyOp34
 70
     1
102
RTVSPropertyOp35
 70
     1
102
RTVSPropertyOp36
 70
     1
102
RTVSPropertyOp37
 70
     1
102
RTVSPropertyOp38
 70
     1
102
RTVSPropertyOp39
 70
     1
102
RTVSPropertyOp40
 70
     1
102
RTVSPropertyOp41
 70
     1
102
RTVSPropertyOp42
 70
     1
102
RTVSPropertyOp43
 70
     1
102
RTVSPropertyOp44
 70
     1
102
RTVSPropertyOp45
 70
     1
102
RTVSPropertyOp46
 70
     1
102
RTVSPropertyOp47
 70
     1
102
RTVSPropertyOp48
 70
     1
102
RTVSPropertyOp49
 70
     1
102
RTVSPropertyOp50
 70
     1
102
RTVSPropertyOp51
 70
     0
102
RTVSPropertyOp52
 70
     0
102
RTVSPropertyOp53
 70
     1
102
RTVSPropertyOp54
 70
     1
102
RTVSPropertyOp55
 70
     1
102
RTVSPropertyOp56
 70
     1
102
RTVSPropertyOp57
 70
     1
102
RTVSPost2010Prop28
280
     0
102
RTVSPost2010PropOp28
 70
     1
102
RTVSPost2010Prop29
280
     1
102
RTVSPost2010PropOp29
 70
     1
102
RTVSPost2010Prop30
280
     1
102
RTVSPost2010PropOp30
 70
     1
102
RTVSPost2010Prop31
280
     0
102
RTVSPost2010PropOp31
 70
     1
102
RTVSPost2010Prop32
280
     0
102
RTVSPost2010PropOp32
 70
     1
102
RTVSPost2010Prop33
280
     0
102
RTVSPost2010PropOp33
 70
     1
102
RTVSPost2010Prop34
280
     0
102
RTVSPost2010PropOp34
 70
     1
102
RTVSPost2010Prop35
280
     0
102
RTVSPost2010PropOp35
 70
     1
102
RTVSPost2010Prop36
280
     0
102
RTVSPost2010PropOp36
 70
     1
102
RTVSPost2010Prop37
 90
       50
102
RTVSPost2010PropOp37
 70
     1
102
RTVSPost2010Prop38
140
0.0
102
RTVSPost2010PropOp38
 70
     1
102
RTVSPost2010Prop39
140
1.0
102
RTVSPost2010PropOp39
 70
     1
102
RTVSPost2010Prop40
 90
        0
102
RTVSPost2010PropOp40
 70
     1
102
RTVSPost2010Prop41ColorIndex
 90
       18
102
RTVSPost2010Prop41ColorRGB
 90
        0
102
RTVSPost2010PropOp41
 70
     1
102
RTVSPost2010Prop42
 90
       50
102
RTVSPost2010PropOp42
 70
     1
102
RTVSPost2010Prop43
 90
        3
102
RTVSPost2010PropOp43
 70
     1
102
RTVSPost2010Prop44ColorIndex
 90
        5
102
RTVSPost2010Prop44ColorRGB
 90
      255
102
RTVSPost2010PropOp44
 70
     1
102
RTVSPost2010Prop45
280
     0
102
RTVSPost2010PropOp45
 70
     1
102
RTVSPost2010Prop46
 90
       50
102
RTVSPost2010PropOp46
 70
     1
102
RTVSPost2010Prop47
 90
       50
102
RTVSPost2010PropOp47
 70
     1
102
RTVSPost2010Prop48
 90
       50
102
RTVSPost2010PropOp48
 70
     1
102
RTVSPost2010Prop49
280
     0
102
RTVSPost2010PropOp49
 70
     1
102
RTVSPost2010Prop50
 90
       50
102
RTVSPost2010PropOp50
 70
     1
102
RTVSPost2010Prop51ColorIndex
 90
      256
102
RTVSPost2010Prop51ColorRGB
 90
-16777216
102
RTVSPost2010PropOp51
 70
     0
102
RTVSPost2010Prop52
140
1.0
102
RTVSPost2010PropOp52
 70
     0
102
RTVSPost2010Prop53
 90
        2
102
RTVSPost2010PropOp53
 70
     1
102
RTVSPost2010Prop54
  1
strokes_ogs.tif
102
RTVSPost2010PropOp54
 70
     1
102
RTVSPost2010Prop55
280
     0
102
RTVSPost2010PropOp55
 70
     1
102
RTVSPost2010Prop56
140
1.0
102
RTVSPost2010PropOp56
 70
     1
102
RTVSPost2010Prop57
140
1.0
102
RTVSPost2010PropOp57
 70
     1
  0
XRECORD
  5
A2
102
{ACAD_REACTORS
330
A1
102
}
330
A1
100
AcDbXrecord
280
     1
102
RTVSPropertyOp0
 70
     1
102
RTVSPropertyOp1
 70
     1
102
RTVSPropertyOp2
 70
     1
102
RTVSPropertyOp3
 70
     1
102
RTVSPropertyOp4
 70
     1
102
RTVSPropertyOp5
 70
     1
102
RTVSPropertyOp6
 70
     1
102
RTVSPropertyOp7
 70
     1
102
RTVSPropertyOp8
 70
     1
102
RTVSPropertyOp9
 70
     1
102
RTVSPropertyOp10
 70
     1
102
RTVSPropertyOp11
 70
     1
102
RTVSPropertyOp12
 70
     1
102
RTVSPropertyOp13
 70
     1
102
RTVSPropertyOp14
 70
     1
102
RTVSPropertyOp15
 70
     1
102
RTVSPropertyOp16
 70
     1
102
RTVSPropertyOp17
 70
     1
102
RTVSPropertyOp18
 70
     1
102
RTVSPropertyOp19
 70
     1
102
RTVSPropertyOp20
 70
     1
102
RTVSPropertyOp21
 70
     1
102
RTVSPropertyOp22
 70
     1
102
RTVSPropertyOp23
 70
     1
102
RTVSPropertyOp24
 70
     1
102
RTVSPropertyOp25
 70
     1
102
RTVSPropertyOp26
 70
     1
102
RTVSPropertyOp27
 70
     1
102
RTVSPropertyOp28
 70
     1
102
RTVSPropertyOp29
 70
     1
102
RTVSPropertyOp30
 70
     1
102
RTVSPropertyOp31
 70
     1
102
RTVSPropertyOp32
 70
     1
102
RTVSPropertyOp33
 70
     1
102
RTVSPropertyOp34
 70
     1
102
RTVSPropertyOp35
 70
     1
102
RTVSPropertyOp36
 70
     1
102
RTVSPropertyOp37
 70
     1
102
RTVSPropertyOp38
 70
     1
102
RTVSPropertyOp39
 70
     1
102
RTVSPropertyOp40
 70
     1
102
RTVSPropertyOp41
 70
     1
102
RTVSPropertyOp42
 70
     1
102
RTVSPropertyOp43
 70
     1
102
RTVSPropertyOp44
 70
     1
102
RTVSPropertyOp45
 70
     1
102
RTVSPropertyOp46
 70
     1
102
RTVSPropertyOp47
 70
     1
102
RTVSPropertyOp48
 70
     1
102
RTVSPropertyOp49
 70
     1
102
RTVSPropertyOp50
 70
     1
102
RTVSPropertyOp51
 70
     0
102
RTVSPropertyOp52
 70
     0
102
RTVSPropertyOp53
 70
     1
102
RTVSPropertyOp54
 70
     1
102
RTVSPropertyOp55
 70
     1
102
RTVSPropertyOp56
 70
     1
102
RTVSPropertyOp57
 70
     1
102
RTVSPost2010Prop28
280
     0
102
RTVSPost2010PropOp28
 70
     1
102
RTVSPost2010Prop29
280
     1
102
RTVSPost2010PropOp29
 70
     1
102
RTVSPost2010Prop30
280
     1
102
RTVSPost2010PropOp30
 70
     1
102
RTVSPost2010Prop31
280
     0
102
RTVSPost2010PropOp31
 70
     1
102
RTVSPost2010Prop32
280
     0
102
RTVSPost2010PropOp32
 70
     1
102
RTVSPost2010Prop33
280
     0
102
RTVSPost2010PropOp33
 70
     1
102
RTVSPost2010Prop34
280
     0
102
RTVSPost2010PropOp34
 70
     1
102
RTVSPost2010Prop35
280
     0
102
RTVSPost2010PropOp35
 70
     1
102
RTVSPost2010Prop36
280
     0
102
RTVSPost2010PropOp36
 70
     1
102
RTVSPost2010Prop37
 90
       50
102
RTVSPost2010PropOp37
 70
     1
102
RTVSPost2010Prop38
140
0.0
102
RTVSPost2010PropOp38
 70
     1
102
RTVSPost2010Prop39
140
1.0
102
RTVSPost2010PropOp39
 70
     1
102
RTVSPost2010Prop40
 90
        0
102
RTVSPost2010PropOp40
 70
     1
102
RTVSPost2010Prop41ColorIndex
 90
       18
102
RTVSPost2010Prop41ColorRGB
 90
        0
102
RTVSPost2010PropOp41
 70
     1
102
RTVSPost2010Prop42
 90
       50
102
RTVSPost2010PropOp42
 70
     1
102
RTVSPost2010Prop43
 90
        3
102
RTVSPost2010PropOp43
 70
     1
102
RTVSPost2010Prop44ColorIndex
 90
        5
102
RTVSPost2010Prop44ColorRGB
 90
      255
102
RTVSPost2010PropOp44
 70
     1
102
RTVSPost2010Prop45
280
     0
102
RTVSPost2010PropOp45
 70
     1
102
RTVSPost2010Prop46
 90
       50
102
RTVSPost2010PropOp46
 70
     1
102
RTVSPost2010Prop47
 90
       50
102
RTVSPost2010PropOp47
 70
     1
102
RTVSPost2010Prop48
 90
       50
102
RTVSPost2010PropOp48
 70
     1
102
RTVSPost2010Prop49
280
     0
102
RTVSPost2010PropOp49
 70
     1
102
RTVSPost2010Prop50
 90
       50
102
RTVSPost2010PropOp50
 70
     1
102
RTVSPost2010Prop51ColorIndex
 90
      256
102
RTVSPost2010Prop51ColorRGB
 90
-16777216
102
RTVSPost2010PropOp51
 70
     0
102
RTVSPost2010Prop52
140
1.0
102
RTVSPost2010PropOp52
 70
     0
102
RTVSPost2010Prop53
 90
        2
102
RTVSPost2010PropOp53
 70
     1
102
RTVSPost2010Prop54
  1
strokes_ogs.tif
102
RTVSPost2010PropOp54
 70
     1
102
RTVSPost2010Prop55
280
     0
102
RTVSPost2010PropOp55
 70
     1
102
RTVSPost2010Prop56
140
1.0
102
RTVSPost2010PropOp56
 70
     1
102
RTVSPost2010Prop57
140
1.0
102
RTVSPost2010PropOp57
 70
     1
  0
XRECORD
  5
AA
102
{ACAD_REACTORS
330
A9
102
}
330
A9
100
AcDbXrecord
280
     1
102
RTVSPropertyOp0
 70
     1
102
RTVSPropertyOp1
 70
     1
102
RTVSPropertyOp2
 70
     1
102
RTVSPropertyOp3
 70
     1
102
RTVSPropertyOp4
 70
     1
102
RTVSPropertyOp5
 70
     1
102
RTVSPropertyOp6
 70
     1
102
RTVSPropertyOp7
 70
     1
102
RTVSPropertyOp8
 70
     1
102
RTVSPropertyOp9
 70
     1
102
RTVSPropertyOp10
 70
     1
102
RTVSPropertyOp11
 70
     1
102
RTVSPropertyOp12
 70
     1
102
RTVSPropertyOp13
 70
     1
102
RTVSPropertyOp14
 70
     1
102
RTVSPropertyOp15
 70
     1
102
RTVSPropertyOp16
 70
     1
102
RTVSPropertyOp17
 70
     1
102
RTVSPropertyOp18
 70
     1
102
RTVSPropertyOp19
 70
     1
102
RTVSPropertyOp20
 70
     1
102
RTVSPropertyOp21
 70
     1
102
RTVSPropertyOp22
 70
     1
102
RTVSPropertyOp23
 70
     1
102
RTVSPropertyOp24
 70
     1
102
RTVSPropertyOp25
 70
     1
102
RTVSPropertyOp26
 70
     1
102
RTVSPropertyOp27
 70
     1
102
RTVSPropertyOp28
 70
     1
102
RTVSPropertyOp29
 70
     1
102
RTVSPropertyOp30
 70
     1
102
RTVSPropertyOp31
 70
     1
102
RTVSPropertyOp32
 70
     1
102
RTVSPropertyOp33
 70
     1
102
RTVSPropertyOp34
 70
     1
102
RTVSPropertyOp35
 70
     1
102
RTVSPropertyOp36
 70
     1
102
RTVSPropertyOp37
 70
     1
102
RTVSPropertyOp38
 70
     1
102
RTVSPropertyOp39
 70
     1
102
RTVSPropertyOp40
 70
     1
102
RTVSPropertyOp41
 70
     1
102
RTVSPropertyOp42
 70
     1
102
RTVSPropertyOp43
 70
     1
102
RTVSPropertyOp44
 70
     1
102
RTVSPropertyOp45
 70
     1
102
RTVSPropertyOp46
 70
     1
102
RTVSPropertyOp47
 70
     1
102
RTVSPropertyOp48
 70
     1
102
RTVSPropertyOp49
 70
     1
102
RTVSPropertyOp50
 70
     1
102
RTVSPropertyOp51
 70
     0
102
RTVSPropertyOp52
 70
     0
102
RTVSPropertyOp53
 70
     1
102
RTVSPropertyOp54
 70
     1
102
RTVSPropertyOp55
 70
     1
102
RTVSPropertyOp56
 70
     1
102
RTVSPropertyOp57
 70
     1
102
RTVSPost2010Prop28
280
     0
102
RTVSPost2010PropOp28
 70
     1
102
RTVSPost2010Prop29
280
     1
102
RTVSPost2010PropOp29
 70
     1
102
RTVSPost2010Prop30
280
     1
102
RTVSPost2010PropOp30
 70
     1
102
RTVSPost2010Prop31
280
     0
102
RTVSPost2010PropOp31
 70
     1
102
RTVSPost2010Prop32
280
     0
102
RTVSPost2010PropOp32
 70
     1
102
RTVSPost2010Prop33
280
     0
102
RTVSPost2010PropOp33
 70
     1
102
RTVSPost2010Prop34
280
     0
102
RTVSPost2010PropOp34
 70
     1
102
RTVSPost2010Prop35
280
     0
102
RTVSPost2010PropOp35
 70
     1
102
RTVSPost2010Prop36
280
     0
102
RTVSPost2010PropOp36
 70
     1
102
RTVSPost2010Prop37
 90
       50
102
RTVSPost2010PropOp37
 70
     1
102
RTVSPost2010Prop38
140
0.0
102
RTVSPost2010PropOp38
 70
     1
102
RTVSPost2010Prop39
140
1.0
102
RTVSPost2010PropOp39
 70
     1
102
RTVSPost2010Prop40
 90
        0
102
RTVSPost2010PropOp40
 70
     1
102
RTVSPost2010Prop41ColorIndex
 90
       18
102
RTVSPost2010Prop41ColorRGB
 90
        0
102
RTVSPost2010PropOp41
 70
     1
102
RTVSPost2010Prop42
 90
       50
102
RTVSPost2010PropOp42
 70
     1
102
RTVSPost2010Prop43
 90
        3
102
RTVSPost2010PropOp43
 70
     1
102
RTVSPost2010Prop44ColorIndex
 90
        5
102
RTVSPost2010Prop44ColorRGB
 90
      255
102
RTVSPost2010PropOp44
 70
     1
102
RTVSPost2010Prop45
280
     0
102
RTVSPost2010PropOp45
 70
     1
102
RTVSPost2010Prop46
 90
       50
102
RTVSPost2010PropOp46
 70
     1
102
RTVSPost2010Prop47
 90
       50
102
RTVSPost2010PropOp47
 70
     1
102
RTVSPost2010Prop48
 90
       50
102
RTVSPost2010PropOp48
 70
     1
102
RTVSPost2010Prop49
280
     0
102
RTVSPost2010PropOp49
 70
     1
102
RTVSPost2010Prop50
 90
       50
102
RTVSPost2010PropOp50
 70
     1
102
RTVSPost2010Prop51ColorIndex
 90
      256
102
RTVSPost2010Prop51ColorRGB
 90
-16777216
102
RTVSPost2010PropOp51
 70
     0
102
RTVSPost2010Prop52
140
1.0
102
RTVSPost2010PropOp52
 70
     0
102
RTVSPost2010Prop53
 90
        2
102
RTVSPost2010PropOp53
 70
     1
102
RTVSPost2010Prop54
  1
strokes_ogs.tif
102
RTVSPost2010PropOp54
 70
     1
102
RTVSPost2010Prop55
280
     0
102
RTVSPost2010PropOp55
 70
     1
102
RTVSPost2010Prop56
140
1.0
102
RTVSPost2010PropOp56
 70
     1
102
RTVSPost2010Prop57
140
1.0
102
RTVSPost2010PropOp57
 70
     1
  0
XRECORD
  5
9E
102
{ACAD_REACTORS
330
9D
102
}
330
9D
100
AcDbXrecord
280
     1
102
RTVSPropertyOp0
 70
     1
102
RTVSPropertyOp1
 70
     1
102
RTVSPropertyOp2
 70
     1
102
RTVSPropertyOp3
 70
     1
102
RTVSPropertyOp4
 70
     1
102
RTVSPropertyOp5
 70
     1
102
RTVSPropertyOp6
 70
     1
102
RTVSPropertyOp7
 70
     1
102
RTVSPropertyOp8
 70
     1
102
RTVSPropertyOp9
 70
     1
102
RTVSPropertyOp10
 70
     1
102
RTVSPropertyOp11
 70
     1
102
RTVSPropertyOp12
 70
     1
102
RTVSPropertyOp13
 70
     1
102
RTVSPropertyOp14
 70
     1
102
RTVSPropertyOp15
 70
     1
102
RTVSPropertyOp16
 70
     1
102
RTVSPropertyOp17
 70
     1
102
RTVSPropertyOp18
 70
     1
102
RTVSPropertyOp19
 70
     1
102
RTVSPropertyOp20
 70
     1
102
RTVSPropertyOp21
 70
     1
102
RTVSPropertyOp22
 70
     1
102
RTVSPropertyOp23
 70
     1
102
RTVSPropertyOp24
 70
     1
102
RTVSPropertyOp25
 70
     1
102
RTVSPropertyOp26
 70
     1
102
RTVSPropertyOp27
 70
     1
102
RTVSPropertyOp28
 70
     1
102
RTVSPropertyOp29
 70
     1
102
RTVSPropertyOp30
 70
     1
102
RTVSPropertyOp31
 70
     1
102
RTVSPropertyOp32
 70
     1
102
RTVSPropertyOp33
 70
     1
102
RTVSPropertyOp34
 70
     1
102
RTVSPropertyOp35
 70
     1
102
RTVSPropertyOp36
 70
     1
102
RTVSPropertyOp37
 70
     1
102
RTVSPropertyOp38
 70
     1
102
RTVSPropertyOp39
 70
     1
102
RTVSPropertyOp40
 70
     1
102
RTVSPropertyOp41
 70
     1
102
RTVSPropertyOp42
 70
     1
102
RTVSPropertyOp43
 70
     1
102
RTVSPropertyOp44
 70
     1
102
RTVSPropertyOp45
 70
     1
102
RTVSPropertyOp46
 70
     1
102
RTVSPropertyOp47
 70
     1
102
RTVSPropertyOp48
 70
     1
102
RTVSPropertyOp49
 70
     1
102
RTVSPropertyOp50
 70
     1
102
RTVSPropertyOp51
 70
     0
102
RTVSPropertyOp52
 70
     0
102
RTVSPropertyOp53
 70
     1
102
RTVSPropertyOp54
 70
     1
102
RTVSPropertyOp55
 70
     1
102
RTVSPropertyOp56
 70
     1
102
RTVSPropertyOp57
 70
     1
102
RTVSPost2010Prop28
280
     0
102
RTVSPost2010PropOp28
 70
     1
102
RTVSPost2010Prop29
280
     1
102
RTVSPost2010PropOp29
 70
     1
102
RTVSPost2010Prop30
280
     1
102
RTVSPost2010PropOp30
 70
     1
102
RTVSPost2010Prop31
280
     0
102
RTVSPost2010PropOp31
 70
     1
102
RTVSPost2010Prop32
280
     0
102
RTVSPost2010PropOp32
 70
     1
102
RTVSPost2010Prop33
280
     0
102
RTVSPost2010PropOp33
 70
     1
102
RTVSPost2010Prop34
280
     0
102
RTVSPost2010PropOp34
 70
     1
102
RTVSPost2010Prop35
280
     0
102
RTVSPost2010PropOp35
 70
     1
102
RTVSPost2010Prop36
280
     0
102
RTVSPost2010PropOp36
 70
     1
102
RTVSPost2010Prop37
 90
       50
102
RTVSPost2010PropOp37
 70
     1
102
RTVSPost2010Prop38
140
0.0
102
RTVSPost2010PropOp38
 70
     1
102
RTVSPost2010Prop39
140
1.0
102
RTVSPost2010PropOp39
 70
     1
102
RTVSPost2010Prop40
 90
        0
102
RTVSPost2010PropOp40
 70
     1
102
RTVSPost2010Prop41ColorIndex
 90
       18
102
RTVSPost2010Prop41ColorRGB
 90
        0
102
RTVSPost2010PropOp41
 70
     1
102
RTVSPost2010Prop42
 90
       50
102
RTVSPost2010PropOp42
 70
     1
102
RTVSPost2010Prop43
 90
        3
102
RTVSPost2010PropOp43
 70
     1
102
RTVSPost2010Prop44ColorIndex
 90
        5
102
RTVSPost2010Prop44ColorRGB
 90
      255
102
RTVSPost2010PropOp44
 70
     1
102
RTVSPost2010Prop45
280
     0
102
RTVSPost2010PropOp45
 70
     1
102
RTVSPost2010Prop46
 90
       50
102
RTVSPost2010PropOp46
 70
     1
102
RTVSPost2010Prop47
 90
       50
102
RTVSPost2010PropOp47
 70
     1
102
RTVSPost2010Prop48
 90
       50
102
RTVSPost2010PropOp48
 70
     1
102
RTVSPost2010Prop49
280
     0
102
RTVSPost2010PropOp49
 70
     1
102
RTVSPost2010Prop50
 90
       50
102
RTVSPost2010PropOp50
 70
     1
102
RTVSPost2010Prop51ColorIndex
 90
      256
102
RTVSPost2010Prop51ColorRGB
 90
-16777216
102
RTVSPost2010PropOp51
 70
     0
102
RTVSPost2010Prop52
140
1.0
102
RTVSPost2010PropOp52
 70
     0
102
RTVSPost2010Prop53
 90
        2
102
RTVSPost2010PropOp53
 70
     1
102
RTVSPost2010Prop54
  1
strokes_ogs.tif
102
RTVSPost2010PropOp54
 70
     1
102
RTVSPost2010Prop55
280
     0
102
RTVSPost2010PropOp55
 70
     1
102
RTVSPost2010Prop56
140
1.0
102
RTVSPost2010PropOp56
 70
     1
102
RTVSPost2010Prop57
140
1.0
102
RTVSPost2010PropOp57
 70
     1
  0
XRECORD
  5
A0
102
{ACAD_REACTORS
330
9F
102
}
330
9F
100
AcDbXrecord
280
     1
102
RTVSPropertyOp0
 70
     1
102
RTVSPropertyOp1
 70
     1
102
RTVSPropertyOp2
 70
     1
102
RTVSPropertyOp3
 70
     1
102
RTVSPropertyOp4
 70
     1
102
RTVSPropertyOp5
 70
     1
102
RTVSPropertyOp6
 70
     1
102
RTVSPropertyOp7
 70
     1
102
RTVSPropertyOp8
 70
     1
102
RTVSPropertyOp9
 70
     1
102
RTVSPropertyOp10
 70
     1
102
RTVSPropertyOp11
 70
     1
102
RTVSPropertyOp12
 70
     1
102
RTVSPropertyOp13
 70
     1
102
RTVSPropertyOp14
 70
     1
102
RTVSPropertyOp15
 70
     1
102
RTVSPropertyOp16
 70
     1
102
RTVSPropertyOp17
 70
     1
102
RTVSPropertyOp18
 70
     1
102
RTVSPropertyOp19
 70
     1
102
RTVSPropertyOp20
 70
     1
102
RTVSPropertyOp21
 70
     1
102
RTVSPropertyOp22
 70
     1
102
RTVSPropertyOp23
 70
     1
102
RTVSPropertyOp24
 70
     1
102
RTVSPropertyOp25
 70
     1
102
RTVSPropertyOp26
 70
     1
102
RTVSPropertyOp27
 70
     1
102
RTVSPropertyOp28
 70
     1
102
RTVSPropertyOp29
 70
     1
102
RTVSPropertyOp30
 70
     1
102
RTVSPropertyOp31
 70
     1
102
RTVSPropertyOp32
 70
     1
102
RTVSPropertyOp33
 70
     1
102
RTVSPropertyOp34
 70
     1
102
RTVSPropertyOp35
 70
     1
102
RTVSPropertyOp36
 70
     1
102
RTVSPropertyOp37
 70
     1
102
RTVSPropertyOp38
 70
     1
102
RTVSPropertyOp39
 70
     1
102
RTVSPropertyOp40
 70
     1
102
RTVSPropertyOp41
 70
     1
102
RTVSPropertyOp42
 70
     1
102
RTVSPropertyOp43
 70
     1
102
RTVSPropertyOp44
 70
     1
102
RTVSPropertyOp45
 70
     1
102
RTVSPropertyOp46
 70
     1
102
RTVSPropertyOp47
 70
     1
102
RTVSPropertyOp48
 70
     1
102
RTVSPropertyOp49
 70
     1
102
RTVSPropertyOp50
 70
     1
102
RTVSPropertyOp51
 70
     0
102
RTVSPropertyOp52
 70
     0
102
RTVSPropertyOp53
 70
     1
102
RTVSPropertyOp54
 70
     1
102
RTVSPropertyOp55
 70
     1
102
RTVSPropertyOp56
 70
     1
102
RTVSPropertyOp57
 70
     1
102
RTVSPost2010Prop28
280
     0
102
RTVSPost2010PropOp28
 70
     1
102
RTVSPost2010Prop29
280
     1
102
RTVSPost2010PropOp29
 70
     1
102
RTVSPost2010Prop30
280
     1
102
RTVSPost2010PropOp30
 70
     1
102
RTVSPost2010Prop31
280
     0
102
RTVSPost2010PropOp31
 70
     1
102
RTVSPost2010Prop32
280
     0
102
RTVSPost2010PropOp32
 70
     1
102
RTVSPost2010Prop33
280
     0
102
RTVSPost2010PropOp33
 70
     1
102
RTVSPost2010Prop34
280
     0
102
RTVSPost2010PropOp34
 70
     1
102
RTVSPost2010Prop35
280
     0
102
RTVSPost2010PropOp35
 70
     1
102
RTVSPost2010Prop36
280
     0
102
RTVSPost2010PropOp36
 70
     1
102
RTVSPost2010Prop37
 90
       50
102
RTVSPost2010PropOp37
 70
     1
102
RTVSPost2010Prop38
140
0.0
102
RTVSPost2010PropOp38
 70
     1
102
RTVSPost2010Prop39
140
1.0
102
RTVSPost2010PropOp39
 70
     1
102
RTVSPost2010Prop40
 90
        0
102
RTVSPost2010PropOp40
 70
     1
102
RTVSPost2010Prop41ColorIndex
 90
       18
102
RTVSPost2010Prop41ColorRGB
 90
        0
102
RTVSPost2010PropOp41
 70
     1
102
RTVSPost2010Prop42
 90
       50
102
RTVSPost2010PropOp42
 70
     1
102
RTVSPost2010Prop43
 90
        3
102
RTVSPost2010PropOp43
 70
     1
102
RTVSPost2010Prop44ColorIndex
 90
        5
102
RTVSPost2010Prop44ColorRGB
 90
      255
102
RTVSPost2010PropOp44
 70
     1
102
RTVSPost2010Prop45
280
     0
102
RTVSPost2010PropOp45
 70
     1
102
RTVSPost2010Prop46
 90
       50
102
RTVSPost2010PropOp46
 70
     1
102
RTVSPost2010Prop47
 90
       50
102
RTVSPost2010PropOp47
 70
     1
102
RTVSPost2010Prop48
 90
       50
102
RTVSPost2010PropOp48
 70
     1
102
RTVSPost2010Prop49
280
     0
102
RTVSPost2010PropOp49
 70
     1
102
RTVSPost2010Prop50
 90
       50
102
RTVSPost2010PropOp50
 70
     1
102
RTVSPost2010Prop51ColorIndex
 90
      256
102
RTVSPost2010Prop51ColorRGB
 90
-16777216
102
RTVSPost2010PropOp51
 70
     0
102
RTVSPost2010Prop52
140
1.0
102
RTVSPost2010PropOp52
 70
     0
102
RTVSPost2010Prop53
 90
        2
102
RTVSPost2010PropOp53
 70
     1
102
RTVSPost2010Prop54
  1
strokes_ogs.tif
102
RTVSPost2010PropOp54
 70
     1
102
RTVSPost2010Prop55
280
     0
102
RTVSPost2010PropOp55
 70
     1
102
RTVSPost2010Prop56
140
1.0
102
RTVSPost2010PropOp56
 70
     1
102
RTVSPost2010Prop57
140
1.0
102
RTVSPost2010PropOp57
 70
     1
  0
XRECORD
  5
B0
102
{ACAD_REACTORS
330
AF
102
}
330
AF
100
AcDbXrecord
280
     1
102
RTVSPropertyOp0
 70
     0
102
RTVSPropertyOp1
 70
     0
102
RTVSPropertyOp2
 70
     0
102
RTVSPropertyOp3
 70
     0
102
RTVSPropertyOp4
 70
     0
102
RTVSPropertyOp5
 70
     0
102
RTVSPropertyOp6
 70
     0
102
RTVSPropertyOp7
 70
     0
102
RTVSPropertyOp8
 70
     0
102
RTVSPropertyOp9
 70
     0
102
RTVSPropertyOp10
 70
     0
102
RTVSPropertyOp11
 70
     0
102
RTVSPropertyOp12
 70
     0
102
RTVSPropertyOp13
 70
     0
102
RTVSPropertyOp14
 70
     2
102
RTVSPropertyOp15
 70
     0
102
RTVSPropertyOp16
 70
     0
102
RTVSPropertyOp17
 70
     0
102
RTVSPropertyOp18
 70
     0
102
RTVSPropertyOp19
 70
     0
102
RTVSPropertyOp20
 70
     0
102
RTVSPropertyOp21
 70
     0
102
RTVSPropertyOp22
 70
     0
102
RTVSPropertyOp23
 70
     0
102
RTVSPropertyOp24
 70
     0
102
RTVSPropertyOp25
 70
     0
102
RTVSPropertyOp26
 70
     0
102
RTVSPropertyOp27
 70
     0
102
RTVSPropertyOp28
 70
     0
102
RTVSPropertyOp29
 70
     0
102
RTVSPropertyOp30
 70
     0
102
RTVSPropertyOp31
 70
     0
102
RTVSPropertyOp32
 70
     0
102
RTVSPropertyOp33
 70
     0
102
RTVSPropertyOp34
 70
     0
102
RTVSPropertyOp35
 70
     0
102
RTVSPropertyOp36
 70
     0
102
RTVSPropertyOp37
 70
     0
102
RTVSPropertyOp38
 70
     0
102
RTVSPropertyOp39
 70
     0
102
RTVSPropertyOp40
 70
     0
102
RTVSPropertyOp41
 70
     0
102
RTVSPropertyOp42
 70
     0
102
RTVSPropertyOp43
 70
     0
102
RTVSPropertyOp44
 70
     0
102
RTVSPropertyOp45
 70
     0
102
RTVSPropertyOp46
 70
     0
102
RTVSPropertyOp47
 70
     0
102
RTVSPropertyOp48
 70
     0
102
RTVSPropertyOp49
 70
     0
102
RTVSPropertyOp50
 70
     0
102
RTVSPropertyOp51
 70
     0
102
RTVSPropertyOp52
 70
     0
102
RTVSPropertyOp53
 70
     0
102
RTVSPropertyOp54
 70
     0
102
RTVSPropertyOp55
 70
     0
102
RTVSPropertyOp56
 70
     0
102
RTVSPropertyOp57
 70
     0
102
RTVSPost2010Prop28
280
     0
102
RTVSPost2010PropOp28
 70
     0
102
RTVSPost2010Prop29
280
     1
102
RTVSPost2010PropOp29
 70
     0
102
RTVSPost2010Prop30
280
     1
102
RTVSPost2010PropOp30
 70
     0
102
RTVSPost2010Prop31
280
     0
102
RTVSPost2010PropOp31
 70
     0
102
RTVSPost2010Prop32
280
     0
102
RTVSPost2010PropOp32
 70
     0
102
RTVSPost2010Prop33
280
     0
102
RTVSPost2010PropOp33
 70
     0
102
RTVSPost2010Prop34
280
     0
102
RTVSPost2010PropOp34
 70
     0
102
RTVSPost2010Prop35
280
     0
102
RTVSPost2010PropOp35
 70
     0
102
RTVSPost2010Prop36
280
     0
102
RTVSPost2010PropOp36
 70
     0
102
RTVSPost2010Prop37
 90
       50
102
RTVSPost2010PropOp37
 70
     0
102
RTVSPost2010Prop38
140
0.0
102
RTVSPost2010PropOp38
 70
     0
102
RTVSPost2010Prop39
140
1.0
102
RTVSPost2010PropOp39
 70
     0
102
RTVSPost2010Prop40
 90
        0
102
RTVSPost2010PropOp40
 70
     0
102
RTVSPost2010Prop41ColorIndex
 90
       18
102
RTVSPost2010Prop41ColorRGB
 90
        0
102
RTVSPost2010PropOp41
 70
     0
102
RTVSPost2010Prop42
 90
       50
102
RTVSPost2010PropOp42
 70
     0
102
RTVSPost2010Prop43
 90
        3
102
RTVSPost2010PropOp43
 70
     0
102
RTVSPost2010Prop44ColorIndex
 90
        5
102
RTVSPost2010Prop44ColorRGB
 90
      255
102
RTVSPost2010PropOp44
 70
     0
102
RTVSPost2010Prop45
280
     0
102
RTVSPost2010PropOp45
 70
     0
102
RTVSPost2010Prop46
 90
       50
102
RTVSPost2010PropOp46
 70
     0
102
RTVSPost2010Prop47
 90
       50
102
RTVSPost2010PropOp47
 70
     0
102
RTVSPost2010Prop48
 90
       50
102
RTVSPost2010PropOp48
 70
     0
102
RTVSPost2010Prop49
280
     0
102
RTVSPost2010PropOp49
 70
     0
102
RTVSPost2010Prop50
 90
       50
102
RTVSPost2010PropOp50
 70
     0
102
RTVSPost2010Prop51ColorIndex
 90
      256
102
RTVSPost2010Prop51ColorRGB
 90
-16777216
102
RTVSPost2010PropOp51
 70
     0
102
RTVSPost2010Prop52
140
1.0
102
RTVSPost2010PropOp52
 70
     0
102
RTVSPost2010Prop53
 90
        2
102
RTVSPost2010PropOp53
 70
     0
102
RTVSPost2010Prop54
  1
strokes_ogs.tif
102
RTVSPost2010PropOp54
 70
     0
102
RTVSPost2010Prop55
280
     0
102
RTVSPost2010PropOp55
 70
     0
102
RTVSPost2010Prop56
140
1.0
102
RTVSPost2010PropOp56
 70
     0
102
RTVSPost2010Prop57
140
1.0
102
RTVSPost2010PropOp57
 70
     0
  0
XRECORD
  5
A8
102
{ACAD_REACTORS
330
A7
102
}
330
A7
100
AcDbXrecord
280
     1
102
RTVSPropertyOp0
 70
     1
102
RTVSPropertyOp1
 70
     1
102
RTVSPropertyOp2
 70
     1
102
RTVSPropertyOp3
 70
     1
102
RTVSPropertyOp4
 70
     1
102
RTVSPropertyOp5
 70
     1
102
RTVSPropertyOp6
 70
     1
102
RTVSPropertyOp7
 70
     1
102
RTVSPropertyOp8
 70
     1
102
RTVSPropertyOp9
 70
     1
102
RTVSPropertyOp10
 70
     1
102
RTVSPropertyOp11
 70
     1
102
RTVSPropertyOp12
 70
     1
102
RTVSPropertyOp13
 70
     1
102
RTVSPropertyOp14
 70
     1
102
RTVSPropertyOp15
 70
     1
102
RTVSPropertyOp16
 70
     1
102
RTVSPropertyOp17
 70
     1
102
RTVSPropertyOp18
 70
     1
102
RTVSPropertyOp19
 70
     1
102
RTVSPropertyOp20
 70
     1
102
RTVSPropertyOp21
 70
     1
102
RTVSPropertyOp22
 70
     1
102
RTVSPropertyOp23
 70
     1
102
RTVSPropertyOp24
 70
     1
102
RTVSPropertyOp25
 70
     1
102
RTVSPropertyOp26
 70
     1
102
RTVSPropertyOp27
 70
     1
102
RTVSPropertyOp28
 70
     1
102
RTVSPropertyOp29
 70
     1
102
RTVSPropertyOp30
 70
     1
102
RTVSPropertyOp31
 70
     1
102
RTVSPropertyOp32
 70
     1
102
RTVSPropertyOp33
 70
     1
102
RTVSPropertyOp34
 70
     1
102
RTVSPropertyOp35
 70
     1
102
RTVSPropertyOp36
 70
     1
102
RTVSPropertyOp37
 70
     1
102
RTVSPropertyOp38
 70
     1
102
RTVSPropertyOp39
 70
     1
102
RTVSPropertyOp40
 70
     1
102
RTVSPropertyOp41
 70
     1
102
RTVSPropertyOp42
 70
     1
102
RTVSPropertyOp43
 70
     1
102
RTVSPropertyOp44
 70
     1
102
RTVSPropertyOp45
 70
     1
102
RTVSPropertyOp46
 70
     1
102
RTVSPropertyOp47
 70
     1
102
RTVSPropertyOp48
 70
     1
102
RTVSPropertyOp49
 70
     1
102
RTVSPropertyOp50
 70
     1
102
RTVSPropertyOp51
 70
     0
102
RTVSPropertyOp52
 70
     0
102
RTVSPropertyOp53
 70
     1
102
RTVSPropertyOp54
 70
     1
102
RTVSPropertyOp55
 70
     1
102
RTVSPropertyOp56
 70
     1
102
RTVSPropertyOp57
 70
     1
102
RTVSPost2010Prop28
280
     0
102
RTVSPost2010PropOp28
 70
     1
102
RTVSPost2010Prop29
280
     1
102
RTVSPost2010PropOp29
 70
     1
102
RTVSPost2010Prop30
280
     1
102
RTVSPost2010PropOp30
 70
     1
102
RTVSPost2010Prop31
280
     0
102
RTVSPost2010PropOp31
 70
     1
102
RTVSPost2010Prop32
280
     0
102
RTVSPost2010PropOp32
 70
     1
102
RTVSPost2010Prop33
280
     0
102
RTVSPost2010PropOp33
 70
     1
102
RTVSPost2010Prop34
280
     0
102
RTVSPost2010PropOp34
 70
     1
102
RTVSPost2010Prop35
280
     0
102
RTVSPost2010PropOp35
 70
     1
102
RTVSPost2010Prop36
280
     0
102
RTVSPost2010PropOp36
 70
     1
102
RTVSPost2010Prop37
 90
       50
102
RTVSPost2010PropOp37
 70
     1
102
RTVSPost2010Prop38
140
0.0
102
RTVSPost2010PropOp38
 70
     1
102
RTVSPost2010Prop39
140
1.0
102
RTVSPost2010PropOp39
 70
     1
102
RTVSPost2010Prop40
 90
        0
102
RTVSPost2010PropOp40
 70
     1
102
RTVSPost2010Prop41ColorIndex
 90
       18
102
RTVSPost2010Prop41ColorRGB
 90
        0
102
RTVSPost2010PropOp41
 70
     1
102
RTVSPost2010Prop42
 90
       50
102
RTVSPost2010PropOp42
 70
     1
102
RTVSPost2010Prop43
 90
        3
102
RTVSPost2010PropOp43
 70
     1
102
RTVSPost2010Prop44ColorIndex
 90
        5
102
RTVSPost2010Prop44ColorRGB
 90
      255
102
RTVSPost2010PropOp44
 70
     1
102
RTVSPost2010Prop45
280
     0
102
RTVSPost2010PropOp45
 70
     1
102
RTVSPost2010Prop46
 90
       50
102
RTVSPost2010PropOp46
 70
     1
102
RTVSPost2010Prop47
 90
       50
102
RTVSPost2010PropOp47
 70
     1
102
RTVSPost2010Prop48
 90
       50
102
RTVSPost2010PropOp48
 70
     1
102
RTVSPost2010Prop49
280
     0
102
RTVSPost2010PropOp49
 70
     1
102
RTVSPost2010Prop50
 90
       50
102
RTVSPost2010PropOp50
 70
     1
102
RTVSPost2010Prop51ColorIndex
 90
      256
102
RTVSPost2010Prop51ColorRGB
 90
-16777216
102
RTVSPost2010PropOp51
 70
     0
102
RTVSPost2010Prop52
140
1.0
102
RTVSPost2010PropOp52
 70
     0
102
RTVSPost2010Prop53
 90
        2
102
RTVSPost2010PropOp53
 70
     1
102
RTVSPost2010Prop54
  1
strokes_ogs.tif
102
RTVSPost2010PropOp54
 70
     1
102
RTVSPost2010Prop55
280
     0
102
RTVSPost2010PropOp55
 70
     1
102
RTVSPost2010Prop56
140
1.0
102
RTVSPost2010PropOp56
 70
     1
102
RTVSPost2010Prop57
140
1.0
102
RTVSPost2010PropOp57
 70
     1
  0
XRECORD
  5
8C
102
{ACAD_REACTORS
330
8B
102
}
330
8B
100
AcDbXrecord
280
     1
102
RTVSPropertyOp0
 70
     1
102
RTVSPropertyOp1
 70
     1
102
RTVSPropertyOp2
 70
     1
102
RTVSPropertyOp3
 70
     1
102
RTVSPropertyOp4
 70
     1
102
RTVSPropertyOp5
 70
     1
102
RTVSPropertyOp6
 70
     1
102
RTVSPropertyOp7
 70
     1
102
RTVSPropertyOp8
 70
     1
102
RTVSPropertyOp9
 70
     1
102
RTVSPropertyOp10
 70
     1
102
RTVSPropertyOp11
 70
     1
102
RTVSPropertyOp12
 70
     1
102
RTVSPropertyOp13
 70
     1
102
RTVSPropertyOp14
 70
     1
102
RTVSPropertyOp15
 70
     1
102
RTVSPropertyOp16
 70
     1
102
RTVSPropertyOp17
 70
     1
102
RTVSPropertyOp18
 70
     1
102
RTVSPropertyOp19
 70
     1
102
RTVSPropertyOp20
 70
     1
102
RTVSPropertyOp21
 70
     1
102
RTVSPropertyOp22
 70
     1
102
RTVSPropertyOp23
 70
     1
102
RTVSPropertyOp24
 70
     1
102
RTVSPropertyOp25
 70
     1
102
RTVSPropertyOp26
 70
     1
102
RTVSPropertyOp27
 70
     1
102
RTVSPropertyOp28
 70
     1
102
RTVSPropertyOp29
 70
     1
102
RTVSPropertyOp30
 70
     1
102
RTVSPropertyOp31
 70
     1
102
RTVSPropertyOp32
 70
     1
102
RTVSPropertyOp33
 70
     1
102
RTVSPropertyOp34
 70
     1
102
RTVSPropertyOp35
 70
     1
102
RTVSPropertyOp36
 70
     1
102
RTVSPropertyOp37
 70
     1
102
RTVSPropertyOp38
 70
     1
102
RTVSPropertyOp39
 70
     1
102
RTVSPropertyOp40
 70
     1
102
RTVSPropertyOp41
 70
     1
102
RTVSPropertyOp42
 70
     1
102
RTVSPropertyOp43
 70
     1
102
RTVSPropertyOp44
 70
     1
102
RTVSPropertyOp45
 70
     1
102
RTVSPropertyOp46
 70
     1
102
RTVSPropertyOp47
 70
     1
102
RTVSPropertyOp48
 70
     1
102
RTVSPropertyOp49
 70
     1
102
RTVSPropertyOp50
 70
     1
102
RTVSPropertyOp51
 70
     0
102
RTVSPropertyOp52
 70
     0
102
RTVSPropertyOp53
 70
     1
102
RTVSPropertyOp54
 70
     1
102
RTVSPropertyOp55
 70
     1
102
RTVSPropertyOp56
 70
     1
102
RTVSPropertyOp57
 70
     1
102
RTVSPost2010Prop28
280
     0
102
RTVSPost2010PropOp28
 70
     1
102
RTVSPost2010Prop29
280
     1
102
RTVSPost2010PropOp29
 70
     1
102
RTVSPost2010Prop30
280
     1
102
RTVSPost2010PropOp30
 70
     1
102
RTVSPost2010Prop31
280
     0
102
RTVSPost2010PropOp31
 70
     1
102
RTVSPost2010Prop32
280
     0
102
RTVSPost2010PropOp32
 70
     1
102
RTVSPost2010Prop33
280
     0
102
RTVSPost2010PropOp33
 70
     1
102
RTVSPost2010Prop34
280
     0
102
RTVSPost2010PropOp34
 70
     1
102
RTVSPost2010Prop35
280
     0
102
RTVSPost2010PropOp35
 70
     1
102
RTVSPost2010Prop36
280
     0
102
RTVSPost2010PropOp36
 70
     1
102
RTVSPost2010Prop37
 90
       50
102
RTVSPost2010PropOp37
 70
     1
102
RTVSPost2010Prop38
140
0.0
102
RTVSPost2010PropOp38
 70
     1
102
RTVSPost2010Prop39
140
1.0
102
RTVSPost2010PropOp39
 70
     1
102
RTVSPost2010Prop40
 90
        0
102
RTVSPost2010PropOp40
 70
     1
102
RTVSPost2010Prop41ColorIndex
 90
       18
102
RTVSPost2010Prop41ColorRGB
 90
        0
102
RTVSPost2010PropOp41
 70
     1
102
RTVSPost2010Prop42
 90
       50
102
RTVSPost2010PropOp42
 70
     1
102
RTVSPost2010Prop43
 90
        3
102
RTVSPost2010PropOp43
 70
     1
102
RTVSPost2010Prop44ColorIndex
 90
        5
102
RTVSPost2010Prop44ColorRGB
 90
      255
102
RTVSPost2010PropOp44
 70
     1
102
RTVSPost2010Prop45
280
     0
102
RTVSPost2010PropOp45
 70
     1
102
RTVSPost2010Prop46
 90
       50
102
RTVSPost2010PropOp46
 70
     1
102
RTVSPost2010Prop47
 90
       50
102
RTVSPost2010PropOp47
 70
     1
102
RTVSPost2010Prop48
 90
       50
102
RTVSPost2010PropOp48
 70
     1
102
RTVSPost2010Prop49
280
     0
102
RTVSPost2010PropOp49
 70
     1
102
RTVSPost2010Prop50
 90
       50
102
RTVSPost2010PropOp50
 70
     1
102
RTVSPost2010Prop51ColorIndex
 90
      256
102
RTVSPost2010Prop51ColorRGB
 90
-16777216
102
RTVSPost2010PropOp51
 70
     0
102
RTVSPost2010Prop52
140
1.0
102
RTVSPost2010PropOp52
 70
     0
102
RTVSPost2010Prop53
 90
        2
102
RTVSPost2010PropOp53
 70
     1
102
RTVSPost2010Prop54
  1
strokes_ogs.tif
102
RTVSPost2010PropOp54
 70
     1
102
RTVSPost2010Prop55
280
     0
102
RTVSPost2010PropOp55
 70
     1
102
RTVSPost2010Prop56
140
1.0
102
RTVSPost2010PropOp56
 70
     1
102
RTVSPost2010Prop57
140
1.0
102
RTVSPost2010PropOp57
 70
     1
  0
XRECORD
  5
8E
102
{ACAD_REACTORS
330
8D
102
}
330
8D
100
AcDbXrecord
280
     1
102
RTVSPropertyOp0
 70
     1
102
RTVSPropertyOp1
 70
     1
102
RTVSPropertyOp2
 70
     1
102
RTVSPropertyOp3
 70
     1
102
RTVSPropertyOp4
 70
     1
102
RTVSPropertyOp5
 70
     1
102
RTVSPropertyOp6
 70
     1
102
RTVSPropertyOp7
 70
     1
102
RTVSPropertyOp8
 70
     1
102
RTVSPropertyOp9
 70
     1
102
RTVSPropertyOp10
 70
     1
102
RTVSPropertyOp11
 70
     1
102
RTVSPropertyOp12
 70
     1
102
RTVSPropertyOp13
 70
     1
102
RTVSPropertyOp14
 70
     1
102
RTVSPropertyOp15
 70
     1
102
RTVSPropertyOp16
 70
     1
102
RTVSPropertyOp17
 70
     1
102
RTVSPropertyOp18
 70
     1
102
RTVSPropertyOp19
 70
     1
102
RTVSPropertyOp20
 70
     1
102
RTVSPropertyOp21
 70
     1
102
RTVSPropertyOp22
 70
     1
102
RTVSPropertyOp23
 70
     1
102
RTVSPropertyOp24
 70
     1
102
RTVSPropertyOp25
 70
     1
102
RTVSPropertyOp26
 70
     1
102
RTVSPropertyOp27
 70
     1
102
RTVSPropertyOp28
 70
     1
102
RTVSPropertyOp29
 70
     1
102
RTVSPropertyOp30
 70
     1
102
RTVSPropertyOp31
 70
     1
102
RTVSPropertyOp32
 70
     1
102
RTVSPropertyOp33
 70
     1
102
RTVSPropertyOp34
 70
     1
102
RTVSPropertyOp35
 70
     1
102
RTVSPropertyOp36
 70
     1
102
RTVSPropertyOp37
 70
     1
102
RTVSPropertyOp38
 70
     1
102
RTVSPropertyOp39
 70
     1
102
RTVSPropertyOp40
 70
     1
102
RTVSPropertyOp41
 70
     1
102
RTVSPropertyOp42
 70
     1
102
RTVSPropertyOp43
 70
     1
102
RTVSPropertyOp44
 70
     1
102
RTVSPropertyOp45
 70
     1
102
RTVSPropertyOp46
 70
     1
102
RTVSPropertyOp47
 70
     1
102
RTVSPropertyOp48
 70
     1
102
RTVSPropertyOp49
 70
     1
102
RTVSPropertyOp50
 70
     1
102
RTVSPropertyOp51
 70
     0
102
RTVSPropertyOp52
 70
     0
102
RTVSPropertyOp53
 70
     1
102
RTVSPropertyOp54
 70
     1
102
RTVSPropertyOp55
 70
     1
102
RTVSPropertyOp56
 70
     1
102
RTVSPropertyOp57
 70
     1
102
RTVSPost2010Prop28
280
     0
102
RTVSPost2010PropOp28
 70
     1
102
RTVSPost2010Prop29
280
     1
102
RTVSPost2010PropOp29
 70
     1
102
RTVSPost2010Prop30
280
     1
102
RTVSPost2010PropOp30
 70
     1
102
RTVSPost2010Prop31
280
     0
102
RTVSPost2010PropOp31
 70
     1
102
RTVSPost2010Prop32
280
     0
102
RTVSPost2010PropOp32
 70
     1
102
RTVSPost2010Prop33
280
     0
102
RTVSPost2010PropOp33
 70
     1
102
RTVSPost2010Prop34
280
     0
102
RTVSPost2010PropOp34
 70
     1
102
RTVSPost2010Prop35
280
     0
102
RTVSPost2010PropOp35
 70
     1
102
RTVSPost2010Prop36
280
     0
102
RTVSPost2010PropOp36
 70
     1
102
RTVSPost2010Prop37
 90
       50
102
RTVSPost2010PropOp37
 70
     1
102
RTVSPost2010Prop38
140
0.0
102
RTVSPost2010PropOp38
 70
     1
102
RTVSPost2010Prop39
140
1.0
102
RTVSPost2010PropOp39
 70
     1
102
RTVSPost2010Prop40
 90
        0
102
RTVSPost2010PropOp40
 70
     1
102
RTVSPost2010Prop41ColorIndex
 90
       18
102
RTVSPost2010Prop41ColorRGB
 90
        0
102
RTVSPost2010PropOp41
 70
     1
102
RTVSPost2010Prop42
 90
       50
102
RTVSPost2010PropOp42
 70
     1
102
RTVSPost2010Prop43
 90
        3
102
RTVSPost2010PropOp43
 70
     1
102
RTVSPost2010Prop44ColorIndex
 90
        5
102
RTVSPost2010Prop44ColorRGB
 90
      255
102
RTVSPost2010PropOp44
 70
     1
102
RTVSPost2010Prop45
280
     0
102
RTVSPost2010PropOp45
 70
     1
102
RTVSPost2010Prop46
 90
       50
102
RTVSPost2010PropOp46
 70
     1
102
RTVSPost2010Prop47
 90
       50
102
RTVSPost2010PropOp47
 70
     1
102
RTVSPost2010Prop48
 90
       50
102
RTVSPost2010PropOp48
 70
     1
102
RTVSPost2010Prop49
280
     0
102
RTVSPost2010PropOp49
 70
     1
102
RTVSPost2010Prop50
 90
       50
102
RTVSPost2010PropOp50
 70
     1
102
RTVSPost2010Prop51ColorIndex
 90
      256
102
RTVSPost2010Prop51ColorRGB
 90
-16777216
102
RTVSPost2010PropOp51
 70
     0
102
RTVSPost2010Prop52
140
1.0
102
RTVSPost2010PropOp52
 70
     0
102
RTVSPost2010Prop53
 90
        2
102
RTVSPost2010PropOp53
 70
     1
102
RTVSPost2010Prop54
  1
strokes_ogs.tif
102
RTVSPost2010PropOp54
 70
     1
102
RTVSPost2010Prop55
280
     0
102
RTVSPost2010PropOp55
 70
     1
102
RTVSPost2010Prop56
140
1.0
102
RTVSPost2010PropOp56
 70
     1
102
RTVSPost2010Prop57
140
1.0
102
RTVSPost2010PropOp57
 70
     1
  0
XRECORD
  5
90
102
{ACAD_REACTORS
330
8F
102
}
330
8F
100
AcDbXrecord
280
     1
102
RTVSPropertyOp0
 70
     1
102
RTVSPropertyOp1
 70
     1
102
RTVSPropertyOp2
 70
     1
102
RTVSPropertyOp3
 70
     1
102
RTVSPropertyOp4
 70
     1
102
RTVSPropertyOp5
 70
     1
102
RTVSPropertyOp6
 70
     1
102
RTVSPropertyOp7
 70
     1
102
RTVSPropertyOp8
 70
     1
102
RTVSPropertyOp9
 70
     1
102
RTVSPropertyOp10
 70
     1
102
RTVSPropertyOp11
 70
     1
102
RTVSPropertyOp12
 70
     1
102
RTVSPropertyOp13
 70
     1
102
RTVSPropertyOp14
 70
     1
102
RTVSPropertyOp15
 70
     1
102
RTVSPropertyOp16
 70
     1
102
RTVSPropertyOp17
 70
     1
102
RTVSPropertyOp18
 70
     1
102
RTVSPropertyOp19
 70
     1
102
RTVSPropertyOp20
 70
     1
102
RTVSPropertyOp21
 70
     1
102
RTVSPropertyOp22
 70
     1
102
RTVSPropertyOp23
 70
     1
102
RTVSPropertyOp24
 70
     1
102
RTVSPropertyOp25
 70
     1
102
RTVSPropertyOp26
 70
     1
102
RTVSPropertyOp27
 70
     1
102
RTVSPropertyOp28
 70
     1
102
RTVSPropertyOp29
 70
     1
102
RTVSPropertyOp30
 70
     1
102
RTVSPropertyOp31
 70
     1
102
RTVSPropertyOp32
 70
     1
102
RTVSPropertyOp33
 70
     1
102
RTVSPropertyOp34
 70
     1
102
RTVSPropertyOp35
 70
     1
102
RTVSPropertyOp36
 70
     1
102
RTVSPropertyOp37
 70
     1
102
RTVSPropertyOp38
 70
     1
102
RTVSPropertyOp39
 70
     1
102
RTVSPropertyOp40
 70
     1
102
RTVSPropertyOp41
 70
     1
102
RTVSPropertyOp42
 70
     1
102
RTVSPropertyOp43
 70
     1
102
RTVSPropertyOp44
 70
     1
102
RTVSPropertyOp45
 70
     1
102
RTVSPropertyOp46
 70
     1
102
RTVSPropertyOp47
 70
     1
102
RTVSPropertyOp48
 70
     1
102
RTVSPropertyOp49
 70
     1
102
RTVSPropertyOp50
 70
     1
102
RTVSPropertyOp51
 70
     0
102
RTVSPropertyOp52
 70
     0
102
RTVSPropertyOp53
 70
     1
102
RTVSPropertyOp54
 70
     1
102
RTVSPropertyOp55
 70
     1
102
RTVSPropertyOp56
 70
     1
102
RTVSPropertyOp57
 70
     1
102
RTVSPost2010Prop28
280
     0
102
RTVSPost2010PropOp28
 70
     1
102
RTVSPost2010Prop29
280
     1
102
RTVSPost2010PropOp29
 70
     1
102
RTVSPost2010Prop30
280
     1
102
RTVSPost2010PropOp30
 70
     1
102
RTVSPost2010Prop31
280
     0
102
RTVSPost2010PropOp31
 70
     1
102
RTVSPost2010Prop32
280
     0
102
RTVSPost2010PropOp32
 70
     1
102
RTVSPost2010Prop33
280
     0
102
RTVSPost2010PropOp33
 70
     1
102
RTVSPost2010Prop34
280
     0
102
RTVSPost2010PropOp34
 70
     1
102
RTVSPost2010Prop35
280
     0
102
RTVSPost2010PropOp35
 70
     1
102
RTVSPost2010Prop36
280
     0
102
RTVSPost2010PropOp36
 70
     1
102
RTVSPost2010Prop37
 90
       50
102
RTVSPost2010PropOp37
 70
     1
102
RTVSPost2010Prop38
140
0.0
102
RTVSPost2010PropOp38
 70
     1
102
RTVSPost2010Prop39
140
1.0
102
RTVSPost2010PropOp39
 70
     1
102
RTVSPost2010Prop40
 90
        0
102
RTVSPost2010PropOp40
 70
     1
102
RTVSPost2010Prop41ColorIndex
 90
       18
102
RTVSPost2010Prop41ColorRGB
 90
        0
102
RTVSPost2010PropOp41
 70
     1
102
RTVSPost2010Prop42
 90
       50
102
RTVSPost2010PropOp42
 70
     1
102
RTVSPost2010Prop43
 90
        3
102
RTVSPost2010PropOp43
 70
     1
102
RTVSPost2010Prop44ColorIndex
 90
        5
102
RTVSPost2010Prop44ColorRGB
 90
      255
102
RTVSPost2010PropOp44
 70
     1
102
RTVSPost2010Prop45
280
     0
102
RTVSPost2010PropOp45
 70
     1
102
RTVSPost2010Prop46
 90
       50
102
RTVSPost2010PropOp46
 70
     1
102
RTVSPost2010Prop47
 90
       50
102
RTVSPost2010PropOp47
 70
     1
102
RTVSPost2010Prop48
 90
       50
102
RTVSPost2010PropOp48
 70
     1
102
RTVSPost2010Prop49
280
     0
102
RTVSPost2010PropOp49
 70
     1
102
RTVSPost2010Prop50
 90
       50
102
RTVSPost2010PropOp50
 70
     1
102
RTVSPost2010Prop51ColorIndex
 90
      256
102
RTVSPost2010Prop51ColorRGB
 90
-16777216
102
RTVSPost2010PropOp51
 70
     0
102
RTVSPost2010Prop52
140
1.0
102
RTVSPost2010PropOp52
 70
     0
102
RTVSPost2010Prop53
 90
        2
102
RTVSPost2010PropOp53
 70
     1
102
RTVSPost2010Prop54
  1
strokes_ogs.tif
102
RTVSPost2010PropOp54
 70
     1
102
RTVSPost2010Prop55
280
     0
102
RTVSPost2010PropOp55
 70
     1
102
RTVSPost2010Prop56
140
1.0
102
RTVSPost2010PropOp56
 70
     1
102
RTVSPost2010Prop57
140
1.0
102
RTVSPost2010PropOp57
 70
     1
  0
XRECORD
  5
92
102
{ACAD_REACTORS
330
91
102
}
330
91
100
AcDbXrecord
280
     1
102
RTVSPropertyOp0
 70
     1
102
RTVSPropertyOp1
 70
     1
102
RTVSPropertyOp2
 70
     1
102
RTVSPropertyOp3
 70
     1
102
RTVSPropertyOp4
 70
     1
102
RTVSPropertyOp5
 70
     1
102
RTVSPropertyOp6
 70
     1
102
RTVSPropertyOp7
 70
     1
102
RTVSPropertyOp8
 70
     1
102
RTVSPropertyOp9
 70
     1
102
RTVSPropertyOp10
 70
     1
102
RTVSPropertyOp11
 70
     1
102
RTVSPropertyOp12
 70
     1
102
RTVSPropertyOp13
 70
     1
102
RTVSPropertyOp14
 70
     1
102
RTVSPropertyOp15
 70
     1
102
RTVSPropertyOp16
 70
     1
102
RTVSPropertyOp17
 70
     1
102
RTVSPropertyOp18
 70
     1
102
RTVSPropertyOp19
 70
     1
102
RTVSPropertyOp20
 70
     1
102
RTVSPropertyOp21
 70
     1
102
RTVSPropertyOp22
 70
     1
102
RTVSPropertyOp23
 70
     1
102
RTVSPropertyOp24
 70
     1
102
RTVSPropertyOp25
 70
     1
102
RTVSPropertyOp26
 70
     1
102
RTVSPropertyOp27
 70
     1
102
RTVSPropertyOp28
 70
     1
102
RTVSPropertyOp29
 70
     1
102
RTVSPropertyOp30
 70
     1
102
RTVSPropertyOp31
 70
     1
102
RTVSPropertyOp32
 70
     1
102
RTVSPropertyOp33
 70
     1
102
RTVSPropertyOp34
 70
     1
102
RTVSPropertyOp35
 70
     1
102
RTVSPropertyOp36
 70
     1
102
RTVSPropertyOp37
 70
     1
102
RTVSPropertyOp38
 70
     1
102
RTVSPropertyOp39
 70
     1
102
RTVSPropertyOp40
 70
     1
102
RTVSPropertyOp41
 70
     1
102
RTVSPropertyOp42
 70
     1
102
RTVSPropertyOp43
 70
     1
102
RTVSPropertyOp44
 70
     1
102
RTVSPropertyOp45
 70
     1
102
RTVSPropertyOp46
 70
     1
102
RTVSPropertyOp47
 70
     1
102
RTVSPropertyOp48
 70
     1
102
RTVSPropertyOp49
 70
     1
102
RTVSPropertyOp50
 70
     1
102
RTVSPropertyOp51
 70
     0
102
RTVSPropertyOp52
 70
     0
102
RTVSPropertyOp53
 70
     1
102
RTVSPropertyOp54
 70
     1
102
RTVSPropertyOp55
 70
     1
102
RTVSPropertyOp56
 70
     1
102
RTVSPropertyOp57
 70
     1
102
RTVSPost2010Prop28
280
     0
102
RTVSPost2010PropOp28
 70
     1
102
RTVSPost2010Prop29
280
     1
102
RTVSPost2010PropOp29
 70
     1
102
RTVSPost2010Prop30
280
     1
102
RTVSPost2010PropOp30
 70
     1
102
RTVSPost2010Prop31
280
     0
102
RTVSPost2010PropOp31
 70
     1
102
RTVSPost2010Prop32
280
     0
102
RTVSPost2010PropOp32
 70
     1
102
RTVSPost2010Prop33
280
     0
102
RTVSPost2010PropOp33
 70
     1
102
RTVSPost2010Prop34
280
     0
102
RTVSPost2010PropOp34
 70
     1
102
RTVSPost2010Prop35
280
     0
102
RTVSPost2010PropOp35
 70
     1
102
RTVSPost2010Prop36
280
     0
102
RTVSPost2010PropOp36
 70
     1
102
RTVSPost2010Prop37
 90
       50
102
RTVSPost2010PropOp37
 70
     1
102
RTVSPost2010Prop38
140
0.0
102
RTVSPost2010PropOp38
 70
     1
102
RTVSPost2010Prop39
140
1.0
102
RTVSPost2010PropOp39
 70
     1
102
RTVSPost2010Prop40
 90
        0
102
RTVSPost2010PropOp40
 70
     1
102
RTVSPost2010Prop41ColorIndex
 90
       18
102
RTVSPost2010Prop41ColorRGB
 90
        0
102
RTVSPost2010PropOp41
 70
     1
102
RTVSPost2010Prop42
 90
       50
102
RTVSPost2010PropOp42
 70
     1
102
RTVSPost2010Prop43
 90
        3
102
RTVSPost2010PropOp43
 70
     1
102
RTVSPost2010Prop44ColorIndex
 90
        5
102
RTVSPost2010Prop44ColorRGB
 90
      255
102
RTVSPost2010PropOp44
 70
     1
102
RTVSPost2010Prop45
280
     0
102
RTVSPost2010PropOp45
 70
     1
102
RTVSPost2010Prop46
 90
       50
102
RTVSPost2010PropOp46
 70
     1
102
RTVSPost2010Prop47
 90
       50
102
RTVSPost2010PropOp47
 70
     1
102
RTVSPost2010Prop48
 90
       50
102
RTVSPost2010PropOp48
 70
     1
102
RTVSPost2010Prop49
280
     0
102
RTVSPost2010PropOp49
 70
     1
102
RTVSPost2010Prop50
 90
       50
102
RTVSPost2010PropOp50
 70
     1
102
RTVSPost2010Prop51ColorIndex
 90
      256
102
RTVSPost2010Prop51ColorRGB
 90
-16777216
102
RTVSPost2010PropOp51
 70
     0
102
RTVSPost2010Prop52
140
1.0
102
RTVSPost2010PropOp52
 70
     0
102
RTVSPost2010Prop53
 90
        2
102
RTVSPost2010PropOp53
 70
     1
102
RTVSPost2010Prop54
  1
strokes_ogs.tif
102
RTVSPost2010PropOp54
 70
     1
102
RTVSPost2010Prop55
280
     0
102
RTVSPost2010PropOp55
 70
     1
102
RTVSPost2010Prop56
140
1.0
102
RTVSPost2010PropOp56
 70
     1
102
RTVSPost2010Prop57
140
1.0
102
RTVSPost2010PropOp57
 70
     1
  0
XRECORD
  5
98
102
{ACAD_REACTORS
330
97
102
}
330
97
100
AcDbXrecord
280
     1
102
RTVSPropertyOp0
 70
     1
102
RTVSPropertyOp1
 70
     1
102
RTVSPropertyOp2
 70
     1
102
RTVSPropertyOp3
 70
     1
102
RTVSPropertyOp4
 70
     1
102
RTVSPropertyOp5
 70
     1
102
RTVSPropertyOp6
 70
     1
102
RTVSPropertyOp7
 70
     1
102
RTVSPropertyOp8
 70
     1
102
RTVSPropertyOp9
 70
     1
102
RTVSPropertyOp10
 70
     1
102
RTVSPropertyOp11
 70
     1
102
RTVSPropertyOp12
 70
     1
102
RTVSPropertyOp13
 70
     1
102
RTVSPropertyOp14
 70
     1
102
RTVSPropertyOp15
 70
     1
102
RTVSPropertyOp16
 70
     1
102
RTVSPropertyOp17
 70
     1
102
RTVSPropertyOp18
 70
     1
102
RTVSPropertyOp19
 70
     1
102
RTVSPropertyOp20
 70
     1
102
RTVSPropertyOp21
 70
     1
102
RTVSPropertyOp22
 70
     1
102
RTVSPropertyOp23
 70
     1
102
RTVSPropertyOp24
 70
     1
102
RTVSPropertyOp25
 70
     1
102
RTVSPropertyOp26
 70
     1
102
RTVSPropertyOp27
 70
     1
102
RTVSPropertyOp28
 70
     1
102
RTVSPropertyOp29
 70
     1
102
RTVSPropertyOp30
 70
     1
102
RTVSPropertyOp31
 70
     1
102
RTVSPropertyOp32
 70
     1
102
RTVSPropertyOp33
 70
     1
102
RTVSPropertyOp34
 70
     1
102
RTVSPropertyOp35
 70
     1
102
RTVSPropertyOp36
 70
     1
102
RTVSPropertyOp37
 70
     1
102
RTVSPropertyOp38
 70
     1
102
RTVSPropertyOp39
 70
     1
102
RTVSPropertyOp40
 70
     1
102
RTVSPropertyOp41
 70
     1
102
RTVSPropertyOp42
 70
     1
102
RTVSPropertyOp43
 70
     1
102
RTVSPropertyOp44
 70
     1
102
RTVSPropertyOp45
 70
     1
102
RTVSPropertyOp46
 70
     1
102
RTVSPropertyOp47
 70
     1
102
RTVSPropertyOp48
 70
     1
102
RTVSPropertyOp49
 70
     1
102
RTVSPropertyOp50
 70
     1
102
RTVSPropertyOp51
 70
     0
102
RTVSPropertyOp52
 70
     0
102
RTVSPropertyOp53
 70
     1
102
RTVSPropertyOp54
 70
     1
102
RTVSPropertyOp55
 70
     1
102
RTVSPropertyOp56
 70
     1
102
RTVSPropertyOp57
 70
     1
102
RTVSPost2010Prop28
280
     0
102
RTVSPost2010PropOp28
 70
     1
102
RTVSPost2010Prop29
280
     1
102
RTVSPost2010PropOp29
 70
     1
102
RTVSPost2010Prop30
280
     1
102
RTVSPost2010PropOp30
 70
     1
102
RTVSPost2010Prop31
280
     0
102
RTVSPost2010PropOp31
 70
     1
102
RTVSPost2010Prop32
280
     0
102
RTVSPost2010PropOp32
 70
     1
102
RTVSPost2010Prop33
280
     0
102
RTVSPost2010PropOp33
 70
     1
102
RTVSPost2010Prop34
280
     0
102
RTVSPost2010PropOp34
 70
     1
102
RTVSPost2010Prop35
280
     0
102
RTVSPost2010PropOp35
 70
     1
102
RTVSPost2010Prop36
280
     0
102
RTVSPost2010PropOp36
 70
     1
102
RTVSPost2010Prop37
 90
       50
102
RTVSPost2010PropOp37
 70
     1
102
RTVSPost2010Prop38
140
0.0
102
RTVSPost2010PropOp38
 70
     1
102
RTVSPost2010Prop39
140
1.0
102
RTVSPost2010PropOp39
 70
     1
102
RTVSPost2010Prop40
 90
        0
102
RTVSPost2010PropOp40
 70
     1
102
RTVSPost2010Prop41ColorIndex
 90
       18
102
RTVSPost2010Prop41ColorRGB
 90
        0
102
RTVSPost2010PropOp41
 70
     1
102
RTVSPost2010Prop42
 90
       50
102
RTVSPost2010PropOp42
 70
     1
102
RTVSPost2010Prop43
 90
        3
102
RTVSPost2010PropOp43
 70
     1
102
RTVSPost2010Prop44ColorIndex
 90
        5
102
RTVSPost2010Prop44ColorRGB
 90
      255
102
RTVSPost2010PropOp44
 70
     1
102
RTVSPost2010Prop45
280
     0
102
RTVSPost2010PropOp45
 70
     1
102
RTVSPost2010Prop46
 90
       50
102
RTVSPost2010PropOp46
 70
     1
102
RTVSPost2010Prop47
 90
       50
102
RTVSPost2010PropOp47
 70
     1
102
RTVSPost2010Prop48
 90
       50
102
RTVSPost2010PropOp48
 70
     1
102
RTVSPost2010Prop49
280
     0
102
RTVSPost2010PropOp49
 70
     1
102
RTVSPost2010Prop50
 90
       50
102
RTVSPost2010PropOp50
 70
     1
102
RTVSPost2010Prop51ColorIndex
 90
      256
102
RTVSPost2010Prop51ColorRGB
 90
-16777216
102
RTVSPost2010PropOp51
 70
     0
102
RTVSPost2010Prop52
140
1.0
102
RTVSPost2010PropOp52
 70
     0
102
RTVSPost2010Prop53
 90
        2
102
RTVSPost2010PropOp53
 70
     1
102
RTVSPost2010Prop54
  1
strokes_ogs.tif
102
RTVSPost2010PropOp54
 70
     1
102
RTVSPost2010Prop55
280
     0
102
RTVSPost2010PropOp55
 70
     1
102
RTVSPost2010Prop56
140
1.0
102
RTVSPost2010PropOp56
 70
     1
102
RTVSPost2010Prop57
140
1.0
102
RTVSPost2010PropOp57
 70
     1
  0
XRECORD
  5
AC
102
{ACAD_REACTORS
330
AB
102
}
330
AB
100
AcDbXrecord
280
     1
102
RTVSPropertyOp0
 70
     0
102
RTVSPropertyOp1
 70
     0
102
RTVSPropertyOp2
 70
     0
102
RTVSPropertyOp3
 70
     0
102
RTVSPropertyOp4
 70
     0
102
RTVSPropertyOp5
 70
     0
102
RTVSPropertyOp6
 70
     0
102
RTVSPropertyOp7
 70
     0
102
RTVSPropertyOp8
 70
     0
102
RTVSPropertyOp9
 70
     0
102
RTVSPropertyOp10
 70
     0
102
RTVSPropertyOp11
 70
     0
102
RTVSPropertyOp12
 70
     0
102
RTVSPropertyOp13
 70
     0
102
RTVSPropertyOp14
 70
     2
102
RTVSPropertyOp15
 70
     0
102
RTVSPropertyOp16
 70
     0
102
RTVSPropertyOp17
 70
     0
102
RTVSPropertyOp18
 70
     0
102
RTVSPropertyOp19
 70
     0
102
RTVSPropertyOp20
 70
     0
102
RTVSPropertyOp21
 70
     0
102
RTVSPropertyOp22
 70
     0
102
RTVSPropertyOp23
 70
     0
102
RTVSPropertyOp24
 70
     0
102
RTVSPropertyOp25
 70
     0
102
RTVSPropertyOp26
 70
     0
102
RTVSPropertyOp27
 70
     0
102
RTVSPropertyOp28
 70
     0
102
RTVSPropertyOp29
 70
     0
102
RTVSPropertyOp30
 70
     0
102
RTVSPropertyOp31
 70
     0
102
RTVSPropertyOp32
 70
     0
102
RTVSPropertyOp33
 70
     0
102
RTVSPropertyOp34
 70
     0
102
RTVSPropertyOp35
 70
     0
102
RTVSPropertyOp36
 70
     0
102
RTVSPropertyOp37
 70
     0
102
RTVSPropertyOp38
 70
     0
102
RTVSPropertyOp39
 70
     0
102
RTVSPropertyOp40
 70
     0
102
RTVSPropertyOp41
 70
     0
102
RTVSPropertyOp42
 70
     0
102
RTVSPropertyOp43
 70
     0
102
RTVSPropertyOp44
 70
     0
102
RTVSPropertyOp45
 70
     0
102
RTVSPropertyOp46
 70
     0
102
RTVSPropertyOp47
 70
     0
102
RTVSPropertyOp48
 70
     0
102
RTVSPropertyOp49
 70
     0
102
RTVSPropertyOp50
 70
     0
102
RTVSPropertyOp51
 70
     0
102
RTVSPropertyOp52
 70
     0
102
RTVSPropertyOp53
 70
     0
102
RTVSPropertyOp54
 70
     0
102
RTVSPropertyOp55
 70
     0
102
RTVSPropertyOp56
 70
     0
102
RTVSPropertyOp57
 70
     0
102
RTVSPost2010Prop28
280
     0
102
RTVSPost2010PropOp28
 70
     0
102
RTVSPost2010Prop29
280
     1
102
RTVSPost2010PropOp29
 70
     0
102
RTVSPost2010Prop30
280
     1
102
RTVSPost2010PropOp30
 70
     0
102
RTVSPost2010Prop31
280
     0
102
RTVSPost2010PropOp31
 70
     0
102
RTVSPost2010Prop32
280
     0
102
RTVSPost2010PropOp32
 70
     0
102
RTVSPost2010Prop33
280
     0
102
RTVSPost2010PropOp33
 70
     0
102
RTVSPost2010Prop34
280
     0
102
RTVSPost2010PropOp34
 70
     0
102
RTVSPost2010Prop35
280
     0
102
RTVSPost2010PropOp35
 70
     0
102
RTVSPost2010Prop36
280
     0
102
RTVSPost2010PropOp36
 70
     0
102
RTVSPost2010Prop37
 90
       50
102
RTVSPost2010PropOp37
 70
     0
102
RTVSPost2010Prop38
140
0.0
102
RTVSPost2010PropOp38
 70
     0
102
RTVSPost2010Prop39
140
1.0
102
RTVSPost2010PropOp39
 70
     0
102
RTVSPost2010Prop40
 90
        0
102
RTVSPost2010PropOp40
 70
     0
102
RTVSPost2010Prop41ColorIndex
 90
       18
102
RTVSPost2010Prop41ColorRGB
 90
        0
102
RTVSPost2010PropOp41
 70
     0
102
RTVSPost2010Prop42
 90
       50
102
RTVSPost2010PropOp42
 70
     0
102
RTVSPost2010Prop43
 90
        3
102
RTVSPost2010PropOp43
 70
     0
102
RTVSPost2010Prop44ColorIndex
 90
        5
102
RTVSPost2010Prop44ColorRGB
 90
      255
102
RTVSPost2010PropOp44
 70
     0
102
RTVSPost2010Prop45
280
     0
102
RTVSPost2010PropOp45
 70
     0
102
RTVSPost2010Prop46
 90
       50
102
RTVSPost2010PropOp46
 70
     0
102
RTVSPost2010Prop47
 90
       50
102
RTVSPost2010PropOp47
 70
     0
102
RTVSPost2010Prop48
 90
       50
102
RTVSPost2010PropOp48
 70
     0
102
RTVSPost2010Prop49
280
     0
102
RTVSPost2010PropOp49
 70
     0
102
RTVSPost2010Prop50
 90
       50
102
RTVSPost2010PropOp50
 70
     0
102
RTVSPost2010Prop51ColorIndex
 90
      256
102
RTVSPost2010Prop51ColorRGB
 90
-16777216
102
RTVSPost2010PropOp51
 70
     0
102
RTVSPost2010Prop52
140
1.0
102
RTVSPost2010PropOp52
 70
     0
102
RTVSPost2010Prop53
 90
        2
102
RTVSPost2010PropOp53
 70
     0
102
RTVSPost2010Prop54
  1
strokes_ogs.tif
102
RTVSPost2010PropOp54
 70
     0
102
RTVSPost2010Prop55
280
     0
102
RTVSPost2010PropOp55
 70
     0
102
RTVSPost2010Prop56
140
1.0
102
RTVSPost2010PropOp56
 70
     0
102
RTVSPost2010Prop57
140
1.0
102
RTVSPost2010PropOp57
 70
     0
  0
XRECORD
  5
A6
102
{ACAD_REACTORS
330
A5
102
}
330
A5
100
AcDbXrecord
280
     1
102
RTVSPropertyOp0
 70
     1
102
RTVSPropertyOp1
 70
     1
102
RTVSPropertyOp2
 70
     1
102
RTVSPropertyOp3
 70
     1
102
RTVSPropertyOp4
 70
     1
102
RTVSPropertyOp5
 70
     1
102
RTVSPropertyOp6
 70
     1
102
RTVSPropertyOp7
 70
     1
102
RTVSPropertyOp8
 70
     1
102
RTVSPropertyOp9
 70
     1
102
RTVSPropertyOp10
 70
     1
102
RTVSPropertyOp11
 70
     1
102
RTVSPropertyOp12
 70
     1
102
RTVSPropertyOp13
 70
     1
102
RTVSPropertyOp14
 70
     1
102
RTVSPropertyOp15
 70
     1
102
RTVSPropertyOp16
 70
     1
102
RTVSPropertyOp17
 70
     1
102
RTVSPropertyOp18
 70
     1
102
RTVSPropertyOp19
 70
     1
102
RTVSPropertyOp20
 70
     1
102
RTVSPropertyOp21
 70
     1
102
RTVSPropertyOp22
 70
     1
102
RTVSPropertyOp23
 70
     1
102
RTVSPropertyOp24
 70
     1
102
RTVSPropertyOp25
 70
     1
102
RTVSPropertyOp26
 70
     1
102
RTVSPropertyOp27
 70
     1
102
RTVSPropertyOp28
 70
     1
102
RTVSPropertyOp29
 70
     1
102
RTVSPropertyOp30
 70
     1
102
RTVSPropertyOp31
 70
     1
102
RTVSPropertyOp32
 70
     1
102
RTVSPropertyOp33
 70
     1
102
RTVSPropertyOp34
 70
     1
102
RTVSPropertyOp35
 70
     1
102
RTVSPropertyOp36
 70
     1
102
RTVSPropertyOp37
 70
     1
102
RTVSPropertyOp38
 70
     1
102
RTVSPropertyOp39
 70
     1
102
RTVSPropertyOp40
 70
     1
102
RTVSPropertyOp41
 70
     1
102
RTVSPropertyOp42
 70
     1
102
RTVSPropertyOp43
 70
     1
102
RTVSPropertyOp44
 70
     1
102
RTVSPropertyOp45
 70
     1
102
RTVSPropertyOp46
 70
     1
102
RTVSPropertyOp47
 70
     1
102
RTVSPropertyOp48
 70
     1
102
RTVSPropertyOp49
 70
     1
102
RTVSPropertyOp50
 70
     1
102
RTVSPropertyOp51
 70
     0
102
RTVSPropertyOp52
 70
     0
102
RTVSPropertyOp53
 70
     1
102
RTVSPropertyOp54
 70
     1
102
RTVSPropertyOp55
 70
     1
102
RTVSPropertyOp56
 70
     1
102
RTVSPropertyOp57
 70
     1
102
RTVSPost2010Prop28
280
     0
102
RTVSPost2010PropOp28
 70
     1
102
RTVSPost2010Prop29
280
     1
102
RTVSPost2010PropOp29
 70
     1
102
RTVSPost2010Prop30
280
     1
102
RTVSPost2010PropOp30
 70
     1
102
RTVSPost2010Prop31
280
     0
102
RTVSPost2010PropOp31
 70
     1
102
RTVSPost2010Prop32
280
     0
102
RTVSPost2010PropOp32
 70
     1
102
RTVSPost2010Prop33
280
     0
102
RTVSPost2010PropOp33
 70
     1
102
RTVSPost2010Prop34
280
     0
102
RTVSPost2010PropOp34
 70
     1
102
RTVSPost2010Prop35
280
     0
102
RTVSPost2010PropOp35
 70
     1
102
RTVSPost2010Prop36
280
     0
102
RTVSPost2010PropOp36
 70
     1
102
RTVSPost2010Prop37
 90
       50
102
RTVSPost2010PropOp37
 70
     1
102
RTVSPost2010Prop38
140
0.0
102
RTVSPost2010PropOp38
 70
     1
102
RTVSPost2010Prop39
140
1.0
102
RTVSPost2010PropOp39
 70
     1
102
RTVSPost2010Prop40
 90
        0
102
RTVSPost2010PropOp40
 70
     1
102
RTVSPost2010Prop41ColorIndex
 90
       18
102
RTVSPost2010Prop41ColorRGB
 90
        0
102
RTVSPost2010PropOp41
 70
     1
102
RTVSPost2010Prop42
 90
       50
102
RTVSPost2010PropOp42
 70
     1
102
RTVSPost2010Prop43
 90
        3
102
RTVSPost2010PropOp43
 70
     1
102
RTVSPost2010Prop44ColorIndex
 90
        5
102
RTVSPost2010Prop44ColorRGB
 90
      255
102
RTVSPost2010PropOp44
 70
     1
102
RTVSPost2010Prop45
280
     0
102
RTVSPost2010PropOp45
 70
     1
102
RTVSPost2010Prop46
 90
       50
102
RTVSPost2010PropOp46
 70
     1
102
RTVSPost2010Prop47
 90
       50
102
RTVSPost2010PropOp47
 70
     1
102
RTVSPost2010Prop48
 90
       50
102
RTVSPost2010PropOp48
 70
     1
102
RTVSPost2010Prop49
280
     0
102
RTVSPost2010PropOp49
 70
     1
102
RTVSPost2010Prop50
 90
       50
102
RTVSPost2010PropOp50
 70
     1
102
RTVSPost2010Prop51ColorIndex
 90
      256
102
RTVSPost2010Prop51ColorRGB
 90
-16777216
102
RTVSPost2010PropOp51
 70
     0
102
RTVSPost2010Prop52
140
1.0
102
RTVSPost2010PropOp52
 70
     0
102
RTVSPost2010Prop53
 90
        2
102
RTVSPost2010PropOp53
 70
     1
102
RTVSPost2010Prop54
  1
strokes_ogs.tif
102
RTVSPost2010PropOp54
 70
     1
102
RTVSPost2010Prop55
280
     0
102
RTVSPost2010PropOp55
 70
     1
102
RTVSPost2010Prop56
140
1.0
102
RTVSPost2010PropOp56
 70
     1
102
RTVSPost2010Prop57
140
1.0
102
RTVSPost2010PropOp57
 70
     1
  0
XRECORD
  5
AE
102
{ACAD_REACTORS
330
AD
102
}
330
AD
100
AcDbXrecord
280
     1
102
RTVSPropertyOp0
 70
     0
102
RTVSPropertyOp1
 70
     0
102
RTVSPropertyOp2
 70
     0
102
RTVSPropertyOp3
 70
     0
102
RTVSPropertyOp4
 70
     0
102
RTVSPropertyOp5
 70
     0
102
RTVSPropertyOp6
 70
     0
102
RTVSPropertyOp7
 70
     0
102
RTVSPropertyOp8
 70
     0
102
RTVSPropertyOp9
 70
     0
102
RTVSPropertyOp10
 70
     0
102
RTVSPropertyOp11
 70
     0
102
RTVSPropertyOp12
 70
     0
102
RTVSPropertyOp13
 70
     0
102
RTVSPropertyOp14
 70
     2
102
RTVSPropertyOp15
 70
     0
102
RTVSPropertyOp16
 70
     0
102
RTVSPropertyOp17
 70
     0
102
RTVSPropertyOp18
 70
     0
102
RTVSPropertyOp19
 70
     0
102
RTVSPropertyOp20
 70
     0
102
RTVSPropertyOp21
 70
     0
102
RTVSPropertyOp22
 70
     0
102
RTVSPropertyOp23
 70
     0
102
RTVSPropertyOp24
 70
     0
102
RTVSPropertyOp25
 70
     0
102
RTVSPropertyOp26
 70
     0
102
RTVSPropertyOp27
 70
     0
102
RTVSPropertyOp28
 70
     0
102
RTVSPropertyOp29
 70
     0
102
RTVSPropertyOp30
 70
     0
102
RTVSPropertyOp31
 70
     0
102
RTVSPropertyOp32
 70
     0
102
RTVSPropertyOp33
 70
     0
102
RTVSPropertyOp34
 70
     0
102
RTVSPropertyOp35
 70
     0
102
RTVSPropertyOp36
 70
     0
102
RTVSPropertyOp37
 70
     0
102
RTVSPropertyOp38
 70
     0
102
RTVSPropertyOp39
 70
     0
102
RTVSPropertyOp40
 70
     0
102
RTVSPropertyOp41
 70
     0
102
RTVSPropertyOp42
 70
     0
102
RTVSPropertyOp43
 70
     0
102
RTVSPropertyOp44
 70
     0
102
RTVSPropertyOp45
 70
     0
102
RTVSPropertyOp46
 70
     0
102
RTVSPropertyOp47
 70
     0
102
RTVSPropertyOp48
 70
     0
102
RTVSPropertyOp49
 70
     0
102
RTVSPropertyOp50
 70
     0
102
RTVSPropertyOp51
 70
     0
102
RTVSPropertyOp52
 70
     0
102
RTVSPropertyOp53
 70
     0
102
RTVSPropertyOp54
 70
     0
102
RTVSPropertyOp55
 70
     0
102
RTVSPropertyOp56
 70
     0
102
RTVSPropertyOp57
 70
     0
102
RTVSPost2010Prop28
280
     0
102
RTVSPost2010PropOp28
 70
     0
102
RTVSPost2010Prop29
280
     1
102
RTVSPost2010PropOp29
 70
     0
102
RTVSPost2010Prop30
280
     1
102
RTVSPost2010PropOp30
 70
     0
102
RTVSPost2010Prop31
280
     0
102
RTVSPost2010PropOp31
 70
     0
102
RTVSPost2010Prop32
280
     0
102
RTVSPost2010PropOp32
 70
     0
102
RTVSPost2010Prop33
280
     0
102
RTVSPost2010PropOp33
 70
     0
102
RTVSPost2010Prop34
280
     0
102
RTVSPost2010PropOp34
 70
     0
102
RTVSPost2010Prop35
280
     0
102
RTVSPost2010PropOp35
 70
     0
102
RTVSPost2010Prop36
280
     0
102
RTVSPost2010PropOp36
 70
     0
102
RTVSPost2010Prop37
 90
       50
102
RTVSPost2010PropOp37
 70
     0
102
RTVSPost2010Prop38
140
0.0
102
RTVSPost2010PropOp38
 70
     0
102
RTVSPost2010Prop39
140
1.0
102
RTVSPost2010PropOp39
 70
     0
102
RTVSPost2010Prop40
 90
        0
102
RTVSPost2010PropOp40
 70
     0
102
RTVSPost2010Prop41ColorIndex
 90
       18
102
RTVSPost2010Prop41ColorRGB
 90
        0
102
RTVSPost2010PropOp41
 70
     0
102
RTVSPost2010Prop42
 90
       50
102
RTVSPost2010PropOp42
 70
     0
102
RTVSPost2010Prop43
 90
        3
102
RTVSPost2010PropOp43
 70
     0
102
RTVSPost2010Prop44ColorIndex
 90
        5
102
RTVSPost2010Prop44ColorRGB
 90
      255
102
RTVSPost2010PropOp44
 70
     0
102
RTVSPost2010Prop45
280
     0
102
RTVSPost2010PropOp45
 70
     0
102
RTVSPost2010Prop46
 90
       50
102
RTVSPost2010PropOp46
 70
     0
102
RTVSPost2010Prop47
 90
       50
102
RTVSPost2010PropOp47
 70
     0
102
RTVSPost2010Prop48
 90
       50
102
RTVSPost2010PropOp48
 70
     0
102
RTVSPost2010Prop49
280
     0
102
RTVSPost2010PropOp49
 70
     0
102
RTVSPost2010Prop50
 90
       50
102
RTVSPost2010PropOp50
 70
     0
102
RTVSPost2010Prop51ColorIndex
 90
      256
102
RTVSPost2010Prop51ColorRGB
 90
-16777216
102
RTVSPost2010PropOp51
 70
     0
102
RTVSPost2010Prop52
140
1.0
102
RTVSPost2010PropOp52
 70
     0
102
RTVSPost2010Prop53
 90
        2
102
RTVSPost2010PropOp53
 70
     0
102
RTVSPost2010Prop54
  1
strokes_ogs.tif
102
RTVSPost2010PropOp54
 70
     0
102
RTVSPost2010Prop55
280
     0
102
RTVSPost2010PropOp55
 70
     0
102
RTVSPost2010Prop56
140
1.0
102
RTVSPost2010PropOp56
 70
     0
102
RTVSPost2010Prop57
140
1.0
102
RTVSPost2010PropOp57
 70
     0
  0
XRECORD
  5
9C
102
{ACAD_REACTORS
330
9B
102
}
330
9B
100
AcDbXrecord
280
     1
102
RTVSPropertyOp0
 70
     1
102
RTVSPropertyOp1
 70
     1
102
RTVSPropertyOp2
 70
     1
102
RTVSPropertyOp3
 70
     1
102
RTVSPropertyOp4
 70
     1
102
RTVSPropertyOp5
 70
     1
102
RTVSPropertyOp6
 70
     1
102
RTVSPropertyOp7
 70
     1
102
RTVSPropertyOp8
 70
     1
102
RTVSPropertyOp9
 70
     1
102
RTVSPropertyOp10
 70
     1
102
RTVSPropertyOp11
 70
     1
102
RTVSPropertyOp12
 70
     1
102
RTVSPropertyOp13
 70
     1
102
RTVSPropertyOp14
 70
     1
102
RTVSPropertyOp15
 70
     1
102
RTVSPropertyOp16
 70
     1
102
RTVSPropertyOp17
 70
     1
102
RTVSPropertyOp18
 70
     1
102
RTVSPropertyOp19
 70
     1
102
RTVSPropertyOp20
 70
     1
102
RTVSPropertyOp21
 70
     1
102
RTVSPropertyOp22
 70
     1
102
RTVSPropertyOp23
 70
     1
102
RTVSPropertyOp24
 70
     1
102
RTVSPropertyOp25
 70
     1
102
RTVSPropertyOp26
 70
     1
102
RTVSPropertyOp27
 70
     1
102
RTVSPropertyOp28
 70
     1
102
RTVSPropertyOp29
 70
     1
102
RTVSPropertyOp30
 70
     1
102
RTVSPropertyOp31
 70
     1
102
RTVSPropertyOp32
 70
     1
102
RTVSPropertyOp33
 70
     1
102
RTVSPropertyOp34
 70
     1
102
RTVSPropertyOp35
 70
     1
102
RTVSPropertyOp36
 70
     1
102
RTVSPropertyOp37
 70
     1
102
RTVSPropertyOp38
 70
     1
102
RTVSPropertyOp39
 70
     1
102
RTVSPropertyOp40
 70
     1
102
RTVSPropertyOp41
 70
     1
102
RTVSPropertyOp42
 70
     1
102
RTVSPropertyOp43
 70
     1
102
RTVSPropertyOp44
 70
     1
102
RTVSPropertyOp45
 70
     1
102
RTVSPropertyOp46
 70
     1
102
RTVSPropertyOp47
 70
     1
102
RTVSPropertyOp48
 70
     1
102
RTVSPropertyOp49
 70
     1
102
RTVSPropertyOp50
 70
     1
102
RTVSPropertyOp51
 70
     0
102
RTVSPropertyOp52
 70
     0
102
RTVSPropertyOp53
 70
     1
102
RTVSPropertyOp54
 70
     1
102
RTVSPropertyOp55
 70
     1
102
RTVSPropertyOp56
 70
     1
102
RTVSPropertyOp57
 70
     1
102
RTVSPost2010Prop28
280
     0
102
RTVSPost2010PropOp28
 70
     1
102
RTVSPost2010Prop29
280
     1
102
RTVSPost2010PropOp29
 70
     1
102
RTVSPost2010Prop30
280
     1
102
RTVSPost2010PropOp30
 70
     1
102
RTVSPost2010Prop31
280
     0
102
RTVSPost2010PropOp31
 70
     1
102
RTVSPost2010Prop32
280
     0
102
RTVSPost2010PropOp32
 70
     1
102
RTVSPost2010Prop33
280
     0
102
RTVSPost2010PropOp33
 70
     1
102
RTVSPost2010Prop34
280
     0
102
RTVSPost2010PropOp34
 70
     1
102
RTVSPost2010Prop35
280
     0
102
RTVSPost2010PropOp35
 70
     1
102
RTVSPost2010Prop36
280
     0
102
RTVSPost2010PropOp36
 70
     1
102
RTVSPost2010Prop37
 90
       50
102
RTVSPost2010PropOp37
 70
     1
102
RTVSPost2010Prop38
140
0.0
102
RTVSPost2010PropOp38
 70
     1
102
RTVSPost2010Prop39
140
1.0
102
RTVSPost2010PropOp39
 70
     1
102
RTVSPost2010Prop40
 90
        0
102
RTVSPost2010PropOp40
 70
     1
102
RTVSPost2010Prop41ColorIndex
 90
       18
102
RTVSPost2010Prop41ColorRGB
 90
        0
102
RTVSPost2010PropOp41
 70
     1
102
RTVSPost2010Prop42
 90
       50
102
RTVSPost2010PropOp42
 70
     1
102
RTVSPost2010Prop43
 90
        3
102
RTVSPost2010PropOp43
 70
     1
102
RTVSPost2010Prop44ColorIndex
 90
        5
102
RTVSPost2010Prop44ColorRGB
 90
      255
102
RTVSPost2010PropOp44
 70
     1
102
RTVSPost2010Prop45
280
     0
102
RTVSPost2010PropOp45
 70
     1
102
RTVSPost2010Prop46
 90
       50
102
RTVSPost2010PropOp46
 70
     1
102
RTVSPost2010Prop47
 90
       50
102
RTVSPost2010PropOp47
 70
     1
102
RTVSPost2010Prop48
 90
       50
102
RTVSPost2010PropOp48
 70
     1
102
RTVSPost2010Prop49
280
     0
102
RTVSPost2010PropOp49
 70
     1
102
RTVSPost2010Prop50
 90
       50
102
RTVSPost2010PropOp50
 70
     1
102
RTVSPost2010Prop51ColorIndex
 90
      256
102
RTVSPost2010Prop51ColorRGB
 90
-16777216
102
RTVSPost2010PropOp51
 70
     0
102
RTVSPost2010Prop52
140
1.0
102
RTVSPost2010PropOp52
 70
     0
102
RTVSPost2010Prop53
 90
        2
102
RTVSPost2010PropOp53
 70
     1
102
RTVSPost2010Prop54
  1
strokes_ogs.tif
102
RTVSPost2010PropOp54
 70
     1
102
RTVSPost2010Prop55
280
     0
102
RTVSPost2010PropOp55
 70
     1
102
RTVSPost2010Prop56
140
1.0
102
RTVSPost2010PropOp56
 70
     1
102
RTVSPost2010Prop57
140
1.0
102
RTVSPost2010PropOp57
 70
     1
  0
XRECORD
  5
BA
102
{ACAD_REACTORS
330
B9
102
}
330
B9
100
AcDbXrecord
280
     1
102
RTVSPropertyOp0
 70
     1
102
RTVSPropertyOp1
 70
     1
102
RTVSPropertyOp2
 70
     1
102
RTVSPropertyOp3
 70
     1
102
RTVSPropertyOp4
 70
     1
102
RTVSPropertyOp5
 70
     1
102
RTVSPropertyOp6
 70
     1
102
RTVSPropertyOp7
 70
     1
102
RTVSPropertyOp8
 70
     1
102
RTVSPropertyOp9
 70
     1
102
RTVSPropertyOp10
 70
     1
102
RTVSPropertyOp11
 70
     1
102
RTVSPropertyOp12
 70
     1
102
RTVSPropertyOp13
 70
     1
102
RTVSPropertyOp14
 70
     1
102
RTVSPropertyOp15
 70
     1
102
RTVSPropertyOp16
 70
     1
102
RTVSPropertyOp17
 70
     1
102
RTVSPropertyOp18
 70
     1
102
RTVSPropertyOp19
 70
     1
102
RTVSPropertyOp20
 70
     1
102
RTVSPropertyOp21
 70
     1
102
RTVSPropertyOp22
 70
     1
102
RTVSPropertyOp23
 70
     1
102
RTVSPropertyOp24
 70
     1
102
RTVSPropertyOp25
 70
     1
102
RTVSPropertyOp26
 70
     1
102
RTVSPropertyOp27
 70
     1
102
RTVSPropertyOp28
 70
     1
102
RTVSPropertyOp29
 70
     1
102
RTVSPropertyOp30
 70
     1
102
RTVSPropertyOp31
 70
     1
102
RTVSPropertyOp32
 70
     1
102
RTVSPropertyOp33
 70
     1
102
RTVSPropertyOp34
 70
     1
102
RTVSPropertyOp35
 70
     1
102
RTVSPropertyOp36
 70
     1
102
RTVSPropertyOp37
 70
     1
102
RTVSPropertyOp38
 70
     1
102
RTVSPropertyOp39
 70
     1
102
RTVSPropertyOp40
 70
     1
102
RTVSPropertyOp41
 70
     1
102
RTVSPropertyOp42
 70
     1
102
RTVSPropertyOp43
 70
     1
102
RTVSPropertyOp44
 70
     1
102
RTVSPropertyOp45
 70
     1
102
RTVSPropertyOp46
 70
     1
102
RTVSPropertyOp47
 70
     1
102
RTVSPropertyOp48
 70
     1
102
RTVSPropertyOp49
 70
     1
102
RTVSPropertyOp50
 70
     1
102
RTVSPropertyOp51
 70
     0
102
RTVSPropertyOp52
 70
     0
102
RTVSPropertyOp53
 70
     1
102
RTVSPropertyOp54
 70
     1
102
RTVSPropertyOp55
 70
     1
102
RTVSPropertyOp56
 70
     1
102
RTVSPropertyOp57
 70
     1
102
RTVSPost2010Prop28
280
     0
102
RTVSPost2010PropOp28
 70
     1
102
RTVSPost2010Prop29
280
     1
102
RTVSPost2010PropOp29
 70
     1
102
RTVSPost2010Prop30
280
     1
102
RTVSPost2010PropOp30
 70
     1
102
RTVSPost2010Prop31
280
     0
102
RTVSPost2010PropOp31
 70
     1
102
RTVSPost2010Prop32
280
     0
102
RTVSPost2010PropOp32
 70
     1
102
RTVSPost2010Prop33
280
     0
102
RTVSPost2010PropOp33
 70
     1
102
RTVSPost2010Prop34
280
     0
102
RTVSPost2010PropOp34
 70
     1
102
RTVSPost2010Prop35
280
     0
102
RTVSPost2010PropOp35
 70
     1
102
RTVSPost2010Prop36
280
     0
102
RTVSPost2010PropOp36
 70
     1
102
RTVSPost2010Prop37
 90
       50
102
RTVSPost2010PropOp37
 70
     1
102
RTVSPost2010Prop38
140
0.0
102
RTVSPost2010PropOp38
 70
     1
102
RTVSPost2010Prop39
140
1.0
102
RTVSPost2010PropOp39
 70
     1
102
RTVSPost2010Prop40
 90
        0
102
RTVSPost2010PropOp40
 70
     1
102
RTVSPost2010Prop41ColorIndex
 90
       18
102
RTVSPost2010Prop41ColorRGB
 90
        0
102
RTVSPost2010PropOp41
 70
     1
102
RTVSPost2010Prop42
 90
       50
102
RTVSPost2010PropOp42
 70
     1
102
RTVSPost2010Prop43
 90
        3
102
RTVSPost2010PropOp43
 70
     1
102
RTVSPost2010Prop44ColorIndex
 90
        5
102
RTVSPost2010Prop44ColorRGB
 90
      255
102
RTVSPost2010PropOp44
 70
     1
102
RTVSPost2010Prop45
280
     0
102
RTVSPost2010PropOp45
 70
     1
102
RTVSPost2010Prop46
 90
       50
102
RTVSPost2010PropOp46
 70
     1
102
RTVSPost2010Prop47
 90
       50
102
RTVSPost2010PropOp47
 70
     1
102
RTVSPost2010Prop48
 90
       50
102
RTVSPost2010PropOp48
 70
     1
102
RTVSPost2010Prop49
280
     0
102
RTVSPost2010PropOp49
 70
     1
102
RTVSPost2010Prop50
 90
       50
102
RTVSPost2010PropOp50
 70
     1
102
RTVSPost2010Prop51ColorIndex
 90
      256
102
RTVSPost2010Prop51ColorRGB
 90
-16777216
102
RTVSPost2010PropOp51
 70
     0
102
RTVSPost2010Prop52
140
1.0
102
RTVSPost2010PropOp52
 70
     0
102
RTVSPost2010Prop53
 90
        2
102
RTVSPost2010PropOp53
 70
     1
102
RTVSPost2010Prop54
  1
strokes_ogs.tif
102
RTVSPost2010PropOp54
 70
     1
102
RTVSPost2010Prop55
280
     0
102
RTVSPost2010PropOp55
 70
     1
102
RTVSPost2010Prop56
140
1.0
102
RTVSPost2010PropOp56
 70
     1
102
RTVSPost2010Prop57
140
1.0
102
RTVSPost2010PropOp57
 70
     1
  0
XRECORD
  5
B8
102
{ACAD_REACTORS
330
B7
102
}
330
B7
100
AcDbXrecord
280
     1
102
RTVSPropertyOp0
 70
     1
102
RTVSPropertyOp1
 70
     1
102
RTVSPropertyOp2
 70
     1
102
RTVSPropertyOp3
 70
     1
102
RTVSPropertyOp4
 70
     1
102
RTVSPropertyOp5
 70
     1
102
RTVSPropertyOp6
 70
     1
102
RTVSPropertyOp7
 70
     1
102
RTVSPropertyOp8
 70
     1
102
RTVSPropertyOp9
 70
     1
102
RTVSPropertyOp10
 70
     1
102
RTVSPropertyOp11
 70
     1
102
RTVSPropertyOp12
 70
     1
102
RTVSPropertyOp13
 70
     1
102
RTVSPropertyOp14
 70
     1
102
RTVSPropertyOp15
 70
     1
102
RTVSPropertyOp16
 70
     1
102
RTVSPropertyOp17
 70
     1
102
RTVSPropertyOp18
 70
     1
102
RTVSPropertyOp19
 70
     1
102
RTVSPropertyOp20
 70
     1
102
RTVSPropertyOp21
 70
     1
102
RTVSPropertyOp22
 70
     1
102
RTVSPropertyOp23
 70
     1
102
RTVSPropertyOp24
 70
     1
102
RTVSPropertyOp25
 70
     1
102
RTVSPropertyOp26
 70
     1
102
RTVSPropertyOp27
 70
     1
102
RTVSPropertyOp28
 70
     1
102
RTVSPropertyOp29
 70
     1
102
RTVSPropertyOp30
 70
     1
102
RTVSPropertyOp31
 70
     1
102
RTVSPropertyOp32
 70
     1
102
RTVSPropertyOp33
 70
     1
102
RTVSPropertyOp34
 70
     1
102
RTVSPropertyOp35
 70
     1
102
RTVSPropertyOp36
 70
     1
102
RTVSPropertyOp37
 70
     1
102
RTVSPropertyOp38
 70
     1
102
RTVSPropertyOp39
 70
     1
102
RTVSPropertyOp40
 70
     1
102
RTVSPropertyOp41
 70
     1
102
RTVSPropertyOp42
 70
     1
102
RTVSPropertyOp43
 70
     1
102
RTVSPropertyOp44
 70
     1
102
RTVSPropertyOp45
 70
     1
102
RTVSPropertyOp46
 70
     1
102
RTVSPropertyOp47
 70
     1
102
RTVSPropertyOp48
 70
     1
102
RTVSPropertyOp49
 70
     1
102
RTVSPropertyOp50
 70
     1
102
RTVSPropertyOp51
 70
     0
102
RTVSPropertyOp52
 70
     0
102
RTVSPropertyOp53
 70
     1
102
RTVSPropertyOp54
 70
     1
102
RTVSPropertyOp55
 70
     1
102
RTVSPropertyOp56
 70
     1
102
RTVSPropertyOp57
 70
     1
102
RTVSPost2010Prop28
280
     0
102
RTVSPost2010PropOp28
 70
     1
102
RTVSPost2010Prop29
280
     1
102
RTVSPost2010PropOp29
 70
     1
102
RTVSPost2010Prop30
280
     1
102
RTVSPost2010PropOp30
 70
     1
102
RTVSPost2010Prop31
280
     0
102
RTVSPost2010PropOp31
 70
     1
102
RTVSPost2010Prop32
280
     0
102
RTVSPost2010PropOp32
 70
     1
102
RTVSPost2010Prop33
280
     0
102
RTVSPost2010PropOp33
 70
     1
102
RTVSPost2010Prop34
280
     0
102
RTVSPost2010PropOp34
 70
     1
102
RTVSPost2010Prop35
280
     0
102
RTVSPost2010PropOp35
 70
     1
102
RTVSPost2010Prop36
280
     0
102
RTVSPost2010PropOp36
 70
     1
102
RTVSPost2010Prop37
 90
       50
102
RTVSPost2010PropOp37
 70
     1
102
RTVSPost2010Prop38
140
0.0
102
RTVSPost2010PropOp38
 70
     1
102
RTVSPost2010Prop39
140
1.0
102
RTVSPost2010PropOp39
 70
     1
102
RTVSPost2010Prop40
 90
        0
102
RTVSPost2010PropOp40
 70
     1
102
RTVSPost2010Prop41ColorIndex
 90
       18
102
RTVSPost2010Prop41ColorRGB
 90
        0
102
RTVSPost2010PropOp41
 70
     1
102
RTVSPost2010Prop42
 90
       50
102
RTVSPost2010PropOp42
 70
     1
102
RTVSPost2010Prop43
 90
        3
102
RTVSPost2010PropOp43
 70
     1
102
RTVSPost2010Prop44ColorIndex
 90
        5
102
RTVSPost2010Prop44ColorRGB
 90
      255
102
RTVSPost2010PropOp44
 70
     1
102
RTVSPost2010Prop45
280
     0
102
RTVSPost2010PropOp45
 70
     1
102
RTVSPost2010Prop46
 90
       50
102
RTVSPost2010PropOp46
 70
     1
102
RTVSPost2010Prop47
 90
       50
102
RTVSPost2010PropOp47
 70
     1
102
RTVSPost2010Prop48
 90
       50
102
RTVSPost2010PropOp48
 70
     1
102
RTVSPost2010Prop49
280
     0
102
RTVSPost2010PropOp49
 70
     1
102
RTVSPost2010Prop50
 90
       50
102
RTVSPost2010PropOp50
 70
     1
102
RTVSPost2010Prop51ColorIndex
 90
      256
102
RTVSPost2010Prop51ColorRGB
 90
-16777216
102
RTVSPost2010PropOp51
 70
     0
102
RTVSPost2010Prop52
140
1.0
102
RTVSPost2010PropOp52
 70
     0
102
RTVSPost2010Prop53
 90
        2
102
RTVSPost2010PropOp53
 70
     1
102
RTVSPost2010Prop54
  1
strokes_ogs.tif
102
RTVSPost2010PropOp54
 70
     1
102
RTVSPost2010Prop55
280
     0
102
RTVSPost2010PropOp55
 70
     1
102
RTVSPost2010Prop56
140
1.0
102
RTVSPost2010PropOp56
 70
     1
102
RTVSPost2010Prop57
140
1.0
102
RTVSPost2010PropOp57
 70
     1
  0
XRECORD
  5
B2
102
{ACAD_REACTORS
330
B1
102
}
330
B1
100
AcDbXrecord
280
     1
102
RTVSPropertyOp0
 70
     1
102
RTVSPropertyOp1
 70
     1
102
RTVSPropertyOp2
 70
     1
102
RTVSPropertyOp3
 70
     1
102
RTVSPropertyOp4
 70
     1
102
RTVSPropertyOp5
 70
     1
102
RTVSPropertyOp6
 70
     1
102
RTVSPropertyOp7
 70
     1
102
RTVSPropertyOp8
 70
     1
102
RTVSPropertyOp9
 70
     1
102
RTVSPropertyOp10
 70
     1
102
RTVSPropertyOp11
 70
     1
102
RTVSPropertyOp12
 70
     1
102
RTVSPropertyOp13
 70
     1
102
RTVSPropertyOp14
 70
     1
102
RTVSPropertyOp15
 70
     1
102
RTVSPropertyOp16
 70
     1
102
RTVSPropertyOp17
 70
     1
102
RTVSPropertyOp18
 70
     1
102
RTVSPropertyOp19
 70
     1
102
RTVSPropertyOp20
 70
     1
102
RTVSPropertyOp21
 70
     1
102
RTVSPropertyOp22
 70
     1
102
RTVSPropertyOp23
 70
     1
102
RTVSPropertyOp24
 70
     1
102
RTVSPropertyOp25
 70
     1
102
RTVSPropertyOp26
 70
     1
102
RTVSPropertyOp27
 70
     1
102
RTVSPropertyOp28
 70
     1
102
RTVSPropertyOp29
 70
     1
102
RTVSPropertyOp30
 70
     1
102
RTVSPropertyOp31
 70
     1
102
RTVSPropertyOp32
 70
     1
102
RTVSPropertyOp33
 70
     1
102
RTVSPropertyOp34
 70
     1
102
RTVSPropertyOp35
 70
     1
102
RTVSPropertyOp36
 70
     1
102
RTVSPropertyOp37
 70
     1
102
RTVSPropertyOp38
 70
     1
102
RTVSPropertyOp39
 70
     1
102
RTVSPropertyOp40
 70
     1
102
RTVSPropertyOp41
 70
     1
102
RTVSPropertyOp42
 70
     1
102
RTVSPropertyOp43
 70
     1
102
RTVSPropertyOp44
 70
     1
102
RTVSPropertyOp45
 70
     1
102
RTVSPropertyOp46
 70
     1
102
RTVSPropertyOp47
 70
     1
102
RTVSPropertyOp48
 70
     1
102
RTVSPropertyOp49
 70
     1
102
RTVSPropertyOp50
 70
     1
102
RTVSPropertyOp51
 70
     0
102
RTVSPropertyOp52
 70
     0
102
RTVSPropertyOp53
 70
     1
102
RTVSPropertyOp54
 70
     1
102
RTVSPropertyOp55
 70
     1
102
RTVSPropertyOp56
 70
     1
102
RTVSPropertyOp57
 70
     1
102
RTVSPost2010Prop28
280
     0
102
RTVSPost2010PropOp28
 70
     1
102
RTVSPost2010Prop29
280
     1
102
RTVSPost2010PropOp29
 70
     1
102
RTVSPost2010Prop30
280
     1
102
RTVSPost2010PropOp30
 70
     1
102
RTVSPost2010Prop31
280
     0
102
RTVSPost2010PropOp31
 70
     1
102
RTVSPost2010Prop32
280
     0
102
RTVSPost2010PropOp32
 70
     1
102
RTVSPost2010Prop33
280
     0
102
RTVSPost2010PropOp33
 70
     1
102
RTVSPost2010Prop34
280
     0
102
RTVSPost2010PropOp34
 70
     1
102
RTVSPost2010Prop35
280
     0
102
RTVSPost2010PropOp35
 70
     1
102
RTVSPost2010Prop36
280
     0
102
RTVSPost2010PropOp36
 70
     1
102
RTVSPost2010Prop37
 90
       50
102
RTVSPost2010PropOp37
 70
     1
102
RTVSPost2010Prop38
140
0.0
102
RTVSPost2010PropOp38
 70
     1
102
RTVSPost2010Prop39
140
1.0
102
RTVSPost2010PropOp39
 70
     1
102
RTVSPost2010Prop40
 90
        0
102
RTVSPost2010PropOp40
 70
     1
102
RTVSPost2010Prop41ColorIndex
 90
       18
102
RTVSPost2010Prop41ColorRGB
 90
        0
102
RTVSPost2010PropOp41
 70
     1
102
RTVSPost2010Prop42
 90
       50
102
RTVSPost2010PropOp42
 70
     1
102
RTVSPost2010Prop43
 90
        3
102
RTVSPost2010PropOp43
 70
     1
102
RTVSPost2010Prop44ColorIndex
 90
        5
102
RTVSPost2010Prop44ColorRGB
 90
      255
102
RTVSPost2010PropOp44
 70
     1
102
RTVSPost2010Prop45
280
     0
102
RTVSPost2010PropOp45
 70
     1
102
RTVSPost2010Prop46
 90
       50
102
RTVSPost2010PropOp46
 70
     1
102
RTVSPost2010Prop47
 90
       50
102
RTVSPost2010PropOp47
 70
     1
102
RTVSPost2010Prop48
 90
       50
102
RTVSPost2010PropOp48
 70
     1
102
RTVSPost2010Prop49
280
     0
102
RTVSPost2010PropOp49
 70
     1
102
RTVSPost2010Prop50
 90
       50
102
RTVSPost2010PropOp50
 70
     1
102
RTVSPost2010Prop51ColorIndex
 90
      256
102
RTVSPost2010Prop51ColorRGB
 90
-16777216
102
RTVSPost2010PropOp51
 70
     0
102
RTVSPost2010Prop52
140
1.0
102
RTVSPost2010PropOp52
 70
     0
102
RTVSPost2010Prop53
 90
        2
102
RTVSPost2010PropOp53
 70
     1
102
RTVSPost2010Prop54
  1
strokes_ogs.tif
102
RTVSPost2010PropOp54
 70
     1
102
RTVSPost2010Prop55
280
     0
102
RTVSPost2010PropOp55
 70
     1
102
RTVSPost2010Prop56
140
1.0
102
RTVSPost2010PropOp56
 70
     1
102
RTVSPost2010Prop57
140
1.0
102
RTVSPost2010PropOp57
 70
     1
  0
XRECORD
  5
B4
102
{ACAD_REACTORS
330
B3
102
}
330
B3
100
AcDbXrecord
280
     1
102
RTVSPropertyOp0
 70
     1
102
RTVSPropertyOp1
 70
     1
102
RTVSPropertyOp2
 70
     1
102
RTVSPropertyOp3
 70
     1
102
RTVSPropertyOp4
 70
     1
102
RTVSPropertyOp5
 70
     1
102
RTVSPropertyOp6
 70
     1
102
RTVSPropertyOp7
 70
     1
102
RTVSPropertyOp8
 70
     1
102
RTVSPropertyOp9
 70
     1
102
RTVSPropertyOp10
 70
     1
102
RTVSPropertyOp11
 70
     1
102
RTVSPropertyOp12
 70
     1
102
RTVSPropertyOp13
 70
     1
102
RTVSPropertyOp14
 70
     1
102
RTVSPropertyOp15
 70
     1
102
RTVSPropertyOp16
 70
     1
102
RTVSPropertyOp17
 70
     1
102
RTVSPropertyOp18
 70
     1
102
RTVSPropertyOp19
 70
     1
102
RTVSPropertyOp20
 70
     1
102
RTVSPropertyOp21
 70
     1
102
RTVSPropertyOp22
 70
     1
102
RTVSPropertyOp23
 70
     1
102
RTVSPropertyOp24
 70
     1
102
RTVSPropertyOp25
 70
     1
102
RTVSPropertyOp26
 70
     1
102
RTVSPropertyOp27
 70
     1
102
RTVSPropertyOp28
 70
     1
102
RTVSPropertyOp29
 70
     1
102
RTVSPropertyOp30
 70
     1
102
RTVSPropertyOp31
 70
     1
102
RTVSPropertyOp32
 70
     1
102
RTVSPropertyOp33
 70
     1
102
RTVSPropertyOp34
 70
     1
102
RTVSPropertyOp35
 70
     1
102
RTVSPropertyOp36
 70
     1
102
RTVSPropertyOp37
 70
     1
102
RTVSPropertyOp38
 70
     1
102
RTVSPropertyOp39
 70
     1
102
RTVSPropertyOp40
 70
     1
102
RTVSPropertyOp41
 70
     1
102
RTVSPropertyOp42
 70
     1
102
RTVSPropertyOp43
 70
     1
102
RTVSPropertyOp44
 70
     1
102
RTVSPropertyOp45
 70
     1
102
RTVSPropertyOp46
 70
     1
102
RTVSPropertyOp47
 70
     1
102
RTVSPropertyOp48
 70
     1
102
RTVSPropertyOp49
 70
     1
102
RTVSPropertyOp50
 70
     1
102
RTVSPropertyOp51
 70
     0
102
RTVSPropertyOp52
 70
     0
102
RTVSPropertyOp53
 70
     1
102
RTVSPropertyOp54
 70
     1
102
RTVSPropertyOp55
 70
     1
102
RTVSPropertyOp56
 70
     1
102
RTVSPropertyOp57
 70
     1
102
RTVSPost2010Prop28
280
     0
102
RTVSPost2010PropOp28
 70
     1
102
RTVSPost2010Prop29
280
     1
102
RTVSPost2010PropOp29
 70
     1
102
RTVSPost2010Prop30
280
     1
102
RTVSPost2010PropOp30
 70
     1
102
RTVSPost2010Prop31
280
     0
102
RTVSPost2010PropOp31
 70
     1
102
RTVSPost2010Prop32
280
     0
102
RTVSPost2010PropOp32
 70
     1
102
RTVSPost2010Prop33
280
     0
102
RTVSPost2010PropOp33
 70
     1
102
RTVSPost2010Prop34
280
     0
102
RTVSPost2010PropOp34
 70
     1
102
RTVSPost2010Prop35
280
     0
102
RTVSPost2010PropOp35
 70
     1
102
RTVSPost2010Prop36
280
     0
102
RTVSPost2010PropOp36
 70
     1
102
RTVSPost2010Prop37
 90
       50
102
RTVSPost2010PropOp37
 70
     1
102
RTVSPost2010Prop38
140
0.0
102
RTVSPost2010PropOp38
 70
     1
102
RTVSPost2010Prop39
140
1.0
102
RTVSPost2010PropOp39
 70
     1
102
RTVSPost2010Prop40
 90
        0
102
RTVSPost2010PropOp40
 70
     1
102
RTVSPost2010Prop41ColorIndex
 90
       18
102
RTVSPost2010Prop41ColorRGB
 90
        0
102
RTVSPost2010PropOp41
 70
     1
102
RTVSPost2010Prop42
 90
       50
102
RTVSPost2010PropOp42
 70
     1
102
RTVSPost2010Prop43
 90
        3
102
RTVSPost2010PropOp43
 70
     1
102
RTVSPost2010Prop44ColorIndex
 90
        5
102
RTVSPost2010Prop44ColorRGB
 90
      255
102
RTVSPost2010PropOp44
 70
     1
102
RTVSPost2010Prop45
280
     0
102
RTVSPost2010PropOp45
 70
     1
102
RTVSPost2010Prop46
 90
       50
102
RTVSPost2010PropOp46
 70
     1
102
RTVSPost2010Prop47
 90
       50
102
RTVSPost2010PropOp47
 70
     1
102
RTVSPost2010Prop48
 90
       50
102
RTVSPost2010PropOp48
 70
     1
102
RTVSPost2010Prop49
280
     0
102
RTVSPost2010PropOp49
 70
     1
102
RTVSPost2010Prop50
 90
       50
102
RTVSPost2010PropOp50
 70
     1
102
RTVSPost2010Prop51ColorIndex
 90
      256
102
RTVSPost2010Prop51ColorRGB
 90
-16777216
102
RTVSPost2010PropOp51
 70
     0
102
RTVSPost2010Prop52
140
1.0
102
RTVSPost2010PropOp52
 70
     0
102
RTVSPost2010Prop53
 90
        2
102
RTVSPost2010PropOp53
 70
     1
102
RTVSPost2010Prop54
  1
strokes_ogs.tif
102
RTVSPost2010PropOp54
 70
     1
102
RTVSPost2010Prop55
280
     0
102
RTVSPost2010PropOp55
 70
     1
102
RTVSPost2010Prop56
140
1.0
102
RTVSPost2010PropOp56
 70
     1
102
RTVSPost2010Prop57
140
1.0
102
RTVSPost2010PropOp57
 70
     1
  0
XRECORD
  5
A4
102
{ACAD_REACTORS
330
A3
102
}
330
A3
100
AcDbXrecord
280
     1
102
RTVSPropertyOp0
 70
     1
102
RTVSPropertyOp1
 70
     1
102
RTVSPropertyOp2
 70
     1
102
RTVSPropertyOp3
 70
     1
102
RTVSPropertyOp4
 70
     1
102
RTVSPropertyOp5
 70
     1
102
RTVSPropertyOp6
 70
     1
102
RTVSPropertyOp7
 70
     1
102
RTVSPropertyOp8
 70
     1
102
RTVSPropertyOp9
 70
     1
102
RTVSPropertyOp10
 70
     1
102
RTVSPropertyOp11
 70
     1
102
RTVSPropertyOp12
 70
     1
102
RTVSPropertyOp13
 70
     1
102
RTVSPropertyOp14
 70
     1
102
RTVSPropertyOp15
 70
     1
102
RTVSPropertyOp16
 70
     1
102
RTVSPropertyOp17
 70
     1
102
RTVSPropertyOp18
 70
     1
102
RTVSPropertyOp19
 70
     1
102
RTVSPropertyOp20
 70
     1
102
RTVSPropertyOp21
 70
     1
102
RTVSPropertyOp22
 70
     1
102
RTVSPropertyOp23
 70
     1
102
RTVSPropertyOp24
 70
     1
102
RTVSPropertyOp25
 70
     1
102
RTVSPropertyOp26
 70
     1
102
RTVSPropertyOp27
 70
     1
102
RTVSPropertyOp28
 70
     1
102
RTVSPropertyOp29
 70
     1
102
RTVSPropertyOp30
 70
     1
102
RTVSPropertyOp31
 70
     1
102
RTVSPropertyOp32
 70
     1
102
RTVSPropertyOp33
 70
     1
102
RTVSPropertyOp34
 70
     1
102
RTVSPropertyOp35
 70
     1
102
RTVSPropertyOp36
 70
     1
102
RTVSPropertyOp37
 70
     1
102
RTVSPropertyOp38
 70
     1
102
RTVSPropertyOp39
 70
     1
102
RTVSPropertyOp40
 70
     1
102
RTVSPropertyOp41
 70
     1
102
RTVSPropertyOp42
 70
     1
102
RTVSPropertyOp43
 70
     1
102
RTVSPropertyOp44
 70
     1
102
RTVSPropertyOp45
 70
     1
102
RTVSPropertyOp46
 70
     1
102
RTVSPropertyOp47
 70
     1
102
RTVSPropertyOp48
 70
     1
102
RTVSPropertyOp49
 70
     1
102
RTVSPropertyOp50
 70
     1
102
RTVSPropertyOp51
 70
     0
102
RTVSPropertyOp52
 70
     0
102
RTVSPropertyOp53
 70
     1
102
RTVSPropertyOp54
 70
     1
102
RTVSPropertyOp55
 70
     1
102
RTVSPropertyOp56
 70
     1
102
RTVSPropertyOp57
 70
     1
102
RTVSPost2010Prop28
280
     0
102
RTVSPost2010PropOp28
 70
     1
102
RTVSPost2010Prop29
280
     1
102
RTVSPost2010PropOp29
 70
     1
102
RTVSPost2010Prop30
280
     1
102
RTVSPost2010PropOp30
 70
     1
102
RTVSPost2010Prop31
280
     0
102
RTVSPost2010PropOp31
 70
     1
102
RTVSPost2010Prop32
280
     0
102
RTVSPost2010PropOp32
 70
     1
102
RTVSPost2010Prop33
280
     0
102
RTVSPost2010PropOp33
 70
     1
102
RTVSPost2010Prop34
280
     0
102
RTVSPost2010PropOp34
 70
     1
102
RTVSPost2010Prop35
280
     0
102
RTVSPost2010PropOp35
 70
     1
102
RTVSPost2010Prop36
280
     0
102
RTVSPost2010PropOp36
 70
     1
102
RTVSPost2010Prop37
 90
       50
102
RTVSPost2010PropOp37
 70
     1
102
RTVSPost2010Prop38
140
0.0
102
RTVSPost2010PropOp38
 70
     1
102
RTVSPost2010Prop39
140
1.0
102
RTVSPost2010PropOp39
 70
     1
102
RTVSPost2010Prop40
 90
        0
102
RTVSPost2010PropOp40
 70
     1
102
RTVSPost2010Prop41ColorIndex
 90
       18
102
RTVSPost2010Prop41ColorRGB
 90
        0
102
RTVSPost2010PropOp41
 70
     1
102
RTVSPost2010Prop42
 90
       50
102
RTVSPost2010PropOp42
 70
     1
102
RTVSPost2010Prop43
 90
        3
102
RTVSPost2010PropOp43
 70
     1
102
RTVSPost2010Prop44ColorIndex
 90
        5
102
RTVSPost2010Prop44ColorRGB
 90
      255
102
RTVSPost2010PropOp44
 70
     1
102
RTVSPost2010Prop45
280
     0
102
RTVSPost2010PropOp45
 70
     1
102
RTVSPost2010Prop46
 90
       50
102
RTVSPost2010PropOp46
 70
     1
102
RTVSPost2010Prop47
 90
       50
102
RTVSPost2010PropOp47
 70
     1
102
RTVSPost2010Prop48
 90
       50
102
RTVSPost2010PropOp48
 70
     1
102
RTVSPost2010Prop49
280
     0
102
RTVSPost2010PropOp49
 70
     1
102
RTVSPost2010Prop50
 90
       50
102
RTVSPost2010PropOp50
 70
     1
102
RTVSPost2010Prop51ColorIndex
 90
      256
102
RTVSPost2010Prop51ColorRGB
 90
-16777216
102
RTVSPost2010PropOp51
 70
     0
102
RTVSPost2010Prop52
140
1.0
102
RTVSPost2010PropOp52
 70
     0
102
RTVSPost2010Prop53
 90
        2
102
RTVSPost2010PropOp53
 70
     1
102
RTVSPost2010Prop54
  1
strokes_ogs.tif
102
RTVSPost2010PropOp54
 70
     1
102
RTVSPost2010Prop55
280
     0
102
RTVSPost2010PropOp55
 70
     1
102
RTVSPost2010Prop56
140
1.0
102
RTVSPost2010PropOp56
 70
     1
102
RTVSPost2010Prop57
140
1.0
102
RTVSPost2010PropOp57
 70
     1
  0
XRECORD
  5
96
102
{ACAD_REACTORS
330
95
102
}
330
95
100
AcDbXrecord
280
     1
102
RTVSPropertyOp0
 70
     1
102
RTVSPropertyOp1
 70
     1
102
RTVSPropertyOp2
 70
     1
102
RTVSPropertyOp3
 70
     1
102
RTVSPropertyOp4
 70
     1
102
RTVSPropertyOp5
 70
     1
102
RTVSPropertyOp6
 70
     1
102
RTVSPropertyOp7
 70
     1
102
RTVSPropertyOp8
 70
     1
102
RTVSPropertyOp9
 70
     1
102
RTVSPropertyOp10
 70
     1
102
RTVSPropertyOp11
 70
     1
102
RTVSPropertyOp12
 70
     1
102
RTVSPropertyOp13
 70
     1
102
RTVSPropertyOp14
 70
     1
102
RTVSPropertyOp15
 70
     1
102
RTVSPropertyOp16
 70
     1
102
RTVSPropertyOp17
 70
     1
102
RTVSPropertyOp18
 70
     1
102
RTVSPropertyOp19
 70
     1
102
RTVSPropertyOp20
 70
     1
102
RTVSPropertyOp21
 70
     1
102
RTVSPropertyOp22
 70
     1
102
RTVSPropertyOp23
 70
     1
102
RTVSPropertyOp24
 70
     1
102
RTVSPropertyOp25
 70
     1
102
RTVSPropertyOp26
 70
     1
102
RTVSPropertyOp27
 70
     1
102
RTVSPropertyOp28
 70
     1
102
RTVSPropertyOp29
 70
     1
102
RTVSPropertyOp30
 70
     1
102
RTVSPropertyOp31
 70
     1
102
RTVSPropertyOp32
 70
     1
102
RTVSPropertyOp33
 70
     1
102
RTVSPropertyOp34
 70
     1
102
RTVSPropertyOp35
 70
     1
102
RTVSPropertyOp36
 70
     1
102
RTVSPropertyOp37
 70
     1
102
RTVSPropertyOp38
 70
     1
102
RTVSPropertyOp39
 70
     1
102
RTVSPropertyOp40
 70
     1
102
RTVSPropertyOp41
 70
     1
102
RTVSPropertyOp42
 70
     1
102
RTVSPropertyOp43
 70
     1
102
RTVSPropertyOp44
 70
     1
102
RTVSPropertyOp45
 70
     1
102
RTVSPropertyOp46
 70
     1
102
RTVSPropertyOp47
 70
     1
102
RTVSPropertyOp48
 70
     1
102
RTVSPropertyOp49
 70
     1
102
RTVSPropertyOp50
 70
     1
102
RTVSPropertyOp51
 70
     0
102
RTVSPropertyOp52
 70
     0
102
RTVSPropertyOp53
 70
     1
102
RTVSPropertyOp54
 70
     1
102
RTVSPropertyOp55
 70
     1
102
RTVSPropertyOp56
 70
     1
102
RTVSPropertyOp57
 70
     1
102
RTVSPost2010Prop28
280
     0
102
RTVSPost2010PropOp28
 70
     1
102
RTVSPost2010Prop29
280
     1
102
RTVSPost2010PropOp29
 70
     1
102
RTVSPost2010Prop30
280
     1
102
RTVSPost2010PropOp30
 70
     1
102
RTVSPost2010Prop31
280
     0
102
RTVSPost2010PropOp31
 70
     1
102
RTVSPost2010Prop32
280
     0
102
RTVSPost2010PropOp32
 70
     1
102
RTVSPost2010Prop33
280
     0
102
RTVSPost2010PropOp33
 70
     1
102
RTVSPost2010Prop34
280
     0
102
RTVSPost2010PropOp34
 70
     1
102
RTVSPost2010Prop35
280
     0
102
RTVSPost2010PropOp35
 70
     1
102
RTVSPost2010Prop36
280
     0
102
RTVSPost2010PropOp36
 70
     1
102
RTVSPost2010Prop37
 90
       50
102
RTVSPost2010PropOp37
 70
     1
102
RTVSPost2010Prop38
140
0.0
102
RTVSPost2010PropOp38
 70
     1
102
RTVSPost2010Prop39
140
1.0
102
RTVSPost2010PropOp39
 70
     1
102
RTVSPost2010Prop40
 90
        0
102
RTVSPost2010PropOp40
 70
     1
102
RTVSPost2010Prop41ColorIndex
 90
       18
102
RTVSPost2010Prop41ColorRGB
 90
        0
102
RTVSPost2010PropOp41
 70
     1
102
RTVSPost2010Prop42
 90
       50
102
RTVSPost2010PropOp42
 70
     1
102
RTVSPost2010Prop43
 90
        3
102
RTVSPost2010PropOp43
 70
     1
102
RTVSPost2010Prop44ColorIndex
 90
        5
102
RTVSPost2010Prop44ColorRGB
 90
      255
102
RTVSPost2010PropOp44
 70
     1
102
RTVSPost2010Prop45
280
     0
102
RTVSPost2010PropOp45
 70
     1
102
RTVSPost2010Prop46
 90
       50
102
RTVSPost2010PropOp46
 70
     1
102
RTVSPost2010Prop47
 90
       50
102
RTVSPost2010PropOp47
 70
     1
102
RTVSPost2010Prop48
 90
       50
102
RTVSPost2010PropOp48
 70
     1
102
RTVSPost2010Prop49
280
     0
102
RTVSPost2010PropOp49
 70
     1
102
RTVSPost2010Prop50
 90
       50
102
RTVSPost2010PropOp50
 70
     1
102
RTVSPost2010Prop51ColorIndex
 90
      256
102
RTVSPost2010Prop51ColorRGB
 90
-16777216
102
RTVSPost2010PropOp51
 70
     0
102
RTVSPost2010Prop52
140
1.0
102
RTVSPost2010PropOp52
 70
     0
102
RTVSPost2010Prop53
 90
        2
102
RTVSPost2010PropOp53
 70
     1
102
RTVSPost2010Prop54
  1
strokes_ogs.tif
102
RTVSPost2010PropOp54
 70
     1
102
RTVSPost2010Prop55
280
     0
102
RTVSPost2010PropOp55
 70
     1
102
RTVSPost2010Prop56
140
1.0
102
RTVSPost2010PropOp56
 70
     1
102
RTVSPost2010Prop57
140
1.0
102
RTVSPost2010PropOp57
 70
     1
  0
XRECORD
  5
B6
102
{ACAD_REACTORS
330
B5
102
}
330
B5
100
AcDbXrecord
280
     1
102
RTVSPropertyOp0
 70
     1
102
RTVSPropertyOp1
 70
     1
102
RTVSPropertyOp2
 70
     1
102
RTVSPropertyOp3
 70
     1
102
RTVSPropertyOp4
 70
     1
102
RTVSPropertyOp5
 70
     1
102
RTVSPropertyOp6
 70
     1
102
RTVSPropertyOp7
 70
     1
102
RTVSPropertyOp8
 70
     1
102
RTVSPropertyOp9
 70
     1
102
RTVSPropertyOp10
 70
     1
102
RTVSPropertyOp11
 70
     1
102
RTVSPropertyOp12
 70
     1
102
RTVSPropertyOp13
 70
     1
102
RTVSPropertyOp14
 70
     1
102
RTVSPropertyOp15
 70
     1
102
RTVSPropertyOp16
 70
     1
102
RTVSPropertyOp17
 70
     1
102
RTVSPropertyOp18
 70
     1
102
RTVSPropertyOp19
 70
     1
102
RTVSPropertyOp20
 70
     1
102
RTVSPropertyOp21
 70
     1
102
RTVSPropertyOp22
 70
     1
102
RTVSPropertyOp23
 70
     1
102
RTVSPropertyOp24
 70
     1
102
RTVSPropertyOp25
 70
     1
102
RTVSPropertyOp26
 70
     1
102
RTVSPropertyOp27
 70
     1
102
RTVSPropertyOp28
 70
     1
102
RTVSPropertyOp29
 70
     1
102
RTVSPropertyOp30
 70
     1
102
RTVSPropertyOp31
 70
     1
102
RTVSPropertyOp32
 70
     1
102
RTVSPropertyOp33
 70
     1
102
RTVSPropertyOp34
 70
     1
102
RTVSPropertyOp35
 70
     1
102
RTVSPropertyOp36
 70
     1
102
RTVSPropertyOp37
 70
     1
102
RTVSPropertyOp38
 70
     1
102
RTVSPropertyOp39
 70
     1
102
RTVSPropertyOp40
 70
     1
102
RTVSPropertyOp41
 70
     1
102
RTVSPropertyOp42
 70
     1
102
RTVSPropertyOp43
 70
     1
102
RTVSPropertyOp44
 70
     1
102
RTVSPropertyOp45
 70
     1
102
RTVSPropertyOp46
 70
     1
102
RTVSPropertyOp47
 70
     1
102
RTVSPropertyOp48
 70
     1
102
RTVSPropertyOp49
 70
     1
102
RTVSPropertyOp50
 70
     1
102
RTVSPropertyOp51
 70
     0
102
RTVSPropertyOp52
 70
     0
102
RTVSPropertyOp53
 70
     1
102
RTVSPropertyOp54
 70
     1
102
RTVSPropertyOp55
 70
     1
102
RTVSPropertyOp56
 70
     1
102
RTVSPropertyOp57
 70
     1
102
RTVSPost2010Prop28
280
     0
102
RTVSPost2010PropOp28
 70
     1
102
RTVSPost2010Prop29
280
     1
102
RTVSPost2010PropOp29
 70
     1
102
RTVSPost2010Prop30
280
     1
102
RTVSPost2010PropOp30
 70
     1
102
RTVSPost2010Prop31
280
     0
102
RTVSPost2010PropOp31
 70
     1
102
RTVSPost2010Prop32
280
     0
102
RTVSPost2010PropOp32
 70
     1
102
RTVSPost2010Prop33
280
     0
102
RTVSPost2010PropOp33
 70
     1
102
RTVSPost2010Prop34
280
     0
102
RTVSPost2010PropOp34
 70
     1
102
RTVSPost2010Prop35
280
     0
102
RTVSPost2010PropOp35
 70
     1
102
RTVSPost2010Prop36
280
     0
102
RTVSPost2010PropOp36
 70
     1
102
RTVSPost2010Prop37
 90
       50
102
RTVSPost2010PropOp37
 70
     1
102
RTVSPost2010Prop38
140
0.0
102
RTVSPost2010PropOp38
 70
     1
102
RTVSPost2010Prop39
140
1.0
102
RTVSPost2010PropOp39
 70
     1
102
RTVSPost2010Prop40
 90
        0
102
RTVSPost2010PropOp40
 70
     1
102
RTVSPost2010Prop41ColorIndex
 90
       18
102
RTVSPost2010Prop41ColorRGB
 90
        0
102
RTVSPost2010PropOp41
 70
     1
102
RTVSPost2010Prop42
 90
       50
102
RTVSPost2010PropOp42
 70
     1
102
RTVSPost2010Prop43
 90
        3
102
RTVSPost2010PropOp43
 70
     1
102
RTVSPost2010Prop44ColorIndex
 90
        5
102
RTVSPost2010Prop44ColorRGB
 90
      255
102
RTVSPost2010PropOp44
 70
     1
102
RTVSPost2010Prop45
280
     0
102
RTVSPost2010PropOp45
 70
     1
102
RTVSPost2010Prop46
 90
       50
102
RTVSPost2010PropOp46
 70
     1
102
RTVSPost2010Prop47
 90
       50
102
RTVSPost2010PropOp47
 70
     1
102
RTVSPost2010Prop48
 90
       50
102
RTVSPost2010PropOp48
 70
     1
102
RTVSPost2010Prop49
280
     0
102
RTVSPost2010PropOp49
 70
     1
102
RTVSPost2010Prop50
 90
       50
102
RTVSPost2010PropOp50
 70
     1
102
RTVSPost2010Prop51ColorIndex
 90
      256
102
RTVSPost2010Prop51ColorRGB
 90
-16777216
102
RTVSPost2010PropOp51
 70
     0
102
RTVSPost2010Prop52
140
1.0
102
RTVSPost2010PropOp52
 70
     0
102
RTVSPost2010Prop53
 90
        2
102
RTVSPost2010PropOp53
 70
     1
102
RTVSPost2010Prop54
  1
strokes_ogs.tif
102
RTVSPost2010PropOp54
 70
     1
102
RTVSPost2010Prop55
280
     0
102
RTVSPost2010PropOp55
 70
     1
102
RTVSPost2010Prop56
140
1.0
102
RTVSPost2010PropOp56
 70
     1
102
RTVSPost2010Prop57
140
1.0
102
RTVSPost2010PropOp57
 70
     1
  0
ENDSEC
  0
EOF
