  0
SECTION
  2
HEADER
  9
$ACADVER
  1
AC1015
  9
$ACADMAINTVER
 70
     6
  9
$DWGCODEPAGE
  3
ANSI_1252
  9
$INSBASE
 10
0.0
 20
0.0
 30
0.0
  9
$EXTMIN
 10
1.000000000000000E+20
 20
1.000000000000000E+20
 30
1.000000000000000E+20
  9
$EXTMAX
 10
-1.000000000000000E+20
 20
-1.000000000000000E+20
 30
-1.000000000000000E+20
  9
$LIMMIN
 10
0.0
 20
0.0
  9
$LIMMAX
 10
12.0
 20
9.0
  9
$ORTHOMODE
 70
     0
  9
$REGENMODE
 70
     1
  9
$FILLMODE
 70
     1
  9
$QTEXTMODE
 70
     0
  9
$MIRRTEXT
 70
     1
  9
$LTSCALE
 40
1.0
  9
$ATTMODE
 70
     1
  9
$TEXTSIZE
 40
0.2
  9
$TRACEWID
 40
0.05
  9
$TEXTSTYLE
  7
Standard
  9
$CLAYER
  8
0
  9
$CELTYPE
  6
ByLayer
  9
$CECOLOR
 62
   256
  9
$CELTSCALE
 40
1.0
  9
$DISPSILH
 70
     0
  9
$DIMSCALE
 40
1.0
  9
$DIMASZ
 40
0.18
  9
$DIMEXO
 40
0.0625
  9
$DIMDLI
 40
0.38
  9
$DIMRND
 40
0.0
  9
$DIMDLE
 40
0.0
  9
$DIMEXE
 40
0.18
  9
$DIMTP
 40
0.0
  9
$DIMTM
 40
0.0
  9
$DIMTXT
 40
0.18
  9
$DIMCEN
 40
0.09
  9
$DIMTSZ
 40
0.0
  9
$DIMTOL
 70
     0
  9
$DIMLIM
 70
     0
  9
$DIMTIH
 70
     1
  9
$DIMTOH
 70
     1
  9
$DIMSE1
 70
     0
  9
$DIMSE2
 70
     0
  9
$DIMTAD
 70
     0
  9
$DIMZIN
 70
     0
  9
$DIMBLK
  1

  9
$DIMASO
 70
     1
  9
$DIMSHO
 70
     1
  9
$DIMPOST
  1

  9
$DIMAPOST
  1

  9
$DIMALT
 70
     0
  9
$DIMALTD
 70
     2
  9
$DIMALTF
 40
25.4
  9
$DIMLFAC
 40
1.0
  9
$DIMTOFL
 70
     0
  9
$DIMTVP
 40
0.0
  9
$DIMTIX
 70
     0
  9
$DIMSOXD
 70
     0
  9
$DIMSAH
 70
     0
  9
$DIMBLK1
  1

  9
$DIMBLK2
  1

  9
$DIMSTYLE
  2
Standard
  9
$DIMCLRD
 70
     0
  9
$DIMCLRE
 70
     0
  9
$DIMCLRT
 70
     0
  9
$DIMTFAC
 40
1.0
  9
$DIMGAP
 40
0.09
  9
$DIMJUST
 70
     0
  9
$DIMSD1
 70
     0
  9
$DIMSD2
 70
     0
  9
$DIMTOLJ
 70
     1
  9
$DIMTZIN
 70
     0
  9
$DIMALTZ
 70
     0
  9
$DIMALTTZ
 70
     0
  9
$DIMUPT
 70
     0
  9
$DIMDEC
 70
     4
  9
$DIMTDEC
 70
     4
  9
$DIMALTU
 70
     2
  9
$DIMALTTD
 70
     2
  9
$DIMTXSTY
  7
Standard
  9
$DIMAUNIT
 70
     0
  9
$DIMADEC
 70
     0
  9
$DIMALTRND
 40
0.0
  9
$DIMAZIN
 70
     0
  9
$DIMDSEP
 70
    46
  9
$DIMATFIT
 70
     3
  9
$DIMFRAC
 70
     0
  9
$DIMLDRBLK
  1

  9
$DIMLUNIT
 70
     2
  9
$DIMLWD
 70
    -2
  9
$DIMLWE
 70
    -2
  9
$DIMTMOVE
 70
     0
  9
$LUNITS
 70
     2
  9
$LUPREC
 70
     4
  9
$SKETCHINC
 40
0.1
  9
$FILLETRAD
 40
0.5
  9
$AUNITS
 70
     0
  9
$AUPREC
 70
     0
  9
$MENU
  1
.
  9
$ELEVATION
 40
0.0
  9
$PELEVATION
 40
0.0
  9
$THICKNESS
 40
0.0
  9
$LIMCHECK
 70
     0
  9
$CHAMFERA
 40
0.5
  9
$CHAMFERB
 40
0.5
  9
$CHAMFERC
 40
1.0
  9
$CHAMFERD
 40
0.0
  9
$SKPOLY
 70
     0
  9
$TDCREATE
 40
2458449.495442199
  9
$TDUCREATE
 40
2458449.703775533
  9
$TDUPDATE
 40
2458449.495442211
  9
$TDUUPDATE
 40
2458449.703775544
  9
$TDINDWG
 40
0.0000000116
  9
$TDUSRTIMER
 40
0.0000000116
  9
$USRTIMER
 70
     1
  9
$ANGBASE
 50
0.0
  9
$ANGDIR
 70
     0
  9
$PDMODE
 70
     0
  9
$PDSIZE
 40
0.0
  9
$PLINEWID
 40
0.0
  9
$SPLFRAME
 70
     0
  9
$SPLINETYPE
 70
     6
  9
$SPLINESEGS
 70
     8
  9
$HANDSEED
  5
5E
  9
$SURFTAB1
 70
     6
  9
$SURFTAB2
 70
     6
  9
$SURFTYPE
 70
     6
  9
$SURFU
 70
     6
  9
$SURFV
 70
     6
  9
$UCSBASE
  2

  9
$UCSNAME
  2

  9
$UCSORG
 10
0.0
 20
0.0
 30
0.0
  9
$UCSXDIR
 10
1.0
 20
0.0
 30
0.0
  9
$UCSYDIR
 10
0.0
 20
1.0
 30
0.0
  9
$UCSORTHOREF
  2

  9
$UCSORTHOVIEW
 70
     0
  9
$UCSORGTOP
 10
0.0
 20
0.0
 30
0.0
  9
$UCSORGBOTTOM
 10
0.0
 20
0.0
 30
0.0
  9
$UCSORGLEFT
 10
0.0
 20
0.0
 30
0.0
  9
$UCSORGRIGHT
 10
0.0
 20
0.0
 30
0.0
  9
$UCSORGFRONT
 10
0.0
 20
0.0
 30
0.0
  9
$UCSORGBACK
 10
0.0
 20
0.0
 30
0.0
  9
$PUCSBASE
  2

  9
$PUCSNAME
  2

  9
$PUCSORG
 10
0.0
 20
0.0
 30
0.0
  9
$PUCSXDIR
 10
1.0
 20
0.0
 30
0.0
  9
$PUCSYDIR
 10
0.0
 20
1.0
 30
0.0
  9
$PUCSORTHOREF
  2

  9
$PUCSORTHOVIEW
 70
     0
  9
$PUCSORGTOP
 10
0.0
 20
0.0
 30
0.0
  9
$PUCSORGBOTTOM
 10
0.0
 20
0.0
 30
0.0
  9
$PUCSORGLEFT
 10
0.0
 20
0.0
 30
0.0
  9
$PUCSORGRIGHT
 10
0.0
 20
0.0
 30
0.0
  9
$PUCSORGFRONT
 10
0.0
 20
0.0
 30
0.0
  9
$PUCSORGBACK
 10
0.0
 20
0.0
 30
0.0
  9
$USERI1
 70
     0
  9
$USERI2
 70
     0
  9
$USERI3
 70
     0
  9
$USERI4
 70
     0
  9
$USERI5
 70
     0
  9
$USERR1
 40
0.0
  9
$USERR2
 40
0.0
  9
$USERR3
 40
0.0
  9
$USERR4
 40
0.0
  9
$USERR5
 40
0.0
  9
$WORLDVIEW
 70
     1
  9
$SHADEDGE
 70
     3
  9
$SHADEDIF
 70
    70
  9
$TILEMODE
 70
     1
  9
$MAXACTVP
 70
    64
  9
$PINSBASE
 10
0.0
 20
0.0
 30
0.0
  9
$PLIMCHECK
 70
     0
  9
$PEXTMIN
 10
1.000000000000000E+20
 20
1.000000000000000E+20
 30
1.000000000000000E+20
  9
$PEXTMAX
 10
-1.000000000000000E+20
 20
-1.000000000000000E+20
 30
-1.000000000000000E+20
  9
$PLIMMIN
 10
0.0
 20
0.0
  9
$PLIMMAX
 10
12.0
 20
9.0
  9
$UNITMODE
 70
     0
  9
$VISRETAIN
 70
     1
  9
$PLINEGEN
 70
     0
  9
$PSLTSCALE
 70
     1
  9
$TREEDEPTH
 70
  3020
  9
$CMLSTYLE
  2
Standard
  9
$CMLJUST
 70
     0
  9
$CMLSCALE
 40
1.0
  9
$PROXYGRAPHICS
 70
     1
  9
$MEASUREMENT
 70
     0
  9
$CELWEIGHT
370
    -1
  9
$ENDCAPS
280
     0
  9
$JOINSTYLE
280
     0
  9
$LWDISPLAY
290
     1
  9
$INSUNITS
 70
     1
  9
$HYPERLINKBASE
  1

  9
$STYLESHEET
  1

  9
$XEDIT
290
     1
  9
$CEPSNTYPE
380
     0
  9
$PSTYLEMODE
290
     1
  9
$FINGERPRINTGUID
  2
{B439B2D1-4AB1-4589-8F83-950299935A0B}
  9
$VERSIONGUID
  2
{FAEB1C32-E019-11D5-929B-00C0DF256EC4}
  9
$EXTNAMES
290
     1
  9
$PSVPSCALE
 40
0.0
  9
$OLESTARTUP
290
     0
  0
ENDSEC
  0
SECTION
  2
CLASSES
  0
CLASS
  1
ACDBDICTIONARYWDFLT
  2
AcDbDictionaryWithDefault
  3
ObjectDBX Classes
 90
        0
280
     0
281
     0
  0
CLASS
  1
VISUALSTYLE
  2
AcDbVisualStyle
  3
ObjectDBX Classes
 90
     4095
280
     0
281
     0
  0
CLASS
  1
ACDBPLACEHOLDER
  2
AcDbPlaceHolder
  3
ObjectDBX Classes
 90
        0
280
     0
281
     0
  0
CLASS
  1
LAYOUT
  2
AcDbLayout
  3
ObjectDBX Classes
 90
        0
280
     0
281
     0
  0
ENDSEC
  0
SECTION
  2
TABLES
  0
TABLE
  2
VPORT
  5
8
330
0
100
AcDbSymbolTable
 70
     1
  0
VPORT
  5
29
330
8
100
AcDbSymbolTableRecord
100
AcDbViewportTableRecord
  2
*Active
 70
     0
 10
0.0
 20
0.0
 11
1.0
 21
1.0
 12
0.0
 22
0.0
 13
0.0
 23
0.0
 14
0.5
 24
0.5
 15
0.5
 25
0.5
 16
0.0
 26
0.0
 36
1.0
 17
500.0
 27
-500.0
 37
0.0
 40
1000.0
 41
1.0
 42
50.0
 43
0.0
 44
0.0
 50
0.0
 51
0.0
 71
     0
 72
   100
 73
     1
 74
     3
 75
     0
 76
     0
 77
     0
 78
     0
281
     0
 65
     1
110
0.0
120
0.0
130
0.0
111
1.0
121
0.0
131
0.0
112
0.0
122
1.0
132
0.0
 79
     0
146
0.0
  0
ENDTAB
  0
TABLE
  2
LTYPE
  5
5
330
0
100
AcDbSymbolTable
 70
     1
  0
LTYPE
  5
14
330
5
100
AcDbSymbolTableRecord
100
AcDbLinetypeTableRecord
  2
ByBlock
 70
     0
  3

 72
    65
 73
     0
 40
0.0
  0
LTYPE
  5
15
330
5
100
AcDbSymbolTableRecord
100
AcDbLinetypeTableRecord
  2
ByLayer
 70
     0
  3

 72
    65
 73
     0
 40
0.0
  0
LTYPE
  5
16
330
5
100
AcDbSymbolTableRecord
100
AcDbLinetypeTableRecord
  2
Continuous
 70
     0
  3
Solid line
 72
    65
 73
     0
 40
0.0
  0
ENDTAB
  0
TABLE
  2
LAYER
  5
2
330
0
100
AcDbSymbolTable
 70
     2
  0
LAYER
  5
10
330
2
100
AcDbSymbolTableRecord
100
AcDbLayerTableRecord
  2
0
 70
     0
 62
     7
  6
Continuous
370
    -3
390
F
  0
LAYER
  5
3B
330
2
100
AcDbSymbolTableRecord
100
AcDbLayerTableRecord
  2
Layer 1
 70
     0
 62
     7
  6
Continuous
370
    -3
390
F
  0
ENDTAB
  0
TABLE
  2
STYLE
  5
3
330
0
100
AcDbSymbolTable
 70
     1
  0
STYLE
  5
11
330
3
100
AcDbSymbolTableRecord
100
AcDbTextStyleTableRecord
  2
Standard
 70
     0
 40
0.0
 41
1.0
 50
0.0
 71
     0
 42
0.2
  3
txt
  4

  0
ENDTAB
  0
TABLE
  2
VIEW
  5
6
330
0
100
AcDbSymbolTable
 70
     0
  0
ENDTAB
  0
TABLE
  2
UCS
  5
7
330
0
100
AcDbSymbolTable
 70
     0
  0
ENDTAB
  0
TABLE
  2
APPID
  5
9
330
0
100
AcDbSymbolTable
 70
     1
  0
APPID
  5
12
330
9
100
AcDbSymbolTableRecord
100
AcDbRegAppTableRecord
  2
ACAD
 70
     0
  0
ENDTAB
  0
TABLE
  2
DIMSTYLE
  5
A
330
0
100
AcDbSymbolTable
 70
     1
100
AcDbDimStyleTable
  0
DIMSTYLE
105
27
330
A
100
AcDbSymbolTableRecord
100
AcDbDimStyleTableRecord
  2
Standard
 70
     0
340
11
  0
ENDTAB
  0
TABLE
  2
BLOCK_RECORD
  5
1
330
0
100
AcDbSymbolTable
 70
     2
  0
BLOCK_RECORD
  5
1F
330
1
100
AcDbSymbolTableRecord
100
AcDbBlockTableRecord
  2
*Model_Space
340
22
  0
BLOCK_RECORD
  5
1B
330
1
100
AcDbSymbolTableRecord
100
AcDbBlockTableRecord
  2
*Paper_Space
340
1E
  0
BLOCK_RECORD
  5
23
330
1
100
AcDbSymbolTableRecord
100
AcDbBlockTableRecord
  2
*Paper_Space0
340
26
  0
BLOCK_RECORD
  5
3C
330
1
100
AcDbSymbolTableRecord
100
AcDbBlockTableRecord
  2
block 2
340
0
102
{BLKREFS
331
3D
102
}
  0
ENDTAB
  0
ENDSEC
  0
SECTION
  2
BLOCKS
  0
BLOCK
  5
20
330
1F
100
AcDbEntity
  8
0
100
AcDbBlockBegin
  2
*Model_Space
 70
     0
 71
     0
 10
0.0
 20
0.0
 30
0.0
  3
*Model_Space
  1

  0
ENDBLK
  5
21
330
1F
100
AcDbEntity
  8
0
100
AcDbBlockEnd
  0
BLOCK
  5
1C
330
1B
100
AcDbEntity
 67
     1
  8
0
100
AcDbBlockBegin
  2
*Paper_Space
 70
     0
 71
     0
 10
0.0
 20
0.0
 30
0.0
  3
*Paper_Space
  1

  0
ENDBLK
  5
1D
330
1B
100
AcDbEntity
 67
     1
  8
0
100
AcDbBlockEnd
  0
BLOCK
  5
24
330
23
100
AcDbEntity
  8
0
100
AcDbBlockBegin
  2
*Paper_Space0
 70
     0
 71
     0
 10
0.0
 20
0.0
 30
0.0
  3
*Paper_Space0
  1

  0
ENDBLK
  5
25
330
23
100
AcDbEntity
  8
0
100
AcDbBlockEnd
  0
BLOCK
  5
3E
330
3C
100
AcDbEntity
  8
0
100
AcDbBlockBegin
  2
block 2
 70
     0
 71
     0
 10
0.0
 20
0.0
 30
0.0
  3
block 2
  1

  0
SPLINE
  5
40
330
3C
100
AcDbEntity
  8
Layer 1
370
     0
100
AcDbSpline
210
0.0
220
0.0
230
1.0
 70
    11
 71
     3
 72
   119
 73
   115
 74
     0
 42
0.0000000001
 43
0.0000000001
 40
0.0
 40
0.0
 40
0.0
 40
0.0
 40
1.0
 40
1.0
 40
1.0
 40
2.0
 40
2.0
 40
2.0
 40
3.0
 40
3.0
 40
3.0
 40
4.0
 40
4.0
 40
4.0
 40
5.0
 40
5.0
 40
5.0
 40
6.0
 40
6.0
 40
6.0
 40
7.0
 40
7.0
 40
7.0
 40
8.0
 40
8.0
 40
8.0
 40
9.0
 40
9.0
 40
9.0
 40
10.0
 40
10.0
 40
10.0
 40
11.0
 40
11.0
 40
11.0
 40
12.0
 40
12.0
 40
12.0
 40
13.0
 40
13.0
 40
13.0
 40
14.0
 40
14.0
 40
14.0
 40
15.0
 40
15.0
 40
15.0
 40
16.0
 40
16.0
 40
16.0
 40
17.0
 40
17.0
 40
17.0
 40
18.0
 40
18.0
 40
18.0
 40
19.0
 40
19.0
 40
19.0
 40
20.0
 40
20.0
 40
20.0
 40
21.0
 40
21.0
 40
21.0
 40
22.0
 40
22.0
 40
22.0
 40
23.0
 40
23.0
 40
23.0
 40
24.0
 40
24.0
 40
24.0
 40
25.0
 40
25.0
 40
25.0
 40
26.0
 40
26.0
 40
26.0
 40
27.0
 40
27.0
 40
27.0
 40
28.0
 40
28.0
 40
28.0
 40
29.0
 40
29.0
 40
29.0
 40
30.0
 40
30.0
 40
30.0
 40
31.0
 40
31.0
 40
31.0
 40
32.0
 40
32.0
 40
32.0
 40
33.0
 40
33.0
 40
33.0
 40
34.0
 40
34.0
 40
34.0
 40
35.0
 40
35.0
 40
35.0
 40
36.0
 40
36.0
 40
36.0
 40
37.0
 40
37.0
 40
37.0
 40
38.0
 40
38.0
 40
38.0
 40
38.0
 10
317.8896484375
 20
-848.03125
 30
0.0
 10
317.8896484375
 20
-848.03125
 30
0.0
 10
341.4140625
 20
-848.03125
 30
0.0
 10
341.4140625
 20
-848.03125
 30
0.0
 10
375.525390625
 20
-848.03125
 30
0.0
 10
399.1435546875
 20
-843.7275390625
 30
0.0
 10
412.283203125
 20
-835.09765625
 30
0.0
 10
425.41552734375
 20
-826.474609375
 30
0.0
 10
433.74951171875
 20
-813.0390625
 30
0.0
 10
437.27734375
 20
-794.8115234375
 30
0.0
 10
438.431640625
 20
-788.83984375
 30
0.0
 10
439.39892578125
 20
-780.220703125
 30
0.0
 10
440.17138671875
 20
-769.052734375
 30
0.0
 10
431.87890625
 20
-770.6279296875
 30
0.0
 10
423.59765625
 20
-771.4482421875
 30
0.0
 10
415.3984375
 20
-771.4482421875
 30
0.0
 10
378.91796875
 20
-771.4482421875
 30
0.0
 10
344.064453125
 20
-755.283203125
 30
0.0
 10
319.5654296875
 20
-727.0390625
 30
0.0
 10
303.13037109375
 20
-723.1630859375
 30
0.0
 10
290.51904296875
 20
-717.4267578125
 30
0.0
 10
279.96240234375
 20
-709.0224609375
 30
0.0
 10
270.1103515625
 20
-701.171875
 30
0.0
 10
259.17822265625
 20
-688.1484375
 30
0.0
 10
255.4521484375
 20
-673.490234375
 30
0.0
 10
251.62451171875
 20
-676.4140625
 30
0.0
 10
248.4150390625
 20
-679.443359375
 30
0.0
 10
245.7197265625
 20
-682.66015625
 30
0.0
 10
231.96484375
 20
-699.1103515625
 30
0.0
 10
236.3623046875
 20
-712.90625
 30
0.0
 10
242.45458984375
 20
-732.0029296875
 30
0.0
 10
243.5830078125
 20
-735.5341796875
 30
0.0
 10
243.08056640625
 20
-739.013671875
 30
0.0
 10
241.048828125
 20
-741.787109375
 30
0.0
 10
238.8369140625
 20
-744.82421875
 30
0.0
 10
235.09912109375
 20
-746.630859375
 30
0.0
 10
231.05419921875
 20
-746.630859375
 30
0.0
 10
228.107421875
 20
-746.630859375
 30
0.0
 10
225.2880859375
 20
-745.6259765625
 30
0.0
 10
223.1142578125
 20
-743.796875
 30
0.0
 10
205.99267578125
 20
-729.423828125
 30
0.0
 10
209.39306640625
 20
-702.9560546875
 30
0.0
 10
221.28076171875
 20
-685.3515625
 30
0.0
 10
221.45703125
 20
-685.0888671875
 30
0.0
 10
221.63671875
 20
-684.8271484375
 30
0.0
 10
221.81298828125
 20
-684.5712890625
 30
0.0
 10
193.3330078125
 20
-704.3583984375
 30
0.0
 10
174.9033203125
 20
-731.98046875
 30
0.0
 10
169.984375
 20
-763.3134765625
 30
0.0
 10
166.86572265625
 20
-783.1826171875
 30
0.0
 10
170.68212890625
 20
-804.1240234375
 30
0.0
 10
180.458984375
 20
-820.8740234375
 30
0.0
 10
186.0751953125
 20
-825.544921875
 30
0.0
 10
191.24072265625
 20
-827.216796875
 30
0.0
 10
196.59814453125
 20
-826.115234375
 30
0.0
 10
204.8642578125
 20
-824.4052734375
 30
0.0
 10
210.9453125
 20
-817.9951171875
 30
0.0
 10
217.4755859375
 20
-810.4150390625
 30
0.0
 10
219.67236328125
 20
-807.865234375
 30
0.0
 10
222.5888671875
 20
-806.462890625
 30
0.0
 10
225.689453125
 20
-806.462890625
 30
0.0
 10
229.689453125
 20
-806.462890625
 30
0.0
 10
233.61083984375
 20
-808.765625
 30
0.0
 10
235.91259765625
 20
-812.484375
 30
0.0
 10
238.20703125
 20
-816.1728515625
 30
0.0
 10
238.447265625
 20
-820.4541015625
 30
0.0
 10
236.580078125
 20
-824.2255859375
 30
0.0
 10
230.4765625
 20
-836.5595703125
 30
0.0
 10
216.79345703125
 20
-843.802734375
 30
0.0
 10
200.69189453125
 20
-843.2626953125
 30
0.0
 10
207.125
 20
-847.8515625
 30
0.0
 10
214.28173828125
 20
-851.2177734375
 30
0.0
 10
222.0791015625
 20
-853.3095703125
 30
0.0
 10
226.56689453125
 20
-854.5166015625
 30
0.0
 10
231.24169921875
 20
-855.1318359375
 30
0.0
 10
235.98779296875
 20
-855.1318359375
 30
0.0
 10
250.166015625
 20
-855.1318359375
 30
0.0
 10
263.9580078125
 20
-849.6728515625
 30
0.0
 10
273.8212890625
 20
-840.158203125
 30
0.0
 10
279.1826171875
 20
-834.9853515625
 30
0.0
 10
285.91162109375
 20
-826.5419921875
 30
0.0
 10
287.5048828125
 20
-815.73046875
 30
0.0
 10
288.42333984375
 20
-809.5078125
 30
0.0
 10
287.14501953125
 20
-800.28515625
 30
0.0
 10
282.96875
 20
-795.44921875
 30
0.0
 10
280.11962890625
 20
-792.142578125
 30
0.0
 10
276.4384765625
 20
-791.6630859375
 30
0.0
 10
271.5947265625
 20
-793.77734375
 30
0.0
 10
269.4130859375
 20
-794.7294921875
 30
0.0
 10
267.201171875
 20
-795.216796875
 30
0.0
 10
265.02294921875
 20
-795.216796875
 30
0.0
 10
259.03955078125
 20
-795.216796875
 30
0.0
 10
253.7421875
 20
-791.3857421875
 30
0.0
 10
251.833984375
 20
-785.6796875
 30
0.0
 10
249.82470703125
 20
-779.673828125
 30
0.0
 10
251.97314453125
 20
-773.3828125
 30
0.0
 10
257.43896484375
 20
-769.2666015625
 30
0.0
 10
263.04736328125
 20
-765.052734375
 30
0.0
 10
269.6416015625
 20
-762.826171875
 30
0.0
 10
276.51708984375
 20
-762.826171875
 30
0.0
 10
292.89599609375
 20
-762.826171875
 30
0.0
 10
308.85107421875
 20
-775.287109375
 30
0.0
 10
313.634765625
 20
-791.8203125
 30
0.0
 10
320.0791015625
 20
-814.1181640625
 30
0.0
 10
310.22314453125
 20
-837.009765625
 30
0.0
 10
296.3525390625
 20
-852.0419921875
 30
0.0
 10
296.3525390625
 20
-852.0419921875
 30
0.0
 10
297.162109375
 20
-852.1025390625
 30
0.0
 10
297.162109375
 20
-852.1025390625
 30
0.0
 10
302.59423828125
 20
-852.455078125
 30
0.0
 10
310.83447265625
 20
-853.013671875
 30
0.0
 10
317.8896484375
 20
-855.4130859375
 30
0.0
 10
317.8896484375
 20
-855.4130859375
 30
0.0
 10
317.8896484375
 20
-848.03125
 30
0.0
 10
317.8896484375
 20
-848.03125
 30
0.0
  0
SPLINE
  5
41
330
3C
100
AcDbEntity
  8
Layer 1
370
     0
100
AcDbSpline
210
0.0
220
0.0
230
1.0
 70
    11
 71
     3
 72
    20
 73
    16
 74
     0
 42
0.0000000001
 43
0.0000000001
 40
0.0
 40
0.0
 40
0.0
 40
0.0
 40
1.0
 40
1.0
 40
1.0
 40
2.0
 40
2.0
 40
2.0
 40
3.0
 40
3.0
 40
3.0
 40
4.0
 40
4.0
 40
4.0
 40
5.0
 40
5.0
 40
5.0
 40
5.0
 10
597.9697265625
 20
-686.2666015625
 30
0.0
 10
600.796875
 20
-684.7666015625
 30
0.0
 10
603.619140625
 20
-683.251953125
 30
0.0
 10
606.4423828125
 20
-681.7451171875
 30
0.0
 10
621.7568359375
 20
-673.5576171875
 30
0.0
 10
637.44140625
 20
-665.16796875
 30
0.0
 10
653.7421875
 20
-658.4267578125
 30
0.0
 10
653.7421875
 20
-658.4267578125
 30
0.0
 10
589.673828125
 20
-658.4267578125
 30
0.0
 10
589.673828125
 20
-658.4267578125
 30
0.0
 10
589.673828125
 20
-658.4267578125
 30
0.0
 10
590.119140625
 20
-659.986328125
 30
0.0
 10
590.119140625
 20
-659.986328125
 30
0.0
 10
592.5859375
 20
-668.6240234375
 30
0.0
 10
595.1240234375
 20
-677.5166015625
 30
0.0
 10
597.9697265625
 20
-686.2666015625
 30
0.0
  0
SPLINE
  5
42
330
3C
100
AcDbEntity
  8
Layer 1
370
     0
100
AcDbSpline
210
0.0
220
0.0
230
1.0
 70
    11
 71
     3
 72
    17
 73
    13
 74
     0
 42
0.0000000001
 43
0.0000000001
 40
0.0
 40
0.0
 40
0.0
 40
0.0
 40
1.0
 40
1.0
 40
1.0
 40
2.0
 40
2.0
 40
2.0
 40
3.0
 40
3.0
 40
3.0
 40
4.0
 40
4.0
 40
4.0
 40
4.0
 10
442.5703125
 20
-438.6220703125
 30
0.0
 10
434.9228515625
 20
-441.69580078125
 30
0.0
 10
427.67236328125
 20
-445.05859375
 30
0.0
 10
420.87939453125
 20
-448.40625
 30
0.0
 10
426.00048828125
 20
-461.54248046875
 30
0.0
 10
429.0146484375
 20
-474.06396484375
 30
0.0
 10
429.86181640625
 20
-485.7451171875
 30
0.0
 10
429.86181640625
 20
-485.7451171875
 30
0.0
 10
442.5703125
 20
-485.7451171875
 30
0.0
 10
442.5703125
 20
-485.7451171875
 30
0.0
 10
442.5703125
 20
-485.7451171875
 30
0.0
 10
442.5703125
 20
-438.6220703125
 30
0.0
 10
442.5703125
 20
-438.6220703125
 30
0.0
  0
SPLINE
  5
43
330
3C
100
AcDbEntity
  8
Layer 1
370
     0
100
AcDbSpline
210
0.0
220
0.0
230
1.0
 70
    11
 71
     3
 72
    23
 73
    19
 74
     0
 42
0.0000000001
 43
0.0000000001
 40
0.0
 40
0.0
 40
0.0
 40
0.0
 40
1.0
 40
1.0
 40
1.0
 40
2.0
 40
2.0
 40
2.0
 40
3.0
 40
3.0
 40
3.0
 40
4.0
 40
4.0
 40
4.0
 40
5.0
 40
5.0
 40
5.0
 40
6.0
 40
6.0
 40
6.0
 40
6.0
 10
284.3857421875
 20
-694.8740234375
 30
0.0
 10
290.3916015625
 20
-700.294921875
 30
0.0
 10
297.47705078125
 20
-704.6884765625
 30
0.0
 10
305.8671875
 20
-708.16015625
 30
0.0
 10
296.63720703125
 20
-692.841796875
 30
0.0
 10
290.56396484375
 20
-675.8896484375
 30
0.0
 10
288.07470703125
 20
-658.4267578125
 30
0.0
 10
288.07470703125
 20
-658.4267578125
 30
0.0
 10
283.5947265625
 20
-658.4267578125
 30
0.0
 10
283.5947265625
 20
-658.4267578125
 30
0.0
 10
282.4892578125
 20
-658.6591796875
 30
0.0
 10
281.37939453125
 20
-658.8994140625
 30
0.0
 10
280.26953125
 20
-659.146484375
 30
0.0
 10
276.3408203125
 20
-661.0361328125
 30
0.0
 10
271.86474609375
 20
-663.240234375
 30
0.0
 10
267.4521484375
 20
-665.71484375
 30
0.0
 10
270.2451171875
 20
-677.81640625
 30
0.0
 10
275.53466796875
 20
-686.896484375
 30
0.0
 10
284.3857421875
 20
-694.8740234375
 30
0.0
  0
SPLINE
  5
44
330
3C
100
AcDbEntity
  8
Layer 1
370
     0
100
AcDbSpline
210
0.0
220
0.0
230
1.0
 70
    11
 71
     3
 72
    29
 73
    25
 74
     0
 42
0.0000000001
 43
0.0000000001
 40
0.0
 40
0.0
 40
0.0
 40
0.0
 40
1.0
 40
1.0
 40
1.0
 40
2.0
 40
2.0
 40
2.0
 40
3.0
 40
3.0
 40
3.0
 40
4.0
 40
4.0
 40
4.0
 40
5.0
 40
5.0
 40
5.0
 40
6.0
 40
6.0
 40
6.0
 40
7.0
 40
7.0
 40
7.0
 40
8.0
 40
8.0
 40
8.0
 40
8.0
 10
563.2626953125
 20
-479.6044921875
 30
0.0
 10
562.2763671875
 20
-481.771484375
 30
0.0
 10
561.099609375
 20
-483.826171875
 30
0.0
 10
559.73828125
 20
-485.7451171875
 30
0.0
 10
559.73828125
 20
-485.7451171875
 30
0.0
 10
695.4111328125
 20
-485.7451171875
 30
0.0
 10
695.4111328125
 20
-485.7451171875
 30
0.0
 10
695.771484375
 20
-468.9130859375
 30
0.0
 10
686.4658203125
 20
-448.46630859375
 30
0.0
 10
669.4345703125
 20
-428.87451171875
 30
0.0
 10
667.458984375
 20
-428.50732421875
 30
0.0
 10
665.4794921875
 20
-428.17724609375
 30
0.0
 10
663.4931640625
 20
-427.8623046875
 30
0.0
 10
653.3857421875
 20
-426.2880859375
 30
0.0
 10
643.169921875
 20
-424.94580078125
 30
0.0
 10
633.2919921875
 20
-423.6484375
 30
0.0
 10
608.4775390625
 20
-420.390625
 30
0.0
 10
582.966796875
 20
-416.9794921875
 30
0.0
 10
557.841796875
 20
-409.654296875
 30
0.0
 10
557.841796875
 20
-409.654296875
 30
0.0
 10
557.841796875
 20
-434.8876953125
 30
0.0
 10
557.841796875
 20
-434.8876953125
 30
0.0
 10
566.4716796875
 20
-447.7392578125
 30
0.0
 10
570.115234375
 20
-464.515625
 30
0.0
 10
563.2626953125
 20
-479.6044921875
 30
0.0
  0
SPLINE
  5
45
330
3C
100
AcDbEntity
  8
Layer 1
370
     0
100
AcDbSpline
210
0.0
220
0.0
230
1.0
 70
    11
 71
     3
 72
    80
 73
    76
 74
     0
 42
0.0000000001
 43
0.0000000001
 40
0.0
 40
0.0
 40
0.0
 40
0.0
 40
1.0
 40
1.0
 40
1.0
 40
2.0
 40
2.0
 40
2.0
 40
3.0
 40
3.0
 40
3.0
 40
4.0
 40
4.0
 40
4.0
 40
5.0
 40
5.0
 40
5.0
 40
6.0
 40
6.0
 40
6.0
 40
7.0
 40
7.0
 40
7.0
 40
8.0
 40
8.0
 40
8.0
 40
9.0
 40
9.0
 40
9.0
 40
10.0
 40
10.0
 40
10.0
 40
11.0
 40
11.0
 40
11.0
 40
12.0
 40
12.0
 40
12.0
 40
13.0
 40
13.0
 40
13.0
 40
14.0
 40
14.0
 40
14.0
 40
15.0
 40
15.0
 40
15.0
 40
16.0
 40
16.0
 40
16.0
 40
17.0
 40
17.0
 40
17.0
 40
18.0
 40
18.0
 40
18.0
 40
19.0
 40
19.0
 40
19.0
 40
20.0
 40
20.0
 40
20.0
 40
21.0
 40
21.0
 40
21.0
 40
22.0
 40
22.0
 40
22.0
 40
23.0
 40
23.0
 40
23.0
 40
24.0
 40
24.0
 40
24.0
 40
25.0
 40
25.0
 40
25.0
 40
25.0
 10
611.7470703125
 20
-700.6015625
 30
0.0
 10
609.359375
 20
-701.8095703125
 30
0.0
 10
606.9375
 20
-703.0390625
 30
0.0
 10
604.4892578125
 20
-704.2685546875
 30
0.0
 10
610.47265625
 20
-719.0166015625
 30
0.0
 10
617.16796875
 20
-730.5859375
 30
0.0
 10
624.9091796875
 20
-739.552734375
 30
0.0
 10
645.1455078125
 20
-763.021484375
 30
0.0
 10
672.3515625
 20
-775.939453125
 30
0.0
 10
701.525390625
 20
-775.939453125
 30
0.0
 10
731.4716796875
 20
-775.8427734375
 30
0.0
 10
757.9384765625
 20
-762.0087890625
 30
0.0
 10
778.408203125
 20
-735.9462890625
 30
0.0
 10
784.630859375
 20
-728.029296875
 30
0.0
 10
790.453125
 20
-719.4736328125
 30
0.0
 10
796.083984375
 20
-711.2041015625
 30
0.0
 10
808.04296875
 20
-693.6220703125
 30
0.0
 10
820.41015625
 20
-675.447265625
 30
0.0
 10
837.572265625
 20
-661.8388671875
 30
0.0
 10
839.064453125
 20
-660.654296875
 30
0.0
 10
840.5791015625
 20
-659.5146484375
 30
0.0
 10
842.1240234375
 20
-658.4267578125
 30
0.0
 10
842.1240234375
 20
-658.4267578125
 30
0.0
 10
761.630859375
 20
-658.4267578125
 30
0.0
 10
761.630859375
 20
-658.4267578125
 30
0.0
 10
762.587890625
 20
-659.146484375
 30
0.0
 10
763.517578125
 20
-659.888671875
 30
0.0
 10
764.4208984375
 20
-660.6611328125
 30
0.0
 10
782.4267578125
 20
-675.986328125
 30
0.0
 10
788.998046875
 20
-701.966796875
 30
0.0
 10
780.76953125
 20
-725.322265625
 30
0.0
 10
773.15234375
 20
-746.9609375
 30
0.0
 10
752.5927734375
 20
-762.6689453125
 30
0.0
 10
731.8916015625
 20
-762.6689453125
 30
0.0
 10
728.9599609375
 20
-762.6689453125
 30
0.0
 10
726.005859375
 20
-762.369140625
 30
0.0
 10
723.119140625
 20
-761.7685546875
 30
0.0
 10
711.392578125
 20
-759.33203125
 30
0.0
 10
701.978515625
 20
-751.70703125
 30
0.0
 10
697.296875
 20
-740.8349609375
 30
0.0
 10
692.587890625
 20
-729.9033203125
 30
0.0
 10
693.5517578125
 20
-717.26171875
 30
0.0
 10
699.8759765625
 20
-707.0126953125
 30
0.0
 10
702.462890625
 20
-702.8134765625
 30
0.0
 10
706.3837890625
 20
-700.5048828125
 30
0.0
 10
710.912109375
 20
-700.5048828125
 30
0.0
 10
716.708984375
 20
-700.5048828125
 30
0.0
 10
722.384765625
 20
-704.380859375
 30
0.0
 10
724.7158203125
 20
-709.9296875
 30
0.0
 10
726.943359375
 20
-715.22265625
 30
0.0
 10
725.720703125
 20
-720.81640625
 30
0.0
 10
721.357421875
 20
-725.27734375
 30
0.0
 10
720.2470703125
 20
-726.4091796875
 30
0.0
 10
719.845703125
 20
-727.6240234375
 30
0.0
 10
720.1015625
 20
-729.0859375
 30
0.0
 10
720.611328125
 20
-732.033203125
 30
0.0
 10
723.54296875
 20
-735.1220703125
 30
0.0
 10
725.96875
 20
-736.298828125
 30
0.0
 10
729.2744140625
 20
-737.9111328125
 30
0.0
 10
733.6533203125
 20
-737.6484375
 30
0.0
 10
739.5654296875
 20
-735.4892578125
 30
0.0
 10
747.5615234375
 20
-732.572265625
 30
0.0
 10
753.7626953125
 20
-726.0048828125
 30
0.0
 10
757.03125
 20
-717.0068359375
 30
0.0
 10
763.1123046875
 20
-700.2568359375
 30
0.0
 10
756.634765625
 20
-682.6220703125
 30
0.0
 10
741.275390625
 20
-674.134765625
 30
0.0
 10
732.619140625
 20
-669.3515625
 30
0.0
 10
722.4296875
 20
-666.921875
 30
0.0
 10
710.9951171875
 20
-666.921875
 30
0.0
 10
687.33984375
 20
-666.921875
 30
0.0
 10
662.2294921875
 20
-676.78125
 30
0.0
 10
638.626953125
 20
-687.435546875
 30
0.0
 10
630.38671875
 20
-691.1552734375
 30
0.0
 10
621.3330078125
 20
-695.7431640625
 30
0.0
 10
611.7470703125
 20
-700.6015625
 30
0.0
  0
SPLINE
  5
46
330
3C
100
AcDbEntity
  8
Layer 1
370
     0
100
AcDbSpline
210
0.0
220
0.0
230
1.0
 70
    11
 71
     3
 72
    29
 73
    25
 74
     0
 42
0.0000000001
 43
0.0000000001
 40
0.0
 40
0.0
 40
0.0
 40
0.0
 40
1.0
 40
1.0
 40
1.0
 40
2.0
 40
2.0
 40
2.0
 40
3.0
 40
3.0
 40
3.0
 40
4.0
 40
4.0
 40
4.0
 40
5.0
 40
5.0
 40
5.0
 40
6.0
 40
6.0
 40
6.0
 40
7.0
 40
7.0
 40
7.0
 40
8.0
 40
8.0
 40
8.0
 40
8.0
 10
336.91552734375
 20
-716.302734375
 30
0.0
 10
347.02978515625
 20
-717.876953125
 30
0.0
 10
357.24951171875
 20
-719.21875
 30
0.0
 10
367.13134765625
 20
-720.5234375
 30
0.0
 10
391.67919921875
 20
-723.748046875
 30
0.0
 10
416.90576171875
 20
-727.1220703125
 30
0.0
 10
441.7646484375
 20
-734.2861328125
 30
0.0
 10
441.9892578125
 20
-726.4697265625
 30
0.0
 10
442.16552734375
 20
-717.9853515625
 30
0.0
 10
442.29296875
 20
-708.8759765625
 30
0.0
 10
433.8583984375
 20
-696.0771484375
 30
0.0
 10
430.3642578125
 20
-679.4921875
 30
0.0
 10
437.14599609375
 20
-664.560546875
 30
0.0
 10
438.1279296875
 20
-662.3935546875
 30
0.0
 10
439.30517578125
 20
-660.3466796875
 30
0.0
 10
440.669921875
 20
-658.4267578125
 30
0.0
 10
440.669921875
 20
-658.4267578125
 30
0.0
 10
304.9970703125
 20
-658.4267578125
 30
0.0
 10
304.9970703125
 20
-658.4267578125
 30
0.0
 10
304.6376953125
 20
-675.251953125
 30
0.0
 10
313.9423828125
 20
-695.6982421875
 30
0.0
 10
330.9697265625
 20
-715.2900390625
 30
0.0
 10
332.94921875
 20
-715.6572265625
 30
0.0
 10
334.9287109375
 20
-715.9951171875
 30
0.0
 10
336.91552734375
 20
-716.302734375
 30
0.0
  0
SPLINE
  5
47
330
3C
100
AcDbEntity
  8
Layer 1
370
     0
100
AcDbSpline
210
0.0
220
0.0
230
1.0
 70
    11
 71
     3
 72
    20
 73
    16
 74
     0
 42
0.0000000001
 43
0.0000000001
 40
0.0
 40
0.0
 40
0.0
 40
0.0
 40
1.0
 40
1.0
 40
1.0
 40
2.0
 40
2.0
 40
2.0
 40
3.0
 40
3.0
 40
3.0
 40
4.0
 40
4.0
 40
4.0
 40
5.0
 40
5.0
 40
5.0
 40
5.0
 10
558.05859375
 20
-705.4609375
 30
0.0
 10
565.6240234375
 20
-702.4091796875
 30
0.0
 10
572.7998046875
 20
-699.076171875
 30
0.0
 10
579.529296875
 20
-695.7587890625
 30
0.0
 10
574.408203125
 20
-682.6220703125
 30
0.0
 10
571.3935546875
 20
-670.09375
 30
0.0
 10
570.54296875
 20
-658.4267578125
 30
0.0
 10
570.54296875
 20
-658.4267578125
 30
0.0
 10
557.841796875
 20
-658.4267578125
 30
0.0
 10
557.841796875
 20
-658.4267578125
 30
0.0
 10
557.841796875
 20
-658.4267578125
 30
0.0
 10
557.841796875
 20
-667.484375
 30
0.0
 10
557.841796875
 20
-667.484375
 30
0.0
 10
557.841796875
 20
-681.201171875
 30
0.0
 10
557.916015625
 20
-693.81640625
 30
0.0
 10
558.05859375
 20
-705.4609375
 30
0.0
  0
SPLINE
  5
48
330
3C
100
AcDbEntity
  8
Layer 1
370
     0
100
AcDbSpline
210
0.0
220
0.0
230
1.0
 70
    11
 71
     3
 72
    20
 73
    16
 74
     0
 42
0.0000000001
 43
0.0000000001
 40
0.0
 40
0.0
 40
0.0
 40
0.0
 40
1.0
 40
1.0
 40
1.0
 40
2.0
 40
2.0
 40
2.0
 40
3.0
 40
3.0
 40
3.0
 40
4.0
 40
4.0
 40
4.0
 40
5.0
 40
5.0
 40
5.0
 40
5.0
 10
645.0859375
 20
-411.50244140625
 30
0.0
 10
647.6650390625
 20
-411.8095703125
 30
0.0
 10
650.28125
 20
-412.1171875
 30
0.0
 10
652.9169921875
 20
-412.447265625
 30
0.0
 10
640.474609375
 20
-401.74755859375
 30
0.0
 10
627.3984375
 20
-393.8974609375
 30
0.0
 10
616.572265625
 20
-390.7861328125
 30
0.0
 10
600.373046875
 20
-386.13720703125
 30
0.0
 10
579.7802734375
 20
-386.18212890625
 30
0.0
 10
560.3642578125
 20
-390.80078125
 30
0.0
 10
581.9619140625
 20
-400.0908203125
 30
0.0
 10
606.7236328125
 20
-406.59130859375
 30
0.0
 10
634.1318359375
 20
-410.16015625
 30
0.0
 10
637.7490234375
 20
-410.6328125
 30
0.0
 10
641.404296875
 20
-411.0673828125
 30
0.0
 10
645.0859375
 20
-411.50244140625
 30
0.0
  0
SPLINE
  5
49
330
3C
100
AcDbEntity
  8
Layer 1
370
     0
100
AcDbSpline
210
0.0
220
0.0
230
1.0
 70
    11
 71
     3
 72
    20
 73
    16
 74
     0
 42
0.0000000001
 43
0.0000000001
 40
0.0
 40
0.0
 40
0.0
 40
0.0
 40
1.0
 40
1.0
 40
1.0
 40
2.0
 40
2.0
 40
2.0
 40
3.0
 40
3.0
 40
3.0
 40
4.0
 40
4.0
 40
4.0
 40
5.0
 40
5.0
 40
5.0
 40
5.0
 10
355.31494140625
 20
-732.662109375
 30
0.0
 10
352.73583984375
 20
-732.35546875
 30
0.0
 10
350.119140625
 20
-732.0478515625
 30
0.0
 10
347.4951171875
 20
-731.7177734375
 30
0.0
 10
359.93359375
 20
-742.4169921875
 30
0.0
 10
373.005859375
 20
-750.267578125
 30
0.0
 10
383.8330078125
 20
-753.37890625
 30
0.0
 10
400.03173828125
 20
-758.02734375
 30
0.0
 10
420.62841796875
 20
-757.982421875
 30
0.0
 10
440.0400390625
 20
-753.3642578125
 30
0.0
 10
418.43896484375
 20
-744.07421875
 30
0.0
 10
393.68115234375
 20
-737.5732421875
 30
0.0
 10
366.27685546875
 20
-734.01171875
 30
0.0
 10
362.6552734375
 20
-733.5400390625
 30
0.0
 10
358.99658203125
 20
-733.1044921875
 30
0.0
 10
355.31494140625
 20
-732.662109375
 30
0.0
  0
SPLINE
  5
4A
330
3C
100
AcDbEntity
  8
Layer 1
370
     0
100
AcDbSpline
210
0.0
220
0.0
230
1.0
 70
    11
 71
     3
 72
    20
 73
    16
 74
     0
 42
0.0000000001
 43
0.0000000001
 40
0.0
 40
0.0
 40
0.0
 40
0.0
 40
1.0
 40
1.0
 40
1.0
 40
2.0
 40
2.0
 40
2.0
 40
3.0
 40
3.0
 40
3.0
 40
4.0
 40
4.0
 40
4.0
 40
5.0
 40
5.0
 40
5.0
 40
5.0
 10
402.4384765625
 20
-457.8984375
 30
0.0
 10
399.61572265625
 20
-459.3984375
 30
0.0
 10
396.79296875
 20
-460.91259765625
 30
0.0
 10
393.9697265625
 20
-462.419921875
 30
0.0
 10
378.65185546875
 20
-470.607421875
 30
0.0
 10
362.966796875
 20
-478.99755859375
 30
0.0
 10
346.666015625
 20
-485.7451171875
 30
0.0
 10
346.666015625
 20
-485.7451171875
 30
0.0
 10
410.73876953125
 20
-485.7451171875
 30
0.0
 10
410.73876953125
 20
-485.7451171875
 30
0.0
 10
410.73876953125
 20
-485.7451171875
 30
0.0
 10
410.24755859375
 20
-484.0361328125
 30
0.0
 10
410.24755859375
 20
-484.0361328125
 30
0.0
 10
407.7958984375
 20
-475.443359375
 30
0.0
 10
405.26904296875
 20
-466.603515625
 30
0.0
 10
402.4384765625
 20
-457.8984375
 30
0.0
  0
SPLINE
  5
4B
330
3C
100
AcDbEntity
  8
Layer 1
370
     0
100
AcDbSpline
210
0.0
220
0.0
230
1.0
 70
    11
 71
     3
 72
    80
 73
    76
 74
     0
 42
0.0000000001
 43
0.0000000001
 40
0.0
 40
0.0
 40
0.0
 40
0.0
 40
1.0
 40
1.0
 40
1.0
 40
2.0
 40
2.0
 40
2.0
 40
3.0
 40
3.0
 40
3.0
 40
4.0
 40
4.0
 40
4.0
 40
5.0
 40
5.0
 40
5.0
 40
6.0
 40
6.0
 40
6.0
 40
7.0
 40
7.0
 40
7.0
 40
8.0
 40
8.0
 40
8.0
 40
9.0
 40
9.0
 40
9.0
 40
10.0
 40
10.0
 40
10.0
 40
11.0
 40
11.0
 40
11.0
 40
12.0
 40
12.0
 40
12.0
 40
13.0
 40
13.0
 40
13.0
 40
14.0
 40
14.0
 40
14.0
 40
15.0
 40
15.0
 40
15.0
 40
16.0
 40
16.0
 40
16.0
 40
17.0
 40
17.0
 40
17.0
 40
18.0
 40
18.0
 40
18.0
 40
19.0
 40
19.0
 40
19.0
 40
20.0
 40
20.0
 40
20.0
 40
21.0
 40
21.0
 40
21.0
 40
22.0
 40
22.0
 40
22.0
 40
23.0
 40
23.0
 40
23.0
 40
24.0
 40
24.0
 40
24.0
 40
25.0
 40
25.0
 40
25.0
 40
25.0
 10
388.646484375
 20
-443.578125
 30
0.0
 10
391.0380859375
 20
-442.36328125
 30
0.0
 10
393.4638671875
 20
-441.1337890625
 30
0.0
 10
395.91943359375
 20
-439.896484375
 30
0.0
 10
389.9287109375
 20
-425.140625
 30
0.0
 10
383.23291015625
 20
-413.57177734375
 30
0.0
 10
375.5029296875
 20
-404.61181640625
 30
0.0
 10
355.26611328125
 20
-381.1435546875
 30
0.0
 10
328.04931640625
 20
-368.2177734375
 30
0.0
 10
298.87890625
 20
-368.2177734375
 30
0.0
 10
268.9404296875
 20
-368.322265625
 30
0.0
 10
242.47314453125
 20
-382.15576171875
 30
0.0
 10
222.00048828125
 20
-408.21826171875
 30
0.0
 10
215.77734375
 20
-416.1357421875
 30
0.0
 10
209.955078125
 20
-424.69091796875
 30
0.0
 10
204.32470703125
 20
-432.96875
 30
0.0
 10
192.36572265625
 20
-450.54345703125
 30
0.0
 10
180.001953125
 20
-468.7177734375
 30
0.0
 10
162.83544921875
 20
-482.333984375
 30
0.0
 10
161.34375
 20
-483.51123046875
 30
0.0
 10
159.8251953125
 20
-484.65087890625
 30
0.0
 10
158.2880859375
 20
-485.7451171875
 30
0.0
 10
158.2880859375
 20
-485.7451171875
 30
0.0
 10
238.77685546875
 20
-485.7451171875
 30
0.0
 10
238.77685546875
 20
-485.7451171875
 30
0.0
 10
237.82470703125
 20
-485.025390625
 30
0.0
 10
236.89501953125
 20
-484.27587890625
 30
0.0
 10
235.98779296875
 20
-483.51123046875
 30
0.0
 10
217.9853515625
 20
-468.185546875
 30
0.0
 10
211.41357421875
 20
-442.1982421875
 30
0.0
 10
219.634765625
 20
-418.85009765625
 30
0.0
 10
227.26416015625
 20
-397.2041015625
 30
0.0
 10
247.8193359375
 20
-381.49609375
 30
0.0
 10
268.51318359375
 20
-381.49609375
 30
0.0
 10
271.4521484375
 20
-381.49609375
 30
0.0
 10
274.40625
 20
-381.8037109375
 30
0.0
 10
277.29296875
 20
-382.4033203125
 30
0.0
 10
289.01953125
 20
-384.83251953125
 30
0.0
 10
298.43310546875
 20
-392.4580078125
 30
0.0
 10
303.115234375
 20
-403.32958984375
 30
0.0
 10
307.82421875
 20
-414.26171875
 30
0.0
 10
306.8603515625
 20
-426.91015625
 30
0.0
 10
300.5361328125
 20
-437.15966796875
 30
0.0
 10
297.94580078125
 20
-441.35107421875
 30
0.0
 10
294.0244140625
 20
-443.66796875
 30
0.0
 10
289.49560546875
 20
-443.66796875
 30
0.0
 10
283.69970703125
 20
-443.66796875
 30
0.0
 10
278.0205078125
 20
-439.79150390625
 30
0.0
 10
275.6884765625
 20
-434.2431640625
 30
0.0
 10
273.4619140625
 20
-428.9423828125
 30
0.0
 10
274.69140625
 20
-423.3486328125
 30
0.0
 10
279.05517578125
 20
-418.89501953125
 30
0.0
 10
280.16455078125
 20
-417.75537109375
 30
0.0
 10
280.56201171875
 20
-416.54833984375
 30
0.0
 10
280.30712890625
 20
-415.07861328125
 30
0.0
 10
279.79736328125
 20
-412.1396484375
 30
0.0
 10
276.86572265625
 20
-409.04296875
 30
0.0
 10
274.44384765625
 20
-407.86572265625
 30
0.0
 10
271.1337890625
 20
-406.25390625
 30
0.0
 10
266.76220703125
 20
-406.5087890625
 30
0.0
 10
260.8427734375
 20
-408.67578125
 30
0.0
 10
252.8427734375
 20
-411.599609375
 30
0.0
 10
246.64208984375
 20
-418.16015625
 30
0.0
 10
243.38037109375
 20
-427.15771484375
 30
0.0
 10
237.2998046875
 20
-443.90771484375
 30
0.0
 10
243.77783203125
 20
-461.53515625
 30
0.0
 10
259.13330078125
 20
-470.0302734375
 30
0.0
 10
267.79345703125
 20
-474.8212890625
 30
0.0
 10
277.97900390625
 20
-477.2431640625
 30
0.0
 10
289.4130859375
 20
-477.2431640625
 30
0.0
 10
313.076171875
 20
-477.2431640625
 30
0.0
 10
338.1787109375
 20
-467.38330078125
 30
0.0
 10
361.78564453125
 20
-456.72900390625
 30
0.0
 10
370.02197265625
 20
-453.009765625
 30
0.0
 10
379.064453125
 20
-448.4287109375
 30
0.0
 10
388.646484375
 20
-443.578125
 30
0.0
  0
SPLINE
  5
4C
330
3C
100
AcDbEntity
  8
Layer 1
370
     0
100
AcDbSpline
210
0.0
220
0.0
230
1.0
 70
    11
 71
     3
 72
   299
 73
   295
 74
     0
 42
0.0000000001
 43
0.0000000001
 40
0.0
 40
0.0
 40
0.0
 40
0.0
 40
1.0
 40
1.0
 40
1.0
 40
2.0
 40
2.0
 40
2.0
 40
3.0
 40
3.0
 40
3.0
 40
4.0
 40
4.0
 40
4.0
 40
5.0
 40
5.0
 40
5.0
 40
6.0
 40
6.0
 40
6.0
 40
7.0
 40
7.0
 40
7.0
 40
8.0
 40
8.0
 40
8.0
 40
9.0
 40
9.0
 40
9.0
 40
10.0
 40
10.0
 40
10.0
 40
11.0
 40
11.0
 40
11.0
 40
12.0
 40
12.0
 40
12.0
 40
13.0
 40
13.0
 40
13.0
 40
14.0
 40
14.0
 40
14.0
 40
15.0
 40
15.0
 40
15.0
 40
16.0
 40
16.0
 40
16.0
 40
17.0
 40
17.0
 40
17.0
 40
18.0
 40
18.0
 40
18.0
 40
19.0
 40
19.0
 40
19.0
 40
20.0
 40
20.0
 40
20.0
 40
21.0
 40
21.0
 40
21.0
 40
22.0
 40
22.0
 40
22.0
 40
23.0
 40
23.0
 40
23.0
 40
24.0
 40
24.0
 40
24.0
 40
25.0
 40
25.0
 40
25.0
 40
26.0
 40
26.0
 40
26.0
 40
27.0
 40
27.0
 40
27.0
 40
28.0
 40
28.0
 40
28.0
 40
29.0
 40
29.0
 40
29.0
 40
30.0
 40
30.0
 40
30.0
 40
31.0
 40
31.0
 40
31.0
 40
32.0
 40
32.0
 40
32.0
 40
33.0
 40
33.0
 40
33.0
 40
34.0
 40
34.0
 40
34.0
 40
35.0
 40
35.0
 40
35.0
 40
36.0
 40
36.0
 40
36.0
 40
37.0
 40
37.0
 40
37.0
 40
38.0
 40
38.0
 40
38.0
 40
39.0
 40
39.0
 40
39.0
 40
40.0
 40
40.0
 40
40.0
 40
41.0
 40
41.0
 40
41.0
 40
42.0
 40
42.0
 40
42.0
 40
43.0
 40
43.0
 40
43.0
 40
44.0
 40
44.0
 40
44.0
 40
45.0
 40
45.0
 40
45.0
 40
46.0
 40
46.0
 40
46.0
 40
47.0
 40
47.0
 40
47.0
 40
48.0
 40
48.0
 40
48.0
 40
49.0
 40
49.0
 40
49.0
 40
50.0
 40
50.0
 40
50.0
 40
51.0
 40
51.0
 40
51.0
 40
52.0
 40
52.0
 40
52.0
 40
53.0
 40
53.0
 40
53.0
 40
54.0
 40
54.0
 40
54.0
 40
55.0
 40
55.0
 40
55.0
 40
56.0
 40
56.0
 40
56.0
 40
57.0
 40
57.0
 40
57.0
 40
58.0
 40
58.0
 40
58.0
 40
59.0
 40
59.0
 40
59.0
 40
60.0
 40
60.0
 40
60.0
 40
61.0
 40
61.0
 40
61.0
 40
62.0
 40
62.0
 40
62.0
 40
63.0
 40
63.0
 40
63.0
 40
64.0
 40
64.0
 40
64.0
 40
65.0
 40
65.0
 40
65.0
 40
66.0
 40
66.0
 40
66.0
 40
67.0
 40
67.0
 40
67.0
 40
68.0
 40
68.0
 40
68.0
 40
69.0
 40
69.0
 40
69.0
 40
70.0
 40
70.0
 40
70.0
 40
71.0
 40
71.0
 40
71.0
 40
72.0
 40
72.0
 40
72.0
 40
73.0
 40
73.0
 40
73.0
 40
74.0
 40
74.0
 40
74.0
 40
75.0
 40
75.0
 40
75.0
 40
76.0
 40
76.0
 40
76.0
 40
77.0
 40
77.0
 40
77.0
 40
78.0
 40
78.0
 40
78.0
 40
79.0
 40
79.0
 40
79.0
 40
80.0
 40
80.0
 40
80.0
 40
81.0
 40
81.0
 40
81.0
 40
82.0
 40
82.0
 40
82.0
 40
83.0
 40
83.0
 40
83.0
 40
84.0
 40
84.0
 40
84.0
 40
85.0
 40
85.0
 40
85.0
 40
86.0
 40
86.0
 40
86.0
 40
87.0
 40
87.0
 40
87.0
 40
88.0
 40
88.0
 40
88.0
 40
89.0
 40
89.0
 40
89.0
 40
90.0
 40
90.0
 40
90.0
 40
91.0
 40
91.0
 40
91.0
 40
92.0
 40
92.0
 40
92.0
 40
93.0
 40
93.0
 40
93.0
 40
94.0
 40
94.0
 40
94.0
 40
95.0
 40
95.0
 40
95.0
 40
96.0
 40
96.0
 40
96.0
 40
97.0
 40
97.0
 40
97.0
 40
98.0
 40
98.0
 40
98.0
 40
98.0
 10
481.0419921875
 20
-875.0908203125
 30
0.0
 10
482.458984375
 20
-875.6943359375
 30
0.0
 10
484.041015625
 20
-876.05078125
 30
0.0
 10
485.7763671875
 20
-876.05078125
 30
0.0
 10
487.05859375
 20
-876.05078125
 30
0.0
 10
488.37060546875
 20
-875.85546875
 30
0.0
 10
489.67919921875
 20
-875.4658203125
 30
0.0
 10
490.0615234375
 20
-875.3525390625
 30
0.0
 10
490.4287109375
 20
-875.2109375
 30
0.0
 10
490.8037109375
 20
-875.0908203125
 30
0.0
 10
490.8037109375
 20
-875.0908203125
 30
0.0
 10
682.5224609375
 20
-875.0908203125
 30
0.0
 10
682.5224609375
 20
-875.0908203125
 30
0.0
 10
682.5224609375
 20
-875.0908203125
 30
0.0
 10
682.5224609375
 20
-848.03125
 30
0.0
 10
682.5224609375
 20
-848.03125
 30
0.0
 10
682.5224609375
 20
-848.03125
 30
0.0
 10
658.994140625
 20
-848.03125
 30
0.0
 10
658.994140625
 20
-848.03125
 30
0.0
 10
622.921875
 20
-848.03125
 30
0.0
 10
598.513671875
 20
-843.330078125
 30
0.0
 10
585.7783203125
 20
-833.919921875
 30
0.0
 10
573.0322265625
 20
-824.5107421875
 30
0.0
 10
565.193359375
 20
-810.099609375
 30
0.0
 10
562.25
 20
-790.6953125
 30
0.0
 10
560.337890625
 20
-778.0732421875
 30
0.0
 10
559.056640625
 20
-756.2353515625
 30
0.0
 10
558.384765625
 20
-725.2998046875
 30
0.0
 10
568.345703125
 20
-721.501953125
 30
0.0
 10
578.041015625
 20
-717.1572265625
 30
0.0
 10
587.2216796875
 20
-712.7705078125
 30
0.0
 10
599.2626953125
 20
-736.26171875
 30
0.0
 10
616.193359375
 20
-757.6826171875
 30
0.0
 10
633.0107421875
 20
-770.5712890625
 30
0.0
 10
652.4375
 20
-785.4697265625
 30
0.0
 10
676.72265625
 20
-793.671875
 30
0.0
 10
701.390625
 20
-793.671875
 30
0.0
 10
718.267578125
 20
-793.671875
 30
0.0
 10
735.0927734375
 20
-789.765625
 30
0.0
 10
750.05859375
 20
-782.365234375
 30
0.0
 10
757.552734375
 20
-778.6611328125
 30
0.0
 10
764.6796875
 20
-773.8408203125
 30
0.0
 10
771.64453125
 20
-767.759765625
 30
0.0
 10
770.2724609375
 20
-777.9638671875
 30
0.0
 10
769.8603515625
 20
-790.0361328125
 30
0.0
 10
774.7978515625
 20
-800.1279296875
 30
0.0
 10
776.615234375
 20
-803.83203125
 30
0.0
 10
780.0390625
 20
-805.953125
 30
0.0
 10
784.1884765625
 20
-805.953125
 30
0.0
 10
787.7646484375
 20
-805.953125
 30
0.0
 10
791.3671875
 20
-804.341796875
 30
0.0
 10
793.8271484375
 20
-801.642578125
 30
0.0
 10
796.0048828125
 20
-799.25
 30
0.0
 10
797.046875
 20
-796.244140625
 30
0.0
 10
796.7587890625
 20
-793.1845703125
 30
0.0
 10
796.2978515625
 20
-788.3037109375
 30
0.0
 10
795.060546875
 20
-783.7001953125
 30
0.0
 10
793.8603515625
 20
-779.2392578125
 30
0.0
 10
792.541015625
 20
-774.328125
 30
0.0
 10
791.296875
 20
-769.6865234375
 30
0.0
 10
791.048828125
 20
-764.7978515625
 30
0.0
 10
790.853515625
 20
-760.869140625
 30
0.0
 10
791.57421875
 20
-756.873046875
 30
0.0
 10
792.3427734375
 20
-752.64453125
 30
0.0
 10
792.85546875
 20
-749.802734375
 30
0.0
 10
793.388671875
 20
-746.87109375
 30
0.0
 10
793.6357421875
 20
-743.89453125
 30
0.0
 10
797.857421875
 20
-738.48828125
 30
0.0
 10
801.9580078125
 20
-732.8427734375
 30
0.0
 10
805.951171875
 20
-727.3017578125
 30
0.0
 10
806.0
 20
-734.619140625
 30
0.0
 10
807.048828125
 20
-741.0751953125
 30
0.0
 10
807.6943359375
 20
-744.3818359375
 30
0.0
 10
808.59765625
 20
-748.962890625
 30
0.0
 10
812.275390625
 20
-751.9248046875
 30
0.0
 10
817.07421875
 20
-751.9248046875
 30
0.0
 10
820.8828125
 20
-751.9248046875
 30
0.0
 10
824.662109375
 20
-750.0126953125
 30
0.0
 10
826.689453125
 20
-747.05078125
 30
0.0
 10
828.5
 20
-744.412109375
 30
0.0
 10
828.830078125
 20
-741.232421875
 30
0.0
 10
827.615234375
 20
-738.0986328125
 30
0.0
 10
825.34765625
 20
-732.220703125
 30
0.0
 10
823.447265625
 20
-726.8671875
 30
0.0
 10
823.1923828125
 20
-720.8232421875
 30
0.0
 10
823.0986328125
 20
-718.5595703125
 30
0.0
 10
823.19921875
 20
-716.25
 30
0.0
 10
823.3125
 20
-713.8056640625
 30
0.0
 10
823.455078125
 20
-710.57421875
 30
0.0
 10
823.6044921875
 20
-707.2529296875
 30
0.0
 10
823.2744140625
 20
-703.8935546875
 30
0.0
 10
826.4833984375
 20
-699.8525390625
 30
0.0
 10
829.52734375
 20
-696.2685546875
 30
0.0
 10
832.51953125
 20
-693.0146484375
 30
0.0
 10
832.462890625
 20
-700.9541015625
 30
0.0
 10
834.57421875
 20
-708.7822265625
 30
0.0
 10
838.607421875
 20
-714.5107421875
 30
0.0
 10
840.6318359375
 20
-717.3974609375
 30
0.0
 10
844.6357421875
 20
-718.708984375
 30
0.0
 10
847.720703125
 20
-717.45703125
 30
0.0
 10
849.037109375
 20
-716.9248046875
 30
0.0
 10
849.884765625
 20
-716.2421875
 30
0.0
 10
850.619140625
 20
-715.5751953125
 30
0.0
 10
852.71875
 20
-713.640625
 30
0.0
 10
853.46484375
 20
-710.146484375
 30
0.0
 10
852.3544921875
 20
-707.447265625
 30
0.0
 10
852.3544921875
 20
-707.447265625
 30
0.0
 10
852.15625
 20
-706.9599609375
 30
0.0
 10
852.15625
 20
-706.9599609375
 30
0.0
 10
849.9814453125
 20
-701.6591796875
 30
0.0
 10
848.099609375
 20
-697.078125
 30
0.0
 10
848.1748046875
 20
-691.634765625
 30
0.0
 10
848.25
 20
-685.9287109375
 30
0.0
 10
850.4013671875
 20
-680.560546875
 30
0.0
 10
852.53515625
 20
-675.357421875
 30
0.0
 10
853.8876953125
 20
-674.427734375
 30
0.0
 10
855.263671875
 20
-673.52734375
 30
0.0
 10
856.6806640625
 20
-672.6728515625
 30
0.0
 10
866.6044921875
 20
-666.697265625
 30
0.0
 10
878.68359375
 20
-663.2626953125
 30
0.0
 10
889.8095703125
 20
-663.2626953125
 30
0.0
 10
900.958984375
 20
-663.2626953125
 30
0.0
 10
920.7080078125
 20
-666.689453125
 30
0.0
 10
927.666015625
 20
-689.6474609375
 30
0.0
 10
931.828125
 20
-703.3837890625
 30
0.0
 10
926.826171875
 20
-718.76171875
 30
0.0
 10
915.7822265625
 20
-726.20703125
 30
0.0
 10
909.01953125
 20
-730.7578125
 30
0.0
 10
901.4912109375
 20
-731.185546875
 30
0.0
 10
895.3955078125
 20
-727.33203125
 30
0.0
 10
892.201171875
 20
-725.26953125
 30
0.0
 10
889.7646484375
 20
-722.5478515625
 30
0.0
 10
887.890625
 20
-718.9189453125
 30
0.0
 10
887.703125
 20
-718.57421875
 30
0.0
 10
887.5341796875
 20
-718.2373046875
 30
0.0
 10
887.380859375
 20
-717.8994140625
 30
0.0
 10
887.4140625
 20
-717.8994140625
 30
0.0
 10
887.4482421875
 20
-717.8994140625
 30
0.0
 10
887.4853515625
 20
-717.8994140625
 30
0.0
 10
893.0263671875
 20
-717.8994140625
 30
0.0
 10
898.259765625
 20
-715.3876953125
 30
0.0
 10
901.4765625
 20
-711.173828125
 30
0.0
 10
904.7607421875
 20
-706.8779296875
 30
0.0
 10
905.6484375
 20
-701.1572265625
 30
0.0
 10
903.98828125
 20
-695.0537109375
 30
0.0
 10
901.904296875
 20
-687.3984375
 30
0.0
 10
895.4482421875
 20
-682.45703125
 30
0.0
 10
887.5380859375
 20
-682.45703125
 30
0.0
 10
884.7265625
 20
-682.45703125
 30
0.0
 10
881.84765625
 20
-683.0947265625
 30
0.0
 10
879.2001953125
 20
-684.31640625
 30
0.0
 10
867.3203125
 20
-689.7978515625
 30
0.0
 10
863.9013671875
 20
-703.923828125
 30
0.0
 10
864.580078125
 20
-714.3525390625
 30
0.0
 10
865.9443359375
 20
-735.3466796875
 30
0.0
 10
883.5830078125
 20
-752.4189453125
 30
0.0
 10
903.8984375
 20
-752.4189453125
 30
0.0
 10
906.234375
 20
-752.4189453125
 30
0.0
 10
908.5771484375
 20
-752.1865234375
 30
0.0
 10
910.8671875
 20
-751.7294921875
 30
0.0
 10
932.337890625
 20
-747.4482421875
 30
0.0
 10
949.6123046875
 20
-725.134765625
 30
0.0
 10
950.189453125
 20
-700.931640625
 30
0.0
 10
950.7744140625
 20
-676.751953125
 30
0.0
 10
935.62890625
 20
-653.951171875
 30
0.0
 10
913.353515625
 20
-645.4931640625
 30
0.0
 10
909.37890625
 20
-643.986328125
 30
0.0
 10
905.2255859375
 20
-642.8916015625
 30
0.0
 10
900.958984375
 20
-642.224609375
 30
0.0
 10
900.958984375
 20
-642.224609375
 30
0.0
 10
900.958984375
 20
-641.2724609375
 30
0.0
 10
900.958984375
 20
-641.2724609375
 30
0.0
 10
900.958984375
 20
-641.2724609375
 30
0.0
 10
96.896484375
 20
-641.2724609375
 30
0.0
 10
96.896484375
 20
-641.2724609375
 30
0.0
 10
96.896484375
 20
-641.2724609375
 30
0.0
 10
96.896484375
 20
-658.4267578125
 30
0.0
 10
96.896484375
 20
-658.4267578125
 30
0.0
 10
96.896484375
 20
-658.4267578125
 30
0.0
 10
239.54931640625
 20
-658.4267578125
 30
0.0
 10
239.54931640625
 20
-658.4267578125
 30
0.0
 10
229.509765625
 20
-663.3984375
 30
0.0
 10
219.923828125
 20
-669.3662109375
 30
0.0
 10
210.896484375
 20
-676.279296875
 30
0.0
 10
202.30029296875
 20
-680.2607421875
 30
0.0
 10
195.068359375
 20
-683.2822265625
 30
0.0
 10
187.31201171875
 20
-683.2822265625
 30
0.0
 10
183.626953125
 20
-683.2822265625
 30
0.0
 10
180.0390625
 20
-682.599609375
 30
0.0
 10
176.35009765625
 20
-681.1904296875
 30
0.0
 10
171.904296875
 20
-679.48828125
 30
0.0
 10
166.126953125
 20
-677.1416015625
 30
0.0
 10
160.90478515625
 20
-674.0595703125
 30
0.0
 10
160.90478515625
 20
-674.0595703125
 30
0.0
 10
158.97802734375
 20
-672.9052734375
 30
0.0
 10
158.97802734375
 20
-672.9052734375
 30
0.0
 10
155.154296875
 20
-670.5654296875
 30
0.0
 10
151.5400390625
 20
-668.361328125
 30
0.0
 10
145.52685546875
 20
-668.1962890625
 30
0.0
 10
142.72265625
 20
-668.1962890625
 30
0.0
 10
140.0908203125
 20
-669.494140625
 30
0.0
 10
138.306640625
 20
-671.7431640625
 30
0.0
 10
136.4248046875
 20
-674.1201171875
 30
0.0
 10
135.7158203125
 20
-677.2841796875
 30
0.0
 10
136.40966796875
 20
-680.2001953125
 30
0.0
 10
140.810546875
 20
-698.6298828125
 30
0.0
 10
165.7373046875
 20
-700.0625
 30
0.0
 10
173.2724609375
 20
-700.0625
 30
0.0
 10
175.75048828125
 20
-700.0625
 30
0.0
 10
178.1572265625
 20
-699.9345703125
 30
0.0
 10
180.42919921875
 20
-699.6796875
 30
0.0
 10
182.28125
 20
-699.4775390625
 30
0.0
 10
184.515625
 20
-699.162109375
 30
0.0
 10
186.9970703125
 20
-698.6748046875
 30
0.0
 10
185.94384765625
 20
-699.904296875
 30
0.0
 10
184.9052734375
 20
-701.1572265625
 30
0.0
 10
183.89306640625
 20
-702.431640625
 30
0.0
 10
183.072265625
 20
-702.7314453125
 30
0.0
 10
182.3525390625
 20
-703.255859375
 30
0.0
 10
181.80859375
 20
-703.9755859375
 30
0.0
 10
179.01953125
 20
-707.6728515625
 30
0.0
 10
176.1552734375
 20
-711.6767578125
 30
0.0
 10
173.18603515625
 20
-715.8154296875
 30
0.0
 10
154.6142578125
 20
-741.7421875
 30
0.0
 10
133.560546875
 20
-771.291015625
 30
0.0
 10
101.76220703125
 20
-768.9140625
 30
0.0
 10
94.744140625
 20
-768.3671875
 30
0.0
 10
89.728515625
 20
-773.068359375
 30
0.0
 10
89.41357421875
 20
-779.9287109375
 30
0.0
 10
89.12841796875
 20
-786.1142578125
 30
0.0
 10
93.169921875
 20
-793.0947265625
 30
0.0
 10
101.22265625
 20
-793.8369140625
 30
0.0
 10
122.05126953125
 20
-795.771484375
 30
0.0
 10
136.6796875
 20
-782.7255859375
 30
0.0
 10
148.03125
 20
-770.001953125
 30
0.0
 10
150.587890625
 20
-767.1376953125
 30
0.0
 10
153.20849609375
 20
-764.1904296875
 30
0.0
 10
155.83642578125
 20
-761.1689453125
 30
0.0
 10
150.7451171875
 20
-786.3916015625
 30
0.0
 10
154.23193359375
 20
-810.9541015625
 30
0.0
 10
166.1083984375
 20
-831.7685546875
 30
0.0
 10
169.25732421875
 20
-837.2939453125
 30
0.0
 10
173.0888671875
 20
-842.5498046875
 30
0.0
 10
177.5234375
 20
-847.4091796875
 30
0.0
 10
177.65478515625
 20
-850.0556640625
 30
0.0
 10
177.98486328125
 20
-852.6572265625
 30
0.0
 10
178.3037109375
 20
-855.19140625
 30
0.0
 10
178.697265625
 20
-858.3251953125
 30
0.0
 10
179.072265625
 20
-861.279296875
 30
0.0
 10
179.07958984375
 20
-864.2109375
 30
0.0
 10
179.109375
 20
-873.388671875
 30
0.0
 10
176.95751953125
 20
-881.3515625
 30
0.0
 10
172.09912109375
 20
-890.0341796875
 30
0.0
 10
171.806640625
 20
-890.56640625
 30
0.0
 10
171.37158203125
 20
-891.2783203125
 30
0.0
 10
170.8544921875
 20
-892.140625
 30
0.0
 10
165.14111328125
 20
-901.6181640625
 30
0.0
 10
159.36767578125
 20
-912.3017578125
 30
0.0
 10
163.19140625
 20
-919.0654296875
 30
0.0
 10
164.40625
 20
-921.216796875
 30
0.0
 10
167.07568359375
 20
-923.7734375
 30
0.0
 10
172.919921875
 20
-923.7734375
 30
0.0
 10
173.2763671875
 20
-923.7734375
 30
0.0
 10
173.6435546875
 20
-923.7666015625
 30
0.0
 10
174.0224609375
 20
-923.744140625
 30
0.0
 10
192.01318359375
 20
-922.859375
 30
0.0
 10
194.82861328125
 20
-893.4150390625
 30
0.0
 10
195.8896484375
 20
-882.3330078125
 30
0.0
 10
196.376953125
 20
-877.2802734375
 30
0.0
 10
197.0439453125
 20
-870.3740234375
 30
0.0
 10
196.78564453125
 20
-863.333984375
 30
0.0
 10
210.32666015625
 20
-871.6337890625
 30
0.0
 10
225.79052734375
 20
-876.140625
 30
0.0
 10
241.10107421875
 20
-876.140625
 30
0.0
 10
254.353515625
 20
-876.140625
 30
0.0
 10
267.283203125
 20
-872.7138671875
 30
0.0
 10
278.56005859375
 20
-866.220703125
 30
0.0
 10
284.17578125
 20
-865.8310546875
 30
0.0
 10
289.5517578125
 20
-866.302734375
 30
0.0
 10
294.41064453125
 20
-867.720703125
 30
0.0
 10
297.5185546875
 20
-868.6201171875
 30
0.0
 10
300.611328125
 20
-871.0791015625
 30
0.0
 10
303.8876953125
 20
-873.6884765625
 30
0.0
 10
308.7724609375
 20
-877.572265625
 30
0.0
 10
313.822265625
 20
-881.583984375
 30
0.0
 10
320.29296875
 20
-881.583984375
 30
0.0
 10
321.64990234375
 20
-881.583984375
 30
0.0
 10
323.0146484375
 20
-881.396484375
 30
0.0
 10
324.3564453125
 20
-881.029296875
 30
0.0
 10
327.404296875
 20
-880.1923828125
 30
0.0
 10
329.74755859375
 20
-877.955078125
 30
0.0
 10
330.8271484375
 20
-875.0908203125
 30
0.0
 10
330.8271484375
 20
-875.0908203125
 30
0.0
 10
481.0419921875
 20
-875.0908203125
 30
0.0
 10
481.0419921875
 20
-875.0908203125
 30
0.0
  0
SPLINE
  5
4D
330
3C
100
AcDbEntity
  8
Layer 1
370
     0
100
AcDbSpline
210
0.0
220
0.0
230
1.0
 70
    11
 71
     3
 72
    80
 73
    76
 74
     0
 42
0.0000000001
 43
0.0000000001
 40
0.0
 40
0.0
 40
0.0
 40
0.0
 40
1.0
 40
1.0
 40
1.0
 40
2.0
 40
2.0
 40
2.0
 40
3.0
 40
3.0
 40
3.0
 40
4.0
 40
4.0
 40
4.0
 40
5.0
 40
5.0
 40
5.0
 40
6.0
 40
6.0
 40
6.0
 40
7.0
 40
7.0
 40
7.0
 40
8.0
 40
8.0
 40
8.0
 40
9.0
 40
9.0
 40
9.0
 40
10.0
 40
10.0
 40
10.0
 40
11.0
 40
11.0
 40
11.0
 40
12.0
 40
12.0
 40
12.0
 40
13.0
 40
13.0
 40
13.0
 40
14.0
 40
14.0
 40
14.0
 40
15.0
 40
15.0
 40
15.0
 40
16.0
 40
16.0
 40
16.0
 40
17.0
 40
17.0
 40
17.0
 40
18.0
 40
18.0
 40
18.0
 40
19.0
 40
19.0
 40
19.0
 40
20.0
 40
20.0
 40
20.0
 40
21.0
 40
21.0
 40
21.0
 40
22.0
 40
22.0
 40
22.0
 40
23.0
 40
23.0
 40
23.0
 40
24.0
 40
24.0
 40
24.0
 40
25.0
 40
25.0
 40
25.0
 40
25.0
 10
741.275390625
 20
-674.134765625
 30
0.0
 10
756.634765625
 20
-682.6220703125
 30
0.0
 10
763.1123046875
 20
-700.2568359375
 30
0.0
 10
757.03125
 20
-717.0068359375
 30
0.0
 10
753.7626953125
 20
-726.0048828125
 30
0.0
 10
747.5615234375
 20
-732.572265625
 30
0.0
 10
739.5654296875
 20
-735.4892578125
 30
0.0
 10
733.6533203125
 20
-737.6484375
 30
0.0
 10
729.2744140625
 20
-737.9111328125
 30
0.0
 10
725.96875
 20
-736.298828125
 30
0.0
 10
723.54296875
 20
-735.1220703125
 30
0.0
 10
720.611328125
 20
-732.033203125
 30
0.0
 10
720.1015625
 20
-729.0859375
 30
0.0
 10
719.845703125
 20
-727.6240234375
 30
0.0
 10
720.2470703125
 20
-726.4091796875
 30
0.0
 10
721.357421875
 20
-725.27734375
 30
0.0
 10
725.720703125
 20
-720.81640625
 30
0.0
 10
726.943359375
 20
-715.22265625
 30
0.0
 10
724.7158203125
 20
-709.9296875
 30
0.0
 10
722.384765625
 20
-704.380859375
 30
0.0
 10
716.708984375
 20
-700.5048828125
 30
0.0
 10
710.912109375
 20
-700.5048828125
 30
0.0
 10
706.3837890625
 20
-700.5048828125
 30
0.0
 10
702.462890625
 20
-702.8134765625
 30
0.0
 10
699.8759765625
 20
-707.0126953125
 30
0.0
 10
693.5517578125
 20
-717.26171875
 30
0.0
 10
692.587890625
 20
-729.9033203125
 30
0.0
 10
697.296875
 20
-740.8349609375
 30
0.0
 10
701.978515625
 20
-751.70703125
 30
0.0
 10
711.392578125
 20
-759.33203125
 30
0.0
 10
723.119140625
 20
-761.7685546875
 30
0.0
 10
726.005859375
 20
-762.369140625
 30
0.0
 10
728.9599609375
 20
-762.6689453125
 30
0.0
 10
731.8916015625
 20
-762.6689453125
 30
0.0
 10
752.5927734375
 20
-762.6689453125
 30
0.0
 10
773.15234375
 20
-746.9609375
 30
0.0
 10
780.76953125
 20
-725.322265625
 30
0.0
 10
788.998046875
 20
-701.966796875
 30
0.0
 10
782.4267578125
 20
-675.986328125
 30
0.0
 10
764.4208984375
 20
-660.6611328125
 30
0.0
 10
763.517578125
 20
-659.888671875
 30
0.0
 10
762.587890625
 20
-659.146484375
 30
0.0
 10
761.630859375
 20
-658.4267578125
 30
0.0
 10
761.630859375
 20
-658.4267578125
 30
0.0
 10
842.1240234375
 20
-658.4267578125
 30
0.0
 10
842.1240234375
 20
-658.4267578125
 30
0.0
 10
840.5791015625
 20
-659.5146484375
 30
0.0
 10
839.064453125
 20
-660.654296875
 30
0.0
 10
837.572265625
 20
-661.8388671875
 30
0.0
 10
820.41015625
 20
-675.447265625
 30
0.0
 10
808.04296875
 20
-693.6220703125
 30
0.0
 10
796.083984375
 20
-711.2041015625
 30
0.0
 10
790.453125
 20
-719.4736328125
 30
0.0
 10
784.630859375
 20
-728.029296875
 30
0.0
 10
778.408203125
 20
-735.9462890625
 30
0.0
 10
757.9384765625
 20
-762.0087890625
 30
0.0
 10
731.4716796875
 20
-775.8427734375
 30
0.0
 10
701.525390625
 20
-775.939453125
 30
0.0
 10
672.3515625
 20
-775.939453125
 30
0.0
 10
645.1455078125
 20
-763.021484375
 30
0.0
 10
624.9091796875
 20
-739.552734375
 30
0.0
 10
617.16796875
 20
-730.5859375
 30
0.0
 10
610.47265625
 20
-719.0166015625
 30
0.0
 10
604.4892578125
 20
-704.2685546875
 30
0.0
 10
606.9375
 20
-703.0390625
 30
0.0
 10
609.359375
 20
-701.8095703125
 30
0.0
 10
611.7470703125
 20
-700.6015625
 30
0.0
 10
621.3330078125
 20
-695.7431640625
 30
0.0
 10
630.38671875
 20
-691.1552734375
 30
0.0
 10
638.626953125
 20
-687.435546875
 30
0.0
 10
662.2294921875
 20
-676.78125
 30
0.0
 10
687.33984375
 20
-666.921875
 30
0.0
 10
710.9951171875
 20
-666.921875
 30
0.0
 10
722.4296875
 20
-666.921875
 30
0.0
 10
732.619140625
 20
-669.3515625
 30
0.0
 10
741.275390625
 20
-674.134765625
 30
0.0
  0
SPLINE
  5
4E
330
3C
100
AcDbEntity
  8
Layer 1
370
     0
100
AcDbSpline
210
0.0
220
0.0
230
1.0
 70
    11
 71
     3
 72
    20
 73
    16
 74
     0
 42
0.0000000001
 43
0.0000000001
 40
0.0
 40
0.0
 40
0.0
 40
0.0
 40
1.0
 40
1.0
 40
1.0
 40
2.0
 40
2.0
 40
2.0
 40
3.0
 40
3.0
 40
3.0
 40
4.0
 40
4.0
 40
4.0
 40
5.0
 40
5.0
 40
5.0
 40
5.0
 10
653.7421875
 20
-658.4267578125
 30
0.0
 10
637.44140625
 20
-665.16796875
 30
0.0
 10
621.7568359375
 20
-673.5576171875
 30
0.0
 10
606.4423828125
 20
-681.7451171875
 30
0.0
 10
603.619140625
 20
-683.251953125
 30
0.0
 10
600.796875
 20
-684.7666015625
 30
0.0
 10
597.9697265625
 20
-686.2666015625
 30
0.0
 10
595.1240234375
 20
-677.5166015625
 30
0.0
 10
592.5859375
 20
-668.6240234375
 30
0.0
 10
590.119140625
 20
-659.986328125
 30
0.0
 10
590.119140625
 20
-659.986328125
 30
0.0
 10
589.673828125
 20
-658.4267578125
 30
0.0
 10
589.673828125
 20
-658.4267578125
 30
0.0
 10
589.673828125
 20
-658.4267578125
 30
0.0
 10
653.7421875
 20
-658.4267578125
 30
0.0
 10
653.7421875
 20
-658.4267578125
 30
0.0
  0
SPLINE
  5
4F
330
3C
100
AcDbEntity
  8
Layer 1
370
     0
100
AcDbSpline
210
0.0
220
0.0
230
1.0
 70
    11
 71
     3
 72
    20
 73
    16
 74
     0
 42
0.0000000001
 43
0.0000000001
 40
0.0
 40
0.0
 40
0.0
 40
0.0
 40
1.0
 40
1.0
 40
1.0
 40
2.0
 40
2.0
 40
2.0
 40
3.0
 40
3.0
 40
3.0
 40
4.0
 40
4.0
 40
4.0
 40
5.0
 40
5.0
 40
5.0
 40
5.0
 10
570.54296875
 20
-658.4267578125
 30
0.0
 10
571.3935546875
 20
-670.09375
 30
0.0
 10
574.408203125
 20
-682.6220703125
 30
0.0
 10
579.529296875
 20
-695.7587890625
 30
0.0
 10
572.7998046875
 20
-699.076171875
 30
0.0
 10
565.6240234375
 20
-702.4091796875
 30
0.0
 10
558.05859375
 20
-705.4609375
 30
0.0
 10
557.916015625
 20
-693.81640625
 30
0.0
 10
557.841796875
 20
-681.201171875
 30
0.0
 10
557.841796875
 20
-667.484375
 30
0.0
 10
557.841796875
 20
-667.484375
 30
0.0
 10
557.841796875
 20
-658.4267578125
 30
0.0
 10
557.841796875
 20
-658.4267578125
 30
0.0
 10
557.841796875
 20
-658.4267578125
 30
0.0
 10
570.54296875
 20
-658.4267578125
 30
0.0
 10
570.54296875
 20
-658.4267578125
 30
0.0
  0
SPLINE
  5
50
330
3C
100
AcDbEntity
  8
Layer 1
370
     0
100
AcDbSpline
210
0.0
220
0.0
230
1.0
 70
    11
 71
     3
 72
    29
 73
    25
 74
     0
 42
0.0000000001
 43
0.0000000001
 40
0.0
 40
0.0
 40
0.0
 40
0.0
 40
1.0
 40
1.0
 40
1.0
 40
2.0
 40
2.0
 40
2.0
 40
3.0
 40
3.0
 40
3.0
 40
4.0
 40
4.0
 40
4.0
 40
5.0
 40
5.0
 40
5.0
 40
6.0
 40
6.0
 40
6.0
 40
7.0
 40
7.0
 40
7.0
 40
8.0
 40
8.0
 40
8.0
 40
8.0
 10
440.669921875
 20
-658.4267578125
 30
0.0
 10
439.30517578125
 20
-660.3466796875
 30
0.0
 10
438.1279296875
 20
-662.3935546875
 30
0.0
 10
437.14599609375
 20
-664.560546875
 30
0.0
 10
430.3642578125
 20
-679.4921875
 30
0.0
 10
433.8583984375
 20
-696.0771484375
 30
0.0
 10
442.29296875
 20
-708.8759765625
 30
0.0
 10
442.16552734375
 20
-717.9853515625
 30
0.0
 10
441.9892578125
 20
-726.4697265625
 30
0.0
 10
441.7646484375
 20
-734.2861328125
 30
0.0
 10
416.90576171875
 20
-727.1220703125
 30
0.0
 10
391.67919921875
 20
-723.748046875
 30
0.0
 10
367.13134765625
 20
-720.5234375
 30
0.0
 10
357.24951171875
 20
-719.21875
 30
0.0
 10
347.02978515625
 20
-717.876953125
 30
0.0
 10
336.91552734375
 20
-716.302734375
 30
0.0
 10
334.9287109375
 20
-715.9951171875
 30
0.0
 10
332.94921875
 20
-715.6572265625
 30
0.0
 10
330.9697265625
 20
-715.2900390625
 30
0.0
 10
313.9423828125
 20
-695.6982421875
 30
0.0
 10
304.6376953125
 20
-675.251953125
 30
0.0
 10
304.9970703125
 20
-658.4267578125
 30
0.0
 10
304.9970703125
 20
-658.4267578125
 30
0.0
 10
440.669921875
 20
-658.4267578125
 30
0.0
 10
440.669921875
 20
-658.4267578125
 30
0.0
  0
SPLINE
  5
51
330
3C
100
AcDbEntity
  8
Layer 1
370
     0
100
AcDbSpline
210
0.0
220
0.0
230
1.0
 70
    11
 71
     3
 72
    20
 73
    16
 74
     0
 42
0.0000000001
 43
0.0000000001
 40
0.0
 40
0.0
 40
0.0
 40
0.0
 40
1.0
 40
1.0
 40
1.0
 40
2.0
 40
2.0
 40
2.0
 40
3.0
 40
3.0
 40
3.0
 40
4.0
 40
4.0
 40
4.0
 40
5.0
 40
5.0
 40
5.0
 40
5.0
 10
440.0400390625
 20
-753.3642578125
 30
0.0
 10
420.62841796875
 20
-757.982421875
 30
0.0
 10
400.03173828125
 20
-758.02734375
 30
0.0
 10
383.8330078125
 20
-753.37890625
 30
0.0
 10
373.005859375
 20
-750.267578125
 30
0.0
 10
359.93359375
 20
-742.4169921875
 30
0.0
 10
347.4951171875
 20
-731.7177734375
 30
0.0
 10
350.119140625
 20
-732.0478515625
 30
0.0
 10
352.73583984375
 20
-732.35546875
 30
0.0
 10
355.31494140625
 20
-732.662109375
 30
0.0
 10
358.99658203125
 20
-733.1044921875
 30
0.0
 10
362.6552734375
 20
-733.5400390625
 30
0.0
 10
366.27685546875
 20
-734.01171875
 30
0.0
 10
393.68115234375
 20
-737.5732421875
 30
0.0
 10
418.43896484375
 20
-744.07421875
 30
0.0
 10
440.0400390625
 20
-753.3642578125
 30
0.0
  0
SPLINE
  5
52
330
3C
100
AcDbEntity
  8
Layer 1
370
     0
100
AcDbSpline
210
0.0
220
0.0
230
1.0
 70
    11
 71
     3
 72
    23
 73
    19
 74
     0
 42
0.0000000001
 43
0.0000000001
 40
0.0
 40
0.0
 40
0.0
 40
0.0
 40
1.0
 40
1.0
 40
1.0
 40
2.0
 40
2.0
 40
2.0
 40
3.0
 40
3.0
 40
3.0
 40
4.0
 40
4.0
 40
4.0
 40
5.0
 40
5.0
 40
5.0
 40
6.0
 40
6.0
 40
6.0
 40
6.0
 10
280.26953125
 20
-659.146484375
 30
0.0
 10
281.37939453125
 20
-658.8994140625
 30
0.0
 10
282.4892578125
 20
-658.6591796875
 30
0.0
 10
283.5947265625
 20
-658.4267578125
 30
0.0
 10
283.5947265625
 20
-658.4267578125
 30
0.0
 10
288.07470703125
 20
-658.4267578125
 30
0.0
 10
288.07470703125
 20
-658.4267578125
 30
0.0
 10
290.56396484375
 20
-675.8896484375
 30
0.0
 10
296.63720703125
 20
-692.841796875
 30
0.0
 10
305.8671875
 20
-708.16015625
 30
0.0
 10
297.47705078125
 20
-704.6884765625
 30
0.0
 10
290.3916015625
 20
-700.294921875
 30
0.0
 10
284.3857421875
 20
-694.8740234375
 30
0.0
 10
275.53466796875
 20
-686.896484375
 30
0.0
 10
270.2451171875
 20
-677.81640625
 30
0.0
 10
267.4521484375
 20
-665.71484375
 30
0.0
 10
271.86474609375
 20
-663.240234375
 30
0.0
 10
276.3408203125
 20
-661.0361328125
 30
0.0
 10
280.26953125
 20
-659.146484375
 30
0.0
  0
SPLINE
  5
53
330
3C
100
AcDbEntity
  8
Layer 1
370
     0
100
AcDbSpline
210
0.0
220
0.0
230
1.0
 70
    11
 71
     3
 72
   119
 73
   115
 74
     0
 42
0.0000000001
 43
0.0000000001
 40
0.0
 40
0.0
 40
0.0
 40
0.0
 40
1.0
 40
1.0
 40
1.0
 40
2.0
 40
2.0
 40
2.0
 40
3.0
 40
3.0
 40
3.0
 40
4.0
 40
4.0
 40
4.0
 40
5.0
 40
5.0
 40
5.0
 40
6.0
 40
6.0
 40
6.0
 40
7.0
 40
7.0
 40
7.0
 40
8.0
 40
8.0
 40
8.0
 40
9.0
 40
9.0
 40
9.0
 40
10.0
 40
10.0
 40
10.0
 40
11.0
 40
11.0
 40
11.0
 40
12.0
 40
12.0
 40
12.0
 40
13.0
 40
13.0
 40
13.0
 40
14.0
 40
14.0
 40
14.0
 40
15.0
 40
15.0
 40
15.0
 40
16.0
 40
16.0
 40
16.0
 40
17.0
 40
17.0
 40
17.0
 40
18.0
 40
18.0
 40
18.0
 40
19.0
 40
19.0
 40
19.0
 40
20.0
 40
20.0
 40
20.0
 40
21.0
 40
21.0
 40
21.0
 40
22.0
 40
22.0
 40
22.0
 40
23.0
 40
23.0
 40
23.0
 40
24.0
 40
24.0
 40
24.0
 40
25.0
 40
25.0
 40
25.0
 40
26.0
 40
26.0
 40
26.0
 40
27.0
 40
27.0
 40
27.0
 40
28.0
 40
28.0
 40
28.0
 40
29.0
 40
29.0
 40
29.0
 40
30.0
 40
30.0
 40
30.0
 40
31.0
 40
31.0
 40
31.0
 40
32.0
 40
32.0
 40
32.0
 40
33.0
 40
33.0
 40
33.0
 40
34.0
 40
34.0
 40
34.0
 40
35.0
 40
35.0
 40
35.0
 40
36.0
 40
36.0
 40
36.0
 40
37.0
 40
37.0
 40
37.0
 40
38.0
 40
38.0
 40
38.0
 40
38.0
 10
297.162109375
 20
-852.1025390625
 30
0.0
 10
297.162109375
 20
-852.1025390625
 30
0.0
 10
296.3525390625
 20
-852.0419921875
 30
0.0
 10
296.3525390625
 20
-852.0419921875
 30
0.0
 10
310.22314453125
 20
-837.009765625
 30
0.0
 10
320.0791015625
 20
-814.1181640625
 30
0.0
 10
313.634765625
 20
-791.8203125
 30
0.0
 10
308.85107421875
 20
-775.287109375
 30
0.0
 10
292.89599609375
 20
-762.826171875
 30
0.0
 10
276.51708984375
 20
-762.826171875
 30
0.0
 10
269.6416015625
 20
-762.826171875
 30
0.0
 10
263.04736328125
 20
-765.052734375
 30
0.0
 10
257.43896484375
 20
-769.2666015625
 30
0.0
 10
251.97314453125
 20
-773.3828125
 30
0.0
 10
249.82470703125
 20
-779.673828125
 30
0.0
 10
251.833984375
 20
-785.6796875
 30
0.0
 10
253.7421875
 20
-791.3857421875
 30
0.0
 10
259.03955078125
 20
-795.216796875
 30
0.0
 10
265.02294921875
 20
-795.216796875
 30
0.0
 10
267.201171875
 20
-795.216796875
 30
0.0
 10
269.4130859375
 20
-794.7294921875
 30
0.0
 10
271.5947265625
 20
-793.77734375
 30
0.0
 10
276.4384765625
 20
-791.6630859375
 30
0.0
 10
280.11962890625
 20
-792.142578125
 30
0.0
 10
282.96875
 20
-795.44921875
 30
0.0
 10
287.14501953125
 20
-800.28515625
 30
0.0
 10
288.42333984375
 20
-809.5078125
 30
0.0
 10
287.5048828125
 20
-815.73046875
 30
0.0
 10
285.91162109375
 20
-826.5419921875
 30
0.0
 10
279.1826171875
 20
-834.9853515625
 30
0.0
 10
273.8212890625
 20
-840.158203125
 30
0.0
 10
263.9580078125
 20
-849.6728515625
 30
0.0
 10
250.166015625
 20
-855.1318359375
 30
0.0
 10
235.98779296875
 20
-855.1318359375
 30
0.0
 10
231.24169921875
 20
-855.1318359375
 30
0.0
 10
226.56689453125
 20
-854.5166015625
 30
0.0
 10
222.0791015625
 20
-853.3095703125
 30
0.0
 10
214.28173828125
 20
-851.2177734375
 30
0.0
 10
207.125
 20
-847.8515625
 30
0.0
 10
200.69189453125
 20
-843.2626953125
 30
0.0
 10
216.79345703125
 20
-843.802734375
 30
0.0
 10
230.4765625
 20
-836.5595703125
 30
0.0
 10
236.580078125
 20
-824.2255859375
 30
0.0
 10
238.447265625
 20
-820.4541015625
 30
0.0
 10
238.20703125
 20
-816.1728515625
 30
0.0
 10
235.91259765625
 20
-812.484375
 30
0.0
 10
233.61083984375
 20
-808.765625
 30
0.0
 10
229.689453125
 20
-806.462890625
 30
0.0
 10
225.689453125
 20
-806.462890625
 30
0.0
 10
222.5888671875
 20
-806.462890625
 30
0.0
 10
219.67236328125
 20
-807.865234375
 30
0.0
 10
217.4755859375
 20
-810.4150390625
 30
0.0
 10
210.9453125
 20
-817.9951171875
 30
0.0
 10
204.8642578125
 20
-824.4052734375
 30
0.0
 10
196.59814453125
 20
-826.115234375
 30
0.0
 10
191.24072265625
 20
-827.216796875
 30
0.0
 10
186.0751953125
 20
-825.544921875
 30
0.0
 10
180.458984375
 20
-820.8740234375
 30
0.0
 10
170.68212890625
 20
-804.1240234375
 30
0.0
 10
166.86572265625
 20
-783.1826171875
 30
0.0
 10
169.984375
 20
-763.3134765625
 30
0.0
 10
174.9033203125
 20
-731.98046875
 30
0.0
 10
193.3330078125
 20
-704.3583984375
 30
0.0
 10
221.81298828125
 20
-684.5712890625
 30
0.0
 10
221.63671875
 20
-684.8271484375
 30
0.0
 10
221.45703125
 20
-685.0888671875
 30
0.0
 10
221.28076171875
 20
-685.3515625
 30
0.0
 10
209.39306640625
 20
-702.9560546875
 30
0.0
 10
205.99267578125
 20
-729.423828125
 30
0.0
 10
223.1142578125
 20
-743.796875
 30
0.0
 10
225.2880859375
 20
-745.6259765625
 30
0.0
 10
228.107421875
 20
-746.630859375
 30
0.0
 10
231.05419921875
 20
-746.630859375
 30
0.0
 10
235.09912109375
 20
-746.630859375
 30
0.0
 10
238.8369140625
 20
-744.82421875
 30
0.0
 10
241.048828125
 20
-741.787109375
 30
0.0
 10
243.08056640625
 20
-739.013671875
 30
0.0
 10
243.5830078125
 20
-735.5341796875
 30
0.0
 10
242.45458984375
 20
-732.0029296875
 30
0.0
 10
236.3623046875
 20
-712.90625
 30
0.0
 10
231.96484375
 20
-699.1103515625
 30
0.0
 10
245.7197265625
 20
-682.66015625
 30
0.0
 10
248.4150390625
 20
-679.443359375
 30
0.0
 10
251.62451171875
 20
-676.4140625
 30
0.0
 10
255.4521484375
 20
-673.490234375
 30
0.0
 10
259.17822265625
 20
-688.1484375
 30
0.0
 10
270.1103515625
 20
-701.171875
 30
0.0
 10
279.96240234375
 20
-709.0224609375
 30
0.0
 10
290.51904296875
 20
-717.4267578125
 30
0.0
 10
303.13037109375
 20
-723.1630859375
 30
0.0
 10
319.5654296875
 20
-727.0390625
 30
0.0
 10
344.064453125
 20
-755.283203125
 30
0.0
 10
378.91796875
 20
-771.4482421875
 30
0.0
 10
415.3984375
 20
-771.4482421875
 30
0.0
 10
423.59765625
 20
-771.4482421875
 30
0.0
 10
431.87890625
 20
-770.6279296875
 30
0.0
 10
440.17138671875
 20
-769.052734375
 30
0.0
 10
439.39892578125
 20
-780.220703125
 30
0.0
 10
438.431640625
 20
-788.83984375
 30
0.0
 10
437.27734375
 20
-794.8115234375
 30
0.0
 10
433.74951171875
 20
-813.0390625
 30
0.0
 10
425.41552734375
 20
-826.474609375
 30
0.0
 10
412.283203125
 20
-835.09765625
 30
0.0
 10
399.1435546875
 20
-843.7275390625
 30
0.0
 10
375.525390625
 20
-848.03125
 30
0.0
 10
341.4140625
 20
-848.03125
 30
0.0
 10
341.4140625
 20
-848.03125
 30
0.0
 10
317.8896484375
 20
-848.03125
 30
0.0
 10
317.8896484375
 20
-848.03125
 30
0.0
 10
317.8896484375
 20
-848.03125
 30
0.0
 10
317.8896484375
 20
-855.4130859375
 30
0.0
 10
317.8896484375
 20
-855.4130859375
 30
0.0
 10
310.83447265625
 20
-853.013671875
 30
0.0
 10
302.59423828125
 20
-852.455078125
 30
0.0
 10
297.162109375
 20
-852.1025390625
 30
0.0
  0
HATCH
  5
54
330
3C
100
AcDbEntity
  8
Layer 1
 62
     7
100
AcDbHatch
 10
0.0
 20
0.0
 30
0.0
210
0.0
220
0.0
230
1.0
  2
SOLID
 70
     1
 71
     0
 91
        8
 92
        1
 93
        1
 72
     4
 94
        3
 73
     0
 74
     1
 95
      299
 96
      295
 40
0.0
 40
0.0
 40
0.0
 40
0.0
 40
1.0
 40
1.0
 40
1.0
 40
2.0
 40
2.0
 40
2.0
 40
3.0
 40
3.0
 40
3.0
 40
4.0
 40
4.0
 40
4.0
 40
5.0
 40
5.0
 40
5.0
 40
6.0
 40
6.0
 40
6.0
 40
7.0
 40
7.0
 40
7.0
 40
8.0
 40
8.0
 40
8.0
 40
9.0
 40
9.0
 40
9.0
 40
10.0
 40
10.0
 40
10.0
 40
11.0
 40
11.0
 40
11.0
 40
12.0
 40
12.0
 40
12.0
 40
13.0
 40
13.0
 40
13.0
 40
14.0
 40
14.0
 40
14.0
 40
15.0
 40
15.0
 40
15.0
 40
16.0
 40
16.0
 40
16.0
 40
17.0
 40
17.0
 40
17.0
 40
18.0
 40
18.0
 40
18.0
 40
19.0
 40
19.0
 40
19.0
 40
20.0
 40
20.0
 40
20.0
 40
21.0
 40
21.0
 40
21.0
 40
22.0
 40
22.0
 40
22.0
 40
23.0
 40
23.0
 40
23.0
 40
24.0
 40
24.0
 40
24.0
 40
25.0
 40
25.0
 40
25.0
 40
26.0
 40
26.0
 40
26.0
 40
27.0
 40
27.0
 40
27.0
 40
28.0
 40
28.0
 40
28.0
 40
29.0
 40
29.0
 40
29.0
 40
30.0
 40
30.0
 40
30.0
 40
31.0
 40
31.0
 40
31.0
 40
32.0
 40
32.0
 40
32.0
 40
33.0
 40
33.0
 40
33.0
 40
34.0
 40
34.0
 40
34.0
 40
35.0
 40
35.0
 40
35.0
 40
36.0
 40
36.0
 40
36.0
 40
37.0
 40
37.0
 40
37.0
 40
38.0
 40
38.0
 40
38.0
 40
39.0
 40
39.0
 40
39.0
 40
40.0
 40
40.0
 40
40.0
 40
41.0
 40
41.0
 40
41.0
 40
42.0
 40
42.0
 40
42.0
 40
43.0
 40
43.0
 40
43.0
 40
44.0
 40
44.0
 40
44.0
 40
45.0
 40
45.0
 40
45.0
 40
46.0
 40
46.0
 40
46.0
 40
47.0
 40
47.0
 40
47.0
 40
48.0
 40
48.0
 40
48.0
 40
49.0
 40
49.0
 40
49.0
 40
50.0
 40
50.0
 40
50.0
 40
51.0
 40
51.0
 40
51.0
 40
52.0
 40
52.0
 40
52.0
 40
53.0
 40
53.0
 40
53.0
 40
54.0
 40
54.0
 40
54.0
 40
55.0
 40
55.0
 40
55.0
 40
56.0
 40
56.0
 40
56.0
 40
57.0
 40
57.0
 40
57.0
 40
58.0
 40
58.0
 40
58.0
 40
59.0
 40
59.0
 40
59.0
 40
60.0
 40
60.0
 40
60.0
 40
61.0
 40
61.0
 40
61.0
 40
62.0
 40
62.0
 40
62.0
 40
63.0
 40
63.0
 40
63.0
 40
64.0
 40
64.0
 40
64.0
 40
65.0
 40
65.0
 40
65.0
 40
66.0
 40
66.0
 40
66.0
 40
67.0
 40
67.0
 40
67.0
 40
68.0
 40
68.0
 40
68.0
 40
69.0
 40
69.0
 40
69.0
 40
70.0
 40
70.0
 40
70.0
 40
71.0
 40
71.0
 40
71.0
 40
72.0
 40
72.0
 40
72.0
 40
73.0
 40
73.0
 40
73.0
 40
74.0
 40
74.0
 40
74.0
 40
75.0
 40
75.0
 40
75.0
 40
76.0
 40
76.0
 40
76.0
 40
77.0
 40
77.0
 40
77.0
 40
78.0
 40
78.0
 40
78.0
 40
79.0
 40
79.0
 40
79.0
 40
80.0
 40
80.0
 40
80.0
 40
81.0
 40
81.0
 40
81.0
 40
82.0
 40
82.0
 40
82.0
 40
83.0
 40
83.0
 40
83.0
 40
84.0
 40
84.0
 40
84.0
 40
85.0
 40
85.0
 40
85.0
 40
86.0
 40
86.0
 40
86.0
 40
87.0
 40
87.0
 40
87.0
 40
88.0
 40
88.0
 40
88.0
 40
89.0
 40
89.0
 40
89.0
 40
90.0
 40
90.0
 40
90.0
 40
91.0
 40
91.0
 40
91.0
 40
92.0
 40
92.0
 40
92.0
 40
93.0
 40
93.0
 40
93.0
 40
94.0
 40
94.0
 40
94.0
 40
95.0
 40
95.0
 40
95.0
 40
96.0
 40
96.0
 40
96.0
 40
97.0
 40
97.0
 40
97.0
 40
98.0
 40
98.0
 40
98.0
 40
98.0
 10
481.0419921875
 20
-875.0908203125
 10
482.458984375
 20
-875.6943359375
 10
484.041015625
 20
-876.05078125
 10
485.7763671875
 20
-876.05078125
 10
487.05859375
 20
-876.05078125
 10
488.37060546875
 20
-875.85546875
 10
489.67919921875
 20
-875.4658203125
 10
490.0615234375
 20
-875.3525390625
 10
490.4287109375
 20
-875.2109375
 10
490.8037109375
 20
-875.0908203125
 10
490.8037109375
 20
-875.0908203125
 10
682.5224609375
 20
-875.0908203125
 10
682.5224609375
 20
-875.0908203125
 10
682.5224609375
 20
-875.0908203125
 10
682.5224609375
 20
-848.03125
 10
682.5224609375
 20
-848.03125
 10
682.5224609375
 20
-848.03125
 10
658.994140625
 20
-848.03125
 10
658.994140625
 20
-848.03125
 10
622.921875
 20
-848.03125
 10
598.513671875
 20
-843.330078125
 10
585.7783203125
 20
-833.919921875
 10
573.0322265625
 20
-824.5107421875
 10
565.193359375
 20
-810.099609375
 10
562.25
 20
-790.6953125
 10
560.337890625
 20
-778.0732421875
 10
559.056640625
 20
-756.2353515625
 10
558.384765625
 20
-725.2998046875
 10
568.345703125
 20
-721.501953125
 10
578.041015625
 20
-717.1572265625
 10
587.2216796875
 20
-712.7705078125
 10
599.2626953125
 20
-736.26171875
 10
616.193359375
 20
-757.6826171875
 10
633.0107421875
 20
-770.5712890625
 10
652.4375
 20
-785.4697265625
 10
676.72265625
 20
-793.671875
 10
701.390625
 20
-793.671875
 10
718.267578125
 20
-793.671875
 10
735.0927734375
 20
-789.765625
 10
750.05859375
 20
-782.365234375
 10
757.552734375
 20
-778.6611328125
 10
764.6796875
 20
-773.8408203125
 10
771.64453125
 20
-767.759765625
 10
770.2724609375
 20
-777.9638671875
 10
769.8603515625
 20
-790.0361328125
 10
774.7978515625
 20
-800.1279296875
 10
776.615234375
 20
-803.83203125
 10
780.0390625
 20
-805.953125
 10
784.1884765625
 20
-805.953125
 10
787.7646484375
 20
-805.953125
 10
791.3671875
 20
-804.341796875
 10
793.8271484375
 20
-801.642578125
 10
796.0048828125
 20
-799.25
 10
797.046875
 20
-796.244140625
 10
796.7587890625
 20
-793.1845703125
 10
796.2978515625
 20
-788.3037109375
 10
795.060546875
 20
-783.7001953125
 10
793.8603515625
 20
-779.2392578125
 10
792.541015625
 20
-774.328125
 10
791.296875
 20
-769.6865234375
 10
791.048828125
 20
-764.7978515625
 10
790.853515625
 20
-760.869140625
 10
791.57421875
 20
-756.873046875
 10
792.3427734375
 20
-752.64453125
 10
792.85546875
 20
-749.802734375
 10
793.388671875
 20
-746.87109375
 10
793.6357421875
 20
-743.89453125
 10
797.857421875
 20
-738.48828125
 10
801.9580078125
 20
-732.8427734375
 10
805.951171875
 20
-727.3017578125
 10
806.0
 20
-734.619140625
 10
807.048828125
 20
-741.0751953125
 10
807.6943359375
 20
-744.3818359375
 10
808.59765625
 20
-748.962890625
 10
812.275390625
 20
-751.9248046875
 10
817.07421875
 20
-751.9248046875
 10
820.8828125
 20
-751.9248046875
 10
824.662109375
 20
-750.0126953125
 10
826.689453125
 20
-747.05078125
 10
828.5
 20
-744.412109375
 10
828.830078125
 20
-741.232421875
 10
827.615234375
 20
-738.0986328125
 10
825.34765625
 20
-732.220703125
 10
823.447265625
 20
-726.8671875
 10
823.1923828125
 20
-720.8232421875
 10
823.0986328125
 20
-718.5595703125
 10
823.19921875
 20
-716.25
 10
823.3125
 20
-713.8056640625
 10
823.455078125
 20
-710.57421875
 10
823.6044921875
 20
-707.2529296875
 10
823.2744140625
 20
-703.8935546875
 10
826.4833984375
 20
-699.8525390625
 10
829.52734375
 20
-696.2685546875
 10
832.51953125
 20
-693.0146484375
 10
832.462890625
 20
-700.9541015625
 10
834.57421875
 20
-708.7822265625
 10
838.607421875
 20
-714.5107421875
 10
840.6318359375
 20
-717.3974609375
 10
844.6357421875
 20
-718.708984375
 10
847.720703125
 20
-717.45703125
 10
849.037109375
 20
-716.9248046875
 10
849.884765625
 20
-716.2421875
 10
850.619140625
 20
-715.5751953125
 10
852.71875
 20
-713.640625
 10
853.46484375
 20
-710.146484375
 10
852.3544921875
 20
-707.447265625
 10
852.3544921875
 20
-707.447265625
 10
852.15625
 20
-706.9599609375
 10
852.15625
 20
-706.9599609375
 10
849.9814453125
 20
-701.6591796875
 10
848.099609375
 20
-697.078125
 10
848.1748046875
 20
-691.634765625
 10
848.25
 20
-685.9287109375
 10
850.4013671875
 20
-680.560546875
 10
852.53515625
 20
-675.357421875
 10
853.8876953125
 20
-674.427734375
 10
855.263671875
 20
-673.52734375
 10
856.6806640625
 20
-672.6728515625
 10
866.6044921875
 20
-666.697265625
 10
878.68359375
 20
-663.2626953125
 10
889.8095703125
 20
-663.2626953125
 10
900.958984375
 20
-663.2626953125
 10
920.7080078125
 20
-666.689453125
 10
927.666015625
 20
-689.6474609375
 10
931.828125
 20
-703.3837890625
 10
926.826171875
 20
-718.76171875
 10
915.7822265625
 20
-726.20703125
 10
909.01953125
 20
-730.7578125
 10
901.4912109375
 20
-731.185546875
 10
895.3955078125
 20
-727.33203125
 10
892.201171875
 20
-725.26953125
 10
889.7646484375
 20
-722.5478515625
 10
887.890625
 20
-718.9189453125
 10
887.703125
 20
-718.57421875
 10
887.5341796875
 20
-718.2373046875
 10
887.380859375
 20
-717.8994140625
 10
887.4140625
 20
-717.8994140625
 10
887.4482421875
 20
-717.8994140625
 10
887.4853515625
 20
-717.8994140625
 10
893.0263671875
 20
-717.8994140625
 10
898.259765625
 20
-715.3876953125
 10
901.4765625
 20
-711.173828125
 10
904.7607421875
 20
-706.8779296875
 10
905.6484375
 20
-701.1572265625
 10
903.98828125
 20
-695.0537109375
 10
901.904296875
 20
-687.3984375
 10
895.4482421875
 20
-682.45703125
 10
887.5380859375
 20
-682.45703125
 10
884.7265625
 20
-682.45703125
 10
881.84765625
 20
-683.0947265625
 10
879.2001953125
 20
-684.31640625
 10
867.3203125
 20
-689.7978515625
 10
863.9013671875
 20
-703.923828125
 10
864.580078125
 20
-714.3525390625
 10
865.9443359375
 20
-735.3466796875
 10
883.5830078125
 20
-752.4189453125
 10
903.8984375
 20
-752.4189453125
 10
906.234375
 20
-752.4189453125
 10
908.5771484375
 20
-752.1865234375
 10
910.8671875
 20
-751.7294921875
 10
932.337890625
 20
-747.4482421875
 10
949.6123046875
 20
-725.134765625
 10
950.189453125
 20
-700.931640625
 10
950.7744140625
 20
-676.751953125
 10
935.62890625
 20
-653.951171875
 10
913.353515625
 20
-645.4931640625
 10
909.37890625
 20
-643.986328125
 10
905.2255859375
 20
-642.8916015625
 10
900.958984375
 20
-642.224609375
 10
900.958984375
 20
-642.224609375
 10
900.958984375
 20
-641.2724609375
 10
900.958984375
 20
-641.2724609375
 10
900.958984375
 20
-641.2724609375
 10
96.896484375
 20
-641.2724609375
 10
96.896484375
 20
-641.2724609375
 10
96.896484375
 20
-641.2724609375
 10
96.896484375
 20
-658.4267578125
 10
96.896484375
 20
-658.4267578125
 10
96.896484375
 20
-658.4267578125
 10
239.54931640625
 20
-658.4267578125
 10
239.54931640625
 20
-658.4267578125
 10
229.509765625
 20
-663.3984375
 10
219.923828125
 20
-669.3662109375
 10
210.896484375
 20
-676.279296875
 10
202.30029296875
 20
-680.2607421875
 10
195.068359375
 20
-683.2822265625
 10
187.31201171875
 20
-683.2822265625
 10
183.626953125
 20
-683.2822265625
 10
180.0390625
 20
-682.599609375
 10
176.35009765625
 20
-681.1904296875
 10
171.904296875
 20
-679.48828125
 10
166.126953125
 20
-677.1416015625
 10
160.90478515625
 20
-674.0595703125
 10
160.90478515625
 20
-674.0595703125
 10
158.97802734375
 20
-672.9052734375
 10
158.97802734375
 20
-672.9052734375
 10
155.154296875
 20
-670.5654296875
 10
151.5400390625
 20
-668.361328125
 10
145.52685546875
 20
-668.1962890625
 10
142.72265625
 20
-668.1962890625
 10
140.0908203125
 20
-669.494140625
 10
138.306640625
 20
-671.7431640625
 10
136.4248046875
 20
-674.1201171875
 10
135.7158203125
 20
-677.2841796875
 10
136.40966796875
 20
-680.2001953125
 10
140.810546875
 20
-698.6298828125
 10
165.7373046875
 20
-700.0625
 10
173.2724609375
 20
-700.0625
 10
175.75048828125
 20
-700.0625
 10
178.1572265625
 20
-699.9345703125
 10
180.42919921875
 20
-699.6796875
 10
182.28125
 20
-699.4775390625
 10
184.515625
 20
-699.162109375
 10
186.9970703125
 20
-698.6748046875
 10
185.94384765625
 20
-699.904296875
 10
184.9052734375
 20
-701.1572265625
 10
183.89306640625
 20
-702.431640625
 10
183.072265625
 20
-702.7314453125
 10
182.3525390625
 20
-703.255859375
 10
181.80859375
 20
-703.9755859375
 10
179.01953125
 20
-707.6728515625
 10
176.1552734375
 20
-711.6767578125
 10
173.18603515625
 20
-715.8154296875
 10
154.6142578125
 20
-741.7421875
 10
133.560546875
 20
-771.291015625
 10
101.76220703125
 20
-768.9140625
 10
94.744140625
 20
-768.3671875
 10
89.728515625
 20
-773.068359375
 10
89.41357421875
 20
-779.9287109375
 10
89.12841796875
 20
-786.1142578125
 10
93.169921875
 20
-793.0947265625
 10
101.22265625
 20
-793.8369140625
 10
122.05126953125
 20
-795.771484375
 10
136.6796875
 20
-782.7255859375
 10
148.03125
 20
-770.001953125
 10
150.587890625
 20
-767.1376953125
 10
153.20849609375
 20
-764.1904296875
 10
155.83642578125
 20
-761.1689453125
 10
150.7451171875
 20
-786.3916015625
 10
154.23193359375
 20
-810.9541015625
 10
166.1083984375
 20
-831.7685546875
 10
169.25732421875
 20
-837.2939453125
 10
173.0888671875
 20
-842.5498046875
 10
177.5234375
 20
-847.4091796875
 10
177.65478515625
 20
-850.0556640625
 10
177.98486328125
 20
-852.6572265625
 10
178.3037109375
 20
-855.19140625
 10
178.697265625
 20
-858.3251953125
 10
179.072265625
 20
-861.279296875
 10
179.07958984375
 20
-864.2109375
 10
179.109375
 20
-873.388671875
 10
176.95751953125
 20
-881.3515625
 10
172.09912109375
 20
-890.0341796875
 10
171.806640625
 20
-890.56640625
 10
171.37158203125
 20
-891.2783203125
 10
170.8544921875
 20
-892.140625
 10
165.14111328125
 20
-901.6181640625
 10
159.36767578125
 20
-912.3017578125
 10
163.19140625
 20
-919.0654296875
 10
164.40625
 20
-921.216796875
 10
167.07568359375
 20
-923.7734375
 10
172.919921875
 20
-923.7734375
 10
173.2763671875
 20
-923.7734375
 10
173.6435546875
 20
-923.7666015625
 10
174.0224609375
 20
-923.744140625
 10
192.01318359375
 20
-922.859375
 10
194.82861328125
 20
-893.4150390625
 10
195.8896484375
 20
-882.3330078125
 10
196.376953125
 20
-877.2802734375
 10
197.0439453125
 20
-870.3740234375
 10
196.78564453125
 20
-863.333984375
 10
210.32666015625
 20
-871.6337890625
 10
225.79052734375
 20
-876.140625
 10
241.10107421875
 20
-876.140625
 10
254.353515625
 20
-876.140625
 10
267.283203125
 20
-872.7138671875
 10
278.56005859375
 20
-866.220703125
 10
284.17578125
 20
-865.8310546875
 10
289.5517578125
 20
-866.302734375
 10
294.41064453125
 20
-867.720703125
 10
297.5185546875
 20
-868.6201171875
 10
300.611328125
 20
-871.0791015625
 10
303.8876953125
 20
-873.6884765625
 10
308.7724609375
 20
-877.572265625
 10
313.822265625
 20
-881.583984375
 10
320.29296875
 20
-881.583984375
 10
321.64990234375
 20
-881.583984375
 10
323.0146484375
 20
-881.396484375
 10
324.3564453125
 20
-881.029296875
 10
327.404296875
 20
-880.1923828125
 10
329.74755859375
 20
-877.955078125
 10
330.8271484375
 20
-875.0908203125
 10
330.8271484375
 20
-875.0908203125
 10
481.0419921875
 20
-875.0908203125
 10
481.0419921875
 20
-875.0908203125
 97
        0
 92
        1
 93
        1
 72
     4
 94
        3
 73
     0
 74
     1
 95
       80
 96
       76
 40
0.0
 40
0.0
 40
0.0
 40
0.0
 40
1.0
 40
1.0
 40
1.0
 40
2.0
 40
2.0
 40
2.0
 40
3.0
 40
3.0
 40
3.0
 40
4.0
 40
4.0
 40
4.0
 40
5.0
 40
5.0
 40
5.0
 40
6.0
 40
6.0
 40
6.0
 40
7.0
 40
7.0
 40
7.0
 40
8.0
 40
8.0
 40
8.0
 40
9.0
 40
9.0
 40
9.0
 40
10.0
 40
10.0
 40
10.0
 40
11.0
 40
11.0
 40
11.0
 40
12.0
 40
12.0
 40
12.0
 40
13.0
 40
13.0
 40
13.0
 40
14.0
 40
14.0
 40
14.0
 40
15.0
 40
15.0
 40
15.0
 40
16.0
 40
16.0
 40
16.0
 40
17.0
 40
17.0
 40
17.0
 40
18.0
 40
18.0
 40
18.0
 40
19.0
 40
19.0
 40
19.0
 40
20.0
 40
20.0
 40
20.0
 40
21.0
 40
21.0
 40
21.0
 40
22.0
 40
22.0
 40
22.0
 40
23.0
 40
23.0
 40
23.0
 40
24.0
 40
24.0
 40
24.0
 40
25.0
 40
25.0
 40
25.0
 40
25.0
 10
741.275390625
 20
-674.134765625
 10
756.634765625
 20
-682.6220703125
 10
763.1123046875
 20
-700.2568359375
 10
757.03125
 20
-717.0068359375
 10
753.7626953125
 20
-726.0048828125
 10
747.5615234375
 20
-732.572265625
 10
739.5654296875
 20
-735.4892578125
 10
733.6533203125
 20
-737.6484375
 10
729.2744140625
 20
-737.9111328125
 10
725.96875
 20
-736.298828125
 10
723.54296875
 20
-735.1220703125
 10
720.611328125
 20
-732.033203125
 10
720.1015625
 20
-729.0859375
 10
719.845703125
 20
-727.6240234375
 10
720.2470703125
 20
-726.4091796875
 10
721.357421875
 20
-725.27734375
 10
725.720703125
 20
-720.81640625
 10
726.943359375
 20
-715.22265625
 10
724.7158203125
 20
-709.9296875
 10
722.384765625
 20
-704.380859375
 10
716.708984375
 20
-700.5048828125
 10
710.912109375
 20
-700.5048828125
 10
706.3837890625
 20
-700.5048828125
 10
702.462890625
 20
-702.8134765625
 10
699.8759765625
 20
-707.0126953125
 10
693.5517578125
 20
-717.26171875
 10
692.587890625
 20
-729.9033203125
 10
697.296875
 20
-740.8349609375
 10
701.978515625
 20
-751.70703125
 10
711.392578125
 20
-759.33203125
 10
723.119140625
 20
-761.7685546875
 10
726.005859375
 20
-762.369140625
 10
728.9599609375
 20
-762.6689453125
 10
731.8916015625
 20
-762.6689453125
 10
752.5927734375
 20
-762.6689453125
 10
773.15234375
 20
-746.9609375
 10
780.76953125
 20
-725.322265625
 10
788.998046875
 20
-701.966796875
 10
782.4267578125
 20
-675.986328125
 10
764.4208984375
 20
-660.6611328125
 10
763.517578125
 20
-659.888671875
 10
762.587890625
 20
-659.146484375
 10
761.630859375
 20
-658.4267578125
 10
761.630859375
 20
-658.4267578125
 10
842.1240234375
 20
-658.4267578125
 10
842.1240234375
 20
-658.4267578125
 10
840.5791015625
 20
-659.5146484375
 10
839.064453125
 20
-660.654296875
 10
837.572265625
 20
-661.8388671875
 10
820.41015625
 20
-675.447265625
 10
808.04296875
 20
-693.6220703125
 10
796.083984375
 20
-711.2041015625
 10
790.453125
 20
-719.4736328125
 10
784.630859375
 20
-728.029296875
 10
778.408203125
 20
-735.9462890625
 10
757.9384765625
 20
-762.0087890625
 10
731.4716796875
 20
-775.8427734375
 10
701.525390625
 20
-775.939453125
 10
672.3515625
 20
-775.939453125
 10
645.1455078125
 20
-763.021484375
 10
624.9091796875
 20
-739.552734375
 10
617.16796875
 20
-730.5859375
 10
610.47265625
 20
-719.0166015625
 10
604.4892578125
 20
-704.2685546875
 10
606.9375
 20
-703.0390625
 10
609.359375
 20
-701.8095703125
 10
611.7470703125
 20
-700.6015625
 10
621.3330078125
 20
-695.7431640625
 10
630.38671875
 20
-691.1552734375
 10
638.626953125
 20
-687.435546875
 10
662.2294921875
 20
-676.78125
 10
687.33984375
 20
-666.921875
 10
710.9951171875
 20
-666.921875
 10
722.4296875
 20
-666.921875
 10
732.619140625
 20
-669.3515625
 10
741.275390625
 20
-674.134765625
 97
        0
 92
        1
 93
        1
 72
     4
 94
        3
 73
     0
 74
     1
 95
       20
 96
       16
 40
0.0
 40
0.0
 40
0.0
 40
0.0
 40
1.0
 40
1.0
 40
1.0
 40
2.0
 40
2.0
 40
2.0
 40
3.0
 40
3.0
 40
3.0
 40
4.0
 40
4.0
 40
4.0
 40
5.0
 40
5.0
 40
5.0
 40
5.0
 10
653.7421875
 20
-658.4267578125
 10
637.44140625
 20
-665.16796875
 10
621.7568359375
 20
-673.5576171875
 10
606.4423828125
 20
-681.7451171875
 10
603.619140625
 20
-683.251953125
 10
600.796875
 20
-684.7666015625
 10
597.9697265625
 20
-686.2666015625
 10
595.1240234375
 20
-677.5166015625
 10
592.5859375
 20
-668.6240234375
 10
590.119140625
 20
-659.986328125
 10
590.119140625
 20
-659.986328125
 10
589.673828125
 20
-658.4267578125
 10
589.673828125
 20
-658.4267578125
 10
589.673828125
 20
-658.4267578125
 10
653.7421875
 20
-658.4267578125
 10
653.7421875
 20
-658.4267578125
 97
        0
 92
        1
 93
        1
 72
     4
 94
        3
 73
     0
 74
     1
 95
       20
 96
       16
 40
0.0
 40
0.0
 40
0.0
 40
0.0
 40
1.0
 40
1.0
 40
1.0
 40
2.0
 40
2.0
 40
2.0
 40
3.0
 40
3.0
 40
3.0
 40
4.0
 40
4.0
 40
4.0
 40
5.0
 40
5.0
 40
5.0
 40
5.0
 10
570.54296875
 20
-658.4267578125
 10
571.3935546875
 20
-670.09375
 10
574.408203125
 20
-682.6220703125
 10
579.529296875
 20
-695.7587890625
 10
572.7998046875
 20
-699.076171875
 10
565.6240234375
 20
-702.4091796875
 10
558.05859375
 20
-705.4609375
 10
557.916015625
 20
-693.81640625
 10
557.841796875
 20
-681.201171875
 10
557.841796875
 20
-667.484375
 10
557.841796875
 20
-667.484375
 10
557.841796875
 20
-658.4267578125
 10
557.841796875
 20
-658.4267578125
 10
557.841796875
 20
-658.4267578125
 10
570.54296875
 20
-658.4267578125
 10
570.54296875
 20
-658.4267578125
 97
        0
 92
        1
 93
        1
 72
     4
 94
        3
 73
     0
 74
     1
 95
       29
 96
       25
 40
0.0
 40
0.0
 40
0.0
 40
0.0
 40
1.0
 40
1.0
 40
1.0
 40
2.0
 40
2.0
 40
2.0
 40
3.0
 40
3.0
 40
3.0
 40
4.0
 40
4.0
 40
4.0
 40
5.0
 40
5.0
 40
5.0
 40
6.0
 40
6.0
 40
6.0
 40
7.0
 40
7.0
 40
7.0
 40
8.0
 40
8.0
 40
8.0
 40
8.0
 10
440.669921875
 20
-658.4267578125
 10
439.30517578125
 20
-660.3466796875
 10
438.1279296875
 20
-662.3935546875
 10
437.14599609375
 20
-664.560546875
 10
430.3642578125
 20
-679.4921875
 10
433.8583984375
 20
-696.0771484375
 10
442.29296875
 20
-708.8759765625
 10
442.16552734375
 20
-717.9853515625
 10
441.9892578125
 20
-726.4697265625
 10
441.7646484375
 20
-734.2861328125
 10
416.90576171875
 20
-727.1220703125
 10
391.67919921875
 20
-723.748046875
 10
367.13134765625
 20
-720.5234375
 10
357.24951171875
 20
-719.21875
 10
347.02978515625
 20
-717.876953125
 10
336.91552734375
 20
-716.302734375
 10
334.9287109375
 20
-715.9951171875
 10
332.94921875
 20
-715.6572265625
 10
330.9697265625
 20
-715.2900390625
 10
313.9423828125
 20
-695.6982421875
 10
304.6376953125
 20
-675.251953125
 10
304.9970703125
 20
-658.4267578125
 10
304.9970703125
 20
-658.4267578125
 10
440.669921875
 20
-658.4267578125
 10
440.669921875
 20
-658.4267578125
 97
        0
 92
        1
 93
        1
 72
     4
 94
        3
 73
     0
 74
     1
 95
       20
 96
       16
 40
0.0
 40
0.0
 40
0.0
 40
0.0
 40
1.0
 40
1.0
 40
1.0
 40
2.0
 40
2.0
 40
2.0
 40
3.0
 40
3.0
 40
3.0
 40
4.0
 40
4.0
 40
4.0
 40
5.0
 40
5.0
 40
5.0
 40
5.0
 10
440.0400390625
 20
-753.3642578125
 10
420.62841796875
 20
-757.982421875
 10
400.03173828125
 20
-758.02734375
 10
383.8330078125
 20
-753.37890625
 10
373.005859375
 20
-750.267578125
 10
359.93359375
 20
-742.4169921875
 10
347.4951171875
 20
-731.7177734375
 10
350.119140625
 20
-732.0478515625
 10
352.73583984375
 20
-732.35546875
 10
355.31494140625
 20
-732.662109375
 10
358.99658203125
 20
-733.1044921875
 10
362.6552734375
 20
-733.5400390625
 10
366.27685546875
 20
-734.01171875
 10
393.68115234375
 20
-737.5732421875
 10
418.43896484375
 20
-744.07421875
 10
440.0400390625
 20
-753.3642578125
 97
        0
 92
        1
 93
        1
 72
     4
 94
        3
 73
     0
 74
     1
 95
       23
 96
       19
 40
0.0
 40
0.0
 40
0.0
 40
0.0
 40
1.0
 40
1.0
 40
1.0
 40
2.0
 40
2.0
 40
2.0
 40
3.0
 40
3.0
 40
3.0
 40
4.0
 40
4.0
 40
4.0
 40
5.0
 40
5.0
 40
5.0
 40
6.0
 40
6.0
 40
6.0
 40
6.0
 10
280.26953125
 20
-659.146484375
 10
281.37939453125
 20
-658.8994140625
 10
282.4892578125
 20
-658.6591796875
 10
283.5947265625
 20
-658.4267578125
 10
283.5947265625
 20
-658.4267578125
 10
288.07470703125
 20
-658.4267578125
 10
288.07470703125
 20
-658.4267578125
 10
290.56396484375
 20
-675.8896484375
 10
296.63720703125
 20
-692.841796875
 10
305.8671875
 20
-708.16015625
 10
297.47705078125
 20
-704.6884765625
 10
290.3916015625
 20
-700.294921875
 10
284.3857421875
 20
-694.8740234375
 10
275.53466796875
 20
-686.896484375
 10
270.2451171875
 20
-677.81640625
 10
267.4521484375
 20
-665.71484375
 10
271.86474609375
 20
-663.240234375
 10
276.3408203125
 20
-661.0361328125
 10
280.26953125
 20
-659.146484375
 97
        0
 92
        1
 93
        1
 72
     4
 94
        3
 73
     0
 74
     1
 95
      119
 96
      115
 40
0.0
 40
0.0
 40
0.0
 40
0.0
 40
1.0
 40
1.0
 40
1.0
 40
2.0
 40
2.0
 40
2.0
 40
3.0
 40
3.0
 40
3.0
 40
4.0
 40
4.0
 40
4.0
 40
5.0
 40
5.0
 40
5.0
 40
6.0
 40
6.0
 40
6.0
 40
7.0
 40
7.0
 40
7.0
 40
8.0
 40
8.0
 40
8.0
 40
9.0
 40
9.0
 40
9.0
 40
10.0
 40
10.0
 40
10.0
 40
11.0
 40
11.0
 40
11.0
 40
12.0
 40
12.0
 40
12.0
 40
13.0
 40
13.0
 40
13.0
 40
14.0
 40
14.0
 40
14.0
 40
15.0
 40
15.0
 40
15.0
 40
16.0
 40
16.0
 40
16.0
 40
17.0
 40
17.0
 40
17.0
 40
18.0
 40
18.0
 40
18.0
 40
19.0
 40
19.0
 40
19.0
 40
20.0
 40
20.0
 40
20.0
 40
21.0
 40
21.0
 40
21.0
 40
22.0
 40
22.0
 40
22.0
 40
23.0
 40
23.0
 40
23.0
 40
24.0
 40
24.0
 40
24.0
 40
25.0
 40
25.0
 40
25.0
 40
26.0
 40
26.0
 40
26.0
 40
27.0
 40
27.0
 40
27.0
 40
28.0
 40
28.0
 40
28.0
 40
29.0
 40
29.0
 40
29.0
 40
30.0
 40
30.0
 40
30.0
 40
31.0
 40
31.0
 40
31.0
 40
32.0
 40
32.0
 40
32.0
 40
33.0
 40
33.0
 40
33.0
 40
34.0
 40
34.0
 40
34.0
 40
35.0
 40
35.0
 40
35.0
 40
36.0
 40
36.0
 40
36.0
 40
37.0
 40
37.0
 40
37.0
 40
38.0
 40
38.0
 40
38.0
 40
38.0
 10
297.162109375
 20
-852.1025390625
 10
297.162109375
 20
-852.1025390625
 10
296.3525390625
 20
-852.0419921875
 10
296.3525390625
 20
-852.0419921875
 10
310.22314453125
 20
-837.009765625
 10
320.0791015625
 20
-814.1181640625
 10
313.634765625
 20
-791.8203125
 10
308.85107421875
 20
-775.287109375
 10
292.89599609375
 20
-762.826171875
 10
276.51708984375
 20
-762.826171875
 10
269.6416015625
 20
-762.826171875
 10
263.04736328125
 20
-765.052734375
 10
257.43896484375
 20
-769.2666015625
 10
251.97314453125
 20
-773.3828125
 10
249.82470703125
 20
-779.673828125
 10
251.833984375
 20
-785.6796875
 10
253.7421875
 20
-791.3857421875
 10
259.03955078125
 20
-795.216796875
 10
265.02294921875
 20
-795.216796875
 10
267.201171875
 20
-795.216796875
 10
269.4130859375
 20
-794.7294921875
 10
271.5947265625
 20
-793.77734375
 10
276.4384765625
 20
-791.6630859375
 10
280.11962890625
 20
-792.142578125
 10
282.96875
 20
-795.44921875
 10
287.14501953125
 20
-800.28515625
 10
288.42333984375
 20
-809.5078125
 10
287.5048828125
 20
-815.73046875
 10
285.91162109375
 20
-826.5419921875
 10
279.1826171875
 20
-834.9853515625
 10
273.8212890625
 20
-840.158203125
 10
263.9580078125
 20
-849.6728515625
 10
250.166015625
 20
-855.1318359375
 10
235.98779296875
 20
-855.1318359375
 10
231.24169921875
 20
-855.1318359375
 10
226.56689453125
 20
-854.5166015625
 10
222.0791015625
 20
-853.3095703125
 10
214.28173828125
 20
-851.2177734375
 10
207.125
 20
-847.8515625
 10
200.69189453125
 20
-843.2626953125
 10
216.79345703125
 20
-843.802734375
 10
230.4765625
 20
-836.5595703125
 10
236.580078125
 20
-824.2255859375
 10
238.447265625
 20
-820.4541015625
 10
238.20703125
 20
-816.1728515625
 10
235.91259765625
 20
-812.484375
 10
233.61083984375
 20
-808.765625
 10
229.689453125
 20
-806.462890625
 10
225.689453125
 20
-806.462890625
 10
222.5888671875
 20
-806.462890625
 10
219.67236328125
 20
-807.865234375
 10
217.4755859375
 20
-810.4150390625
 10
210.9453125
 20
-817.9951171875
 10
204.8642578125
 20
-824.4052734375
 10
196.59814453125
 20
-826.115234375
 10
191.24072265625
 20
-827.216796875
 10
186.0751953125
 20
-825.544921875
 10
180.458984375
 20
-820.8740234375
 10
170.68212890625
 20
-804.1240234375
 10
166.86572265625
 20
-783.1826171875
 10
169.984375
 20
-763.3134765625
 10
174.9033203125
 20
-731.98046875
 10
193.3330078125
 20
-704.3583984375
 10
221.81298828125
 20
-684.5712890625
 10
221.63671875
 20
-684.8271484375
 10
221.45703125
 20
-685.0888671875
 10
221.28076171875
 20
-685.3515625
 10
209.39306640625
 20
-702.9560546875
 10
205.99267578125
 20
-729.423828125
 10
223.1142578125
 20
-743.796875
 10
225.2880859375
 20
-745.6259765625
 10
228.107421875
 20
-746.630859375
 10
231.05419921875
 20
-746.630859375
 10
235.09912109375
 20
-746.630859375
 10
238.8369140625
 20
-744.82421875
 10
241.048828125
 20
-741.787109375
 10
243.08056640625
 20
-739.013671875
 10
243.5830078125
 20
-735.5341796875
 10
242.45458984375
 20
-732.0029296875
 10
236.3623046875
 20
-712.90625
 10
231.96484375
 20
-699.1103515625
 10
245.7197265625
 20
-682.66015625
 10
248.4150390625
 20
-679.443359375
 10
251.62451171875
 20
-676.4140625
 10
255.4521484375
 20
-673.490234375
 10
259.17822265625
 20
-688.1484375
 10
270.1103515625
 20
-701.171875
 10
279.96240234375
 20
-709.0224609375
 10
290.51904296875
 20
-717.4267578125
 10
303.13037109375
 20
-723.1630859375
 10
319.5654296875
 20
-727.0390625
 10
344.064453125
 20
-755.283203125
 10
378.91796875
 20
-771.4482421875
 10
415.3984375
 20
-771.4482421875
 10
423.59765625
 20
-771.4482421875
 10
431.87890625
 20
-770.6279296875
 10
440.17138671875
 20
-769.052734375
 10
439.39892578125
 20
-780.220703125
 10
438.431640625
 20
-788.83984375
 10
437.27734375
 20
-794.8115234375
 10
433.74951171875
 20
-813.0390625
 10
425.41552734375
 20
-826.474609375
 10
412.283203125
 20
-835.09765625
 10
399.1435546875
 20
-843.7275390625
 10
375.525390625
 20
-848.03125
 10
341.4140625
 20
-848.03125
 10
341.4140625
 20
-848.03125
 10
317.8896484375
 20
-848.03125
 10
317.8896484375
 20
-848.03125
 10
317.8896484375
 20
-848.03125
 10
317.8896484375
 20
-855.4130859375
 10
317.8896484375
 20
-855.4130859375
 10
310.83447265625
 20
-853.013671875
 10
302.59423828125
 20
-852.455078125
 10
297.162109375
 20
-852.1025390625
 97
        0
 75
     2
 76
     1
 98
        0
  0
SPLINE
  5
55
330
3C
100
AcDbEntity
  8
Layer 1
370
     0
100
AcDbSpline
210
0.0
220
0.0
230
1.0
 70
    11
 71
     3
 72
   422
 73
   418
 74
     0
 42
0.0000000001
 43
0.0000000001
 40
0.0
 40
0.0
 40
0.0
 40
0.0
 40
1.0
 40
1.0
 40
1.0
 40
2.0
 40
2.0
 40
2.0
 40
3.0
 40
3.0
 40
3.0
 40
4.0
 40
4.0
 40
4.0
 40
5.0
 40
5.0
 40
5.0
 40
6.0
 40
6.0
 40
6.0
 40
7.0
 40
7.0
 40
7.0
 40
8.0
 40
8.0
 40
8.0
 40
9.0
 40
9.0
 40
9.0
 40
10.0
 40
10.0
 40
10.0
 40
11.0
 40
11.0
 40
11.0
 40
12.0
 40
12.0
 40
12.0
 40
13.0
 40
13.0
 40
13.0
 40
14.0
 40
14.0
 40
14.0
 40
15.0
 40
15.0
 40
15.0
 40
16.0
 40
16.0
 40
16.0
 40
17.0
 40
17.0
 40
17.0
 40
18.0
 40
18.0
 40
18.0
 40
19.0
 40
19.0
 40
19.0
 40
20.0
 40
20.0
 40
20.0
 40
21.0
 40
21.0
 40
21.0
 40
22.0
 40
22.0
 40
22.0
 40
23.0
 40
23.0
 40
23.0
 40
24.0
 40
24.0
 40
24.0
 40
25.0
 40
25.0
 40
25.0
 40
26.0
 40
26.0
 40
26.0
 40
27.0
 40
27.0
 40
27.0
 40
28.0
 40
28.0
 40
28.0
 40
29.0
 40
29.0
 40
29.0
 40
30.0
 40
30.0
 40
30.0
 40
31.0
 40
31.0
 40
31.0
 40
32.0
 40
32.0
 40
32.0
 40
33.0
 40
33.0
 40
33.0
 40
34.0
 40
34.0
 40
34.0
 40
35.0
 40
35.0
 40
35.0
 40
36.0
 40
36.0
 40
36.0
 40
37.0
 40
37.0
 40
37.0
 40
38.0
 40
38.0
 40
38.0
 40
39.0
 40
39.0
 40
39.0
 40
40.0
 40
40.0
 40
40.0
 40
41.0
 40
41.0
 40
41.0
 40
42.0
 40
42.0
 40
42.0
 40
43.0
 40
43.0
 40
43.0
 40
44.0
 40
44.0
 40
44.0
 40
45.0
 40
45.0
 40
45.0
 40
46.0
 40
46.0
 40
46.0
 40
47.0
 40
47.0
 40
47.0
 40
48.0
 40
48.0
 40
48.0
 40
49.0
 40
49.0
 40
49.0
 40
50.0
 40
50.0
 40
50.0
 40
51.0
 40
51.0
 40
51.0
 40
52.0
 40
52.0
 40
52.0
 40
53.0
 40
53.0
 40
53.0
 40
54.0
 40
54.0
 40
54.0
 40
55.0
 40
55.0
 40
55.0
 40
56.0
 40
56.0
 40
56.0
 40
57.0
 40
57.0
 40
57.0
 40
58.0
 40
58.0
 40
58.0
 40
59.0
 40
59.0
 40
59.0
 40
60.0
 40
60.0
 40
60.0
 40
61.0
 40
61.0
 40
61.0
 40
62.0
 40
62.0
 40
62.0
 40
63.0
 40
63.0
 40
63.0
 40
64.0
 40
64.0
 40
64.0
 40
65.0
 40
65.0
 40
65.0
 40
66.0
 40
66.0
 40
66.0
 40
67.0
 40
67.0
 40
67.0
 40
68.0
 40
68.0
 40
68.0
 40
69.0
 40
69.0
 40
69.0
 40
70.0
 40
70.0
 40
70.0
 40
71.0
 40
71.0
 40
71.0
 40
72.0
 40
72.0
 40
72.0
 40
73.0
 40
73.0
 40
73.0
 40
74.0
 40
74.0
 40
74.0
 40
75.0
 40
75.0
 40
75.0
 40
76.0
 40
76.0
 40
76.0
 40
77.0
 40
77.0
 40
77.0
 40
78.0
 40
78.0
 40
78.0
 40
79.0
 40
79.0
 40
79.0
 40
80.0
 40
80.0
 40
80.0
 40
81.0
 40
81.0
 40
81.0
 40
82.0
 40
82.0
 40
82.0
 40
83.0
 40
83.0
 40
83.0
 40
84.0
 40
84.0
 40
84.0
 40
85.0
 40
85.0
 40
85.0
 40
86.0
 40
86.0
 40
86.0
 40
87.0
 40
87.0
 40
87.0
 40
88.0
 40
88.0
 40
88.0
 40
89.0
 40
89.0
 40
89.0
 40
90.0
 40
90.0
 40
90.0
 40
91.0
 40
91.0
 40
91.0
 40
92.0
 40
92.0
 40
92.0
 40
93.0
 40
93.0
 40
93.0
 40
94.0
 40
94.0
 40
94.0
 40
95.0
 40
95.0
 40
95.0
 40
96.0
 40
96.0
 40
96.0
 40
97.0
 40
97.0
 40
97.0
 40
98.0
 40
98.0
 40
98.0
 40
99.0
 40
99.0
 40
99.0
 40
100.0
 40
100.0
 40
100.0
 40
101.0
 40
101.0
 40
101.0
 40
102.0
 40
102.0
 40
102.0
 40
103.0
 40
103.0
 40
103.0
 40
104.0
 40
104.0
 40
104.0
 40
105.0
 40
105.0
 40
105.0
 40
106.0
 40
106.0
 40
106.0
 40
107.0
 40
107.0
 40
107.0
 40
108.0
 40
108.0
 40
108.0
 40
109.0
 40
109.0
 40
109.0
 40
110.0
 40
110.0
 40
110.0
 40
111.0
 40
111.0
 40
111.0
 40
112.0
 40
112.0
 40
112.0
 40
113.0
 40
113.0
 40
113.0
 40
114.0
 40
114.0
 40
114.0
 40
115.0
 40
115.0
 40
115.0
 40
116.0
 40
116.0
 40
116.0
 40
117.0
 40
117.0
 40
117.0
 40
118.0
 40
118.0
 40
118.0
 40
119.0
 40
119.0
 40
119.0
 40
120.0
 40
120.0
 40
120.0
 40
121.0
 40
121.0
 40
121.0
 40
122.0
 40
122.0
 40
122.0
 40
123.0
 40
123.0
 40
123.0
 40
124.0
 40
124.0
 40
124.0
 40
125.0
 40
125.0
 40
125.0
 40
126.0
 40
126.0
 40
126.0
 40
127.0
 40
127.0
 40
127.0
 40
128.0
 40
128.0
 40
128.0
 40
129.0
 40
129.0
 40
129.0
 40
130.0
 40
130.0
 40
130.0
 40
131.0
 40
131.0
 40
131.0
 40
132.0
 40
132.0
 40
132.0
 40
133.0
 40
133.0
 40
133.0
 40
134.0
 40
134.0
 40
134.0
 40
135.0
 40
135.0
 40
135.0
 40
136.0
 40
136.0
 40
136.0
 40
137.0
 40
137.0
 40
137.0
 40
138.0
 40
138.0
 40
138.0
 40
139.0
 40
139.0
 40
139.0
 40
139.0
 10
903.51171875
 20
-502.900390625
 30
0.0
 10
903.51171875
 20
-502.900390625
 30
0.0
 10
903.51171875
 20
-485.7451171875
 30
0.0
 10
903.51171875
 20
-485.7451171875
 30
0.0
 10
903.51171875
 20
-485.7451171875
 30
0.0
 10
760.859375
 20
-485.7451171875
 30
0.0
 10
760.859375
 20
-485.7451171875
 30
0.0
 10
770.8984375
 20
-480.7744140625
 30
0.0
 10
780.48046875
 20
-474.798828125
 30
0.0
 10
789.5078125
 20
-467.8857421875
 30
0.0
 10
798.1123046875
 20
-463.904296875
 30
0.0
 10
805.34765625
 20
-460.8828125
 30
0.0
 10
813.095703125
 20
-460.8828125
 30
0.0
 10
816.78515625
 20
-460.8828125
 30
0.0
 10
820.369140625
 20
-461.572265625
 30
0.0
 10
824.0615234375
 20
-462.98193359375
 30
0.0
 10
828.51171875
 20
-464.68408203125
 30
0.0
 10
834.2890625
 20
-467.03076171875
 30
0.0
 10
839.50390625
 20
-470.10498046875
 30
0.0
 10
839.50390625
 20
-470.10498046875
 30
0.0
 10
841.4228515625
 20
-471.259765625
 30
0.0
 10
841.4228515625
 20
-471.259765625
 30
0.0
 10
845.25390625
 20
-473.59912109375
 30
0.0
 10
848.8681640625
 20
-475.80322265625
 30
0.0
 10
854.8818359375
 20
-475.96826171875
 30
0.0
 10
857.689453125
 20
-475.96826171875
 30
0.0
 10
860.3251953125
 20
-474.6708984375
 30
0.0
 10
862.109375
 20
-472.4140625
 30
0.0
 10
863.984375
 20
-470.03759765625
 30
0.0
 10
864.6962890625
 20
-466.880859375
 30
0.0
 10
863.9990234375
 20
-463.96435546875
 30
0.0
 10
859.59765625
 20
-445.5419921875
 30
0.0
 10
834.66796875
 20
-444.1103515625
 30
0.0
 10
827.1318359375
 20
-444.1103515625
 30
0.0
 10
824.658203125
 20
-444.1103515625
 30
0.0
 10
822.2509765625
 20
-444.23779296875
 30
0.0
 10
819.9794921875
 20
-444.4853515625
 30
0.0
 10
818.123046875
 20
-444.6875
 30
0.0
 10
815.896484375
 20
-445.00244140625
 30
0.0
 10
813.4111328125
 20
-445.48974609375
 30
0.0
 10
814.46484375
 20
-444.26025390625
 30
0.0
 10
815.5029296875
 20
-443.0078125
 30
0.0
 10
816.515625
 20
-441.74072265625
 30
0.0
 10
817.3359375
 20
-441.44091796875
 30
0.0
 10
818.056640625
 20
-440.90869140625
 30
0.0
 10
818.599609375
 20
-440.18896484375
 30
0.0
 10
821.388671875
 20
-436.4921875
 30
0.0
 10
824.2529296875
 20
-432.49609375
 30
0.0
 10
827.22265625
 20
-428.349609375
 30
0.0
 10
845.7939453125
 20
-402.42236328125
 30
0.0
 10
866.9228515625
 20
-372.9189453125
 30
0.0
 10
898.646484375
 20
-375.2431640625
 30
0.0
 10
899.009765625
 20
-375.27294921875
 30
0.0
 10
899.3662109375
 20
-375.2880859375
 30
0.0
 10
899.7109375
 20
-375.2880859375
 30
0.0
 10
899.7109375
 20
-375.2880859375
 30
0.0
 10
899.7109375
 20
-375.2880859375
 30
0.0
 10
899.71484375
 20
-375.2880859375
 30
0.0
 10
906.0537109375
 20
-375.2880859375
 30
0.0
 10
910.6953125
 20
-370.744140625
 30
0.0
 10
910.9951171875
 20
-364.24365234375
 30
0.0
 10
911.283203125
 20
-358.05078125
 30
0.0
 10
907.2421875
 20
-351.0703125
 30
0.0
 10
899.185546875
 20
-350.3203125
 30
0.0
 10
878.333984375
 20
-348.3857421875
 30
0.0
 10
863.728515625
 20
-361.439453125
 30
0.0
 10
852.376953125
 20
-374.1630859375
 30
0.0
 10
849.8203125
 20
-377.02734375
 30
0.0
 10
847.203125
 20
-379.966796875
 30
0.0
 10
844.576171875
 20
-382.99560546875
 30
0.0
 10
849.6669921875
 20
-357.77294921875
 30
0.0
 10
846.1767578125
 20
-333.21044921875
 30
0.0
 10
834.2998046875
 20
-312.38916015625
 30
0.0
 10
831.1357421875
 20
-306.84814453125
 30
0.0
 10
827.296875
 20
-301.59228515625
 30
0.0
 10
822.884765625
 20
-296.755859375
 30
0.0
 10
822.75390625
 20
-294.109375
 30
0.0
 10
822.423828125
 20
-291.5078125
 30
0.0
 10
822.10546875
 20
-288.9736328125
 30
0.0
 10
821.7109375
 20
-285.83935546875
 30
0.0
 10
821.3359375
 20
-282.88525390625
 30
0.0
 10
821.3291015625
 20
-279.95361328125
 30
0.0
 10
821.298828125
 20
-270.7763671875
 30
0.0
 10
823.455078125
 20
-262.8134765625
 30
0.0
 10
828.3095703125
 20
-254.12353515625
 30
0.0
 10
828.609375
 20
-253.5986328125
 30
0.0
 10
829.0400390625
 20
-252.87890625
 30
0.0
 10
829.5615234375
 20
-252.0166015625
 30
0.0
 10
835.267578125
 20
-242.53955078125
 30
0.0
 10
841.037109375
 20
-231.86279296875
 30
0.0
 10
837.216796875
 20
-225.09228515625
 30
0.0
 10
835.9267578125
 20
-222.8203125
 30
0.0
 10
833.017578125
 20
-220.076171875
 30
0.0
 10
826.3896484375
 20
-220.4208984375
 30
0.0
 10
808.41015625
 20
-221.3056640625
 30
0.0
 10
805.583984375
 20
-250.7421875
 30
0.0
 10
804.5185546875
 20
-261.82421875
 30
0.0
 10
804.03125
 20
-266.884765625
 30
0.0
 10
803.3642578125
 20
-273.79052734375
 30
0.0
 10
803.623046875
 20
-280.8310546875
 30
0.0
 10
790.08203125
 20
-272.5234375
 30
0.0
 10
774.62109375
 20
-268.0244140625
 30
0.0
 10
759.306640625
 20
-268.0244140625
 30
0.0
 10
746.05078125
 20
-268.0244140625
 30
0.0
 10
733.12109375
 20
-271.451171875
 30
0.0
 10
721.8447265625
 20
-277.9443359375
 30
0.0
 10
716.240234375
 20
-278.333984375
 30
0.0
 10
710.8642578125
 20
-277.86181640625
 30
0.0
 10
705.998046875
 20
-276.4443359375
 30
0.0
 10
702.8935546875
 20
-275.544921875
 30
0.0
 10
699.796875
 20
-273.08544921875
 30
0.0
 10
696.5283203125
 20
-270.48388671875
 30
0.0
 10
691.6396484375
 20
-266.60009765625
 30
0.0
 10
686.5859375
 20
-262.5810546875
 30
0.0
 10
680.119140625
 20
-262.5810546875
 30
0.0
 10
678.76171875
 20
-262.5810546875
 30
0.0
 10
677.3935546875
 20
-262.7685546875
 30
0.0
 10
676.0517578125
 20
-263.1357421875
 30
0.0
 10
671.96484375
 20
-264.2607421875
 30
0.0
 10
669.033203125
 20
-268.0693359375
 30
0.0
 10
668.9287109375
 20
-272.38818359375
 30
0.0
 10
668.4638671875
 20
-289.79833984375
 30
0.0
 10
691.9619140625
 20
-291.32763671875
 30
0.0
 10
703.25390625
 20
-292.0625
 30
0.0
 10
703.25390625
 20
-292.0625
 30
0.0
 10
704.0634765625
 20
-292.115234375
 30
0.0
 10
704.0634765625
 20
-292.115234375
 30
0.0
 10
690.185546875
 20
-307.1552734375
 30
0.0
 10
680.3251953125
 20
-330.04638671875
 30
0.0
 10
686.7734375
 20
-352.3447265625
 30
0.0
 10
691.5498046875
 20
-368.87744140625
 30
0.0
 10
707.5126953125
 20
-381.34619140625
 30
0.0
 10
723.89453125
 20
-381.34619140625
 30
0.0
 10
730.7705078125
 20
-381.34619140625
 30
0.0
 10
737.369140625
 20
-379.11181640625
 30
0.0
 10
742.9697265625
 20
-374.89794921875
 30
0.0
 10
748.435546875
 20
-370.78173828125
 30
0.0
 10
750.5869140625
 20
-364.4912109375
 30
0.0
 10
748.578125
 20
-358.4853515625
 30
0.0
 10
746.669921875
 20
-352.779296875
 30
0.0
 10
741.369140625
 20
-348.9482421875
 30
0.0
 10
735.388671875
 20
-348.9482421875
 30
0.0
 10
733.20703125
 20
-348.9482421875
 30
0.0
 10
730.99609375
 20
-349.435546875
 30
0.0
 10
728.8134765625
 20
-350.3876953125
 30
0.0
 10
723.9853515625
 20
-352.49462890625
 30
0.0
 10
720.2958984375
 20
-352.02978515625
 30
0.0
 10
717.439453125
 20
-348.7158203125
 30
0.0
 10
713.263671875
 20
-343.8798828125
 30
0.0
 10
711.98828125
 20
-334.6572265625
 30
0.0
 10
712.9033203125
 20
-328.4345703125
 30
0.0
 10
714.5
 20
-317.62255859375
 30
0.0
 10
721.2294921875
 20
-309.1796875
 30
0.0
 10
726.59375
 20
-304.00634765625
 30
0.0
 10
736.4541015625
 20
-294.49169921875
 30
0.0
 10
750.2421875
 20
-289.033203125
 30
0.0
 10
764.4208984375
 20
-289.033203125
 30
0.0
 10
769.1630859375
 20
-289.033203125
 30
0.0
 10
773.845703125
 20
-289.6484375
 30
0.0
 10
778.3291015625
 20
-290.85546875
 30
0.0
 10
786.126953125
 20
-292.95458984375
 30
0.0
 10
793.283203125
 20
-296.3134765625
 30
0.0
 10
799.716796875
 20
-300.90234375
 30
0.0
 10
783.5478515625
 20
-300.3701171875
 30
0.0
 10
769.931640625
 20
-307.61279296875
 30
0.0
 10
763.828125
 20
-319.939453125
 30
0.0
 10
761.9609375
 20
-323.7109375
 30
0.0
 10
762.205078125
 20
-327.9921875
 30
0.0
 10
764.4990234375
 20
-331.6884765625
 30
0.0
 10
766.8046875
 20
-335.39990234375
 30
0.0
 10
770.71875
 20
-337.70166015625
 30
0.0
 10
774.71484375
 20
-337.70166015625
 30
0.0
 10
777.8154296875
 20
-337.70166015625
 30
0.0
 10
780.736328125
 20
-336.29931640625
 30
0.0
 10
782.9287109375
 20
-333.75
 30
0.0
 10
789.466796875
 20
-326.169921875
 30
0.0
 10
795.5517578125
 20
-319.75927734375
 30
0.0
 10
803.814453125
 20
-318.0576171875
 30
0.0
 10
809.16015625
 20
-316.9404296875
 30
0.0
 10
814.333984375
 20
-318.626953125
 30
0.0
 10
819.94921875
 20
-323.291015625
 30
0.0
 10
829.7265625
 20
-340.041015625
 30
0.0
 10
833.54296875
 20
-360.974609375
 30
0.0
 10
830.423828125
 20
-380.85888671875
 30
0.0
 10
825.501953125
 20
-412.1923828125
 30
0.0
 10
807.076171875
 20
-439.806640625
 30
0.0
 10
778.5986328125
 20
-459.59326171875
 30
0.0
 10
778.775390625
 20
-459.337890625
 30
0.0
 10
778.951171875
 20
-459.0830078125
 30
0.0
 10
779.126953125
 20
-458.82080078125
 30
0.0
 10
791.01953125
 20
-441.2158203125
 30
0.0
 10
794.4189453125
 20
-414.7490234375
 30
0.0
 10
777.2978515625
 20
-400.3681640625
 30
0.0
 10
775.1201171875
 20
-398.53857421875
 30
0.0
 10
772.30078125
 20
-397.5341796875
 30
0.0
 10
769.361328125
 20
-397.5341796875
 30
0.0
 10
765.3125
 20
-397.5341796875
 30
0.0
 10
761.5791015625
 20
-399.3408203125
 30
0.0
 10
759.359375
 20
-402.37744140625
 30
0.0
 10
757.328125
 20
-405.1513671875
 30
0.0
 10
756.8251953125
 20
-408.630859375
 30
0.0
 10
757.9501953125
 20
-412.162109375
 30
0.0
 10
764.0419921875
 20
-431.2587890625
 30
0.0
 10
768.447265625
 20
-445.0546875
 30
0.0
 10
754.6845703125
 20
-461.5126953125
 30
0.0
 10
751.9931640625
 20
-464.72900390625
 30
0.0
 10
748.7841796875
 20
-467.7509765625
 30
0.0
 10
744.9560546875
 20
-470.6826171875
 30
0.0
 10
741.23046875
 20
-456.0166015625
 30
0.0
 10
730.2978515625
 20
-442.9931640625
 30
0.0
 10
720.4423828125
 20
-435.150390625
 30
0.0
 10
709.888671875
 20
-426.7451171875
 30
0.0
 10
697.27734375
 20
-421.001953125
 30
0.0
 10
680.8427734375
 20
-417.12548828125
 30
0.0
 10
656.34375
 20
-388.88134765625
 30
0.0
 10
621.490234375
 20
-372.71630859375
 30
0.0
 10
585.005859375
 20
-372.71630859375
 30
0.0
 10
576.01953125
 20
-372.71630859375
 30
0.0
 10
566.9365234375
 20
-373.68359375
 30
0.0
 10
557.841796875
 20
-375.57275390625
 30
0.0
 10
557.841796875
 20
-375.57275390625
 30
0.0
 10
557.841796875
 20
-276.384765625
 30
0.0
 10
557.841796875
 20
-276.384765625
 30
0.0
 10
557.841796875
 20
-210.13427734375
 30
0.0
 10
559.8994140625
 20
-168.1767578125
 30
0.0
 10
564.015625
 20
-150.52685546875
 30
0.0
 10
568.1328125
 20
-132.88427734375
 30
0.0
 10
576.263671875
 20
-120.828125
 30
0.0
 10
588.4248046875
 20
-114.357421875
 30
0.0
 10
600.5712890625
 20
-107.89453125
 30
0.0
 10
626.2548828125
 20
-104.6552734375
 30
0.0
 10
665.46484375
 20
-104.6552734375
 30
0.0
 10
665.46484375
 20
-104.6552734375
 30
0.0
 10
682.5224609375
 20
-104.6552734375
 30
0.0
 10
682.5224609375
 20
-104.6552734375
 30
0.0
 10
682.5224609375
 20
-104.6552734375
 30
0.0
 10
682.5224609375
 20
-77.603515625
 30
0.0
 10
682.5224609375
 20
-77.603515625
 30
0.0
 10
682.5224609375
 20
-77.603515625
 30
0.0
 10
317.8896484375
 20
-77.603515625
 30
0.0
 10
317.8896484375
 20
-77.603515625
 30
0.0
 10
317.8896484375
 20
-77.603515625
 30
0.0
 10
317.8896484375
 20
-104.6552734375
 30
0.0
 10
317.8896484375
 20
-104.6552734375
 30
0.0
 10
317.8896484375
 20
-104.6552734375
 30
0.0
 10
334.947265625
 20
-104.6552734375
 30
0.0
 10
334.947265625
 20
-104.6552734375
 30
0.0
 10
375.32275390625
 20
-104.6552734375
 30
0.0
 10
401.59521484375
 20
-108.1865234375
 30
0.0
 10
413.7529296875
 20
-115.2421875
 30
0.0
 10
425.90283203125
 20
-122.2978515625
 30
0.0
 10
433.74951171875
 20
-135.0439453125
 30
0.0
 10
437.27734375
 20
-153.4736328125
 30
0.0
 10
440.80859375
 20
-171.90283203125
 30
0.0
 10
442.5703125
 20
-212.87109375
 30
0.0
 10
442.5703125
 20
-276.384765625
 30
0.0
 10
442.5703125
 20
-276.384765625
 30
0.0
 10
442.5703125
 20
-296.56884765625
 30
0.0
 10
442.5703125
 20
-296.56884765625
 30
0.0
 10
441.58447265625
 20
-296.44140625
 30
0.0
 10
440.5986328125
 20
-296.302734375
 30
0.0
 10
439.59375
 20
-296.2685546875
 30
0.0
 10
435.02392578125
 20
-296.2685546875
 30
0.0
 10
431.30859375
 20
-299.47021484375
 30
0.0
 10
430.34912109375
 20
-304.2314453125
 30
0.0
 10
429.310546875
 20
-309.375
 30
0.0
 10
431.7587890625
 20
-314.451171875
 30
0.0
 10
436.1748046875
 20
-316.310546875
 30
0.0
 10
438.296875
 20
-317.1953125
 30
0.0
 10
440.4375
 20
-317.8583984375
 30
0.0
 10
442.5703125
 20
-318.43212890625
 30
0.0
 10
442.5703125
 20
-318.43212890625
 30
0.0
 10
442.5703125
 20
-418.6552734375
 30
0.0
 10
442.5703125
 20
-418.6552734375
 30
0.0
 10
432.41845703125
 20
-422.498046875
 30
0.0
 10
422.5400390625
 20
-426.9287109375
 30
0.0
 10
413.1865234375
 20
-431.39404296875
 30
0.0
 10
401.1455078125
 20
-407.89599609375
 30
0.0
 10
384.21142578125
 20
-386.474609375
 30
0.0
 10
367.3974609375
 20
-373.59375
 30
0.0
 10
347.970703125
 20
-358.6953125
 30
0.0
 10
323.685546875
 20
-350.49267578125
 30
0.0
 10
299.017578125
 20
-350.49267578125
 30
0.0
 10
282.14404296875
 20
-350.49267578125
 30
0.0
 10
265.3154296875
 20
-354.40673828125
 30
0.0
 10
250.349609375
 20
-361.79931640625
 30
0.0
 10
242.86328125
 20
-365.50341796875
 30
0.0
 10
235.73291015625
 20
-370.32421875
 30
0.0
 10
228.759765625
 20
-376.41259765625
 30
0.0
 10
230.1357421875
 20
-366.20068359375
 30
0.0
 10
230.5517578125
 20
-354.13671875
 30
0.0
 10
225.60693359375
 20
-344.044921875
 30
0.0
 10
223.7890625
 20
-340.3330078125
 30
0.0
 10
220.36962890625
 20
-338.21142578125
 30
0.0
 10
216.2158203125
 20
-338.21142578125
 30
0.0
 10
212.6435546875
 20
-338.21142578125
 30
0.0
 10
209.04052734375
 20
-339.8232421875
 30
0.0
 10
206.58154296875
 20
-342.5224609375
 30
0.0
 10
204.4072265625
 20
-344.91455078125
 30
0.0
 10
203.36474609375
 20
-347.9208984375
 30
0.0
 10
203.6533203125
 20
-350.97998046875
 30
0.0
 10
204.11083984375
 20
-355.86865234375
 30
0.0
 10
205.3515625
 20
-360.47998046875
 30
0.0
 10
206.55126953125
 20
-364.94091796875
 30
0.0
 10
207.8671875
 20
-369.85205078125
 30
0.0
 10
209.11181640625
 20
-374.48583984375
 30
0.0
 10
209.359375
 20
-379.36669921875
 30
0.0
 10
209.55810546875
 20
-383.30322265625
 30
0.0
 10
208.83056640625
 20
-387.306640625
 30
0.0
 10
208.06591796875
 20
-391.54296875
 30
0.0
 10
207.548828125
 20
-394.384765625
 30
0.0
 10
207.01611328125
 20
-397.3017578125
 30
0.0
 10
206.7724609375
 20
-400.2705078125
 30
0.0
 10
202.5478515625
 20
-405.68408203125
 30
0.0
 10
198.4462890625
 20
-411.322265625
 30
0.0
 10
194.45751953125
 20
-416.86328125
 30
0.0
 10
194.40478515625
 20
-409.54541015625
 30
0.0
 10
193.35888671875
 20
-403.09716796875
 30
0.0
 10
192.71044921875
 20
-399.783203125
 30
0.0
 10
191.810546875
 20
-395.2021484375
 30
0.0
 10
188.1328125
 20
-392.248046875
 30
0.0
 10
183.33837890625
 20
-392.248046875
 30
0.0
 10
179.525390625
 20
-392.248046875
 30
0.0
 10
175.75048828125
 20
-394.16015625
 30
0.0
 10
173.71875
 20
-397.1142578125
 30
0.0
 10
171.91162109375
 20
-399.75341796875
 30
0.0
 10
171.58154296875
 20
-402.9326171875
 30
0.0
 10
172.7890625
 20
-406.07373046875
 30
0.0
 10
175.060546875
 20
-411.94482421875
 30
0.0
 10
176.96142578125
 20
-417.2978515625
 30
0.0
 10
177.2197265625
 20
-423.34130859375
 30
0.0
 10
177.31005859375
 20
-425.59814453125
 30
0.0
 10
177.208984375
 20
-427.9072265625
 30
0.0
 10
177.10009765625
 20
-430.34423828125
 30
0.0
 10
176.95751953125
 20
-433.57568359375
 30
0.0
 10
176.8076171875
 20
-436.912109375
 30
0.0
 10
177.1376953125
 20
-440.271484375
 30
0.0
 10
173.9287109375
 20
-444.3125
 30
0.0
 10
170.880859375
 20
-447.904296875
 30
0.0
 10
167.892578125
 20
-451.150390625
 30
0.0
 10
167.9453125
 20
-443.2177734375
 30
0.0
 10
165.83447265625
 20
-435.39013671875
 30
0.0
 10
161.8046875
 20
-429.662109375
 30
0.0
 10
159.7802734375
 20
-426.767578125
 30
0.0
 10
155.83251953125
 20
-425.43310546875
 30
0.0
 10
152.66845703125
 20
-426.72265625
 30
0.0
 10
151.32275390625
 20
-427.2626953125
 30
0.0
 10
150.453125
 20
-427.97509765625
 30
0.0
 10
149.80078125
 20
-428.58203125
 30
0.0
 10
147.6865234375
 20
-430.5166015625
 30
0.0
 10
146.9404296875
 20
-434.025390625
 30
0.0
 10
148.0576171875
 20
-436.724609375
 30
0.0
 10
148.0576171875
 20
-436.724609375
 30
0.0
 10
148.2373046875
 20
-437.15966796875
 30
0.0
 10
148.2373046875
 20
-437.15966796875
 30
0.0
 10
150.4189453125
 20
-442.4755859375
 30
0.0
 10
152.3046875
 20
-447.07177734375
 30
0.0
 10
152.22998046875
 20
-452.53759765625
 30
0.0
 10
152.15869140625
 20
-458.21337890625
 30
0.0
 10
150.025390625
 20
-463.56689453125
 30
0.0
 10
147.87353515625
 20
-468.8076171875
 30
0.0
 10
146.5166015625
 20
-469.73779296875
 30
0.0
 10
145.14453125
 20
-470.64501953125
 30
0.0
 10
143.7275390625
 20
-471.49951171875
 30
0.0
 10
133.8076171875
 20
-477.4755859375
 30
0.0
 10
121.72900390625
 20
-480.90185546875
 30
0.0
 10
110.60205078125
 20
-480.90185546875
 30
0.0
 10
99.453125
 20
-480.90185546875
 30
0.0
 10
79.70361328125
 20
-477.4755859375
 30
0.0
 10
72.74609375
 20
-454.51708984375
 30
0.0
 10
68.5771484375
 20
-440.78125
 30
0.0
 10
73.578125
 20
-425.41064453125
 30
0.0
 10
84.6298828125
 20
-417.9580078125
 30
0.0
 10
91.38916015625
 20
-413.40673828125
 30
0.0
 10
98.9208984375
 20
-412.9794921875
 30
0.0
 10
105.0087890625
 20
-416.8330078125
 30
0.0
 10
108.21044921875
 20
-418.90234375
 30
0.0
 10
110.65087890625
 20
-421.6240234375
 30
0.0
 10
112.517578125
 20
-425.2529296875
 30
0.0
 10
112.70166015625
 20
-425.5908203125
 30
0.0
 10
112.8740234375
 20
-425.927734375
 30
0.0
 10
113.02783203125
 20
-426.265625
 30
0.0
 10
107.55078125
 20
-426.25048828125
 30
0.0
 10
102.1708984375
 20
-428.7548828125
 30
0.0
 10
98.92822265625
 20
-432.9912109375
 30
0.0
 10
95.6513671875
 20
-437.287109375
 30
0.0
 10
94.75927734375
 20
-443.0078125
 30
0.0
 10
96.423828125
 20
-449.111328125
 30
0.0
 10
98.50830078125
 20
-456.7666015625
 30
0.0
 10
104.9638671875
 20
-461.71484375
 30
0.0
 10
112.8701171875
 20
-461.71484375
 30
0.0
 10
115.67822265625
 20
-461.71484375
 30
0.0
 10
118.56494140625
 20
-461.0703125
 30
0.0
 10
121.2080078125
 20
-459.84814453125
 30
0.0
 10
133.095703125
 20
-454.3671875
 30
0.0
 10
136.5107421875
 20
-440.2412109375
 30
0.0
 10
135.82470703125
 20
-429.81201171875
 30
0.0
 10
134.4599609375
 20
-408.82568359375
 30
0.0
 10
116.8251953125
 20
-391.74560546875
 30
0.0
 10
96.513671875
 20
-391.74560546875
 30
0.0
 10
94.1748046875
 20
-391.74560546875
 30
0.0
 10
91.83154296875
 20
-391.97802734375
 30
0.0
 10
89.544921875
 20
-392.435546875
 30
0.0
 10
68.07470703125
 20
-396.716796875
 30
0.0
 10
50.7998046875
 20
-419.0302734375
 30
0.0
 10
50.22265625
 20
-443.23291015625
 30
0.0
 10
49.6376953125
 20
-467.4208984375
 30
0.0
 10
64.783203125
 20
-490.2216796875
 30
0.0
 10
87.05908203125
 20
-498.67919921875
 30
0.0
 10
91.025390625
 20
-500.18603515625
 30
0.0
 10
95.17919921875
 20
-501.2734375
 30
0.0
 10
99.4453125
 20
-501.9404296875
 30
0.0
 10
99.4453125
 20
-501.9404296875
 30
0.0
 10
99.4453125
 20
-502.900390625
 30
0.0
 10
99.4453125
 20
-502.900390625
 30
0.0
 10
99.4453125
 20
-502.900390625
 30
0.0
 10
903.51171875
 20
-502.900390625
 30
0.0
 10
903.51171875
 20
-502.900390625
 30
0.0
  0
SPLINE
  5
56
330
3C
100
AcDbEntity
  8
Layer 1
370
     0
100
AcDbSpline
210
0.0
220
0.0
230
1.0
 70
    11
 71
     3
 72
    80
 73
    76
 74
     0
 42
0.0000000001
 43
0.0000000001
 40
0.0
 40
0.0
 40
0.0
 40
0.0
 40
1.0
 40
1.0
 40
1.0
 40
2.0
 40
2.0
 40
2.0
 40
3.0
 40
3.0
 40
3.0
 40
4.0
 40
4.0
 40
4.0
 40
5.0
 40
5.0
 40
5.0
 40
6.0
 40
6.0
 40
6.0
 40
7.0
 40
7.0
 40
7.0
 40
8.0
 40
8.0
 40
8.0
 40
9.0
 40
9.0
 40
9.0
 40
10.0
 40
10.0
 40
10.0
 40
11.0
 40
11.0
 40
11.0
 40
12.0
 40
12.0
 40
12.0
 40
13.0
 40
13.0
 40
13.0
 40
14.0
 40
14.0
 40
14.0
 40
15.0
 40
15.0
 40
15.0
 40
16.0
 40
16.0
 40
16.0
 40
17.0
 40
17.0
 40
17.0
 40
18.0
 40
18.0
 40
18.0
 40
19.0
 40
19.0
 40
19.0
 40
20.0
 40
20.0
 40
20.0
 40
21.0
 40
21.0
 40
21.0
 40
22.0
 40
22.0
 40
22.0
 40
23.0
 40
23.0
 40
23.0
 40
24.0
 40
24.0
 40
24.0
 40
25.0
 40
25.0
 40
25.0
 40
25.0
 10
259.13330078125
 20
-470.0302734375
 30
0.0
 10
243.77783203125
 20
-461.53515625
 30
0.0
 10
237.2998046875
 20
-443.90771484375
 30
0.0
 10
243.38037109375
 20
-427.15771484375
 30
0.0
 10
246.64208984375
 20
-418.16015625
 30
0.0
 10
252.8427734375
 20
-411.599609375
 30
0.0
 10
260.8427734375
 20
-408.67578125
 30
0.0
 10
266.76220703125
 20
-406.5087890625
 30
0.0
 10
271.1337890625
 20
-406.25390625
 30
0.0
 10
274.44384765625
 20
-407.86572265625
 30
0.0
 10
276.86572265625
 20
-409.04296875
 30
0.0
 10
279.79736328125
 20
-412.1396484375
 30
0.0
 10
280.30712890625
 20
-415.07861328125
 30
0.0
 10
280.56201171875
 20
-416.54833984375
 30
0.0
 10
280.16455078125
 20
-417.75537109375
 30
0.0
 10
279.05517578125
 20
-418.89501953125
 30
0.0
 10
274.69140625
 20
-423.3486328125
 30
0.0
 10
273.4619140625
 20
-428.9423828125
 30
0.0
 10
275.6884765625
 20
-434.2431640625
 30
0.0
 10
278.0205078125
 20
-439.79150390625
 30
0.0
 10
283.69970703125
 20
-443.66796875
 30
0.0
 10
289.49560546875
 20
-443.66796875
 30
0.0
 10
294.0244140625
 20
-443.66796875
 30
0.0
 10
297.94580078125
 20
-441.35107421875
 30
0.0
 10
300.5361328125
 20
-437.15966796875
 30
0.0
 10
306.8603515625
 20
-426.91015625
 30
0.0
 10
307.82421875
 20
-414.26171875
 30
0.0
 10
303.115234375
 20
-403.32958984375
 30
0.0
 10
298.43310546875
 20
-392.4580078125
 30
0.0
 10
289.01953125
 20
-384.83251953125
 30
0.0
 10
277.29296875
 20
-382.4033203125
 30
0.0
 10
274.40625
 20
-381.8037109375
 30
0.0
 10
271.4521484375
 20
-381.49609375
 30
0.0
 10
268.51318359375
 20
-381.49609375
 30
0.0
 10
247.8193359375
 20
-381.49609375
 30
0.0
 10
227.26416015625
 20
-397.2041015625
 30
0.0
 10
219.634765625
 20
-418.85009765625
 30
0.0
 10
211.41357421875
 20
-442.1982421875
 30
0.0
 10
217.9853515625
 20
-468.185546875
 30
0.0
 10
235.98779296875
 20
-483.51123046875
 30
0.0
 10
236.89501953125
 20
-484.27587890625
 30
0.0
 10
237.82470703125
 20
-485.025390625
 30
0.0
 10
238.77685546875
 20
-485.7451171875
 30
0.0
 10
238.77685546875
 20
-485.7451171875
 30
0.0
 10
158.2880859375
 20
-485.7451171875
 30
0.0
 10
158.2880859375
 20
-485.7451171875
 30
0.0
 10
159.8251953125
 20
-484.65087890625
 30
0.0
 10
161.34375
 20
-483.51123046875
 30
0.0
 10
162.83544921875
 20
-482.333984375
 30
0.0
 10
180.001953125
 20
-468.7177734375
 30
0.0
 10
192.36572265625
 20
-450.54345703125
 30
0.0
 10
204.32470703125
 20
-432.96875
 30
0.0
 10
209.955078125
 20
-424.69091796875
 30
0.0
 10
215.77734375
 20
-416.1357421875
 30
0.0
 10
222.00048828125
 20
-408.21826171875
 30
0.0
 10
242.47314453125
 20
-382.15576171875
 30
0.0
 10
268.9404296875
 20
-368.322265625
 30
0.0
 10
298.87890625
 20
-368.2177734375
 30
0.0
 10
328.04931640625
 20
-368.2177734375
 30
0.0
 10
355.26611328125
 20
-381.1435546875
 30
0.0
 10
375.5029296875
 20
-404.61181640625
 30
0.0
 10
383.23291015625
 20
-413.57177734375
 30
0.0
 10
389.9287109375
 20
-425.140625
 30
0.0
 10
395.91943359375
 20
-439.896484375
 30
0.0
 10
393.4638671875
 20
-441.1337890625
 30
0.0
 10
391.0380859375
 20
-442.36328125
 30
0.0
 10
388.646484375
 20
-443.578125
 30
0.0
 10
379.064453125
 20
-448.4287109375
 30
0.0
 10
370.02197265625
 20
-453.009765625
 30
0.0
 10
361.78564453125
 20
-456.72900390625
 30
0.0
 10
338.1787109375
 20
-467.38330078125
 30
0.0
 10
313.076171875
 20
-477.2431640625
 30
0.0
 10
289.4130859375
 20
-477.2431640625
 30
0.0
 10
277.97900390625
 20
-477.2431640625
 30
0.0
 10
267.79345703125
 20
-474.8212890625
 30
0.0
 10
259.13330078125
 20
-470.0302734375
 30
0.0
  0
SPLINE
  5
57
330
3C
100
AcDbEntity
  8
Layer 1
370
     0
100
AcDbSpline
210
0.0
220
0.0
230
1.0
 70
    11
 71
     3
 72
    20
 73
    16
 74
     0
 42
0.0000000001
 43
0.0000000001
 40
0.0
 40
0.0
 40
0.0
 40
0.0
 40
1.0
 40
1.0
 40
1.0
 40
2.0
 40
2.0
 40
2.0
 40
3.0
 40
3.0
 40
3.0
 40
4.0
 40
4.0
 40
4.0
 40
5.0
 40
5.0
 40
5.0
 40
5.0
 10
346.666015625
 20
-485.7451171875
 30
0.0
 10
362.966796875
 20
-478.99755859375
 30
0.0
 10
378.65185546875
 20
-470.607421875
 30
0.0
 10
393.9697265625
 20
-462.419921875
 30
0.0
 10
396.79296875
 20
-460.91259765625
 30
0.0
 10
399.61572265625
 20
-459.3984375
 30
0.0
 10
402.4384765625
 20
-457.8984375
 30
0.0
 10
405.26904296875
 20
-466.603515625
 30
0.0
 10
407.7958984375
 20
-475.443359375
 30
0.0
 10
410.24755859375
 20
-484.0361328125
 30
0.0
 10
410.24755859375
 20
-484.0361328125
 30
0.0
 10
410.73876953125
 20
-485.7451171875
 30
0.0
 10
410.73876953125
 20
-485.7451171875
 30
0.0
 10
410.73876953125
 20
-485.7451171875
 30
0.0
 10
346.666015625
 20
-485.7451171875
 30
0.0
 10
346.666015625
 20
-485.7451171875
 30
0.0
  0
SPLINE
  5
58
330
3C
100
AcDbEntity
  8
Layer 1
370
     0
100
AcDbSpline
210
0.0
220
0.0
230
1.0
 70
    11
 71
     3
 72
    23
 73
    19
 74
     0
 42
0.0000000001
 43
0.0000000001
 40
0.0
 40
0.0
 40
0.0
 40
0.0
 40
1.0
 40
1.0
 40
1.0
 40
2.0
 40
2.0
 40
2.0
 40
3.0
 40
3.0
 40
3.0
 40
4.0
 40
4.0
 40
4.0
 40
5.0
 40
5.0
 40
5.0
 40
6.0
 40
6.0
 40
6.0
 40
6.0
 10
716.0224609375
 20
-449.291015625
 30
0.0
 10
724.8701171875
 20
-457.26123046875
 30
0.0
 10
730.15625
 20
-466.3408203125
 30
0.0
 10
732.9599609375
 20
-478.4501953125
 30
0.0
 10
728.529296875
 20
-480.931640625
 30
0.0
 10
724.0673828125
 20
-483.13623046875
 30
0.0
 10
720.138671875
 20
-485.01806640625
 30
0.0
 10
719.029296875
 20
-485.27294921875
 30
0.0
 10
717.9267578125
 20
-485.5126953125
 30
0.0
 10
716.8173828125
 20
-485.7451171875
 30
0.0
 10
716.8173828125
 20
-485.7451171875
 30
0.0
 10
712.333984375
 20
-485.7451171875
 30
0.0
 10
712.333984375
 20
-485.7451171875
 30
0.0
 10
709.84375
 20
-468.275390625
 30
0.0
 10
703.763671875
 20
-451.3154296875
 30
0.0
 10
694.544921875
 20
-436.0048828125
 30
0.0
 10
702.931640625
 20
-439.4765625
 30
0.0
 10
710.0166015625
 20
-443.8701171875
 30
0.0
 10
716.0224609375
 20
-449.291015625
 30
0.0
  0
SPLINE
  5
59
330
3C
100
AcDbEntity
  8
Layer 1
370
     0
100
AcDbSpline
210
0.0
220
0.0
230
1.0
 70
    11
 71
     3
 72
    20
 73
    16
 74
     0
 42
0.0000000001
 43
0.0000000001
 40
0.0
 40
0.0
 40
0.0
 40
0.0
 40
1.0
 40
1.0
 40
1.0
 40
2.0
 40
2.0
 40
2.0
 40
3.0
 40
3.0
 40
3.0
 40
4.0
 40
4.0
 40
4.0
 40
5.0
 40
5.0
 40
5.0
 40
5.0
 10
616.572265625
 20
-390.7861328125
 30
0.0
 10
627.3984375
 20
-393.8974609375
 30
0.0
 10
640.474609375
 20
-401.74755859375
 30
0.0
 10
652.9169921875
 20
-412.447265625
 30
0.0
 10
650.28125
 20
-412.1171875
 30
0.0
 10
647.6650390625
 20
-411.8095703125
 30
0.0
 10
645.0859375
 20
-411.50244140625
 30
0.0
 10
641.404296875
 20
-411.0673828125
 30
0.0
 10
637.7490234375
 20
-410.6328125
 30
0.0
 10
634.1318359375
 20
-410.16015625
 30
0.0
 10
606.7236328125
 20
-406.59130859375
 30
0.0
 10
581.9619140625
 20
-400.0908203125
 30
0.0
 10
560.3642578125
 20
-390.80078125
 30
0.0
 10
579.7802734375
 20
-386.18212890625
 30
0.0
 10
600.373046875
 20
-386.13720703125
 30
0.0
 10
616.572265625
 20
-390.7861328125
 30
0.0
  0
SPLINE
  5
5A
330
3C
100
AcDbEntity
  8
Layer 1
370
     0
100
AcDbSpline
210
0.0
220
0.0
230
1.0
 70
    11
 71
     3
 72
    29
 73
    25
 74
     0
 42
0.0000000001
 43
0.0000000001
 40
0.0
 40
0.0
 40
0.0
 40
0.0
 40
1.0
 40
1.0
 40
1.0
 40
2.0
 40
2.0
 40
2.0
 40
3.0
 40
3.0
 40
3.0
 40
4.0
 40
4.0
 40
4.0
 40
5.0
 40
5.0
 40
5.0
 40
6.0
 40
6.0
 40
6.0
 40
7.0
 40
7.0
 40
7.0
 40
8.0
 40
8.0
 40
8.0
 40
8.0
 10
633.2919921875
 20
-423.6484375
 30
0.0
 10
643.169921875
 20
-424.94580078125
 30
0.0
 10
653.3857421875
 20
-426.2880859375
 30
0.0
 10
663.4931640625
 20
-427.8623046875
 30
0.0
 10
665.4794921875
 20
-428.17724609375
 30
0.0
 10
667.458984375
 20
-428.50732421875
 30
0.0
 10
669.4345703125
 20
-428.87451171875
 30
0.0
 10
686.4658203125
 20
-448.46630859375
 30
0.0
 10
695.771484375
 20
-468.9130859375
 30
0.0
 10
695.4111328125
 20
-485.7451171875
 30
0.0
 10
695.4111328125
 20
-485.7451171875
 30
0.0
 10
559.73828125
 20
-485.7451171875
 30
0.0
 10
559.73828125
 20
-485.7451171875
 30
0.0
 10
561.099609375
 20
-483.826171875
 30
0.0
 10
562.2763671875
 20
-481.771484375
 30
0.0
 10
563.2626953125
 20
-479.6044921875
 30
0.0
 10
570.115234375
 20
-464.515625
 30
0.0
 10
566.4716796875
 20
-447.7392578125
 30
0.0
 10
557.841796875
 20
-434.8876953125
 30
0.0
 10
557.841796875
 20
-434.8876953125
 30
0.0
 10
557.841796875
 20
-409.654296875
 30
0.0
 10
557.841796875
 20
-409.654296875
 30
0.0
 10
582.966796875
 20
-416.9794921875
 30
0.0
 10
608.4775390625
 20
-420.390625
 30
0.0
 10
633.2919921875
 20
-423.6484375
 30
0.0
  0
SPLINE
  5
5B
330
3C
100
AcDbEntity
  8
Layer 1
370
     0
100
AcDbSpline
210
0.0
220
0.0
230
1.0
 70
    11
 71
     3
 72
    17
 73
    13
 74
     0
 42
0.0000000001
 43
0.0000000001
 40
0.0
 40
0.0
 40
0.0
 40
0.0
 40
1.0
 40
1.0
 40
1.0
 40
2.0
 40
2.0
 40
2.0
 40
3.0
 40
3.0
 40
3.0
 40
4.0
 40
4.0
 40
4.0
 40
4.0
 10
420.87939453125
 20
-448.40625
 30
0.0
 10
427.67236328125
 20
-445.05859375
 30
0.0
 10
434.9228515625
 20
-441.69580078125
 30
0.0
 10
442.5703125
 20
-438.6220703125
 30
0.0
 10
442.5703125
 20
-438.6220703125
 30
0.0
 10
442.5703125
 20
-485.7451171875
 30
0.0
 10
442.5703125
 20
-485.7451171875
 30
0.0
 10
442.5703125
 20
-485.7451171875
 30
0.0
 10
429.86181640625
 20
-485.7451171875
 30
0.0
 10
429.86181640625
 20
-485.7451171875
 30
0.0
 10
429.0146484375
 20
-474.06396484375
 30
0.0
 10
426.00048828125
 20
-461.54248046875
 30
0.0
 10
420.87939453125
 20
-448.40625
 30
0.0
  0
HATCH
  5
5C
330
3C
100
AcDbEntity
  8
Layer 1
 62
     7
100
AcDbHatch
 10
0.0
 20
0.0
 30
0.0
210
0.0
220
0.0
230
1.0
  2
SOLID
 70
     1
 71
     0
 91
        7
 92
        1
 93
        1
 72
     4
 94
        3
 73
     0
 74
     1
 95
      422
 96
      418
 40
0.0
 40
0.0
 40
0.0
 40
0.0
 40
1.0
 40
1.0
 40
1.0
 40
2.0
 40
2.0
 40
2.0
 40
3.0
 40
3.0
 40
3.0
 40
4.0
 40
4.0
 40
4.0
 40
5.0
 40
5.0
 40
5.0
 40
6.0
 40
6.0
 40
6.0
 40
7.0
 40
7.0
 40
7.0
 40
8.0
 40
8.0
 40
8.0
 40
9.0
 40
9.0
 40
9.0
 40
10.0
 40
10.0
 40
10.0
 40
11.0
 40
11.0
 40
11.0
 40
12.0
 40
12.0
 40
12.0
 40
13.0
 40
13.0
 40
13.0
 40
14.0
 40
14.0
 40
14.0
 40
15.0
 40
15.0
 40
15.0
 40
16.0
 40
16.0
 40
16.0
 40
17.0
 40
17.0
 40
17.0
 40
18.0
 40
18.0
 40
18.0
 40
19.0
 40
19.0
 40
19.0
 40
20.0
 40
20.0
 40
20.0
 40
21.0
 40
21.0
 40
21.0
 40
22.0
 40
22.0
 40
22.0
 40
23.0
 40
23.0
 40
23.0
 40
24.0
 40
24.0
 40
24.0
 40
25.0
 40
25.0
 40
25.0
 40
26.0
 40
26.0
 40
26.0
 40
27.0
 40
27.0
 40
27.0
 40
28.0
 40
28.0
 40
28.0
 40
29.0
 40
29.0
 40
29.0
 40
30.0
 40
30.0
 40
30.0
 40
31.0
 40
31.0
 40
31.0
 40
32.0
 40
32.0
 40
32.0
 40
33.0
 40
33.0
 40
33.0
 40
34.0
 40
34.0
 40
34.0
 40
35.0
 40
35.0
 40
35.0
 40
36.0
 40
36.0
 40
36.0
 40
37.0
 40
37.0
 40
37.0
 40
38.0
 40
38.0
 40
38.0
 40
39.0
 40
39.0
 40
39.0
 40
40.0
 40
40.0
 40
40.0
 40
41.0
 40
41.0
 40
41.0
 40
42.0
 40
42.0
 40
42.0
 40
43.0
 40
43.0
 40
43.0
 40
44.0
 40
44.0
 40
44.0
 40
45.0
 40
45.0
 40
45.0
 40
46.0
 40
46.0
 40
46.0
 40
47.0
 40
47.0
 40
47.0
 40
48.0
 40
48.0
 40
48.0
 40
49.0
 40
49.0
 40
49.0
 40
50.0
 40
50.0
 40
50.0
 40
51.0
 40
51.0
 40
51.0
 40
52.0
 40
52.0
 40
52.0
 40
53.0
 40
53.0
 40
53.0
 40
54.0
 40
54.0
 40
54.0
 40
55.0
 40
55.0
 40
55.0
 40
56.0
 40
56.0
 40
56.0
 40
57.0
 40
57.0
 40
57.0
 40
58.0
 40
58.0
 40
58.0
 40
59.0
 40
59.0
 40
59.0
 40
60.0
 40
60.0
 40
60.0
 40
61.0
 40
61.0
 40
61.0
 40
62.0
 40
62.0
 40
62.0
 40
63.0
 40
63.0
 40
63.0
 40
64.0
 40
64.0
 40
64.0
 40
65.0
 40
65.0
 40
65.0
 40
66.0
 40
66.0
 40
66.0
 40
67.0
 40
67.0
 40
67.0
 40
68.0
 40
68.0
 40
68.0
 40
69.0
 40
69.0
 40
69.0
 40
70.0
 40
70.0
 40
70.0
 40
71.0
 40
71.0
 40
71.0
 40
72.0
 40
72.0
 40
72.0
 40
73.0
 40
73.0
 40
73.0
 40
74.0
 40
74.0
 40
74.0
 40
75.0
 40
75.0
 40
75.0
 40
76.0
 40
76.0
 40
76.0
 40
77.0
 40
77.0
 40
77.0
 40
78.0
 40
78.0
 40
78.0
 40
79.0
 40
79.0
 40
79.0
 40
80.0
 40
80.0
 40
80.0
 40
81.0
 40
81.0
 40
81.0
 40
82.0
 40
82.0
 40
82.0
 40
83.0
 40
83.0
 40
83.0
 40
84.0
 40
84.0
 40
84.0
 40
85.0
 40
85.0
 40
85.0
 40
86.0
 40
86.0
 40
86.0
 40
87.0
 40
87.0
 40
87.0
 40
88.0
 40
88.0
 40
88.0
 40
89.0
 40
89.0
 40
89.0
 40
90.0
 40
90.0
 40
90.0
 40
91.0
 40
91.0
 40
91.0
 40
92.0
 40
92.0
 40
92.0
 40
93.0
 40
93.0
 40
93.0
 40
94.0
 40
94.0
 40
94.0
 40
95.0
 40
95.0
 40
95.0
 40
96.0
 40
96.0
 40
96.0
 40
97.0
 40
97.0
 40
97.0
 40
98.0
 40
98.0
 40
98.0
 40
99.0
 40
99.0
 40
99.0
 40
100.0
 40
100.0
 40
100.0
 40
101.0
 40
101.0
 40
101.0
 40
102.0
 40
102.0
 40
102.0
 40
103.0
 40
103.0
 40
103.0
 40
104.0
 40
104.0
 40
104.0
 40
105.0
 40
105.0
 40
105.0
 40
106.0
 40
106.0
 40
106.0
 40
107.0
 40
107.0
 40
107.0
 40
108.0
 40
108.0
 40
108.0
 40
109.0
 40
109.0
 40
109.0
 40
110.0
 40
110.0
 40
110.0
 40
111.0
 40
111.0
 40
111.0
 40
112.0
 40
112.0
 40
112.0
 40
113.0
 40
113.0
 40
113.0
 40
114.0
 40
114.0
 40
114.0
 40
115.0
 40
115.0
 40
115.0
 40
116.0
 40
116.0
 40
116.0
 40
117.0
 40
117.0
 40
117.0
 40
118.0
 40
118.0
 40
118.0
 40
119.0
 40
119.0
 40
119.0
 40
120.0
 40
120.0
 40
120.0
 40
121.0
 40
121.0
 40
121.0
 40
122.0
 40
122.0
 40
122.0
 40
123.0
 40
123.0
 40
123.0
 40
124.0
 40
124.0
 40
124.0
 40
125.0
 40
125.0
 40
125.0
 40
126.0
 40
126.0
 40
126.0
 40
127.0
 40
127.0
 40
127.0
 40
128.0
 40
128.0
 40
128.0
 40
129.0
 40
129.0
 40
129.0
 40
130.0
 40
130.0
 40
130.0
 40
131.0
 40
131.0
 40
131.0
 40
132.0
 40
132.0
 40
132.0
 40
133.0
 40
133.0
 40
133.0
 40
134.0
 40
134.0
 40
134.0
 40
135.0
 40
135.0
 40
135.0
 40
136.0
 40
136.0
 40
136.0
 40
137.0
 40
137.0
 40
137.0
 40
138.0
 40
138.0
 40
138.0
 40
139.0
 40
139.0
 40
139.0
 40
139.0
 10
903.51171875
 20
-502.900390625
 10
903.51171875
 20
-502.900390625
 10
903.51171875
 20
-485.7451171875
 10
903.51171875
 20
-485.7451171875
 10
903.51171875
 20
-485.7451171875
 10
760.859375
 20
-485.7451171875
 10
760.859375
 20
-485.7451171875
 10
770.8984375
 20
-480.7744140625
 10
780.48046875
 20
-474.798828125
 10
789.5078125
 20
-467.8857421875
 10
798.1123046875
 20
-463.904296875
 10
805.34765625
 20
-460.8828125
 10
813.095703125
 20
-460.8828125
 10
816.78515625
 20
-460.8828125
 10
820.369140625
 20
-461.572265625
 10
824.0615234375
 20
-462.98193359375
 10
828.51171875
 20
-464.68408203125
 10
834.2890625
 20
-467.03076171875
 10
839.50390625
 20
-470.10498046875
 10
839.50390625
 20
-470.10498046875
 10
841.4228515625
 20
-471.259765625
 10
841.4228515625
 20
-471.259765625
 10
845.25390625
 20
-473.59912109375
 10
848.8681640625
 20
-475.80322265625
 10
854.8818359375
 20
-475.96826171875
 10
857.689453125
 20
-475.96826171875
 10
860.3251953125
 20
-474.6708984375
 10
862.109375
 20
-472.4140625
 10
863.984375
 20
-470.03759765625
 10
864.6962890625
 20
-466.880859375
 10
863.9990234375
 20
-463.96435546875
 10
859.59765625
 20
-445.5419921875
 10
834.66796875
 20
-444.1103515625
 10
827.1318359375
 20
-444.1103515625
 10
824.658203125
 20
-444.1103515625
 10
822.2509765625
 20
-444.23779296875
 10
819.9794921875
 20
-444.4853515625
 10
818.123046875
 20
-444.6875
 10
815.896484375
 20
-445.00244140625
 10
813.4111328125
 20
-445.48974609375
 10
814.46484375
 20
-444.26025390625
 10
815.5029296875
 20
-443.0078125
 10
816.515625
 20
-441.74072265625
 10
817.3359375
 20
-441.44091796875
 10
818.056640625
 20
-440.90869140625
 10
818.599609375
 20
-440.18896484375
 10
821.388671875
 20
-436.4921875
 10
824.2529296875
 20
-432.49609375
 10
827.22265625
 20
-428.349609375
 10
845.7939453125
 20
-402.42236328125
 10
866.9228515625
 20
-372.9189453125
 10
898.646484375
 20
-375.2431640625
 10
899.009765625
 20
-375.27294921875
 10
899.3662109375
 20
-375.2880859375
 10
899.7109375
 20
-375.2880859375
 10
899.7109375
 20
-375.2880859375
 10
899.7109375
 20
-375.2880859375
 10
899.71484375
 20
-375.2880859375
 10
906.0537109375
 20
-375.2880859375
 10
910.6953125
 20
-370.744140625
 10
910.9951171875
 20
-364.24365234375
 10
911.283203125
 20
-358.05078125
 10
907.2421875
 20
-351.0703125
 10
899.185546875
 20
-350.3203125
 10
878.333984375
 20
-348.3857421875
 10
863.728515625
 20
-361.439453125
 10
852.376953125
 20
-374.1630859375
 10
849.8203125
 20
-377.02734375
 10
847.203125
 20
-379.966796875
 10
844.576171875
 20
-382.99560546875
 10
849.6669921875
 20
-357.77294921875
 10
846.1767578125
 20
-333.21044921875
 10
834.2998046875
 20
-312.38916015625
 10
831.1357421875
 20
-306.84814453125
 10
827.296875
 20
-301.59228515625
 10
822.884765625
 20
-296.755859375
 10
822.75390625
 20
-294.109375
 10
822.423828125
 20
-291.5078125
 10
822.10546875
 20
-288.9736328125
 10
821.7109375
 20
-285.83935546875
 10
821.3359375
 20
-282.88525390625
 10
821.3291015625
 20
-279.95361328125
 10
821.298828125
 20
-270.7763671875
 10
823.455078125
 20
-262.8134765625
 10
828.3095703125
 20
-254.12353515625
 10
828.609375
 20
-253.5986328125
 10
829.0400390625
 20
-252.87890625
 10
829.5615234375
 20
-252.0166015625
 10
835.267578125
 20
-242.53955078125
 10
841.037109375
 20
-231.86279296875
 10
837.216796875
 20
-225.09228515625
 10
835.9267578125
 20
-222.8203125
 10
833.017578125
 20
-220.076171875
 10
826.3896484375
 20
-220.4208984375
 10
808.41015625
 20
-221.3056640625
 10
805.583984375
 20
-250.7421875
 10
804.5185546875
 20
-261.82421875
 10
804.03125
 20
-266.884765625
 10
803.3642578125
 20
-273.79052734375
 10
803.623046875
 20
-280.8310546875
 10
790.08203125
 20
-272.5234375
 10
774.62109375
 20
-268.0244140625
 10
759.306640625
 20
-268.0244140625
 10
746.05078125
 20
-268.0244140625
 10
733.12109375
 20
-271.451171875
 10
721.8447265625
 20
-277.9443359375
 10
716.240234375
 20
-278.333984375
 10
710.8642578125
 20
-277.86181640625
 10
705.998046875
 20
-276.4443359375
 10
702.8935546875
 20
-275.544921875
 10
699.796875
 20
-273.08544921875
 10
696.5283203125
 20
-270.48388671875
 10
691.6396484375
 20
-266.60009765625
 10
686.5859375
 20
-262.5810546875
 10
680.119140625
 20
-262.5810546875
 10
678.76171875
 20
-262.5810546875
 10
677.3935546875
 20
-262.7685546875
 10
676.0517578125
 20
-263.1357421875
 10
671.96484375
 20
-264.2607421875
 10
669.033203125
 20
-268.0693359375
 10
668.9287109375
 20
-272.38818359375
 10
668.4638671875
 20
-289.79833984375
 10
691.9619140625
 20
-291.32763671875
 10
703.25390625
 20
-292.0625
 10
703.25390625
 20
-292.0625
 10
704.0634765625
 20
-292.115234375
 10
704.0634765625
 20
-292.115234375
 10
690.185546875
 20
-307.1552734375
 10
680.3251953125
 20
-330.04638671875
 10
686.7734375
 20
-352.3447265625
 10
691.5498046875
 20
-368.87744140625
 10
707.5126953125
 20
-381.34619140625
 10
723.89453125
 20
-381.34619140625
 10
730.7705078125
 20
-381.34619140625
 10
737.369140625
 20
-379.11181640625
 10
742.9697265625
 20
-374.89794921875
 10
748.435546875
 20
-370.78173828125
 10
750.5869140625
 20
-364.4912109375
 10
748.578125
 20
-358.4853515625
 10
746.669921875
 20
-352.779296875
 10
741.369140625
 20
-348.9482421875
 10
735.388671875
 20
-348.9482421875
 10
733.20703125
 20
-348.9482421875
 10
730.99609375
 20
-349.435546875
 10
728.8134765625
 20
-350.3876953125
 10
723.9853515625
 20
-352.49462890625
 10
720.2958984375
 20
-352.02978515625
 10
717.439453125
 20
-348.7158203125
 10
713.263671875
 20
-343.8798828125
 10
711.98828125
 20
-334.6572265625
 10
712.9033203125
 20
-328.4345703125
 10
714.5
 20
-317.62255859375
 10
721.2294921875
 20
-309.1796875
 10
726.59375
 20
-304.00634765625
 10
736.4541015625
 20
-294.49169921875
 10
750.2421875
 20
-289.033203125
 10
764.4208984375
 20
-289.033203125
 10
769.1630859375
 20
-289.033203125
 10
773.845703125
 20
-289.6484375
 10
778.3291015625
 20
-290.85546875
 10
786.126953125
 20
-292.95458984375
 10
793.283203125
 20
-296.3134765625
 10
799.716796875
 20
-300.90234375
 10
783.5478515625
 20
-300.3701171875
 10
769.931640625
 20
-307.61279296875
 10
763.828125
 20
-319.939453125
 10
761.9609375
 20
-323.7109375
 10
762.205078125
 20
-327.9921875
 10
764.4990234375
 20
-331.6884765625
 10
766.8046875
 20
-335.39990234375
 10
770.71875
 20
-337.70166015625
 10
774.71484375
 20
-337.70166015625
 10
777.8154296875
 20
-337.70166015625
 10
780.736328125
 20
-336.29931640625
 10
782.9287109375
 20
-333.75
 10
789.466796875
 20
-326.169921875
 10
795.5517578125
 20
-319.75927734375
 10
803.814453125
 20
-318.0576171875
 10
809.16015625
 20
-316.9404296875
 10
814.333984375
 20
-318.626953125
 10
819.94921875
 20
-323.291015625
 10
829.7265625
 20
-340.041015625
 10
833.54296875
 20
-360.974609375
 10
830.423828125
 20
-380.85888671875
 10
825.501953125
 20
-412.1923828125
 10
807.076171875
 20
-439.806640625
 10
778.5986328125
 20
-459.59326171875
 10
778.775390625
 20
-459.337890625
 10
778.951171875
 20
-459.0830078125
 10
779.126953125
 20
-458.82080078125
 10
791.01953125
 20
-441.2158203125
 10
794.4189453125
 20
-414.7490234375
 10
777.2978515625
 20
-400.3681640625
 10
775.1201171875
 20
-398.53857421875
 10
772.30078125
 20
-397.5341796875
 10
769.361328125
 20
-397.5341796875
 10
765.3125
 20
-397.5341796875
 10
761.5791015625
 20
-399.3408203125
 10
759.359375
 20
-402.37744140625
 10
757.328125
 20
-405.1513671875
 10
756.8251953125
 20
-408.630859375
 10
757.9501953125
 20
-412.162109375
 10
764.0419921875
 20
-431.2587890625
 10
768.447265625
 20
-445.0546875
 10
754.6845703125
 20
-461.5126953125
 10
751.9931640625
 20
-464.72900390625
 10
748.7841796875
 20
-467.7509765625
 10
744.9560546875
 20
-470.6826171875
 10
741.23046875
 20
-456.0166015625
 10
730.2978515625
 20
-442.9931640625
 10
720.4423828125
 20
-435.150390625
 10
709.888671875
 20
-426.7451171875
 10
697.27734375
 20
-421.001953125
 10
680.8427734375
 20
-417.12548828125
 10
656.34375
 20
-388.88134765625
 10
621.490234375
 20
-372.71630859375
 10
585.005859375
 20
-372.71630859375
 10
576.01953125
 20
-372.71630859375
 10
566.9365234375
 20
-373.68359375
 10
557.841796875
 20
-375.57275390625
 10
557.841796875
 20
-375.57275390625
 10
557.841796875
 20
-276.384765625
 10
557.841796875
 20
-276.384765625
 10
557.841796875
 20
-210.13427734375
 10
559.8994140625
 20
-168.1767578125
 10
564.015625
 20
-150.52685546875
 10
568.1328125
 20
-132.88427734375
 10
576.263671875
 20
-120.828125
 10
588.4248046875
 20
-114.357421875
 10
600.5712890625
 20
-107.89453125
 10
626.2548828125
 20
-104.6552734375
 10
665.46484375
 20
-104.6552734375
 10
665.46484375
 20
-104.6552734375
 10
682.5224609375
 20
-104.6552734375
 10
682.5224609375
 20
-104.6552734375
 10
682.5224609375
 20
-104.6552734375
 10
682.5224609375
 20
-77.603515625
 10
682.5224609375
 20
-77.603515625
 10
682.5224609375
 20
-77.603515625
 10
317.8896484375
 20
-77.603515625
 10
317.8896484375
 20
-77.603515625
 10
317.8896484375
 20
-77.603515625
 10
317.8896484375
 20
-104.6552734375
 10
317.8896484375
 20
-104.6552734375
 10
317.8896484375
 20
-104.6552734375
 10
334.947265625
 20
-104.6552734375
 10
334.947265625
 20
-104.6552734375
 10
375.32275390625
 20
-104.6552734375
 10
401.59521484375
 20
-108.1865234375
 10
413.7529296875
 20
-115.2421875
 10
425.90283203125
 20
-122.2978515625
 10
433.74951171875
 20
-135.0439453125
 10
437.27734375
 20
-153.4736328125
 10
440.80859375
 20
-171.90283203125
 10
442.5703125
 20
-212.87109375
 10
442.5703125
 20
-276.384765625
 10
442.5703125
 20
-276.384765625
 10
442.5703125
 20
-296.56884765625
 10
442.5703125
 20
-296.56884765625
 10
441.58447265625
 20
-296.44140625
 10
440.5986328125
 20
-296.302734375
 10
439.59375
 20
-296.2685546875
 10
435.02392578125
 20
-296.2685546875
 10
431.30859375
 20
-299.47021484375
 10
430.34912109375
 20
-304.2314453125
 10
429.310546875
 20
-309.375
 10
431.7587890625
 20
-314.451171875
 10
436.1748046875
 20
-316.310546875
 10
438.296875
 20
-317.1953125
 10
440.4375
 20
-317.8583984375
 10
442.5703125
 20
-318.43212890625
 10
442.5703125
 20
-318.43212890625
 10
442.5703125
 20
-418.6552734375
 10
442.5703125
 20
-418.6552734375
 10
432.41845703125
 20
-422.498046875
 10
422.5400390625
 20
-426.9287109375
 10
413.1865234375
 20
-431.39404296875
 10
401.1455078125
 20
-407.89599609375
 10
384.21142578125
 20
-386.474609375
 10
367.3974609375
 20
-373.59375
 10
347.970703125
 20
-358.6953125
 10
323.685546875
 20
-350.49267578125
 10
299.017578125
 20
-350.49267578125
 10
282.14404296875
 20
-350.49267578125
 10
265.3154296875
 20
-354.40673828125
 10
250.349609375
 20
-361.79931640625
 10
242.86328125
 20
-365.50341796875
 10
235.73291015625
 20
-370.32421875
 10
228.759765625
 20
-376.41259765625
 10
230.1357421875
 20
-366.20068359375
 10
230.5517578125
 20
-354.13671875
 10
225.60693359375
 20
-344.044921875
 10
223.7890625
 20
-340.3330078125
 10
220.36962890625
 20
-338.21142578125
 10
216.2158203125
 20
-338.21142578125
 10
212.6435546875
 20
-338.21142578125
 10
209.04052734375
 20
-339.8232421875
 10
206.58154296875
 20
-342.5224609375
 10
204.4072265625
 20
-344.91455078125
 10
203.36474609375
 20
-347.9208984375
 10
203.6533203125
 20
-350.97998046875
 10
204.11083984375
 20
-355.86865234375
 10
205.3515625
 20
-360.47998046875
 10
206.55126953125
 20
-364.94091796875
 10
207.8671875
 20
-369.85205078125
 10
209.11181640625
 20
-374.48583984375
 10
209.359375
 20
-379.36669921875
 10
209.55810546875
 20
-383.30322265625
 10
208.83056640625
 20
-387.306640625
 10
208.06591796875
 20
-391.54296875
 10
207.548828125
 20
-394.384765625
 10
207.01611328125
 20
-397.3017578125
 10
206.7724609375
 20
-400.2705078125
 10
202.5478515625
 20
-405.68408203125
 10
198.4462890625
 20
-411.322265625
 10
194.45751953125
 20
-416.86328125
 10
194.40478515625
 20
-409.54541015625
 10
193.35888671875
 20
-403.09716796875
 10
192.71044921875
 20
-399.783203125
 10
191.810546875
 20
-395.2021484375
 10
188.1328125
 20
-392.248046875
 10
183.33837890625
 20
-392.248046875
 10
179.525390625
 20
-392.248046875
 10
175.75048828125
 20
-394.16015625
 10
173.71875
 20
-397.1142578125
 10
171.91162109375
 20
-399.75341796875
 10
171.58154296875
 20
-402.9326171875
 10
172.7890625
 20
-406.07373046875
 10
175.060546875
 20
-411.94482421875
 10
176.96142578125
 20
-417.2978515625
 10
177.2197265625
 20
-423.34130859375
 10
177.31005859375
 20
-425.59814453125
 10
177.208984375
 20
-427.9072265625
 10
177.10009765625
 20
-430.34423828125
 10
176.95751953125
 20
-433.57568359375
 10
176.8076171875
 20
-436.912109375
 10
177.1376953125
 20
-440.271484375
 10
173.9287109375
 20
-444.3125
 10
170.880859375
 20
-447.904296875
 10
167.892578125
 20
-451.150390625
 10
167.9453125
 20
-443.2177734375
 10
165.83447265625
 20
-435.39013671875
 10
161.8046875
 20
-429.662109375
 10
159.7802734375
 20
-426.767578125
 10
155.83251953125
 20
-425.43310546875
 10
152.66845703125
 20
-426.72265625
 10
151.32275390625
 20
-427.2626953125
 10
150.453125
 20
-427.97509765625
 10
149.80078125
 20
-428.58203125
 10
147.6865234375
 20
-430.5166015625
 10
146.9404296875
 20
-434.025390625
 10
148.0576171875
 20
-436.724609375
 10
148.0576171875
 20
-436.724609375
 10
148.2373046875
 20
-437.15966796875
 10
148.2373046875
 20
-437.15966796875
 10
150.4189453125
 20
-442.4755859375
 10
152.3046875
 20
-447.07177734375
 10
152.22998046875
 20
-452.53759765625
 10
152.15869140625
 20
-458.21337890625
 10
150.025390625
 20
-463.56689453125
 10
147.87353515625
 20
-468.8076171875
 10
146.5166015625
 20
-469.73779296875
 10
145.14453125
 20
-470.64501953125
 10
143.7275390625
 20
-471.49951171875
 10
133.8076171875
 20
-477.4755859375
 10
121.72900390625
 20
-480.90185546875
 10
110.60205078125
 20
-480.90185546875
 10
99.453125
 20
-480.90185546875
 10
79.70361328125
 20
-477.4755859375
 10
72.74609375
 20
-454.51708984375
 10
68.5771484375
 20
-440.78125
 10
73.578125
 20
-425.41064453125
 10
84.6298828125
 20
-417.9580078125
 10
91.38916015625
 20
-413.40673828125
 10
98.9208984375
 20
-412.9794921875
 10
105.0087890625
 20
-416.8330078125
 10
108.21044921875
 20
-418.90234375
 10
110.65087890625
 20
-421.6240234375
 10
112.517578125
 20
-425.2529296875
 10
112.70166015625
 20
-425.5908203125
 10
112.8740234375
 20
-425.927734375
 10
113.02783203125
 20
-426.265625
 10
107.55078125
 20
-426.25048828125
 10
102.1708984375
 20
-428.7548828125
 10
98.92822265625
 20
-432.9912109375
 10
95.6513671875
 20
-437.287109375
 10
94.75927734375
 20
-443.0078125
 10
96.423828125
 20
-449.111328125
 10
98.50830078125
 20
-456.7666015625
 10
104.9638671875
 20
-461.71484375
 10
112.8701171875
 20
-461.71484375
 10
115.67822265625
 20
-461.71484375
 10
118.56494140625
 20
-461.0703125
 10
121.2080078125
 20
-459.84814453125
 10
133.095703125
 20
-454.3671875
 10
136.5107421875
 20
-440.2412109375
 10
135.82470703125
 20
-429.81201171875
 10
134.4599609375
 20
-408.82568359375
 10
116.8251953125
 20
-391.74560546875
 10
96.513671875
 20
-391.74560546875
 10
94.1748046875
 20
-391.74560546875
 10
91.83154296875
 20
-391.97802734375
 10
89.544921875
 20
-392.435546875
 10
68.07470703125
 20
-396.716796875
 10
50.7998046875
 20
-419.0302734375
 10
50.22265625
 20
-443.23291015625
 10
49.6376953125
 20
-467.4208984375
 10
64.783203125
 20
-490.2216796875
 10
87.05908203125
 20
-498.67919921875
 10
91.025390625
 20
-500.18603515625
 10
95.17919921875
 20
-501.2734375
 10
99.4453125
 20
-501.9404296875
 10
99.4453125
 20
-501.9404296875
 10
99.4453125
 20
-502.900390625
 10
99.4453125
 20
-502.900390625
 10
99.4453125
 20
-502.900390625
 10
903.51171875
 20
-502.900390625
 10
903.51171875
 20
-502.900390625
 97
        0
 92
        1
 93
        1
 72
     4
 94
        3
 73
     0
 74
     1
 95
       80
 96
       76
 40
0.0
 40
0.0
 40
0.0
 40
0.0
 40
1.0
 40
1.0
 40
1.0
 40
2.0
 40
2.0
 40
2.0
 40
3.0
 40
3.0
 40
3.0
 40
4.0
 40
4.0
 40
4.0
 40
5.0
 40
5.0
 40
5.0
 40
6.0
 40
6.0
 40
6.0
 40
7.0
 40
7.0
 40
7.0
 40
8.0
 40
8.0
 40
8.0
 40
9.0
 40
9.0
 40
9.0
 40
10.0
 40
10.0
 40
10.0
 40
11.0
 40
11.0
 40
11.0
 40
12.0
 40
12.0
 40
12.0
 40
13.0
 40
13.0
 40
13.0
 40
14.0
 40
14.0
 40
14.0
 40
15.0
 40
15.0
 40
15.0
 40
16.0
 40
16.0
 40
16.0
 40
17.0
 40
17.0
 40
17.0
 40
18.0
 40
18.0
 40
18.0
 40
19.0
 40
19.0
 40
19.0
 40
20.0
 40
20.0
 40
20.0
 40
21.0
 40
21.0
 40
21.0
 40
22.0
 40
22.0
 40
22.0
 40
23.0
 40
23.0
 40
23.0
 40
24.0
 40
24.0
 40
24.0
 40
25.0
 40
25.0
 40
25.0
 40
25.0
 10
259.13330078125
 20
-470.0302734375
 10
243.77783203125
 20
-461.53515625
 10
237.2998046875
 20
-443.90771484375
 10
243.38037109375
 20
-427.15771484375
 10
246.64208984375
 20
-418.16015625
 10
252.8427734375
 20
-411.599609375
 10
260.8427734375
 20
-408.67578125
 10
266.76220703125
 20
-406.5087890625
 10
271.1337890625
 20
-406.25390625
 10
274.44384765625
 20
-407.86572265625
 10
276.86572265625
 20
-409.04296875
 10
279.79736328125
 20
-412.1396484375
 10
280.30712890625
 20
-415.07861328125
 10
280.56201171875
 20
-416.54833984375
 10
280.16455078125
 20
-417.75537109375
 10
279.05517578125
 20
-418.89501953125
 10
274.69140625
 20
-423.3486328125
 10
273.4619140625
 20
-428.9423828125
 10
275.6884765625
 20
-434.2431640625
 10
278.0205078125
 20
-439.79150390625
 10
283.69970703125
 20
-443.66796875
 10
289.49560546875
 20
-443.66796875
 10
294.0244140625
 20
-443.66796875
 10
297.94580078125
 20
-441.35107421875
 10
300.5361328125
 20
-437.15966796875
 10
306.8603515625
 20
-426.91015625
 10
307.82421875
 20
-414.26171875
 10
303.115234375
 20
-403.32958984375
 10
298.43310546875
 20
-392.4580078125
 10
289.01953125
 20
-384.83251953125
 10
277.29296875
 20
-382.4033203125
 10
274.40625
 20
-381.8037109375
 10
271.4521484375
 20
-381.49609375
 10
268.51318359375
 20
-381.49609375
 10
247.8193359375
 20
-381.49609375
 10
227.26416015625
 20
-397.2041015625
 10
219.634765625
 20
-418.85009765625
 10
211.41357421875
 20
-442.1982421875
 10
217.9853515625
 20
-468.185546875
 10
235.98779296875
 20
-483.51123046875
 10
236.89501953125
 20
-484.27587890625
 10
237.82470703125
 20
-485.025390625
 10
238.77685546875
 20
-485.7451171875
 10
238.77685546875
 20
-485.7451171875
 10
158.2880859375
 20
-485.7451171875
 10
158.2880859375
 20
-485.7451171875
 10
159.8251953125
 20
-484.65087890625
 10
161.34375
 20
-483.51123046875
 10
162.83544921875
 20
-482.333984375
 10
180.001953125
 20
-468.7177734375
 10
192.36572265625
 20
-450.54345703125
 10
204.32470703125
 20
-432.96875
 10
209.955078125
 20
-424.69091796875
 10
215.77734375
 20
-416.1357421875
 10
222.00048828125
 20
-408.21826171875
 10
242.47314453125
 20
-382.15576171875
 10
268.9404296875
 20
-368.322265625
 10
298.87890625
 20
-368.2177734375
 10
328.04931640625
 20
-368.2177734375
 10
355.26611328125
 20
-381.1435546875
 10
375.5029296875
 20
-404.61181640625
 10
383.23291015625
 20
-413.57177734375
 10
389.9287109375
 20
-425.140625
 10
395.91943359375
 20
-439.896484375
 10
393.4638671875
 20
-441.1337890625
 10
391.0380859375
 20
-442.36328125
 10
388.646484375
 20
-443.578125
 10
379.064453125
 20
-448.4287109375
 10
370.02197265625
 20
-453.009765625
 10
361.78564453125
 20
-456.72900390625
 10
338.1787109375
 20
-467.38330078125
 10
313.076171875
 20
-477.2431640625
 10
289.4130859375
 20
-477.2431640625
 10
277.97900390625
 20
-477.2431640625
 10
267.79345703125
 20
-474.8212890625
 10
259.13330078125
 20
-470.0302734375
 97
        0
 92
        1
 93
        1
 72
     4
 94
        3
 73
     0
 74
     1
 95
       20
 96
       16
 40
0.0
 40
0.0
 40
0.0
 40
0.0
 40
1.0
 40
1.0
 40
1.0
 40
2.0
 40
2.0
 40
2.0
 40
3.0
 40
3.0
 40
3.0
 40
4.0
 40
4.0
 40
4.0
 40
5.0
 40
5.0
 40
5.0
 40
5.0
 10
346.666015625
 20
-485.7451171875
 10
362.966796875
 20
-478.99755859375
 10
378.65185546875
 20
-470.607421875
 10
393.9697265625
 20
-462.419921875
 10
396.79296875
 20
-460.91259765625
 10
399.61572265625
 20
-459.3984375
 10
402.4384765625
 20
-457.8984375
 10
405.26904296875
 20
-466.603515625
 10
407.7958984375
 20
-475.443359375
 10
410.24755859375
 20
-484.0361328125
 10
410.24755859375
 20
-484.0361328125
 10
410.73876953125
 20
-485.7451171875
 10
410.73876953125
 20
-485.7451171875
 10
410.73876953125
 20
-485.7451171875
 10
346.666015625
 20
-485.7451171875
 10
346.666015625
 20
-485.7451171875
 97
        0
 92
        1
 93
        1
 72
     4
 94
        3
 73
     0
 74
     1
 95
       23
 96
       19
 40
0.0
 40
0.0
 40
0.0
 40
0.0
 40
1.0
 40
1.0
 40
1.0
 40
2.0
 40
2.0
 40
2.0
 40
3.0
 40
3.0
 40
3.0
 40
4.0
 40
4.0
 40
4.0
 40
5.0
 40
5.0
 40
5.0
 40
6.0
 40
6.0
 40
6.0
 40
6.0
 10
716.0224609375
 20
-449.291015625
 10
724.8701171875
 20
-457.26123046875
 10
730.15625
 20
-466.3408203125
 10
732.9599609375
 20
-478.4501953125
 10
728.529296875
 20
-480.931640625
 10
724.0673828125
 20
-483.13623046875
 10
720.138671875
 20
-485.01806640625
 10
719.029296875
 20
-485.27294921875
 10
717.9267578125
 20
-485.5126953125
 10
716.8173828125
 20
-485.7451171875
 10
716.8173828125
 20
-485.7451171875
 10
712.333984375
 20
-485.7451171875
 10
712.333984375
 20
-485.7451171875
 10
709.84375
 20
-468.275390625
 10
703.763671875
 20
-451.3154296875
 10
694.544921875
 20
-436.0048828125
 10
702.931640625
 20
-439.4765625
 10
710.0166015625
 20
-443.8701171875
 10
716.0224609375
 20
-449.291015625
 97
        0
 92
        1
 93
        1
 72
     4
 94
        3
 73
     0
 74
     1
 95
       20
 96
       16
 40
0.0
 40
0.0
 40
0.0
 40
0.0
 40
1.0
 40
1.0
 40
1.0
 40
2.0
 40
2.0
 40
2.0
 40
3.0
 40
3.0
 40
3.0
 40
4.0
 40
4.0
 40
4.0
 40
5.0
 40
5.0
 40
5.0
 40
5.0
 10
616.572265625
 20
-390.7861328125
 10
627.3984375
 20
-393.8974609375
 10
640.474609375
 20
-401.74755859375
 10
652.9169921875
 20
-412.447265625
 10
650.28125
 20
-412.1171875
 10
647.6650390625
 20
-411.8095703125
 10
645.0859375
 20
-411.50244140625
 10
641.404296875
 20
-411.0673828125
 10
637.7490234375
 20
-410.6328125
 10
634.1318359375
 20
-410.16015625
 10
606.7236328125
 20
-406.59130859375
 10
581.9619140625
 20
-400.0908203125
 10
560.3642578125
 20
-390.80078125
 10
579.7802734375
 20
-386.18212890625
 10
600.373046875
 20
-386.13720703125
 10
616.572265625
 20
-390.7861328125
 97
        0
 92
        1
 93
        1
 72
     4
 94
        3
 73
     0
 74
     1
 95
       29
 96
       25
 40
0.0
 40
0.0
 40
0.0
 40
0.0
 40
1.0
 40
1.0
 40
1.0
 40
2.0
 40
2.0
 40
2.0
 40
3.0
 40
3.0
 40
3.0
 40
4.0
 40
4.0
 40
4.0
 40
5.0
 40
5.0
 40
5.0
 40
6.0
 40
6.0
 40
6.0
 40
7.0
 40
7.0
 40
7.0
 40
8.0
 40
8.0
 40
8.0
 40
8.0
 10
633.2919921875
 20
-423.6484375
 10
643.169921875
 20
-424.94580078125
 10
653.3857421875
 20
-426.2880859375
 10
663.4931640625
 20
-427.8623046875
 10
665.4794921875
 20
-428.17724609375
 10
667.458984375
 20
-428.50732421875
 10
669.4345703125
 20
-428.87451171875
 10
686.4658203125
 20
-448.46630859375
 10
695.771484375
 20
-468.9130859375
 10
695.4111328125
 20
-485.7451171875
 10
695.4111328125
 20
-485.7451171875
 10
559.73828125
 20
-485.7451171875
 10
559.73828125
 20
-485.7451171875
 10
561.099609375
 20
-483.826171875
 10
562.2763671875
 20
-481.771484375
 10
563.2626953125
 20
-479.6044921875
 10
570.115234375
 20
-464.515625
 10
566.4716796875
 20
-447.7392578125
 10
557.841796875
 20
-434.8876953125
 10
557.841796875
 20
-434.8876953125
 10
557.841796875
 20
-409.654296875
 10
557.841796875
 20
-409.654296875
 10
582.966796875
 20
-416.9794921875
 10
608.4775390625
 20
-420.390625
 10
633.2919921875
 20
-423.6484375
 97
        0
 92
        1
 93
        1
 72
     4
 94
        3
 73
     0
 74
     1
 95
       17
 96
       13
 40
0.0
 40
0.0
 40
0.0
 40
0.0
 40
1.0
 40
1.0
 40
1.0
 40
2.0
 40
2.0
 40
2.0
 40
3.0
 40
3.0
 40
3.0
 40
4.0
 40
4.0
 40
4.0
 40
4.0
 10
420.87939453125
 20
-448.40625
 10
427.67236328125
 20
-445.05859375
 10
434.9228515625
 20
-441.69580078125
 10
442.5703125
 20
-438.6220703125
 10
442.5703125
 20
-438.6220703125
 10
442.5703125
 20
-485.7451171875
 10
442.5703125
 20
-485.7451171875
 10
442.5703125
 20
-485.7451171875
 10
429.86181640625
 20
-485.7451171875
 10
429.86181640625
 20
-485.7451171875
 10
429.0146484375
 20
-474.06396484375
 10
426.00048828125
 20
-461.54248046875
 10
420.87939453125
 20
-448.40625
 97
        0
 75
     2
 76
     1
 98
        0
  0
ENDBLK
  5
3F
330
3C
100
AcDbEntity
  8
0
100
AcDbBlockEnd
  0
ENDSEC
  0
SECTION
  2
ENTITIES
  0
INSERT
  5
3D
330
1F
100
AcDbEntity
  8
Layer 1
100
AcDbBlockReference
  2
block 2
 10
0.0
 20
0.0
 30
0.0
  0
ENDSEC
  0
SECTION
  2
OBJECTS
  0
DICTIONARY
  5
C
330
0
100
AcDbDictionary
281
     1
  3
ACAD_GROUP
350
D
  3
ACAD_LAYOUT
350
1A
  3
ACAD_MLINESTYLE
350
17
  3
ACAD_PLOTSETTINGS
350
19
  3
ACAD_PLOTSTYLENAME
350
E
  3
ACAD_TABLESTYLE
350
5D
  3
ACAD_VISUALSTYLE
350
2A
  0
DICTIONARY
  5
D
102
{ACAD_REACTORS
330
C
102
}
330
C
100
AcDbDictionary
281
     1
  0
DICTIONARY
  5
1A
102
{ACAD_REACTORS
330
C
102
}
330
C
100
AcDbDictionary
281
     1
  3
Layout1
350
1E
  3
Layout2
350
26
  3
Model
350
22
  0
DICTIONARY
  5
17
102
{ACAD_REACTORS
330
C
102
}
330
C
100
AcDbDictionary
281
     1
  3
Standard
350
18
  0
DICTIONARY
  5
19
102
{ACAD_REACTORS
330
C
102
}
330
C
100
AcDbDictionary
281
     1
  0
ACDBDICTIONARYWDFLT
  5
E
102
{ACAD_REACTORS
330
C
102
}
330
C
100
AcDbDictionary
281
     1
  3
Normal
350
F
100
AcDbDictionaryWithDefault
340
F
  0
DICTIONARY
  5
5D
102
{ACAD_REACTORS
330
C
102
}
330
C
100
AcDbDictionary
281
     1
  0
DICTIONARY
  5
2A
102
{ACAD_REACTORS
330
C
102
}
330
C
100
AcDbDictionary
281
     1
  3
2dWireframe
350
2F
  3
3D Hidden
350
31
  3
3dWireframe
350
30
  3
Basic
350
32
  3
Brighten
350
36
  3
ColorChange
350
3A
  3
Conceptual
350
34
  3
Dim
350
35
  3
Facepattern
350
39
  3
Flat
350
2B
  3
FlatWithEdges
350
2C
  3
Gouraud
350
2D
  3
GouraudWithEdges
350
2E
  3
Linepattern
350
38
  3
Realistic
350
33
  3
Thicken
350
37
  0
LAYOUT
  5
1E
102
{ACAD_REACTORS
330
1A
102
}
330
1A
100
AcDbPlotSettings
  1

  2
none_device
  4

  6

 40
0.0
 41
0.0
 42
0.0
 43
0.0
 44
0.0
 45
0.0
 46
0.0
 47
0.0
 48
0.0
 49
0.0
140
0.0
141
0.0
142
1.0
143
1.0
 70
   688
 72
     0
 73
     0
 74
     5
  7

 75
    16
147
1.0
148
0.0
149
0.0
100
AcDbLayout
  1
Layout1
 70
     1
 71
     1
 10
0.0
 20
0.0
 11
12.0
 21
9.0
 12
0.0
 22
0.0
 32
0.0
 14
1.000000000000000E+20
 24
1.000000000000000E+20
 34
1.000000000000000E+20
 15
-1.000000000000000E+20
 25
-1.000000000000000E+20
 35
-1.000000000000000E+20
146
0.0
 13
0.0
 23
0.0
 33
0.0
 16
1.0
 26
0.0
 36
0.0
 17
0.0
 27
1.0
 37
0.0
 76
     0
330
1B
  0
LAYOUT
  5
26
102
{ACAD_REACTORS
330
1A
102
}
330
1A
100
AcDbPlotSettings
  1

  2
none_device
  4

  6

 40
0.0
 41
0.0
 42
0.0
 43
0.0
 44
0.0
 45
0.0
 46
0.0
 47
0.0
 48
0.0
 49
0.0
140
0.0
141
0.0
142
1.0
143
1.0
 70
   688
 72
     0
 73
     0
 74
     5
  7

 75
    16
147
1.0
148
0.0
149
0.0
100
AcDbLayout
  1
Layout2
 70
     1
 71
     2
 10
0.0
 20
0.0
 11
0.0
 21
0.0
 12
0.0
 22
0.0
 32
0.0
 14
0.0
 24
0.0
 34
0.0
 15
0.0
 25
0.0
 35
0.0
146
0.0
 13
0.0
 23
0.0
 33
0.0
 16
1.0
 26
0.0
 36
0.0
 17
0.0
 27
1.0
 37
0.0
 76
     0
330
23
  0
LAYOUT
  5
22
102
{ACAD_REACTORS
330
1A
102
}
330
1A
100
AcDbPlotSettings
  1

  2
none_device
  4

  6

 40
0.0
 41
0.0
 42
0.0
 43
0.0
 44
0.0
 45
0.0
 46
0.0
 47
0.0
 48
0.0
 49
0.0
140
0.0
141
0.0
142
1.0
143
1.0
 70
  1712
 72
     0
 73
     0
 74
     0
  7

 75
     0
147
1.0
148
0.0
149
0.0
100
AcDbLayout
  1
Model
 70
     1
 71
     0
 10
0.0
 20
0.0
 11
12.0
 21
9.0
 12
0.0
 22
0.0
 32
0.0
 14
1.000000000000000E+20
 24
1.000000000000000E+20
 34
1.000000000000000E+20
 15
-1.000000000000000E+20
 25
-1.000000000000000E+20
 35
-1.000000000000000E+20
146
0.0
 13
0.0
 23
0.0
 33
0.0
 16
1.0
 26
0.0
 36
0.0
 17
0.0
 27
1.0
 37
0.0
 76
     0
330
1F
331
29
  0
MLINESTYLE
  5
18
102
{ACAD_REACTORS
330
17
102
}
330
17
100
AcDbMlineStyle
  2
Standard
 70
     0
  3

 62
   256
 51
90.0
 52
90.0
 71
     2
 49
0.5
 62
   256
  6
BYLAYER
 49
-0.5
 62
   256
  6
BYLAYER
  0
ACDBPLACEHOLDER
  5
F
102
{ACAD_REACTORS
330
E
102
}
330
E
  0
VISUALSTYLE
  5
2F
102
{ACAD_REACTORS
330
2A
102
}
330
2A
100
AcDbVisualStyle
  2
2dWireframe
 70
     4
 71
     0
 72
     2
 73
     0
 90
        0
 40
-0.6
 41
-30.0
 62
     5
 63
     7
 74
     1
 91
        4
 64
     7
 65
   257
 75
     1
175
     1
 42
1.0
 92
        0
 66
   257
 43
1.0
 76
     1
 77
     6
 78
     2
 67
     7
 79
     5
170
     0
171
     0
290
     0
174
     0
 93
        1
 44
0.0
173
     0
291
     0
 45
0.0
1001
ACAD
1000
AcDbSavedByObjectVersion
1070
     0
  0
VISUALSTYLE
  5
31
102
{ACAD_REACTORS
330
2A
102
}
330
2A
100
AcDbVisualStyle
  2
3D Hidden
 70
     6
 71
     1
 72
     2
 73
     2
 90
        0
 40
-0.6
 41
-30.0
 62
     5
 63
     7
 74
     2
 91
        2
 64
     7
 65
   257
 75
     2
175
     1
 42
40.0
 92
        0
 66
   257
 43
1.0
 76
     1
 77
     6
 78
     2
 67
     7
 79
     3
170
     0
171
     0
290
     0
174
     0
 93
        1
 44
0.0
173
     0
291
     0
 45
0.0
1001
ACAD
1000
AcDbSavedByObjectVersion
1070
     0
  0
VISUALSTYLE
  5
30
102
{ACAD_REACTORS
330
2A
102
}
330
2A
100
AcDbVisualStyle
  2
3dWireframe
 70
     5
 71
     0
 72
     2
 73
     0
 90
        0
 40
-0.6
 41
-30.0
 62
     5
 63
     7
 74
     1
 91
        4
 64
     7
 65
   257
 75
     1
175
     1
 42
1.0
 92
        0
 66
   257
 43
1.0
 76
     1
 77
     6
 78
     2
 67
     7
 79
     5
170
     0
171
     0
290
     0
174
     0
 93
        1
 44
0.0
173
     0
291
     0
 45
0.0
1001
ACAD
1000
AcDbSavedByObjectVersion
1070
     0
  0
VISUALSTYLE
  5
32
102
{ACAD_REACTORS
330
2A
102
}
330
2A
100
AcDbVisualStyle
  2
Basic
 70
     7
 71
     1
 72
     0
 73
     1
 90
        0
 40
-0.6
 41
-30.0
 62
     5
 63
     7
 74
     0
 91
        4
 64
     7
 65
   257
 75
     1
175
     1
 42
1.0
 92
        8
 66
     7
 43
1.0
 76
     1
 77
     6
 78
     2
 67
     7
 79
     5
170
     0
171
     0
290
     0
174
     0
 93
        1
 44
0.0
173
     0
291
     1
 45
0.0
1001
ACAD
1000
AcDbSavedByObjectVersion
1070
     0
  0
VISUALSTYLE
  5
36
102
{ACAD_REACTORS
330
2A
102
}
330
2A
100
AcDbVisualStyle
  2
Brighten
 70
    12
 71
     2
 72
     2
 73
     0
 90
        0
 40
-0.6
 41
-30.0
 62
     5
 63
     7
 74
     1
 91
        4
 64
     7
 65
   257
 75
     1
175
     1
 42
1.0
 92
        8
 66
     7
 43
1.0
 76
     1
 77
     6
 78
     2
 67
     7
 79
     5
170
     0
171
     0
290
     0
174
     0
 93
        1
 44
50.0
173
     0
291
     1
 45
0.0
1001
ACAD
1000
AcDbSavedByObjectVersion
1070
     0
  0
VISUALSTYLE
  5
3A
102
{ACAD_REACTORS
330
2A
102
}
330
2A
100
AcDbVisualStyle
  2
ColorChange
 70
    16
 71
     2
 72
     2
 73
     3
 90
        0
 40
-0.6
 41
-30.0
 62
     5
 63
     8
 74
     1
 91
        4
 64
     7
 65
   257
 75
     1
175
     1
 42
1.0
 92
        8
 66
     8
 43
1.0
 76
     1
 77
     6
 78
     2
 67
     7
 79
     5
170
     0
171
     0
290
     0
174
     0
 93
        1
 44
0.0
173
     0
291
     1
 45
0.0
1001
ACAD
1000
AcDbSavedByObjectVersion
1070
     0
  0
VISUALSTYLE
  5
34
102
{ACAD_REACTORS
330
2A
102
}
330
2A
100
AcDbVisualStyle
  2
Conceptual
 70
     9
 71
     3
 72
     2
 73
     0
 90
        0
 40
-0.6
 41
-30.0
 62
     5
 63
     7
 74
     2
 91
        2
 64
     7
 65
   257
 75
     1
175
     1
 42
40.0
 92
        8
 66
     7
 43
1.0
 76
     1
 77
     6
 78
     2
 67
     7
 79
     3
170
     0
171
     0
290
     0
174
     0
 93
        1
 44
0.0
173
     0
291
     0
 45
0.0
1001
ACAD
1000
AcDbSavedByObjectVersion
1070
     0
  0
VISUALSTYLE
  5
35
102
{ACAD_REACTORS
330
2A
102
}
330
2A
100
AcDbVisualStyle
  2
Dim
 70
    11
 71
     2
 72
     2
 73
     0
 90
        0
 40
-0.6
 41
-30.0
 62
     5
 63
     7
 74
     1
 91
        4
 64
     7
 65
   257
 75
     1
175
     1
 42
1.0
 92
        8
 66
     7
 43
1.0
 76
     1
 77
     6
 78
     2
 67
     7
 79
     5
170
     0
171
     0
290
     0
174
     0
 93
        1
 44
-50.0
173
     0
291
     1
 45
0.0
1001
ACAD
1000
AcDbSavedByObjectVersion
1070
     0
  0
VISUALSTYLE
  5
39
102
{ACAD_REACTORS
330
2A
102
}
330
2A
100
AcDbVisualStyle
  2
Facepattern
 70
    15
 71
     2
 72
     2
 73
     0
 90
        0
 40
-0.6
 41
-30.0
 62
     5
 63
     7
 74
     1
 91
        4
 64
     7
 65
   257
 75
     1
175
     1
 42
1.0
 92
        8
 66
     7
 43
1.0
 76
     1
 77
     6
 78
     2
 67
     7
 79
     5
170
     0
171
     0
290
     0
174
     0
 93
        1
 44
0.0
173
     0
291
     1
 45
0.0
1001
ACAD
1000
AcDbSavedByObjectVersion
1070
     0
  0
VISUALSTYLE
  5
2B
102
{ACAD_REACTORS
330
2A
102
}
330
2A
100
AcDbVisualStyle
  2
Flat
 70
     0
 71
     2
 72
     1
 73
     1
 90
        2
 40
-0.6
 41
30.0
 62
     5
 63
     7
 74
     0
 91
        4
 64
     7
 65
   257
 75
     1
175
     1
 42
1.0
 92
        8
 66
     7
 43
1.0
 76
     1
 77
     6
 78
     2
 67
     7
 79
     5
170
     0
171
     0
290
     0
174
     0
 93
       13
 44
0.0
173
     0
291
     1
 45
0.0
1001
ACAD
1000
AcDbSavedByObjectVersion
1070
     0
  0
VISUALSTYLE
  5
2C
102
{ACAD_REACTORS
330
2A
102
}
330
2A
100
AcDbVisualStyle
  2
FlatWithEdges
 70
     1
 71
     2
 72
     1
 73
     1
 90
        2
 40
-0.6
 41
30.0
 62
     5
 63
     7
 74
     1
 91
        4
 64
     7
 65
   257
 75
     1
175
     1
 42
1.0
 92
        0
 66
   257
 43
1.0
 76
     1
 77
     6
 78
     2
 67
     7
 79
     5
170
     0
171
     0
290
     0
174
     0
 93
       13
 44
0.0
173
     0
291
     1
 45
0.0
1001
ACAD
1000
AcDbSavedByObjectVersion
1070
     0
  0
VISUALSTYLE
  5
2D
102
{ACAD_REACTORS
330
2A
102
}
330
2A
100
AcDbVisualStyle
  2
Gouraud
 70
     2
 71
     2
 72
     2
 73
     1
 90
        2
 40
-0.6
 41
30.0
 62
     5
 63
     7
 74
     0
 91
        4
 64
     7
 65
   257
 75
     1
175
     1
 42
1.0
 92
        0
 66
     7
 43
1.0
 76
     1
 77
     6
 78
     2
 67
     7
 79
     5
170
     0
171
     0
290
     0
174
     0
 93
       13
 44
0.0
173
     0
291
     1
 45
0.0
1001
ACAD
1000
AcDbSavedByObjectVersion
1070
     0
  0
VISUALSTYLE
  5
2E
102
{ACAD_REACTORS
330
2A
102
}
330
2A
100
AcDbVisualStyle
  2
GouraudWithEdges
 70
     3
 71
     2
 72
     2
 73
     1
 90
        2
 40
-0.6
 41
30.0
 62
     5
 63
     7
 74
     1
 91
        4
 64
     7
 65
   257
 75
     1
175
     1
 42
1.0
 92
        0
 66
   257
 43
1.0
 76
     1
 77
     6
 78
     2
 67
     7
 79
     5
170
     0
171
     0
290
     0
174
     0
 93
       13
 44
0.0
173
     0
291
     1
 45
0.0
1001
ACAD
1000
AcDbSavedByObjectVersion
1070
     0
  0
VISUALSTYLE
  5
38
102
{ACAD_REACTORS
330
2A
102
}
330
2A
100
AcDbVisualStyle
  2
Linepattern
 70
    14
 71
     2
 72
     2
 73
     0
 90
        0
 40
-0.6
 41
-30.0
 62
     5
 63
     7
 74
     1
 91
        4
 64
     7
 65
   257
 75
     7
175
     7
 42
1.0
 92
        8
 66
     7
 43
1.0
 76
     1
 77
     6
 78
     2
 67
     7
 79
     5
170
     0
171
     0
290
     0
174
     0
 93
        1
 44
0.0
173
     0
291
     1
 45
0.0
1001
ACAD
1000
AcDbSavedByObjectVersion
1070
     0
  0
VISUALSTYLE
  5
33
102
{ACAD_REACTORS
330
2A
102
}
330
2A
100
AcDbVisualStyle
  2
Realistic
 70
     8
 71
     2
 72
     2
 73
     0
 90
        0
 40
-0.6
 41
-30.0
 62
     5
 63
     7
 74
     1
 91
        0
 64
     7
 65
   257
 75
     1
175
     1
 42
1.0
 92
        8
 66
     8
 43
1.0
 76
     1
 77
     6
 78
     2
 67
     7
 79
     5
170
     0
171
     0
290
     0
174
     0
 93
       13
 44
0.0
173
     0
291
     0
 45
0.0
1001
ACAD
1000
AcDbSavedByObjectVersion
1070
     0
  0
VISUALSTYLE
  5
37
102
{ACAD_REACTORS
330
2A
102
}
330
2A
100
AcDbVisualStyle
  2
Thicken
 70
    13
 71
     2
 72
     2
 73
     0
 90
        0
 40
-0.6
 41
-30.0
 62
     5
 63
     7
 74
     1
 91
        4
 64
     7
 65
   257
 75
     1
175
     1
 42
1.0
 92
       12
 66
     7
 43
1.0
 76
     1
 77
     6
 78
     2
 67
     7
 79
     5
170
     0
171
     0
290
     0
174
     0
 93
        1
 44
0.0
173
     0
291
     1
 45
0.0
1001
ACAD
1000
AcDbSavedByObjectVersion
1070
     0
  0
ENDSEC
  0
EOF
