  0
SECTION
  2
HEADER
  9
$ACADVER
  1
AC1014
  9
$HANDSEED
  5
FFFF
  9
$MEASUREMENT
 70
     1
  0
ENDSEC
  0
SECTION
  2
TABLES
  0
TABLE
  2
VPORT
  5
8
330
0
100
AcDbSymbolTable
 70
     4
  0
VPORT
  5
2E
330
8
100
AcDbSymbolTableRecord
100
AcDbViewportTableRecord
  2
*ACTIVE
 70
     0
 10
0.0
 20
0.0
 11
1.0
 21
1.0
 12
210.0
 22
148.5
 13
0.0
 23
0.0
 14
10.0
 24
10.0
 15
10.0
 25
10.0
 16
0.0
 26
0.0
 36
1.0
 17
0.0
 27
0.0
 37
0.0
 40
341.0
 41
1.24
 42
50.0
 43
0.0
 44
0.0
 50
0.0
 51
0.0
 71
     0
 72
   100
 73
     1
 74
     3
 75
     0
 76
     0
 77
     0
 78
     0
  0
ENDTAB
  0
TABLE
  2
LTYPE
  5
5
330
0
100
AcDbSymbolTable
 70
     1
  0
LTYPE
  5
14
330
5
100
AcDbSymbolTableRecord
100
AcDbLinetypeTableRecord
  2
BYBLOCK
 70
     0
  3

 72
    65
 73
     0
 40
0.0
  0
LTYPE
  5
15
330
5
100
AcDbSymbolTableRecord
100
AcDbLinetypeTableRecord
  2
BYLAYER
 70
     0
  3

 72
    65
 73
     0
 40
0.0
  0
LTYPE
  5
16
330
5
100
AcDbSymbolTableRecord
100
AcDbLinetypeTableRecord
  2
CONTINUOUS
 70
     0
  3
Solid line
 72
    65
 73
     0
 40
0.0
  0
ENDTAB
  0
TABLE
  2
LAYER
  5
2
100
AcDbSymbolTable
 70
1
  0
LAYER
  5
50
100
AcDbSymbolTableRecord
100
AcDbLayerTableRecord
  2
0
 70
0
  6
CONTINUOUS
  0
ENDTAB
  0
TABLE
  2
STYLE
  5
3
330
0
100
AcDbSymbolTable
 70
     1
  0
STYLE
  5
11
330
3
100
AcDbSymbolTableRecord
100
AcDbTextStyleTableRecord
  2
STANDARD
 70
     0
 40
0.0
 41
1.0
 50
0.0
 71
     0
 42
2.5
  3
txt
  4

  0
ENDTAB
  0
TABLE
  2
VIEW
  5
6
330
0
100
AcDbSymbolTable
 70
     0
  0
ENDTAB
  0
TABLE
  2
UCS
  5
7
330
0
100
AcDbSymbolTable
 70
     0
  0
ENDTAB
  0
TABLE
  2
APPID
  5
9
330
0
100
AcDbSymbolTable
 70
     2
  0
APPID
  5
12
330
9
100
AcDbSymbolTableRecord
100
AcDbRegAppTableRecord
  2
ACAD
 70
     0
  0
ENDTAB
  0
TABLE
  2
DIMSTYLE
  5
A
330
0
100
AcDbSymbolTable
 70
     1
  0
DIMSTYLE
105
27
330
A
100
AcDbSymbolTableRecord
100
AcDbDimStyleTableRecord
  2
ISO-25
 70
     0
  3

  4

  5

  6

  7

 40
1.0
 41
2.5
 42
0.625
 43
3.75
 44
1.25
 45
0.0
 46
0.0
 47
0.0
 48
0.0
140
2.5
141
2.5
142
0.0
143
0.03937007874016
144
1.0
145
0.0
146
1.0
147
0.625
 71
     0
 72
     0
 73
     0
 74
     0
 75
     0
 76
     0
 77
     1
 78
     8
170
     0
171
     3
172
     1
173
     0
174
     0
175
     0
176
     0
177
     0
178
     0
270
     2
271
     2
272
     2
273
     2
274
     3
340
11
275
     0
280
     0
281
     0
282
     0
283
     0
284
     8
285
     0
286
     0
287
     3
288
     0
  0
ENDTAB
  0
TABLE
  2
BLOCK_RECORD
  5
1
330
0
100
AcDbSymbolTable
 70
     1
  0
BLOCK_RECORD
  5
1F
330
1
100
AcDbSymbolTableRecord
100
AcDbBlockTableRecord
  2
*MODEL_SPACE
  0
BLOCK_RECORD
  5
1B
330
1
100
AcDbSymbolTableRecord
100
AcDbBlockTableRecord
  2
*PAPER_SPACE
  0
ENDTAB
  0
ENDSEC
  0
SECTION
  2
BLOCKS
  0
BLOCK
  5
20
330
1F
100
AcDbEntity
  8
0
100
AcDbBlockBegin
  2
*MODEL_SPACE
 70
     0
 10
0.0
 20
0.0
 30
0.0
  3
*MODEL_SPACE
  1

  0
ENDBLK
  5
21
330
1F
100
AcDbEntity
  8
0
100
AcDbBlockEnd
  0
BLOCK
  5
1C
330
1B
100
AcDbEntity
 67
     1
  8
0
100
AcDbBlockBegin
  2
*PAPER_SPACE
  1

  0
ENDBLK
  5
1D
330
1B
100
AcDbEntity
 67
     1
  8
0
100
AcDbBlockEnd
  0
ENDSEC
  0
SECTION
  2
ENTITIES
  0
SPLINE
  5
100
100
AcDbEntity
  8
0
 62
7
100
AcDbSpline
 70
8
 71
3
 72
8
 73
4
 74
0
 40
0
 40
0
 40
0
 40
0
 40
1
 40
1
 40
1
 40
1
 10
232.496950
 20
29.758640
 30
0.0
 10
232.240754
 20
30.740906
 30
0.0
 10
232.026891
 20
32.080359
 30
0.0
 10
232.021705
 20
32.735202
 30
0.0
  0
SPLINE
  5
101
100
AcDbEntity
  8
0
 62
7
100
AcDbSpline
 70
8
 71
3
 72
8
 73
4
 74
0
 40
0
 40
0
 40
0
 40
0
 40
1
 40
1
 40
1
 40
1
 10
232.021705
 20
32.735202
 30
0.0
 10
232.009799
 20
34.254149
 30
0.0
 10
232.831939
 20
36.082684
 30
0.0
 10
233.706149
 20
36.481015
 30
0.0
  0
LWPOLYLINE
  5
102
100
AcDbEntity
  8
0
 62
7
100
AcDbPolyline
 90
8
 70
1
 10
1.813145
 20
213.181031
 30
0.0
 10
1.813145
 20
424.847696
 30
0.0
 10
319.445428
 20
424.847696
 30
0.0
 10
637.077720
 20
424.847696
 30
0.0
 10
637.077720
 20
213.181031
 30
0.0
 10
637.077720
 20
1.514369
 30
0.0
 10
319.445428
 20
1.514369
 30
0.0
 10
1.813145
 20
1.514369
 30
0.0
  0
SPLINE
  5
103
100
AcDbEntity
  8
0
 62
7
100
AcDbSpline
 70
8
 71
3
 72
8
 73
4
 74
0
 40
0
 40
0
 40
0
 40
0
 40
1
 40
1
 40
1
 40
1
 10
232.825986
 20
38.193583
 30
0.0
 10
230.026959
 20
40.726545
 30
0.0
 10
230.574593
 20
41.731036
 30
0.0
 10
234.754587
 20
41.731036
 30
0.0
  0
SPLINE
  5
104
100
AcDbEntity
  8
0
 62
7
100
AcDbSpline
 70
8
 71
3
 72
8
 73
4
 74
0
 40
0
 40
0
 40
0
 40
0
 40
1
 40
1
 40
1
 40
1
 10
234.754587
 20
41.731036
 30
0.0
 10
236.976822
 20
41.731036
 30
0.0
 10
237.020637
 20
41.718336
 30
0.0
 10
237.408305
 20
40.968798
 30
0.0
  0
SPLINE
  5
105
100
AcDbEntity
  8
0
 62
7
100
AcDbSpline
 70
8
 71
3
 72
8
 73
4
 74
0
 40
0
 40
0
 40
0
 40
0
 40
1
 40
1
 40
1
 40
1
 10
237.408305
 20
40.968798
 30
0.0
 10
237.855794
 20
40.103478
 30
0.0
 10
239.146458
 20
38.939602
 30
0.0
 10
239.936716
 20
38.688777
 30
0.0
  0
SPLINE
  5
106
100
AcDbEntity
  8
0
 62
7
100
AcDbSpline
 70
8
 71
3
 72
8
 73
4
 74
0
 40
0
 40
0
 40
0
 40
0
 40
1
 40
1
 40
1
 40
1
 10
239.936716
 20
38.688777
 30
0.0
 10
241.002749
 20
38.350428
 30
0.0
 10
240.261095
 20
37.174408
 30
0.0
 10
238.350645
 20
36.173754
 30
0.0
  0
SPLINE
  5
107
100
AcDbEntity
  8
0
 62
7
100
AcDbSpline
 70
8
 71
3
 72
8
 73
4
 74
0
 40
0
 40
0
 40
0
 40
0
 40
1
 40
1
 40
1
 40
1
 10
238.350645
 20
36.173754
 30
0.0
 10
237.248840
 20
35.596645
 30
0.0
 10
237.459316
 20
35.486816
 30
0.0
 10
240.073214
 20
35.274911
 30
0.0
  0
SPLINE
  5
108
100
AcDbEntity
  8
0
 62
7
100
AcDbSpline
 70
8
 71
3
 72
8
 73
4
 74
0
 40
0
 40
0
 40
0
 40
0
 40
1
 40
1
 40
1
 40
1
 10
240.073214
 20
35.274911
 30
0.0
 10
241.635685
 20
35.148229
 30
0.0
 10
242.065871
 20
35.208316
 30
0.0
 10
242.802048
 20
35.656017
 30
0.0
  0
SPLINE
  5
109
100
AcDbEntity
  8
0
 62
7
100
AcDbSpline
 70
8
 71
3
 72
8
 73
4
 74
0
 40
0
 40
0
 40
0
 40
0
 40
1
 40
1
 40
1
 40
1
 10
242.802048
 20
35.656017
 30
0.0
 10
243.565503
 20
36.120308
 30
0.0
 10
243.765898
 20
36.143856
 30
0.0
 10
244.386769
 20
35.842337
 30
0.0
  0
SPLINE
  5
10a
100
AcDbEntity
  8
0
 62
7
100
AcDbSpline
 70
8
 71
3
 72
8
 73
4
 74
0
 40
0
 40
0
 40
0
 40
0
 40
1
 40
1
 40
1
 40
1
 10
244.386769
 20
35.842337
 30
0.0
 10
245.056959
 20
35.516873
 30
0.0
 10
245.096329
 20
35.395720
 30
0.0
 10
245.076512
 20
33.719320
 30
0.0
  0
SPLINE
  5
10b
100
AcDbEntity
  8
0
 62
7
100
AcDbSpline
 70
8
 71
3
 72
8
 73
4
 74
0
 40
0
 40
0
 40
0
 40
0
 40
1
 40
1
 40
1
 40
1
 10
245.076512
 20
33.719320
 30
0.0
 10
245.055610
 20
31.951480
 30
0.0
 10
245.059578
 20
31.941452
 30
0.0
 10
245.782473
 20
31.941452
 30
0.0
  0
SPLINE
  5
10c
100
AcDbEntity
  8
0
 62
7
100
AcDbSpline
 70
8
 71
3
 72
8
 73
4
 74
0
 40
0
 40
0
 40
0
 40
0
 40
1
 40
1
 40
1
 40
1
 10
245.782473
 20
31.941452
 30
0.0
 10
247.331608
 20
31.941452
 30
0.0
 10
247.882391
 20
31.222447
 30
0.0
 10
246.751165
 20
30.676876
 30
0.0
  0
SPLINE
  5
10d
100
AcDbEntity
  8
0
 62
7
100
AcDbSpline
 70
8
 71
3
 72
8
 73
4
 74
0
 40
0
 40
0
 40
0
 40
0
 40
1
 40
1
 40
1
 40
1
 10
246.751165
 20
30.676876
 30
0.0
 10
246.242239
 20
30.431422
 30
0.0
 10
246.367017
 20
30.386523
 30
0.0
 10
247.611061
 20
30.367420
 30
0.0
  0
SPLINE
  5
10e
100
AcDbEntity
  8
0
 62
7
100
AcDbSpline
 70
8
 71
3
 72
8
 73
4
 74
0
 40
0
 40
0
 40
0
 40
0
 40
1
 40
1
 40
1
 40
1
 10
247.611061
 20
30.367420
 30
0.0
 10
249.048384
 20
30.345459
 30
0.0
 10
255.955226
 20
30.834171
 30
0.0
 10
257.028482
 20
31.033905
 30
0.0
  0
SPLINE
  5
10f
100
AcDbEntity
  8
0
 62
7
100
AcDbSpline
 70
8
 71
3
 72
8
 73
4
 74
0
 40
0
 40
0
 40
0
 40
0
 40
1
 40
1
 40
1
 40
1
 10
257.028482
 20
31.033905
 30
0.0
 10
257.333096
 20
31.090605
 30
0.0
 10
257.907401
 20
31.462027
 30
0.0
 10
258.304673
 20
31.859299
 30
0.0
  0
SPLINE
  5
110
100
AcDbEntity
  8
0
 62
7
100
AcDbSpline
 70
8
 71
3
 72
8
 73
4
 74
0
 40
0
 40
0
 40
0
 40
0
 40
1
 40
1
 40
1
 40
1
 10
258.304673
 20
31.859299
 30
0.0
 10
258.977323
 20
32.531950
 30
0.0
 10
258.995130
 20
32.604895
 30
0.0
 10
258.563859
 20
32.920252
 30
0.0
  0
SPLINE
  5
111
100
AcDbEntity
  8
0
 62
7
100
AcDbSpline
 70
8
 71
3
 72
8
 73
4
 74
0
 40
0
 40
0
 40
0
 40
0
 40
1
 40
1
 40
1
 40
1
 10
258.563859
 20
32.920252
 30
0.0
 10
258.048953
 20
33.296754
 30
0.0
 10
258.057155
 20
33.312100
 30
0.0
 10
258.980604
 20
33.698789
 30
0.0
  0
SPLINE
  5
112
100
AcDbEntity
  8
0
 62
7
100
AcDbSpline
 70
8
 71
3
 72
8
 73
4
 74
0
 40
0
 40
0
 40
0
 40
0
 40
1
 40
1
 40
1
 40
1
 10
258.980604
 20
33.698789
 30
0.0
 10
259.429099
 20
33.886616
 30
0.0
 10
259.927759
 20
33.887357
 30
0.0
 10
260.568104
 20
33.701434
 30
0.0
  0
SPLINE
  5
113
100
AcDbEntity
  8
0
 62
7
100
AcDbSpline
 70
8
 71
3
 72
8
 73
4
 74
0
 40
0
 40
0
 40
0
 40
0
 40
1
 40
1
 40
1
 40
1
 10
260.568104
 20
33.701434
 30
0.0
 10
261.811275
 20
33.339987
 30
0.0
 10
261.805613
 20
33.349697
 30
0.0
 10
261.169555
 20
32.668289
 30
0.0
  0
SPLINE
  5
114
100
AcDbEntity
  8
0
 62
7
100
AcDbSpline
 70
8
 71
3
 72
8
 73
4
 74
0
 40
0
 40
0
 40
0
 40
0
 40
1
 40
1
 40
1
 40
1
 10
261.169555
 20
32.668289
 30
0.0
 10
259.989566
 20
31.404084
 30
0.0
 10
260.239941
 20
29.750015
 30
0.0
 10
261.796670
 20
28.525496
 30
0.0
  0
SPLINE
  5
115
100
AcDbEntity
  8
0
 62
7
100
AcDbSpline
 70
8
 71
3
 72
8
 73
4
 74
0
 40
0
 40
0
 40
0
 40
0
 40
1
 40
1
 40
1
 40
1
 10
261.796670
 20
28.525496
 30
0.0
 10
262.401428
 20
28.049802
 30
0.0
 10
262.862835
 20
27.972967
 30
0.0
 10
265.115331
 20
27.972967
 30
0.0
  0
LWPOLYLINE
  5
116
100
AcDbEntity
  8
0
 62
7
100
AcDbPolyline
 90
3
 70
0
 10
233.706149
 20
36.481015
 30
0.0
 10
234.379434
 20
36.787773
 30
0.0
 10
232.825986
 20
38.193583
 30
0.0
  0
SPLINE
  5
117
100
AcDbEntity
  8
0
 62
7
100
AcDbSpline
 70
8
 71
3
 72
8
 73
4
 74
0
 40
0
 40
0
 40
0
 40
0
 40
1
 40
1
 40
1
 40
1
 10
269.038202
 20
29.241591
 30
0.0
 10
270.939260
 20
29.131525
 30
0.0
 10
271.315021
 20
29.030586
 30
0.0
 10
271.638818
 20
28.542959
 30
0.0
  0
SPLINE
  5
118
100
AcDbEntity
  8
0
 62
7
100
AcDbSpline
 70
8
 71
3
 72
8
 73
4
 74
0
 40
0
 40
0
 40
0
 40
0
 40
1
 40
1
 40
1
 40
1
 10
271.638818
 20
28.542959
 30
0.0
 10
271.960261
 20
28.058824
 30
0.0
 10
272.261489
 20
27.975481
 30
0.0
 10
273.638645
 20
27.989742
 30
0.0
  0
SPLINE
  5
119
100
AcDbEntity
  8
0
 62
7
100
AcDbSpline
 70
8
 71
3
 72
8
 73
4
 74
0
 40
0
 40
0
 40
0
 40
0
 40
1
 40
1
 40
1
 40
1
 10
273.638645
 20
27.989742
 30
0.0
 10
274.879065
 20
28.002706
 30
0.0
 10
275.120153
 20
28.062740
 30
0.0
 10
274.664699
 20
28.245805
 30
0.0
  0
SPLINE
  5
11a
100
AcDbEntity
  8
0
 62
7
100
AcDbSpline
 70
8
 71
3
 72
8
 73
4
 74
0
 40
0
 40
0
 40
0
 40
0
 40
1
 40
1
 40
1
 40
1
 10
274.664699
 20
28.245805
 30
0.0
 10
274.337277
 20
28.377409
 30
0.0
 10
274.069387
 20
28.532561
 30
0.0
 10
274.069387
 20
28.590584
 30
0.0
  0
SPLINE
  5
11b
100
AcDbEntity
  8
0
 62
7
100
AcDbSpline
 70
8
 71
3
 72
8
 73
4
 74
0
 40
0
 40
0
 40
0
 40
0
 40
1
 40
1
 40
1
 40
1
 10
274.069387
 20
28.590584
 30
0.0
 10
274.069387
 20
28.648581
 30
0.0
 10
275.302662
 20
29.712073
 30
0.0
 10
276.809994
 20
30.953842
 30
0.0
  0
SPLINE
  5
11c
100
AcDbEntity
  8
0
 62
7
100
AcDbSpline
 70
8
 71
3
 72
8
 73
4
 74
0
 40
0
 40
0
 40
0
 40
0
 40
1
 40
1
 40
1
 40
1
 10
276.809994
 20
30.953842
 30
0.0
 10
278.317325
 20
32.195611
 30
0.0
 10
280.073497
 20
33.818804
 30
0.0
 10
280.712598
 20
34.560907
 30
0.0
  0
LWPOLYLINE
  5
11d
100
AcDbEntity
  8
0
 62
7
100
AcDbPolyline
 90
5
 70
0
 10
265.115331
 20
27.972967
 30
0.0
 10
267.731584
 20
27.972967
 30
0.0
 10
267.273828
 20
28.671599
 30
0.0
 10
266.816073
 20
29.370205
 30
0.0
 10
269.038202
 20
29.241591
 30
0.0
  0
SPLINE
  5
11e
100
AcDbEntity
  8
0
 62
7
100
AcDbSpline
 70
8
 71
3
 72
8
 73
4
 74
0
 40
0
 40
0
 40
0
 40
0
 40
1
 40
1
 40
1
 40
1
 10
284.321991
 20
35.910335
 30
0.0
 10
287.160917
 20
35.910494
 30
0.0
 10
287.121309
 20
35.965474
 30
0.0
 10
286.177937
 20
33.334801
 30
0.0
  0
SPLINE
  5
11f
100
AcDbEntity
  8
0
 62
7
100
AcDbSpline
 70
8
 71
3
 72
8
 73
4
 74
0
 40
0
 40
0
 40
0
 40
0
 40
1
 40
1
 40
1
 40
1
 10
286.177937
 20
33.334801
 30
0.0
 10
285.600775
 20
31.725367
 30
0.0
 10
285.597944
 20
31.663693
 30
0.0
 10
286.061653
 20
30.802686
 30
0.0
  0
SPLINE
  5
120
100
AcDbEntity
  8
0
 62
7
100
AcDbSpline
 70
8
 71
3
 72
8
 73
4
 74
0
 40
0
 40
0
 40
0
 40
0
 40
1
 40
1
 40
1
 40
1
 10
286.061653
 20
30.802686
 30
0.0
 10
286.323035
 20
30.317308
 30
0.0
 10
286.879612
 20
29.717735
 30
0.0
 10
287.298500
 20
29.470297
 30
0.0
  0
SPLINE
  5
121
100
AcDbEntity
  8
0
 62
7
100
AcDbSpline
 70
8
 71
3
 72
8
 73
4
 74
0
 40
0
 40
0
 40
0
 40
0
 40
1
 40
1
 40
1
 40
1
 10
287.298500
 20
29.470297
 30
0.0
 10
287.717389
 20
29.222859
 30
0.0
 10
288.134901
 20
28.784735
 30
0.0
 10
288.226315
 20
28.496683
 30
0.0
  0
SPLINE
  5
122
100
AcDbEntity
  8
0
 62
7
100
AcDbSpline
 70
8
 71
3
 72
8
 73
4
 74
0
 40
0
 40
0
 40
0
 40
0
 40
1
 40
1
 40
1
 40
1
 10
288.226315
 20
28.496683
 30
0.0
 10
288.386732
 20
27.991276
 30
0.0
 10
288.650495
 20
27.972967
 30
0.0
 10
295.771305
 20
27.972967
 30
0.0
  0
SPLINE
  5
123
100
AcDbEntity
  8
0
 62
7
100
AcDbSpline
 70
8
 71
3
 72
8
 73
4
 74
0
 40
0
 40
0
 40
0
 40
0
 40
1
 40
1
 40
1
 40
1
 10
295.771305
 20
27.972967
 30
0.0
 10
303.132649
 20
27.972967
 30
0.0
 10
303.152281
 20
27.975613
 30
0.0
 10
304.089911
 20
28.610772
 30
0.0
  0
SPLINE
  5
124
100
AcDbEntity
  8
0
 62
7
100
AcDbSpline
 70
8
 71
3
 72
8
 73
4
 74
0
 40
0
 40
0
 40
0
 40
0
 40
1
 40
1
 40
1
 40
1
 10
304.089911
 20
28.610772
 30
0.0
 10
304.646939
 20
28.988782
 30
0.0
 10
305.810206
 20
29.383434
 30
0.0
 10
306.945930
 20
29.579676
 30
0.0
  0
SPLINE
  5
125
100
AcDbEntity
  8
0
 62
7
100
AcDbSpline
 70
8
 71
3
 72
8
 73
4
 74
0
 40
0
 40
0
 40
0
 40
0
 40
1
 40
1
 40
1
 40
1
 10
306.945930
 20
29.579676
 30
0.0
 10
307.999818
 20
29.761789
 30
0.0
 10
309.439045
 20
30.196922
 30
0.0
 10
310.144239
 20
30.546675
 30
0.0
  0
SPLINE
  5
126
100
AcDbEntity
  8
0
 62
7
100
AcDbSpline
 70
8
 71
3
 72
8
 73
4
 74
0
 40
0
 40
0
 40
0
 40
0
 40
1
 40
1
 40
1
 40
1
 10
310.144239
 20
30.546675
 30
0.0
 10
311.878689
 20
31.406941
 30
0.0
 10
314.765399
 20
32.116025
 30
0.0
 10
317.967228
 20
32.468344
 30
0.0
  0
SPLINE
  5
127
100
AcDbEntity
  8
0
 62
7
100
AcDbSpline
 70
8
 71
3
 72
8
 73
4
 74
0
 40
0
 40
0
 40
0
 40
0
 40
1
 40
1
 40
1
 40
1
 10
317.967228
 20
32.468344
 30
0.0
 10
321.031685
 20
32.805555
 30
0.0
 10
320.490136
 20
32.991187
 30
0.0
 10
325.026576
 20
30.048597
 30
0.0
  0
SPLINE
  5
128
100
AcDbEntity
  8
0
 62
7
100
AcDbSpline
 70
8
 71
3
 72
8
 73
4
 74
0
 40
0
 40
0
 40
0
 40
0
 40
1
 40
1
 40
1
 40
1
 10
325.026576
 20
30.048597
 30
0.0
 10
328.162999
 20
28.014136
 30
0.0
 10
328.259652
 20
27.972967
 30
0.0
 10
329.898110
 20
27.972967
 30
0.0
  0
SPLINE
  5
129
100
AcDbEntity
  8
0
 62
7
100
AcDbSpline
 70
8
 71
3
 72
8
 73
4
 74
0
 40
0
 40
0
 40
0
 40
0
 40
1
 40
1
 40
1
 40
1
 10
329.898110
 20
27.972967
 30
0.0
 10
330.817511
 20
27.972967
 30
0.0
 10
332.215199
 20
28.176432
 30
0.0
 10
333.004081
 20
28.425114
 30
0.0
  0
SPLINE
  5
12a
100
AcDbEntity
  8
0
 62
7
100
AcDbSpline
 70
8
 71
3
 72
8
 73
4
 74
0
 40
0
 40
0
 40
0
 40
0
 40
1
 40
1
 40
1
 40
1
 10
333.004081
 20
28.425114
 30
0.0
 10
334.358086
 20
28.851913
 30
0.0
 10
334.430185
 20
28.918429
 30
0.0
 10
334.291384
 20
29.612511
 30
0.0
  0
SPLINE
  5
12b
100
AcDbEntity
  8
0
 62
7
100
AcDbSpline
 70
8
 71
3
 72
8
 73
4
 74
0
 40
0
 40
0
 40
0
 40
0
 40
1
 40
1
 40
1
 40
1
 10
334.291384
 20
29.612511
 30
0.0
 10
334.126814
 20
30.435259
 30
0.0
 10
333.892604
 20
30.329108
 30
0.0
 10
337.434925
 20
31.037504
 30
0.0
  0
SPLINE
  5
12c
100
AcDbEntity
  8
0
 62
7
100
AcDbSpline
 70
8
 71
3
 72
8
 73
4
 74
0
 40
0
 40
0
 40
0
 40
0
 40
1
 40
1
 40
1
 40
1
 10
337.434925
 20
31.037504
 30
0.0
 10
339.868722
 20
31.524258
 30
0.0
 10
340.037367
 20
31.598658
 30
0.0
 10
339.844697
 20
32.100785
 30
0.0
  0
SPLINE
  5
12d
100
AcDbEntity
  8
0
 62
7
100
AcDbSpline
 70
8
 71
3
 72
8
 73
4
 74
0
 40
0
 40
0
 40
0
 40
0
 40
1
 40
1
 40
1
 40
1
 10
339.844697
 20
32.100785
 30
0.0
 10
339.732197
 20
32.393916
 30
0.0
 10
340.052104
 20
32.470884
 30
0.0
 10
341.383302
 20
32.470884
 30
0.0
  0
SPLINE
  5
12e
100
AcDbEntity
  8
0
 62
7
100
AcDbSpline
 70
8
 71
3
 72
8
 73
4
 74
0
 40
0
 40
0
 40
0
 40
0
 40
1
 40
1
 40
1
 40
1
 10
341.383302
 20
32.470884
 30
0.0
 10
342.841395
 20
32.470884
 30
0.0
 10
343.082245
 20
32.400822
 30
0.0
 10
343.202286
 20
31.941717
 30
0.0
  0
SPLINE
  5
12f
100
AcDbEntity
  8
0
 62
7
100
AcDbSpline
 70
8
 71
3
 72
8
 73
4
 74
0
 40
0
 40
0
 40
0
 40
0
 40
1
 40
1
 40
1
 40
1
 10
343.202286
 20
31.941717
 30
0.0
 10
343.322857
 20
31.480681
 30
0.0
 10
343.210489
 20
31.412550
 30
0.0
 10
342.328765
 20
31.412550
 30
0.0
  0
SPLINE
  5
130
100
AcDbEntity
  8
0
 62
7
100
AcDbSpline
 70
8
 71
3
 72
8
 73
4
 74
0
 40
0
 40
0
 40
0
 40
0
 40
1
 40
1
 40
1
 40
1
 10
342.328765
 20
31.412550
 30
0.0
 10
340.528698
 20
31.412550
 30
0.0
 10
340.358492
 20
31.178341
 30
0.0
 10
341.537740
 20
30.324108
 30
0.0
  0
SPLINE
  5
131
100
AcDbEntity
  8
0
 62
7
100
AcDbSpline
 70
8
 71
3
 72
8
 73
4
 74
0
 40
0
 40
0
 40
0
 40
0
 40
1
 40
1
 40
1
 40
1
 10
341.537740
 20
30.324108
 30
0.0
 10
342.120035
 20
29.902282
 30
0.0
 10
342.594089
 20
29.468604
 30
0.0
 10
342.591152
 20
29.360363
 30
0.0
  0
SPLINE
  5
132
100
AcDbEntity
  8
0
 62
7
100
AcDbSpline
 70
8
 71
3
 72
8
 73
4
 74
0
 40
0
 40
0
 40
0
 40
0
 40
1
 40
1
 40
1
 40
1
 10
342.591152
 20
29.360363
 30
0.0
 10
342.588241
 20
29.252148
 30
0.0
 10
342.022695
 20
28.906285
 30
0.0
 10
341.334381
 20
28.591775
 30
0.0
  0
LWPOLYLINE
  5
133
100
AcDbEntity
  8
0
 62
7
100
AcDbPolyline
 90
3
 70
0
 10
280.712598
 20
34.560907
 30
0.0
 10
281.874595
 20
35.910202
 30
0.0
 10
284.321991
 20
35.910335
 30
0.0
  0
SPLINE
  5
134
100
AcDbEntity
  8
0
 62
7
100
AcDbSpline
 70
8
 71
3
 72
8
 73
4
 74
0
 40
0
 40
0
 40
0
 40
0
 40
1
 40
1
 40
1
 40
1
 10
350.889993
 20
27.996409
 30
0.0
 10
360.942070
 20
27.974449
 30
0.0
 10
361.746139
 20
28.006728
 30
0.0
 10
362.399368
 20
28.455885
 30
0.0
  0
SPLINE
  5
135
100
AcDbEntity
  8
0
 62
7
100
AcDbSpline
 70
8
 71
3
 72
8
 73
4
 74
0
 40
0
 40
0
 40
0
 40
0
 40
1
 40
1
 40
1
 40
1
 10
362.399368
 20
28.455885
 30
0.0
 10
362.785634
 20
28.721526
 30
0.0
 10
363.935116
 20
29.085566
 30
0.0
 10
364.953762
 20
29.264848
 30
0.0
  0
SPLINE
  5
136
100
AcDbEntity
  8
0
 62
7
100
AcDbSpline
 70
8
 71
3
 72
8
 73
4
 74
0
 40
0
 40
0
 40
0
 40
0
 40
1
 40
1
 40
1
 40
1
 10
364.953762
 20
29.264848
 30
0.0
 10
365.972407
 20
29.444130
 30
0.0
 10
367.086912
 20
29.659739
 30
0.0
 10
367.430420
 20
29.743929
 30
0.0
  0
SPLINE
  5
137
100
AcDbEntity
  8
0
 62
7
100
AcDbSpline
 70
8
 71
3
 72
8
 73
4
 74
0
 40
0
 40
0
 40
0
 40
0
 40
1
 40
1
 40
1
 40
1
 10
367.430420
 20
29.743929
 30
0.0
 10
368.075210
 20
29.902018
 30
0.0
 10
368.084285
 20
29.763773
 30
0.0
 10
367.526649
 20
28.281948
 30
0.0
  0
SPLINE
  5
138
100
AcDbEntity
  8
0
 62
7
100
AcDbSpline
 70
8
 71
3
 72
8
 73
4
 74
0
 40
0
 40
0
 40
0
 40
0
 40
1
 40
1
 40
1
 40
1
 10
367.526649
 20
28.281948
 30
0.0
 10
367.381393
 20
27.895894
 30
0.0
 10
367.979140
 20
27.944048
 30
0.0
 10
372.229803
 20
28.660725
 30
0.0
  0
SPLINE
  5
139
100
AcDbEntity
  8
0
 62
7
100
AcDbSpline
 70
8
 71
3
 72
8
 73
4
 74
0
 40
0
 40
0
 40
0
 40
0
 40
1
 40
1
 40
1
 40
1
 10
372.229803
 20
28.660725
 30
0.0
 10
373.466730
 20
28.869296
 30
0.0
 10
374.809755
 20
29.095250
 30
0.0
 10
375.214330
 20
29.162851
 30
0.0
  0
SPLINE
  5
13a
100
AcDbEntity
  8
0
 62
7
100
AcDbSpline
 70
8
 71
3
 72
8
 73
4
 74
0
 40
0
 40
0
 40
0
 40
0
 40
1
 40
1
 40
1
 40
1
 10
375.214330
 20
29.162851
 30
0.0
 10
375.803530
 20
29.261329
 30
0.0
 10
376.009403
 20
29.155178
 30
0.0
 10
376.248983
 20
28.629345
 30
0.0
  0
SPLINE
  5
13b
100
AcDbEntity
  8
0
 62
7
100
AcDbSpline
 70
8
 71
3
 72
8
 73
4
 74
0
 40
0
 40
0
 40
0
 40
0
 40
1
 40
1
 40
1
 40
1
 10
376.248983
 20
28.629345
 30
0.0
 10
376.548041
 20
27.972967
 30
0.0
 10
376.548438
 20
27.972914
 30
0.0
 10
380.515363
 20
27.972914
 30
0.0
  0
SPLINE
  5
13c
100
AcDbEntity
  8
0
 62
7
100
AcDbSpline
 70
8
 71
3
 72
8
 73
4
 74
0
 40
0
 40
0
 40
0
 40
0
 40
1
 40
1
 40
1
 40
1
 10
380.515363
 20
27.972914
 30
0.0
 10
384.268848
 20
27.972914
 30
0.0
 10
384.461226
 20
27.997785
 30
0.0
 10
384.084989
 20
28.435935
 30
0.0
  0
SPLINE
  5
13d
100
AcDbEntity
  8
0
 62
7
100
AcDbSpline
 70
8
 71
3
 72
8
 73
4
 74
0
 40
0
 40
0
 40
0
 40
0
 40
1
 40
1
 40
1
 40
1
 10
384.084989
 20
28.435935
 30
0.0
 10
383.866258
 20
28.690596
 30
0.0
 10
383.608897
 20
29.119116
 30
0.0
 10
383.513065
 20
29.388197
 30
0.0
  0
SPLINE
  5
13e
100
AcDbEntity
  8
0
 62
7
100
AcDbSpline
 70
8
 71
3
 72
8
 73
4
 74
0
 40
0
 40
0
 40
0
 40
0
 40
1
 40
1
 40
1
 40
1
 10
383.513065
 20
29.388197
 30
0.0
 10
383.346193
 20
29.856642
 30
0.0
 10
383.531851
 20
29.869183
 30
0.0
 10
387.882580
 20
29.683234
 30
0.0
  0
LWPOLYLINE
  5
13f
100
AcDbEntity
  8
0
 62
7
100
AcDbPolyline
 90
3
 70
0
 10
341.334381
 20
28.591775
 30
0.0
 10
340.082928
 20
28.019957
 30
0.0
 10
350.889993
 20
27.996409
 30
0.0
  0
SPLINE
  5
140
100
AcDbEntity
  8
0
 62
7
100
AcDbSpline
 70
8
 71
3
 72
8
 73
4
 74
0
 40
0
 40
0
 40
0
 40
0
 40
1
 40
1
 40
1
 40
1
 10
392.602720
 20
30.980539
 30
0.0
 10
395.064509
 20
30.779561
 30
0.0
 10
396.296647
 20
30.531065
 30
0.0
 10
398.158970
 20
29.859949
 30
0.0
  0
SPLINE
  5
141
100
AcDbEntity
  8
0
 62
7
100
AcDbSpline
 70
8
 71
3
 72
8
 73
4
 74
0
 40
0
 40
0
 40
0
 40
0
 40
1
 40
1
 40
1
 40
1
 10
398.158970
 20
29.859949
 30
0.0
 10
398.959335
 20
29.571527
 30
0.0
 10
401.135453
 20
29.045376
 30
0.0
 10
402.994812
 20
28.690729
 30
0.0
  0
LWPOLYLINE
  5
142
100
AcDbEntity
  8
0
 62
7
100
AcDbPolyline
 90
5
 70
0
 10
387.882580
 20
29.683234
 30
0.0
 10
392.426402
 20
29.489030
 30
0.0
 10
391.522373
 20
30.315800
 30
0.0
 10
390.618345
 20
31.142570
 30
0.0
 10
392.602720
 20
30.980539
 30
0.0
  0
SPLINE
  5
143
100
AcDbEntity
  8
0
 62
7
100
AcDbSpline
 70
8
 71
3
 72
8
 73
4
 74
0
 40
0
 40
0
 40
0
 40
0
 40
1
 40
1
 40
1
 40
1
 10
407.029708
 20
28.823444
 30
0.0
 10
407.389542
 20
29.251116
 30
0.0
 10
407.683970
 20
29.770467
 30
0.0
 10
407.683970
 20
29.977583
 30
0.0
  0
SPLINE
  5
144
100
AcDbEntity
  8
0
 62
7
100
AcDbSpline
 70
8
 71
3
 72
8
 73
4
 74
0
 40
0
 40
0
 40
0
 40
0
 40
1
 40
1
 40
1
 40
1
 10
407.683970
 20
29.977583
 30
0.0
 10
407.683970
 20
30.213274
 30
0.0
 10
407.960010
 20
30.354164
 30
0.0
 10
408.421681
 20
30.354164
 30
0.0
  0
SPLINE
  5
145
100
AcDbEntity
  8
0
 62
7
100
AcDbSpline
 70
8
 71
3
 72
8
 73
4
 74
0
 40
0
 40
0
 40
0
 40
0
 40
1
 40
1
 40
1
 40
1
 10
408.421681
 20
30.354164
 30
0.0
 10
408.972200
 20
30.354164
 30
0.0
 10
409.411990
 20
30.052010
 30
0.0
 10
410.154649
 20
29.163539
 30
0.0
  0
LWPOLYLINE
  5
146
100
AcDbEntity
  8
0
 62
7
100
AcDbPolyline
 90
3
 70
0
 10
402.994812
 20
28.690729
 30
0.0
 10
406.375420
 20
28.045886
 30
0.0
 10
407.029708
 20
28.823444
 30
0.0
  0
SPLINE
  5
147
100
AcDbEntity
  8
0
 62
7
100
AcDbSpline
 70
8
 71
3
 72
8
 73
4
 74
0
 40
0
 40
0
 40
0
 40
0
 40
1
 40
1
 40
1
 40
1
 10
414.327340
 20
27.972914
 30
0.0
 10
416.378258
 20
27.972914
 30
0.0
 10
417.446804
 20
28.066709
 30
0.0
 10
417.341262
 20
28.237497
 30
0.0
  0
SPLINE
  5
148
100
AcDbEntity
  8
0
 62
7
100
AcDbSpline
 70
8
 71
3
 72
8
 73
4
 74
0
 40
0
 40
0
 40
0
 40
0
 40
1
 40
1
 40
1
 40
1
 10
417.341262
 20
28.237497
 30
0.0
 10
417.237148
 20
28.405931
 30
0.0
 10
417.992613
 20
28.502081
 30
0.0
 10
419.420252
 20
28.502081
 30
0.0
  0
SPLINE
  5
149
100
AcDbEntity
  8
0
 62
7
100
AcDbSpline
 70
8
 71
3
 72
8
 73
4
 74
0
 40
0
 40
0
 40
0
 40
0
 40
1
 40
1
 40
1
 40
1
 10
419.420252
 20
28.502081
 30
0.0
 10
420.776056
 20
28.502081
 30
0.0
 10
421.700060
 20
28.390294
 30
0.0
 10
421.757025
 20
28.219347
 30
0.0
  0
SPLINE
  5
14a
100
AcDbEntity
  8
0
 62
7
100
AcDbSpline
 70
8
 71
3
 72
8
 73
4
 74
0
 40
0
 40
0
 40
0
 40
0
 40
1
 40
1
 40
1
 40
1
 10
421.757025
 20
28.219347
 30
0.0
 10
421.811080
 20
28.057237
 30
0.0
 10
422.356677
 20
27.972570
 30
0.0
 10
423.035862
 20
28.020910
 30
0.0
  0
LWPOLYLINE
  5
14b
100
AcDbEntity
  8
0
 62
7
100
AcDbPolyline
 90
3
 70
0
 10
410.154649
 20
29.163539
 30
0.0
 10
411.149879
 20
27.972914
 30
0.0
 10
414.327340
 20
27.972914
 30
0.0
  0
SPLINE
  5
14c
100
AcDbEntity
  8
0
 62
7
100
AcDbSpline
 70
8
 71
3
 72
8
 73
4
 74
0
 40
0
 40
0
 40
0
 40
0
 40
1
 40
1
 40
1
 40
1
 10
423.113967
 20
29.201957
 30
0.0
 10
421.827801
 20
30.476825
 30
0.0
 10
419.745504
 20
31.529152
 30
0.0
 10
417.329144
 20
32.125444
 30
0.0
  0
SPLINE
  5
14d
100
AcDbEntity
  8
0
 62
7
100
AcDbSpline
 70
8
 71
3
 72
8
 73
4
 74
0
 40
0
 40
0
 40
0
 40
0
 40
1
 40
1
 40
1
 40
1
 10
417.329144
 20
32.125444
 30
0.0
 10
415.491771
 20
32.578887
 30
0.0
 10
415.266505
 20
32.904642
 30
0.0
 10
416.033347
 20
33.999461
 30
0.0
  0
SPLINE
  5
14e
100
AcDbEntity
  8
0
 62
7
100
AcDbSpline
 70
8
 71
3
 72
8
 73
4
 74
0
 40
0
 40
0
 40
0
 40
0
 40
1
 40
1
 40
1
 40
1
 10
416.033347
 20
33.999461
 30
0.0
 10
416.438371
 20
34.577708
 30
0.0
 10
416.427629
 20
34.587497
 30
0.0
 10
415.389113
 20
34.587497
 30
0.0
  0
SPLINE
  5
14f
100
AcDbEntity
  8
0
 62
7
100
AcDbSpline
 70
8
 71
3
 72
8
 73
4
 74
0
 40
0
 40
0
 40
0
 40
0
 40
1
 40
1
 40
1
 40
1
 10
415.389113
 20
34.587497
 30
0.0
 10
414.198197
 20
34.587497
 30
0.0
 10
412.975637
 20
34.976620
 30
0.0
 10
412.975637
 20
35.355662
 30
0.0
  0
SPLINE
  5
150
100
AcDbEntity
  8
0
 62
7
100
AcDbSpline
 70
8
 71
3
 72
8
 73
4
 74
0
 40
0
 40
0
 40
0
 40
0
 40
1
 40
1
 40
1
 40
1
 10
412.975637
 20
35.355662
 30
0.0
 10
412.975637
 20
35.494304
 30
0.0
 10
413.647758
 20
35.691736
 30
0.0
 10
414.469236
 20
35.794368
 30
0.0
  0
SPLINE
  5
151
100
AcDbEntity
  8
0
 62
7
100
AcDbSpline
 70
8
 71
3
 72
8
 73
4
 74
0
 40
0
 40
0
 40
0
 40
0
 40
1
 40
1
 40
1
 40
1
 10
414.469236
 20
35.794368
 30
0.0
 10
415.780194
 20
35.958171
 30
0.0
 10
416.014773
 20
35.915653
 30
0.0
 10
416.387465
 20
35.446732
 30
0.0
  0
SPLINE
  5
152
100
AcDbEntity
  8
0
 62
7
100
AcDbSpline
 70
8
 71
3
 72
8
 73
4
 74
0
 40
0
 40
0
 40
0
 40
0
 40
1
 40
1
 40
1
 40
1
 10
416.387465
 20
35.446732
 30
0.0
 10
416.716977
 20
35.032156
 30
0.0
 10
417.256621
 20
34.873591
 30
0.0
 10
418.796470
 20
34.738839
 30
0.0
  0
SPLINE
  5
153
100
AcDbEntity
  8
0
 62
7
100
AcDbSpline
 70
8
 71
3
 72
8
 73
4
 74
0
 40
0
 40
0
 40
0
 40
0
 40
1
 40
1
 40
1
 40
1
 10
418.796470
 20
34.738839
 30
0.0
 10
423.040916
 20
34.367444
 30
0.0
 10
423.231680
 20
34.319316
 30
0.0
 10
423.555372
 20
33.537842
 30
0.0
  0
SPLINE
  5
154
100
AcDbEntity
  8
0
 62
7
100
AcDbSpline
 70
8
 71
3
 72
8
 73
4
 74
0
 40
0
 40
0
 40
0
 40
0
 40
1
 40
1
 40
1
 40
1
 10
423.555372
 20
33.537842
 30
0.0
 10
423.828184
 20
32.879215
 30
0.0
 10
424.069087
 20
32.777536
 30
0.0
 10
426.301614
 20
32.378782
 30
0.0
  0
SPLINE
  5
155
100
AcDbEntity
  8
0
 62
7
100
AcDbSpline
 70
8
 71
3
 72
8
 73
4
 74
0
 40
0
 40
0
 40
0
 40
0
 40
1
 40
1
 40
1
 40
1
 10
426.301614
 20
32.378782
 30
0.0
 10
430.103068
 20
31.699756
 30
0.0
 10
429.921855
 20
31.644167
 30
0.0
 10
431.560684
 20
33.992185
 30
0.0
  0
LWPOLYLINE
  5
156
100
AcDbEntity
  8
0
 62
7
100
AcDbPolyline
 90
3
 70
0
 10
423.035862
 20
28.020910
 30
0.0
 10
424.220428
 20
28.105206
 30
0.0
 10
423.113967
 20
29.201957
 30
0.0
  0
SPLINE
  5
157
100
AcDbEntity
  8
0
 62
7
100
AcDbSpline
 70
8
 71
3
 72
8
 73
4
 74
0
 40
0
 40
0
 40
0
 40
0
 40
1
 40
1
 40
1
 40
1
 10
433.308760
 20
41.202081
 30
0.0
 10
434.498141
 20
60.566512
 30
0.0
 10
435.602592
 20
97.822914
 30
0.0
 10
434.987277
 20
97.822914
 30
0.0
  0
SPLINE
  5
158
100
AcDbEntity
  8
0
 62
7
100
AcDbSpline
 70
8
 71
3
 72
8
 73
4
 74
0
 40
0
 40
0
 40
0
 40
0
 40
1
 40
1
 40
1
 40
1
 10
434.987277
 20
97.822914
 30
0.0
 10
434.830352
 20
97.822914
 30
0.0
 10
433.012771
 20
97.228713
 30
0.0
 10
430.948227
 20
96.502458
 30
0.0
  0
SPLINE
  5
159
100
AcDbEntity
  8
0
 62
7
100
AcDbSpline
 70
8
 71
3
 72
8
 73
4
 74
0
 40
0
 40
0
 40
0
 40
0
 40
1
 40
1
 40
1
 40
1
 10
430.948227
 20
96.502458
 30
0.0
 10
427.520470
 20
95.296672
 30
0.0
 10
426.238194
 20
95.019945
 30
0.0
 10
416.182466
 20
93.315975
 30
0.0
  0
SPLINE
  5
15a
100
AcDbEntity
  8
0
 62
7
100
AcDbSpline
 70
8
 71
3
 72
8
 73
4
 74
0
 40
0
 40
0
 40
0
 40
0
 40
1
 40
1
 40
1
 40
1
 10
416.182466
 20
93.315975
 30
0.0
 10
405.407230
 20
91.490059
 30
0.0
 10
404.903358
 20
91.430131
 30
0.0
 10
392.750569
 20
90.528907
 30
0.0
  0
SPLINE
  5
15b
100
AcDbEntity
  8
0
 62
7
100
AcDbSpline
 70
8
 71
3
 72
8
 73
4
 74
0
 40
0
 40
0
 40
0
 40
0
 40
1
 40
1
 40
1
 40
1
 10
392.750569
 20
90.528907
 30
0.0
 10
385.919662
 20
90.022336
 30
0.0
 10
380.302664
 20
89.579794
 30
0.0
 10
380.268348
 20
89.545504
 30
0.0
  0
SPLINE
  5
15c
100
AcDbEntity
  8
0
 62
7
100
AcDbSpline
 70
8
 71
3
 72
8
 73
4
 74
0
 40
0
 40
0
 40
0
 40
0
 40
1
 40
1
 40
1
 40
1
 10
380.268348
 20
89.545504
 30
0.0
 10
380.234058
 20
89.511188
 30
0.0
 10
381.844312
 20
88.125565
 30
0.0
 10
383.846705
 20
86.466336
 30
0.0
  0
SPLINE
  5
15d
100
AcDbEntity
  8
0
 62
7
100
AcDbSpline
 70
8
 71
3
 72
8
 73
4
 74
0
 40
0
 40
0
 40
0
 40
0
 40
1
 40
1
 40
1
 40
1
 10
383.846705
 20
86.466336
 30
0.0
 10
386.806890
 20
84.013463
 30
0.0
 10
387.946424
 20
83.246754
 30
0.0
 10
389.942917
 20
82.364580
 30
0.0
  0
LWPOLYLINE
  5
15e
100
AcDbEntity
  8
0
 62
7
100
AcDbPolyline
 90
3
 70
0
 10
431.560684
 20
33.992185
 30
0.0
 10
432.991869
 20
36.042706
 30
0.0
 10
433.308760
 20
41.202081
 30
0.0
  0
SPLINE
  5
15f
100
AcDbEntity
  8
0
 62
7
100
AcDbSpline
 70
8
 71
3
 72
8
 73
4
 74
0
 40
0
 40
0
 40
0
 40
0
 40
1
 40
1
 40
1
 40
1
 10
393.398190
 20
79.430959
 30
0.0
 10
394.395669
 20
77.586575
 30
0.0
 10
394.397336
 20
77.578188
 30
0.0
 10
394.120740
 20
75.814132
 30
0.0
  0
SPLINE
  5
160
100
AcDbEntity
  8
0
 62
7
100
AcDbSpline
 70
8
 71
3
 72
8
 73
4
 74
0
 40
0
 40
0
 40
0
 40
0
 40
1
 40
1
 40
1
 40
1
 10
394.120740
 20
75.814132
 30
0.0
 10
393.857215
 20
74.133578
 30
0.0
 10
393.763579
 20
73.967710
 30
0.0
 10
392.230901
 20
72.465882
 30
0.0
  0
LWPOLYLINE
  5
161
100
AcDbEntity
  8
0
 62
7
100
AcDbPolyline
 90
3
 70
0
 10
389.942917
 20
82.364580
 30
0.0
 10
392.398382
 20
81.279630
 30
0.0
 10
393.398190
 20
79.430959
 30
0.0
  0
SPLINE
  5
162
100
AcDbEntity
  8
0
 62
7
100
AcDbSpline
 70
8
 71
3
 72
8
 73
4
 74
0
 40
0
 40
0
 40
0
 40
0
 40
1
 40
1
 40
1
 40
1
 10
381.357928
 20
75.444773
 30
0.0
 10
376.264699
 20
77.952230
 30
0.0
 10
370.714402
 20
80.792373
 30
0.0
 10
369.023926
 20
81.756197
 30
0.0
  0
LWPOLYLINE
  5
163
100
AcDbEntity
  8
0
 62
7
100
AcDbPolyline
 90
3
 70
0
 10
392.230901
 20
72.465882
 30
0.0
 10
390.618345
 20
70.885764
 30
0.0
 10
381.357928
 20
75.444773
 30
0.0
  0
SPLINE
  5
164
100
AcDbEntity
  8
0
 62
7
100
AcDbSpline
 70
8
 71
3
 72
8
 73
4
 74
0
 40
0
 40
0
 40
0
 40
0
 40
1
 40
1
 40
1
 40
1
 10
345.792372
 20
84.119376
 30
0.0
 10
342.518709
 20
83.652783
 30
0.0
 10
340.370081
 20
83.122585
 30
0.0
 10
334.436561
 20
81.317174
 30
0.0
  0
SPLINE
  5
165
100
AcDbEntity
  8
0
 62
7
100
AcDbSpline
 70
8
 71
3
 72
8
 73
4
 74
0
 40
0
 40
0
 40
0
 40
0
 40
1
 40
1
 40
1
 40
1
 10
334.436561
 20
81.317174
 30
0.0
 10
327.224893
 20
79.122879
 30
0.0
 10
327.004706
 20
79.074486
 30
0.0
 10
319.313137
 20
77.993584
 30
0.0
  0
SPLINE
  5
166
100
AcDbEntity
  8
0
 62
7
100
AcDbSpline
 70
8
 71
3
 72
8
 73
4
 74
0
 40
0
 40
0
 40
0
 40
0
 40
1
 40
1
 40
1
 40
1
 10
319.313137
 20
77.993584
 30
0.0
 10
315.020272
 20
77.390308
 30
0.0
 10
306.269178
 20
76.019078
 30
0.0
 10
299.866262
 20
74.946404
 30
0.0
  0
SPLINE
  5
167
100
AcDbEntity
  8
0
 62
7
100
AcDbSpline
 70
8
 71
3
 72
8
 73
4
 74
0
 40
0
 40
0
 40
0
 40
0
 40
1
 40
1
 40
1
 40
1
 10
299.866262
 20
74.946404
 30
0.0
 10
288.298255
 20
73.008411
 30
0.0
 10
288.147575
 20
72.990684
 30
0.0
 10
276.053762
 20
72.144308
 30
0.0
  0
LWPOLYLINE
  5
168
100
AcDbEntity
  8
0
 62
7
100
AcDbPolyline
 90
5
 70
0
 10
369.023926
 20
81.756197
 30
0.0
 10
365.950341
 20
83.508585
 30
0.0
 10
357.890154
 20
84.101728
 30
0.0
 10
349.829967
 20
84.694871
 30
0.0
 10
345.792372
 20
84.119376
 30
0.0
  0
SPLINE
  5
169
100
AcDbEntity
  8
0
 62
7
100
AcDbSpline
 70
8
 71
3
 72
8
 73
4
 74
0
 40
0
 40
0
 40
0
 40
0
 40
1
 40
1
 40
1
 40
1
 10
193.741260
 20
70.649703
 30
0.0
 10
181.386885
 20
69.310647
 30
0.0
 10
171.025563
 20
68.209319
 30
0.0
 10
170.716107
 20
68.202307
 30
0.0
  0
SPLINE
  5
16a
100
AcDbEntity
  8
0
 62
7
100
AcDbSpline
 70
8
 71
3
 72
8
 73
4
 74
0
 40
0
 40
0
 40
0
 40
0
 40
1
 40
1
 40
1
 40
1
 10
170.716107
 20
68.202307
 30
0.0
 10
170.311850
 20
68.193047
 30
0.0
 10
169.285584
 20
67.078251
 30
0.0
 10
167.070836
 20
64.242209
 30
0.0
  0
LWPOLYLINE
  5
16b
100
AcDbEntity
  8
0
 62
7
100
AcDbPolyline
 90
5
 70
0
 10
276.053762
 20
72.144308
 30
0.0
 10
263.882936
 20
71.292535
 30
0.0
 10
240.043343
 20
72.188467
 30
0.0
 10
216.203723
 20
73.084372
 30
0.0
 10
193.741260
 20
70.649703
 30
0.0
  0
SPLINE
  5
16c
100
AcDbEntity
  8
0
 62
7
100
AcDbSpline
 70
8
 71
3
 72
8
 73
4
 74
0
 40
0
 40
0
 40
0
 40
0
 40
1
 40
1
 40
1
 40
1
 10
165.728340
 20
53.328147
 30
0.0
 10
166.685391
 20
49.496451
 30
0.0
 10
167.578651
 20
45.943017
 30
0.0
 10
167.713377
 20
45.431578
 30
0.0
  0
SPLINE
  5
16d
100
AcDbEntity
  8
0
 62
7
100
AcDbSpline
 70
8
 71
3
 72
8
 73
4
 74
0
 40
0
 40
0
 40
0
 40
0
 40
1
 40
1
 40
1
 40
1
 10
167.713377
 20
45.431578
 30
0.0
 10
167.940310
 20
44.570094
 30
0.0
 10
168.109696
 20
44.446164
 30
0.0
 10
170.015411
 20
43.747134
 30
0.0
  0
SPLINE
  5
16e
100
AcDbEntity
  8
0
 62
7
100
AcDbSpline
 70
8
 71
3
 72
8
 73
4
 74
0
 40
0
 40
0
 40
0
 40
0
 40
1
 40
1
 40
1
 40
1
 10
170.015411
 20
43.747134
 30
0.0
 10
171.146822
 20
43.332135
 30
0.0
 10
172.626531
 20
42.719493
 30
0.0
 10
173.303626
 20
42.385721
 30
0.0
  0
SPLINE
  5
16f
100
AcDbEntity
  8
0
 62
7
100
AcDbSpline
 70
8
 71
3
 72
8
 73
4
 74
0
 40
0
 40
0
 40
0
 40
0
 40
1
 40
1
 40
1
 40
1
 10
173.303626
 20
42.385721
 30
0.0
 10
173.996914
 20
42.043985
 30
0.0
 10
175.326154
 20
41.700000
 30
0.0
 10
176.346334
 20
41.598347
 30
0.0
  0
SPLINE
  5
170
100
AcDbEntity
  8
0
 62
7
100
AcDbSpline
 70
8
 71
3
 72
8
 73
4
 74
0
 40
0
 40
0
 40
0
 40
0
 40
1
 40
1
 40
1
 40
1
 10
176.346334
 20
41.598347
 30
0.0
 10
177.884013
 20
41.445127
 30
0.0
 10
178.430325
 20
41.239625
 30
0.0
 10
179.959458
 20
40.239156
 30
0.0
  0
SPLINE
  5
171
100
AcDbEntity
  8
0
 62
7
100
AcDbSpline
 70
8
 71
3
 72
8
 73
4
 74
0
 40
0
 40
0
 40
0
 40
0
 40
1
 40
1
 40
1
 40
1
 10
179.959458
 20
40.239156
 30
0.0
 10
180.950296
 20
39.590874
 30
0.0
 10
182.040194
 20
38.954313
 30
0.0
 10
182.381454
 20
38.824561
 30
0.0
  0
SPLINE
  5
172
100
AcDbEntity
  8
0
 62
7
100
AcDbSpline
 70
8
 71
3
 72
8
 73
4
 74
0
 40
0
 40
0
 40
0
 40
0
 40
1
 40
1
 40
1
 40
1
 10
182.381454
 20
38.824561
 30
0.0
 10
183.156894
 20
38.529736
 30
0.0
 10
185.698561
 20
39.285227
 30
0.0
 10
185.698561
 20
39.810505
 30
0.0
  0
SPLINE
  5
173
100
AcDbEntity
  8
0
 62
7
100
AcDbSpline
 70
8
 71
3
 72
8
 73
4
 74
0
 40
0
 40
0
 40
0
 40
0
 40
1
 40
1
 40
1
 40
1
 10
185.698561
 20
39.810505
 30
0.0
 10
185.698561
 20
40.491172
 30
0.0
 10
184.943149
 20
41.602025
 30
0.0
 10
183.582768
 20
42.921872
 30
0.0
  0
SPLINE
  5
174
100
AcDbEntity
  8
0
 62
7
100
AcDbSpline
 70
8
 71
3
 72
8
 73
4
 74
0
 40
0
 40
0
 40
0
 40
0
 40
1
 40
1
 40
1
 40
1
 10
183.582768
 20
42.921872
 30
0.0
 10
182.832806
 20
43.649477
 30
0.0
 10
182.095227
 20
44.471220
 30
0.0
 10
181.943700
 20
44.748000
 30
0.0
  0
SPLINE
  5
175
100
AcDbEntity
  8
0
 62
7
100
AcDbSpline
 70
8
 71
3
 72
8
 73
4
 74
0
 40
0
 40
0
 40
0
 40
0
 40
1
 40
1
 40
1
 40
1
 10
181.943700
 20
44.748000
 30
0.0
 10
181.684964
 20
45.220572
 30
0.0
 10
181.746586
 20
45.240549
 30
0.0
 10
182.955758
 20
45.076295
 30
0.0
  0
SPLINE
  5
176
100
AcDbEntity
  8
0
 62
7
100
AcDbSpline
 70
8
 71
3
 72
8
 73
4
 74
0
 40
0
 40
0
 40
0
 40
0
 40
1
 40
1
 40
1
 40
1
 10
182.955758
 20
45.076295
 30
0.0
 10
185.048692
 20
44.792000
 30
0.0
 10
186.704401
 20
44.126467
 30
0.0
 10
187.733630
 20
43.155764
 30
0.0
  0
SPLINE
  5
177
100
AcDbEntity
  8
0
 62
7
100
AcDbSpline
 70
8
 71
3
 72
8
 73
4
 74
0
 40
0
 40
0
 40
0
 40
0
 40
1
 40
1
 40
1
 40
1
 10
187.733630
 20
43.155764
 30
0.0
 10
188.310872
 20
42.611384
 30
0.0
 10
189.186087
 20
42.124418
 30
0.0
 10
189.910728
 20
41.944502
 30
0.0
  0
SPLINE
  5
178
100
AcDbEntity
  8
0
 62
7
100
AcDbSpline
 70
8
 71
3
 72
8
 73
4
 74
0
 40
0
 40
0
 40
0
 40
0
 40
1
 40
1
 40
1
 40
1
 10
189.910728
 20
41.944502
 30
0.0
 10
191.215150
 20
41.620625
 30
0.0
 10
192.291422
 20
40.980148
 30
0.0
 10
192.304837
 20
40.519826
 30
0.0
  0
SPLINE
  5
179
100
AcDbEntity
  8
0
 62
7
100
AcDbSpline
 70
8
 71
3
 72
8
 73
4
 74
0
 40
0
 40
0
 40
0
 40
0
 40
1
 40
1
 40
1
 40
1
 10
192.304837
 20
40.519826
 30
0.0
 10
192.309335
 20
40.362875
 30
0.0
 10
193.593066
 20
39.966503
 30
0.0
 10
195.157415
 20
39.639002
 30
0.0
  0
SPLINE
  5
17a
100
AcDbEntity
  8
0
 62
7
100
AcDbSpline
 70
8
 71
3
 72
8
 73
4
 74
0
 40
0
 40
0
 40
0
 40
0
 40
1
 40
1
 40
1
 40
1
 10
195.157415
 20
39.639002
 30
0.0
 10
198.990328
 20
38.836600
 30
0.0
 10
200.981874
 20
38.144635
 30
0.0
 10
202.167604
 20
37.203354
 30
0.0
  0
SPLINE
  5
17b
100
AcDbEntity
  8
0
 62
7
100
AcDbSpline
 70
8
 71
3
 72
8
 73
4
 74
0
 40
0
 40
0
 40
0
 40
0
 40
1
 40
1
 40
1
 40
1
 10
202.167604
 20
37.203354
 30
0.0
 10
202.987653
 20
36.552346
 30
0.0
 10
203.535103
 20
36.373409
 30
0.0
 10
205.342604
 20
36.165578
 30
0.0
  0
SPLINE
  5
17c
100
AcDbEntity
  8
0
 62
7
100
AcDbSpline
 70
8
 71
3
 72
8
 73
4
 74
0
 40
0
 40
0
 40
0
 40
0
 40
1
 40
1
 40
1
 40
1
 10
205.342604
 20
36.165578
 30
0.0
 10
206.543839
 20
36.027439
 30
0.0
 10
208.143668
 20
35.913536
 30
0.0
 10
208.897731
 20
35.912425
 30
0.0
  0
SPLINE
  5
17d
100
AcDbEntity
  8
0
 62
7
100
AcDbSpline
 70
8
 71
3
 72
8
 73
4
 74
0
 40
0
 40
0
 40
0
 40
0
 40
1
 40
1
 40
1
 40
1
 10
208.897731
 20
35.912425
 30
0.0
 10
210.120211
 20
35.909779
 30
0.0
 10
210.330026
 20
35.996430
 30
0.0
 10
210.833978
 20
36.704164
 30
0.0
  0
SPLINE
  5
17e
100
AcDbEntity
  8
0
 62
7
100
AcDbSpline
 70
8
 71
3
 72
8
 73
4
 74
0
 40
0
 40
0
 40
0
 40
0
 40
1
 40
1
 40
1
 40
1
 10
210.833978
 20
36.704164
 30
0.0
 10
211.358885
 20
37.441320
 30
0.0
 10
211.515809
 20
37.497411
 30
0.0
 10
213.034809
 20
37.490797
 30
0.0
  0
SPLINE
  5
17f
100
AcDbEntity
  8
0
 62
7
100
AcDbSpline
 70
8
 71
3
 72
8
 73
4
 74
0
 40
0
 40
0
 40
0
 40
0
 40
1
 40
1
 40
1
 40
1
 10
213.034809
 20
37.490797
 30
0.0
 10
214.427522
 20
37.484711
 30
0.0
 10
214.795134
 20
37.376682
 30
0.0
 10
215.510091
 20
36.763193
 30
0.0
  0
SPLINE
  5
180
100
AcDbEntity
  8
0
 62
7
100
AcDbSpline
 70
8
 71
3
 72
8
 73
4
 74
0
 40
0
 40
0
 40
0
 40
0
 40
1
 40
1
 40
1
 40
1
 10
215.510091
 20
36.763193
 30
0.0
 10
216.345910
 20
36.046013
 30
0.0
 10
217.713145
 20
34.184458
 30
0.0
 10
217.713145
 20
33.763611
 30
0.0
  0
SPLINE
  5
181
100
AcDbEntity
  8
0
 62
7
100
AcDbSpline
 70
8
 71
3
 72
8
 73
4
 74
0
 40
0
 40
0
 40
0
 40
0
 40
1
 40
1
 40
1
 40
1
 10
217.713145
 20
33.763611
 30
0.0
 10
217.713145
 20
33.642141
 30
0.0
 10
217.355957
 20
33.358032
 30
0.0
 10
216.919395
 20
33.132289
 30
0.0
  0
SPLINE
  5
182
100
AcDbEntity
  8
0
 62
7
100
AcDbSpline
 70
8
 71
3
 72
8
 73
4
 74
0
 40
0
 40
0
 40
0
 40
0
 40
1
 40
1
 40
1
 40
1
 10
216.919395
 20
33.132289
 30
0.0
 10
216.324029
 20
32.824420
 30
0.0
 10
216.125645
 20
32.536580
 30
0.0
 10
216.125645
 20
31.980611
 30
0.0
  0
SPLINE
  5
183
100
AcDbEntity
  8
0
 62
7
100
AcDbSpline
 70
8
 71
3
 72
8
 73
4
 74
0
 40
0
 40
0
 40
0
 40
0
 40
1
 40
1
 40
1
 40
1
 10
216.125645
 20
31.980611
 30
0.0
 10
216.125645
 20
31.277057
 30
0.0
 10
216.213248
 20
31.223241
 30
0.0
 10
217.849088
 20
30.921828
 30
0.0
  0
SPLINE
  5
184
100
AcDbEntity
  8
0
 62
7
100
AcDbSpline
 70
8
 71
3
 72
8
 73
4
 74
0
 40
0
 40
0
 40
0
 40
0
 40
1
 40
1
 40
1
 40
1
 10
217.849088
 20
30.921828
 30
0.0
 10
218.796984
 20
30.747176
 30
0.0
 10
220.553156
 20
30.164723
 30
0.0
 10
221.751692
 20
29.627512
 30
0.0
  0
SPLINE
  5
185
100
AcDbEntity
  8
0
 62
7
100
AcDbSpline
 70
8
 71
3
 72
8
 73
4
 74
0
 40
0
 40
0
 40
0
 40
0
 40
1
 40
1
 40
1
 40
1
 10
221.751692
 20
29.627512
 30
0.0
 10
223.703020
 20
28.752906
 30
0.0
 10
224.179799
 20
28.646914
 30
0.0
 10
226.312103
 20
28.613841
 30
0.0
  0
SPLINE
  5
186
100
AcDbEntity
  8
0
 62
7
100
AcDbSpline
 70
8
 71
3
 72
8
 73
4
 74
0
 40
0
 40
0
 40
0
 40
0
 40
1
 40
1
 40
1
 40
1
 10
226.312103
 20
28.613841
 30
0.0
 10
227.621790
 20
28.593468
 30
0.0
 10
228.991009
 20
28.448556
 30
0.0
 10
229.354811
 20
28.291684
 30
0.0
  0
SPLINE
  5
187
100
AcDbEntity
  8
0
 62
7
100
AcDbSpline
 70
8
 71
3
 72
8
 73
4
 74
0
 40
0
 40
0
 40
0
 40
0
 40
1
 40
1
 40
1
 40
1
 10
229.354811
 20
28.291684
 30
0.0
 10
229.718613
 20
28.134813
 30
0.0
 10
230.679236
 20
27.998896
 30
0.0
 10
231.489496
 20
27.989689
 30
0.0
  0
LWPOLYLINE
  5
188
100
AcDbEntity
  8
0
 62
7
100
AcDbPolyline
 90
3
 70
0
 10
167.070836
 20
64.242209
 30
0.0
 10
163.988229
 20
60.294811
 30
0.0
 10
165.728340
 20
53.328147
 30
0.0
  0
LWPOLYLINE
  5
189
100
AcDbEntity
  8
0
 62
7
100
AcDbPolyline
 90
4
 70
0
 10
231.489496
 20
27.989689
 30
0.0
 10
232.962723
 20
27.973020
 30
0.0
 10
232.496950
 20
29.758957
 30
0.0
 10
232.496950
 20
29.758640
 30
0.0
  0
SPLINE
  5
18a
100
AcDbEntity
  8
0
 62
7
100
AcDbSpline
 70
8
 71
3
 72
8
 73
4
 74
0
 40
0
 40
0
 40
0
 40
0
 40
1
 40
1
 40
1
 40
1
 10
174.430169
 20
35.708696
 30
0.0
 10
173.953972
 20
35.961664
 30
0.0
 10
172.931013
 20
36.906914
 30
0.0
 10
172.156975
 20
37.809249
 30
0.0
  0
SPLINE
  5
18b
100
AcDbEntity
  8
0
 62
7
100
AcDbSpline
 70
8
 71
3
 72
8
 73
4
 74
0
 40
0
 40
0
 40
0
 40
0
 40
1
 40
1
 40
1
 40
1
 10
172.156975
 20
37.809249
 30
0.0
 10
169.356069
 20
41.074340
 30
0.0
 10
168.705326
 20
41.536646
 30
0.0
 10
168.405739
 20
40.474265
 30
0.0
  0
SPLINE
  5
18c
100
AcDbEntity
  8
0
 62
7
100
AcDbSpline
 70
8
 71
3
 72
8
 73
4
 74
0
 40
0
 40
0
 40
0
 40
0
 40
1
 40
1
 40
1
 40
1
 10
168.405739
 20
40.474265
 30
0.0
 10
168.196638
 20
39.732797
 30
0.0
 10
167.636171
 20
33.511490
 30
0.0
 10
167.766717
 20
33.380945
 30
0.0
  0
SPLINE
  5
18d
100
AcDbEntity
  8
0
 62
7
100
AcDbSpline
 70
8
 71
3
 72
8
 73
4
 74
0
 40
0
 40
0
 40
0
 40
0
 40
1
 40
1
 40
1
 40
1
 10
167.766717
 20
33.380945
 30
0.0
 10
167.831963
 20
33.315698
 30
0.0
 10
168.589306
 20
33.132236
 30
0.0
 10
169.449758
 20
32.973222
 30
0.0
  0
SPLINE
  5
18e
100
AcDbEntity
  8
0
 62
7
100
AcDbSpline
 70
8
 71
3
 72
8
 73
4
 74
0
 40
0
 40
0
 40
0
 40
0
 40
1
 40
1
 40
1
 40
1
 10
169.449758
 20
32.973222
 30
0.0
 10
170.310183
 20
32.814207
 30
0.0
 10
171.101658
 20
32.546766
 30
0.0
 10
171.208576
 20
32.378915
 30
0.0
  0
SPLINE
  5
18f
100
AcDbEntity
  8
0
 62
7
100
AcDbSpline
 70
8
 71
3
 72
8
 73
4
 74
0
 40
0
 40
0
 40
0
 40
0
 40
1
 40
1
 40
1
 40
1
 10
171.208576
 20
32.378915
 30
0.0
 10
171.315494
 20
32.211063
 30
0.0
 10
171.406616
 20
31.537963
 30
0.0
 10
171.411061
 20
30.883119
 30
0.0
  0
SPLINE
  5
190
100
AcDbEntity
  8
0
 62
7
100
AcDbSpline
 70
8
 71
3
 72
8
 73
4
 74
0
 40
0
 40
0
 40
0
 40
0
 40
1
 40
1
 40
1
 40
1
 10
171.411061
 20
30.883119
 30
0.0
 10
171.422174
 20
29.248920
 30
0.0
 10
171.767984
 20
28.838499
 30
0.0
 10
173.176864
 20
28.787328
 30
0.0
  0
SPLINE
  5
191
100
AcDbEntity
  8
0
 62
7
100
AcDbSpline
 70
8
 71
3
 72
8
 73
4
 74
0
 40
0
 40
0
 40
0
 40
0
 40
1
 40
1
 40
1
 40
1
 10
173.176864
 20
28.787328
 30
0.0
 10
173.697326
 20
28.768543
 30
0.0
 10
173.825464
 20
29.074745
 30
0.0
 10
174.524016
 20
32.007598
 30
0.0
  0
LWPOLYLINE
  5
192
100
AcDbEntity
  8
0
 62
7
100
AcDbPolyline
 90
3
 70
0
 10
174.524016
 20
32.007598
 30
0.0
 10
175.296018
 20
35.248744
 30
0.0
 10
174.430169
 20
35.708696
 30
0.0
  0
SPLINE
  5
193
100
AcDbEntity
  8
0
 62
7
100
AcDbSpline
 70
8
 71
3
 72
8
 73
4
 74
0
 40
0
 40
0
 40
0
 40
0
 40
1
 40
1
 40
1
 40
1
 10
491.093866
 20
30.611419
 30
0.0
 10
490.475402
 20
30.892141
 30
0.0
 10
489.969387
 20
31.237158
 30
0.0
 10
489.969387
 20
31.378075
 30
0.0
  0
SPLINE
  5
194
100
AcDbEntity
  8
0
 62
7
100
AcDbSpline
 70
8
 71
3
 72
8
 73
4
 74
0
 40
0
 40
0
 40
0
 40
0
 40
1
 40
1
 40
1
 40
1
 10
489.969387
 20
31.378075
 30
0.0
 10
489.969387
 20
31.519019
 30
0.0
 10
490.594465
 20
31.831756
 30
0.0
 10
491.358449
 20
32.073003
 30
0.0
  0
SPLINE
  5
195
100
AcDbEntity
  8
0
 62
7
100
AcDbSpline
 70
8
 71
3
 72
8
 73
4
 74
0
 40
0
 40
0
 40
0
 40
0
 40
1
 40
1
 40
1
 40
1
 10
491.358449
 20
32.073003
 30
0.0
 10
492.122434
 20
32.314277
 30
0.0
 10
492.916898
 20
32.566134
 30
0.0
 10
493.123934
 20
32.632676
 30
0.0
  0
SPLINE
  5
196
100
AcDbEntity
  8
0
 62
7
100
AcDbSpline
 70
8
 71
3
 72
8
 73
4
 74
0
 40
0
 40
0
 40
0
 40
0
 40
1
 40
1
 40
1
 40
1
 10
493.123934
 20
32.632676
 30
0.0
 10
493.408494
 20
32.724143
 30
0.0
 10
493.359149
 20
32.852572
 30
0.0
 10
492.921660
 20
33.159012
 30
0.0
  0
SPLINE
  5
197
100
AcDbEntity
  8
0
 62
7
100
AcDbSpline
 70
8
 71
3
 72
8
 73
4
 74
0
 40
0
 40
0
 40
0
 40
0
 40
1
 40
1
 40
1
 40
1
 10
492.921660
 20
33.159012
 30
0.0
 10
492.409480
 20
33.517761
 30
0.0
 10
491.556887
 20
35.080205
 30
0.0
 10
491.556887
 20
35.660092
 30
0.0
  0
SPLINE
  5
198
100
AcDbEntity
  8
0
 62
7
100
AcDbSpline
 70
8
 71
3
 72
8
 73
4
 74
0
 40
0
 40
0
 40
0
 40
0
 40
1
 40
1
 40
1
 40
1
 10
491.556887
 20
35.660092
 30
0.0
 10
491.556887
 20
35.778043
 30
0.0
 10
491.824777
 20
35.958489
 30
0.0
 10
492.152199
 20
36.061068
 30
0.0
  0
SPLINE
  5
199
100
AcDbEntity
  8
0
 62
7
100
AcDbSpline
 70
8
 71
3
 72
8
 73
4
 74
0
 40
0
 40
0
 40
0
 40
0
 40
1
 40
1
 40
1
 40
1
 10
492.152199
 20
36.061068
 30
0.0
 10
493.655271
 20
36.532000
 30
0.0
 10
495.024569
 20
38.289786
 30
0.0
 10
494.800678
 20
39.460990
 30
0.0
  0
SPLINE
  5
19a
100
AcDbEntity
  8
0
 62
7
100
AcDbSpline
 70
8
 71
3
 72
8
 73
4
 74
0
 40
0
 40
0
 40
0
 40
0
 40
1
 40
1
 40
1
 40
1
 10
494.800678
 20
39.460990
 30
0.0
 10
494.648199
 20
40.258656
 30
0.0
 10
493.112610
 20
41.834991
 30
0.0
 10
492.065575
 20
42.268696
 30
0.0
  0
SPLINE
  5
19b
100
AcDbEntity
  8
0
 62
7
100
AcDbSpline
 70
8
 71
3
 72
8
 73
4
 74
0
 40
0
 40
0
 40
0
 40
0
 40
1
 40
1
 40
1
 40
1
 10
492.065575
 20
42.268696
 30
0.0
 10
491.116064
 20
42.661972
 30
0.0
 10
491.094871
 20
42.879063
 30
0.0
 10
491.967176
 20
43.276494
 30
0.0
  0
SPLINE
  5
19c
100
AcDbEntity
  8
0
 62
7
100
AcDbSpline
 70
8
 71
3
 72
8
 73
4
 74
0
 40
0
 40
0
 40
0
 40
0
 40
1
 40
1
 40
1
 40
1
 10
491.967176
 20
43.276494
 30
0.0
 10
492.862817
 20
43.684587
 30
0.0
 10
495.159533
 20
43.172354
 30
0.0
 10
494.733871
 20
42.659459
 30
0.0
  0
SPLINE
  5
19d
100
AcDbEntity
  8
0
 62
7
100
AcDbSpline
 70
8
 71
3
 72
8
 73
4
 74
0
 40
0
 40
0
 40
0
 40
0
 40
1
 40
1
 40
1
 40
1
 10
494.733871
 20
42.659459
 30
0.0
 10
494.170335
 20
41.980459
 30
0.0
 10
496.068720
 20
41.080716
 30
0.0
 10
499.562834
 20
40.370734
 30
0.0
  0
SPLINE
  5
19e
100
AcDbEntity
  8
0
 62
7
100
AcDbSpline
 70
8
 71
3
 72
8
 73
4
 74
0
 40
0
 40
0
 40
0
 40
0
 40
1
 40
1
 40
1
 40
1
 10
499.562834
 20
40.370734
 30
0.0
 10
502.085054
 20
39.858262
 30
0.0
 10
502.360036
 20
39.738565
 30
0.0
 10
503.537723
 20
38.640438
 30
0.0
  0
SPLINE
  5
19f
100
AcDbEntity
  8
0
 62
7
100
AcDbSpline
 70
8
 71
3
 72
8
 73
4
 74
0
 40
0
 40
0
 40
0
 40
0
 40
1
 40
1
 40
1
 40
1
 10
503.537723
 20
38.640438
 30
0.0
 10
504.233603
 20
37.991574
 30
0.0
 10
505.462487
 20
37.158745
 30
0.0
 10
506.268620
 20
36.789677
 30
0.0
  0
SPLINE
  5
1a0
100
AcDbEntity
  8
0
 62
7
100
AcDbSpline
 70
8
 71
3
 72
8
 73
4
 74
0
 40
0
 40
0
 40
0
 40
0
 40
1
 40
1
 40
1
 40
1
 10
506.268620
 20
36.789677
 30
0.0
 10
507.579418
 20
36.189576
 30
0.0
 10
508.363934
 20
35.327616
 30
0.0
 10
508.065193
 20
34.815727
 30
0.0
  0
SPLINE
  5
1a1
100
AcDbEntity
  8
0
 62
7
100
AcDbSpline
 70
8
 71
3
 72
8
 73
4
 74
0
 40
0
 40
0
 40
0
 40
0
 40
1
 40
1
 40
1
 40
1
 10
508.065193
 20
34.815727
 30
0.0
 10
508.011139
 20
34.723070
 30
0.0
 10
507.542906
 20
34.567733
 30
0.0
 10
507.024693
 20
34.470525
 30
0.0
  0
SPLINE
  5
1a2
100
AcDbEntity
  8
0
 62
7
100
AcDbSpline
 70
8
 71
3
 72
8
 73
4
 74
0
 40
0
 40
0
 40
0
 40
0
 40
1
 40
1
 40
1
 40
1
 10
507.024693
 20
34.470525
 30
0.0
 10
506.206601
 20
34.317040
 30
0.0
 10
506.105583
 20
34.217266
 30
0.0
 10
506.257772
 20
33.712917
 30
0.0
  0
SPLINE
  5
1a3
100
AcDbEntity
  8
0
 62
7
100
AcDbSpline
 70
8
 71
3
 72
8
 73
4
 74
0
 40
0
 40
0
 40
0
 40
0
 40
1
 40
1
 40
1
 40
1
 10
506.257772
 20
33.712917
 30
0.0
 10
506.558709
 20
32.715570
 30
0.0
 10
506.824006
 20
32.651885
 30
0.0
 10
507.982432
 20
33.298924
 30
0.0
  0
SPLINE
  5
1a4
100
AcDbEntity
  8
0
 62
7
100
AcDbSpline
 70
8
 71
3
 72
8
 73
4
 74
0
 40
0
 40
0
 40
0
 40
0
 40
1
 40
1
 40
1
 40
1
 10
507.982432
 20
33.298924
 30
0.0
 10
510.354368
 20
34.623772
 30
0.0
 10
510.755635
 20
36.317820
 30
0.0
 10
509.408509
 20
39.319597
 30
0.0
  0
SPLINE
  5
1a5
100
AcDbEntity
  8
0
 62
7
100
AcDbSpline
 70
8
 71
3
 72
8
 73
4
 74
0
 40
0
 40
0
 40
0
 40
0
 40
1
 40
1
 40
1
 40
1
 10
509.408509
 20
39.319597
 30
0.0
 10
508.752740
 20
40.780838
 30
0.0
 10
508.506756
 20
41.062407
 30
0.0
 10
507.514225
 20
41.487857
 30
0.0
  0
SPLINE
  5
1a6
100
AcDbEntity
  8
0
 62
7
100
AcDbSpline
 70
8
 71
3
 72
8
 73
4
 74
0
 40
0
 40
0
 40
0
 40
0
 40
1
 40
1
 40
1
 40
1
 10
507.514225
 20
41.487857
 30
0.0
 10
506.159056
 20
42.068750
 30
0.0
 10
506.041951
 20
42.513488
 30
0.0
 10
507.233449
 20
42.554075
 30
0.0
  0
SPLINE
  5
1a7
100
AcDbEntity
  8
0
 62
7
100
AcDbSpline
 70
8
 71
3
 72
8
 73
4
 74
0
 40
0
 40
0
 40
0
 40
0
 40
1
 40
1
 40
1
 40
1
 10
507.233449
 20
42.554075
 30
0.0
 10
508.690033
 20
42.603685
 30
0.0
 10
509.358159
 20
42.496766
 30
0.0
 10
510.981616
 20
41.954265
 30
0.0
  0
SPLINE
  5
1a8
100
AcDbEntity
  8
0
 62
7
100
AcDbSpline
 70
8
 71
3
 72
8
 73
4
 74
0
 40
0
 40
0
 40
0
 40
0
 40
1
 40
1
 40
1
 40
1
 10
510.981616
 20
41.954265
 30
0.0
 10
511.929301
 20
41.637585
 30
0.0
 10
512.816740
 20
41.499737
 30
0.0
 10
513.230574
 20
41.604962
 30
0.0
  0
SPLINE
  5
1a9
100
AcDbEntity
  8
0
 62
7
100
AcDbSpline
 70
8
 71
3
 72
8
 73
4
 74
0
 40
0
 40
0
 40
0
 40
0
 40
1
 40
1
 40
1
 40
1
 10
513.230574
 20
41.604962
 30
0.0
 10
513.910950
 20
41.777894
 30
0.0
 10
513.909416
 20
41.781174
 30
0.0
 10
512.908629
 20
42.297218
 30
0.0
  0
SPLINE
  5
1aa
100
AcDbEntity
  8
0
 62
7
100
AcDbSpline
 70
8
 71
3
 72
8
 73
4
 74
0
 40
0
 40
0
 40
0
 40
0
 40
1
 40
1
 40
1
 40
1
 10
512.908629
 20
42.297218
 30
0.0
 10
510.971112
 20
43.296284
 30
0.0
 10
511.354890
 20
44.368932
 30
0.0
 10
513.583608
 20
44.183776
 30
0.0
  0
SPLINE
  5
1ab
100
AcDbEntity
  8
0
 62
7
100
AcDbSpline
 70
8
 71
3
 72
8
 73
4
 74
0
 40
0
 40
0
 40
0
 40
0
 40
1
 40
1
 40
1
 40
1
 10
513.583608
 20
44.183776
 30
0.0
 10
514.695493
 20
44.091410
 30
0.0
 10
515.104750
 20
43.918664
 30
0.0
 10
515.635557
 20
43.317769
 30
0.0
  0
SPLINE
  5
1ac
100
AcDbEntity
  8
0
 62
7
100
AcDbSpline
 70
8
 71
3
 72
8
 73
4
 74
0
 40
0
 40
0
 40
0
 40
0
 40
1
 40
1
 40
1
 40
1
 10
515.635557
 20
43.317769
 30
0.0
 10
516.200046
 20
42.678720
 30
0.0
 10
516.750697
 20
42.472875
 30
0.0
 10
519.339724
 20
41.933045
 30
0.0
  0
SPLINE
  5
1ad
100
AcDbEntity
  8
0
 62
7
100
AcDbSpline
 70
8
 71
3
 72
8
 73
4
 74
0
 40
0
 40
0
 40
0
 40
0
 40
1
 40
1
 40
1
 40
1
 10
519.339724
 20
41.933045
 30
0.0
 10
522.331527
 20
41.309264
 30
0.0
 10
522.382300
 20
41.286483
 30
0.0
 10
522.470486
 20
40.527605
 30
0.0
  0
SPLINE
  5
1ae
100
AcDbEntity
  8
0
 62
7
100
AcDbSpline
 70
8
 71
3
 72
8
 73
4
 74
0
 40
0
 40
0
 40
0
 40
0
 40
1
 40
1
 40
1
 40
1
 10
522.470486
 20
40.527605
 30
0.0
 10
522.602195
 20
39.394289
 30
0.0
 10
522.067340
 20
37.875633
 30
0.0
 10
521.180907
 20
36.866063
 30
0.0
  0
LWPOLYLINE
  5
1af
100
AcDbEntity
  8
0
 62
7
100
AcDbPolyline
 90
1
 70
1
 10
174.524016
 20
32.007598
 30
0.0
  0
SPLINE
  5
1b0
100
AcDbEntity
  8
0
 62
7
100
AcDbSpline
 70
8
 71
3
 72
8
 73
4
 74
0
 40
0
 40
0
 40
0
 40
0
 40
1
 40
1
 40
1
 40
1
 10
521.391277
 20
35.815005
 30
0.0
 10
521.935525
 20
35.725047
 30
0.0
 10
522.950572
 20
35.650144
 30
0.0
 10
523.646929
 20
35.648530
 30
0.0
  0
SPLINE
  5
1b1
100
AcDbEntity
  8
0
 62
7
100
AcDbSpline
 70
8
 71
3
 72
8
 73
4
 74
0
 40
0
 40
0
 40
0
 40
0
 40
1
 40
1
 40
1
 40
1
 10
523.646929
 20
35.648530
 30
0.0
 10
524.382550
 20
35.645884
 30
0.0
 10
525.197255
 20
35.459379
 30
0.0
 10
525.591431
 20
35.201093
 30
0.0
  0
SPLINE
  5
1b2
100
AcDbEntity
  8
0
 62
7
100
AcDbSpline
 70
8
 71
3
 72
8
 73
4
 74
0
 40
0
 40
0
 40
0
 40
0
 40
1
 40
1
 40
1
 40
1
 10
525.591431
 20
35.201093
 30
0.0
 10
526.341710
 20
34.709497
 30
0.0
 10
526.573485
 20
34.750296
 30
0.0
 10
530.053762
 20
35.986879
 30
0.0
  0
SPLINE
  5
1b3
100
AcDbEntity
  8
0
 62
7
100
AcDbSpline
 70
8
 71
3
 72
8
 73
4
 74
0
 40
0
 40
0
 40
0
 40
0
 40
1
 40
1
 40
1
 40
1
 10
530.053762
 20
35.986879
 30
0.0
 10
531.072407
 20
36.348829
 30
0.0
 10
532.384688
 20
36.702788
 30
0.0
 10
532.969973
 20
36.773459
 30
0.0
  0
LWPOLYLINE
  5
1b4
100
AcDbEntity
  8
0
 62
7
100
AcDbPolyline
 90
3
 70
0
 10
521.180907
 20
36.866063
 30
0.0
 10
520.401709
 20
35.978597
 30
0.0
 10
521.391277
 20
35.815005
 30
0.0
  0
SPLINE
  5
1b5
100
AcDbEntity
  8
0
 62
7
100
AcDbSpline
 70
8
 71
3
 72
8
 73
4
 74
0
 40
0
 40
0
 40
0
 40
0
 40
1
 40
1
 40
1
 40
1
 10
534.960354
 20
35.166750
 30
0.0
 10
535.652477
 20
33.870133
 30
0.0
 10
536.069672
 20
33.382559
 30
0.0
 10
536.610772
 20
33.237858
 30
0.0
  0
SPLINE
  5
1b6
100
AcDbEntity
  8
0
 62
7
100
AcDbSpline
 70
8
 71
3
 72
8
 73
4
 74
0
 40
0
 40
0
 40
0
 40
0
 40
1
 40
1
 40
1
 40
1
 10
536.610772
 20
33.237858
 30
0.0
 10
537.177112
 20
33.086384
 30
0.0
 10
537.393753
 20
33.154064
 30
0.0
 10
537.604811
 20
33.548399
 30
0.0
  0
SPLINE
  5
1b7
100
AcDbEntity
  8
0
 62
7
100
AcDbSpline
 70
8
 71
3
 72
8
 73
4
 74
0
 40
0
 40
0
 40
0
 40
0
 40
1
 40
1
 40
1
 40
1
 10
537.604811
 20
33.548399
 30
0.0
 10
537.960173
 20
34.212451
 30
0.0
 10
538.966198
 20
34.712936
 30
0.0
 10
541.010237
 20
35.242606
 30
0.0
  0
SPLINE
  5
1b8
100
AcDbEntity
  8
0
 62
7
100
AcDbSpline
 70
8
 71
3
 72
8
 73
4
 74
0
 40
0
 40
0
 40
0
 40
0
 40
1
 40
1
 40
1
 40
1
 10
541.010237
 20
35.242606
 30
0.0
 10
541.930193
 20
35.480969
 30
0.0
 10
543.353651
 20
35.927665
 30
0.0
 10
544.173516
 20
36.235217
 30
0.0
  0
LWPOLYLINE
  5
1b9
100
AcDbEntity
  8
0
 62
7
100
AcDbPolyline
 90
3
 70
0
 10
532.969973
 20
36.773459
 30
0.0
 10
534.034074
 20
36.901993
 30
0.0
 10
534.960354
 20
35.166750
 30
0.0
  0
SPLINE
  5
1ba
100
AcDbEntity
  8
0
 62
7
100
AcDbSpline
 70
8
 71
3
 72
8
 73
4
 74
0
 40
0
 40
0
 40
0
 40
0
 40
1
 40
1
 40
1
 40
1
 10
544.852304
 20
37.127233
 30
0.0
 10
543.847523
 20
37.539110
 30
0.0
 10
543.526319
 20
37.925190
 30
0.0
 10
543.297480
 20
38.996144
 30
0.0
  0
SPLINE
  5
1bb
100
AcDbEntity
  8
0
 62
7
100
AcDbSpline
 70
8
 71
3
 72
8
 73
4
 74
0
 40
0
 40
0
 40
0
 40
0
 40
1
 40
1
 40
1
 40
1
 10
543.297480
 20
38.996144
 30
0.0
 10
543.146615
 20
39.702290
 30
0.0
 10
543.207072
 20
39.861199
 30
0.0
 10
543.684195
 20
40.012646
 30
0.0
  0
SPLINE
  5
1bc
100
AcDbEntity
  8
0
 62
7
100
AcDbSpline
 70
8
 71
3
 72
8
 73
4
 74
0
 40
0
 40
0
 40
0
 40
0
 40
1
 40
1
 40
1
 40
1
 10
543.684195
 20
40.012646
 30
0.0
 10
544.163118
 20
40.164650
 30
0.0
 10
544.236460
 20
40.360574
 30
0.0
 10
544.163197
 20
41.292304
 30
0.0
  0
LWPOLYLINE
  5
1bd
100
AcDbEntity
  8
0
 62
7
100
AcDbPolyline
 90
3
 70
0
 10
544.173516
 20
36.235217
 30
0.0
 10
545.664178
 20
36.794440
 30
0.0
 10
544.852304
 20
37.127233
 30
0.0
  0
SPLINE
  5
1be
100
AcDbEntity
  8
0
 62
7
100
AcDbSpline
 70
8
 71
3
 72
8
 73
4
 74
0
 40
0
 40
0
 40
0
 40
0
 40
1
 40
1
 40
1
 40
1
 10
545.382979
 20
43.600132
 30
0.0
 10
544.198598
 20
44.813061
 30
0.0
 10
544.013866
 20
44.858649
 30
0.0
 10
543.693906
 20
44.017115
 30
0.0
  0
SPLINE
  5
1bf
100
AcDbEntity
  8
0
 62
7
100
AcDbSpline
 70
8
 71
3
 72
8
 73
4
 74
0
 40
0
 40
0
 40
0
 40
0
 40
1
 40
1
 40
1
 40
1
 10
543.693906
 20
44.017115
 30
0.0
 10
543.518381
 20
43.555391
 30
0.0
 10
543.180852
 20
43.348698
 30
0.0
 10
542.398029
 20
43.223524
 30
0.0
  0
SPLINE
  5
1c0
100
AcDbEntity
  8
0
 62
7
100
AcDbSpline
 70
8
 71
3
 72
8
 73
4
 74
0
 40
0
 40
0
 40
0
 40
0
 40
1
 40
1
 40
1
 40
1
 10
542.398029
 20
43.223524
 30
0.0
 10
541.093819
 20
43.014953
 30
0.0
 10
539.806462
 20
41.973976
 30
0.0
 10
539.580508
 20
40.945223
 30
0.0
  0
SPLINE
  5
1c1
100
AcDbEntity
  8
0
 62
7
100
AcDbSpline
 70
8
 71
3
 72
8
 73
4
 74
0
 40
0
 40
0
 40
0
 40
0
 40
1
 40
1
 40
1
 40
1
 10
539.580508
 20
40.945223
 30
0.0
 10
539.343785
 20
39.867443
 30
0.0
 10
538.693175
 20
40.194177
 30
0.0
 10
538.485133
 20
41.495345
 30
0.0
  0
SPLINE
  5
1c2
100
AcDbEntity
  8
0
 62
7
100
AcDbSpline
 70
8
 71
3
 72
8
 73
4
 74
0
 40
0
 40
0
 40
0
 40
0
 40
1
 40
1
 40
1
 40
1
 10
538.485133
 20
41.495345
 30
0.0
 10
538.374908
 20
42.184637
 30
0.0
 10
538.178693
 20
42.532829
 30
0.0
 10
537.891302
 20
42.549101
 30
0.0
  0
SPLINE
  5
1c3
100
AcDbEntity
  8
0
 62
7
100
AcDbSpline
 70
8
 71
3
 72
8
 73
4
 74
0
 40
0
 40
0
 40
0
 40
0
 40
1
 40
1
 40
1
 40
1
 10
537.891302
 20
42.549101
 30
0.0
 10
537.655241
 20
42.562595
 30
0.0
 10
537.104908
 20
42.592228
 30
0.0
 10
536.668345
 20
42.615247
 30
0.0
  0
SPLINE
  5
1c4
100
AcDbEntity
  8
0
 62
7
100
AcDbSpline
 70
8
 71
3
 72
8
 73
4
 74
0
 40
0
 40
0
 40
0
 40
0
 40
1
 40
1
 40
1
 40
1
 10
536.668345
 20
42.615247
 30
0.0
 10
535.893724
 20
42.656072
 30
0.0
 10
535.872690
 20
42.693590
 30
0.0
 10
535.795458
 20
44.171288
 30
0.0
  0
LWPOLYLINE
  5
1c5
100
AcDbEntity
  8
0
 62
7
100
AcDbPolyline
 90
5
 70
0
 10
544.163197
 20
41.292304
 30
0.0
 10
544.076678
 20
42.392494
 30
0.0
 10
545.238226
 20
42.475653
 30
0.0
 10
546.399773
 20
42.558838
 30
0.0
 10
545.382979
 20
43.600132
 30
0.0
  0
SPLINE
  5
1c6
100
AcDbEntity
  8
0
 62
7
100
AcDbSpline
 70
8
 71
3
 72
8
 73
4
 74
0
 40
0
 40
0
 40
0
 40
0
 40
1
 40
1
 40
1
 40
1
 10
536.820904
 20
45.295767
 30
0.0
 10
538.302914
 20
44.772871
 30
0.0
 10
539.008373
 20
44.804939
 30
0.0
 10
539.565453
 20
45.420492
 30
0.0
  0
SPLINE
  5
1c7
100
AcDbEntity
  8
0
 62
7
100
AcDbSpline
 70
8
 71
3
 72
8
 73
4
 74
0
 40
0
 40
0
 40
0
 40
0
 40
1
 40
1
 40
1
 40
1
 10
539.565453
 20
45.420492
 30
0.0
 10
540.260011
 20
46.187969
 30
0.0
 10
539.901315
 20
49.045839
 30
0.0
 10
539.023798
 20
49.736110
 30
0.0
  0
SPLINE
  5
1c8
100
AcDbEntity
  8
0
 62
7
100
AcDbSpline
 70
8
 71
3
 72
8
 73
4
 74
0
 40
0
 40
0
 40
0
 40
0
 40
1
 40
1
 40
1
 40
1
 10
539.023798
 20
49.736110
 30
0.0
 10
538.681189
 20
50.005589
 30
0.0
 10
538.257988
 20
50.702977
 30
0.0
 10
538.083363
 20
51.285828
 30
0.0
  0
SPLINE
  5
1c9
100
AcDbEntity
  8
0
 62
7
100
AcDbSpline
 70
8
 71
3
 72
8
 73
4
 74
0
 40
0
 40
0
 40
0
 40
0
 40
1
 40
1
 40
1
 40
1
 10
538.083363
 20
51.285828
 30
0.0
 10
537.908738
 20
51.868705
 30
0.0
 10
537.549275
 20
52.461504
 30
0.0
 10
537.284560
 20
52.603162
 30
0.0
  0
SPLINE
  5
1ca
100
AcDbEntity
  8
0
 62
7
100
AcDbSpline
 70
8
 71
3
 72
8
 73
4
 74
0
 40
0
 40
0
 40
0
 40
0
 40
1
 40
1
 40
1
 40
1
 10
537.284560
 20
52.603162
 30
0.0
 10
536.877525
 20
52.820993
 30
0.0
 10
536.739148
 20
52.700581
 30
0.0
 10
536.388019
 20
51.823038
 30
0.0
  0
SPLINE
  5
1cb
100
AcDbEntity
  8
0
 62
7
100
AcDbSpline
 70
8
 71
3
 72
8
 73
4
 74
0
 40
0
 40
0
 40
0
 40
0
 40
1
 40
1
 40
1
 40
1
 10
536.388019
 20
51.823038
 30
0.0
 10
536.062846
 20
51.010344
 30
0.0
 10
535.861763
 20
50.814367
 30
0.0
 10
535.460681
 20
50.919248
 30
0.0
  0
SPLINE
  5
1cc
100
AcDbEntity
  8
0
 62
7
100
AcDbSpline
 70
8
 71
3
 72
8
 73
4
 74
0
 40
0
 40
0
 40
0
 40
0
 40
1
 40
1
 40
1
 40
1
 10
535.460681
 20
50.919248
 30
0.0
 10
534.820072
 20
51.086755
 30
0.0
 10
534.793216
 20
52.089923
 30
0.0
 10
535.345428
 20
55.224786
 30
0.0
  0
SPLINE
  5
1cd
100
AcDbEntity
  8
0
 62
7
100
AcDbSpline
 70
8
 71
3
 72
8
 73
4
 74
0
 40
0
 40
0
 40
0
 40
0
 40
1
 40
1
 40
1
 40
1
 10
535.345428
 20
55.224786
 30
0.0
 10
535.831574
 20
57.984602
 30
0.0
 10
535.855492
 20
59.638486
 30
0.0
 10
535.411574
 20
59.795780
 30
0.0
  0
SPLINE
  5
1ce
100
AcDbEntity
  8
0
 62
7
100
AcDbSpline
 70
8
 71
3
 72
8
 73
4
 74
0
 40
0
 40
0
 40
0
 40
0
 40
1
 40
1
 40
1
 40
1
 10
535.411574
 20
59.795780
 30
0.0
 10
535.229673
 20
59.860233
 30
0.0
 10
534.510880
 20
59.691561
 30
0.0
 10
533.814285
 20
59.420972
 30
0.0
  0
SPLINE
  5
1cf
100
AcDbEntity
  8
0
 62
7
100
AcDbSpline
 70
8
 71
3
 72
8
 73
4
 74
0
 40
0
 40
0
 40
0
 40
0
 40
1
 40
1
 40
1
 40
1
 10
533.814285
 20
59.420972
 30
0.0
 10
533.117663
 20
59.150356
 30
0.0
 10
532.313991
 20
58.928952
 30
0.0
 10
532.028347
 20
58.928952
 30
0.0
  0
SPLINE
  5
1d0
100
AcDbEntity
  8
0
 62
7
100
AcDbSpline
 70
8
 71
3
 72
8
 73
4
 74
0
 40
0
 40
0
 40
0
 40
0
 40
1
 40
1
 40
1
 40
1
 10
532.028347
 20
58.928952
 30
0.0
 10
531.407873
 20
58.928952
 30
0.0
 10
531.352628
 20
59.626050
 30
0.0
 10
531.914259
 20
60.368577
 30
0.0
  0
SPLINE
  5
1d1
100
AcDbEntity
  8
0
 62
7
100
AcDbSpline
 70
8
 71
3
 72
8
 73
4
 74
0
 40
0
 40
0
 40
0
 40
0
 40
1
 40
1
 40
1
 40
1
 10
531.914259
 20
60.368577
 30
0.0
 10
532.161194
 20
60.695073
 30
0.0
 10
532.297666
 20
61.466227
 30
0.0
 10
532.288829
 20
62.485244
 30
0.0
  0
SPLINE
  5
1d2
100
AcDbEntity
  8
0
 62
7
100
AcDbSpline
 70
8
 71
3
 72
8
 73
4
 74
0
 40
0
 40
0
 40
0
 40
0
 40
1
 40
1
 40
1
 40
1
 10
532.288829
 20
62.485244
 30
0.0
 10
532.275071
 20
64.076421
 30
0.0
 10
532.271631
 20
64.083433
 30
0.0
 10
531.825809
 20
63.430838
 30
0.0
  0
SPLINE
  5
1d3
100
AcDbEntity
  8
0
 62
7
100
AcDbSpline
 70
8
 71
3
 72
8
 73
4
 74
0
 40
0
 40
0
 40
0
 40
0
 40
1
 40
1
 40
1
 40
1
 10
531.825809
 20
63.430838
 30
0.0
 10
531.578794
 20
63.069232
 30
0.0
 10
531.059866
 20
62.415314
 30
0.0
 10
530.672649
 20
61.977720
 30
0.0
  0
LWPOLYLINE
  5
1d4
100
AcDbEntity
  8
0
 62
7
100
AcDbPolyline
 90
3
 70
0
 10
535.795458
 20
44.171288
 30
0.0
 10
535.716321
 20
45.685472
 30
0.0
 10
536.820904
 20
45.295767
 30
0.0
  0
SPLINE
  5
1d5
100
AcDbEntity
  8
0
 62
7
100
AcDbSpline
 70
8
 71
3
 72
8
 73
4
 74
0
 40
0
 40
0
 40
0
 40
0
 40
1
 40
1
 40
1
 40
1
 10
529.296207
 20
61.907605
 30
0.0
 10
528.908539
 20
62.325885
 30
0.0
 10
528.343654
 20
62.633119
 30
0.0
 10
527.962204
 20
62.633119
 30
0.0
  0
SPLINE
  5
1d6
100
AcDbEntity
  8
0
 62
7
100
AcDbSpline
 70
8
 71
3
 72
8
 73
4
 74
0
 40
0
 40
0
 40
0
 40
0
 40
1
 40
1
 40
1
 40
1
 10
527.962204
 20
62.633119
 30
0.0
 10
527.321119
 20
62.633119
 30
0.0
 10
527.305296
 20
62.676246
 30
0.0
 10
527.452696
 20
64.022182
 30
0.0
  0
SPLINE
  5
1d7
100
AcDbEntity
  8
0
 62
7
100
AcDbSpline
 70
8
 71
3
 72
8
 73
4
 74
0
 40
0
 40
0
 40
0
 40
0
 40
1
 40
1
 40
1
 40
1
 10
527.452696
 20
64.022182
 30
0.0
 10
527.536357
 20
64.786166
 30
0.0
 10
527.739980
 20
65.708900
 30
0.0
 10
527.905186
 20
66.072702
 30
0.0
  0
SPLINE
  5
1d8
100
AcDbEntity
  8
0
 62
7
100
AcDbSpline
 70
8
 71
3
 72
8
 73
4
 74
0
 40
0
 40
0
 40
0
 40
0
 40
1
 40
1
 40
1
 40
1
 10
527.905186
 20
66.072702
 30
0.0
 10
528.334499
 20
67.018006
 30
0.0
 10
529.457179
 20
67.081585
 30
0.0
 10
530.581235
 20
66.224229
 30
0.0
  0
SPLINE
  5
1d9
100
AcDbEntity
  8
0
 62
7
100
AcDbSpline
 70
8
 71
3
 72
8
 73
4
 74
0
 40
0
 40
0
 40
0
 40
0
 40
1
 40
1
 40
1
 40
1
 10
530.581235
 20
66.224229
 30
0.0
 10
531.445708
 20
65.564861
 30
0.0
 10
531.478596
 20
65.560152
 30
0.0
 10
531.641341
 20
66.072994
 30
0.0
  0
SPLINE
  5
1da
100
AcDbEntity
  8
0
 62
7
100
AcDbSpline
 70
8
 71
3
 72
8
 73
4
 74
0
 40
0
 40
0
 40
0
 40
0
 40
1
 40
1
 40
1
 40
1
 10
531.641341
 20
66.072994
 30
0.0
 10
532.052662
 20
67.368949
 30
0.0
 10
535.114024
 20
68.718536
 30
0.0
 10
537.642409
 20
68.718536
 30
0.0
  0
SPLINE
  5
1db
100
AcDbEntity
  8
0
 62
7
100
AcDbSpline
 70
8
 71
3
 72
8
 73
4
 74
0
 40
0
 40
0
 40
0
 40
0
 40
1
 40
1
 40
1
 40
1
 10
537.642409
 20
68.718536
 30
0.0
 10
539.143443
 20
68.718536
 30
0.0
 10
539.234301
 20
68.993015
 30
0.0
 10
538.375728
 20
70.933945
 30
0.0
  0
SPLINE
  5
1dc
100
AcDbEntity
  8
0
 62
7
100
AcDbSpline
 70
8
 71
3
 72
8
 73
4
 74
0
 40
0
 40
0
 40
0
 40
0
 40
1
 40
1
 40
1
 40
1
 10
538.375728
 20
70.933945
 30
0.0
 10
537.942499
 20
71.913300
 30
0.0
 10
537.884529
 20
72.340761
 30
0.0
 10
538.085983
 20
73.070323
 30
0.0
  0
SPLINE
  5
1dd
100
AcDbEntity
  8
0
 62
7
100
AcDbSpline
 70
8
 71
3
 72
8
 73
4
 74
0
 40
0
 40
0
 40
0
 40
0
 40
1
 40
1
 40
1
 40
1
 10
538.085983
 20
73.070323
 30
0.0
 10
538.299581
 20
73.844018
 30
0.0
 10
538.221026
 20
74.229277
 30
0.0
 10
537.568193
 20
75.609688
 30
0.0
  0
SPLINE
  5
1de
100
AcDbEntity
  8
0
 62
7
100
AcDbSpline
 70
8
 71
3
 72
8
 73
4
 74
0
 40
0
 40
0
 40
0
 40
0
 40
1
 40
1
 40
1
 40
1
 10
537.568193
 20
75.609688
 30
0.0
 10
537.144913
 20
76.504721
 30
0.0
 10
536.724304
 20
77.701616
 30
0.0
 10
536.633526
 20
78.269439
 30
0.0
  0
SPLINE
  5
1df
100
AcDbEntity
  8
0
 62
7
100
AcDbSpline
 70
8
 71
3
 72
8
 73
4
 74
0
 40
0
 40
0
 40
0
 40
0
 40
1
 40
1
 40
1
 40
1
 10
536.633526
 20
78.269439
 30
0.0
 10
536.537350
 20
78.870810
 30
0.0
 10
536.321132
 20
79.301869
 30
0.0
 10
536.115657
 20
79.301869
 30
0.0
  0
SPLINE
  5
1e0
100
AcDbEntity
  8
0
 62
7
100
AcDbSpline
 70
8
 71
3
 72
8
 73
4
 74
0
 40
0
 40
0
 40
0
 40
0
 40
1
 40
1
 40
1
 40
1
 10
536.115657
 20
79.301869
 30
0.0
 10
535.721745
 20
79.301869
 30
0.0
 10
534.683970
 20
78.281689
 30
0.0
 10
534.683970
 20
77.894445
 30
0.0
  0
SPLINE
  5
1e1
100
AcDbEntity
  8
0
 62
7
100
AcDbSpline
 70
8
 71
3
 72
8
 73
4
 74
0
 40
0
 40
0
 40
0
 40
0
 40
1
 40
1
 40
1
 40
1
 10
534.683970
 20
77.894445
 30
0.0
 10
534.683970
 20
77.507968
 30
0.0
 10
532.827389
 20
77.901059
 30
0.0
 10
532.269912
 20
78.405514
 30
0.0
  0
SPLINE
  5
1e2
100
AcDbEntity
  8
0
 62
7
100
AcDbSpline
 70
8
 71
3
 72
8
 73
4
 74
0
 40
0
 40
0
 40
0
 40
0
 40
1
 40
1
 40
1
 40
1
 10
532.269912
 20
78.405514
 30
0.0
 10
531.523919
 20
79.080651
 30
0.0
 10
531.609538
 20
80.643042
 30
0.0
 10
532.435012
 20
81.418536
 30
0.0
  0
SPLINE
  5
1e3
100
AcDbEntity
  8
0
 62
7
100
AcDbSpline
 70
8
 71
3
 72
8
 73
4
 74
0
 40
0
 40
0
 40
0
 40
0
 40
1
 40
1
 40
1
 40
1
 10
532.435012
 20
81.418536
 30
0.0
 10
533.046437
 20
81.992946
 30
0.0
 10
533.096470
 20
82.221784
 30
0.0
 10
533.096470
 20
84.443729
 30
0.0
  0
SPLINE
  5
1e4
100
AcDbEntity
  8
0
 62
7
100
AcDbSpline
 70
8
 71
3
 72
8
 73
4
 74
0
 40
0
 40
0
 40
0
 40
0
 40
1
 40
1
 40
1
 40
1
 10
533.096470
 20
84.443729
 30
0.0
 10
533.096470
 20
86.589473
 30
0.0
 10
533.037574
 20
86.884272
 30
0.0
 10
532.547777
 20
87.190157
 30
0.0
  0
SPLINE
  5
1e5
100
AcDbEntity
  8
0
 62
7
100
AcDbSpline
 70
8
 71
3
 72
8
 73
4
 74
0
 40
0
 40
0
 40
0
 40
0
 40
1
 40
1
 40
1
 40
1
 10
532.547777
 20
87.190157
 30
0.0
 10
531.836630
 20
87.634286
 30
0.0
 10
531.385992
 20
88.763713
 30
0.0
 10
530.965145
 20
91.156764
 30
0.0
  0
SPLINE
  5
1e6
100
AcDbEntity
  8
0
 62
7
100
AcDbSpline
 70
8
 71
3
 72
8
 73
4
 74
0
 40
0
 40
0
 40
0
 40
0
 40
1
 40
1
 40
1
 40
1
 10
530.965145
 20
91.156764
 30
0.0
 10
530.718554
 20
92.558896
 30
0.0
 10
530.486488
 20
93.163999
 30
0.0
 10
530.120119
 20
93.360055
 30
0.0
  0
SPLINE
  5
1e7
100
AcDbEntity
  8
0
 62
7
100
AcDbSpline
 70
8
 71
3
 72
8
 73
4
 74
0
 40
0
 40
0
 40
0
 40
0
 40
1
 40
1
 40
1
 40
1
 10
530.120119
 20
93.360055
 30
0.0
 10
529.842333
 20
93.508724
 30
0.0
 10
529.492898
 20
93.980847
 30
0.0
 10
529.343567
 20
94.409207
 30
0.0
  0
SPLINE
  5
1e8
100
AcDbEntity
  8
0
 62
7
100
AcDbSpline
 70
8
 71
3
 72
8
 73
4
 74
0
 40
0
 40
0
 40
0
 40
0
 40
1
 40
1
 40
1
 40
1
 10
529.343567
 20
94.409207
 30
0.0
 10
529.194236
 20
94.837567
 30
0.0
 10
528.836387
 20
95.314161
 30
0.0
 10
528.548335
 20
95.468334
 30
0.0
  0
SPLINE
  5
1e9
100
AcDbEntity
  8
0
 62
7
100
AcDbSpline
 70
8
 71
3
 72
8
 73
4
 74
0
 40
0
 40
0
 40
0
 40
0
 40
1
 40
1
 40
1
 40
1
 10
528.548335
 20
95.468334
 30
0.0
 10
527.912674
 20
95.808509
 30
0.0
 10
527.275637
 20
97.248768
 30
0.0
 10
527.275637
 20
98.345625
 30
0.0
  0
LWPOLYLINE
  5
1ea
100
AcDbEntity
  8
0
 62
7
100
AcDbPolyline
 90
3
 70
0
 10
530.672649
 20
61.977720
 30
0.0
 10
529.968592
 20
61.182065
 30
0.0
 10
529.296207
 20
61.907605
 30
0.0
  0
SPLINE
  5
1eb
100
AcDbEntity
  8
0
 62
7
100
AcDbSpline
 70
8
 71
3
 72
8
 73
4
 74
0
 40
0
 40
0
 40
0
 40
0
 40
1
 40
1
 40
1
 40
1
 10
528.686104
 20
98.354118
 30
0.0
 10
530.230689
 20
97.482422
 30
0.0
 10
530.867699
 20
97.389527
 30
0.0
 10
531.582471
 20
97.931817
 30
0.0
  0
SPLINE
  5
1ec
100
AcDbEntity
  8
0
 62
7
100
AcDbSpline
 70
8
 71
3
 72
8
 73
4
 74
0
 40
0
 40
0
 40
0
 40
0
 40
1
 40
1
 40
1
 40
1
 10
531.582471
 20
97.931817
 30
0.0
 10
532.002365
 20
98.250375
 30
0.0
 10
530.881273
 20
98.946335
 30
0.0
 10
521.131430
 20
104.419453
 30
0.0
  0
SPLINE
  5
1ed
100
AcDbEntity
  8
0
 62
7
100
AcDbSpline
 70
8
 71
3
 72
8
 73
4
 74
0
 40
0
 40
0
 40
0
 40
0
 40
1
 40
1
 40
1
 40
1
 10
521.131430
 20
104.419453
 30
0.0
 10
510.221071
 20
110.544054
 30
0.0
 10
510.200354
 20
110.557310
 30
0.0
 10
500.667867
 20
117.528552
 30
0.0
  0
LWPOLYLINE
  5
1ee
100
AcDbEntity
  8
0
 62
7
100
AcDbPolyline
 90
3
 70
0
 10
527.275637
 20
98.345625
 30
0.0
 10
527.275637
 20
99.150144
 30
0.0
 10
528.686104
 20
98.354118
 30
0.0
  0
SPLINE
  5
1ef
100
AcDbEntity
  8
0
 62
7
100
AcDbSpline
 70
8
 71
3
 72
8
 73
4
 74
0
 40
0
 40
0
 40
0
 40
0
 40
1
 40
1
 40
1
 40
1
 10
487.584247
 20
124.790809
 30
0.0
 10
485.636438
 20
124.946992
 30
0.0
 10
483.810257
 20
125.074786
 30
0.0
 10
483.526095
 20
125.074786
 30
0.0
  0
SPLINE
  5
1f0
100
AcDbEntity
  8
0
 62
7
100
AcDbSpline
 70
8
 71
3
 72
8
 73
4
 74
0
 40
0
 40
0
 40
0
 40
0
 40
1
 40
1
 40
1
 40
1
 10
483.526095
 20
125.074786
 30
0.0
 10
482.951790
 20
125.074786
 30
0.0
 10
482.951949
 20
125.023986
 30
0.0
 10
483.633330
 20
87.107077
 30
0.0
  0
SPLINE
  5
1f1
100
AcDbEntity
  8
0
 62
7
100
AcDbSpline
 70
8
 71
3
 72
8
 73
4
 74
0
 40
0
 40
0
 40
0
 40
0
 40
1
 40
1
 40
1
 40
1
 10
483.633330
 20
87.107077
 30
0.0
 10
484.367364
 20
46.259750
 30
0.0
 10
484.665470
 20
34.758392
 30
0.0
 10
484.995432
 20
34.554451
 30
0.0
  0
SPLINE
  5
1f2
100
AcDbEntity
  8
0
 62
7
100
AcDbSpline
 70
8
 71
3
 72
8
 73
4
 74
0
 40
0
 40
0
 40
0
 40
0
 40
1
 40
1
 40
1
 40
1
 10
484.995432
 20
34.554451
 30
0.0
 10
485.255279
 20
34.393849
 30
0.0
 10
485.256390
 20
34.165593
 30
0.0
 10
485.000723
 20
33.458467
 30
0.0
  0
SPLINE
  5
1f3
100
AcDbEntity
  8
0
 62
7
100
AcDbSpline
 70
8
 71
3
 72
8
 73
4
 74
0
 40
0
 40
0
 40
0
 40
0
 40
1
 40
1
 40
1
 40
1
 10
485.000723
 20
33.458467
 30
0.0
 10
484.823109
 20
32.967242
 30
0.0
 10
484.677773
 20
32.494061
 30
0.0
 10
484.677773
 20
32.406960
 30
0.0
  0
SPLINE
  5
1f4
100
AcDbEntity
  8
0
 62
7
100
AcDbSpline
 70
8
 71
3
 72
8
 73
4
 74
0
 40
0
 40
0
 40
0
 40
0
 40
1
 40
1
 40
1
 40
1
 10
484.677773
 20
32.406960
 30
0.0
 10
484.677773
 20
32.319833
 30
0.0
 10
485.286950
 20
32.046227
 30
0.0
 10
486.031487
 20
31.798921
 30
0.0
  0
SPLINE
  5
1f5
100
AcDbEntity
  8
0
 62
7
100
AcDbSpline
 70
8
 71
3
 72
8
 73
4
 74
0
 40
0
 40
0
 40
0
 40
0
 40
1
 40
1
 40
1
 40
1
 10
486.031487
 20
31.798921
 30
0.0
 10
486.899717
 20
31.510552
 30
0.0
 10
487.266059
 20
31.275655
 30
0.0
 10
487.052964
 20
31.143972
 30
0.0
  0
SPLINE
  5
1f6
100
AcDbEntity
  8
0
 62
7
100
AcDbSpline
 70
8
 71
3
 72
8
 73
4
 74
0
 40
0
 40
0
 40
0
 40
0
 40
1
 40
1
 40
1
 40
1
 10
487.052964
 20
31.143972
 30
0.0
 10
486.351818
 20
30.710637
 30
0.0
 10
488.190011
 20
30.110695
 30
0.0
 10
490.234023
 20
30.105773
 30
0.0
  0
LWPOLYLINE
  5
1f7
100
AcDbEntity
  8
0
 62
7
100
AcDbPolyline
 90
3
 70
0
 10
500.667867
 20
117.528552
 30
0.0
 10
491.125722
 20
124.506831
 30
0.0
 10
487.584247
 20
124.790809
 30
0.0
  0
SPLINE
  5
1f8
100
AcDbEntity
  8
0
 62
7
100
AcDbSpline
 70
8
 71
3
 72
8
 73
4
 74
0
 40
0
 40
0
 40
0
 40
0
 40
1
 40
1
 40
1
 40
1
 10
133.458752
 20
33.155043
 30
0.0
 10
131.701495
 20
40.268657
 30
0.0
 10
131.056229
 20
47.684611
 30
0.0
 10
132.061090
 20
49.218241
 30
0.0
  0
SPLINE
  5
1f9
100
AcDbEntity
  8
0
 62
7
100
AcDbSpline
 70
8
 71
3
 72
8
 73
4
 74
0
 40
0
 40
0
 40
0
 40
0
 40
1
 40
1
 40
1
 40
1
 10
132.061090
 20
49.218241
 30
0.0
 10
132.603909
 20
50.046678
 30
0.0
 10
133.521193
 20
50.154364
 30
0.0
 10
134.511000
 20
49.505817
 30
0.0
  0
SPLINE
  5
1fa
100
AcDbEntity
  8
0
 62
7
100
AcDbSpline
 70
8
 71
3
 72
8
 73
4
 74
0
 40
0
 40
0
 40
0
 40
0
 40
1
 40
1
 40
1
 40
1
 10
134.511000
 20
49.505817
 30
0.0
 10
135.151476
 20
49.086161
 30
0.0
 10
135.163145
 20
49.091982
 30
0.0
 10
135.163145
 20
49.831625
 30
0.0
  0
SPLINE
  5
1fb
100
AcDbEntity
  8
0
 62
7
100
AcDbSpline
 70
8
 71
3
 72
8
 73
4
 74
0
 40
0
 40
0
 40
0
 40
0
 40
1
 40
1
 40
1
 40
1
 10
135.163145
 20
49.831625
 30
0.0
 10
135.163145
 20
50.798677
 30
0.0
 10
133.907220
 20
61.473794
 30
0.0
 10
133.548101
 20
63.559161
 30
0.0
  0
SPLINE
  5
1fc
100
AcDbEntity
  8
0
 62
7
100
AcDbSpline
 70
8
 71
3
 72
8
 73
4
 74
0
 40
0
 40
0
 40
0
 40
0
 40
1
 40
1
 40
1
 40
1
 10
133.548101
 20
63.559161
 30
0.0
 10
133.397739
 20
64.432286
 30
0.0
 10
132.808247
 20
66.857324
 30
0.0
 10
132.238096
 20
68.948141
 30
0.0
  0
SPLINE
  5
1fd
100
AcDbEntity
  8
0
 62
7
100
AcDbSpline
 70
8
 71
3
 72
8
 73
4
 74
0
 40
0
 40
0
 40
0
 40
0
 40
1
 40
1
 40
1
 40
1
 10
132.238096
 20
68.948141
 30
0.0
 10
129.677141
 20
78.339527
 30
0.0
 10
128.785019
 20
86.540128
 30
0.0
 10
128.190263
 20
106.157077
 30
0.0
  0
SPLINE
  5
1fe
100
AcDbEntity
  8
0
 62
7
100
AcDbSpline
 70
8
 71
3
 72
8
 73
4
 74
0
 40
0
 40
0
 40
0
 40
0
 40
1
 40
1
 40
1
 40
1
 10
128.190263
 20
106.157077
 30
0.0
 10
128.078555
 20
109.841639
 30
0.0
 10
128.079852
 20
109.851666
 30
0.0
 10
128.433362
 20
108.050965
 30
0.0
  0
SPLINE
  5
1ff
100
AcDbEntity
  8
0
 62
7
100
AcDbSpline
 70
8
 71
3
 72
8
 73
4
 74
0
 40
0
 40
0
 40
0
 40
0
 40
1
 40
1
 40
1
 40
1
 10
128.433362
 20
108.050965
 30
0.0
 10
128.790073
 20
106.233992
 30
0.0
 10
129.260740
 20
105.291890
 30
0.0
 10
129.616499
 20
105.682838
 30
0.0
  0
SPLINE
  5
200
100
AcDbEntity
  8
0
 62
7
100
AcDbSpline
 70
8
 71
3
 72
8
 73
4
 74
0
 40
0
 40
0
 40
0
 40
0
 40
1
 40
1
 40
1
 40
1
 10
129.616499
 20
105.682838
 30
0.0
 10
129.721406
 20
105.798144
 30
0.0
 10
130.167653
 20
107.026340
 30
0.0
 10
130.608131
 20
108.412174
 30
0.0
  0
SPLINE
  5
201
100
AcDbEntity
  8
0
 62
7
100
AcDbSpline
 70
8
 71
3
 72
8
 73
4
 74
0
 40
0
 40
0
 40
0
 40
0
 40
1
 40
1
 40
1
 40
1
 10
130.608131
 20
108.412174
 30
0.0
 10
131.048583
 20
109.798009
 30
0.0
 10
132.126998
 20
112.483291
 30
0.0
 10
133.004594
 20
114.379507
 30
0.0
  0
SPLINE
  5
202
100
AcDbEntity
  8
0
 62
7
100
AcDbSpline
 70
8
 71
3
 72
8
 73
4
 74
0
 40
0
 40
0
 40
0
 40
0
 40
1
 40
1
 40
1
 40
1
 10
133.004594
 20
114.379507
 30
0.0
 10
133.882164
 20
116.275697
 30
0.0
 10
134.743780
 20
118.397311
 30
0.0
 10
134.919252
 20
119.094197
 30
0.0
  0
SPLINE
  5
203
100
AcDbEntity
  8
0
 62
7
100
AcDbSpline
 70
8
 71
3
 72
8
 73
4
 74
0
 40
0
 40
0
 40
0
 40
0
 40
1
 40
1
 40
1
 40
1
 10
134.919252
 20
119.094197
 30
0.0
 10
135.563380
 20
121.652268
 30
0.0
 10
134.752405
 20
126.621355
 30
0.0
 10
132.575573
 20
133.454405
 30
0.0
  0
LWPOLYLINE
  5
204
100
AcDbEntity
  8
0
 62
7
100
AcDbPolyline
 90
4
 70
0
 10
490.234023
 20
30.105773
 30
0.0
 10
492.218398
 20
30.101011
 30
0.0
 10
491.093919
 20
30.611445
 30
0.0
 10
491.093866
 20
30.611419
 30
0.0
  0
SPLINE
  5
205
100
AcDbEntity
  8
0
 62
7
100
AcDbSpline
 70
8
 71
3
 72
8
 73
4
 74
0
 40
0
 40
0
 40
0
 40
0
 40
1
 40
1
 40
1
 40
1
 10
132.710695
 20
141.329357
 30
0.0
 10
133.423800
 20
145.838095
 30
0.0
 10
133.522014
 20
146.911907
 30
0.0
 10
133.235840
 20
147.072032
 30
0.0
  0
SPLINE
  5
206
100
AcDbEntity
  8
0
 62
7
100
AcDbSpline
 70
8
 71
3
 72
8
 73
4
 74
0
 40
0
 40
0
 40
0
 40
0
 40
1
 40
1
 40
1
 40
1
 10
133.235840
 20
147.072032
 30
0.0
 10
133.042245
 20
147.180379
 30
0.0
 10
130.705339
 20
148.826432
 30
0.0
 10
128.042704
 20
150.729897
 30
0.0
  0
SPLINE
  5
207
100
AcDbEntity
  8
0
 62
7
100
AcDbSpline
 70
8
 71
3
 72
8
 73
4
 74
0
 40
0
 40
0
 40
0
 40
0
 40
1
 40
1
 40
1
 40
1
 10
128.042704
 20
150.729897
 30
0.0
 10
112.966587
 20
161.507667
 30
0.0
 10
102.995950
 20
170.856190
 30
0.0
 10
100.175624
 20
176.858237
 30
0.0
  0
SPLINE
  5
208
100
AcDbEntity
  8
0
 62
7
100
AcDbSpline
 70
8
 71
3
 72
8
 73
4
 74
0
 40
0
 40
0
 40
0
 40
0
 40
1
 40
1
 40
1
 40
1
 10
100.175624
 20
176.858237
 30
0.0
 10
99.223600
 20
178.884257
 30
0.0
 10
98.798018
 20
182.663777
 30
0.0
 10
98.990343
 20
187.384156
 30
0.0
  0
SPLINE
  5
209
100
AcDbEntity
  8
0
 62
7
100
AcDbSpline
 70
8
 71
3
 72
8
 73
4
 74
0
 40
0
 40
0
 40
0
 40
0
 40
1
 40
1
 40
1
 40
1
 10
98.990343
 20
187.384156
 30
0.0
 10
99.129329
 20
190.795296
 30
0.0
 10
98.927240
 20
192.401926
 30
0.0
 10
96.527522
 20
206.963322
 30
0.0
  0
SPLINE
  5
20a
100
AcDbEntity
  8
0
 62
7
100
AcDbSpline
 70
8
 71
3
 72
8
 73
4
 74
0
 40
0
 40
0
 40
0
 40
0
 40
1
 40
1
 40
1
 40
1
 10
96.527522
 20
206.963322
 30
0.0
 10
95.580605
 20
212.709014
 30
0.0
 10
95.479375
 20
213.705593
 30
0.0
 10
95.756817
 20
214.549958
 30
0.0
  0
SPLINE
  5
20b
100
AcDbEntity
  8
0
 62
7
100
AcDbSpline
 70
8
 71
3
 72
8
 73
4
 74
0
 40
0
 40
0
 40
0
 40
0
 40
1
 40
1
 40
1
 40
1
 10
95.756817
 20
214.549958
 30
0.0
 10
95.981105
 20
215.232557
 30
0.0
 10
96.013754
 20
216.256732
 30
0.0
 10
95.866461
 20
217.989542
 30
0.0
  0
SPLINE
  5
20c
100
AcDbEntity
  8
0
 62
7
100
AcDbSpline
 70
8
 71
3
 72
8
 73
4
 74
0
 40
0
 40
0
 40
0
 40
0
 40
1
 40
1
 40
1
 40
1
 10
95.866461
 20
217.989542
 30
0.0
 10
95.751102
 20
219.346669
 30
0.0
 10
95.631537
 20
223.314572
 30
0.0
 10
95.600766
 20
226.807072
 30
0.0
  0
SPLINE
  5
20d
100
AcDbEntity
  8
0
 62
7
100
AcDbSpline
 70
8
 71
3
 72
8
 73
4
 74
0
 40
0
 40
0
 40
0
 40
0
 40
1
 40
1
 40
1
 40
1
 10
95.600766
 20
226.807072
 30
0.0
 10
95.546421
 20
232.971255
 30
0.0
 10
95.521709
 20
233.238352
 30
0.0
 10
94.756322
 20
235.935197
 30
0.0
  0
SPLINE
  5
20e
100
AcDbEntity
  8
0
 62
7
100
AcDbSpline
 70
8
 71
3
 72
8
 73
4
 74
0
 40
0
 40
0
 40
0
 40
0
 40
1
 40
1
 40
1
 40
1
 10
94.756322
 20
235.935197
 30
0.0
 10
93.911163
 20
238.913083
 30
0.0
 10
92.194229
 20
245.367858
 30
0.0
 10
91.915305
 20
246.615897
 30
0.0
  0
SPLINE
  5
20f
100
AcDbEntity
  8
0
 62
7
100
AcDbSpline
 70
8
 71
3
 72
8
 73
4
 74
0
 40
0
 40
0
 40
0
 40
0
 40
1
 40
1
 40
1
 40
1
 10
91.915305
 20
246.615897
 30
0.0
 10
91.822040
 20
247.033251
 30
0.0
 10
91.688637
 20
247.317625
 30
0.0
 10
91.618840
 20
247.247828
 30
0.0
  0
SPLINE
  5
210
100
AcDbEntity
  8
0
 62
7
100
AcDbSpline
 70
8
 71
3
 72
8
 73
4
 74
0
 40
0
 40
0
 40
0
 40
0
 40
1
 40
1
 40
1
 40
1
 10
91.618840
 20
247.247828
 30
0.0
 10
91.489326
 20
247.118341
 30
0.0
 10
92.962315
 20
241.306080
 30
0.0
 10
94.452210
 20
236.067489
 30
0.0
  0
SPLINE
  5
211
100
AcDbEntity
  8
0
 62
7
100
AcDbSpline
 70
8
 71
3
 72
8
 73
4
 74
0
 40
0
 40
0
 40
0
 40
0
 40
1
 40
1
 40
1
 40
1
 10
94.452210
 20
236.067489
 30
0.0
 10
95.263369
 20
233.215466
 30
0.0
 10
95.281017
 20
233.032321
 30
0.0
 10
95.332029
 20
226.939364
 30
0.0
  0
SPLINE
  5
212
100
AcDbEntity
  8
0
 62
7
100
AcDbSpline
 70
8
 71
3
 72
8
 73
4
 74
0
 40
0
 40
0
 40
0
 40
0
 40
1
 40
1
 40
1
 40
1
 10
95.332029
 20
226.939364
 30
0.0
 10
95.360683
 20
223.519624
 30
0.0
 10
95.480143
 20
219.493380
 30
0.0
 10
95.597485
 20
217.992134
 30
0.0
  0
SPLINE
  5
213
100
AcDbEntity
  8
0
 62
7
100
AcDbSpline
 70
8
 71
3
 72
8
 73
4
 74
0
 40
0
 40
0
 40
0
 40
0
 40
1
 40
1
 40
1
 40
1
 10
95.597485
 20
217.992134
 30
0.0
 10
95.759331
 20
215.921876
 30
0.0
 10
95.727925
 20
215.107647
 30
0.0
 10
95.467443
 20
214.620946
 30
0.0
  0
SPLINE
  5
214
100
AcDbEntity
  8
0
 62
7
100
AcDbSpline
 70
8
 71
3
 72
8
 73
4
 74
0
 40
0
 40
0
 40
0
 40
0
 40
1
 40
1
 40
1
 40
1
 10
95.467443
 20
214.620946
 30
0.0
 10
95.173490
 20
214.071644
 30
0.0
 10
95.265513
 20
213.112186
 30
0.0
 10
96.106649
 20
207.957732
 30
0.0
  0
SPLINE
  5
215
100
AcDbEntity
  8
0
 62
7
100
AcDbSpline
 70
8
 71
3
 72
8
 73
4
 74
0
 40
0
 40
0
 40
0
 40
0
 40
1
 40
1
 40
1
 40
1
 10
96.106649
 20
207.957732
 30
0.0
 10
98.624663
 20
192.527179
 30
0.0
 10
98.851199
 20
190.745131
 30
0.0
 10
98.721897
 20
187.384156
 30
0.0
  0
SPLINE
  5
216
100
AcDbEntity
  8
0
 62
7
100
AcDbSpline
 70
8
 71
3
 72
8
 73
4
 74
0
 40
0
 40
0
 40
0
 40
0
 40
1
 40
1
 40
1
 40
1
 10
98.721897
 20
187.384156
 30
0.0
 10
98.538435
 20
182.615517
 30
0.0
 10
98.962747
 20
178.874124
 30
0.0
 10
99.915618
 20
176.858237
 30
0.0
  0
SPLINE
  5
217
100
AcDbEntity
  8
0
 62
7
100
AcDbSpline
 70
8
 71
3
 72
8
 73
4
 74
0
 40
0
 40
0
 40
0
 40
0
 40
1
 40
1
 40
1
 40
1
 10
99.915618
 20
176.858237
 30
0.0
 10
102.792882
 20
170.771047
 30
0.0
 10
112.978150
 20
161.218689
 30
0.0
 10
128.090964
 20
150.433670
 30
0.0
  0
SPLINE
  5
218
100
AcDbEntity
  8
0
 62
7
100
AcDbSpline
 70
8
 71
3
 72
8
 73
4
 74
0
 40
0
 40
0
 40
0
 40
0
 40
1
 40
1
 40
1
 40
1
 10
128.090964
 20
150.433670
 30
0.0
 10
133.239809
 20
146.759295
 30
0.0
 10
133.319581
 20
146.687725
 30
0.0
 10
133.172843
 20
145.875745
 30
0.0
  0
SPLINE
  5
219
100
AcDbEntity
  8
0
 62
7
100
AcDbSpline
 70
8
 71
3
 72
8
 73
4
 74
0
 40
0
 40
0
 40
0
 40
0
 40
1
 40
1
 40
1
 40
1
 10
133.172843
 20
145.875745
 30
0.0
 10
133.090849
 20
145.422038
 30
0.0
 10
132.696540
 20
142.965435
 30
0.0
 10
132.296569
 20
140.416624
 30
0.0
  0
LWPOLYLINE
  5
21a
100
AcDbEntity
  8
0
 62
7
100
AcDbPolyline
 90
3
 70
0
 10
132.575573
 20
133.454405
 30
0.0
 10
131.833549
 20
135.783637
 30
0.0
 10
132.710695
 20
141.329357
 30
0.0
  0
SPLINE
  5
21b
100
AcDbEntity
  8
0
 62
7
100
AcDbSpline
 70
8
 71
3
 72
8
 73
4
 74
0
 40
0
 40
0
 40
0
 40
0
 40
1
 40
1
 40
1
 40
1
 10
132.311201
 20
133.453796
 30
0.0
 10
134.487822
 20
126.621355
 30
0.0
 10
135.298770
 20
121.652189
 30
0.0
 10
134.654668
 20
119.094197
 30
0.0
  0
SPLINE
  5
21c
100
AcDbEntity
  8
0
 62
7
100
AcDbSpline
 70
8
 71
3
 72
8
 73
4
 74
0
 40
0
 40
0
 40
0
 40
0
 40
1
 40
1
 40
1
 40
1
 10
134.654668
 20
119.094197
 30
0.0
 10
134.479197
 20
118.397311
 30
0.0
 10
133.617581
 20
116.275697
 30
0.0
 10
132.740011
 20
114.379507
 30
0.0
  0
SPLINE
  5
21d
100
AcDbEntity
  8
0
 62
7
100
AcDbSpline
 70
8
 71
3
 72
8
 73
4
 74
0
 40
0
 40
0
 40
0
 40
0
 40
1
 40
1
 40
1
 40
1
 10
132.740011
 20
114.379507
 30
0.0
 10
131.862415
 20
112.483291
 30
0.0
 10
130.788921
 20
109.827774
 30
0.0
 10
130.354422
 20
108.478320
 30
0.0
  0
SPLINE
  5
21e
100
AcDbEntity
  8
0
 62
7
100
AcDbSpline
 70
8
 71
3
 72
8
 73
4
 74
0
 40
0
 40
0
 40
0
 40
0
 40
1
 40
1
 40
1
 40
1
 10
130.354422
 20
108.478320
 30
0.0
 10
129.919923
 20
107.128866
 30
0.0
 10
129.464787
 20
106.024786
 30
0.0
 10
129.342999
 20
106.024786
 30
0.0
  0
SPLINE
  5
21f
100
AcDbEntity
  8
0
 62
7
100
AcDbSpline
 70
8
 71
3
 72
8
 73
4
 74
0
 40
0
 40
0
 40
0
 40
0
 40
1
 40
1
 40
1
 40
1
 10
129.342999
 20
106.024786
 30
0.0
 10
129.102096
 20
106.024786
 30
0.0
 10
128.690695
 20
107.727829
 30
0.0
 10
128.398834
 20
109.933317
 30
0.0
  0
SPLINE
  5
220
100
AcDbEntity
  8
0
 62
7
100
AcDbSpline
 70
8
 71
3
 72
8
 73
4
 74
0
 40
0
 40
0
 40
0
 40
0
 40
1
 40
1
 40
1
 40
1
 10
128.398834
 20
109.933317
 30
0.0
 10
128.297313
 20
110.700582
 30
0.0
 10
128.101706
 20
111.397865
 30
0.0
 10
127.964203
 20
111.482849
 30
0.0
  0
SPLINE
  5
221
100
AcDbEntity
  8
0
 62
7
100
AcDbSpline
 70
8
 71
3
 72
8
 73
4
 74
0
 40
0
 40
0
 40
0
 40
0
 40
1
 40
1
 40
1
 40
1
 10
127.964203
 20
111.482849
 30
0.0
 10
127.706340
 20
111.642234
 30
0.0
 10
127.804950
 20
107.264623
 30
0.0
 10
128.301784
 20
96.499786
 30
0.0
  0
SPLINE
  5
222
100
AcDbEntity
  8
0
 62
7
100
AcDbSpline
 70
8
 71
3
 72
8
 73
4
 74
0
 40
0
 40
0
 40
0
 40
0
 40
1
 40
1
 40
1
 40
1
 10
128.301784
 20
96.499786
 30
0.0
 10
128.897996
 20
83.581161
 30
0.0
 10
129.772391
 20
77.019917
 30
0.0
 10
131.973513
 20
68.948141
 30
0.0
  0
SPLINE
  5
223
100
AcDbEntity
  8
0
 62
7
100
AcDbSpline
 70
8
 71
3
 72
8
 73
4
 74
0
 40
0
 40
0
 40
0
 40
0
 40
1
 40
1
 40
1
 40
1
 10
131.973513
 20
68.948141
 30
0.0
 10
133.226818
 20
64.352038
 30
0.0
 10
133.373688
 20
63.526564
 30
0.0
 10
134.227737
 20
56.278198
 30
0.0
  0
SPLINE
  5
224
100
AcDbEntity
  8
0
 62
7
100
AcDbSpline
 70
8
 71
3
 72
8
 73
4
 74
0
 40
0
 40
0
 40
0
 40
0
 40
1
 40
1
 40
1
 40
1
 10
134.227737
 20
56.278198
 30
0.0
 10
135.053792
 20
49.267242
 30
0.0
 10
135.047654
 20
49.570137
 30
0.0
 10
134.356298
 20
49.940131
 30
0.0
  0
SPLINE
  5
225
100
AcDbEntity
  8
0
 62
7
100
AcDbSpline
 70
8
 71
3
 72
8
 73
4
 74
0
 40
0
 40
0
 40
0
 40
0
 40
1
 40
1
 40
1
 40
1
 10
134.356298
 20
49.940131
 30
0.0
 10
133.510081
 20
50.393018
 30
0.0
 10
132.490588
 20
50.137034
 30
0.0
 10
131.882470
 20
49.318995
 30
0.0
  0
SPLINE
  5
226
100
AcDbEntity
  8
0
 62
7
100
AcDbSpline
 70
8
 71
3
 72
8
 73
4
 74
0
 40
0
 40
0
 40
0
 40
0
 40
1
 40
1
 40
1
 40
1
 10
131.882470
 20
49.318995
 30
0.0
 10
130.774951
 20
47.829232
 30
0.0
 10
131.364389
 20
40.562186
 30
0.0
 10
133.193242
 20
33.158800
 30
0.0
  0
SPLINE
  5
227
100
AcDbEntity
  8
0
 62
7
100
AcDbSpline
 70
8
 71
3
 72
8
 73
4
 74
0
 40
0
 40
0
 40
0
 40
0
 40
1
 40
1
 40
1
 40
1
 10
133.193242
 20
33.158800
 30
0.0
 10
133.549080
 20
31.718303
 30
0.0
 10
133.840228
 20
30.478069
 30
0.0
 10
133.840228
 20
30.402742
 30
0.0
  0
SPLINE
  5
228
100
AcDbEntity
  8
0
 62
7
100
AcDbSpline
 70
8
 71
3
 72
8
 73
4
 74
0
 40
0
 40
0
 40
0
 40
0
 40
1
 40
1
 40
1
 40
1
 10
133.840228
 20
30.402742
 30
0.0
 10
133.840228
 20
30.327388
 30
0.0
 10
133.900183
 20
30.325695
 30
0.0
 10
133.973446
 20
30.399037
 30
0.0
  0
SPLINE
  5
229
100
AcDbEntity
  8
0
 62
7
100
AcDbSpline
 70
8
 71
3
 72
8
 73
4
 74
0
 40
0
 40
0
 40
0
 40
0
 40
1
 40
1
 40
1
 40
1
 10
133.973446
 20
30.399037
 30
0.0
 10
134.046709
 20
30.472301
 30
0.0
 10
133.815119
 20
31.712535
 30
0.0
 10
133.458752
 20
33.155096
 30
0.0
  0
LWPOLYLINE
  5
22a
100
AcDbEntity
  8
0
 62
7
100
AcDbPolyline
 90
3
 70
0
 10
132.296569
 20
140.416624
 30
0.0
 10
131.569362
 20
135.782420
 30
0.0
 10
132.311201
 20
133.453796
 30
0.0
  0
SPLINE
  5
22b
100
AcDbEntity
  8
0
 62
7
100
AcDbSpline
 70
8
 71
3
 72
8
 73
4
 74
0
 40
0
 40
0
 40
0
 40
0
 40
1
 40
1
 40
1
 40
1
 10
148.071292
 20
33.264369
 30
0.0
 10
147.691007
 20
35.325129
 30
0.0
 10
147.521647
 20
37.754639
 30
0.0
 10
147.415364
 20
42.673058
 30
0.0
  0
SPLINE
  5
22c
100
AcDbEntity
  8
0
 62
7
100
AcDbSpline
 70
8
 71
3
 72
8
 73
4
 74
0
 40
0
 40
0
 40
0
 40
0
 40
1
 40
1
 40
1
 40
1
 10
147.415364
 20
42.673058
 30
0.0
 10
147.176763
 20
53.713592
 30
0.0
 10
147.978053
 20
61.463608
 30
0.0
 10
149.743697
 20
65.193175
 30
0.0
  0
SPLINE
  5
22d
100
AcDbEntity
  8
0
 62
7
100
AcDbSpline
 70
8
 71
3
 72
8
 73
4
 74
0
 40
0
 40
0
 40
0
 40
0
 40
1
 40
1
 40
1
 40
1
 10
149.743697
 20
65.193175
 30
0.0
 10
150.700219
 20
67.213639
 30
0.0
 10
153.706176
 20
71.686473
 30
0.0
 10
158.869785
 20
78.772702
 30
0.0
  0
SPLINE
  5
22e
100
AcDbEntity
  8
0
 62
7
100
AcDbSpline
 70
8
 71
3
 72
8
 73
4
 74
0
 40
0
 40
0
 40
0
 40
0
 40
1
 40
1
 40
1
 40
1
 10
158.869785
 20
78.772702
 30
0.0
 10
164.069879
 20
85.908991
 30
0.0
 10
165.568003
 20
88.079130
 30
0.0
 10
166.723915
 20
90.149786
 30
0.0
  0
SPLINE
  5
22f
100
AcDbEntity
  8
0
 62
7
100
AcDbSpline
 70
8
 71
3
 72
8
 73
4
 74
0
 40
0
 40
0
 40
0
 40
0
 40
1
 40
1
 40
1
 40
1
 10
166.723915
 20
90.149786
 30
0.0
 10
167.251944
 20
91.095671
 30
0.0
 10
167.941818
 20
92.028513
 30
0.0
 10
168.256963
 20
92.222770
 30
0.0
  0
SPLINE
  5
230
100
AcDbEntity
  8
0
 62
7
100
AcDbSpline
 70
8
 71
3
 72
8
 73
4
 74
0
 40
0
 40
0
 40
0
 40
0
 40
1
 40
1
 40
1
 40
1
 10
168.256963
 20
92.222770
 30
0.0
 10
169.365806
 20
92.906215
 30
0.0
 10
171.389577
 20
92.893462
 30
0.0
 10
173.585539
 20
92.189168
 30
0.0
  0
LWPOLYLINE
  5
231
100
AcDbEntity
  8
0
 62
7
100
AcDbPolyline
 90
1
 70
1
 10
133.458752
 20
33.155096
 30
0.0
  0
SPLINE
  5
232
100
AcDbEntity
  8
0
 62
7
100
AcDbSpline
 70
8
 71
3
 72
8
 73
4
 74
0
 40
0
 40
0
 40
0
 40
0
 40
1
 40
1
 40
1
 40
1
 10
178.083456
 20
93.568679
 30
0.0
 10
180.953074
 20
95.946039
 30
0.0
 10
183.260743
 20
98.455665
 30
0.0
 10
184.299154
 20
100.328386
 30
0.0
  0
SPLINE
  5
233
100
AcDbEntity
  8
0
 62
7
100
AcDbSpline
 70
8
 71
3
 72
8
 73
4
 74
0
 40
0
 40
0
 40
0
 40
0
 40
1
 40
1
 40
1
 40
1
 10
184.299154
 20
100.328386
 30
0.0
 10
184.923068
 20
101.453500
 30
0.0
 10
185.032473
 20
101.945387
 30
0.0
 10
185.007073
 20
103.511244
 30
0.0
  0
SPLINE
  5
234
100
AcDbEntity
  8
0
 62
7
100
AcDbSpline
 70
8
 71
3
 72
8
 73
4
 74
0
 40
0
 40
0
 40
0
 40
0
 40
1
 40
1
 40
1
 40
1
 10
185.007073
 20
103.511244
 30
0.0
 10
184.971513
 20
105.705037
 30
0.0
 10
184.684651
 20
106.446981
 30
0.0
 10
182.654398
 20
109.596661
 30
0.0
  0
SPLINE
  5
235
100
AcDbEntity
  8
0
 62
7
100
AcDbSpline
 70
8
 71
3
 72
8
 73
4
 74
0
 40
0
 40
0
 40
0
 40
0
 40
1
 40
1
 40
1
 40
1
 10
182.654398
 20
109.596661
 30
0.0
 10
180.232508
 20
113.353903
 30
0.0
 10
176.657722
 20
116.439553
 30
0.0
 10
169.223592
 20
121.189671
 30
0.0
  0
SPLINE
  5
236
100
AcDbEntity
  8
0
 62
7
100
AcDbSpline
 70
8
 71
3
 72
8
 73
4
 74
0
 40
0
 40
0
 40
0
 40
0
 40
1
 40
1
 40
1
 40
1
 10
169.223592
 20
121.189671
 30
0.0
 10
166.695684
 20
122.804899
 30
0.0
 10
163.641122
 20
125.304788
 30
0.0
 10
155.271478
 20
132.608241
 30
0.0
  0
LWPOLYLINE
  5
237
100
AcDbEntity
  8
0
 62
7
100
AcDbPolyline
 90
3
 70
0
 10
173.585539
 20
92.189168
 30
0.0
 10
175.627726
 20
91.534192
 30
0.0
 10
178.083456
 20
93.568679
 30
0.0
  0
SPLINE
  5
238
100
AcDbEntity
  8
0
 62
7
100
AcDbSpline
 70
8
 71
3
 72
8
 73
4
 74
0
 40
0
 40
0
 40
0
 40
0
 40
1
 40
1
 40
1
 40
1
 10
140.994403
 20
150.251689
 30
0.0
 10
139.035613
 20
154.812788
 30
0.0
 10
136.343848
 20
161.402072
 30
0.0
 10
135.012703
 20
164.894572
 30
0.0
  0
SPLINE
  5
239
100
AcDbEntity
  8
0
 62
7
100
AcDbSpline
 70
8
 71
3
 72
8
 73
4
 74
0
 40
0
 40
0
 40
0
 40
0
 40
1
 40
1
 40
1
 40
1
 10
135.012703
 20
164.894572
 30
0.0
 10
131.303747
 20
174.625603
 30
0.0
 10
128.424498
 20
181.695614
 30
0.0
 10
128.170498
 20
181.695614
 30
0.0
  0
SPLINE
  5
23a
100
AcDbEntity
  8
0
 62
7
100
AcDbSpline
 70
8
 71
3
 72
8
 73
4
 74
0
 40
0
 40
0
 40
0
 40
0
 40
1
 40
1
 40
1
 40
1
 10
128.170498
 20
181.695614
 30
0.0
 10
128.097738
 20
181.695614
 30
0.0
 10
128.283316
 20
181.130067
 30
0.0
 10
128.582904
 20
180.438843
 30
0.0
  0
SPLINE
  5
23b
100
AcDbEntity
  8
0
 62
7
100
AcDbSpline
 70
8
 71
3
 72
8
 73
4
 74
0
 40
0
 40
0
 40
0
 40
0
 40
1
 40
1
 40
1
 40
1
 10
128.582904
 20
180.438843
 30
0.0
 10
129.707357
 20
177.844392
 30
0.0
 10
132.920404
 20
169.733061
 30
0.0
 10
134.897503
 20
164.497697
 30
0.0
  0
SPLINE
  5
23c
100
AcDbEntity
  8
0
 62
7
100
AcDbSpline
 70
8
 71
3
 72
8
 73
4
 74
0
 40
0
 40
0
 40
0
 40
0
 40
1
 40
1
 40
1
 40
1
 10
134.897503
 20
164.497697
 30
0.0
 10
136.961518
 20
159.032146
 30
0.0
 10
144.331830
 20
141.724724
 30
0.0
 10
144.699971
 20
141.478953
 30
0.0
  0
SPLINE
  5
23d
100
AcDbEntity
  8
0
 62
7
100
AcDbSpline
 70
8
 71
3
 72
8
 73
4
 74
0
 40
0
 40
0
 40
0
 40
0
 40
1
 40
1
 40
1
 40
1
 10
144.699971
 20
141.478953
 30
0.0
 10
144.808953
 20
141.406192
 30
0.0
 10
149.643155
 20
137.217520
 30
0.0
 10
155.442610
 20
132.170779
 30
0.0
  0
SPLINE
  5
23e
100
AcDbEntity
  8
0
 62
7
100
AcDbSpline
 70
8
 71
3
 72
8
 73
4
 74
0
 40
0
 40
0
 40
0
 40
0
 40
1
 40
1
 40
1
 40
1
 10
155.442610
 20
132.170779
 30
0.0
 10
163.596725
 20
125.075024
 30
0.0
 10
166.720793
 20
122.525869
 30
0.0
 10
169.223592
 20
120.925987
 30
0.0
  0
SPLINE
  5
23f
100
AcDbEntity
  8
0
 62
7
100
AcDbSpline
 70
8
 71
3
 72
8
 73
4
 74
0
 40
0
 40
0
 40
0
 40
0
 40
1
 40
1
 40
1
 40
1
 10
169.223592
 20
120.925987
 30
0.0
 10
176.626105
 20
116.193993
 30
0.0
 10
180.003828
 20
113.286884
 30
0.0
 10
182.386957
 20
109.596661
 30
0.0
  0
SPLINE
  5
240
100
AcDbEntity
  8
0
 62
7
100
AcDbSpline
 70
8
 71
3
 72
8
 73
4
 74
0
 40
0
 40
0
 40
0
 40
0
 40
1
 40
1
 40
1
 40
1
 10
182.386957
 20
109.596661
 30
0.0
 10
184.419274
 20
106.449654
 30
0.0
 10
184.706903
 20
105.706598
 30
0.0
 10
184.742489
 20
103.511244
 30
0.0
  0
SPLINE
  5
241
100
AcDbEntity
  8
0
 62
7
100
AcDbSpline
 70
8
 71
3
 72
8
 73
4
 74
0
 40
0
 40
0
 40
0
 40
0
 40
1
 40
1
 40
1
 40
1
 10
184.742489
 20
103.511244
 30
0.0
 10
184.767889
 20
101.946075
 30
0.0
 10
184.658590
 20
101.454215
 30
0.0
 10
184.037031
 20
100.336244
 30
0.0
  0
SPLINE
  5
242
100
AcDbEntity
  8
0
 62
7
100
AcDbSpline
 70
8
 71
3
 72
8
 73
4
 74
0
 40
0
 40
0
 40
0
 40
0
 40
1
 40
1
 40
1
 40
1
 10
184.037031
 20
100.336244
 30
0.0
 10
182.982428
 20
98.439314
 30
0.0
 10
180.907698
 20
96.173105
 30
0.0
 10
178.083456
 20
93.833289
 30
0.0
  0
LWPOLYLINE
  5
243
100
AcDbEntity
  8
0
 62
7
100
AcDbPolyline
 90
3
 70
0
 10
155.271478
 20
132.608241
 30
0.0
 10
144.555853
 20
141.958801
 30
0.0
 10
140.994403
 20
150.251689
 30
0.0
  0
SPLINE
  5
244
100
AcDbEntity
  8
0
 62
7
100
AcDbSpline
 70
8
 71
3
 72
8
 73
4
 74
0
 40
0
 40
0
 40
0
 40
0
 40
1
 40
1
 40
1
 40
1
 10
173.585539
 20
92.453751
 30
0.0
 10
171.296523
 20
93.187890
 30
0.0
 10
169.313101
 20
93.166803
 30
0.0
 10
168.136446
 20
92.395807
 30
0.0
  0
SPLINE
  5
245
100
AcDbEntity
  8
0
 62
7
100
AcDbSpline
 70
8
 71
3
 72
8
 73
4
 74
0
 40
0
 40
0
 40
0
 40
0
 40
1
 40
1
 40
1
 40
1
 10
168.136446
 20
92.395807
 30
0.0
 10
167.764653
 20
92.152205
 30
0.0
 10
167.019216
 20
91.160256
 30
0.0
 10
166.479889
 20
90.191458
 30
0.0
  0
SPLINE
  5
246
100
AcDbEntity
  8
0
 62
7
100
AcDbSpline
 70
8
 71
3
 72
8
 73
4
 74
0
 40
0
 40
0
 40
0
 40
0
 40
1
 40
1
 40
1
 40
1
 10
166.479889
 20
90.191458
 30
0.0
 10
165.305827
 20
88.082490
 30
0.0
 10
163.836093
 20
85.951272
 30
0.0
 10
158.605201
 20
78.772703
 30
0.0
  0
SPLINE
  5
247
100
AcDbEntity
  8
0
 62
7
100
AcDbSpline
 70
8
 71
3
 72
8
 73
4
 74
0
 40
0
 40
0
 40
0
 40
0
 40
1
 40
1
 40
1
 40
1
 10
158.605201
 20
78.772703
 30
0.0
 10
153.441593
 20
71.686473
 30
0.0
 10
150.435635
 20
67.213639
 30
0.0
 10
149.479114
 20
65.193175
 30
0.0
  0
SPLINE
  5
248
100
AcDbEntity
  8
0
 62
7
100
AcDbSpline
 70
8
 71
3
 72
8
 73
4
 74
0
 40
0
 40
0
 40
0
 40
0
 40
1
 40
1
 40
1
 40
1
 10
149.479114
 20
65.193175
 30
0.0
 10
149.053637
 20
64.294464
 30
0.0
 10
148.459833
 20
62.361921
 30
0.0
 10
148.159557
 20
60.898617
 30
0.0
  0
SPLINE
  5
249
100
AcDbEntity
  8
0
 62
7
100
AcDbSpline
 70
8
 71
3
 72
8
 73
4
 74
0
 40
0
 40
0
 40
0
 40
0
 40
1
 40
1
 40
1
 40
1
 10
148.159557
 20
60.898617
 30
0.0
 10
146.686569
 20
53.721106
 30
0.0
 10
146.765547
 20
35.750579
 30
0.0
 10
148.291823
 20
30.797024
 30
0.0
  0
SPLINE
  5
24a
100
AcDbEntity
  8
0
 62
7
100
AcDbSpline
 70
8
 71
3
 72
8
 73
4
 74
0
 40
0
 40
0
 40
0
 40
0
 40
1
 40
1
 40
1
 40
1
 10
148.291823
 20
30.797024
 30
0.0
 10
148.639220
 20
29.669555
 30
0.0
 10
148.549580
 20
30.672352
 30
0.0
 10
148.071292
 20
33.264369
 30
0.0
  0
LWPOLYLINE
  5
24b
100
AcDbEntity
  8
0
 62
7
100
AcDbPolyline
 90
3
 70
0
 10
178.083456
 20
93.833289
 30
0.0
 10
175.627726
 20
91.798775
 30
0.0
 10
173.585539
 20
92.453751
 30
0.0
  0
SPLINE
  5
24c
100
AcDbEntity
  8
0
 62
7
100
AcDbSpline
 70
8
 71
3
 72
8
 73
4
 74
0
 40
0
 40
0
 40
0
 40
0
 40
1
 40
1
 40
1
 40
1
 10
585.328157
 20
31.697163
 30
0.0
 10
585.873966
 20
32.345815
 30
0.0
 10
586.013137
 20
32.792326
 30
0.0
 10
586.013137
 20
33.894765
 30
0.0
  0
SPLINE
  5
24d
100
AcDbEntity
  8
0
 62
7
100
AcDbSpline
 70
8
 71
3
 72
8
 73
4
 74
0
 40
0
 40
0
 40
0
 40
0
 40
1
 40
1
 40
1
 40
1
 10
586.013137
 20
33.894765
 30
0.0
 10
586.013137
 20
35.107404
 30
0.0
 10
585.107415
 20
38.556036
 30
0.0
 10
584.788910
 20
38.556036
 30
0.0
  0
SPLINE
  5
24e
100
AcDbEntity
  8
0
 62
7
100
AcDbSpline
 70
8
 71
3
 72
8
 73
4
 74
0
 40
0
 40
0
 40
0
 40
0
 40
1
 40
1
 40
1
 40
1
 10
584.788910
 20
38.556036
 30
0.0
 10
584.724404
 20
38.556036
 30
0.0
 10
584.394204
 20
38.374267
 30
0.0
 10
584.055167
 20
38.152123
 30
0.0
  0
SPLINE
  5
24f
100
AcDbEntity
  8
0
 62
7
100
AcDbSpline
 70
8
 71
3
 72
8
 73
4
 74
0
 40
0
 40
0
 40
0
 40
0
 40
1
 40
1
 40
1
 40
1
 10
584.055167
 20
38.152123
 30
0.0
 10
582.889016
 20
37.388033
 30
0.0
 10
581.590176
 20
38.410436
 30
0.0
 10
580.180768
 20
41.201869
 30
0.0
  0
LWPOLYLINE
  5
250
100
AcDbEntity
  8
0
 62
7
100
AcDbPolyline
 90
1
 70
1
 10
148.071292
 20
33.264369
 30
0.0
  0
SPLINE
  5
251
100
AcDbEntity
  8
0
 62
7
100
AcDbSpline
 70
8
 71
3
 72
8
 73
4
 74
0
 40
0
 40
0
 40
0
 40
0
 40
1
 40
1
 40
1
 40
1
 10
579.342276
 20
41.687512
 30
0.0
 10
579.124948
 20
41.041955
 30
0.0
 10
579.033878
 20
41.002929
 30
0.0
 10
578.261321
 20
41.224491
 30
0.0
  0
SPLINE
  5
252
100
AcDbEntity
  8
0
 62
7
100
AcDbSpline
 70
8
 71
3
 72
8
 73
4
 74
0
 40
0
 40
0
 40
0
 40
0
 40
1
 40
1
 40
1
 40
1
 10
578.261321
 20
41.224491
 30
0.0
 10
577.797321
 20
41.357576
 30
0.0
 10
577.387111
 20
41.466453
 30
0.0
 10
577.349779
 20
41.466453
 30
0.0
  0
SPLINE
  5
253
100
AcDbEntity
  8
0
 62
7
100
AcDbSpline
 70
8
 71
3
 72
8
 73
4
 74
0
 40
0
 40
0
 40
0
 40
0
 40
1
 40
1
 40
1
 40
1
 10
577.349779
 20
41.466453
 30
0.0
 10
577.312446
 20
41.466453
 30
0.0
 10
577.280061
 20
40.960437
 30
0.0
 10
577.277839
 20
40.341973
 30
0.0
  0
SPLINE
  5
254
100
AcDbEntity
  8
0
 62
7
100
AcDbSpline
 70
8
 71
3
 72
8
 73
4
 74
0
 40
0
 40
0
 40
0
 40
0
 40
1
 40
1
 40
1
 40
1
 10
577.277839
 20
40.341973
 30
0.0
 10
577.273341
 20
39.113645
 30
0.0
 10
576.962587
 20
38.395116
 30
0.0
 10
576.546795
 20
38.652080
 30
0.0
  0
SPLINE
  5
255
100
AcDbEntity
  8
0
 62
7
100
AcDbSpline
 70
8
 71
3
 72
8
 73
4
 74
0
 40
0
 40
0
 40
0
 40
0
 40
1
 40
1
 40
1
 40
1
 10
576.546795
 20
38.652080
 30
0.0
 10
576.400983
 20
38.742197
 30
0.0
 10
576.202863
 20
40.156421
 30
0.0
 10
576.106528
 20
41.794827
 30
0.0
  0
SPLINE
  5
256
100
AcDbEntity
  8
0
 62
7
100
AcDbSpline
 70
8
 71
3
 72
8
 73
4
 74
0
 40
0
 40
0
 40
0
 40
0
 40
1
 40
1
 40
1
 40
1
 10
576.106528
 20
41.794827
 30
0.0
 10
576.010193
 20
43.433233
 30
0.0
 10
575.868588
 20
45.101166
 30
0.0
 10
575.791859
 20
45.501348
 30
0.0
  0
SPLINE
  5
257
100
AcDbEntity
  8
0
 62
7
100
AcDbSpline
 70
8
 71
3
 72
8
 73
4
 74
0
 40
0
 40
0
 40
0
 40
0
 40
1
 40
1
 40
1
 40
1
 10
575.791859
 20
45.501348
 30
0.0
 10
575.583897
 20
46.585849
 30
0.0
 10
574.993902
 20
46.389316
 30
0.0
 10
574.799037
 20
45.170619
 30
0.0
  0
SPLINE
  5
258
100
AcDbEntity
  8
0
 62
7
100
AcDbSpline
 70
8
 71
3
 72
8
 73
4
 74
0
 40
0
 40
0
 40
0
 40
0
 40
1
 40
1
 40
1
 40
1
 10
574.799037
 20
45.170619
 30
0.0
 10
574.700003
 20
44.551256
 30
0.0
 10
574.483839
 20
44.112286
 30
0.0
 10
574.277940
 20
44.112286
 30
0.0
  0
SPLINE
  5
259
100
AcDbEntity
  8
0
 62
7
100
AcDbSpline
 70
8
 71
3
 72
8
 73
4
 74
0
 40
0
 40
0
 40
0
 40
0
 40
1
 40
1
 40
1
 40
1
 10
574.277940
 20
44.112286
 30
0.0
 10
573.920144
 20
44.112286
 30
0.0
 10
573.313137
 20
45.728837
 30
0.0
 10
573.313137
 20
46.681655
 30
0.0
  0
SPLINE
  5
25a
100
AcDbEntity
  8
0
 62
7
100
AcDbSpline
 70
8
 71
3
 72
8
 73
4
 74
0
 40
0
 40
0
 40
0
 40
0
 40
1
 40
1
 40
1
 40
1
 10
573.313137
 20
46.681655
 30
0.0
 10
573.313137
 20
46.969654
 30
0.0
 10
573.060751
 20
47.432092
 30
0.0
 10
572.752273
 20
47.709296
 30
0.0
  0
LWPOLYLINE
  5
25b
100
AcDbEntity
  8
0
 62
7
100
AcDbPolyline
 90
3
 70
0
 10
580.180768
 20
41.201869
 30
0.0
 10
579.579608
 20
42.392494
 30
0.0
 10
579.342276
 20
41.687512
 30
0.0
  0
SPLINE
  5
25c
100
AcDbEntity
  8
0
 62
7
100
AcDbSpline
 70
8
 71
3
 72
8
 73
4
 74
0
 40
0
 40
0
 40
0
 40
0
 40
1
 40
1
 40
1
 40
1
 10
571.715450
 20
44.644363
 30
0.0
 10
570.630950
 20
44.955407
 30
0.0
 10
570.716833
 20
44.833037
 30
0.0
 10
570.403593
 20
46.513724
 30
0.0
  0
SPLINE
  5
25d
100
AcDbEntity
  8
0
 62
7
100
AcDbSpline
 70
8
 71
3
 72
8
 73
4
 74
0
 40
0
 40
0
 40
0
 40
0
 40
1
 40
1
 40
1
 40
1
 10
570.403593
 20
46.513724
 30
0.0
 10
569.960786
 20
48.889550
 30
0.0
 10
569.016568
 20
52.868513
 30
0.0
 10
568.918804
 20
52.770723
 30
0.0
  0
SPLINE
  5
25e
100
AcDbEntity
  8
0
 62
7
100
AcDbSpline
 70
8
 71
3
 72
8
 73
4
 74
0
 40
0
 40
0
 40
0
 40
0
 40
1
 40
1
 40
1
 40
1
 10
568.918804
 20
52.770723
 30
0.0
 10
568.868507
 20
52.720425
 30
0.0
 10
568.903723
 20
50.136901
 30
0.0
 10
568.996856
 20
47.029582
 30
0.0
  0
SPLINE
  5
25f
100
AcDbEntity
  8
0
 62
7
100
AcDbSpline
 70
8
 71
3
 72
8
 73
4
 74
0
 40
0
 40
0
 40
0
 40
0
 40
1
 40
1
 40
1
 40
1
 10
568.996856
 20
47.029582
 30
0.0
 10
569.146611
 20
42.038217
 30
0.0
 10
569.222996
 20
41.323260
 30
0.0
 10
569.652256
 20
40.894000
 30
0.0
  0
SPLINE
  5
260
100
AcDbEntity
  8
0
 62
7
100
AcDbSpline
 70
8
 71
3
 72
8
 73
4
 74
0
 40
0
 40
0
 40
0
 40
0
 40
1
 40
1
 40
1
 40
1
 10
569.652256
 20
40.894000
 30
0.0
 10
569.919485
 20
40.626771
 30
0.0
 10
570.406027
 20
40.407987
 30
0.0
 10
570.733449
 20
40.407802
 30
0.0
  0
SPLINE
  5
261
100
AcDbEntity
  8
0
 62
7
100
AcDbSpline
 70
8
 71
3
 72
8
 73
4
 74
0
 40
0
 40
0
 40
0
 40
0
 40
1
 40
1
 40
1
 40
1
 10
570.733449
 20
40.407802
 30
0.0
 10
571.060871
 20
40.407616
 30
0.0
 10
571.685949
 20
40.095011
 30
0.0
 10
572.122512
 20
39.713138
 30
0.0
  0
SPLINE
  5
262
100
AcDbEntity
  8
0
 62
7
100
AcDbSpline
 70
8
 71
3
 72
8
 73
4
 74
0
 40
0
 40
0
 40
0
 40
0
 40
1
 40
1
 40
1
 40
1
 10
572.122512
 20
39.713138
 30
0.0
 10
573.263210
 20
38.715289
 30
0.0
 10
574.264314
 20
38.354556
 30
0.0
 10
576.762166
 20
38.041342
 30
0.0
  0
SPLINE
  5
263
100
AcDbEntity
  8
0
 62
7
100
AcDbSpline
 70
8
 71
3
 72
8
 73
4
 74
0
 40
0
 40
0
 40
0
 40
0
 40
1
 40
1
 40
1
 40
1
 10
576.762166
 20
38.041342
 30
0.0
 10
577.975915
 20
37.889154
 30
0.0
 10
579.063829
 20
37.615283
 30
0.0
 10
579.179716
 20
37.432747
 30
0.0
  0
SPLINE
  5
264
100
AcDbEntity
  8
0
 62
7
100
AcDbSpline
 70
8
 71
3
 72
8
 73
4
 74
0
 40
0
 40
0
 40
0
 40
0
 40
1
 40
1
 40
1
 40
1
 10
579.179716
 20
37.432747
 30
0.0
 10
579.295630
 20
37.250185
 30
0.0
 10
579.392283
 20
36.549859
 30
0.0
 10
579.394505
 20
35.876442
 30
0.0
  0
SPLINE
  5
265
100
AcDbEntity
  8
0
 62
7
100
AcDbSpline
 70
8
 71
3
 72
8
 73
4
 74
0
 40
0
 40
0
 40
0
 40
0
 40
1
 40
1
 40
1
 40
1
 10
579.394505
 20
35.876442
 30
0.0
 10
579.397151
 20
35.203051
 30
0.0
 10
579.547381
 20
34.532067
 30
0.0
 10
579.729282
 20
34.385409
 30
0.0
  0
SPLINE
  5
266
100
AcDbEntity
  8
0
 62
7
100
AcDbSpline
 70
8
 71
3
 72
8
 73
4
 74
0
 40
0
 40
0
 40
0
 40
0
 40
1
 40
1
 40
1
 40
1
 10
579.729282
 20
34.385409
 30
0.0
 10
579.911184
 20
34.238724
 30
0.0
 10
580.923215
 20
33.975278
 30
0.0
 10
581.978241
 20
33.799939
 30
0.0
  0
SPLINE
  5
267
100
AcDbEntity
  8
0
 62
7
100
AcDbSpline
 70
8
 71
3
 72
8
 73
4
 74
0
 40
0
 40
0
 40
0
 40
0
 40
1
 40
1
 40
1
 40
1
 10
581.978241
 20
33.799939
 30
0.0
 10
584.574624
 20
33.368430
 30
0.0
 10
584.457149
 20
32.745786
 30
0.0
 10
581.701434
 20
32.332560
 30
0.0
  0
SPLINE
  5
268
100
AcDbEntity
  8
0
 62
7
100
AcDbSpline
 70
8
 71
3
 72
8
 73
4
 74
0
 40
0
 40
0
 40
0
 40
0
 40
1
 40
1
 40
1
 40
1
 10
581.701434
 20
32.332560
 30
0.0
 10
580.275488
 20
32.118750
 30
0.0
 10
580.295835
 20
32.000058
 30
0.0
 10
581.867910
 20
31.360930
 30
0.0
  0
SPLINE
  5
269
100
AcDbEntity
  8
0
 62
7
100
AcDbSpline
 70
8
 71
3
 72
8
 73
4
 74
0
 40
0
 40
0
 40
0
 40
0
 40
1
 40
1
 40
1
 40
1
 10
581.867910
 20
31.360930
 30
0.0
 10
583.598920
 20
30.657165
 30
0.0
 10
584.529115
 20
30.747573
 30
0.0
 10
585.328157
 20
31.697163
 30
0.0
  0
LWPOLYLINE
  5
26a
100
AcDbEntity
  8
0
 62
7
100
AcDbPolyline
 90
5
 70
0
 10
572.752273
 20
47.709296
 30
0.0
 10
572.191383
 20
48.213328
 30
0.0
 10
572.381115
 20
46.306184
 30
0.0
 10
572.570875
 20
44.399041
 30
0.0
 10
571.715450
 20
44.644363
 30
0.0
  0
SPLINE
  5
26b
100
AcDbEntity
  8
0
 62
7
100
AcDbSpline
 70
8
 71
3
 72
8
 73
4
 74
0
 40
0
 40
0
 40
0
 40
0
 40
1
 40
1
 40
1
 40
1
 10
76.666098
 20
47.022702
 30
0.0
 10
76.830140
 20
48.987234
 30
0.0
 10
77.210452
 20
52.559109
 30
0.0
 10
77.511230
 20
54.960202
 30
0.0
  0
SPLINE
  5
26c
100
AcDbEntity
  8
0
 62
7
100
AcDbSpline
 70
8
 71
3
 72
8
 73
4
 74
0
 40
0
 40
0
 40
0
 40
0
 40
1
 40
1
 40
1
 40
1
 10
77.511230
 20
54.960202
 30
0.0
 10
77.812008
 20
57.361296
 30
0.0
 10
77.987454
 20
59.769851
 30
0.0
 10
77.901094
 20
60.312538
 30
0.0
  0
SPLINE
  5
26d
100
AcDbEntity
  8
0
 62
7
100
AcDbSpline
 70
8
 71
3
 72
8
 73
4
 74
0
 40
0
 40
0
 40
0
 40
0
 40
1
 40
1
 40
1
 40
1
 10
77.901094
 20
60.312538
 30
0.0
 10
77.814734
 20
60.855199
 30
0.0
 10
76.964574
 20
63.772230
 30
0.0
 10
76.011863
 20
66.794830
 30
0.0
  0
SPLINE
  5
26e
100
AcDbEntity
  8
0
 62
7
100
AcDbSpline
 70
8
 71
3
 72
8
 73
4
 74
0
 40
0
 40
0
 40
0
 40
0
 40
1
 40
1
 40
1
 40
1
 10
76.011863
 20
66.794830
 30
0.0
 10
75.059151
 20
69.817403
 30
0.0
 10
73.339608
 20
75.505098
 30
0.0
 10
72.190642
 20
79.434161
 30
0.0
  0
SPLINE
  5
26f
100
AcDbEntity
  8
0
 62
7
100
AcDbSpline
 70
8
 71
3
 72
8
 73
4
 74
0
 40
0
 40
0
 40
0
 40
0
 40
1
 40
1
 40
1
 40
1
 10
72.190642
 20
79.434161
 30
0.0
 10
68.604752
 20
91.696646
 30
0.0
 10
67.651945
 20
94.486756
 30
0.0
 10
66.588651
 20
95.838513
 30
0.0
  0
SPLINE
  5
270
100
AcDbEntity
  8
0
 62
7
100
AcDbSpline
 70
8
 71
3
 72
8
 73
4
 74
0
 40
0
 40
0
 40
0
 40
0
 40
1
 40
1
 40
1
 40
1
 10
66.588651
 20
95.838513
 30
0.0
 10
66.027001
 20
96.552517
 30
0.0
 10
65.427937
 20
96.699361
 30
0.0
 10
65.240091
 20
96.169057
 30
0.0
  0
SPLINE
  5
271
100
AcDbEntity
  8
0
 62
7
100
AcDbSpline
 70
8
 71
3
 72
8
 73
4
 74
0
 40
0
 40
0
 40
0
 40
0
 40
1
 40
1
 40
1
 40
1
 10
65.240091
 20
96.169057
 30
0.0
 10
65.083500
 20
95.726991
 30
0.0
 10
64.698359
 20
103.526802
 30
0.0
 10
64.688109
 20
107.347702
 30
0.0
  0
SPLINE
  5
272
100
AcDbEntity
  8
0
 62
7
100
AcDbSpline
 70
8
 71
3
 72
8
 73
4
 74
0
 40
0
 40
0
 40
0
 40
0
 40
1
 40
1
 40
1
 40
1
 10
64.688109
 20
107.347702
 30
0.0
 10
64.683611
 20
109.021192
 30
0.0
 10
64.881741
 20
111.759630
 30
0.0
 10
65.128383
 20
113.433119
 30
0.0
  0
SPLINE
  5
273
100
AcDbEntity
  8
0
 62
7
100
AcDbSpline
 70
8
 71
3
 72
8
 73
4
 74
0
 40
0
 40
0
 40
0
 40
0
 40
1
 40
1
 40
1
 40
1
 10
65.128383
 20
113.433119
 30
0.0
 10
65.377192
 20
115.121346
 30
0.0
 10
65.708895
 20
120.009285
 30
0.0
 10
65.873514
 20
124.413327
 30
0.0
  0
SPLINE
  5
274
100
AcDbEntity
  8
0
 62
7
100
AcDbSpline
 70
8
 71
3
 72
8
 73
4
 74
0
 40
0
 40
0
 40
0
 40
0
 40
1
 40
1
 40
1
 40
1
 10
65.873514
 20
124.413327
 30
0.0
 10
66.481521
 20
140.679249
 30
0.0
 10
66.489998
 20
139.655815
 30
0.0
 10
65.709284
 20
144.236837
 30
0.0
  0
SPLINE
  5
275
100
AcDbEntity
  8
0
 62
7
100
AcDbSpline
 70
8
 71
3
 72
8
 73
4
 74
0
 40
0
 40
0
 40
0
 40
0
 40
1
 40
1
 40
1
 40
1
 10
65.709284
 20
144.236837
 30
0.0
 10
64.963270
 20
148.614262
 30
0.0
 10
64.963143
 20
148.685832
 30
0.0
 10
65.691134
 20
154.509232
 30
0.0
  0
SPLINE
  5
276
100
AcDbEntity
  8
0
 62
7
100
AcDbSpline
 70
8
 71
3
 72
8
 73
4
 74
0
 40
0
 40
0
 40
0
 40
0
 40
1
 40
1
 40
1
 40
1
 10
65.691134
 20
154.509232
 30
0.0
 10
65.941239
 20
156.509879
 30
0.0
 10
66.104167
 20
158.355347
 30
0.0
 10
66.053195
 20
158.610274
 30
0.0
  0
SPLINE
  5
277
100
AcDbEntity
  8
0
 62
7
100
AcDbSpline
 70
8
 71
3
 72
8
 73
4
 74
0
 40
0
 40
0
 40
0
 40
0
 40
1
 40
1
 40
1
 40
1
 10
66.053195
 20
158.610274
 30
0.0
 10
65.973672
 20
159.007963
 30
0.0
 10
65.237495
 20
153.480849
 30
0.0
 10
64.857717
 20
149.634707
 30
0.0
  0
SPLINE
  5
278
100
AcDbEntity
  8
0
 62
7
100
AcDbSpline
 70
8
 71
3
 72
8
 73
4
 74
0
 40
0
 40
0
 40
0
 40
0
 40
1
 40
1
 40
1
 40
1
 10
64.857717
 20
149.634707
 30
0.0
 10
64.787936
 20
148.928005
 30
0.0
 10
65.039563
 20
146.614065
 30
0.0
 10
65.444698
 20
144.236837
 30
0.0
  0
SPLINE
  5
279
100
AcDbEntity
  8
0
 62
7
100
AcDbSpline
 70
8
 71
3
 72
8
 73
4
 74
0
 40
0
 40
0
 40
0
 40
0
 40
1
 40
1
 40
1
 40
1
 10
65.444698
 20
144.236837
 30
0.0
 10
66.225412
 20
139.655815
 30
0.0
 10
66.216935
 20
140.679249
 30
0.0
 10
65.608928
 20
124.413327
 30
0.0
  0
SPLINE
  5
27a
100
AcDbEntity
  8
0
 62
7
100
AcDbSpline
 70
8
 71
3
 72
8
 73
4
 74
0
 40
0
 40
0
 40
0
 40
0
 40
1
 40
1
 40
1
 40
1
 10
65.608928
 20
124.413327
 30
0.0
 10
65.445746
 20
120.047703
 30
0.0
 10
65.139499
 20
115.166140
 30
0.0
 10
64.928382
 20
113.565411
 30
0.0
  0
SPLINE
  5
27b
100
AcDbEntity
  8
0
 62
7
100
AcDbSpline
 70
8
 71
3
 72
8
 73
4
 74
0
 40
0
 40
0
 40
0
 40
0
 40
1
 40
1
 40
1
 40
1
 10
64.928382
 20
113.565411
 30
0.0
 10
64.717263
 20
111.964682
 30
0.0
 10
64.483525
 20
110.119213
 30
0.0
 10
64.408963
 20
109.464369
 30
0.0
  0
SPLINE
  5
27c
100
AcDbEntity
  8
0
 62
7
100
AcDbSpline
 70
8
 71
3
 72
8
 73
4
 74
0
 40
0
 40
0
 40
0
 40
0
 40
1
 40
1
 40
1
 40
1
 10
64.408963
 20
109.464369
 30
0.0
 10
64.264408
 20
108.194793
 30
0.0
 10
64.699473
 20
97.058506
 30
0.0
 10
64.934812
 20
96.004248
 30
0.0
  0
SPLINE
  5
27d
100
AcDbEntity
  8
0
 62
7
100
AcDbSpline
 70
8
 71
3
 72
8
 73
4
 74
0
 40
0
 40
0
 40
0
 40
0
 40
1
 40
1
 40
1
 40
1
 10
64.934812
 20
96.004248
 30
0.0
 10
65.067516
 20
95.409782
 30
0.0
 10
65.093824
 20
95.402215
 30
0.0
 10
65.430003
 20
95.861981
 30
0.0
  0
SPLINE
  5
27e
100
AcDbEntity
  8
0
 62
7
100
AcDbSpline
 70
8
 71
3
 72
8
 73
4
 74
0
 40
0
 40
0
 40
0
 40
0
 40
1
 40
1
 40
1
 40
1
 10
65.430003
 20
95.861981
 30
0.0
 10
66.440714
 20
97.244191
 30
0.0
 10
67.504860
 20
94.553087
 30
0.0
 10
71.926056
 20
79.434161
 30
0.0
  0
SPLINE
  5
27f
100
AcDbEntity
  8
0
 62
7
100
AcDbSpline
 70
8
 71
3
 72
8
 73
4
 74
0
 40
0
 40
0
 40
0
 40
0
 40
1
 40
1
 40
1
 40
1
 10
71.926056
 20
79.434161
 30
0.0
 10
73.075022
 20
75.505098
 30
0.0
 10
74.794568
 20
69.817403
 30
0.0
 10
75.747279
 20
66.794830
 30
0.0
  0
SPLINE
  5
280
100
AcDbEntity
  8
0
 62
7
100
AcDbSpline
 70
8
 71
3
 72
8
 73
4
 74
0
 40
0
 40
0
 40
0
 40
0
 40
1
 40
1
 40
1
 40
1
 10
75.747279
 20
66.794830
 30
0.0
 10
76.699991
 20
63.772230
 30
0.0
 10
77.550124
 20
60.855199
 30
0.0
 10
77.636510
 20
60.312538
 30
0.0
  0
SPLINE
  5
281
100
AcDbEntity
  8
0
 62
7
100
AcDbSpline
 70
8
 71
3
 72
8
 73
4
 74
0
 40
0
 40
0
 40
0
 40
0
 40
1
 40
1
 40
1
 40
1
 10
77.636510
 20
60.312538
 30
0.0
 10
77.722870
 20
59.769851
 30
0.0
 10
77.544806
 20
57.361296
 30
0.0
 10
77.240826
 20
54.960202
 30
0.0
  0
SPLINE
  5
282
100
AcDbEntity
  8
0
 62
7
100
AcDbSpline
 70
8
 71
3
 72
8
 73
4
 74
0
 40
0
 40
0
 40
0
 40
0
 40
1
 40
1
 40
1
 40
1
 10
77.240826
 20
54.960202
 30
0.0
 10
76.486922
 20
49.005331
 30
0.0
 10
75.888329
 20
40.673152
 30
0.0
 10
75.938785
 20
36.836244
 30
0.0
  0
SPLINE
  5
283
100
AcDbEntity
  8
0
 62
7
100
AcDbSpline
 70
8
 71
3
 72
8
 73
4
 74
0
 40
0
 40
0
 40
0
 40
0
 40
1
 40
1
 40
1
 40
1
 10
75.938785
 20
36.836244
 30
0.0
 10
75.976858
 20
33.939639
 30
0.0
 10
75.997496
 20
34.090425
 30
0.0
 10
76.174158
 20
38.556036
 30
0.0
  0
SPLINE
  5
284
100
AcDbEntity
  8
0
 62
7
100
AcDbSpline
 70
8
 71
3
 72
8
 73
4
 74
0
 40
0
 40
0
 40
0
 40
0
 40
1
 40
1
 40
1
 40
1
 10
76.174158
 20
38.556036
 30
0.0
 10
76.280653
 20
41.248171
 30
0.0
 10
76.502030
 20
45.058171
 30
0.0
 10
76.666071
 20
47.022702
 30
0.0
  0
LWPOLYLINE
  5
285
100
AcDbEntity
  8
0
 62
7
100
AcDbPolyline
 90
1
 70
1
 10
585.328157
 20
31.697163
 30
0.0
  0
SPLINE
  5
286
100
AcDbEntity
  8
0
 62
7
100
AcDbSpline
 70
8
 71
3
 72
8
 73
4
 74
0
 40
0
 40
0
 40
0
 40
0
 40
1
 40
1
 40
1
 40
1
 10
559.378670
 20
37.813006
 30
0.0
 10
560.157418
 20
38.205992
 30
0.0
 10
560.548711
 20
38.664700
 30
0.0
 10
561.062452
 20
39.786878
 30
0.0
  0
SPLINE
  5
287
100
AcDbEntity
  8
0
 62
7
100
AcDbSpline
 70
8
 71
3
 72
8
 73
4
 74
0
 40
0
 40
0
 40
0
 40
0
 40
1
 40
1
 40
1
 40
1
 10
561.062452
 20
39.786878
 30
0.0
 10
562.029372
 20
41.898914
 30
0.0
 10
562.464770
 20
43.756157
 30
0.0
 10
562.417595
 20
45.567494
 30
0.0
  0
SPLINE
  5
288
100
AcDbEntity
  8
0
 62
7
100
AcDbSpline
 70
8
 71
3
 72
8
 73
4
 74
0
 40
0
 40
0
 40
0
 40
0
 40
1
 40
1
 40
1
 40
1
 10
562.417595
 20
45.567494
 30
0.0
 10
562.389179
 20
46.658768
 30
0.0
 10
562.343988
 20
46.847707
 30
0.0
 10
562.273027
 20
46.171908
 30
0.0
  0
SPLINE
  5
289
100
AcDbEntity
  8
0
 62
7
100
AcDbSpline
 70
8
 71
3
 72
8
 73
4
 74
0
 40
0
 40
0
 40
0
 40
0
 40
1
 40
1
 40
1
 40
1
 10
562.273027
 20
46.171908
 30
0.0
 10
562.180237
 20
45.288412
 30
0.0
 10
562.077076
 20
45.171413
 30
0.0
 10
561.254725
 20
45.017134
 30
0.0
  0
SPLINE
  5
28a
100
AcDbEntity
  8
0
 62
7
100
AcDbSpline
 70
8
 71
3
 72
8
 73
4
 74
0
 40
0
 40
0
 40
0
 40
0
 40
1
 40
1
 40
1
 40
1
 10
561.254725
 20
45.017134
 30
0.0
 10
560.751461
 20
44.922731
 30
0.0
 10
559.984487
 20
44.513685
 30
0.0
 10
559.550385
 20
44.108158
 30
0.0
  0
SPLINE
  5
28b
100
AcDbEntity
  8
0
 62
7
100
AcDbSpline
 70
8
 71
3
 72
8
 73
4
 74
0
 40
0
 40
0
 40
0
 40
0
 40
1
 40
1
 40
1
 40
1
 10
559.550385
 20
44.108158
 30
0.0
 10
558.775129
 20
43.383941
 30
0.0
 10
558.761053
 20
43.323193
 30
0.0
 10
558.761053
 20
40.698843
 30
0.0
  0
SPLINE
  5
28c
100
AcDbEntity
  8
0
 62
7
100
AcDbSpline
 70
8
 71
3
 72
8
 73
4
 74
0
 40
0
 40
0
 40
0
 40
0
 40
1
 40
1
 40
1
 40
1
 10
558.761053
 20
40.698843
 30
0.0
 10
558.761053
 20
37.869574
 30
0.0
 10
558.773753
 20
37.892964
 30
0.0
 10
557.438137
 20
38.262745
 30
0.0
  0
SPLINE
  5
28d
100
AcDbEntity
  8
0
 62
7
100
AcDbSpline
 70
8
 71
3
 72
8
 73
4
 74
0
 40
0
 40
0
 40
0
 40
0
 40
1
 40
1
 40
1
 40
1
 10
557.438137
 20
38.262745
 30
0.0
 10
556.801390
 20
38.439011
 30
0.0
 10
556.771731
 20
38.544288
 30
0.0
 10
556.644387
 20
41.080637
 30
0.0
  0
LWPOLYLINE
  5
28e
100
AcDbEntity
  8
0
 62
7
100
AcDbPolyline
 90
1
 70
1
 10
76.666071
 20
47.022702
 30
0.0
  0
SPLINE
  5
28f
100
AcDbEntity
  8
0
 62
7
100
AcDbSpline
 70
8
 71
3
 72
8
 73
4
 74
0
 40
0
 40
0
 40
0
 40
0
 40
1
 40
1
 40
1
 40
1
 10
556.058943
 20
42.714519
 30
0.0
 10
555.714165
 20
41.953048
 30
0.0
 10
555.669159
 20
41.546886
 30
0.0
 10
555.870745
 20
41.016661
 30
0.0
  0
SPLINE
  5
290
100
AcDbEntity
  8
0
 62
7
100
AcDbSpline
 70
8
 71
3
 72
8
 73
4
 74
0
 40
0
 40
0
 40
0
 40
0
 40
1
 40
1
 40
1
 40
1
 10
555.870745
 20
41.016661
 30
0.0
 10
556.154537
 20
40.270271
 30
0.0
 10
555.870745
 20
39.890965
 30
0.0
 10
555.020771
 20
39.883001
 30
0.0
  0
SPLINE
  5
291
100
AcDbEntity
  8
0
 62
7
100
AcDbSpline
 70
8
 71
3
 72
8
 73
4
 74
0
 40
0
 40
0
 40
0
 40
0
 40
1
 40
1
 40
1
 40
1
 10
555.020771
 20
39.883001
 30
0.0
 10
554.744890
 20
39.880355
 30
0.0
 10
554.546214
 20
39.595690
 30
0.0
 10
554.473189
 20
39.098220
 30
0.0
  0
SPLINE
  5
292
100
AcDbEntity
  8
0
 62
7
100
AcDbSpline
 70
8
 71
3
 72
8
 73
4
 74
0
 40
0
 40
0
 40
0
 40
0
 40
1
 40
1
 40
1
 40
1
 10
554.473189
 20
39.098220
 30
0.0
 10
554.366509
 20
38.371251
 30
0.0
 10
554.459960
 20
38.272429
 30
0.0
 10
555.832222
 20
37.662988
 30
0.0
  0
SPLINE
  5
293
100
AcDbEntity
  8
0
 62
7
100
AcDbSpline
 70
8
 71
3
 72
8
 73
4
 74
0
 40
0
 40
0
 40
0
 40
0
 40
1
 40
1
 40
1
 40
1
 10
555.832222
 20
37.662988
 30
0.0
 10
557.384982
 20
36.973325
 30
0.0
 10
557.745000
 20
36.988538
 30
0.0
 10
559.378670
 20
37.813006
 30
0.0
  0
LWPOLYLINE
  5
294
100
AcDbEntity
  8
0
 62
7
100
AcDbPolyline
 90
3
 70
0
 10
556.644387
 20
41.080637
 30
0.0
 10
556.512095
 20
43.715411
 30
0.0
 10
556.058943
 20
42.714519
 30
0.0
  0
SPLINE
  5
295
100
AcDbEntity
  8
0
 62
7
100
AcDbSpline
 70
8
 71
3
 72
8
 73
4
 74
0
 40
0
 40
0
 40
0
 40
0
 40
1
 40
1
 40
1
 40
1
 10
38.986412
 20
43.608943
 30
0.0
 10
41.360807
 20
66.116756
 30
0.0
 10
42.885746
 20
84.165122
 30
0.0
 10
43.365830
 20
95.441452
 30
0.0
  0
SPLINE
  5
296
100
AcDbEntity
  8
0
 62
7
100
AcDbSpline
 70
8
 71
3
 72
8
 73
4
 74
0
 40
0
 40
0
 40
0
 40
0
 40
1
 40
1
 40
1
 40
1
 10
43.365830
 20
95.441452
 30
0.0
 10
43.709265
 20
103.508122
 30
0.0
 10
43.871605
 20
104.820958
 30
0.0
 10
46.654008
 20
122.032078
 30
0.0
  0
SPLINE
  5
297
100
AcDbEntity
  8
0
 62
7
100
AcDbSpline
 70
8
 71
3
 72
8
 73
4
 74
0
 40
0
 40
0
 40
0
 40
0
 40
1
 40
1
 40
1
 40
1
 10
46.654008
 20
122.032078
 30
0.0
 10
47.746523
 20
128.790065
 30
0.0
 10
48.053895
 20
133.325923
 30
0.0
 10
47.613231
 20
136.187286
 30
0.0
  0
SPLINE
  5
298
100
AcDbEntity
  8
0
 62
7
100
AcDbSpline
 70
8
 71
3
 72
8
 73
4
 74
0
 40
0
 40
0
 40
0
 40
0
 40
1
 40
1
 40
1
 40
1
 10
47.613231
 20
136.187286
 30
0.0
 10
47.280944
 20
138.344910
 30
0.0
 10
46.596607
 20
140.685203
 30
0.0
 10
46.297972
 20
140.685203
 30
0.0
  0
SPLINE
  5
299
100
AcDbEntity
  8
0
 62
7
100
AcDbSpline
 70
8
 71
3
 72
8
 73
4
 74
0
 40
0
 40
0
 40
0
 40
0
 40
1
 40
1
 40
1
 40
1
 10
46.297972
 20
140.685203
 30
0.0
 10
46.194993
 20
140.685203
 30
0.0
 10
46.222626
 20
141.786531
 30
0.0
 10
46.359376
 20
143.132598
 30
0.0
  0
SPLINE
  5
29a
100
AcDbEntity
  8
0
 62
7
100
AcDbSpline
 70
8
 71
3
 72
8
 73
4
 74
0
 40
0
 40
0
 40
0
 40
0
 40
1
 40
1
 40
1
 40
1
 10
46.359376
 20
143.132598
 30
0.0
 10
46.738897
 20
146.868330
 30
0.0
 10
46.256268
 20
150.885366
 30
0.0
 10
44.887364
 20
155.384553
 30
0.0
  0
LWPOLYLINE
  5
29b
100
AcDbEntity
  8
0
 62
7
100
AcDbPolyline
 90
1
 70
1
 10
559.378670
 20
37.813006
 30
0.0
  0
SPLINE
  5
29c
100
AcDbEntity
  8
0
 62
7
100
AcDbSpline
 70
8
 71
3
 72
8
 73
4
 74
0
 40
0
 40
0
 40
0
 40
0
 40
1
 40
1
 40
1
 40
1
 10
43.643016
 20
178.388322
 30
0.0
 10
43.575981
 20
189.011343
 30
0.0
 10
43.453476
 20
197.048062
 30
0.0
 10
43.370786
 20
196.247697
 30
0.0
  0
SPLINE
  5
29d
100
AcDbEntity
  8
0
 62
7
100
AcDbSpline
 70
8
 71
3
 72
8
 73
4
 74
0
 40
0
 40
0
 40
0
 40
0
 40
1
 40
1
 40
1
 40
1
 10
43.370786
 20
196.247697
 30
0.0
 10
43.232575
 20
194.909964
 30
0.0
 10
43.118135
 20
195.337266
 30
0.0
 10
41.953281
 20
201.540449
 30
0.0
  0
SPLINE
  5
29e
100
AcDbEntity
  8
0
 62
7
100
AcDbSpline
 70
8
 71
3
 72
8
 73
4
 74
0
 40
0
 40
0
 40
0
 40
0
 40
1
 40
1
 40
1
 40
1
 10
41.953281
 20
201.540449
 30
0.0
 10
40.148574
 20
211.151015
 30
0.0
 10
39.480937
 20
215.217423
 30
0.0
 10
38.856573
 20
220.401721
 30
0.0
  0
SPLINE
  5
29f
100
AcDbEntity
  8
0
 62
7
100
AcDbSpline
 70
8
 71
3
 72
8
 73
4
 74
0
 40
0
 40
0
 40
0
 40
0
 40
1
 40
1
 40
1
 40
1
 10
38.856573
 20
220.401721
 30
0.0
 10
38.554970
 20
222.906003
 30
0.0
 10
38.134504
 20
226.403106
 30
0.0
 10
37.922205
 20
228.173063
 30
0.0
  0
SPLINE
  5
2a0
100
AcDbEntity
  8
0
 62
7
100
AcDbSpline
 70
8
 71
3
 72
8
 73
4
 74
0
 40
0
 40
0
 40
0
 40
0
 40
1
 40
1
 40
1
 40
1
 10
37.922205
 20
228.173063
 30
0.0
 10
37.248293
 20
233.791464
 30
0.0
 10
37.187232
 20
233.961406
 30
0.0
 10
35.085515
 20
236.067489
 30
0.0
  0
SPLINE
  5
2a1
100
AcDbEntity
  8
0
 62
7
100
AcDbSpline
 70
8
 71
3
 72
8
 73
4
 74
0
 40
0
 40
0
 40
0
 40
0
 40
1
 40
1
 40
1
 40
1
 10
35.085515
 20
236.067489
 30
0.0
 10
32.381386
 20
238.777246
 30
0.0
 10
30.935504
 20
241.056763
 30
0.0
 10
30.218639
 20
243.740406
 30
0.0
  0
SPLINE
  5
2a2
100
AcDbEntity
  8
0
 62
7
100
AcDbSpline
 70
8
 71
3
 72
8
 73
4
 74
0
 40
0
 40
0
 40
0
 40
0
 40
1
 40
1
 40
1
 40
1
 10
30.218639
 20
243.740406
 30
0.0
 10
29.345223
 20
247.010126
 30
0.0
 10
29.875721
 20
248.838741
 30
0.0
 10
33.941380
 20
256.572697
 30
0.0
  0
SPLINE
  5
2a3
100
AcDbEntity
  8
0
 62
7
100
AcDbSpline
 70
8
 71
3
 72
8
 73
4
 74
0
 40
0
 40
0
 40
0
 40
0
 40
1
 40
1
 40
1
 40
1
 10
33.941380
 20
256.572697
 30
0.0
 10
40.566393
 20
269.175225
 30
0.0
 10
45.430212
 20
278.846883
 30
0.0
 10
44.852061
 20
278.268504
 30
0.0
  0
SPLINE
  5
2a4
100
AcDbEntity
  8
0
 62
7
100
AcDbSpline
 70
8
 71
3
 72
8
 73
4
 74
0
 40
0
 40
0
 40
0
 40
0
 40
1
 40
1
 40
1
 40
1
 10
44.852061
 20
278.268504
 30
0.0
 10
44.779343
 20
278.195770
 30
0.0
 10
42.946145
 20
274.623895
 30
0.0
 10
40.778290
 20
270.331031
 30
0.0
  0
SPLINE
  5
2a5
100
AcDbEntity
  8
0
 62
7
100
AcDbSpline
 70
8
 71
3
 72
8
 73
4
 74
0
 40
0
 40
0
 40
0
 40
0
 40
1
 40
1
 40
1
 40
1
 10
40.778290
 20
270.331031
 30
0.0
 10
38.610432
 20
266.038166
 30
0.0
 10
35.390233
 20
259.787385
 30
0.0
 10
33.622287
 20
256.440406
 30
0.0
  0
SPLINE
  5
2a6
100
AcDbEntity
  8
0
 62
7
100
AcDbSpline
 70
8
 71
3
 72
8
 73
4
 74
0
 40
0
 40
0
 40
0
 40
0
 40
1
 40
1
 40
1
 40
1
 10
33.622287
 20
256.440406
 30
0.0
 10
29.614548
 20
248.853161
 30
0.0
 10
29.081394
 20
247.007295
 30
0.0
 10
29.954056
 20
243.740406
 30
0.0
  0
SPLINE
  5
2a7
100
AcDbEntity
  8
0
 62
7
100
AcDbSpline
 70
8
 71
3
 72
8
 73
4
 74
0
 40
0
 40
0
 40
0
 40
0
 40
1
 40
1
 40
1
 40
1
 10
29.954056
 20
243.740406
 30
0.0
 10
30.671648
 20
241.054038
 30
0.0
 10
32.162308
 20
238.703056
 30
0.0
 10
34.838910
 20
236.036268
 30
0.0
  0
SPLINE
  5
2a8
100
AcDbEntity
  8
0
 62
7
100
AcDbSpline
 70
8
 71
3
 72
8
 73
4
 74
0
 40
0
 40
0
 40
0
 40
0
 40
1
 40
1
 40
1
 40
1
 10
34.838910
 20
236.036268
 30
0.0
 10
36.918418
 20
233.964395
 30
0.0
 10
36.985371
 20
233.777599
 30
0.0
 10
37.657622
 20
228.173063
 30
0.0
  0
SPLINE
  5
2a9
100
AcDbEntity
  8
0
 62
7
100
AcDbSpline
 70
8
 71
3
 72
8
 73
4
 74
0
 40
0
 40
0
 40
0
 40
0
 40
1
 40
1
 40
1
 40
1
 10
37.657622
 20
228.173063
 30
0.0
 10
37.869921
 20
226.403106
 30
0.0
 10
38.290317
 20
222.906558
 30
0.0
 10
38.591834
 20
220.402938
 30
0.0
  0
SPLINE
  5
2aa
100
AcDbEntity
  8
0
 62
7
100
AcDbSpline
 70
8
 71
3
 72
8
 73
4
 74
0
 40
0
 40
0
 40
0
 40
0
 40
1
 40
1
 40
1
 40
1
 10
38.591834
 20
220.402938
 30
0.0
 10
39.271591
 20
214.758635
 30
0.0
 10
40.072966
 20
209.990023
 30
0.0
 10
41.828580
 20
201.142489
 30
0.0
  0
LWPOLYLINE
  5
2ab
100
AcDbEntity
  8
0
 62
7
100
AcDbPolyline
 90
3
 70
0
 10
44.887364
 20
155.384553
 30
0.0
 10
43.764899
 20
159.073739
 30
0.0
 10
43.643016
 20
178.388322
 30
0.0
  0
SPLINE
  5
2ac
100
AcDbEntity
  8
0
 62
7
100
AcDbSpline
 70
8
 71
3
 72
8
 73
4
 74
0
 40
0
 40
0
 40
0
 40
0
 40
1
 40
1
 40
1
 40
1
 10
44.627207
 20
155.384553
 30
0.0
 10
46.003146
 20
150.844356
 30
0.0
 10
46.474777
 20
146.861160
 30
0.0
 10
46.085739
 20
143.066452
 30
0.0
  0
SPLINE
  5
2ad
100
AcDbEntity
  8
0
 62
7
100
AcDbSpline
 70
8
 71
3
 72
8
 73
4
 74
0
 40
0
 40
0
 40
0
 40
0
 40
1
 40
1
 40
1
 40
1
 10
46.085739
 20
143.066452
 30
0.0
 10
45.882123
 20
141.080358
 30
0.0
 10
45.899980
 20
140.497401
 30
0.0
 10
46.170837
 20
140.288327
 30
0.0
  0
SPLINE
  5
2ae
100
AcDbEntity
  8
0
 62
7
100
AcDbSpline
 70
8
 71
3
 72
8
 73
4
 74
0
 40
0
 40
0
 40
0
 40
0
 40
1
 40
1
 40
1
 40
1
 10
46.170837
 20
140.288327
 30
0.0
 10
46.980430
 20
139.663435
 30
0.0
 10
47.449632
 20
136.705287
 30
0.0
 10
47.429830
 20
132.350827
 30
0.0
  0
SPLINE
  5
2af
100
AcDbEntity
  8
0
 62
7
100
AcDbSpline
 70
8
 71
3
 72
8
 73
4
 74
0
 40
0
 40
0
 40
0
 40
0
 40
1
 40
1
 40
1
 40
1
 10
47.429830
 20
132.350827
 30
0.0
 10
47.413558
 20
128.775116
 30
0.0
 10
47.258203
 20
127.192696
 30
0.0
 10
46.429695
 20
122.164369
 30
0.0
  0
SPLINE
  5
2b0
100
AcDbEntity
  8
0
 62
7
100
AcDbSpline
 70
8
 71
3
 72
8
 73
4
 74
0
 40
0
 40
0
 40
0
 40
0
 40
1
 40
1
 40
1
 40
1
 10
46.429695
 20
122.164369
 30
0.0
 10
43.705706
 20
105.632118
 30
0.0
 10
43.445393
 20
103.540745
 30
0.0
 10
43.103482
 20
95.441452
 30
0.0
  0
SPLINE
  5
2b1
100
AcDbEntity
  8
0
 62
7
100
AcDbSpline
 70
8
 71
3
 72
8
 73
4
 74
0
 40
0
 40
0
 40
0
 40
0
 40
1
 40
1
 40
1
 40
1
 10
43.103482
 20
95.441452
 30
0.0
 10
42.793899
 20
88.107970
 30
0.0
 10
42.307851
 20
81.357629
 30
0.0
 10
41.217437
 20
69.247703
 30
0.0
  0
SPLINE
  5
2b2
100
AcDbEntity
  8
0
 62
7
100
AcDbSpline
 70
8
 71
3
 72
8
 73
4
 74
0
 40
0
 40
0
 40
0
 40
0
 40
1
 40
1
 40
1
 40
1
 10
41.217437
 20
69.247703
 30
0.0
 10
40.377121
 20
59.915293
 30
0.0
 10
38.440733
 20
40.316309
 30
0.0
 10
38.158949
 20
38.291452
 30
0.0
  0
SPLINE
  5
2b3
100
AcDbEntity
  8
0
 62
7
100
AcDbSpline
 70
8
 71
3
 72
8
 73
4
 74
0
 40
0
 40
0
 40
0
 40
0
 40
1
 40
1
 40
1
 40
1
 10
38.158949
 20
38.291452
 30
0.0
 10
38.067819
 20
37.636609
 30
0.0
 10
38.069750
 20
37.171974
 30
0.0
 10
38.163235
 20
37.258942
 30
0.0
  0
SPLINE
  5
2b4
100
AcDbEntity
  8
0
 62
7
100
AcDbSpline
 70
8
 71
3
 72
8
 73
4
 74
0
 40
0
 40
0
 40
0
 40
0
 40
1
 40
1
 40
1
 40
1
 10
38.163235
 20
37.258942
 30
0.0
 10
38.256726
 20
37.345937
 30
0.0
 10
38.627153
 20
40.203438
 30
0.0
 10
38.986410
 20
43.608943
 30
0.0
  0
LWPOLYLINE
  5
2b5
100
AcDbEntity
  8
0
 62
7
100
AcDbPolyline
 90
5
 70
0
 10
41.828580
 20
201.142489
 30
0.0
 10
43.193615
 20
194.263322
 30
0.0
 10
43.351392
 20
176.668531
 30
0.0
 10
43.509168
 20
159.073739
 30
0.0
 10
44.627207
 20
155.384553
 30
0.0
  0
SPLINE
  5
2b6
100
AcDbEntity
  8
0
 62
7
100
AcDbSpline
 70
8
 71
3
 72
8
 73
4
 74
0
 40
0
 40
0
 40
0
 40
0
 40
1
 40
1
 40
1
 40
1
 10
564.797760
 20
41.965510
 30
0.0
 10
565.354920
 20
42.956824
 30
0.0
 10
565.627864
 20
45.446394
 30
0.0
 10
565.177199
 20
45.426392
 30
0.0
  0
SPLINE
  5
2b7
100
AcDbEntity
  8
0
 62
7
100
AcDbSpline
 70
8
 71
3
 72
8
 73
4
 74
0
 40
0
 40
0
 40
0
 40
0
 40
1
 40
1
 40
1
 40
1
 10
565.177199
 20
45.426392
 30
0.0
 10
565.068059
 20
45.421629
 30
0.0
 10
564.710871
 20
45.194114
 30
0.0
 10
564.383449
 20
44.920958
 30
0.0
  0
SPLINE
  5
2b8
100
AcDbEntity
  8
0
 62
7
100
AcDbSpline
 70
8
 71
3
 72
8
 73
4
 74
0
 40
0
 40
0
 40
0
 40
0
 40
1
 40
1
 40
1
 40
1
 10
564.383449
 20
44.920958
 30
0.0
 10
563.876560
 20
44.498101
 30
0.0
 10
563.788137
 20
44.165388
 30
0.0
 10
563.788137
 20
42.680811
 30
0.0
  0
SPLINE
  5
2b9
100
AcDbEntity
  8
0
 62
7
100
AcDbSpline
 70
8
 71
3
 72
8
 73
4
 74
0
 40
0
 40
0
 40
0
 40
0
 40
1
 40
1
 40
1
 40
1
 10
563.788137
 20
42.680811
 30
0.0
 10
563.788137
 20
41.721881
 30
0.0
 10
563.885265
 20
40.937286
 30
0.0
 10
564.004010
 20
40.937286
 30
0.0
  0
SPLINE
  5
2ba
100
AcDbEntity
  8
0
 62
7
100
AcDbSpline
 70
8
 71
3
 72
8
 73
4
 74
0
 40
0
 40
0
 40
0
 40
0
 40
1
 40
1
 40
1
 40
1
 10
564.004010
 20
40.937286
 30
0.0
 10
564.122729
 20
40.937286
 30
0.0
 10
564.479916
 20
41.399989
 30
0.0
 10
564.797760
 20
41.965510
 30
0.0
  0
LWPOLYLINE
  5
2bb
100
AcDbEntity
  8
0
 62
7
100
AcDbPolyline
 90
1
 70
1
 10
38.986410
 20
43.608943
 30
0.0
  0
LWPOLYLINE
  5
2bc
100
AcDbEntity
  8
0
 62
7
100
AcDbPolyline
 90
1
 70
1
 10
564.797760
 20
41.965510
 30
0.0
  0
SPLINE
  5
2bd
100
AcDbEntity
  8
0
 62
7
100
AcDbSpline
 70
8
 71
3
 72
8
 73
4
 74
0
 40
0
 40
0
 40
0
 40
0
 40
1
 40
1
 40
1
 40
1
 10
609.494907
 20
72.535283
 30
0.0
 10
605.095839
 20
73.102549
 30
0.0
 10
595.926227
 20
73.365757
 30
0.0
 10
595.658416
 20
72.932449
 30
0.0
  0
SPLINE
  5
2be
100
AcDbEntity
  8
0
 62
7
100
AcDbSpline
 70
8
 71
3
 72
8
 73
4
 74
0
 40
0
 40
0
 40
0
 40
0
 40
1
 40
1
 40
1
 40
1
 10
595.658416
 20
72.932449
 30
0.0
 10
595.393542
 20
72.503850
 30
0.0
 10
596.162791
 20
65.685194
 30
0.0
 10
596.516539
 20
65.326207
 30
0.0
  0
SPLINE
  5
2bf
100
AcDbEntity
  8
0
 62
7
100
AcDbSpline
 70
8
 71
3
 72
8
 73
4
 74
0
 40
0
 40
0
 40
0
 40
0
 40
1
 40
1
 40
1
 40
1
 10
596.516539
 20
65.326207
 30
0.0
 10
596.706007
 20
65.133908
 30
0.0
 10
596.861053
 20
64.627892
 30
0.0
 10
596.861053
 20
64.201728
 30
0.0
  0
LWPOLYLINE
  5
2c0
100
AcDbEntity
  8
0
 62
7
100
AcDbPolyline
 90
3
 70
0
 10
610.619387
 20
58.251275
 30
0.0
 10
610.619387
 20
72.390291
 30
0.0
 10
609.494907
 20
72.535283
 30
0.0
  0
SPLINE
  5
2c1
100
AcDbEntity
  8
0
 62
7
100
AcDbSpline
 70
8
 71
3
 72
8
 73
4
 74
0
 40
0
 40
0
 40
0
 40
0
 40
1
 40
1
 40
1
 40
1
 10
593.156887
 20
62.368536
 30
0.0
 10
593.156887
 20
61.786452
 30
0.0
 10
593.230044
 20
61.310203
 30
0.0
 10
593.319420
 20
61.310203
 30
0.0
  0
SPLINE
  5
2c2
100
AcDbEntity
  8
0
 62
7
100
AcDbSpline
 70
8
 71
3
 72
8
 73
4
 74
0
 40
0
 40
0
 40
0
 40
0
 40
1
 40
1
 40
1
 40
1
 10
593.319420
 20
61.310203
 30
0.0
 10
593.408823
 20
61.310203
 30
0.0
 10
594.688745
 20
61.692314
 30
0.0
 10
596.163691
 20
62.159356
 30
0.0
  0
SPLINE
  5
2c3
100
AcDbEntity
  8
0
 62
7
100
AcDbSpline
 70
8
 71
3
 72
8
 73
4
 74
0
 40
0
 40
0
 40
0
 40
0
 40
1
 40
1
 40
1
 40
1
 10
596.163691
 20
62.159356
 30
0.0
 10
598.600054
 20
62.930802
 30
0.0
 10
598.958088
 20
63.130536
 30
0.0
 10
600.076693
 20
64.342169
 30
0.0
  0
SPLINE
  5
2c4
100
AcDbEntity
  8
0
 62
7
100
AcDbSpline
 70
8
 71
3
 72
8
 73
4
 74
0
 40
0
 40
0
 40
0
 40
0
 40
1
 40
1
 40
1
 40
1
 10
600.076693
 20
64.342169
 30
0.0
 10
600.753894
 20
65.075673
 30
0.0
 10
601.368469
 20
65.616296
 30
0.0
 10
601.442446
 20
65.543536
 30
0.0
  0
SPLINE
  5
2c5
100
AcDbEntity
  8
0
 62
7
100
AcDbSpline
 70
8
 71
3
 72
8
 73
4
 74
0
 40
0
 40
0
 40
0
 40
0
 40
1
 40
1
 40
1
 40
1
 10
601.442446
 20
65.543536
 30
0.0
 10
601.516397
 20
65.470775
 30
0.0
 10
601.661230
 20
64.441546
 30
0.0
 10
601.764259
 20
63.256345
 30
0.0
  0
SPLINE
  5
2c6
100
AcDbEntity
  8
0
 62
7
100
AcDbSpline
 70
8
 71
3
 72
8
 73
4
 74
0
 40
0
 40
0
 40
0
 40
0
 40
1
 40
1
 40
1
 40
1
 10
601.764259
 20
63.256345
 30
0.0
 10
601.934862
 20
61.293851
 30
0.0
 10
601.907425
 20
61.086497
 30
0.0
 10
601.456839
 20
60.934150
 30
0.0
  0
SPLINE
  5
2c7
100
AcDbEntity
  8
0
 62
7
100
AcDbSpline
 70
8
 71
3
 72
8
 73
4
 74
0
 40
0
 40
0
 40
0
 40
0
 40
1
 40
1
 40
1
 40
1
 10
601.456839
 20
60.934150
 30
0.0
 10
601.184742
 20
60.842181
 30
0.0
 10
600.727119
 20
60.588657
 30
0.0
 10
600.439913
 20
60.370826
 30
0.0
  0
SPLINE
  5
2c8
100
AcDbEntity
  8
0
 62
7
100
AcDbSpline
 70
8
 71
3
 72
8
 73
4
 74
0
 40
0
 40
0
 40
0
 40
0
 40
1
 40
1
 40
1
 40
1
 10
600.439913
 20
60.370826
 30
0.0
 10
599.933977
 20
59.987048
 30
0.0
 10
599.953530
 20
59.942016
 30
0.0
 10
601.068669
 20
58.922682
 30
0.0
  0
SPLINE
  5
2c9
100
AcDbEntity
  8
0
 62
7
100
AcDbSpline
 70
8
 71
3
 72
8
 73
4
 74
0
 40
0
 40
0
 40
0
 40
0
 40
1
 40
1
 40
1
 40
1
 10
601.068669
 20
58.922682
 30
0.0
 10
601.701685
 20
58.344038
 30
0.0
 10
602.264083
 20
57.870619
 30
0.0
 10
602.318455
 20
57.870619
 30
0.0
  0
SPLINE
  5
2ca
100
AcDbEntity
  8
0
 62
7
100
AcDbSpline
 70
8
 71
3
 72
8
 73
4
 74
0
 40
0
 40
0
 40
0
 40
0
 40
1
 40
1
 40
1
 40
1
 10
602.318455
 20
57.870619
 30
0.0
 10
602.372827
 20
57.870619
 30
0.0
 10
602.417303
 20
58.515726
 30
0.0
 10
602.417303
 20
59.304185
 30
0.0
  0
SPLINE
  5
2cb
100
AcDbEntity
  8
0
 62
7
100
AcDbSpline
 70
8
 71
3
 72
8
 73
4
 74
0
 40
0
 40
0
 40
0
 40
0
 40
1
 40
1
 40
1
 40
1
 10
602.417303
 20
59.304185
 30
0.0
 10
602.417303
 20
61.201988
 30
0.0
 10
602.562163
 20
61.502951
 30
0.0
 10
603.772843
 20
62.120595
 30
0.0
  0
LWPOLYLINE
  5
2cc
100
AcDbEntity
  8
0
 62
7
100
AcDbPolyline
 90
5
 70
0
 10
596.861053
 20
64.201728
 30
0.0
 10
596.861053
 20
63.426869
 30
0.0
 10
595.008970
 20
63.426869
 30
0.0
 10
593.156887
 20
63.426869
 30
0.0
 10
593.156887
 20
62.368536
 30
0.0
  0
SPLINE
  5
2cd
100
AcDbEntity
  8
0
 62
7
100
AcDbSpline
 70
8
 71
3
 72
8
 73
4
 74
0
 40
0
 40
0
 40
0
 40
0
 40
1
 40
1
 40
1
 40
1
 10
604.798553
 20
60.298251
 30
0.0
 10
604.798553
 20
58.302604
 30
0.0
 10
604.720977
 20
57.882446
 30
0.0
 10
604.278647
 20
57.482131
 30
0.0
  0
SPLINE
  5
2ce
100
AcDbEntity
  8
0
 62
7
100
AcDbSpline
 70
8
 71
3
 72
8
 73
4
 74
0
 40
0
 40
0
 40
0
 40
0
 40
1
 40
1
 40
1
 40
1
 10
604.278647
 20
57.482131
 30
0.0
 10
603.958210
 20
57.192148
 30
0.0
 10
603.506725
 20
57.059804
 30
0.0
 10
603.101807
 20
57.137221
 30
0.0
  0
SPLINE
  5
2cf
100
AcDbEntity
  8
0
 62
7
100
AcDbSpline
 70
8
 71
3
 72
8
 73
4
 74
0
 40
0
 40
0
 40
0
 40
0
 40
1
 40
1
 40
1
 40
1
 10
603.101807
 20
57.137221
 30
0.0
 10
602.551685
 20
57.242392
 30
0.0
 10
602.431855
 20
57.150979
 30
0.0
 10
602.364942
 20
56.574531
 30
0.0
  0
SPLINE
  5
2d0
100
AcDbEntity
  8
0
 62
7
100
AcDbSpline
 70
8
 71
3
 72
8
 73
4
 74
0
 40
0
 40
0
 40
0
 40
0
 40
1
 40
1
 40
1
 40
1
 10
602.364942
 20
56.574531
 30
0.0
 10
602.310015
 20
56.101562
 30
0.0
 10
602.126738
 20
55.885874
 30
0.0
 10
601.779049
 20
55.885080
 30
0.0
  0
SPLINE
  5
2d1
100
AcDbEntity
  8
0
 62
7
100
AcDbSpline
 70
8
 71
3
 72
8
 73
4
 74
0
 40
0
 40
0
 40
0
 40
0
 40
1
 40
1
 40
1
 40
1
 10
601.779049
 20
55.885080
 30
0.0
 10
601.173338
 20
55.882434
 30
0.0
 10
600.619169
 20
54.542425
 30
0.0
 10
600.576994
 20
52.975827
 30
0.0
  0
LWPOLYLINE
  5
2d2
100
AcDbEntity
  8
0
 62
7
100
AcDbPolyline
 90
3
 70
0
 10
603.772843
 20
62.120595
 30
0.0
 10
604.798553
 20
62.643861
 30
0.0
 10
604.798553
 20
60.298251
 30
0.0
  0
SPLINE
  5
2d3
100
AcDbEntity
  8
0
 62
7
100
AcDbSpline
 70
8
 71
3
 72
8
 73
4
 74
0
 40
0
 40
0
 40
0
 40
0
 40
1
 40
1
 40
1
 40
1
 10
599.863545
 20
52.696877
 30
0.0
 10
599.234392
 20
53.412760
 30
0.0
 10
599.189096
 20
53.622919
 30
0.0
 10
599.307417
 20
55.276565
 30
0.0
  0
SPLINE
  5
2d4
100
AcDbEntity
  8
0
 62
7
100
AcDbSpline
 70
8
 71
3
 72
8
 73
4
 74
0
 40
0
 40
0
 40
0
 40
0
 40
1
 40
1
 40
1
 40
1
 10
599.307417
 20
55.276565
 30
0.0
 10
599.378273
 20
56.266741
 30
0.0
 10
599.384781
 20
57.076869
 30
0.0
 10
599.321969
 20
57.076869
 30
0.0
  0
SPLINE
  5
2d5
100
AcDbEntity
  8
0
 62
7
100
AcDbSpline
 70
8
 71
3
 72
8
 73
4
 74
0
 40
0
 40
0
 40
0
 40
0
 40
1
 40
1
 40
1
 40
1
 10
599.321969
 20
57.076869
 30
0.0
 10
599.259078
 20
57.076869
 30
0.0
 10
598.977323
 20
56.953626
 30
0.0
 10
598.695859
 20
56.802972
 30
0.0
  0
SPLINE
  5
2d6
100
AcDbEntity
  8
0
 62
7
100
AcDbSpline
 70
8
 71
3
 72
8
 73
4
 74
0
 40
0
 40
0
 40
0
 40
0
 40
1
 40
1
 40
1
 40
1
 10
598.695859
 20
56.802972
 30
0.0
 10
598.232309
 20
56.554899
 30
0.0
 10
598.184076
 20
56.221286
 30
0.0
 10
598.184076
 20
53.263509
 30
0.0
  0
SPLINE
  5
2d7
100
AcDbEntity
  8
0
 62
7
100
AcDbSpline
 70
8
 71
3
 72
8
 73
4
 74
0
 40
0
 40
0
 40
0
 40
0
 40
1
 40
1
 40
1
 40
1
 10
598.184076
 20
53.263509
 30
0.0
 10
598.184076
 20
50.683530
 30
0.0
 10
598.100759
 20
49.928754
 30
0.0
 10
597.787201
 20
49.668536
 30
0.0
  0
SPLINE
  5
2d8
100
AcDbEntity
  8
0
 62
7
100
AcDbSpline
 70
8
 71
3
 72
8
 73
4
 74
0
 40
0
 40
0
 40
0
 40
0
 40
1
 40
1
 40
1
 40
1
 10
597.787201
 20
49.668536
 30
0.0
 10
597.568920
 20
49.487376
 30
0.0
 10
597.390326
 20
49.071662
 30
0.0
 10
597.390326
 20
48.744717
 30
0.0
  0
SPLINE
  5
2d9
100
AcDbEntity
  8
0
 62
7
100
AcDbSpline
 70
8
 71
3
 72
8
 73
4
 74
0
 40
0
 40
0
 40
0
 40
0
 40
1
 40
1
 40
1
 40
1
 10
597.390326
 20
48.744717
 30
0.0
 10
597.390326
 20
48.270583
 30
0.0
 10
597.577386
 20
48.119930
 30
0.0
 10
598.314489
 20
48.000311
 30
0.0
  0
SPLINE
  5
2da
100
AcDbEntity
  8
0
 62
7
100
AcDbSpline
 70
8
 71
3
 72
8
 73
4
 74
0
 40
0
 40
0
 40
0
 40
0
 40
1
 40
1
 40
1
 40
1
 10
598.314489
 20
48.000311
 30
0.0
 10
598.822780
 20
47.917814
 30
0.0
 10
599.507389
 20
47.559277
 30
0.0
 10
599.835843
 20
47.203545
 30
0.0
  0
SPLINE
  5
2db
100
AcDbEntity
  8
0
 62
7
100
AcDbSpline
 70
8
 71
3
 72
8
 73
4
 74
0
 40
0
 40
0
 40
0
 40
0
 40
1
 40
1
 40
1
 40
1
 10
599.835843
 20
47.203545
 30
0.0
 10
600.344399
 20
46.652762
 30
0.0
 10
600.958179
 20
46.473957
 30
0.0
 10
603.971095
 20
45.998818
 30
0.0
  0
SPLINE
  5
2dc
100
AcDbEntity
  8
0
 62
7
100
AcDbSpline
 70
8
 71
3
 72
8
 73
4
 74
0
 40
0
 40
0
 40
0
 40
0
 40
1
 40
1
 40
1
 40
1
 10
603.971095
 20
45.998818
 30
0.0
 10
606.178250
 20
45.650759
 30
0.0
 10
608.019511
 20
45.199274
 30
0.0
 10
608.865887
 20
44.798615
 30
0.0
  0
SPLINE
  5
2dd
100
AcDbEntity
  8
0
 62
7
100
AcDbSpline
 70
8
 71
3
 72
8
 73
4
 74
0
 40
0
 40
0
 40
0
 40
0
 40
1
 40
1
 40
1
 40
1
 10
608.865887
 20
44.798615
 30
0.0
 10
609.612091
 20
44.445396
 30
0.0
 10
610.311914
 20
44.146470
 30
0.0
 10
610.421055
 20
44.134326
 30
0.0
  0
SPLINE
  5
2de
100
AcDbEntity
  8
0
 62
7
100
AcDbSpline
 70
8
 71
3
 72
8
 73
4
 74
0
 40
0
 40
0
 40
0
 40
0
 40
1
 40
1
 40
1
 40
1
 10
610.421055
 20
44.134326
 30
0.0
 10
610.530196
 20
44.122155
 30
0.0
 10
610.619492
 20
50.474827
 30
0.0
 10
610.619492
 20
58.251275
 30
0.0
  0
LWPOLYLINE
  5
2df
100
AcDbEntity
  8
0
 62
7
100
AcDbPolyline
 90
3
 70
0
 10
600.576994
 20
52.975827
 30
0.0
 10
600.548498
 20
51.917494
 30
0.0
 10
599.863545
 20
52.696877
 30
0.0
  0
SPLINE
  5
2e0
100
AcDbEntity
  8
0
 62
7
100
AcDbSpline
 70
8
 71
3
 72
8
 73
4
 74
0
 40
0
 40
0
 40
0
 40
0
 40
1
 40
1
 40
1
 40
1
 10
551.568461
 20
46.779286
 30
0.0
 10
551.653340
 20
48.776361
 30
0.0
 10
551.223709
 20
50.980419
 30
0.0
 10
550.831306
 20
50.560975
 30
0.0
  0
SPLINE
  5
2e1
100
AcDbEntity
  8
0
 62
7
100
AcDbSpline
 70
8
 71
3
 72
8
 73
4
 74
0
 40
0
 40
0
 40
0
 40
0
 40
1
 40
1
 40
1
 40
1
 10
550.831306
 20
50.560975
 30
0.0
 10
550.606330
 20
50.320522
 30
0.0
 10
549.416235
 20
45.679016
 30
0.0
 10
549.554268
 20
45.580459
 30
0.0
  0
SPLINE
  5
2e2
100
AcDbEntity
  8
0
 62
7
100
AcDbSpline
 70
8
 71
3
 72
8
 73
4
 74
0
 40
0
 40
0
 40
0
 40
0
 40
1
 40
1
 40
1
 40
1
 10
549.554268
 20
45.580459
 30
0.0
 10
550.474647
 20
44.923445
 30
0.0
 10
550.997146
 20
44.655052
 30
0.0
 10
551.215507
 20
44.727125
 30
0.0
  0
SPLINE
  5
2e3
100
AcDbEntity
  8
0
 62
7
100
AcDbSpline
 70
8
 71
3
 72
8
 73
4
 74
0
 40
0
 40
0
 40
0
 40
0
 40
1
 40
1
 40
1
 40
1
 10
551.215507
 20
44.727125
 30
0.0
 10
551.363727
 20
44.776046
 30
0.0
 10
551.522556
 20
45.699521
 30
0.0
 10
551.568461
 20
46.779286
 30
0.0
  0
LWPOLYLINE
  5
2e4
100
AcDbEntity
  8
0
 62
7
100
AcDbPolyline
 90
2
 70
0
 10
610.619492
 20
58.251275
 30
0.0
 10
610.619387
 20
58.251275
 30
0.0
  0
SPLINE
  5
2e5
100
AcDbEntity
  8
0
 62
7
100
AcDbSpline
 70
8
 71
3
 72
8
 73
4
 74
0
 40
0
 40
0
 40
0
 40
0
 40
1
 40
1
 40
1
 40
1
 10
593.560773
 20
45.457269
 30
0.0
 10
593.787653
 20
46.172094
 30
0.0
 10
593.470153
 20
46.598734
 30
0.0
 10
593.001047
 20
46.209400
 30
0.0
  0
SPLINE
  5
2e6
100
AcDbEntity
  8
0
 62
7
100
AcDbSpline
 70
8
 71
3
 72
8
 73
4
 74
0
 40
0
 40
0
 40
0
 40
0
 40
1
 40
1
 40
1
 40
1
 10
593.001047
 20
46.209400
 30
0.0
 10
592.488126
 20
45.783712
 30
0.0
 10
592.499424
 20
44.608829
 30
0.0
 10
593.014541
 20
44.806500
 30
0.0
  0
SPLINE
  5
2e7
100
AcDbEntity
  8
0
 62
7
100
AcDbSpline
 70
8
 71
3
 72
8
 73
4
 74
0
 40
0
 40
0
 40
0
 40
0
 40
1
 40
1
 40
1
 40
1
 10
593.014541
 20
44.806500
 30
0.0
 10
593.227292
 20
44.888124
 30
0.0
 10
593.473090
 20
45.180991
 30
0.0
 10
593.560800
 20
45.457269
 30
0.0
  0
LWPOLYLINE
  5
2e8
100
AcDbEntity
  8
0
 62
7
100
AcDbPolyline
 90
1
 70
1
 10
551.568461
 20
46.779286
 30
0.0
  0
SPLINE
  5
2e9
100
AcDbEntity
  8
0
 62
7
100
AcDbSpline
 70
8
 71
3
 72
8
 73
4
 74
0
 40
0
 40
0
 40
0
 40
0
 40
1
 40
1
 40
1
 40
1
 10
545.876321
 20
45.369057
 30
0.0
 10
545.937440
 20
45.478197
 30
0.0
 10
545.830760
 20
45.924682
 30
0.0
 10
545.639307
 20
46.361244
 30
0.0
  0
LWPOLYLINE
  5
2ea
100
AcDbEntity
  8
0
 62
7
100
AcDbPolyline
 90
1
 70
1
 10
593.560800
 20
45.457269
 30
0.0
  0
SPLINE
  5
2eb
100
AcDbEntity
  8
0
 62
7
100
AcDbSpline
 70
8
 71
3
 72
8
 73
4
 74
0
 40
0
 40
0
 40
0
 40
0
 40
1
 40
1
 40
1
 40
1
 10
545.279262
 20
46.162807
 30
0.0
 10
545.268679
 20
45.271081
 30
0.0
 10
545.585571
 20
44.849627
 30
0.0
 10
545.876348
 20
45.369057
 30
0.0
  0
LWPOLYLINE
  5
2ec
100
AcDbEntity
  8
0
 62
7
100
AcDbPolyline
 90
3
 70
0
 10
545.639307
 20
46.361244
 30
0.0
 10
545.291169
 20
47.154994
 30
0.0
 10
545.279262
 20
46.162807
 30
0.0
  0
LWPOLYLINE
  5
2ed
100
AcDbEntity
  8
0
 62
7
100
AcDbPolyline
 90
1
 70
1
 10
545.876348
 20
45.369057
 30
0.0
  0
SPLINE
  5
2ee
100
AcDbEntity
  8
0
 62
7
100
AcDbSpline
 70
8
 71
3
 72
8
 73
4
 74
0
 40
0
 40
0
 40
0
 40
0
 40
1
 40
1
 40
1
 40
1
 10
547.802091
 20
46.587569
 30
0.0
 10
546.987889
 20
47.121075
 30
0.0
 10
546.991778
 20
47.122133
 30
0.0
 10
546.737540
 20
46.295098
 30
0.0
  0
SPLINE
  5
2ef
100
AcDbEntity
  8
0
 62
7
100
AcDbSpline
 70
8
 71
3
 72
8
 73
4
 74
0
 40
0
 40
0
 40
0
 40
0
 40
1
 40
1
 40
1
 40
1
 10
546.737540
 20
46.295098
 30
0.0
 10
546.541960
 20
45.658828
 30
0.0
 10
546.717961
 20
45.603319
 30
0.0
 10
547.891203
 20
45.931349
 30
0.0
  0
LWPOLYLINE
  5
2f0
100
AcDbEntity
  8
0
 62
7
100
AcDbPolyline
 90
3
 70
0
 10
547.891203
 20
45.931349
 30
0.0
 10
548.530727
 20
46.110155
 30
0.0
 10
547.802091
 20
46.587569
 30
0.0
  0
LWPOLYLINE
  5
2f1
100
AcDbEntity
  8
0
 62
7
100
AcDbPolyline
 90
1
 70
1
 10
547.891203
 20
45.931349
 30
0.0
  0
SPLINE
  5
2f2
100
AcDbEntity
  8
0
 62
7
100
AcDbSpline
 70
8
 71
3
 72
8
 73
4
 74
0
 40
0
 40
0
 40
0
 40
0
 40
1
 40
1
 40
1
 40
1
 10
404.376678
 20
109.318002
 30
0.0
 10
410.197512
 20
111.161565
 30
0.0
 10
415.436262
 20
112.891147
 30
0.0
 10
416.018345
 20
113.161551
 30
0.0
  0
SPLINE
  5
2f3
100
AcDbEntity
  8
0
 62
7
100
AcDbSpline
 70
8
 71
3
 72
8
 73
4
 74
0
 40
0
 40
0
 40
0
 40
0
 40
1
 40
1
 40
1
 40
1
 10
416.018345
 20
113.161551
 30
0.0
 10
416.600428
 20
113.431929
 30
0.0
 10
419.576991
 20
114.860282
 30
0.0
 10
422.632928
 20
116.335625
 30
0.0
  0
LWPOLYLINE
  5
2f4
100
AcDbEntity
  8
0
 62
7
100
AcDbPolyline
 90
9
 70
0
 10
264.676678
 20
88.575674
 30
0.0
 10
285.314178
 20
92.290847
 30
0.0
 10
296.922349
 20
96.142228
 30
0.0
 10
308.530493
 20
99.993609
 30
0.0
 10
328.783447
 20
98.968057
 30
0.0
 10
349.036402
 20
97.942506
 30
0.0
 10
371.414860
 20
101.954304
 30
0.0
 10
393.793345
 20
105.966101
 30
0.0
 10
404.376678
 20
109.318002
 30
0.0
  0
SPLINE
  5
2f5
100
AcDbEntity
  8
0
 62
7
100
AcDbSpline
 70
8
 71
3
 72
8
 73
4
 74
0
 40
0
 40
0
 40
0
 40
0
 40
1
 40
1
 40
1
 40
1
 10
431.628762
 20
122.404267
 30
0.0
 10
435.310650
 20
126.028979
 30
0.0
 10
437.919627
 20
128.363080
 30
0.0
 10
442.344810
 20
131.991179
 30
0.0
  0
LWPOLYLINE
  5
2f6
100
AcDbEntity
  8
0
 62
7
100
AcDbPolyline
 90
3
 70
0
 10
422.632928
 20
116.335625
 30
0.0
 10
428.189178
 20
119.018103
 30
0.0
 10
431.628762
 20
122.404267
 30
0.0
  0
SPLINE
  5
2f7
100
AcDbEntity
  8
0
 62
7
100
AcDbSpline
 70
8
 71
3
 72
8
 73
4
 74
0
 40
0
 40
0
 40
0
 40
0
 40
1
 40
1
 40
1
 40
1
 10
450.150018
 20
134.818940
 30
0.0
 10
452.914676
 20
135.121280
 30
0.0
 10
463.095737
 20
135.875025
 30
0.0
 10
472.774566
 20
136.493938
 30
0.0
  0
LWPOLYLINE
  5
2f8
100
AcDbEntity
  8
0
 62
7
100
AcDbPolyline
 90
3
 70
0
 10
442.344810
 20
131.991179
 30
0.0
 10
445.123332
 20
134.269242
 30
0.0
 10
450.150018
 20
134.818940
 30
0.0
  0
SPLINE
  5
2f9
100
AcDbEntity
  8
0
 62
7
100
AcDbSpline
 70
8
 71
3
 72
8
 73
4
 74
0
 40
0
 40
0
 40
0
 40
0
 40
1
 40
1
 40
1
 40
1
 10
537.065220
 20
117.789801
 30
0.0
 10
547.033397
 20
110.342680
 30
0.0
 10
558.339572
 20
101.955415
 30
0.0
 10
562.190053
 20
99.151440
 30
0.0
  0
LWPOLYLINE
  5
2fa
100
AcDbEntity
  8
0
 62
7
100
AcDbPolyline
 90
5
 70
0
 10
472.774566
 20
136.493938
 30
0.0
 10
490.372453
 20
137.619237
 30
0.0
 10
504.656857
 20
134.474638
 30
0.0
 10
518.941262
 20
131.330039
 30
0.0
 10
537.065220
 20
117.789801
 30
0.0
  0
SPLINE
  5
2fb
100
AcDbEntity
  8
0
 62
7
100
AcDbSpline
 70
8
 71
3
 72
8
 73
4
 74
0
 40
0
 40
0
 40
0
 40
0
 40
1
 40
1
 40
1
 40
1
 10
598.448553
 20
86.208473
 30
0.0
 10
602.450376
 20
86.040278
 30
0.0
 10
607.153345
 20
85.829881
 30
0.0
 10
608.899595
 20
85.740954
 30
0.0
  0
SPLINE
  5
2fc
100
AcDbEntity
  8
0
 62
7
100
AcDbSpline
 70
8
 71
3
 72
8
 73
4
 74
0
 40
0
 40
0
 40
0
 40
0
 40
1
 40
1
 40
1
 40
1
 10
608.899595
 20
85.740954
 30
0.0
 10
610.645845
 20
85.652054
 30
0.0
 10
612.015064
 20
85.645202
 30
0.0
 10
611.942303
 20
85.725873
 30
0.0
  0
SPLINE
  5
2fd
100
AcDbEntity
  8
0
 62
7
100
AcDbSpline
 70
8
 71
3
 72
8
 73
4
 74
0
 40
0
 40
0
 40
0
 40
0
 40
1
 40
1
 40
1
 40
1
 10
611.942303
 20
85.725873
 30
0.0
 10
611.869543
 20
85.806439
 30
0.0
 10
607.166574
 20
86.077875
 30
0.0
 10
601.491262
 20
86.329044
 30
0.0
  0
LWPOLYLINE
  5
2fe
100
AcDbEntity
  8
0
 62
7
100
AcDbPolyline
 90
5
 70
0
 10
562.190053
 20
99.151440
 30
0.0
 10
569.190902
 20
94.053316
 30
0.0
 10
580.181720
 20
90.283824
 30
0.0
 10
591.172512
 20
86.514305
 30
0.0
 10
598.448553
 20
86.208473
 30
0.0
  0
SPLINE
  5
2ff
100
AcDbEntity
  8
0
 62
7
100
AcDbSpline
 70
8
 71
3
 72
8
 73
4
 74
0
 40
0
 40
0
 40
0
 40
0
 40
1
 40
1
 40
1
 40
1
 10
562.197329
 20
99.410785
 30
0.0
 10
558.342853
 20
102.217696
 30
0.0
 10
547.033397
 20
110.607343
 30
0.0
 10
537.065220
 20
118.054464
 30
0.0
  0
LWPOLYLINE
  5
300
100
AcDbEntity
  8
0
 62
7
100
AcDbPolyline
 90
5
 70
0
 10
601.491262
 20
86.329044
 30
0.0
 10
591.172512
 20
86.785741
 30
0.0
 10
580.188996
 20
90.546529
 30
0.0
 10
569.205480
 20
94.307316
 30
0.0
 10
562.197329
 20
99.410785
 30
0.0
  0
SPLINE
  5
301
100
AcDbEntity
  8
0
 62
7
100
AcDbSpline
 70
8
 71
3
 72
8
 73
4
 74
0
 40
0
 40
0
 40
0
 40
0
 40
1
 40
1
 40
1
 40
1
 10
472.774566
 20
136.758601
 30
0.0
 10
463.095737
 20
136.139687
 30
0.0
 10
452.914676
 20
135.385942
 30
0.0
 10
450.150018
 20
135.083603
 30
0.0
  0
LWPOLYLINE
  5
302
100
AcDbEntity
  8
0
 62
7
100
AcDbPolyline
 90
5
 70
0
 10
537.065220
 20
118.054464
 30
0.0
 10
518.941262
 20
131.594701
 30
0.0
 10
504.656857
 20
134.739301
 30
0.0
 10
490.372453
 20
137.883900
 30
0.0
 10
472.774566
 20
136.758601
 30
0.0
  0
SPLINE
  5
303
100
AcDbEntity
  8
0
 62
7
100
AcDbSpline
 70
8
 71
3
 72
8
 73
4
 74
0
 40
0
 40
0
 40
0
 40
0
 40
1
 40
1
 40
1
 40
1
 10
442.344810
 20
132.255842
 30
0.0
 10
437.914627
 20
128.623642
 30
0.0
 10
435.308507
 20
126.291684
 30
0.0
 10
431.628762
 20
122.667130
 30
0.0
  0
LWPOLYLINE
  5
304
100
AcDbEntity
  8
0
 62
7
100
AcDbPolyline
 90
3
 70
0
 10
450.150018
 20
135.083603
 30
0.0
 10
445.123332
 20
134.533905
 30
0.0
 10
442.344810
 20
132.255842
 30
0.0
  0
SPLINE
  5
305
100
AcDbEntity
  8
0
 62
7
100
AcDbSpline
 70
8
 71
3
 72
8
 73
4
 74
0
 40
0
 40
0
 40
0
 40
0
 40
1
 40
1
 40
1
 40
1
 10
421.574595
 20
116.110226
 30
0.0
 10
415.195279
 20
113.054024
 30
0.0
 10
414.583615
 20
112.821985
 30
0.0
 10
404.376678
 20
109.585892
 30
0.0
  0
LWPOLYLINE
  5
306
100
AcDbEntity
  8
0
 62
7
100
AcDbPolyline
 90
3
 70
0
 10
431.628762
 20
122.667130
 30
0.0
 10
428.189178
 20
119.279141
 30
0.0
 10
421.574595
 20
116.110226
 30
0.0
  0
SPLINE
  5
307
100
AcDbEntity
  8
0
 62
7
100
AcDbSpline
 70
8
 71
3
 72
8
 73
4
 74
0
 40
0
 40
0
 40
0
 40
0
 40
1
 40
1
 40
1
 40
1
 10
371.832928
 20
102.278550
 30
0.0
 10
358.008079
 20
99.790700
 30
0.0
 10
349.235395
 20
98.328824
 30
0.0
 10
348.152720
 20
98.332475
 30
0.0
  0
SPLINE
  5
308
100
AcDbEntity
  8
0
 62
7
100
AcDbSpline
 70
8
 71
3
 72
8
 73
4
 74
0
 40
0
 40
0
 40
0
 40
0
 40
1
 40
1
 40
1
 40
1
 10
348.152720
 20
98.332475
 30
0.0
 10
347.206835
 20
98.335650
 30
0.0
 10
337.907947
 20
98.771287
 30
0.0
 10
327.488497
 20
99.300533
 30
0.0
  0
LWPOLYLINE
  5
309
100
AcDbEntity
  8
0
 62
7
100
AcDbPolyline
 90
3
 70
0
 10
404.376678
 20
109.585892
 30
0.0
 10
393.793345
 20
106.230446
 30
0.0
 10
371.832928
 20
102.278550
 30
0.0
  0
SPLINE
  5
30a
100
AcDbEntity
  8
0
 62
7
100
AcDbSpline
 70
8
 71
3
 72
8
 73
4
 74
0
 40
0
 40
0
 40
0
 40
0
 40
1
 40
1
 40
1
 40
1
 10
264.412103
 20
88.796548
 30
0.0
 10
252.915957
 20
86.729517
 30
0.0
 10
243.403578
 20
84.944929
 30
0.0
 10
243.273456
 20
84.830788
 30
0.0
  0
SPLINE
  5
30b
100
AcDbEntity
  8
0
 62
7
100
AcDbSpline
 70
8
 71
3
 72
8
 73
4
 74
0
 40
0
 40
0
 40
0
 40
0
 40
1
 40
1
 40
1
 40
1
 10
243.273456
 20
84.830788
 30
0.0
 10
243.143360
 20
84.716620
 30
0.0
 10
243.262343
 20
84.676615
 30
0.0
 10
243.538039
 20
84.741888
 30
0.0
  0
SPLINE
  5
30c
100
AcDbEntity
  8
0
 62
7
100
AcDbSpline
 70
8
 71
3
 72
8
 73
4
 74
0
 40
0
 40
0
 40
0
 40
0
 40
1
 40
1
 40
1
 40
1
 10
243.538039
 20
84.741888
 30
0.0
 10
243.813682
 20
84.807160
 30
0.0
 10
253.326061
 20
86.532376
 30
0.0
 10
264.676678
 20
88.575753
 30
0.0
  0
LWPOLYLINE
  5
30d
100
AcDbEntity
  8
0
 62
7
100
AcDbPolyline
 90
5
 70
0
 10
327.488497
 20
99.300533
 30
0.0
 10
308.544066
 20
100.262769
 30
0.0
 10
296.929122
 20
96.408769
 30
0.0
 10
285.314178
 20
92.554743
 30
0.0
 10
264.412103
 20
88.796548
 30
0.0
  0
LWPOLYLINE
  5
30e
100
AcDbEntity
  8
0
 62
7
100
AcDbPolyline
 90
1
 70
1
 10
264.676678
 20
88.575753
 30
0.0
  0
SPLINE
  5
30f
100
AcDbEntity
  8
0
 62
7
100
AcDbSpline
 70
8
 71
3
 72
8
 73
4
 74
0
 40
0
 40
0
 40
0
 40
0
 40
1
 40
1
 40
1
 40
1
 10
223.435447
 20
104.009402
 30
0.0
 10
218.614686
 20
102.808670
 30
0.0
 10
214.854666
 20
101.818387
 30
0.0
 10
215.079853
 20
101.808836
 30
0.0
  0
SPLINE
  5
310
100
AcDbEntity
  8
0
 62
7
100
AcDbSpline
 70
8
 71
3
 72
8
 73
4
 74
0
 40
0
 40
0
 40
0
 40
0
 40
1
 40
1
 40
1
 40
1
 10
215.079853
 20
101.808836
 30
0.0
 10
215.305039
 20
101.799311
 30
0.0
 10
219.244950
 20
102.722151
 30
0.0
 10
223.835233
 20
103.859674
 30
0.0
  0
LWPOLYLINE
  5
311
100
AcDbEntity
  8
0
 62
7
100
AcDbPolyline
 90
15
 70
0
 10
223.835233
 20
103.859674
 30
0.0
 10
232.181196
 20
105.927869
 30
0.0
 10
240.226858
 20
105.076413
 30
0.0
 10
248.272520
 20
104.224958
 30
0.0
 10
261.766270
 20
107.158181
 30
0.0
 10
275.260012
 20
110.091405
 30
0.0
 10
285.578762
 20
110.412742
 30
0.0
 10
295.897512
 20
110.734052
 30
0.0
 10
285.975637
 20
110.598003
 30
0.0
 10
276.053762
 20
110.461954
 30
0.0
 10
262.285647
 20
107.480709
 30
0.0
 10
248.517524
 20
104.499463
 30
0.0
 10
240.358991
 20
105.346024
 30
0.0
 10
232.200431
 20
106.192611
 30
0.0
 10
223.435447
 20
104.009402
 30
0.0
  0
SPLINE
  5
312
100
AcDbEntity
  8
0
 62
7
100
AcDbSpline
 70
8
 71
3
 72
8
 73
4
 74
0
 40
0
 40
0
 40
0
 40
0
 40
1
 40
1
 40
1
 40
1
 10
603.922888
 20
104.451759
 30
0.0
 10
606.569965
 20
104.605773
 30
0.0
 10
609.159575
 20
104.652260
 30
0.0
 10
609.677576
 20
104.555078
 30
0.0
  0
LWPOLYLINE
  5
313
100
AcDbEntity
  8
0
 62
7
100
AcDbPolyline
 90
1
 70
1
 10
223.835233
 20
103.859674
 30
0.0
  0
SPLINE
  5
314
100
AcDbEntity
  8
0
 62
7
100
AcDbSpline
 70
8
 71
3
 72
8
 73
4
 74
0
 40
0
 40
0
 40
0
 40
0
 40
1
 40
1
 40
1
 40
1
 10
608.833449
 20
309.320348
 30
0.0
 10
607.851184
 20
308.949392
 30
0.0
 10
605.939966
 20
308.229974
 30
0.0
 10
604.586278
 20
307.721640
 30
0.0
  0
SPLINE
  5
315
100
AcDbEntity
  8
0
 62
7
100
AcDbSpline
 70
8
 71
3
 72
8
 73
4
 74
0
 40
0
 40
0
 40
0
 40
0
 40
1
 40
1
 40
1
 40
1
 10
604.586278
 20
307.721640
 30
0.0
 10
602.612116
 20
306.980307
 30
0.0
 10
601.243215
 20
306.172627
 30
0.0
 10
597.669117
 20
303.640371
 30
0.0
  0
SPLINE
  5
316
100
AcDbEntity
  8
0
 62
7
100
AcDbSpline
 70
8
 71
3
 72
8
 73
4
 74
0
 40
0
 40
0
 40
0
 40
0
 40
1
 40
1
 40
1
 40
1
 10
597.669117
 20
303.640371
 30
0.0
 10
595.218388
 20
301.904003
 30
0.0
 10
593.087460
 20
300.331817
 30
0.0
 10
592.933764
 20
300.146622
 30
0.0
  0
SPLINE
  5
317
100
AcDbEntity
  8
0
 62
7
100
AcDbSpline
 70
8
 71
3
 72
8
 73
4
 74
0
 40
0
 40
0
 40
0
 40
0
 40
1
 40
1
 40
1
 40
1
 10
592.933764
 20
300.146622
 30
0.0
 10
592.780067
 20
299.961427
 30
0.0
 10
591.830610
 20
298.336343
 30
0.0
 10
590.823844
 20
296.535324
 30
0.0
  0
LWPOLYLINE
  5
318
100
AcDbEntity
  8
0
 62
7
100
AcDbPolyline
 90
5
 70
0
 10
609.677576
 20
104.555078
 30
0.0
 10
610.619387
 20
104.378390
 30
0.0
 10
610.619387
 20
207.186604
 30
0.0
 10
610.619387
 20
309.994816
 30
0.0
 10
608.833449
 20
309.320348
 30
0.0
  0
SPLINE
  5
319
100
AcDbEntity
  8
0
 62
7
100
AcDbSpline
 70
8
 71
3
 72
8
 73
4
 74
0
 40
0
 40
0
 40
0
 40
0
 40
1
 40
1
 40
1
 40
1
 10
596.337707
 20
289.013260
 30
0.0
 10
602.082632
 20
288.598896
 30
0.0
 10
601.683984
 20
288.720366
 30
0.0
 10
604.198240
 20
286.618013
 30
0.0
  0
LWPOLYLINE
  5
31a
100
AcDbEntity
  8
0
 62
7
100
AcDbPolyline
 90
5
 70
0
 10
590.823844
 20
296.535324
 30
0.0
 10
588.993350
 20
293.260748
 30
0.0
 10
591.411669
 20
291.227452
 30
0.0
 10
593.829960
 20
289.194155
 30
0.0
 10
596.337707
 20
289.013260
 30
0.0
  0
SPLINE
  5
31b
100
AcDbEntity
  8
0
 62
7
100
AcDbSpline
 70
8
 71
3
 72
8
 73
4
 74
0
 40
0
 40
0
 40
0
 40
0
 40
1
 40
1
 40
1
 40
1
 10
609.549676
 20
271.057418
 30
0.0
 10
609.129227
 20
268.568853
 30
0.0
 10
609.034956
 20
268.347793
 30
0.0
 10
607.338289
 20
265.871346
 30
0.0
  0
SPLINE
  5
31c
100
AcDbEntity
  8
0
 62
7
100
AcDbSpline
 70
8
 71
3
 72
8
 73
4
 74
0
 40
0
 40
0
 40
0
 40
0
 40
1
 40
1
 40
1
 40
1
 10
607.338289
 20
265.871346
 30
0.0
 10
605.781904
 20
263.599660
 30
0.0
 10
605.385584
 20
263.196144
 30
0.0
 10
604.083993
 20
262.557784
 30
0.0
  0
SPLINE
  5
31d
100
AcDbEntity
  8
0
 62
7
100
AcDbSpline
 70
8
 71
3
 72
8
 73
4
 74
0
 40
0
 40
0
 40
0
 40
0
 40
1
 40
1
 40
1
 40
1
 10
604.083993
 20
262.557784
 30
0.0
 10
602.679082
 20
261.868730
 30
0.0
 10
602.476861
 20
261.840684
 30
0.0
 10
600.200227
 20
262.018775
 30
0.0
  0
LWPOLYLINE
  5
31e
100
AcDbEntity
  8
0
 62
7
100
AcDbPolyline
 90
5
 70
0
 10
604.198240
 20
286.618013
 30
0.0
 10
606.465878
 20
284.721903
 30
0.0
 10
608.227342
 20
279.189333
 30
0.0
 10
609.988832
 20
273.656764
 30
0.0
 10
609.549676
 20
271.057418
 30
0.0
  0
SPLINE
  5
31f
100
AcDbEntity
  8
0
 62
7
100
AcDbSpline
 70
8
 71
3
 72
8
 73
4
 74
0
 40
0
 40
0
 40
0
 40
0
 40
1
 40
1
 40
1
 40
1
 10
599.115727
 20
262.858800
 30
0.0
 10
600.227532
 20
263.409266
 30
0.0
 10
600.714339
 20
263.924542
 30
0.0
 10
602.237572
 20
266.163367
 30
0.0
  0
SPLINE
  5
320
100
AcDbEntity
  8
0
 62
7
100
AcDbSpline
 70
8
 71
3
 72
8
 73
4
 74
0
 40
0
 40
0
 40
0
 40
0
 40
1
 40
1
 40
1
 40
1
 10
602.237572
 20
266.163367
 30
0.0
 10
603.869972
 20
268.562582
 30
0.0
 10
604.078305
 20
269.020708
 30
0.0
 10
604.420040
 20
270.962459
 30
0.0
  0
SPLINE
  5
321
100
AcDbEntity
  8
0
 62
7
100
AcDbSpline
 70
8
 71
3
 72
8
 73
4
 74
0
 40
0
 40
0
 40
0
 40
0
 40
1
 40
1
 40
1
 40
1
 10
604.420040
 20
270.962459
 30
0.0
 10
604.627818
 20
272.143135
 30
0.0
 10
604.797998
 20
273.393292
 30
0.0
 10
604.798183
 20
273.740584
 30
0.0
  0
SPLINE
  5
322
100
AcDbEntity
  8
0
 62
7
100
AcDbSpline
 70
8
 71
3
 72
8
 73
4
 74
0
 40
0
 40
0
 40
0
 40
0
 40
1
 40
1
 40
1
 40
1
 10
604.798183
 20
273.740584
 30
0.0
 10
604.798395
 20
274.087849
 30
0.0
 10
603.883174
 20
276.024070
 30
0.0
 10
602.764357
 20
278.043264
 30
0.0
  0
SPLINE
  5
323
100
AcDbEntity
  8
0
 62
7
100
AcDbSpline
 70
8
 71
3
 72
8
 73
4
 74
0
 40
0
 40
0
 40
0
 40
0
 40
1
 40
1
 40
1
 40
1
 10
602.764357
 20
278.043264
 30
0.0
 10
600.889149
 20
281.427576
 30
0.0
 10
600.656475
 20
281.733911
 30
0.0
 10
599.787795
 20
281.962273
 30
0.0
  0
SPLINE
  5
324
100
AcDbEntity
  8
0
 62
7
100
AcDbSpline
 70
8
 71
3
 72
8
 73
4
 74
0
 40
0
 40
0
 40
0
 40
0
 40
1
 40
1
 40
1
 40
1
 10
599.787795
 20
281.962273
 30
0.0
 10
599.269502
 20
282.098507
 30
0.0
 10
596.940428
 20
282.686226
 30
0.0
 10
594.612095
 20
283.268256
 30
0.0
  0
LWPOLYLINE
  5
325
100
AcDbEntity
  8
0
 62
7
100
AcDbPolyline
 90
3
 70
0
 10
600.200227
 20
262.018775
 30
0.0
 10
597.798525
 20
262.206655
 30
0.0
 10
599.115727
 20
262.858800
 30
0.0
  0
SPLINE
  5
326
100
AcDbEntity
  8
0
 62
7
100
AcDbSpline
 70
8
 71
3
 72
8
 73
4
 74
0
 40
0
 40
0
 40
0
 40
0
 40
1
 40
1
 40
1
 40
1
 10
586.145428
 20
283.704475
 30
0.0
 10
582.752623
 20
283.205920
 30
0.0
 10
581.071567
 20
282.795022
 30
0.0
 10
577.678762
 20
281.634957
 30
0.0
  0
SPLINE
  5
327
100
AcDbEntity
  8
0
 62
7
100
AcDbSpline
 70
8
 71
3
 72
8
 73
4
 74
0
 40
0
 40
0
 40
0
 40
0
 40
1
 40
1
 40
1
 40
1
 10
577.678762
 20
281.634957
 30
0.0
 10
575.350428
 20
280.838878
 30
0.0
 10
572.637867
 20
279.742683
 30
0.0
 10
571.650865
 20
279.199017
 30
0.0
  0
SPLINE
  5
328
100
AcDbEntity
  8
0
 62
7
100
AcDbSpline
 70
8
 71
3
 72
8
 73
4
 74
0
 40
0
 40
0
 40
0
 40
0
 40
1
 40
1
 40
1
 40
1
 10
571.650865
 20
279.199017
 30
0.0
 10
569.668819
 20
278.107214
 30
0.0
 10
569.533696
 20
277.667000
 30
0.0
 10
570.820973
 20
276.495293
 30
0.0
  0
SPLINE
  5
329
100
AcDbEntity
  8
0
 62
7
100
AcDbSpline
 70
8
 71
3
 72
8
 73
4
 74
0
 40
0
 40
0
 40
0
 40
0
 40
1
 40
1
 40
1
 40
1
 10
570.820973
 20
276.495293
 30
0.0
 10
571.173028
 20
276.174856
 30
0.0
 10
571.461053
 20
275.637170
 30
0.0
 10
571.461053
 20
275.300461
 30
0.0
  0
SPLINE
  5
32a
100
AcDbEntity
  8
0
 62
7
100
AcDbSpline
 70
8
 71
3
 72
8
 73
4
 74
0
 40
0
 40
0
 40
0
 40
0
 40
1
 40
1
 40
1
 40
1
 10
571.461053
 20
275.300461
 30
0.0
 10
571.461053
 20
274.603946
 30
0.0
 10
569.497289
 20
271.102000
 30
0.0
 10
568.926663
 20
270.780902
 30
0.0
  0
SPLINE
  5
32b
100
AcDbEntity
  8
0
 62
7
100
AcDbSpline
 70
8
 71
3
 72
8
 73
4
 74
0
 40
0
 40
0
 40
0
 40
0
 40
1
 40
1
 40
1
 40
1
 10
568.926663
 20
270.780902
 30
0.0
 10
568.402073
 20
270.485732
 30
0.0
 10
568.457080
 20
269.720531
 30
0.0
 10
569.112374
 20
268.197272
 30
0.0
  0
SPLINE
  5
32c
100
AcDbEntity
  8
0
 62
7
100
AcDbSpline
 70
8
 71
3
 72
8
 73
4
 74
0
 40
0
 40
0
 40
0
 40
0
 40
1
 40
1
 40
1
 40
1
 10
569.112374
 20
268.197272
 30
0.0
 10
569.785500
 20
266.632579
 30
0.0
 10
570.582848
 20
266.403026
 30
0.0
 10
570.842114
 20
267.699300
 30
0.0
  0
SPLINE
  5
32d
100
AcDbEntity
  8
0
 62
7
100
AcDbSpline
 70
8
 71
3
 72
8
 73
4
 74
0
 40
0
 40
0
 40
0
 40
0
 40
1
 40
1
 40
1
 40
1
 10
570.842114
 20
267.699300
 30
0.0
 10
570.978744
 20
268.382454
 30
0.0
 10
571.110454
 20
268.494769
 30
0.0
 10
571.695395
 20
268.426904
 30
0.0
  0
LWPOLYLINE
  5
32e
100
AcDbEntity
  8
0
 62
7
100
AcDbPolyline
 90
3
 70
0
 10
594.612095
 20
283.268256
 30
0.0
 10
590.378762
 20
284.326536
 30
0.0
 10
586.145428
 20
283.704475
 30
0.0
  0
SPLINE
  5
32f
100
AcDbEntity
  8
0
 62
7
100
AcDbSpline
 70
8
 71
3
 72
8
 73
4
 74
0
 40
0
 40
0
 40
0
 40
0
 40
1
 40
1
 40
1
 40
1
 10
572.295576
 20
265.303947
 30
0.0
 10
572.191489
 20
261.843012
 30
0.0
 10
571.994533
 20
261.353533
 30
0.0
 10
570.373219
 20
260.526392
 30
0.0
  0
SPLINE
  5
330
100
AcDbEntity
  8
0
 62
7
100
AcDbSpline
 70
8
 71
3
 72
8
 73
4
 74
0
 40
0
 40
0
 40
0
 40
0
 40
1
 40
1
 40
1
 40
1
 10
570.373219
 20
260.526392
 30
0.0
 10
569.779150
 20
260.223339
 30
0.0
 10
569.351107
 20
259.917348
 30
0.0
 10
569.422015
 20
259.846440
 30
0.0
  0
SPLINE
  5
331
100
AcDbEntity
  8
0
 62
7
100
AcDbSpline
 70
8
 71
3
 72
8
 73
4
 74
0
 40
0
 40
0
 40
0
 40
0
 40
1
 40
1
 40
1
 40
1
 10
569.422015
 20
259.846440
 30
0.0
 10
569.492924
 20
259.775558
 30
0.0
 10
570.476909
 20
259.892371
 30
0.0
 10
571.608691
 20
260.106075
 30
0.0
  0
SPLINE
  5
332
100
AcDbEntity
  8
0
 62
7
100
AcDbSpline
 70
8
 71
3
 72
8
 73
4
 74
0
 40
0
 40
0
 40
0
 40
0
 40
1
 40
1
 40
1
 40
1
 10
571.608691
 20
260.106075
 30
0.0
 10
573.867994
 20
260.532690
 30
0.0
 10
575.081532
 20
260.336183
 30
0.0
 10
574.795253
 20
259.590085
 30
0.0
  0
SPLINE
  5
333
100
AcDbEntity
  8
0
 62
7
100
AcDbSpline
 70
8
 71
3
 72
8
 73
4
 74
0
 40
0
 40
0
 40
0
 40
0
 40
1
 40
1
 40
1
 40
1
 10
574.795253
 20
259.590085
 30
0.0
 10
574.707676
 20
259.361935
 30
0.0
 10
574.636053
 20
259.057135
 30
0.0
 10
574.636053
 20
258.912778
 30
0.0
  0
SPLINE
  5
334
100
AcDbEntity
  8
0
 62
7
100
AcDbSpline
 70
8
 71
3
 72
8
 73
4
 74
0
 40
0
 40
0
 40
0
 40
0
 40
1
 40
1
 40
1
 40
1
 10
574.636053
 20
258.912778
 30
0.0
 10
574.636053
 20
258.768448
 30
0.0
 10
573.481597
 20
257.529166
 30
0.0
 10
572.070600
 20
256.158836
 30
0.0
  0
LWPOLYLINE
  5
335
100
AcDbEntity
  8
0
 62
7
100
AcDbPolyline
 90
3
 70
0
 10
571.695395
 20
268.426904
 30
0.0
 10
572.387095
 20
268.346656
 30
0.0
 10
572.295576
 20
265.303947
 30
0.0
  0
SPLINE
  5
336
100
AcDbEntity
  8
0
 62
7
100
AcDbSpline
 70
8
 71
3
 72
8
 73
4
 74
0
 40
0
 40
0
 40
0
 40
0
 40
1
 40
1
 40
1
 40
1
 10
570.275376
 20
252.863345
 30
0.0
 10
570.699027
 20
252.421173
 30
0.0
 10
571.711243
 20
251.628402
 30
0.0
 10
572.524731
 20
251.101696
 30
0.0
  0
SPLINE
  5
337
100
AcDbEntity
  8
0
 62
7
100
AcDbSpline
 70
8
 71
3
 72
8
 73
4
 74
0
 40
0
 40
0
 40
0
 40
0
 40
1
 40
1
 40
1
 40
1
 10
572.524731
 20
251.101696
 30
0.0
 10
573.874953
 20
250.227433
 30
0.0
 10
574.056219
 20
249.991848
 30
0.0
 10
574.605282
 20
248.397416
 30
0.0
  0
SPLINE
  5
338
100
AcDbEntity
  8
0
 62
7
100
AcDbSpline
 70
8
 71
3
 72
8
 73
4
 74
0
 40
0
 40
0
 40
0
 40
0
 40
1
 40
1
 40
1
 40
1
 10
574.605282
 20
248.397416
 30
0.0
 10
574.936091
 20
247.436793
 30
0.0
 10
575.561963
 20
246.202142
 30
0.0
 10
575.996117
 20
245.653740
 30
0.0
  0
SPLINE
  5
339
100
AcDbEntity
  8
0
 62
7
100
AcDbSpline
 70
8
 71
3
 72
8
 73
4
 74
0
 40
0
 40
0
 40
0
 40
0
 40
1
 40
1
 40
1
 40
1
 10
575.996117
 20
245.653740
 30
0.0
 10
576.578121
 20
244.918648
 30
0.0
 10
576.763833
 20
244.432026
 30
0.0
 10
576.702978
 20
243.801657
 30
0.0
  0
LWPOLYLINE
  5
33a
100
AcDbEntity
  8
0
 62
7
100
AcDbPolyline
 90
3
 70
0
 10
572.070600
 20
256.158836
 30
0.0
 10
569.505121
 20
253.667334
 30
0.0
 10
570.275376
 20
252.863345
 30
0.0
  0
SPLINE
  5
33b
100
AcDbEntity
  8
0
 62
7
100
AcDbSpline
 70
8
 71
3
 72
8
 73
4
 74
0
 40
0
 40
0
 40
0
 40
0
 40
1
 40
1
 40
1
 40
1
 10
574.700691
 20
242.868895
 30
0.0
 10
572.323119
 20
242.772560
 30
0.0
 10
572.007762
 20
242.418336
 30
0.0
 10
571.918677
 20
239.743716
 30
0.0
  0
LWPOLYLINE
  5
33c
100
AcDbEntity
  8
0
 62
7
100
AcDbPolyline
 90
3
 70
0
 10
576.702978
 20
243.801657
 30
0.0
 10
576.620428
 20
242.946656
 30
0.0
 10
574.700691
 20
242.868895
 30
0.0
  0
SPLINE
  5
33d
100
AcDbEntity
  8
0
 62
7
100
AcDbSpline
 70
8
 71
3
 72
8
 73
4
 74
0
 40
0
 40
0
 40
0
 40
0
 40
1
 40
1
 40
1
 40
1
 10
572.651678
 20
237.854908
 30
0.0
 10
573.671488
 20
237.771802
 30
0.0
 10
574.501989
 20
238.475303
 30
0.0
 10
575.171861
 20
239.989646
 30
0.0
  0
SPLINE
  5
33e
100
AcDbEntity
  8
0
 62
7
100
AcDbSpline
 70
8
 71
3
 72
8
 73
4
 74
0
 40
0
 40
0
 40
0
 40
0
 40
1
 40
1
 40
1
 40
1
 10
575.171861
 20
239.989646
 30
0.0
 10
575.673379
 20
241.123385
 30
0.0
 10
576.098538
 20
241.491447
 30
0.0
 10
576.906655
 20
241.491447
 30
0.0
  0
SPLINE
  5
33f
100
AcDbEntity
  8
0
 62
7
100
AcDbSpline
 70
8
 71
3
 72
8
 73
4
 74
0
 40
0
 40
0
 40
0
 40
0
 40
1
 40
1
 40
1
 40
1
 10
576.906655
 20
241.491447
 30
0.0
 10
577.481726
 20
241.491447
 30
0.0
 10
577.444949
 20
237.111058
 30
0.0
 10
576.867126
 20
236.787711
 30
0.0
  0
SPLINE
  5
340
100
AcDbEntity
  8
0
 62
7
100
AcDbSpline
 70
8
 71
3
 72
8
 73
4
 74
0
 40
0
 40
0
 40
0
 40
0
 40
1
 40
1
 40
1
 40
1
 10
576.867126
 20
236.787711
 30
0.0
 10
576.639029
 20
236.660050
 30
0.0
 10
576.334467
 20
236.030818
 30
0.0
 10
576.190375
 20
235.389415
 30
0.0
  0
SPLINE
  5
341
100
AcDbEntity
  8
0
 62
7
100
AcDbSpline
 70
8
 71
3
 72
8
 73
4
 74
0
 40
0
 40
0
 40
0
 40
0
 40
1
 40
1
 40
1
 40
1
 10
576.190375
 20
235.389415
 30
0.0
 10
576.046256
 20
234.748012
 30
0.0
 10
575.748864
 20
234.024906
 30
0.0
 10
575.529525
 20
233.782521
 30
0.0
  0
SPLINE
  5
342
100
AcDbEntity
  8
0
 62
7
100
AcDbSpline
 70
8
 71
3
 72
8
 73
4
 74
0
 40
0
 40
0
 40
0
 40
0
 40
1
 40
1
 40
1
 40
1
 10
575.529525
 20
233.782521
 30
0.0
 10
575.205781
 20
233.424804
 30
0.0
 10
575.183926
 20
233.144161
 30
0.0
 10
575.413426
 20
232.291805
 30
0.0
  0
SPLINE
  5
343
100
AcDbEntity
  8
0
 62
7
100
AcDbSpline
 70
8
 71
3
 72
8
 73
4
 74
0
 40
0
 40
0
 40
0
 40
0
 40
1
 40
1
 40
1
 40
1
 10
575.413426
 20
232.291805
 30
0.0
 10
576.116397
 20
229.681241
 30
0.0
 10
578.399540
 20
228.458601
 30
0.0
 10
580.926496
 20
229.339505
 30
0.0
  0
SPLINE
  5
344
100
AcDbEntity
  8
0
 62
7
100
AcDbSpline
 70
8
 71
3
 72
8
 73
4
 74
0
 40
0
 40
0
 40
0
 40
0
 40
1
 40
1
 40
1
 40
1
 10
580.926496
 20
229.339505
 30
0.0
 10
581.593907
 20
229.572153
 30
0.0
 10
581.771151
 20
229.809326
 30
0.0
 10
581.915296
 20
230.662422
 30
0.0
  0
SPLINE
  5
345
100
AcDbEntity
  8
0
 62
7
100
AcDbSpline
 70
8
 71
3
 72
8
 73
4
 74
0
 40
0
 40
0
 40
0
 40
0
 40
1
 40
1
 40
1
 40
1
 10
581.915296
 20
230.662422
 30
0.0
 10
582.104791
 20
231.784149
 30
0.0
 10
582.557361
 20
232.078048
 30
0.0
 10
582.599191
 20
231.106551
 30
0.0
  0
SPLINE
  5
346
100
AcDbEntity
  8
0
 62
7
100
AcDbSpline
 70
8
 71
3
 72
8
 73
4
 74
0
 40
0
 40
0
 40
0
 40
0
 40
1
 40
1
 40
1
 40
1
 10
582.599191
 20
231.106551
 30
0.0
 10
582.649356
 20
229.941697
 30
0.0
 10
582.540031
 20
228.372321
 30
0.0
 10
582.300980
 20
226.825699
 30
0.0
  0
SPLINE
  5
347
100
AcDbEntity
  8
0
 62
7
100
AcDbSpline
 70
8
 71
3
 72
8
 73
4
 74
0
 40
0
 40
0
 40
0
 40
0
 40
1
 40
1
 40
1
 40
1
 10
582.300980
 20
226.825699
 30
0.0
 10
582.004249
 20
224.905962
 30
0.0
 10
582.272246
 20
224.439977
 30
0.0
 10
583.553464
 20
224.647887
 30
0.0
  0
SPLINE
  5
348
100
AcDbEntity
  8
0
 62
7
100
AcDbSpline
 70
8
 71
3
 72
8
 73
4
 74
0
 40
0
 40
0
 40
0
 40
0
 40
1
 40
1
 40
1
 40
1
 10
583.553464
 20
224.647887
 30
0.0
 10
584.334064
 20
224.774569
 30
0.0
 10
584.425637
 20
224.723717
 30
0.0
 10
584.425637
 20
224.163514
 30
0.0
  0
SPLINE
  5
349
100
AcDbEntity
  8
0
 62
7
100
AcDbSpline
 70
8
 71
3
 72
8
 73
4
 74
0
 40
0
 40
0
 40
0
 40
0
 40
1
 40
1
 40
1
 40
1
 10
584.425637
 20
224.163514
 30
0.0
 10
584.425637
 20
223.556904
 30
0.0
 10
583.815322
 20
222.706031
 30
0.0
 10
583.380215
 20
222.706031
 30
0.0
  0
SPLINE
  5
34a
100
AcDbEntity
  8
0
 62
7
100
AcDbSpline
 70
8
 71
3
 72
8
 73
4
 74
0
 40
0
 40
0
 40
0
 40
0
 40
1
 40
1
 40
1
 40
1
 10
583.380215
 20
222.706031
 30
0.0
 10
583.262581
 20
222.706031
 30
0.0
 10
583.228424
 20
221.396026
 30
0.0
 10
583.304333
 20
219.794926
 30
0.0
  0
LWPOLYLINE
  5
34b
100
AcDbEntity
  8
0
 62
7
100
AcDbPolyline
 90
3
 70
0
 10
571.918677
 20
239.743716
 30
0.0
 10
571.857928
 20
237.919572
 30
0.0
 10
572.651678
 20
237.854908
 30
0.0
  0
SPLINE
  5
34c
100
AcDbEntity
  8
0
 62
7
100
AcDbSpline
 70
8
 71
3
 72
8
 73
4
 74
0
 40
0
 40
0
 40
0
 40
0
 40
1
 40
1
 40
1
 40
1
 10
582.294206
 20
215.785615
 30
0.0
 10
582.625623
 20
215.517275
 30
0.0
 10
583.226624
 20
215.297697
 30
0.0
 10
583.629796
 20
215.297697
 30
0.0
  0
SPLINE
  5
34d
100
AcDbEntity
  8
0
 62
7
100
AcDbSpline
 70
8
 71
3
 72
8
 73
4
 74
0
 40
0
 40
0
 40
0
 40
0
 40
1
 40
1
 40
1
 40
1
 10
583.629796
 20
215.297697
 30
0.0
 10
584.276359
 20
215.297697
 30
0.0
 10
584.397723
 20
215.159056
 30
0.0
 10
584.658814
 20
214.122206
 30
0.0
  0
SPLINE
  5
34e
100
AcDbEntity
  8
0
 62
7
100
AcDbSpline
 70
8
 71
3
 72
8
 73
4
 74
0
 40
0
 40
0
 40
0
 40
0
 40
1
 40
1
 40
1
 40
1
 10
584.658814
 20
214.122206
 30
0.0
 10
585.234071
 20
211.837582
 30
0.0
 10
584.896621
 20
211.067221
 30
0.0
 10
583.318541
 20
211.062565
 30
0.0
  0
SPLINE
  5
34f
100
AcDbEntity
  8
0
 62
7
100
AcDbSpline
 70
8
 71
3
 72
8
 73
4
 74
0
 40
0
 40
0
 40
0
 40
0
 40
1
 40
1
 40
1
 40
1
 10
583.318541
 20
211.062565
 30
0.0
 10
582.919443
 20
211.062565
 30
0.0
 10
582.492326
 20
210.747155
 30
0.0
 10
582.093388
 20
210.161262
 30
0.0
  0
SPLINE
  5
350
100
AcDbEntity
  8
0
 62
7
100
AcDbSpline
 70
8
 71
3
 72
8
 73
4
 74
0
 40
0
 40
0
 40
0
 40
0
 40
1
 40
1
 40
1
 40
1
 10
582.093388
 20
210.161262
 30
0.0
 10
581.756520
 20
209.666544
 30
0.0
 10
581.115884
 20
209.084963
 30
0.0
 10
580.669744
 20
208.868904
 30
0.0
  0
LWPOLYLINE
  5
351
100
AcDbEntity
  8
0
 62
7
100
AcDbPolyline
 90
5
 70
0
 10
583.304333
 20
219.794926
 30
0.0
 10
583.442313
 20
216.883821
 30
0.0
 10
582.566992
 20
216.578677
 30
0.0
 10
581.691644
 20
216.273533
 30
0.0
 10
582.294206
 20
215.785615
 30
0.0
  0
SPLINE
  5
352
100
AcDbEntity
  8
0
 62
7
100
AcDbSpline
 70
8
 71
3
 72
8
 73
4
 74
0
 40
0
 40
0
 40
0
 40
0
 40
1
 40
1
 40
1
 40
1
 10
580.554597
 20
208.019989
 30
0.0
 10
581.040028
 20
207.701907
 30
0.0
 10
581.250637
 20
207.332945
 30
0.0
 10
581.250637
 20
206.800603
 30
0.0
  0
SPLINE
  5
353
100
AcDbEntity
  8
0
 62
7
100
AcDbSpline
 70
8
 71
3
 72
8
 73
4
 74
0
 40
0
 40
0
 40
0
 40
0
 40
1
 40
1
 40
1
 40
1
 10
581.250637
 20
206.800603
 30
0.0
 10
581.250637
 20
205.907979
 30
0.0
 10
581.312734
 20
205.927796
 30
0.0
 10
580.100810
 20
206.434156
 30
0.0
  0
SPLINE
  5
354
100
AcDbEntity
  8
0
 62
7
100
AcDbSpline
 70
8
 71
3
 72
8
 73
4
 74
0
 40
0
 40
0
 40
0
 40
0
 40
1
 40
1
 40
1
 40
1
 10
580.100810
 20
206.434156
 30
0.0
 10
578.873064
 20
206.947130
 30
0.0
 10
578.526354
 20
206.934271
 30
0.0
 10
577.803460
 20
206.348933
 30
0.0
  0
SPLINE
  5
355
100
AcDbEntity
  8
0
 62
7
100
AcDbSpline
 70
8
 71
3
 72
8
 73
4
 74
0
 40
0
 40
0
 40
0
 40
0
 40
1
 40
1
 40
1
 40
1
 10
577.803460
 20
206.348933
 30
0.0
 10
577.211799
 20
205.869826
 30
0.0
 10
577.210925
 20
205.858316
 30
0.0
 10
577.663125
 20
204.496850
 30
0.0
  0
SPLINE
  5
356
100
AcDbEntity
  8
0
 62
7
100
AcDbSpline
 70
8
 71
3
 72
8
 73
4
 74
0
 40
0
 40
0
 40
0
 40
0
 40
1
 40
1
 40
1
 40
1
 10
577.663125
 20
204.496850
 30
0.0
 10
577.913394
 20
203.743343
 30
0.0
 10
578.160383
 20
203.126864
 30
0.0
 10
578.211976
 20
203.126864
 30
0.0
  0
SPLINE
  5
357
100
AcDbEntity
  8
0
 62
7
100
AcDbSpline
 70
8
 71
3
 72
8
 73
4
 74
0
 40
0
 40
0
 40
0
 40
0
 40
1
 40
1
 40
1
 40
1
 10
578.211976
 20
203.126864
 30
0.0
 10
578.263570
 20
203.126864
 30
0.0
 10
578.604856
 20
203.240582
 30
0.0
 10
578.970405
 20
203.379541
 30
0.0
  0
SPLINE
  5
358
100
AcDbEntity
  8
0
 62
7
100
AcDbSpline
 70
8
 71
3
 72
8
 73
4
 74
0
 40
0
 40
0
 40
0
 40
0
 40
1
 40
1
 40
1
 40
1
 10
578.970405
 20
203.379541
 30
0.0
 10
579.523886
 20
203.589991
 30
0.0
 10
579.662475
 20
203.545726
 30
0.0
 10
579.799212
 20
203.114958
 30
0.0
  0
SPLINE
  5
359
100
AcDbEntity
  8
0
 62
7
100
AcDbSpline
 70
8
 71
3
 72
8
 73
4
 74
0
 40
0
 40
0
 40
0
 40
0
 40
1
 40
1
 40
1
 40
1
 10
579.799212
 20
203.114958
 30
0.0
 10
580.017837
 20
202.426115
 30
0.0
 10
581.518051
 20
202.430481
 30
0.0
 10
583.047025
 20
203.124483
 30
0.0
  0
LWPOLYLINE
  5
35a
100
AcDbEntity
  8
0
 62
7
100
AcDbPolyline
 90
3
 70
0
 10
580.669744
 20
208.868904
 30
0.0
 10
579.858584
 20
208.476051
 30
0.0
 10
580.554597
 20
208.019989
 30
0.0
  0
SPLINE
  5
35b
100
AcDbEntity
  8
0
 62
7
100
AcDbSpline
 70
8
 71
3
 72
8
 73
4
 74
0
 40
0
 40
0
 40
0
 40
0
 40
1
 40
1
 40
1
 40
1
 10
584.008574
 20
202.655641
 30
0.0
 10
583.913218
 20
202.114489
 30
0.0
 10
583.551348
 20
200.947994
 30
0.0
 10
583.204373
 20
200.063465
 30
0.0
  0
SPLINE
  5
35c
100
AcDbEntity
  8
0
 62
7
100
AcDbSpline
 70
8
 71
3
 72
8
 73
4
 74
0
 40
0
 40
0
 40
0
 40
0
 40
1
 40
1
 40
1
 40
1
 10
583.204373
 20
200.063465
 30
0.0
 10
582.857425
 20
199.178910
 30
0.0
 10
582.573553
 20
198.215747
 30
0.0
 10
582.573553
 20
197.923118
 30
0.0
  0
SPLINE
  5
35d
100
AcDbEntity
  8
0
 62
7
100
AcDbSpline
 70
8
 71
3
 72
8
 73
4
 74
0
 40
0
 40
0
 40
0
 40
0
 40
1
 40
1
 40
1
 40
1
 10
582.573553
 20
197.923118
 30
0.0
 10
582.573553
 20
196.738182
 30
0.0
 10
585.679735
 20
196.307149
 30
0.0
 10
586.543256
 20
197.372229
 30
0.0
  0
SPLINE
  5
35e
100
AcDbEntity
  8
0
 62
7
100
AcDbSpline
 70
8
 71
3
 72
8
 73
4
 74
0
 40
0
 40
0
 40
0
 40
0
 40
1
 40
1
 40
1
 40
1
 10
586.543256
 20
197.372229
 30
0.0
 10
586.808712
 20
197.699651
 30
0.0
 10
587.104014
 20
197.889781
 30
0.0
 10
587.199449
 20
197.794742
 30
0.0
  0
SPLINE
  5
35f
100
AcDbEntity
  8
0
 62
7
100
AcDbSpline
 70
8
 71
3
 72
8
 73
4
 74
0
 40
0
 40
0
 40
0
 40
0
 40
1
 40
1
 40
1
 40
1
 10
587.199449
 20
197.794742
 30
0.0
 10
587.294884
 20
197.699704
 30
0.0
 10
587.440405
 20
196.730456
 30
0.0
 10
587.522823
 20
195.640849
 30
0.0
  0
LWPOLYLINE
  5
360
100
AcDbEntity
  8
0
 62
7
100
AcDbPolyline
 90
3
 70
0
 10
583.047025
 20
203.124483
 30
0.0
 10
584.181929
 20
203.639573
 30
0.0
 10
584.008574
 20
202.655641
 30
0.0
  0
SPLINE
  5
361
100
AcDbEntity
  8
0
 62
7
100
AcDbSpline
 70
8
 71
3
 72
8
 73
4
 74
0
 40
0
 40
0
 40
0
 40
0
 40
1
 40
1
 40
1
 40
1
 10
586.873244
 20
193.484204
 30
0.0
 10
586.203769
 20
193.337175
 30
0.0
 10
586.020360
 20
193.117518
 30
0.0
 10
585.744532
 20
192.132368
 30
0.0
  0
SPLINE
  5
362
100
AcDbEntity
  8
0
 62
7
100
AcDbSpline
 70
8
 71
3
 72
8
 73
4
 74
0
 40
0
 40
0
 40
0
 40
0
 40
1
 40
1
 40
1
 40
1
 10
585.744532
 20
192.132368
 30
0.0
 10
585.428355
 20
191.003126
 30
0.0
 10
585.374776
 20
190.956083
 30
0.0
 10
584.404391
 20
190.956083
 30
0.0
  0
SPLINE
  5
363
100
AcDbEntity
  8
0
 62
7
100
AcDbSpline
 70
8
 71
3
 72
8
 73
4
 74
0
 40
0
 40
0
 40
0
 40
0
 40
1
 40
1
 40
1
 40
1
 10
584.404391
 20
190.956083
 30
0.0
 10
583.761903
 20
190.956083
 30
0.0
 10
583.309069
 20
191.107134
 30
0.0
 10
583.161643
 20
191.370580
 30
0.0
  0
SPLINE
  5
364
100
AcDbEntity
  8
0
 62
7
100
AcDbSpline
 70
8
 71
3
 72
8
 73
4
 74
0
 40
0
 40
0
 40
0
 40
0
 40
1
 40
1
 40
1
 40
1
 10
583.161643
 20
191.370580
 30
0.0
 10
582.974265
 20
191.705383
 30
0.0
 10
582.723757
 20
191.514592
 30
0.0
 10
581.858729
 20
190.378392
 30
0.0
  0
SPLINE
  5
365
100
AcDbEntity
  8
0
 62
7
100
AcDbSpline
 70
8
 71
3
 72
8
 73
4
 74
0
 40
0
 40
0
 40
0
 40
0
 40
1
 40
1
 40
1
 40
1
 10
581.858729
 20
190.378392
 30
0.0
 10
581.269713
 20
189.604724
 30
0.0
 10
580.644847
 20
188.694901
 30
0.0
 10
580.470142
 20
188.356605
 30
0.0
  0
SPLINE
  5
366
100
AcDbEntity
  8
0
 62
7
100
AcDbSpline
 70
8
 71
3
 72
8
 73
4
 74
0
 40
0
 40
0
 40
0
 40
0
 40
1
 40
1
 40
1
 40
1
 10
580.470142
 20
188.356605
 30
0.0
 10
580.065065
 20
187.572168
 30
0.0
 10
580.353382
 20
185.664417
 30
0.0
 10
580.877019
 20
185.664417
 30
0.0
  0
SPLINE
  5
367
100
AcDbEntity
  8
0
 62
7
100
AcDbSpline
 70
8
 71
3
 72
8
 73
4
 74
0
 40
0
 40
0
 40
0
 40
0
 40
1
 40
1
 40
1
 40
1
 10
580.877019
 20
185.664417
 30
0.0
 10
581.153508
 20
185.664417
 30
0.0
 10
581.250637
 20
185.286089
 30
0.0
 10
581.250637
 20
184.209208
 30
0.0
  0
SPLINE
  5
368
100
AcDbEntity
  8
0
 62
7
100
AcDbSpline
 70
8
 71
3
 72
8
 73
4
 74
0
 40
0
 40
0
 40
0
 40
0
 40
1
 40
1
 40
1
 40
1
 10
581.250637
 20
184.209208
 30
0.0
 10
581.250637
 20
182.877693
 30
0.0
 10
581.200022
 20
182.753656
 30
0.0
 10
580.655324
 20
182.749952
 30
0.0
  0
SPLINE
  5
369
100
AcDbEntity
  8
0
 62
7
100
AcDbSpline
 70
8
 71
3
 72
8
 73
4
 74
0
 40
0
 40
0
 40
0
 40
0
 40
1
 40
1
 40
1
 40
1
 10
580.655324
 20
182.749952
 30
0.0
 10
579.806911
 20
182.744131
 30
0.0
 10
579.331323
 20
182.372497
 30
0.0
 10
579.441336
 20
181.801236
 30
0.0
  0
SPLINE
  5
36a
100
AcDbEntity
  8
0
 62
7
100
AcDbSpline
 70
8
 71
3
 72
8
 73
4
 74
0
 40
0
 40
0
 40
0
 40
0
 40
1
 40
1
 40
1
 40
1
 10
579.441336
 20
181.801236
 30
0.0
 10
579.505498
 20
181.467966
 30
0.0
 10
580.105441
 20
181.098476
 30
0.0
 10
581.296912
 20
180.658394
 30
0.0
  0
SPLINE
  5
36b
100
AcDbEntity
  8
0
 62
7
100
AcDbSpline
 70
8
 71
3
 72
8
 73
4
 74
0
 40
0
 40
0
 40
0
 40
0
 40
1
 40
1
 40
1
 40
1
 10
581.296912
 20
180.658394
 30
0.0
 10
583.057053
 20
180.008234
 30
0.0
 10
583.057714
 20
180.007599
 30
0.0
 10
583.237658
 20
178.801310
 30
0.0
  0
SPLINE
  5
36c
100
AcDbEntity
  8
0
 62
7
100
AcDbSpline
 70
8
 71
3
 72
8
 73
4
 74
0
 40
0
 40
0
 40
0
 40
0
 40
1
 40
1
 40
1
 40
1
 10
583.237658
 20
178.801310
 30
0.0
 10
583.336665
 20
178.137630
 30
0.0
 10
583.594316
 20
177.177906
 30
0.0
 10
583.810242
 20
176.668583
 30
0.0
  0
SPLINE
  5
36d
100
AcDbEntity
  8
0
 62
7
100
AcDbSpline
 70
8
 71
3
 72
8
 73
4
 74
0
 40
0
 40
0
 40
0
 40
0
 40
1
 40
1
 40
1
 40
1
 10
583.810242
 20
176.668583
 30
0.0
 10
584.288000
 20
175.541591
 30
0.0
 10
584.109513
 20
173.401879
 30
0.0
 10
583.354709
 20
171.208033
 30
0.0
  0
SPLINE
  5
36e
100
AcDbEntity
  8
0
 62
7
100
AcDbSpline
 70
8
 71
3
 72
8
 73
4
 74
0
 40
0
 40
0
 40
0
 40
0
 40
1
 40
1
 40
1
 40
1
 10
583.354709
 20
171.208033
 30
0.0
 10
582.738151
 20
169.416010
 30
0.0
 10
582.747067
 20
169.524833
 30
0.0
 10
583.217179
 20
169.524833
 30
0.0
  0
SPLINE
  5
36f
100
AcDbEntity
  8
0
 62
7
100
AcDbSpline
 70
8
 71
3
 72
8
 73
4
 74
0
 40
0
 40
0
 40
0
 40
0
 40
1
 40
1
 40
1
 40
1
 10
583.217179
 20
169.524833
 30
0.0
 10
583.425644
 20
169.524833
 30
0.0
 10
583.671812
 20
169.762958
 30
0.0
 10
583.764178
 20
170.054000
 30
0.0
  0
SPLINE
  5
370
100
AcDbEntity
  8
0
 62
7
100
AcDbSpline
 70
8
 71
3
 72
8
 73
4
 74
0
 40
0
 40
0
 40
0
 40
0
 40
1
 40
1
 40
1
 40
1
 10
583.764178
 20
170.054000
 30
0.0
 10
583.856544
 20
170.345042
 30
0.0
 10
584.043181
 20
170.583167
 30
0.0
 10
584.178886
 20
170.583167
 30
0.0
  0
SPLINE
  5
371
100
AcDbEntity
  8
0
 62
7
100
AcDbSpline
 70
8
 71
3
 72
8
 73
4
 74
0
 40
0
 40
0
 40
0
 40
0
 40
1
 40
1
 40
1
 40
1
 10
584.178886
 20
170.583167
 30
0.0
 10
584.490248
 20
170.583167
 30
0.0
 10
584.485909
 20
169.442416
 30
0.0
 10
584.169361
 20
168.077060
 30
0.0
  0
SPLINE
  5
372
100
AcDbEntity
  8
0
 62
7
100
AcDbSpline
 70
8
 71
3
 72
8
 73
4
 74
0
 40
0
 40
0
 40
0
 40
0
 40
1
 40
1
 40
1
 40
1
 10
584.169361
 20
168.077060
 30
0.0
 10
584.035350
 20
167.499051
 30
0.0
 10
583.973120
 20
166.978748
 30
0.0
 10
584.031037
 20
166.920831
 30
0.0
  0
SPLINE
  5
373
100
AcDbEntity
  8
0
 62
7
100
AcDbSpline
 70
8
 71
3
 72
8
 73
4
 74
0
 40
0
 40
0
 40
0
 40
0
 40
1
 40
1
 40
1
 40
1
 10
584.031037
 20
166.920831
 30
0.0
 10
584.088981
 20
166.862887
 30
0.0
 10
584.545308
 20
166.892203
 30
0.0
 10
585.045106
 20
166.985971
 30
0.0
  0
SPLINE
  5
374
100
AcDbEntity
  8
0
 62
7
100
AcDbSpline
 70
8
 71
3
 72
8
 73
4
 74
0
 40
0
 40
0
 40
0
 40
0
 40
1
 40
1
 40
1
 40
1
 10
585.045106
 20
166.985971
 30
0.0
 10
586.357095
 20
167.232087
 30
0.0
 10
587.242973
 20
168.272217
 30
0.0
 10
587.913295
 20
170.353535
 30
0.0
  0
SPLINE
  5
375
100
AcDbEntity
  8
0
 62
7
100
AcDbSpline
 70
8
 71
3
 72
8
 73
4
 74
0
 40
0
 40
0
 40
0
 40
0
 40
1
 40
1
 40
1
 40
1
 10
587.913295
 20
170.353535
 30
0.0
 10
588.236695
 20
171.357629
 30
0.0
 10
588.626056
 20
172.137647
 30
0.0
 10
588.778562
 20
172.086926
 30
0.0
  0
SPLINE
  5
376
100
AcDbEntity
  8
0
 62
7
100
AcDbSpline
 70
8
 71
3
 72
8
 73
4
 74
0
 40
0
 40
0
 40
0
 40
0
 40
1
 40
1
 40
1
 40
1
 10
588.778562
 20
172.086926
 30
0.0
 10
589.532386
 20
171.836260
 30
0.0
 10
589.629382
 20
167.273044
 30
0.0
 10
588.937074
 20
164.630042
 30
0.0
  0
SPLINE
  5
377
100
AcDbEntity
  8
0
 62
7
100
AcDbSpline
 70
8
 71
3
 72
8
 73
4
 74
0
 40
0
 40
0
 40
0
 40
0
 40
1
 40
1
 40
1
 40
1
 10
588.937074
 20
164.630042
 30
0.0
 10
588.670241
 20
163.611396
 30
0.0
 10
588.515698
 20
162.672231
 30
0.0
 10
588.593618
 20
162.543035
 30
0.0
  0
SPLINE
  5
378
100
AcDbEntity
  8
0
 62
7
100
AcDbSpline
 70
8
 71
3
 72
8
 73
4
 74
0
 40
0
 40
0
 40
0
 40
0
 40
1
 40
1
 40
1
 40
1
 10
588.593618
 20
162.543035
 30
0.0
 10
588.735620
 20
162.307582
 30
0.0
 10
593.508571
 20
162.517635
 30
0.0
 10
595.057865
 20
162.827436
 30
0.0
  0
LWPOLYLINE
  5
379
100
AcDbEntity
  8
0
 62
7
100
AcDbPolyline
 90
3
 70
0
 10
587.522823
 20
195.640849
 30
0.0
 10
587.672630
 20
193.659781
 30
0.0
 10
586.873244
 20
193.484204
 30
0.0
  0
SPLINE
  5
37a
100
AcDbEntity
  8
0
 62
7
100
AcDbSpline
 70
8
 71
3
 72
8
 73
4
 74
0
 40
0
 40
0
 40
0
 40
0
 40
1
 40
1
 40
1
 40
1
 10
595.696596
 20
161.693775
 30
0.0
 10
595.598541
 20
160.980379
 30
0.0
 10
595.452809
 20
159.911383
 30
0.0
 10
595.372772
 20
159.318240
 30
0.0
  0
SPLINE
  5
37b
100
AcDbEntity
  8
0
 62
7
100
AcDbSpline
 70
8
 71
3
 72
8
 73
4
 74
0
 40
0
 40
0
 40
0
 40
0
 40
1
 40
1
 40
1
 40
1
 10
595.372772
 20
159.318240
 30
0.0
 10
595.264134
 20
158.512933
 30
0.0
 10
594.908508
 20
157.893041
 30
0.0
 10
593.968761
 20
156.870850
 30
0.0
  0
SPLINE
  5
37c
100
AcDbEntity
  8
0
 62
7
100
AcDbSpline
 70
8
 71
3
 72
8
 73
4
 74
0
 40
0
 40
0
 40
0
 40
0
 40
1
 40
1
 40
1
 40
1
 10
593.968761
 20
156.870850
 30
0.0
 10
592.630075
 20
155.414742
 30
0.0
 10
591.851009
 20
155.165055
 30
0.0
 10
591.012941
 20
155.923483
 30
0.0
  0
SPLINE
  5
37d
100
AcDbEntity
  8
0
 62
7
100
AcDbSpline
 70
8
 71
3
 72
8
 73
4
 74
0
 40
0
 40
0
 40
0
 40
0
 40
1
 40
1
 40
1
 40
1
 10
591.012941
 20
155.923483
 30
0.0
 10
590.577861
 20
156.317236
 30
0.0
 10
590.525817
 20
156.274003
 30
0.0
 10
590.224801
 20
155.269327
 30
0.0
  0
SPLINE
  5
37e
100
AcDbEntity
  8
0
 62
7
100
AcDbSpline
 70
8
 71
3
 72
8
 73
4
 74
0
 40
0
 40
0
 40
0
 40
0
 40
1
 40
1
 40
1
 40
1
 10
590.224801
 20
155.269327
 30
0.0
 10
589.928018
 20
154.278753
 30
0.0
 10
589.551886
 20
153.748158
 30
0.0
 10
588.581712
 20
152.951339
 30
0.0
  0
SPLINE
  5
37f
100
AcDbEntity
  8
0
 62
7
100
AcDbSpline
 70
8
 71
3
 72
8
 73
4
 74
0
 40
0
 40
0
 40
0
 40
0
 40
1
 40
1
 40
1
 40
1
 10
588.581712
 20
152.951339
 30
0.0
 10
588.379729
 20
152.785445
 30
0.0
 10
588.062070
 20
151.931582
 30
0.0
 10
587.875803
 20
151.053826
 30
0.0
  0
SPLINE
  5
380
100
AcDbEntity
  8
0
 62
7
100
AcDbSpline
 70
8
 71
3
 72
8
 73
4
 74
0
 40
0
 40
0
 40
0
 40
0
 40
1
 40
1
 40
1
 40
1
 10
587.875803
 20
151.053826
 30
0.0
 10
587.592329
 20
149.718077
 30
0.0
 10
587.432018
 20
149.431560
 30
0.0
 10
586.892400
 20
149.296120
 30
0.0
  0
SPLINE
  5
381
100
AcDbEntity
  8
0
 62
7
100
AcDbSpline
 70
8
 71
3
 72
8
 73
4
 74
0
 40
0
 40
0
 40
0
 40
0
 40
1
 40
1
 40
1
 40
1
 10
586.892400
 20
149.296120
 30
0.0
 10
586.373261
 20
149.165813
 30
0.0
 10
586.281874
 20
149.020054
 30
0.0
 10
586.423373
 20
148.547799
 30
0.0
  0
SPLINE
  5
382
100
AcDbEntity
  8
0
 62
7
100
AcDbSpline
 70
8
 71
3
 72
8
 73
4
 74
0
 40
0
 40
0
 40
0
 40
0
 40
1
 40
1
 40
1
 40
1
 10
586.423373
 20
148.547799
 30
0.0
 10
586.756589
 20
147.435596
 30
0.0
 10
587.202359
 20
147.180247
 30
0.0
 10
588.135730
 20
147.566883
 30
0.0
  0
SPLINE
  5
383
100
AcDbEntity
  8
0
 62
7
100
AcDbSpline
 70
8
 71
3
 72
8
 73
4
 74
0
 40
0
 40
0
 40
0
 40
0
 40
1
 40
1
 40
1
 40
1
 10
588.135730
 20
147.566883
 30
0.0
 10
588.917494
 20
147.890706
 30
0.0
 10
588.964379
 20
147.985798
 30
0.0
 10
588.877913
 20
149.072865
 30
0.0
  0
SPLINE
  5
384
100
AcDbEntity
  8
0
 62
7
100
AcDbSpline
 70
8
 71
3
 72
8
 73
4
 74
0
 40
0
 40
0
 40
0
 40
0
 40
1
 40
1
 40
1
 40
1
 10
588.877913
 20
149.072865
 30
0.0
 10
588.790124
 20
150.176442
 30
0.0
 10
588.818090
 20
150.229385
 30
0.0
 10
589.449889
 20
150.155566
 30
0.0
  0
SPLINE
  5
385
100
AcDbEntity
  8
0
 62
7
100
AcDbSpline
 70
8
 71
3
 72
8
 73
4
 74
0
 40
0
 40
0
 40
0
 40
0
 40
1
 40
1
 40
1
 40
1
 10
589.449889
 20
150.155566
 30
0.0
 10
590.112300
 20
150.078175
 30
0.0
 10
590.114390
 20
150.069127
 30
0.0
 10
590.188738
 20
146.967443
 30
0.0
  0
SPLINE
  5
386
100
AcDbEntity
  8
0
 62
7
100
AcDbSpline
 70
8
 71
3
 72
8
 73
4
 74
0
 40
0
 40
0
 40
0
 40
0
 40
1
 40
1
 40
1
 40
1
 10
590.188738
 20
146.967443
 30
0.0
 10
590.264012
 20
143.826521
 30
0.0
 10
590.051208
 20
142.801922
 30
0.0
 10
589.323550
 20
142.801922
 30
0.0
  0
SPLINE
  5
387
100
AcDbEntity
  8
0
 62
7
100
AcDbSpline
 70
8
 71
3
 72
8
 73
4
 74
0
 40
0
 40
0
 40
0
 40
0
 40
1
 40
1
 40
1
 40
1
 10
589.323550
 20
142.801922
 30
0.0
 10
588.993112
 20
142.801922
 30
0.0
 10
588.399943
 20
141.343301
 30
0.0
 10
588.395868
 20
140.520632
 30
0.0
  0
SPLINE
  5
388
100
AcDbEntity
  8
0
 62
7
100
AcDbSpline
 70
8
 71
3
 72
8
 73
4
 74
0
 40
0
 40
0
 40
0
 40
0
 40
1
 40
1
 40
1
 40
1
 10
588.395868
 20
140.520632
 30
0.0
 10
588.395868
 20
140.357331
 30
0.0
 10
587.924963
 20
140.148654
 30
0.0
 10
587.351240
 20
140.056923
 30
0.0
  0
SPLINE
  5
389
100
AcDbEntity
  8
0
 62
7
100
AcDbSpline
 70
8
 71
3
 72
8
 73
4
 74
0
 40
0
 40
0
 40
0
 40
0
 40
1
 40
1
 40
1
 40
1
 10
587.351240
 20
140.056923
 30
0.0
 10
586.777491
 20
139.965165
 30
0.0
 10
586.239011
 20
139.778317
 30
0.0
 10
586.154556
 20
139.641686
 30
0.0
  0
SPLINE
  5
38a
100
AcDbEntity
  8
0
 62
7
100
AcDbSpline
 70
8
 71
3
 72
8
 73
4
 74
0
 40
0
 40
0
 40
0
 40
0
 40
1
 40
1
 40
1
 40
1
 10
586.154556
 20
139.641686
 30
0.0
 10
586.070128
 20
139.505081
 30
0.0
 10
586.393899
 20
138.684450
 30
0.0
 10
586.874064
 20
137.818125
 30
0.0
  0
LWPOLYLINE
  5
38b
100
AcDbEntity
  8
0
 62
7
100
AcDbPolyline
 90
3
 70
0
 10
595.057865
 20
162.827436
 30
0.0
 10
595.874898
 20
162.990842
 30
0.0
 10
595.696596
 20
161.693775
 30
0.0
  0
SPLINE
  5
38c
100
AcDbEntity
  8
0
 62
7
100
AcDbSpline
 70
8
 71
3
 72
8
 73
4
 74
0
 40
0
 40
0
 40
0
 40
0
 40
1
 40
1
 40
1
 40
1
 10
588.533769
 20
136.645147
 30
0.0
 10
588.966442
 20
136.866339
 30
0.0
 10
589.503123
 20
137.206249
 30
0.0
 10
589.726431
 20
137.400480
 30
0.0
  0
SPLINE
  5
38d
100
AcDbEntity
  8
0
 62
7
100
AcDbSpline
 70
8
 71
3
 72
8
 73
4
 74
0
 40
0
 40
0
 40
0
 40
0
 40
1
 40
1
 40
1
 40
1
 10
589.726431
 20
137.400480
 30
0.0
 10
590.069411
 20
137.698824
 30
0.0
 10
590.178657
 20
137.679589
 30
0.0
 10
590.430382
 20
137.276523
 30
0.0
  0
SPLINE
  5
38e
100
AcDbEntity
  8
0
 62
7
100
AcDbSpline
 70
8
 71
3
 72
8
 73
4
 74
0
 40
0
 40
0
 40
0
 40
0
 40
1
 40
1
 40
1
 40
1
 10
590.430382
 20
137.276523
 30
0.0
 10
590.664961
 20
136.900894
 30
0.0
 10
590.595350
 20
136.472110
 30
0.0
 10
590.103198
 20
135.261218
 30
0.0
  0
SPLINE
  5
38f
100
AcDbEntity
  8
0
 62
7
100
AcDbSpline
 70
8
 71
3
 72
8
 73
4
 74
0
 40
0
 40
0
 40
0
 40
0
 40
1
 40
1
 40
1
 40
1
 10
590.103198
 20
135.261218
 30
0.0
 10
589.213060
 20
133.071076
 30
0.0
 10
588.205395
 20
131.952603
 30
0.0
 10
586.188185
 20
130.915754
 30
0.0
  0
SPLINE
  5
390
100
AcDbEntity
  8
0
 62
7
100
AcDbSpline
 70
8
 71
3
 72
8
 73
4
 74
0
 40
0
 40
0
 40
0
 40
0
 40
1
 40
1
 40
1
 40
1
 10
586.188185
 20
130.915754
 30
0.0
 10
584.934880
 20
130.271573
 30
0.0
 10
584.425637
 20
129.862051
 30
0.0
 10
584.425637
 20
129.498408
 30
0.0
  0
SPLINE
  5
391
100
AcDbEntity
  8
0
 62
7
100
AcDbSpline
 70
8
 71
3
 72
8
 73
4
 74
0
 40
0
 40
0
 40
0
 40
0
 40
1
 40
1
 40
1
 40
1
 10
584.425637
 20
129.498408
 30
0.0
 10
584.425637
 20
129.121403
 30
0.0
 10
584.546498
 20
129.033349
 30
0.0
 10
584.885403
 20
129.163392
 30
0.0
  0
SPLINE
  5
392
100
AcDbEntity
  8
0
 62
7
100
AcDbSpline
 70
8
 71
3
 72
8
 73
4
 74
0
 40
0
 40
0
 40
0
 40
0
 40
1
 40
1
 40
1
 40
1
 10
584.885403
 20
129.163392
 30
0.0
 10
585.138265
 20
129.260441
 30
0.0
 10
586.063963
 20
129.406941
 30
0.0
 10
586.942539
 20
129.488988
 30
0.0
  0
SPLINE
  5
393
100
AcDbEntity
  8
0
 62
7
100
AcDbSpline
 70
8
 71
3
 72
8
 73
4
 74
0
 40
0
 40
0
 40
0
 40
0
 40
1
 40
1
 40
1
 40
1
 10
586.942539
 20
129.488988
 30
0.0
 10
588.222037
 20
129.608474
 30
0.0
 10
588.610975
 20
129.552488
 30
0.0
 10
588.897148
 20
129.207710
 30
0.0
  0
SPLINE
  5
394
100
AcDbEntity
  8
0
 62
7
100
AcDbSpline
 70
8
 71
3
 72
8
 73
4
 74
0
 40
0
 40
0
 40
0
 40
0
 40
1
 40
1
 40
1
 40
1
 10
588.897148
 20
129.207710
 30
0.0
 10
589.220416
 20
128.818190
 30
0.0
 10
589.348263
 20
128.862085
 30
0.0
 10
590.241813
 20
129.669381
 30
0.0
  0
SPLINE
  5
395
100
AcDbEntity
  8
0
 62
7
100
AcDbSpline
 70
8
 71
3
 72
8
 73
4
 74
0
 40
0
 40
0
 40
0
 40
0
 40
1
 40
1
 40
1
 40
1
 10
590.241813
 20
129.669381
 30
0.0
 10
590.784924
 20
130.160025
 30
0.0
 10
591.967717
 20
130.994256
 30
0.0
 10
592.870237
 20
131.523211
 30
0.0
  0
SPLINE
  5
396
100
AcDbEntity
  8
0
 62
7
100
AcDbSpline
 70
8
 71
3
 72
8
 73
4
 74
0
 40
0
 40
0
 40
0
 40
0
 40
1
 40
1
 40
1
 40
1
 10
592.870237
 20
131.523211
 30
0.0
 10
594.852337
 20
132.684890
 30
0.0
 10
595.401665
 20
132.549000
 30
0.0
 10
595.660745
 20
130.832966
 30
0.0
  0
SPLINE
  5
397
100
AcDbEntity
  8
0
 62
7
100
AcDbSpline
 70
8
 71
3
 72
8
 73
4
 74
0
 40
0
 40
0
 40
0
 40
0
 40
1
 40
1
 40
1
 40
1
 10
595.660745
 20
130.832966
 30
0.0
 10
596.061377
 20
128.179539
 30
0.0
 10
595.996025
 20
128.289500
 30
0.0
 10
597.033112
 20
128.523391
 30
0.0
  0
SPLINE
  5
398
100
AcDbEntity
  8
0
 62
7
100
AcDbSpline
 70
8
 71
3
 72
8
 73
4
 74
0
 40
0
 40
0
 40
0
 40
0
 40
1
 40
1
 40
1
 40
1
 10
597.033112
 20
128.523391
 30
0.0
 10
598.306684
 20
128.810623
 30
0.0
 10
599.142238
 20
129.664090
 30
0.0
 10
599.651799
 20
131.198250
 30
0.0
  0
SPLINE
  5
399
100
AcDbEntity
  8
0
 62
7
100
AcDbSpline
 70
8
 71
3
 72
8
 73
4
 74
0
 40
0
 40
0
 40
0
 40
0
 40
1
 40
1
 40
1
 40
1
 10
599.651799
 20
131.198250
 30
0.0
 10
599.886537
 20
131.904952
 30
0.0
 10
600.175330
 20
132.483172
 30
0.0
 10
600.293599
 20
132.483172
 30
0.0
  0
SPLINE
  5
39a
100
AcDbEntity
  8
0
 62
7
100
AcDbSpline
 70
8
 71
3
 72
8
 73
4
 74
0
 40
0
 40
0
 40
0
 40
0
 40
1
 40
1
 40
1
 40
1
 10
600.293599
 20
132.483172
 30
0.0
 10
601.331215
 20
132.483172
 30
0.0
 10
600.056506
 20
126.726871
 30
0.0
 10
598.462179
 20
124.212879
 30
0.0
  0
SPLINE
  5
39b
100
AcDbEntity
  8
0
 62
7
100
AcDbSpline
 70
8
 71
3
 72
8
 73
4
 74
0
 40
0
 40
0
 40
0
 40
0
 40
1
 40
1
 40
1
 40
1
 10
598.462179
 20
124.212879
 30
0.0
 10
597.537884
 20
122.755448
 30
0.0
 10
597.304416
 20
121.288625
 30
0.0
 10
597.976008
 20
121.158688
 30
0.0
  0
SPLINE
  5
39c
100
AcDbEntity
  8
0
 62
7
100
AcDbSpline
 70
8
 71
3
 72
8
 73
4
 74
0
 40
0
 40
0
 40
0
 40
0
 40
1
 40
1
 40
1
 40
1
 10
597.976008
 20
121.158688
 30
0.0
 10
598.292396
 20
121.097490
 30
0.0
 10
598.810768
 20
121.656263
 30
0.0
 10
599.690428
 20
123.006750
 30
0.0
  0
LWPOLYLINE
  5
39d
100
AcDbEntity
  8
0
 62
7
100
AcDbPolyline
 90
3
 70
0
 10
586.874064
 20
137.818125
 30
0.0
 10
587.747110
 20
136.242954
 30
0.0
 10
588.533769
 20
136.645147
 30
0.0
  0
SPLINE
  5
39e
100
AcDbEntity
  8
0
 62
7
100
AcDbSpline
 70
8
 71
3
 72
8
 73
4
 74
0
 40
0
 40
0
 40
0
 40
0
 40
1
 40
1
 40
1
 40
1
 10
600.398533
 20
117.484287
 30
0.0
 10
599.698789
 20
116.124037
 30
0.0
 10
599.210448
 20
115.485519
 30
0.0
 10
598.788993
 20
115.379738
 30
0.0
  0
SPLINE
  5
39f
100
AcDbEntity
  8
0
 62
7
100
AcDbSpline
 70
8
 71
3
 72
8
 73
4
 74
0
 40
0
 40
0
 40
0
 40
0
 40
1
 40
1
 40
1
 40
1
 10
598.788993
 20
115.379738
 30
0.0
 10
598.338275
 20
115.266602
 30
0.0
 10
598.183970
 20
115.038293
 30
0.0
 10
598.183970
 20
114.484467
 30
0.0
  0
SPLINE
  5
3a0
100
AcDbEntity
  8
0
 62
7
100
AcDbSpline
 70
8
 71
3
 72
8
 73
4
 74
0
 40
0
 40
0
 40
0
 40
0
 40
1
 40
1
 40
1
 40
1
 10
598.183970
 20
114.484467
 30
0.0
 10
598.183970
 20
113.481273
 30
0.0
 10
597.936585
 20
112.904005
 30
0.0
 10
597.506663
 20
112.904005
 30
0.0
  0
SPLINE
  5
3a1
100
AcDbEntity
  8
0
 62
7
100
AcDbSpline
 70
8
 71
3
 72
8
 73
4
 74
0
 40
0
 40
0
 40
0
 40
0
 40
1
 40
1
 40
1
 40
1
 10
597.506663
 20
112.904005
 30
0.0
 10
596.742705
 20
112.904005
 30
0.0
 10
595.831136
 20
112.272868
 30
0.0
 10
595.376953
 20
111.429509
 30
0.0
  0
LWPOLYLINE
  5
3a2
100
AcDbEntity
  8
0
 62
7
100
AcDbPolyline
 90
5
 70
0
 10
599.690428
 20
123.006750
 30
0.0
 10
600.951353
 20
124.942547
 30
0.0
 10
601.177201
 20
122.189769
 30
0.0
 10
601.403050
 20
119.436965
 30
0.0
 10
600.398533
 20
117.484287
 30
0.0
  0
SPLINE
  5
3a3
100
AcDbEntity
  8
0
 62
7
100
AcDbSpline
 70
8
 71
3
 72
8
 73
4
 74
0
 40
0
 40
0
 40
0
 40
0
 40
1
 40
1
 40
1
 40
1
 10
595.760995
 20
109.476752
 30
0.0
 10
596.449071
 20
108.620534
 30
0.0
 10
596.594433
 20
108.235353
 30
0.0
 10
596.489420
 20
107.546669
 30
0.0
  0
SPLINE
  5
3a4
100
AcDbEntity
  8
0
 62
7
100
AcDbSpline
 70
8
 71
3
 72
8
 73
4
 74
0
 40
0
 40
0
 40
0
 40
0
 40
1
 40
1
 40
1
 40
1
 10
596.489420
 20
107.546669
 30
0.0
 10
596.417268
 20
107.073462
 30
0.0
 10
596.287807
 20
106.054737
 30
0.0
 10
596.201738
 20
105.282841
 30
0.0
  0
LWPOLYLINE
  5
3a5
100
AcDbEntity
  8
0
 62
7
100
AcDbPolyline
 90
3
 70
0
 10
595.376953
 20
111.429509
 30
0.0
 10
594.901390
 20
110.546436
 30
0.0
 10
595.760995
 20
109.476752
 30
0.0
  0
SPLINE
  5
3a6
100
AcDbEntity
  8
0
 62
7
100
AcDbSpline
 70
8
 71
3
 72
8
 73
4
 74
0
 40
0
 40
0
 40
0
 40
0
 40
1
 40
1
 40
1
 40
1
 10
597.577624
 20
104.025621
 30
0.0
 10
598.420455
 20
104.106027
 30
0.0
 10
601.275811
 20
104.297824
 30
0.0
 10
603.922888
 20
104.451811
 30
0.0
  0
LWPOLYLINE
  5
3a7
100
AcDbEntity
  8
0
 62
7
100
AcDbPolyline
 90
3
 70
0
 10
596.201738
 20
105.282841
 30
0.0
 10
596.045264
 20
103.879412
 30
0.0
 10
597.577624
 20
104.025621
 30
0.0
  0
SPLINE
  5
3a8
100
AcDbEntity
  8
0
 62
7
100
AcDbSpline
 70
8
 71
3
 72
8
 73
4
 74
0
 40
0
 40
0
 40
0
 40
0
 40
1
 40
1
 40
1
 40
1
 10
601.379846
 20
118.085367
 30
0.0
 10
601.392546
 20
118.393607
 30
0.0
 10
601.455252
 20
118.456287
 30
0.0
 10
601.539707
 20
118.245229
 30
0.0
  0
SPLINE
  5
3a9
100
AcDbEntity
  8
0
 62
7
100
AcDbSpline
 70
8
 71
3
 72
8
 73
4
 74
0
 40
0
 40
0
 40
0
 40
0
 40
1
 40
1
 40
1
 40
1
 10
601.539707
 20
118.245229
 30
0.0
 10
601.616145
 20
118.054226
 30
0.0
 10
601.606752
 20
117.826023
 30
0.0
 10
601.518805
 20
117.738102
 30
0.0
  0
SPLINE
  5
3aa
100
AcDbEntity
  8
0
 62
7
100
AcDbSpline
 70
8
 71
3
 72
8
 73
4
 74
0
 40
0
 40
0
 40
0
 40
0
 40
1
 40
1
 40
1
 40
1
 10
601.518805
 20
117.738102
 30
0.0
 10
601.430884
 20
117.650181
 30
0.0
 10
601.368336
 20
117.806470
 30
0.0
 10
601.379819
 20
118.085367
 30
0.0
  0
LWPOLYLINE
  5
3ab
100
AcDbEntity
  8
0
 62
7
100
AcDbPolyline
 90
1
 70
1
 10
603.922888
 20
104.451811
 30
0.0
  0
SPLINE
  5
3ac
100
AcDbEntity
  8
0
 62
7
100
AcDbSpline
 70
8
 71
3
 72
8
 73
4
 74
0
 40
0
 40
0
 40
0
 40
0
 40
1
 40
1
 40
1
 40
1
 10
584.253525
 20
176.527905
 30
0.0
 10
584.349437
 20
176.777803
 30
0.0
 10
584.499826
 20
177.268870
 30
0.0
 10
584.587747
 20
177.619152
 30
0.0
  0
SPLINE
  5
3ad
100
AcDbEntity
  8
0
 62
7
100
AcDbSpline
 70
8
 71
3
 72
8
 73
4
 74
0
 40
0
 40
0
 40
0
 40
0
 40
1
 40
1
 40
1
 40
1
 10
584.587747
 20
177.619152
 30
0.0
 10
584.795789
 20
178.448118
 30
0.0
 10
585.483970
 20
178.452590
 30
0.0
 10
585.483970
 20
177.624973
 30
0.0
  0
SPLINE
  5
3ae
100
AcDbEntity
  8
0
 62
7
100
AcDbSpline
 70
8
 71
3
 72
8
 73
4
 74
0
 40
0
 40
0
 40
0
 40
0
 40
1
 40
1
 40
1
 40
1
 10
585.483970
 20
177.624973
 30
0.0
 10
585.483970
 20
177.234025
 30
0.0
 10
585.216741
 20
176.818840
 30
0.0
 10
584.781581
 20
176.533725
 30
0.0
  0
SPLINE
  5
3af
100
AcDbEntity
  8
0
 62
7
100
AcDbSpline
 70
8
 71
3
 72
8
 73
4
 74
0
 40
0
 40
0
 40
0
 40
0
 40
1
 40
1
 40
1
 40
1
 10
584.781581
 20
176.533725
 30
0.0
 10
584.121895
 20
176.101476
 30
0.0
 10
584.089775
 20
176.101132
 30
0.0
 10
584.253525
 20
176.527905
 30
0.0
  0
LWPOLYLINE
  5
3b0
100
AcDbEntity
  8
0
 62
7
100
AcDbPolyline
 90
1
 70
1
 10
601.379819
 20
118.085367
 30
0.0
  0
LWPOLYLINE
  5
3b1
100
AcDbEntity
  8
0
 62
7
100
AcDbPolyline
 90
1
 70
1
 10
584.253525
 20
176.527905
 30
0.0
  0
SPLINE
  5
3b2
100
AcDbEntity
  8
0
 62
7
100
AcDbSpline
 70
8
 71
3
 72
8
 73
4
 74
0
 40
0
 40
0
 40
0
 40
0
 40
1
 40
1
 40
1
 40
1
 10
409.115048
 20
136.090237
 30
0.0
 10
429.900980
 20
144.722506
 30
0.0
 10
430.665361
 20
145.064903
 30
0.0
 10
433.613137
 20
147.064095
 30
0.0
  0
SPLINE
  5
3b3
100
AcDbEntity
  8
0
 62
7
100
AcDbSpline
 70
8
 71
3
 72
8
 73
4
 74
0
 40
0
 40
0
 40
0
 40
0
 40
1
 40
1
 40
1
 40
1
 10
433.613137
 20
147.064095
 30
0.0
 10
438.579498
 20
150.432347
 30
0.0
 10
438.045146
 20
149.669341
 30
0.0
 10
440.911932
 20
157.486244
 30
0.0
  0
SPLINE
  5
3b4
100
AcDbEntity
  8
0
 62
7
100
AcDbSpline
 70
8
 71
3
 72
8
 73
4
 74
0
 40
0
 40
0
 40
0
 40
0
 40
1
 40
1
 40
1
 40
1
 10
440.911932
 20
157.486244
 30
0.0
 10
443.392137
 20
164.249068
 30
0.0
 10
443.527021
 20
164.533204
 30
0.0
 10
448.887427
 20
174.287281
 30
0.0
  0
SPLINE
  5
3b5
100
AcDbEntity
  8
0
 62
7
100
AcDbSpline
 70
8
 71
3
 72
8
 73
4
 74
0
 40
0
 40
0
 40
0
 40
0
 40
1
 40
1
 40
1
 40
1
 10
448.887427
 20
174.287281
 30
0.0
 10
451.886373
 20
179.744312
 30
0.0
 10
454.515194
 20
184.415557
 30
0.0
 10
454.729268
 20
184.667811
 30
0.0
  0
SPLINE
  5
3b6
100
AcDbEntity
  8
0
 62
7
100
AcDbSpline
 70
8
 71
3
 72
8
 73
4
 74
0
 40
0
 40
0
 40
0
 40
0
 40
1
 40
1
 40
1
 40
1
 10
454.729268
 20
184.667811
 30
0.0
 10
454.943342
 20
184.920065
 30
0.0
 10
457.929562
 20
186.698832
 30
0.0
 10
461.365309
 20
188.620580
 30
0.0
  0
LWPOLYLINE
  5
3b7
100
AcDbEntity
  8
0
 62
7
100
AcDbPolyline
 90
7
 70
0
 10
334.780625
 20
118.244938
 30
0.0
 10
342.195494
 20
119.551424
 30
0.0
 10
350.399641
 20
122.950975
 30
0.0
 10
358.603762
 20
126.350554
 30
0.0
 10
373.131715
 20
126.765262
 30
0.0
 10
387.659668
 20
127.179996
 30
0.0
 10
409.115048
 20
136.090237
 30
0.0
  0
SPLINE
  5
3b8
100
AcDbEntity
  8
0
 62
7
100
AcDbSpline
 70
8
 71
3
 72
8
 73
4
 74
0
 40
0
 40
0
 40
0
 40
0
 40
1
 40
1
 40
1
 40
1
 10
472.903762
 20
197.333388
 30
0.0
 10
477.295104
 20
201.664168
 30
0.0
 10
479.428784
 20
203.505271
 30
0.0
 10
485.444535
 20
208.154476
 30
0.0
  0
SPLINE
  5
3b9
100
AcDbEntity
  8
0
 62
7
100
AcDbSpline
 70
8
 71
3
 72
8
 73
4
 74
0
 40
0
 40
0
 40
0
 40
0
 40
1
 40
1
 40
1
 40
1
 10
485.444535
 20
208.154476
 30
0.0
 10
489.431542
 20
211.235814
 30
0.0
 10
492.843688
 20
213.814470
 30
0.0
 10
493.027070
 20
213.884849
 30
0.0
  0
SPLINE
  5
3ba
100
AcDbEntity
  8
0
 62
7
100
AcDbSpline
 70
8
 71
3
 72
8
 73
4
 74
0
 40
0
 40
0
 40
0
 40
0
 40
1
 40
1
 40
1
 40
1
 10
493.027070
 20
213.884849
 30
0.0
 10
493.210480
 20
213.955228
 30
0.0
 10
493.515174
 20
214.391208
 30
0.0
 10
493.704219
 20
214.853700
 30
0.0
  0
SPLINE
  5
3bb
100
AcDbEntity
  8
0
 62
7
100
AcDbSpline
 70
8
 71
3
 72
8
 73
4
 74
0
 40
0
 40
0
 40
0
 40
0
 40
1
 40
1
 40
1
 40
1
 10
493.704219
 20
214.853700
 30
0.0
 10
494.234576
 20
216.151296
 30
0.0
 10
501.408382
 20
226.722538
 30
0.0
 10
510.165059
 20
239.110197
 30
0.0
  0
SPLINE
  5
3bc
100
AcDbEntity
  8
0
 62
7
100
AcDbSpline
 70
8
 71
3
 72
8
 73
4
 74
0
 40
0
 40
0
 40
0
 40
0
 40
1
 40
1
 40
1
 40
1
 10
510.165059
 20
239.110197
 30
0.0
 10
510.414429
 20
239.462966
 30
0.0
 10
510.399242
 20
239.462966
 30
0.0
 10
510.028243
 20
239.110197
 30
0.0
  0
SPLINE
  5
3bd
100
AcDbEntity
  8
0
 62
7
100
AcDbSpline
 70
8
 71
3
 72
8
 73
4
 74
0
 40
0
 40
0
 40
0
 40
0
 40
1
 40
1
 40
1
 40
1
 10
510.028243
 20
239.110197
 30
0.0
 10
508.937472
 20
238.073031
 30
0.0
 10
493.888633
 20
216.127589
 30
0.0
 10
493.561608
 20
215.097249
 30
0.0
  0
SPLINE
  5
3be
100
AcDbEntity
  8
0
 62
7
100
AcDbSpline
 70
8
 71
3
 72
8
 73
4
 74
0
 40
0
 40
0
 40
0
 40
0
 40
1
 40
1
 40
1
 40
1
 10
493.561608
 20
215.097249
 30
0.0
 10
493.467522
 20
214.800757
 30
0.0
 10
490.031167
 20
211.967863
 30
0.0
 10
485.925257
 20
208.801938
 30
0.0
  0
SPLINE
  5
3bf
100
AcDbEntity
  8
0
 62
7
100
AcDbSpline
 70
8
 71
3
 72
8
 73
4
 74
0
 40
0
 40
0
 40
0
 40
0
 40
1
 40
1
 40
1
 40
1
 10
485.925257
 20
208.801938
 30
0.0
 10
479.650081
 20
203.963344
 30
0.0
 10
477.595353
 20
202.195716
 30
0.0
 10
473.036053
 20
197.713727
 30
0.0
  0
LWPOLYLINE
  5
3c0
100
AcDbEntity
  8
0
 62
7
100
AcDbPolyline
 90
3
 70
0
 10
461.365309
 20
188.620580
 30
0.0
 10
467.612095
 20
192.114694
 30
0.0
 10
472.903762
 20
197.333388
 30
0.0
  0
SPLINE
  5
3c1
100
AcDbEntity
  8
0
 62
7
100
AcDbSpline
 70
8
 71
3
 72
8
 73
4
 74
0
 40
0
 40
0
 40
0
 40
0
 40
1
 40
1
 40
1
 40
1
 10
448.881870
 20
174.725536
 30
0.0
 10
443.224100
 20
164.461978
 30
0.0
 10
443.147424
 20
164.301482
 30
0.0
 10
440.654572
 20
157.507014
 30
0.0
  0
SPLINE
  5
3c2
100
AcDbEntity
  8
0
 62
7
100
AcDbSpline
 70
8
 71
3
 72
8
 73
4
 74
0
 40
0
 40
0
 40
0
 40
0
 40
1
 40
1
 40
1
 40
1
 10
440.654572
 20
157.507014
 30
0.0
 10
437.816678
 20
149.772211
 30
0.0
 10
438.358386
 20
150.554981
 30
0.0
 10
433.613137
 20
147.331827
 30
0.0
  0
SPLINE
  5
3c3
100
AcDbEntity
  8
0
 62
7
100
AcDbSpline
 70
8
 71
3
 72
8
 73
4
 74
0
 40
0
 40
0
 40
0
 40
0
 40
1
 40
1
 40
1
 40
1
 10
433.613137
 20
147.331827
 30
0.0
 10
430.661127
 20
145.326709
 30
0.0
 10
429.930798
 20
144.999472
 30
0.0
 10
409.115048
 20
136.354820
 30
0.0
  0
LWPOLYLINE
  5
3c4
100
AcDbEntity
  8
0
 62
7
100
AcDbPolyline
 90
5
 70
0
 10
473.036053
 20
197.713727
 30
0.0
 10
467.612095
 20
192.381711
 30
0.0
 10
461.102472
 20
188.733716
 30
0.0
 10
454.592875
 20
185.085694
 30
0.0
 10
448.881870
 20
174.725536
 30
0.0
  0
SPLINE
  5
3c5
100
AcDbEntity
  8
0
 62
7
100
AcDbSpline
 70
8
 71
3
 72
8
 73
4
 74
0
 40
0
 40
0
 40
0
 40
0
 40
1
 40
1
 40
1
 40
1
 10
334.780625
 20
118.509521
 30
0.0
 10
328.547704
 20
117.411288
 30
0.0
 10
327.103555
 20
117.070664
 30
0.0
 10
325.720710
 20
116.372587
 30
0.0
  0
SPLINE
  5
3c6
100
AcDbEntity
  8
0
 62
7
100
AcDbSpline
 70
8
 71
3
 72
8
 73
4
 74
0
 40
0
 40
0
 40
0
 40
0
 40
1
 40
1
 40
1
 40
1
 10
325.720710
 20
116.372587
 30
0.0
 10
324.815914
 20
115.915863
 30
0.0
 10
324.075637
 20
115.482635
 30
0.0
 10
324.075637
 20
115.409874
 30
0.0
  0
SPLINE
  5
3c7
100
AcDbEntity
  8
0
 62
7
100
AcDbSpline
 70
8
 71
3
 72
8
 73
4
 74
0
 40
0
 40
0
 40
0
 40
0
 40
1
 40
1
 40
1
 40
1
 10
324.075637
 20
115.409874
 30
0.0
 10
324.075637
 20
115.337114
 30
0.0
 10
324.815914
 20
115.651280
 30
0.0
 10
325.720710
 20
116.108004
 30
0.0
  0
SPLINE
  5
3c8
100
AcDbEntity
  8
0
 62
7
100
AcDbSpline
 70
8
 71
3
 72
8
 73
4
 74
0
 40
0
 40
0
 40
0
 40
0
 40
1
 40
1
 40
1
 40
1
 10
325.720710
 20
116.108004
 30
0.0
 10
327.103555
 20
116.806080
 30
0.0
 10
328.547704
 20
117.146705
 30
0.0
 10
334.780625
 20
118.244938
 30
0.0
  0
LWPOLYLINE
  5
3c9
100
AcDbEntity
  8
0
 62
7
100
AcDbPolyline
 90
7
 70
0
 10
409.115048
 20
136.354820
 30
0.0
 10
387.659668
 20
127.444579
 30
0.0
 10
373.131715
 20
127.029845
 30
0.0
 10
358.603762
 20
126.615137
 30
0.0
 10
350.399641
 20
123.215559
 30
0.0
 10
342.195494
 20
119.816007
 30
0.0
 10
334.780625
 20
118.509521
 30
0.0
  0
SPLINE
  5
3ca
100
AcDbEntity
  8
0
 62
7
100
AcDbSpline
 70
8
 71
3
 72
8
 73
4
 74
0
 40
0
 40
0
 40
0
 40
0
 40
1
 40
1
 40
1
 40
1
 10
262.320836
 20
126.238556
 30
0.0
 10
262.504854
 20
126.309146
 30
0.0
 10
263.131414
 20
126.022100
 30
0.0
 10
263.713233
 20
125.600645
 30
0.0
  0
LWPOLYLINE
  5
3cb
100
AcDbEntity
  8
0
 62
7
100
AcDbPolyline
 90
1
 70
1
 10
334.780625
 20
118.244938
 30
0.0
  0
SPLINE
  5
3cc
100
AcDbEntity
  8
0
 62
7
100
AcDbSpline
 70
8
 71
3
 72
8
 73
4
 74
0
 40
0
 40
0
 40
0
 40
0
 40
1
 40
1
 40
1
 40
1
 10
274.910338
 20
126.002283
 30
0.0
 10
283.691647
 20
127.013811
 30
0.0
 10
287.553400
 20
127.622697
 30
0.0
 10
287.996260
 20
128.065556
 30
0.0
  0
SPLINE
  5
3cd
100
AcDbEntity
  8
0
 62
7
100
AcDbSpline
 70
8
 71
3
 72
8
 73
4
 74
0
 40
0
 40
0
 40
0
 40
0
 40
1
 40
1
 40
1
 40
1
 10
287.996260
 20
128.065556
 30
0.0
 10
288.107967
 20
128.177264
 30
0.0
 10
286.816641
 20
129.390881
 30
0.0
 10
285.804213
 20
130.125708
 30
0.0
  0
SPLINE
  5
3ce
100
AcDbEntity
  8
0
 62
7
100
AcDbSpline
 70
8
 71
3
 72
8
 73
4
 74
0
 40
0
 40
0
 40
0
 40
0
 40
1
 40
1
 40
1
 40
1
 10
285.804213
 20
130.125708
 30
0.0
 10
285.521532
 20
130.330893
 30
0.0
 10
285.067825
 20
131.094057
 30
0.0
 10
284.795965
 20
131.821661
 30
0.0
  0
SPLINE
  5
3cf
100
AcDbEntity
  8
0
 62
7
100
AcDbSpline
 70
8
 71
3
 72
8
 73
4
 74
0
 40
0
 40
0
 40
0
 40
0
 40
1
 40
1
 40
1
 40
1
 10
284.795965
 20
131.821661
 30
0.0
 10
283.860293
 20
134.325969
 30
0.0
 10
282.466150
 20
135.972259
 30
0.0
 10
280.676059
 20
136.686660
 30
0.0
  0
SPLINE
  5
3d0
100
AcDbEntity
  8
0
 62
7
100
AcDbSpline
 70
8
 71
3
 72
8
 73
4
 74
0
 40
0
 40
0
 40
0
 40
0
 40
1
 40
1
 40
1
 40
1
 10
280.676059
 20
136.686660
 30
0.0
 10
280.045292
 20
136.938411
 30
0.0
 10
280.053045
 20
136.948069
 30
0.0
 10
280.898018
 20
136.964261
 30
0.0
  0
SPLINE
  5
3d1
100
AcDbEntity
  8
0
 62
7
100
AcDbSpline
 70
8
 71
3
 72
8
 73
4
 74
0
 40
0
 40
0
 40
0
 40
0
 40
1
 40
1
 40
1
 40
1
 10
280.898018
 20
136.964261
 30
0.0
 10
281.413003
 20
136.974051
 30
0.0
 10
281.705950
 20
137.090388
 30
0.0
 10
281.609430
 20
137.246572
 30
0.0
  0
SPLINE
  5
3d2
100
AcDbEntity
  8
0
 62
7
100
AcDbSpline
 70
8
 71
3
 72
8
 73
4
 74
0
 40
0
 40
0
 40
0
 40
0
 40
1
 40
1
 40
1
 40
1
 10
281.609430
 20
137.246572
 30
0.0
 10
281.206628
 20
137.898293
 30
0.0
 10
273.174963
 20
145.182696
 30
0.0
 10
271.034113
 20
146.837929
 30
0.0
  0
SPLINE
  5
3d3
100
AcDbEntity
  8
0
 62
7
100
AcDbSpline
 70
8
 71
3
 72
8
 73
4
 74
0
 40
0
 40
0
 40
0
 40
0
 40
1
 40
1
 40
1
 40
1
 10
271.034113
 20
146.837929
 30
0.0
 10
267.213212
 20
149.792134
 30
0.0
 10
266.516511
 20
150.080054
 30
0.0
 10
263.221478
 20
150.066454
 30
0.0
  0
SPLINE
  5
3d4
100
AcDbEntity
  8
0
 62
7
100
AcDbSpline
 70
8
 71
3
 72
8
 73
4
 74
0
 40
0
 40
0
 40
0
 40
0
 40
1
 40
1
 40
1
 40
1
 10
263.221478
 20
150.066454
 30
0.0
 10
253.947356
 20
150.028222
 30
0.0
 10
248.461432
 20
144.266285
 30
0.0
 10
248.317261
 20
134.412381
 30
0.0
  0
LWPOLYLINE
  5
3d5
100
AcDbEntity
  8
0
 62
7
100
AcDbPolyline
 90
3
 70
0
 10
263.713233
 20
125.600645
 30
0.0
 10
264.771082
 20
124.834333
 30
0.0
 10
274.910338
 20
126.002283
 30
0.0
  0
SPLINE
  5
3d6
100
AcDbEntity
  8
0
 62
7
100
AcDbSpline
 70
8
 71
3
 72
8
 73
4
 74
0
 40
0
 40
0
 40
0
 40
0
 40
1
 40
1
 40
1
 40
1
 10
251.976686
 20
130.102081
 30
0.0
 10
258.004715
 20
128.065504
 30
0.0
 10
260.249255
 20
126.842494
 30
0.0
 10
261.042581
 20
125.162284
 30
0.0
  0
LWPOLYLINE
  5
3d7
100
AcDbEntity
  8
0
 62
7
100
AcDbPolyline
 90
3
 70
0
 10
248.317261
 20
134.412381
 30
0.0
 10
248.272520
 20
131.353507
 30
0.0
 10
251.976686
 20
130.102081
 30
0.0
  0
SPLINE
  5
3d8
100
AcDbEntity
  8
0
 62
7
100
AcDbSpline
 70
8
 71
3
 72
8
 73
4
 74
0
 40
0
 40
0
 40
0
 40
0
 40
1
 40
1
 40
1
 40
1
 10
261.743992
 20
125.150007
 30
0.0
 10
261.877236
 20
125.678089
 30
0.0
 10
262.136819
 20
126.167938
 30
0.0
 10
262.320836
 20
126.238556
 30
0.0
  0
LWPOLYLINE
  5
3d9
100
AcDbEntity
  8
0
 62
7
100
AcDbPolyline
 90
3
 70
0
 10
261.042581
 20
125.162284
 30
0.0
 10
261.501686
 20
124.189860
 30
0.0
 10
261.743992
 20
125.150007
 30
0.0
  0
SPLINE
  5
3da
100
AcDbEntity
  8
0
 62
7
100
AcDbSpline
 70
8
 71
3
 72
8
 73
4
 74
0
 40
0
 40
0
 40
0
 40
0
 40
1
 40
1
 40
1
 40
1
 10
202.610384
 20
125.747489
 30
0.0
 10
203.544443
 20
125.967675
 30
0.0
 10
204.862306
 20
126.401804
 30
0.0
 10
205.538978
 20
126.712213
 30
0.0
  0
LWPOLYLINE
  5
3db
100
AcDbEntity
  8
0
 62
7
100
AcDbPolyline
 90
1
 70
1
 10
262.320836
 20
126.238556
 30
0.0
  0
SPLINE
  5
3dc
100
AcDbEntity
  8
0
 62
7
100
AcDbSpline
 70
8
 71
3
 72
8
 73
4
 74
0
 40
0
 40
0
 40
0
 40
0
 40
1
 40
1
 40
1
 40
1
 10
206.110821
 20
128.887696
 30
0.0
 10
205.148135
 20
131.243044
 30
0.0
 10
205.023463
 20
135.322522
 30
0.0
 10
205.798798
 20
139.097703
 30
0.0
  0
SPLINE
  5
3dd
100
AcDbEntity
  8
0
 62
7
100
AcDbSpline
 70
8
 71
3
 72
8
 73
4
 74
0
 40
0
 40
0
 40
0
 40
0
 40
1
 40
1
 40
1
 40
1
 10
205.798798
 20
139.097703
 30
0.0
 10
206.937644
 20
144.642814
 30
0.0
 10
209.287515
 20
150.225813
 30
0.0
 10
212.535169
 20
155.102507
 30
0.0
  0
SPLINE
  5
3de
100
AcDbEntity
  8
0
 62
7
100
AcDbSpline
 70
8
 71
3
 72
8
 73
4
 74
0
 40
0
 40
0
 40
0
 40
0
 40
1
 40
1
 40
1
 40
1
 10
212.535169
 20
155.102507
 30
0.0
 10
215.576581
 20
159.669528
 30
0.0
 10
219.630924
 20
163.148428
 30
0.0
 10
221.946478
 20
163.178088
 30
0.0
  0
LWPOLYLINE
  5
3df
100
AcDbEntity
  8
0
 62
7
100
AcDbPolyline
 90
3
 70
0
 10
205.538978
 20
126.712213
 30
0.0
 10
206.769316
 20
127.276648
 30
0.0
 10
206.110821
 20
128.887696
 30
0.0
  0
SPLINE
  5
3e0
100
AcDbEntity
  8
0
 62
7
100
AcDbSpline
 70
8
 71
3
 72
8
 73
4
 74
0
 40
0
 40
0
 40
0
 40
0
 40
1
 40
1
 40
1
 40
1
 10
221.946478
 20
163.707149
 30
0.0
 10
220.745375
 20
164.652531
 30
0.0
 10
216.820493
 20
166.554356
 30
0.0
 10
214.802728
 20
167.168692
 30
0.0
  0
SPLINE
  5
3e1
100
AcDbEntity
  8
0
 62
7
100
AcDbSpline
 70
8
 71
3
 72
8
 73
4
 74
0
 40
0
 40
0
 40
0
 40
0
 40
1
 40
1
 40
1
 40
1
 10
214.802728
 20
167.168692
 30
0.0
 10
212.453149
 20
167.884099
 30
0.0
 10
208.777001
 20
168.005993
 30
0.0
 10
206.732936
 20
167.436266
 30
0.0
  0
SPLINE
  5
3e2
100
AcDbEntity
  8
0
 62
7
100
AcDbSpline
 70
8
 71
3
 72
8
 73
4
 74
0
 40
0
 40
0
 40
0
 40
0
 40
1
 40
1
 40
1
 40
1
 10
206.732936
 20
167.436266
 30
0.0
 10
204.523851
 20
166.820580
 30
0.0
 10
201.922150
 20
165.309598
 30
0.0
 10
199.988469
 20
163.519295
 30
0.0
  0
SPLINE
  5
3e3
100
AcDbEntity
  8
0
 62
7
100
AcDbSpline
 70
8
 71
3
 72
8
 73
4
 74
0
 40
0
 40
0
 40
0
 40
0
 40
1
 40
1
 40
1
 40
1
 10
199.988469
 20
163.519295
 30
0.0
 10
197.964142
 20
161.645066
 30
0.0
 10
196.398496
 20
159.794967
 30
0.0
 10
196.635907
 20
159.557582
 30
0.0
  0
SPLINE
  5
3e4
100
AcDbEntity
  8
0
 62
7
100
AcDbSpline
 70
8
 71
3
 72
8
 73
4
 74
0
 40
0
 40
0
 40
0
 40
0
 40
1
 40
1
 40
1
 40
1
 10
196.635907
 20
159.557582
 30
0.0
 10
196.720150
 20
159.473313
 30
0.0
 10
197.272706
 20
159.597878
 30
0.0
 10
197.863759
 20
159.834363
 30
0.0
  0
SPLINE
  5
3e5
100
AcDbEntity
  8
0
 62
7
100
AcDbSpline
 70
8
 71
3
 72
8
 73
4
 74
0
 40
0
 40
0
 40
0
 40
0
 40
1
 40
1
 40
1
 40
1
 10
197.863759
 20
159.834363
 30
0.0
 10
198.454838
 20
160.070874
 30
0.0
 10
199.002631
 20
160.264364
 30
0.0
 10
199.081080
 20
160.264364
 30
0.0
  0
SPLINE
  5
3e6
100
AcDbEntity
  8
0
 62
7
100
AcDbSpline
 70
8
 71
3
 72
8
 73
4
 74
0
 40
0
 40
0
 40
0
 40
0
 40
1
 40
1
 40
1
 40
1
 10
199.081080
 20
160.264364
 30
0.0
 10
199.159529
 20
160.264364
 30
0.0
 10
198.348925
 20
159.560652
 30
0.0
 10
197.279771
 20
158.700549
 30
0.0
  0
SPLINE
  5
3e7
100
AcDbEntity
  8
0
 62
7
100
AcDbSpline
 70
8
 71
3
 72
8
 73
4
 74
0
 40
0
 40
0
 40
0
 40
0
 40
1
 40
1
 40
1
 40
1
 10
197.279771
 20
158.700549
 30
0.0
 10
194.508816
 20
156.471435
 30
0.0
 10
191.889467
 20
153.623354
 30
0.0
 10
189.967031
 20
150.749318
 30
0.0
  0
SPLINE
  5
3e8
100
AcDbEntity
  8
0
 62
7
100
AcDbSpline
 70
8
 71
3
 72
8
 73
4
 74
0
 40
0
 40
0
 40
0
 40
0
 40
1
 40
1
 40
1
 40
1
 10
189.967031
 20
150.749318
 30
0.0
 10
187.539691
 20
147.120372
 30
0.0
 10
186.399548
 20
144.663769
 30
0.0
 10
185.080627
 20
140.220594
 30
0.0
  0
LWPOLYLINE
  5
3e9
100
AcDbEntity
  8
0
 62
7
100
AcDbPolyline
 90
3
 70
0
 10
221.946478
 20
163.178088
 30
0.0
 10
222.607936
 20
163.186555
 30
0.0
 10
221.946478
 20
163.707149
 30
0.0
  0
SPLINE
  5
3ea
100
AcDbEntity
  8
0
 62
7
100
AcDbSpline
 70
8
 71
3
 72
8
 73
4
 74
0
 40
0
 40
0
 40
0
 40
0
 40
1
 40
1
 40
1
 40
1
 10
185.315471
 20
138.992504
 30
0.0
 10
186.099220
 20
139.189222
 30
0.0
 10
186.106787
 20
139.068916
 30
0.0
 10
185.433978
 20
137.113327
 30
0.0
  0
SPLINE
  5
3eb
100
AcDbEntity
  8
0
 62
7
100
AcDbSpline
 70
8
 71
3
 72
8
 73
4
 74
0
 40
0
 40
0
 40
0
 40
0
 40
1
 40
1
 40
1
 40
1
 10
185.433978
 20
137.113327
 30
0.0
 10
184.799375
 20
135.268864
 30
0.0
 10
184.753523
 20
133.278774
 30
0.0
 10
185.318196
 20
132.088811
 30
0.0
  0
SPLINE
  5
3ec
100
AcDbEntity
  8
0
 62
7
100
AcDbSpline
 70
8
 71
3
 72
8
 73
4
 74
0
 40
0
 40
0
 40
0
 40
0
 40
1
 40
1
 40
1
 40
1
 10
185.318196
 20
132.088811
 30
0.0
 10
185.851120
 20
130.965760
 30
0.0
 10
188.020941
 20
129.960873
 30
0.0
 10
190.807983
 20
129.546350
 30
0.0
  0
SPLINE
  5
3ed
100
AcDbEntity
  8
0
 62
7
100
AcDbSpline
 70
8
 71
3
 72
8
 73
4
 74
0
 40
0
 40
0
 40
0
 40
0
 40
1
 40
1
 40
1
 40
1
 10
190.807983
 20
129.546350
 30
0.0
 10
193.228947
 20
129.186279
 30
0.0
 10
196.218077
 20
129.534444
 30
0.0
 10
199.030016
 20
130.504036
 30
0.0
  0
LWPOLYLINE
  5
3ee
100
AcDbEntity
  8
0
 62
7
100
AcDbPolyline
 90
3
 70
0
 10
185.080627
 20
140.220594
 30
0.0
 10
184.667824
 20
138.829971
 30
0.0
 10
185.315471
 20
138.992504
 30
0.0
  0
SPLINE
  5
3ef
100
AcDbEntity
  8
0
 62
7
100
AcDbSpline
 70
8
 71
3
 72
8
 73
4
 74
0
 40
0
 40
0
 40
0
 40
0
 40
1
 40
1
 40
1
 40
1
 10
200.088349
 20
130.333512
 30
0.0
 10
199.002975
 20
129.198344
 30
0.0
 10
195.414167
 20
127.500750
 30
0.0
 10
193.269772
 20
127.108188
 30
0.0
  0
LWPOLYLINE
  5
3f0
100
AcDbEntity
  8
0
 62
7
100
AcDbPolyline
 90
3
 70
0
 10
199.030016
 20
130.504036
 30
0.0
 10
200.852095
 20
131.132315
 30
0.0
 10
200.088349
 20
130.333512
 30
0.0
  0
SPLINE
  5
3f1
100
AcDbEntity
  8
0
 62
7
100
AcDbSpline
 70
8
 71
3
 72
8
 73
4
 74
0
 40
0
 40
0
 40
0
 40
0
 40
1
 40
1
 40
1
 40
1
 10
192.476022
 20
126.329863
 30
0.0
 10
193.041278
 20
126.085177
 30
0.0
 10
193.920488
 20
125.772968
 30
0.0
 10
194.429811
 20
125.636046
 30
0.0
  0
SPLINE
  5
3f2
100
AcDbEntity
  8
0
 62
7
100
AcDbSpline
 70
8
 71
3
 72
8
 73
4
 74
0
 40
0
 40
0
 40
0
 40
0
 40
1
 40
1
 40
1
 40
1
 10
194.429811
 20
125.636046
 30
0.0
 10
195.910420
 20
125.238007
 30
0.0
 10
200.727318
 20
125.303650
 30
0.0
 10
202.610384
 20
125.747489
 30
0.0
  0
LWPOLYLINE
  5
3f3
100
AcDbEntity
  8
0
 62
7
100
AcDbPolyline
 90
3
 70
0
 10
193.269772
 20
127.108188
 30
0.0
 10
191.448275
 20
126.774707
 30
0.0
 10
192.476022
 20
126.329863
 30
0.0
  0
SPLINE
  5
3f4
100
AcDbEntity
  8
0
 62
7
100
AcDbSpline
 70
8
 71
3
 72
8
 73
4
 74
0
 40
0
 40
0
 40
0
 40
0
 40
1
 40
1
 40
1
 40
1
 10
179.348561
 20
125.978047
 30
0.0
 10
179.348561
 20
126.038293
 30
0.0
 10
178.544889
 20
126.534413
 30
0.0
 10
177.562624
 20
127.080566
 30
0.0
  0
SPLINE
  5
3f5
100
AcDbEntity
  8
0
 62
7
100
AcDbSpline
 70
8
 71
3
 72
8
 73
4
 74
0
 40
0
 40
0
 40
0
 40
0
 40
1
 40
1
 40
1
 40
1
 10
177.562624
 20
127.080566
 30
0.0
 10
174.907398
 20
128.556861
 30
0.0
 10
170.714043
 20
131.308396
 30
0.0
 10
168.775282
 20
132.846498
 30
0.0
  0
LWPOLYLINE
  5
3f6
100
AcDbEntity
  8
0
 62
7
100
AcDbPolyline
 90
1
 70
1
 10
202.610384
 20
125.747489
 30
0.0
  0
SPLINE
  5
3f7
100
AcDbEntity
  8
0
 62
7
100
AcDbSpline
 70
8
 71
3
 72
8
 73
4
 74
0
 40
0
 40
0
 40
0
 40
0
 40
1
 40
1
 40
1
 40
1
 10
168.134938
 20
132.273331
 30
0.0
 10
168.990044
 20
130.730413
 30
0.0
 10
169.676479
 20
129.946268
 30
0.0
 10
171.560657
 20
128.360117
 30
0.0
  0
SPLINE
  5
3f8
100
AcDbEntity
  8
0
 62
7
100
AcDbSpline
 70
8
 71
3
 72
8
 73
4
 74
0
 40
0
 40
0
 40
0
 40
0
 40
1
 40
1
 40
1
 40
1
 10
171.560657
 20
128.360117
 30
0.0
 10
174.101662
 20
126.221014
 30
0.0
 10
174.193049
 20
126.178945
 30
0.0
 10
176.570436
 20
126.052818
 30
0.0
  0
SPLINE
  5
3f9
100
AcDbEntity
  8
0
 62
7
100
AcDbSpline
 70
8
 71
3
 72
8
 73
4
 74
0
 40
0
 40
0
 40
0
 40
0
 40
1
 40
1
 40
1
 40
1
 10
176.570436
 20
126.052818
 30
0.0
 10
177.443561
 20
126.006490
 30
0.0
 10
178.425827
 20
125.946085
 30
0.0
 10
178.753249
 20
125.918569
 30
0.0
  0
SPLINE
  5
3fa
100
AcDbEntity
  8
0
 62
7
100
AcDbSpline
 70
8
 71
3
 72
8
 73
4
 74
0
 40
0
 40
0
 40
0
 40
0
 40
1
 40
1
 40
1
 40
1
 10
178.753249
 20
125.918569
 30
0.0
 10
179.080671
 20
125.891052
 30
0.0
 10
179.348561
 20
125.918569
 30
0.0
 10
179.348561
 20
125.978047
 30
0.0
  0
LWPOLYLINE
  5
3fb
100
AcDbEntity
  8
0
 62
7
100
AcDbPolyline
 90
3
 70
0
 10
168.775282
 20
132.846498
 30
0.0
 10
167.065545
 20
134.202911
 30
0.0
 10
168.134938
 20
132.273331
 30
0.0
  0
SPLINE
  5
3fc
100
AcDbEntity
  8
0
 62
7
100
AcDbSpline
 70
8
 71
3
 72
8
 73
4
 74
0
 40
0
 40
0
 40
0
 40
0
 40
1
 40
1
 40
1
 40
1
 10
223.930853
 20
131.695851
 30
0.0
 10
227.105403
 20
132.539079
 30
0.0
 10
230.665769
 20
133.150001
 30
0.0
 10
234.016743
 20
133.426491
 30
0.0
  0
LWPOLYLINE
  5
3fd
100
AcDbEntity
  8
0
 62
7
100
AcDbPolyline
 90
1
 70
1
 10
179.348561
 20
125.978047
 30
0.0
  0
SPLINE
  5
3fe
100
AcDbEntity
  8
0
 62
7
100
AcDbSpline
 70
8
 71
3
 72
8
 73
4
 74
0
 40
0
 40
0
 40
0
 40
0
 40
1
 40
1
 40
1
 40
1
 10
236.303272
 20
136.020016
 30
0.0
 10
236.402888
 20
137.762271
 30
0.0
 10
236.670805
 20
139.099872
 30
0.0
 10
237.263736
 20
140.815430
 30
0.0
  0
SPLINE
  5
3ff
100
AcDbEntity
  8
0
 62
7
100
AcDbSpline
 70
8
 71
3
 72
8
 73
4
 74
0
 40
0
 40
0
 40
0
 40
0
 40
1
 40
1
 40
1
 40
1
 10
237.263736
 20
140.815430
 30
0.0
 10
238.391708
 20
144.078934
 30
0.0
 10
238.356465
 20
144.602359
 30
0.0
 10
237.069479
 20
143.700923
 30
0.0
  0
SPLINE
  5
400
100
AcDbEntity
  8
0
 62
7
100
AcDbSpline
 70
8
 71
3
 72
8
 73
4
 74
0
 40
0
 40
0
 40
0
 40
0
 40
1
 40
1
 40
1
 40
1
 10
237.069479
 20
143.700923
 30
0.0
 10
236.253584
 20
143.129450
 30
0.0
 10
236.169473
 20
143.300926
 30
0.0
 10
236.590874
 20
144.676469
 30
0.0
  0
SPLINE
  5
401
100
AcDbEntity
  8
0
 62
7
100
AcDbSpline
 70
8
 71
3
 72
8
 73
4
 74
0
 40
0
 40
0
 40
0
 40
0
 40
1
 40
1
 40
1
 40
1
 10
236.590874
 20
144.676469
 30
0.0
 10
237.576633
 20
147.894172
 30
0.0
 10
240.232070
 20
151.257053
 30
0.0
 10
242.835835
 20
152.585103
 30
0.0
  0
SPLINE
  5
402
100
AcDbEntity
  8
0
 62
7
100
AcDbSpline
 70
8
 71
3
 72
8
 73
4
 74
0
 40
0
 40
0
 40
0
 40
0
 40
1
 40
1
 40
1
 40
1
 10
242.835835
 20
152.585103
 30
0.0
 10
244.489163
 20
153.428383
 30
0.0
 10
246.751853
 20
154.175592
 30
0.0
 10
247.718614
 20
154.197553
 30
0.0
  0
SPLINE
  5
403
100
AcDbEntity
  8
0
 62
7
100
AcDbSpline
 70
8
 71
3
 72
8
 73
4
 74
0
 40
0
 40
0
 40
0
 40
0
 40
1
 40
1
 40
1
 40
1
 10
247.718614
 20
154.197553
 30
0.0
 10
248.168803
 20
154.207871
 30
0.0
 10
248.764565
 20
154.305318
 30
0.0
 10
249.042563
 20
154.414326
 30
0.0
  0
SPLINE
  5
404
100
AcDbEntity
  8
0
 62
7
100
AcDbSpline
 70
8
 71
3
 72
8
 73
4
 74
0
 40
0
 40
0
 40
0
 40
0
 40
1
 40
1
 40
1
 40
1
 10
249.042563
 20
154.414326
 30
0.0
 10
250.034433
 20
154.803263
 30
0.0
 10
247.827993
 20
155.724199
 30
0.0
 10
243.297348
 20
156.812324
 30
0.0
  0
SPLINE
  5
405
100
AcDbEntity
  8
0
 62
7
100
AcDbSpline
 70
8
 71
3
 72
8
 73
4
 74
0
 40
0
 40
0
 40
0
 40
0
 40
1
 40
1
 40
1
 40
1
 10
243.297348
 20
156.812324
 30
0.0
 10
240.876331
 20
157.393772
 30
0.0
 10
237.433466
 20
158.429431
 30
0.0
 10
235.646524
 20
159.113797
 30
0.0
  0
SPLINE
  5
406
100
AcDbEntity
  8
0
 62
7
100
AcDbSpline
 70
8
 71
3
 72
8
 73
4
 74
0
 40
0
 40
0
 40
0
 40
0
 40
1
 40
1
 40
1
 40
1
 10
235.646524
 20
159.113797
 30
0.0
 10
230.649920
 20
161.027396
 30
0.0
 10
228.526639
 20
160.825386
 30
0.0
 10
225.259538
 20
158.125636
 30
0.0
  0
SPLINE
  5
407
100
AcDbEntity
  8
0
 62
7
100
AcDbSpline
 70
8
 71
3
 72
8
 73
4
 74
0
 40
0
 40
0
 40
0
 40
0
 40
1
 40
1
 40
1
 40
1
 10
225.259538
 20
158.125636
 30
0.0
 10
220.479443
 20
154.175592
 30
0.0
 10
216.654811
 20
145.337848
 30
0.0
 10
216.654811
 20
138.242331
 30
0.0
  0
SPLINE
  5
408
100
AcDbEntity
  8
0
 62
7
100
AcDbSpline
 70
8
 71
3
 72
8
 73
4
 74
0
 40
0
 40
0
 40
0
 40
0
 40
1
 40
1
 40
1
 40
1
 10
216.654811
 20
138.242331
 30
0.0
 10
216.654811
 20
136.286399
 30
0.0
 10
216.689313
 20
136.150562
 30
0.0
 10
217.101216
 20
136.485630
 30
0.0
  0
SPLINE
  5
409
100
AcDbEntity
  8
0
 62
7
100
AcDbSpline
 70
8
 71
3
 72
8
 73
4
 74
0
 40
0
 40
0
 40
0
 40
0
 40
1
 40
1
 40
1
 40
1
 10
217.101216
 20
136.485630
 30
0.0
 10
217.498065
 20
136.808422
 30
0.0
 10
217.525052
 20
136.789980
 30
0.0
 10
217.344289
 20
136.319578
 30
0.0
  0
SPLINE
  5
40a
100
AcDbEntity
  8
0
 62
7
100
AcDbSpline
 70
8
 71
3
 72
8
 73
4
 74
0
 40
0
 40
0
 40
0
 40
0
 40
1
 40
1
 40
1
 40
1
 10
217.344289
 20
136.319578
 30
0.0
 10
216.939741
 20
135.266800
 30
0.0
 10
216.840708
 20
131.989380
 30
0.0
 10
217.177125
 20
130.787801
 30
0.0
  0
LWPOLYLINE
  5
40b
100
AcDbEntity
  8
0
 62
7
100
AcDbPolyline
 90
3
 70
0
 10
234.016743
 20
133.426491
 30
0.0
 10
236.165133
 20
133.603788
 30
0.0
 10
236.303272
 20
136.020016
 30
0.0
  0
SPLINE
  5
40c
100
AcDbEntity
  8
0
 62
7
100
AcDbSpline
 70
8
 71
3
 72
8
 73
4
 74
0
 40
0
 40
0
 40
0
 40
0
 40
1
 40
1
 40
1
 40
1
 10
219.265032
 20
130.261519
 30
0.0
 10
220.230496
 20
130.625215
 30
0.0
 10
222.330124
 20
131.270666
 30
0.0
 10
223.930853
 20
131.695851
 30
0.0
  0
LWPOLYLINE
  5
40d
100
AcDbEntity
  8
0
 62
7
100
AcDbPolyline
 90
3
 70
0
 10
217.177125
 20
130.787801
 30
0.0
 10
217.509627
 20
129.600246
 30
0.0
 10
219.265032
 20
130.261519
 30
0.0
  0
SPLINE
  5
40e
100
AcDbEntity
  8
0
 62
7
100
AcDbSpline
 70
8
 71
3
 72
8
 73
4
 74
0
 40
0
 40
0
 40
0
 40
0
 40
1
 40
1
 40
1
 40
1
 10
172.907492
 20
138.721624
 30
0.0
 10
173.335111
 20
142.303897
 30
0.0
 10
173.686610
 20
143.722963
 30
0.0
 10
174.600402
 20
145.556102
 30
0.0
  0
SPLINE
  5
40f
100
AcDbEntity
  8
0
 62
7
100
AcDbSpline
 70
8
 71
3
 72
8
 73
4
 74
0
 40
0
 40
0
 40
0
 40
0
 40
1
 40
1
 40
1
 40
1
 10
174.600402
 20
145.556102
 30
0.0
 10
175.029080
 20
146.416104
 30
0.0
 10
175.379811
 20
147.164425
 30
0.0
 10
175.379811
 20
147.219061
 30
0.0
  0
SPLINE
  5
410
100
AcDbEntity
  8
0
 62
7
100
AcDbSpline
 70
8
 71
3
 72
8
 73
4
 74
0
 40
0
 40
0
 40
0
 40
0
 40
1
 40
1
 40
1
 40
1
 10
175.379811
 20
147.219061
 30
0.0
 10
175.379811
 20
147.408212
 30
0.0
 10
174.186646
 20
146.702171
 30
0.0
 10
173.593874
 20
146.162263
 30
0.0
  0
SPLINE
  5
411
100
AcDbEntity
  8
0
 62
7
100
AcDbSpline
 70
8
 71
3
 72
8
 73
4
 74
0
 40
0
 40
0
 40
0
 40
0
 40
1
 40
1
 40
1
 40
1
 10
173.593874
 20
146.162263
 30
0.0
 10
173.098733
 20
145.711280
 30
0.0
 10
172.998561
 20
145.691119
 30
0.0
 10
172.998561
 20
146.042459
 30
0.0
  0
SPLINE
  5
412
100
AcDbEntity
  8
0
 62
7
100
AcDbSpline
 70
8
 71
3
 72
8
 73
4
 74
0
 40
0
 40
0
 40
0
 40
0
 40
1
 40
1
 40
1
 40
1
 10
172.998561
 20
146.042459
 30
0.0
 10
172.998561
 20
146.821287
 30
0.0
 10
175.115043
 20
150.583979
 30
0.0
 10
176.905558
 20
152.988328
 30
0.0
  0
SPLINE
  5
413
100
AcDbEntity
  8
0
 62
7
100
AcDbSpline
 70
8
 71
3
 72
8
 73
4
 74
0
 40
0
 40
0
 40
0
 40
0
 40
1
 40
1
 40
1
 40
1
 10
176.905558
 20
152.988328
 30
0.0
 10
179.095964
 20
155.929648
 30
0.0
 10
182.772878
 20
159.737975
 30
0.0
 10
182.964886
 20
159.264212
 30
0.0
  0
SPLINE
  5
414
100
AcDbEntity
  8
0
 62
7
100
AcDbSpline
 70
8
 71
3
 72
8
 73
4
 74
0
 40
0
 40
0
 40
0
 40
0
 40
1
 40
1
 40
1
 40
1
 10
182.964886
 20
159.264212
 30
0.0
 10
183.049394
 20
159.055641
 30
0.0
 10
183.949851
 20
159.826029
 30
0.0
 10
185.308513
 20
161.269304
 30
0.0
  0
SPLINE
  5
415
100
AcDbEntity
  8
0
 62
7
100
AcDbSpline
 70
8
 71
3
 72
8
 73
4
 74
0
 40
0
 40
0
 40
0
 40
0
 40
1
 40
1
 40
1
 40
1
 10
185.308513
 20
161.269304
 30
0.0
 10
190.489186
 20
166.772717
 30
0.0
 10
196.695994
 20
169.583518
 30
0.0
 10
204.538667
 20
169.977853
 30
0.0
  0
SPLINE
  5
416
100
AcDbEntity
  8
0
 62
7
100
AcDbSpline
 70
8
 71
3
 72
8
 73
4
 74
0
 40
0
 40
0
 40
0
 40
0
 40
1
 40
1
 40
1
 40
1
 10
204.538667
 20
169.977853
 30
0.0
 10
207.112111
 20
170.107234
 30
0.0
 10
207.605135
 20
170.196902
 30
0.0
 10
207.360925
 20
170.491171
 30
0.0
  0
SPLINE
  5
417
100
AcDbEntity
  8
0
 62
7
100
AcDbSpline
 70
8
 71
3
 72
8
 73
4
 74
0
 40
0
 40
0
 40
0
 40
0
 40
1
 40
1
 40
1
 40
1
 10
207.360925
 20
170.491171
 30
0.0
 10
207.119625
 20
170.781922
 30
0.0
 10
207.302875
 20
170.847115
 30
0.0
 10
208.354197
 20
170.844549
 30
0.0
  0
SPLINE
  5
418
100
AcDbEntity
  8
0
 62
7
100
AcDbSpline
 70
8
 71
3
 72
8
 73
4
 74
0
 40
0
 40
0
 40
0
 40
0
 40
1
 40
1
 40
1
 40
1
 10
208.354197
 20
170.844549
 30
0.0
 10
209.063228
 20
170.841903
 30
0.0
 10
210.265521
 20
170.675771
 30
0.0
 10
211.025933
 20
170.473338
 30
0.0
  0
LWPOLYLINE
  5
419
100
AcDbEntity
  8
0
 62
7
100
AcDbPolyline
 90
1
 70
1
 10
223.930853
 20
131.695851
 30
0.0
  0
SPLINE
  5
41a
100
AcDbEntity
  8
0
 62
7
100
AcDbSpline
 70
8
 71
3
 72
8
 73
4
 74
0
 40
0
 40
0
 40
0
 40
0
 40
1
 40
1
 40
1
 40
1
 10
212.035266
 20
170.827086
 30
0.0
 10
211.455034
 20
171.949131
 30
0.0
 10
209.604750
 20
173.477920
 30
0.0
 10
207.823919
 20
174.306648
 30
0.0
  0
SPLINE
  5
41b
100
AcDbEntity
  8
0
 62
7
100
AcDbSpline
 70
8
 71
3
 72
8
 73
4
 74
0
 40
0
 40
0
 40
0
 40
0
 40
1
 40
1
 40
1
 40
1
 10
207.823919
 20
174.306648
 30
0.0
 10
205.492781
 20
175.391493
 30
0.0
 10
203.365134
 20
175.891899
 30
0.0
 10
200.647520
 20
175.994478
 30
0.0
  0
SPLINE
  5
41c
100
AcDbEntity
  8
0
 62
7
100
AcDbSpline
 70
8
 71
3
 72
8
 73
4
 74
0
 40
0
 40
0
 40
0
 40
0
 40
1
 40
1
 40
1
 40
1
 10
200.647520
 20
175.994478
 30
0.0
 10
199.337832
 20
176.043929
 30
0.0
 10
198.048756
 20
176.172516
 30
0.0
 10
197.782929
 20
176.280255
 30
0.0
  0
SPLINE
  5
41d
100
AcDbEntity
  8
0
 62
7
100
AcDbSpline
 70
8
 71
3
 72
8
 73
4
 74
0
 40
0
 40
0
 40
0
 40
0
 40
1
 40
1
 40
1
 40
1
 10
197.782929
 20
176.280255
 30
0.0
 10
197.082947
 20
176.563967
 30
0.0
 10
194.098500
 20
176.233265
 30
0.0
 10
191.651686
 20
175.600884
 30
0.0
  0
SPLINE
  5
41e
100
AcDbEntity
  8
0
 62
7
100
AcDbSpline
 70
8
 71
3
 72
8
 73
4
 74
0
 40
0
 40
0
 40
0
 40
0
 40
1
 40
1
 40
1
 40
1
 10
191.651686
 20
175.600884
 30
0.0
 10
184.131275
 20
173.657228
 30
0.0
 10
176.680238
 20
170.210925
 30
0.0
 10
173.742675
 20
167.317415
 30
0.0
  0
LWPOLYLINE
  5
41f
100
AcDbEntity
  8
0
 62
7
100
AcDbPolyline
 90
3
 70
0
 10
211.025933
 20
170.473338
 30
0.0
 10
212.408540
 20
170.105250
 30
0.0
 10
212.035266
 20
170.827086
 30
0.0
  0
SPLINE
  5
420
100
AcDbEntity
  8
0
 62
7
100
AcDbSpline
 70
8
 71
3
 72
8
 73
4
 74
0
 40
0
 40
0
 40
0
 40
0
 40
1
 40
1
 40
1
 40
1
 10
171.713163
 20
166.801213
 30
0.0
 10
171.224504
 20
166.146554
 30
0.0
 10
169.753738
 20
164.677931
 30
0.0
 10
168.444844
 20
163.537604
 30
0.0
  0
SPLINE
  5
421
100
AcDbEntity
  8
0
 62
7
100
AcDbSpline
 70
8
 71
3
 72
8
 73
4
 74
0
 40
0
 40
0
 40
0
 40
0
 40
1
 40
1
 40
1
 40
1
 10
168.444844
 20
163.537604
 30
0.0
 10
164.825741
 20
160.384643
 30
0.0
 10
163.080338
 20
158.390722
 30
0.0
 10
162.049256
 20
156.231431
 30
0.0
  0
SPLINE
  5
422
100
AcDbEntity
  8
0
 62
7
100
AcDbSpline
 70
8
 71
3
 72
8
 73
4
 74
0
 40
0
 40
0
 40
0
 40
0
 40
1
 40
1
 40
1
 40
1
 10
162.049256
 20
156.231431
 30
0.0
 10
160.773409
 20
153.559510
 30
0.0
 10
160.427016
 20
151.510391
 30
0.0
 10
160.998278
 20
150.014517
 30
0.0
  0
SPLINE
  5
423
100
AcDbEntity
  8
0
 62
7
100
AcDbSpline
 70
8
 71
3
 72
8
 73
4
 74
0
 40
0
 40
0
 40
0
 40
0
 40
1
 40
1
 40
1
 40
1
 10
160.998278
 20
150.014517
 30
0.0
 10
161.238811
 20
149.384729
 30
0.0
 10
161.531493
 20
148.903214
 30
0.0
 10
161.648677
 20
148.944489
 30
0.0
  0
SPLINE
  5
424
100
AcDbEntity
  8
0
 62
7
100
AcDbSpline
 70
8
 71
3
 72
8
 73
4
 74
0
 40
0
 40
0
 40
0
 40
0
 40
1
 40
1
 40
1
 40
1
 10
161.648677
 20
148.944489
 30
0.0
 10
161.765861
 20
148.985790
 30
0.0
 10
163.391461
 20
151.238506
 30
0.0
 10
165.261139
 20
153.950564
 30
0.0
  0
LWPOLYLINE
  5
425
100
AcDbEntity
  8
0
 62
7
100
AcDbPolyline
 90
5
 70
0
 10
173.742675
 20
167.317415
 30
0.0
 10
172.766998
 20
166.356395
 30
0.0
 10
172.684342
 20
167.173958
 30
0.0
 10
172.601686
 20
167.991520
 30
0.0
 10
171.713163
 20
166.801213
 30
0.0
  0
SPLINE
  5
426
100
AcDbEntity
  8
0
 62
7
100
AcDbSpline
 70
8
 71
3
 72
8
 73
4
 74
0
 40
0
 40
0
 40
0
 40
0
 40
1
 40
1
 40
1
 40
1
 10
168.325755
 20
137.715943
 30
0.0
 10
169.014333
 20
137.167144
 30
0.0
 10
171.966607
 20
135.920189
 30
0.0
 10
172.333319
 20
136.023271
 30
0.0
  0
SPLINE
  5
427
100
AcDbEntity
  8
0
 62
7
100
AcDbSpline
 70
8
 71
3
 72
8
 73
4
 74
0
 40
0
 40
0
 40
0
 40
0
 40
1
 40
1
 40
1
 40
1
 10
172.333319
 20
136.023271
 30
0.0
 10
172.476750
 20
136.063593
 30
0.0
 10
172.735142
 20
137.277845
 30
0.0
 10
172.907492
 20
138.721624
 30
0.0
  0
LWPOLYLINE
  5
428
100
AcDbEntity
  8
0
 62
7
100
AcDbPolyline
 90
7
 70
0
 10
165.261139
 20
153.950564
 30
0.0
 10
168.660559
 20
158.881519
 30
0.0
 10
169.215655
 20
154.479731
 30
0.0
 10
169.770750
 20
150.077911
 30
0.0
 10
168.762370
 20
144.124786
 30
0.0
 10
167.753990
 20
138.171661
 30
0.0
 10
168.325755
 20
137.715943
 30
0.0
  0
SPLINE
  5
429
100
AcDbEntity
  8
0
 62
7
100
AcDbSpline
 70
8
 71
3
 72
8
 73
4
 74
0
 40
0
 40
0
 40
0
 40
0
 40
1
 40
1
 40
1
 40
1
 10
343.181358
 20
139.351438
 30
0.0
 10
347.880146
 20
139.782047
 30
0.0
 10
359.572930
 20
140.741268
 30
0.0
 10
369.165320
 20
141.483054
 30
0.0
  0
LWPOLYLINE
  5
42a
100
AcDbEntity
  8
0
 62
7
100
AcDbPolyline
 90
1
 70
1
 10
172.907492
 20
138.721624
 30
0.0
  0
SPLINE
  5
42b
100
AcDbEntity
  8
0
 62
7
100
AcDbSpline
 70
8
 71
3
 72
8
 73
4
 74
0
 40
0
 40
0
 40
0
 40
0
 40
1
 40
1
 40
1
 40
1
 10
397.103282
 20
149.262809
 30
0.0
 10
404.990247
 20
154.094683
 30
0.0
 10
407.890530
 20
155.740259
 30
0.0
 10
408.766724
 20
155.880514
 30
0.0
  0
SPLINE
  5
42c
100
AcDbEntity
  8
0
 62
7
100
AcDbSpline
 70
8
 71
3
 72
8
 73
4
 74
0
 40
0
 40
0
 40
0
 40
0
 40
1
 40
1
 40
1
 40
1
 10
408.766724
 20
155.880514
 30
0.0
 10
409.895754
 20
156.061198
 30
0.0
 10
410.041090
 20
156.203650
 30
0.0
 10
413.325548
 20
160.348581
 30
0.0
  0
SPLINE
  5
42d
100
AcDbEntity
  8
0
 62
7
100
AcDbSpline
 70
8
 71
3
 72
8
 73
4
 74
0
 40
0
 40
0
 40
0
 40
0
 40
1
 40
1
 40
1
 40
1
 10
413.325548
 20
160.348581
 30
0.0
 10
415.191469
 20
162.703346
 30
0.0
 10
418.180599
 20
166.118270
 30
0.0
 10
419.968045
 20
167.937281
 30
0.0
  0
LWPOLYLINE
  5
42e
100
AcDbEntity
  8
0
 62
7
100
AcDbPolyline
 90
3
 70
0
 10
369.165320
 20
141.483054
 30
0.0
 10
386.606045
 20
142.831767
 30
0.0
 10
397.103282
 20
149.262809
 30
0.0
  0
SPLINE
  5
42f
100
AcDbEntity
  8
0
 62
7
100
AcDbSpline
 70
8
 71
3
 72
8
 73
4
 74
0
 40
0
 40
0
 40
0
 40
0
 40
1
 40
1
 40
1
 40
1
 10
422.433141
 20
187.928060
 30
0.0
 10
419.418373
 20
191.142430
 30
0.0
 10
419.019672
 20
191.696255
 30
0.0
 10
416.693615
 20
195.900987
 30
0.0
  0
LWPOLYLINE
  5
430
100
AcDbEntity
  8
0
 62
7
100
AcDbPolyline
 90
7
 70
0
 10
419.968045
 20
167.937281
 30
0.0
 10
423.217949
 20
171.244572
 30
0.0
 10
424.446779
 20
174.396792
 30
0.0
 10
425.675637
 20
177.548985
 30
0.0
 10
425.672991
 20
181.011375
 30
0.0
 10
425.672991
 20
184.473739
 30
0.0
 10
422.433141
 20
187.928060
 30
0.0
  0
SPLINE
  5
431
100
AcDbEntity
  8
0
 62
7
100
AcDbSpline
 70
8
 71
3
 72
8
 73
4
 74
0
 40
0
 40
0
 40
0
 40
0
 40
1
 40
1
 40
1
 40
1
 10
403.289109
 20
204.410331
 30
0.0
 10
399.596716
 20
204.165512
 30
0.0
 10
398.222073
 20
204.319553
 30
0.0
 10
390.514734
 20
205.841806
 30
0.0
  0
LWPOLYLINE
  5
432
100
AcDbEntity
  8
0
 62
7
100
AcDbPolyline
 90
5
 70
0
 10
416.693615
 20
195.900987
 30
0.0
 10
414.193937
 20
200.419594
 30
0.0
 10
410.314405
 20
202.519248
 30
0.0
 10
406.434872
 20
204.618929
 30
0.0
 10
403.289109
 20
204.410331
 30
0.0
  0
SPLINE
  5
433
100
AcDbEntity
  8
0
 62
7
100
AcDbSpline
 70
8
 71
3
 72
8
 73
4
 74
0
 40
0
 40
0
 40
0
 40
0
 40
1
 40
1
 40
1
 40
1
 10
381.978826
 20
210.243626
 30
0.0
 10
380.396988
 20
212.049831
 30
0.0
 10
379.151780
 20
213.576662
 30
0.0
 10
379.211708
 20
213.636564
 30
0.0
  0
SPLINE
  5
434
100
AcDbEntity
  8
0
 62
7
100
AcDbSpline
 70
8
 71
3
 72
8
 73
4
 74
0
 40
0
 40
0
 40
0
 40
0
 40
1
 40
1
 40
1
 40
1
 10
379.211708
 20
213.636564
 30
0.0
 10
379.352651
 20
213.777507
 30
0.0
 10
386.257430
 20
215.297697
 30
0.0
 10
386.756645
 20
215.297697
 30
0.0
  0
SPLINE
  5
435
100
AcDbEntity
  8
0
 62
7
100
AcDbSpline
 70
8
 71
3
 72
8
 73
4
 74
0
 40
0
 40
0
 40
0
 40
0
 40
1
 40
1
 40
1
 40
1
 10
386.756645
 20
215.297697
 30
0.0
 10
386.965349
 20
215.297697
 30
0.0
 10
388.276782
 20
214.882328
 30
0.0
 10
389.670951
 20
214.374672
 30
0.0
  0
SPLINE
  5
436
100
AcDbEntity
  8
0
 62
7
100
AcDbSpline
 70
8
 71
3
 72
8
 73
4
 74
0
 40
0
 40
0
 40
0
 40
0
 40
1
 40
1
 40
1
 40
1
 10
389.670951
 20
214.374672
 30
0.0
 10
393.516882
 20
212.974259
 30
0.0
 10
403.213649
 20
211.594060
 30
0.0
 10
409.220511
 20
211.592049
 30
0.0
  0
LWPOLYLINE
  5
437
100
AcDbEntity
  8
0
 62
7
100
AcDbPolyline
 90
3
 70
0
 10
390.514734
 20
205.841806
 30
0.0
 10
384.854900
 20
206.959645
 30
0.0
 10
381.978826
 20
210.243626
 30
0.0
  0
SPLINE
  5
438
100
AcDbEntity
  8
0
 62
7
100
AcDbSpline
 70
8
 71
3
 72
8
 73
4
 74
0
 40
0
 40
0
 40
0
 40
0
 40
1
 40
1
 40
1
 40
1
 10
423.065892
 20
201.867447
 30
0.0
 10
428.251752
 20
196.520377
 30
0.0
 10
432.877754
 20
191.699007
 30
0.0
 10
433.345907
 20
191.153304
 30
0.0
  0
SPLINE
  5
439
100
AcDbEntity
  8
0
 62
7
100
AcDbSpline
 70
8
 71
3
 72
8
 73
4
 74
0
 40
0
 40
0
 40
0
 40
0
 40
1
 40
1
 40
1
 40
1
 10
433.345907
 20
191.153304
 30
0.0
 10
433.814061
 20
190.607601
 30
0.0
 10
434.405670
 20
190.161116
 30
0.0
 10
434.660596
 20
190.161116
 30
0.0
  0
SPLINE
  5
43a
100
AcDbEntity
  8
0
 62
7
100
AcDbSpline
 70
8
 71
3
 72
8
 73
4
 74
0
 40
0
 40
0
 40
0
 40
0
 40
1
 40
1
 40
1
 40
1
 10
434.660596
 20
190.161116
 30
0.0
 10
435.313085
 20
190.161116
 30
0.0
 10
435.460325
 20
192.143004
 30
0.0
 10
435.466516
 20
201.009033
 30
0.0
  0
SPLINE
  5
43b
100
AcDbEntity
  8
0
 62
7
100
AcDbSpline
 70
8
 71
3
 72
8
 73
4
 74
0
 40
0
 40
0
 40
0
 40
0
 40
1
 40
1
 40
1
 40
1
 10
435.466516
 20
201.009033
 30
0.0
 10
435.479481
 20
219.674382
 30
0.0
 10
436.672064
 20
247.720400
 30
0.0
 10
438.256468
 20
266.626017
 30
0.0
  0
SPLINE
  5
43c
100
AcDbEntity
  8
0
 62
7
100
AcDbSpline
 70
8
 71
3
 72
8
 73
4
 74
0
 40
0
 40
0
 40
0
 40
0
 40
1
 40
1
 40
1
 40
1
 10
438.256468
 20
266.626017
 30
0.0
 10
438.878821
 20
274.052183
 30
0.0
 10
438.900014
 20
274.774549
 30
0.0
 10
438.522136
 20
275.678948
 30
0.0
  0
SPLINE
  5
43d
100
AcDbEntity
  8
0
 62
7
100
AcDbSpline
 70
8
 71
3
 72
8
 73
4
 74
0
 40
0
 40
0
 40
0
 40
0
 40
1
 40
1
 40
1
 40
1
 10
438.522136
 20
275.678948
 30
0.0
 10
438.039113
 20
276.834965
 30
0.0
 10
436.503471
 20
278.446701
 30
0.0
 10
435.506548
 20
278.843946
 30
0.0
  0
SPLINE
  5
43e
100
AcDbEntity
  8
0
 62
7
100
AcDbSpline
 70
8
 71
3
 72
8
 73
4
 74
0
 40
0
 40
0
 40
0
 40
0
 40
1
 40
1
 40
1
 40
1
 10
435.506548
 20
278.843946
 30
0.0
 10
434.323040
 20
279.315540
 30
0.0
 10
431.263478
 20
279.140359
 30
0.0
 10
427.819873
 20
278.403812
 30
0.0
  0
SPLINE
  5
43f
100
AcDbEntity
  8
0
 62
7
100
AcDbSpline
 70
8
 71
3
 72
8
 73
4
 74
0
 40
0
 40
0
 40
0
 40
0
 40
1
 40
1
 40
1
 40
1
 10
427.819873
 20
278.403812
 30
0.0
 10
423.512800
 20
277.482586
 30
0.0
 10
420.677366
 20
277.431971
 30
0.0
 10
419.090052
 20
278.247999
 30
0.0
  0
SPLINE
  5
440
100
AcDbEntity
  8
0
 62
7
100
AcDbSpline
 70
8
 71
3
 72
8
 73
4
 74
0
 40
0
 40
0
 40
0
 40
0
 40
1
 40
1
 40
1
 40
1
 10
419.090052
 20
278.247999
 30
0.0
 10
418.451162
 20
278.576426
 30
0.0
 10
417.593754
 20
279.211585
 30
0.0
 10
417.184681
 20
279.659472
 30
0.0
  0
LWPOLYLINE
  5
441
100
AcDbEntity
  8
0
 62
7
100
AcDbPolyline
 90
3
 70
0
 10
409.220511
 20
211.592049
 30
0.0
 10
413.637069
 20
211.589403
 30
0.0
 10
423.065892
 20
201.867447
 30
0.0
  0
SPLINE
  5
442
100
AcDbEntity
  8
0
 62
7
100
AcDbSpline
 70
8
 71
3
 72
8
 73
4
 74
0
 40
0
 40
0
 40
0
 40
0
 40
1
 40
1
 40
1
 40
1
 10
438.237498
 20
294.630065
 30
0.0
 10
438.234323
 20
296.108075
 30
0.0
 10
438.204557
 20
309.989201
 30
0.0
 10
438.171352
 20
325.477010
 30
0.0
  0
LWPOLYLINE
  5
443
100
AcDbEntity
  8
0
 62
7
100
AcDbPolyline
 90
5
 70
0
 10
417.184681
 20
279.659472
 30
0.0
 10
416.440937
 20
280.473780
 30
0.0
 10
427.342115
 20
286.208280
 30
0.0
 10
438.243319
 20
291.942779
 30
0.0
 10
438.237498
 20
294.630065
 30
0.0
  0
SPLINE
  5
444
100
AcDbEntity
  8
0
 62
7
100
AcDbSpline
 70
8
 71
3
 72
8
 73
4
 74
0
 40
0
 40
0
 40
0
 40
0
 40
1
 40
1
 40
1
 40
1
 10
425.741782
 20
345.890559
 30
0.0
 10
418.938684
 20
341.630135
 30
0.0
 10
412.598605
 20
337.650984
 30
0.0
 10
411.652720
 20
337.048001
 30
0.0
  0
SPLINE
  5
445
100
AcDbEntity
  8
0
 62
7
100
AcDbSpline
 70
8
 71
3
 72
8
 73
4
 74
0
 40
0
 40
0
 40
0
 40
0
 40
1
 40
1
 40
1
 40
1
 10
411.652720
 20
337.048001
 30
0.0
 10
410.426641
 20
336.266404
 30
0.0
 10
409.648078
 20
335.950944
 30
0.0
 10
408.940741
 20
335.949152
 30
0.0
  0
LWPOLYLINE
  5
446
100
AcDbEntity
  8
0
 62
7
100
AcDbPolyline
 90
3
 70
0
 10
438.171352
 20
325.477010
 30
0.0
 10
438.111053
 20
353.636781
 30
0.0
 10
425.741782
 20
345.890559
 30
0.0
  0
SPLINE
  5
447
100
AcDbEntity
  8
0
 62
7
100
AcDbSpline
 70
8
 71
3
 72
8
 73
4
 74
0
 40
0
 40
0
 40
0
 40
0
 40
1
 40
1
 40
1
 40
1
 10
406.030324
 20
348.533315
 30
0.0
 10
404.975298
 20
348.433453
 30
0.0
 10
399.290064
 20
347.823002
 30
0.0
 10
393.396470
 20
347.176757
 30
0.0
  0
SPLINE
  5
448
100
AcDbEntity
  8
0
 62
7
100
AcDbSpline
 70
8
 71
3
 72
8
 73
4
 74
0
 40
0
 40
0
 40
0
 40
0
 40
1
 40
1
 40
1
 40
1
 10
393.396470
 20
347.176757
 30
0.0
 10
387.502876
 20
346.530509
 30
0.0
 10
382.502251
 20
346.005526
 30
0.0
 10
382.283970
 20
346.010127
 30
0.0
  0
SPLINE
  5
449
100
AcDbEntity
  8
0
 62
7
100
AcDbSpline
 70
8
 71
3
 72
8
 73
4
 74
0
 40
0
 40
0
 40
0
 40
0
 40
1
 40
1
 40
1
 40
1
 10
382.283970
 20
346.010127
 30
0.0
 10
382.065689
 20
346.014731
 30
0.0
 10
386.054282
 20
348.135638
 30
0.0
 10
391.147512
 20
350.723263
 30
0.0
  0
SPLINE
  5
44a
100
AcDbEntity
  8
0
 62
7
100
AcDbSpline
 70
8
 71
3
 72
8
 73
4
 74
0
 40
0
 40
0
 40
0
 40
0
 40
1
 40
1
 40
1
 40
1
 10
391.147512
 20
350.723263
 30
0.0
 10
401.144449
 20
355.802229
 30
0.0
 10
407.079212
 20
359.006942
 30
0.0
 10
409.800637
 20
360.795766
 30
0.0
  0
SPLINE
  5
44b
100
AcDbEntity
  8
0
 62
7
100
AcDbSpline
 70
8
 71
3
 72
8
 73
4
 74
0
 40
0
 40
0
 40
0
 40
0
 40
1
 40
1
 40
1
 40
1
 10
409.800637
 20
360.795766
 30
0.0
 10
411.703044
 20
362.046240
 30
0.0
 10
417.479083
 20
364.910748
 30
0.0
 10
420.053241
 20
365.880327
 30
0.0
  0
SPLINE
  5
44c
100
AcDbEntity
  8
0
 62
7
100
AcDbSpline
 70
8
 71
3
 72
8
 73
4
 74
0
 40
0
 40
0
 40
0
 40
0
 40
1
 40
1
 40
1
 40
1
 10
420.053241
 20
365.880327
 30
0.0
 10
420.962746
 20
366.222899
 30
0.0
 10
421.706887
 20
366.640671
 30
0.0
 10
421.706887
 20
366.808705
 30
0.0
  0
SPLINE
  5
44d
100
AcDbEntity
  8
0
 62
7
100
AcDbSpline
 70
8
 71
3
 72
8
 73
4
 74
0
 40
0
 40
0
 40
0
 40
0
 40
1
 40
1
 40
1
 40
1
 10
421.706887
 20
366.808705
 30
0.0
 10
421.706887
 20
367.087761
 30
0.0
 10
420.405613
 20
367.441377
 30
0.0
 10
416.415220
 20
368.246681
 30
0.0
  0
SPLINE
  5
44e
100
AcDbEntity
  8
0
 62
7
100
AcDbSpline
 70
8
 71
3
 72
8
 73
4
 74
0
 40
0
 40
0
 40
0
 40
0
 40
1
 40
1
 40
1
 40
1
 10
416.415220
 20
368.246681
 30
0.0
 10
414.302998
 20
368.672954
 30
0.0
 10
406.913345
 20
372.569407
 30
0.0
 10
404.078096
 20
374.751873
 30
0.0
  0
SPLINE
  5
44f
100
AcDbEntity
  8
0
 62
7
100
AcDbSpline
 70
8
 71
3
 72
8
 73
4
 74
0
 40
0
 40
0
 40
0
 40
0
 40
1
 40
1
 40
1
 40
1
 10
404.078096
 20
374.751873
 30
0.0
 10
401.139819
 20
377.013645
 30
0.0
 10
399.523611
 20
378.610357
 30
0.0
 10
399.182749
 20
379.588167
 30
0.0
  0
LWPOLYLINE
  5
450
100
AcDbEntity
  8
0
 62
7
100
AcDbPolyline
 90
5
 70
0
 10
408.940741
 20
335.949152
 30
0.0
 10
407.948553
 20
335.946507
 30
0.0
 10
407.948553
 20
342.330693
 30
0.0
 10
407.948553
 20
348.714880
 30
0.0
 10
406.030324
 20
348.533315
 30
0.0
  0
SPLINE
  5
451
100
AcDbEntity
  8
0
 62
7
100
AcDbSpline
 70
8
 71
3
 72
8
 73
4
 74
0
 40
0
 40
0
 40
0
 40
0
 40
1
 40
1
 40
1
 40
1
 10
395.959012
 20
380.500202
 30
0.0
 10
394.331322
 20
380.584768
 30
0.0
 10
386.272564
 20
380.834074
 30
0.0
 10
378.050637
 20
381.054218
 30
0.0
  0
SPLINE
  5
452
100
AcDbEntity
  8
0
 62
7
100
AcDbSpline
 70
8
 71
3
 72
8
 73
4
 74
0
 40
0
 40
0
 40
0
 40
0
 40
1
 40
1
 40
1
 40
1
 10
378.050637
 20
381.054218
 30
0.0
 10
365.085868
 20
381.401352
 30
0.0
 10
362.118354
 20
381.559951
 30
0.0
 10
355.693345
 20
382.249111
 30
0.0
  0
SPLINE
  5
453
100
AcDbEntity
  8
0
 62
7
100
AcDbSpline
 70
8
 71
3
 72
8
 73
4
 74
0
 40
0
 40
0
 40
0
 40
0
 40
1
 40
1
 40
1
 40
1
 10
355.693345
 20
382.249111
 30
0.0
 10
351.618762
 20
382.686160
 30
0.0
 10
347.409082
 20
383.222021
 30
0.0
 10
346.338472
 20
383.439916
 30
0.0
  0
SPLINE
  5
454
100
AcDbEntity
  8
0
 62
7
100
AcDbSpline
 70
8
 71
3
 72
8
 73
4
 74
0
 40
0
 40
0
 40
0
 40
0
 40
1
 40
1
 40
1
 40
1
 10
346.338472
 20
383.439916
 30
0.0
 10
343.626652
 20
383.991847
 30
0.0
 10
341.907865
 20
383.936605
 30
0.0
 10
338.940246
 20
383.202135
 30
0.0
  0
SPLINE
  5
455
100
AcDbEntity
  8
0
 62
7
100
AcDbSpline
 70
8
 71
3
 72
8
 73
4
 74
0
 40
0
 40
0
 40
0
 40
0
 40
1
 40
1
 40
1
 40
1
 10
338.940246
 20
383.202135
 30
0.0
 10
337.531419
 20
382.853459
 30
0.0
 10
335.545324
 20
382.429750
 30
0.0
 10
334.526678
 20
382.260560
 30
0.0
  0
SPLINE
  5
456
100
AcDbEntity
  8
0
 62
7
100
AcDbSpline
 70
8
 71
3
 72
8
 73
4
 74
0
 40
0
 40
0
 40
0
 40
0
 40
1
 40
1
 40
1
 40
1
 10
334.526678
 20
382.260560
 30
0.0
 10
333.508033
 20
382.091367
 30
0.0
 10
332.419378
 20
381.901306
 30
0.0
 10
332.107434
 20
381.838203
 30
0.0
  0
SPLINE
  5
457
100
AcDbEntity
  8
0
 62
7
100
AcDbSpline
 70
8
 71
3
 72
8
 73
4
 74
0
 40
0
 40
0
 40
0
 40
0
 40
1
 40
1
 40
1
 40
1
 10
332.107434
 20
381.838203
 30
0.0
 10
331.571335
 20
381.729755
 30
0.0
 10
331.634730
 20
381.538578
 30
0.0
 10
333.264986
 20
378.348010
 30
0.0
  0
SPLINE
  5
458
100
AcDbEntity
  8
0
 62
7
100
AcDbSpline
 70
8
 71
3
 72
8
 73
4
 74
0
 40
0
 40
0
 40
0
 40
0
 40
1
 40
1
 40
1
 40
1
 10
333.264986
 20
378.348010
 30
0.0
 10
334.826398
 20
375.292189
 30
0.0
 10
335.239757
 20
374.718950
 30
0.0
 10
337.630056
 20
372.294518
 30
0.0
  0
SPLINE
  5
459
100
AcDbEntity
  8
0
 62
7
100
AcDbSpline
 70
8
 71
3
 72
8
 73
4
 74
0
 40
0
 40
0
 40
0
 40
0
 40
1
 40
1
 40
1
 40
1
 10
337.630056
 20
372.294518
 30
0.0
 10
340.225010
 20
369.662522
 30
0.0
 10
340.305152
 20
369.607065
 30
0.0
 10
342.293337
 20
369.068313
 30
0.0
  0
SPLINE
  5
45a
100
AcDbEntity
  8
0
 62
7
100
AcDbSpline
 70
8
 71
3
 72
8
 73
4
 74
0
 40
0
 40
0
 40
0
 40
0
 40
1
 40
1
 40
1
 40
1
 10
342.293337
 20
369.068313
 30
0.0
 10
343.405936
 20
368.766815
 30
0.0
 10
345.387824
 20
368.325643
 30
0.0
 10
346.697512
 20
368.087929
 30
0.0
  0
SPLINE
  5
45b
100
AcDbEntity
  8
0
 62
7
100
AcDbSpline
 70
8
 71
3
 72
8
 73
4
 74
0
 40
0
 40
0
 40
0
 40
0
 40
1
 40
1
 40
1
 40
1
 10
346.697512
 20
368.087929
 30
0.0
 10
350.290104
 20
367.435858
 30
0.0
 10
354.077455
 20
366.437982
 30
0.0
 10
355.724751
 20
365.709465
 30
0.0
  0
LWPOLYLINE
  5
45c
100
AcDbEntity
  8
0
 62
7
100
AcDbPolyline
 90
3
 70
0
 10
399.182749
 20
379.588167
 30
0.0
 10
398.918404
 20
380.346450
 30
0.0
 10
395.959012
 20
380.500202
 30
0.0
  0
SPLINE
  5
45d
100
AcDbEntity
  8
0
 62
7
100
AcDbSpline
 70
8
 71
3
 72
8
 73
4
 74
0
 40
0
 40
0
 40
0
 40
0
 40
1
 40
1
 40
1
 40
1
 10
356.443042
 20
364.422873
 30
0.0
 10
356.027911
 20
364.073556
 30
0.0
 10
355.272684
 20
363.665331
 30
0.0
 10
354.764763
 20
363.515704
 30
0.0
  0
SPLINE
  5
45e
100
AcDbEntity
  8
0
 62
7
100
AcDbSpline
 70
8
 71
3
 72
8
 73
4
 74
0
 40
0
 40
0
 40
0
 40
0
 40
1
 40
1
 40
1
 40
1
 10
354.764763
 20
363.515704
 30
0.0
 10
354.256843
 20
363.366079
 30
0.0
 10
351.460012
 20
362.122691
 30
0.0
 10
348.549595
 20
360.752623
 30
0.0
  0
SPLINE
  5
45f
100
AcDbEntity
  8
0
 62
7
100
AcDbSpline
 70
8
 71
3
 72
8
 73
4
 74
0
 40
0
 40
0
 40
0
 40
0
 40
1
 40
1
 40
1
 40
1
 10
348.549595
 20
360.752623
 30
0.0
 10
345.639178
 20
359.382555
 30
0.0
 10
340.559284
 20
357.090292
 30
0.0
 10
337.260935
 20
355.658708
 30
0.0
  0
SPLINE
  5
460
100
AcDbEntity
  8
0
 62
7
100
AcDbSpline
 70
8
 71
3
 72
8
 73
4
 74
0
 40
0
 40
0
 40
0
 40
0
 40
1
 40
1
 40
1
 40
1
 10
337.260935
 20
355.658708
 30
0.0
 10
332.648798
 20
353.656895
 30
0.0
 10
331.199014
 20
352.913307
 30
0.0
 10
330.982770
 20
352.438666
 30
0.0
  0
SPLINE
  5
461
100
AcDbEntity
  8
0
 62
7
100
AcDbSpline
 70
8
 71
3
 72
8
 73
4
 74
0
 40
0
 40
0
 40
0
 40
0
 40
1
 40
1
 40
1
 40
1
 10
330.982770
 20
352.438666
 30
0.0
 10
330.749751
 20
351.927282
 30
0.0
 10
330.500540
 20
351.821507
 30
0.0
 10
329.528726
 20
351.821507
 30
0.0
  0
SPLINE
  5
462
100
AcDbEntity
  8
0
 62
7
100
AcDbSpline
 70
8
 71
3
 72
8
 73
4
 74
0
 40
0
 40
0
 40
0
 40
0
 40
1
 40
1
 40
1
 40
1
 10
329.528726
 20
351.821507
 30
0.0
 10
328.762466
 20
351.821507
 30
0.0
 10
327.591023
 20
351.488854
 30
0.0
 10
326.149600
 20
350.861942
 30
0.0
  0
SPLINE
  5
463
100
AcDbEntity
  8
0
 62
7
100
AcDbSpline
 70
8
 71
3
 72
8
 73
4
 74
0
 40
0
 40
0
 40
0
 40
0
 40
1
 40
1
 40
1
 40
1
 10
326.149600
 20
350.861942
 30
0.0
 10
322.654798
 20
349.341956
 30
0.0
 10
322.580026
 20
349.339241
 30
0.0
 10
320.990727
 20
350.674556
 30
0.0
  0
LWPOLYLINE
  5
464
100
AcDbEntity
  8
0
 62
7
100
AcDbPolyline
 90
3
 70
0
 10
355.724751
 20
365.709465
 30
0.0
 10
357.197845
 20
365.057992
 30
0.0
 10
356.443042
 20
364.422873
 30
0.0
  0
SPLINE
  5
465
100
AcDbEntity
  8
0
 62
7
100
AcDbSpline
 70
8
 71
3
 72
8
 73
4
 74
0
 40
0
 40
0
 40
0
 40
0
 40
1
 40
1
 40
1
 40
1
 10
315.963644
 20
351.819258
 30
0.0
 10
313.949556
 20
351.817935
 30
0.0
 10
311.692369
 20
351.743743
 30
0.0
 10
310.947647
 20
351.654261
 30
0.0
  0
LWPOLYLINE
  5
466
100
AcDbEntity
  8
0
 62
7
100
AcDbPolyline
 90
3
 70
0
 10
320.990727
 20
350.674556
 30
0.0
 10
319.625610
 20
351.821639
 30
0.0
 10
315.963644
 20
351.819258
 30
0.0
  0
SPLINE
  5
467
100
AcDbEntity
  8
0
 62
7
100
AcDbSpline
 70
8
 71
3
 72
8
 73
4
 74
0
 40
0
 40
0
 40
0
 40
0
 40
1
 40
1
 40
1
 40
1
 10
295.355380
 20
332.077822
 30
0.0
 10
292.949948
 20
331.323146
 30
0.0
 10
291.579776
 20
331.141046
 30
0.0
 10
279.493345
 20
329.969720
 30
0.0
  0
SPLINE
  5
468
100
AcDbEntity
  8
0
 62
7
100
AcDbSpline
 70
8
 71
3
 72
8
 73
4
 74
0
 40
0
 40
0
 40
0
 40
0
 40
1
 40
1
 40
1
 40
1
 10
279.493345
 20
329.969720
 30
0.0
 10
272.217303
 20
329.264579
 30
0.0
 10
265.668866
 20
328.713658
 30
0.0
 10
264.941262
 20
328.745456
 30
0.0
  0
SPLINE
  5
469
100
AcDbEntity
  8
0
 62
7
100
AcDbSpline
 70
8
 71
3
 72
8
 73
4
 74
0
 40
0
 40
0
 40
0
 40
0
 40
1
 40
1
 40
1
 40
1
 10
264.941262
 20
328.745456
 30
0.0
 10
263.973080
 20
328.787763
 30
0.0
 10
262.846299
 20
329.171951
 30
0.0
 10
260.739051
 20
330.178243
 30
0.0
  0
LWPOLYLINE
  5
46a
100
AcDbEntity
  8
0
 62
7
100
AcDbPolyline
 90
5
 70
0
 10
310.947647
 20
351.654261
 30
0.0
 10
309.593615
 20
351.491563
 30
0.0
 10
303.790932
 20
342.197706
 30
0.0
 10
297.988249
 20
332.903849
 30
0.0
 10
295.355380
 20
332.077822
 30
0.0
  0
SPLINE
  5
46b
100
AcDbEntity
  8
0
 62
7
100
AcDbSpline
 70
8
 71
3
 72
8
 73
4
 74
0
 40
0
 40
0
 40
0
 40
0
 40
1
 40
1
 40
1
 40
1
 10
256.232350
 20
331.126383
 30
0.0
 10
252.651665
 20
330.187242
 30
0.0
 10
233.754329
 20
322.940762
 30
0.0
 10
233.010824
 20
322.221728
 30
0.0
  0
SPLINE
  5
46c
100
AcDbEntity
  8
0
 62
7
100
AcDbSpline
 70
8
 71
3
 72
8
 73
4
 74
0
 40
0
 40
0
 40
0
 40
0
 40
1
 40
1
 40
1
 40
1
 10
233.010824
 20
322.221728
 30
0.0
 10
232.766058
 20
321.985021
 30
0.0
 10
231.954713
 20
319.777256
 30
0.0
 10
231.207821
 20
317.315585
 30
0.0
  0
SPLINE
  5
46d
100
AcDbEntity
  8
0
 62
7
100
AcDbSpline
 70
8
 71
3
 72
8
 73
4
 74
0
 40
0
 40
0
 40
0
 40
0
 40
1
 40
1
 40
1
 40
1
 10
231.207821
 20
317.315585
 30
0.0
 10
229.828733
 20
312.770266
 30
0.0
 10
229.177726
 20
311.168137
 30
0.0
 10
228.471791
 20
310.582254
 30
0.0
  0
SPLINE
  5
46e
100
AcDbEntity
  8
0
 62
7
100
AcDbSpline
 70
8
 71
3
 72
8
 73
4
 74
0
 40
0
 40
0
 40
0
 40
0
 40
1
 40
1
 40
1
 40
1
 10
228.471791
 20
310.582254
 30
0.0
 10
228.255891
 20
310.403076
 30
0.0
 10
226.993140
 20
309.965815
 30
0.0
 10
225.665673
 20
309.610564
 30
0.0
  0
SPLINE
  5
46f
100
AcDbEntity
  8
0
 62
7
100
AcDbSpline
 70
8
 71
3
 72
8
 73
4
 74
0
 40
0
 40
0
 40
0
 40
0
 40
1
 40
1
 40
1
 40
1
 10
225.665673
 20
309.610564
 30
0.0
 10
218.277104
 20
307.633251
 30
0.0
 10
204.789386
 20
301.212874
 30
0.0
 10
175.644395
 20
285.799578
 30
0.0
  0
SPLINE
  5
470
100
AcDbEntity
  8
0
 62
7
100
AcDbSpline
 70
8
 71
3
 72
8
 73
4
 74
0
 40
0
 40
0
 40
0
 40
0
 40
1
 40
1
 40
1
 40
1
 10
175.644395
 20
285.799578
 30
0.0
 10
163.809661
 20
279.540779
 30
0.0
 10
140.758950
 20
267.741342
 30
0.0
 10
139.634973
 20
267.366692
 30
0.0
  0
SPLINE
  5
471
100
AcDbEntity
  8
0
 62
7
100
AcDbSpline
 70
8
 71
3
 72
8
 73
4
 74
0
 40
0
 40
0
 40
0
 40
0
 40
1
 40
1
 40
1
 40
1
 10
139.634973
 20
267.366692
 30
0.0
 10
139.451776
 20
267.305599
 30
0.0
 10
140.212770
 20
263.381247
 30
0.0
 10
141.755529
 20
256.431383
 30
0.0
  0
LWPOLYLINE
  5
472
100
AcDbEntity
  8
0
 62
7
100
AcDbPolyline
 90
3
 70
0
 10
260.739051
 20
330.178243
 30
0.0
 10
257.859750
 20
331.553219
 30
0.0
 10
256.232350
 20
331.126383
 30
0.0
  0
SPLINE
  5
473
100
AcDbEntity
  8
0
 62
7
100
AcDbSpline
 70
8
 71
3
 72
8
 73
4
 74
0
 40
0
 40
0
 40
0
 40
0
 40
1
 40
1
 40
1
 40
1
 10
160.331211
 20
155.919144
 30
0.0
 10
160.459851
 20
159.203967
 30
0.0
 10
160.625666
 20
160.538552
 30
0.0
 10
161.084585
 20
161.983018
 30
0.0
  0
SPLINE
  5
474
100
AcDbEntity
  8
0
 62
7
100
AcDbSpline
 70
8
 71
3
 72
8
 73
4
 74
0
 40
0
 40
0
 40
0
 40
0
 40
1
 40
1
 40
1
 40
1
 10
161.084585
 20
161.983018
 30
0.0
 10
161.876907
 20
164.476901
 30
0.0
 10
162.867507
 20
166.246725
 30
0.0
 10
163.987964
 20
167.170306
 30
0.0
  0
SPLINE
  5
475
100
AcDbEntity
  8
0
 62
7
100
AcDbSpline
 70
8
 71
3
 72
8
 73
4
 74
0
 40
0
 40
0
 40
0
 40
0
 40
1
 40
1
 40
1
 40
1
 10
163.987964
 20
167.170306
 30
0.0
 10
164.913794
 20
167.933471
 30
0.0
 10
164.733454
 20
168.204219
 30
0.0
 10
163.676179
 20
167.638381
 30
0.0
  0
SPLINE
  5
476
100
AcDbEntity
  8
0
 62
7
100
AcDbSpline
 70
8
 71
3
 72
8
 73
4
 74
0
 40
0
 40
0
 40
0
 40
0
 40
1
 40
1
 40
1
 40
1
 10
163.676179
 20
167.638381
 30
0.0
 10
163.168470
 20
167.366680
 30
0.0
 10
163.185060
 20
167.453411
 30
0.0
 10
163.865938
 20
168.630568
 30
0.0
  0
SPLINE
  5
477
100
AcDbEntity
  8
0
 62
7
100
AcDbSpline
 70
8
 71
3
 72
8
 73
4
 74
0
 40
0
 40
0
 40
0
 40
0
 40
1
 40
1
 40
1
 40
1
 10
163.865938
 20
168.630568
 30
0.0
 10
164.886278
 20
170.394572
 30
0.0
 10
168.650346
 20
175.384243
 30
0.0
 10
170.465705
 20
177.379228
 30
0.0
  0
SPLINE
  5
478
100
AcDbEntity
  8
0
 62
7
100
AcDbSpline
 70
8
 71
3
 72
8
 73
4
 74
0
 40
0
 40
0
 40
0
 40
0
 40
1
 40
1
 40
1
 40
1
 10
170.465705
 20
177.379228
 30
0.0
 10
172.045003
 20
179.114815
 30
0.0
 10
172.792848
 20
179.543943
 30
0.0
 10
177.628770
 20
181.489503
 30
0.0
  0
SPLINE
  5
479
100
AcDbEntity
  8
0
 62
7
100
AcDbSpline
 70
8
 71
3
 72
8
 73
4
 74
0
 40
0
 40
0
 40
0
 40
0
 40
1
 40
1
 40
1
 40
1
 10
177.628770
 20
181.489503
 30
0.0
 10
184.233563
 20
184.146714
 30
0.0
 10
188.371858
 20
184.660746
 30
0.0
 10
195.062377
 20
183.655012
 30
0.0
  0
SPLINE
  5
47a
100
AcDbEntity
  8
0
 62
7
100
AcDbSpline
 70
8
 71
3
 72
8
 73
4
 74
0
 40
0
 40
0
 40
0
 40
0
 40
1
 40
1
 40
1
 40
1
 10
195.062377
 20
183.655012
 30
0.0
 10
197.535834
 20
183.283193
 30
0.0
 10
198.070372
 20
183.127274
 30
0.0
 10
197.836719
 20
182.845731
 30
0.0
  0
SPLINE
  5
47b
100
AcDbEntity
  8
0
 62
7
100
AcDbSpline
 70
8
 71
3
 72
8
 73
4
 74
0
 40
0
 40
0
 40
0
 40
0
 40
1
 40
1
 40
1
 40
1
 10
197.836719
 20
182.845731
 30
0.0
 10
197.356315
 20
182.266876
 30
0.0
 10
198.805490
 20
181.894951
 30
0.0
 10
200.779811
 20
182.090372
 30
0.0
  0
SPLINE
  5
47c
100
AcDbEntity
  8
0
 62
7
100
AcDbSpline
 70
8
 71
3
 72
8
 73
4
 74
0
 40
0
 40
0
 40
0
 40
0
 40
1
 40
1
 40
1
 40
1
 10
200.779811
 20
182.090372
 30
0.0
 10
203.767513
 20
182.386071
 30
0.0
 10
207.830216
 20
180.772985
 30
0.0
 10
210.782173
 20
178.118950
 30
0.0
  0
SPLINE
  5
47d
100
AcDbEntity
  8
0
 62
7
100
AcDbSpline
 70
8
 71
3
 72
8
 73
4
 74
0
 40
0
 40
0
 40
0
 40
0
 40
1
 40
1
 40
1
 40
1
 10
210.782173
 20
178.118950
 30
0.0
 10
211.549596
 20
177.428943
 30
0.0
 10
212.242805
 20
176.929701
 30
0.0
 10
212.322630
 20
177.009526
 30
0.0
  0
SPLINE
  5
47e
100
AcDbEntity
  8
0
 62
7
100
AcDbSpline
 70
8
 71
3
 72
8
 73
4
 74
0
 40
0
 40
0
 40
0
 40
0
 40
1
 40
1
 40
1
 40
1
 10
212.322630
 20
177.009526
 30
0.0
 10
212.607903
 20
177.294773
 30
0.0
 10
212.938130
 20
179.205435
 30
0.0
 10
212.944321
 20
180.606509
 30
0.0
  0
SPLINE
  5
47f
100
AcDbEntity
  8
0
 62
7
100
AcDbSpline
 70
8
 71
3
 72
8
 73
4
 74
0
 40
0
 40
0
 40
0
 40
0
 40
1
 40
1
 40
1
 40
1
 10
212.944321
 20
180.606509
 30
0.0
 10
212.950671
 20
182.016130
 30
0.0
 10
212.932150
 20
182.049494
 30
0.0
 10
211.296999
 20
183.583098
 30
0.0
  0
SPLINE
  5
480
100
AcDbEntity
  8
0
 62
7
100
AcDbSpline
 70
8
 71
3
 72
8
 73
4
 74
0
 40
0
 40
0
 40
0
 40
0
 40
1
 40
1
 40
1
 40
1
 10
211.296999
 20
183.583098
 30
0.0
 10
207.890383
 20
186.778233
 30
0.0
 10
203.531266
 20
189.288494
 30
0.0
 10
199.440702
 20
190.410724
 30
0.0
  0
SPLINE
  5
481
100
AcDbEntity
  8
0
 62
7
100
AcDbSpline
 70
8
 71
3
 72
8
 73
4
 74
0
 40
0
 40
0
 40
0
 40
0
 40
1
 40
1
 40
1
 40
1
 10
199.440702
 20
190.410724
 30
0.0
 10
195.274785
 20
191.553645
 30
0.0
 10
189.237178
 20
191.624500
 30
0.0
 10
186.166371
 20
190.566511
 30
0.0
  0
SPLINE
  5
482
100
AcDbEntity
  8
0
 62
7
100
AcDbSpline
 70
8
 71
3
 72
8
 73
4
 74
0
 40
0
 40
0
 40
0
 40
0
 40
1
 40
1
 40
1
 40
1
 10
186.166371
 20
190.566511
 30
0.0
 10
185.556639
 20
190.356458
 30
0.0
 10
185.005062
 20
190.237290
 30
0.0
 10
184.940609
 20
190.301716
 30
0.0
  0
SPLINE
  5
483
100
AcDbEntity
  8
0
 62
7
100
AcDbSpline
 70
8
 71
3
 72
8
 73
4
 74
0
 40
0
 40
0
 40
0
 40
0
 40
1
 40
1
 40
1
 40
1
 10
184.940609
 20
190.301716
 30
0.0
 10
184.678698
 20
190.563653
 30
0.0
 10
188.109021
 20
191.845427
 30
0.0
 10
190.461061
 20
192.364487
 30
0.0
  0
SPLINE
  5
484
100
AcDbEntity
  8
0
 62
7
100
AcDbSpline
 70
8
 71
3
 72
8
 73
4
 74
0
 40
0
 40
0
 40
0
 40
0
 40
1
 40
1
 40
1
 40
1
 10
190.461061
 20
192.364487
 30
0.0
 10
193.730465
 20
193.086006
 30
0.0
 10
201.473602
 20
193.136515
 30
0.0
 10
205.128133
 20
192.460187
 30
0.0
  0
SPLINE
  5
485
100
AcDbEntity
  8
0
 62
7
100
AcDbSpline
 70
8
 71
3
 72
8
 73
4
 74
0
 40
0
 40
0
 40
0
 40
0
 40
1
 40
1
 40
1
 40
1
 10
205.128133
 20
192.460187
 30
0.0
 10
206.428295
 20
192.219575
 30
0.0
 10
207.559389
 20
192.091146
 30
0.0
 10
207.641674
 20
192.174807
 30
0.0
  0
SPLINE
  5
486
100
AcDbEntity
  8
0
 62
7
100
AcDbSpline
 70
8
 71
3
 72
8
 73
4
 74
0
 40
0
 40
0
 40
0
 40
0
 40
1
 40
1
 40
1
 40
1
 10
207.641674
 20
192.174807
 30
0.0
 10
207.966080
 20
192.504637
 30
0.0
 10
207.700518
 20
197.521110
 30
0.0
 10
207.272660
 20
199.144911
 30
0.0
  0
SPLINE
  5
487
100
AcDbEntity
  8
0
 62
7
100
AcDbSpline
 70
8
 71
3
 72
8
 73
4
 74
0
 40
0
 40
0
 40
0
 40
0
 40
1
 40
1
 40
1
 40
1
 10
207.272660
 20
199.144911
 30
0.0
 10
207.025195
 20
200.084156
 30
0.0
 10
206.067933
 20
202.947106
 30
0.0
 10
205.145436
 20
205.507003
 30
0.0
  0
SPLINE
  5
488
100
AcDbEntity
  8
0
 62
7
100
AcDbSpline
 70
8
 71
3
 72
8
 73
4
 74
0
 40
0
 40
0
 40
0
 40
0
 40
1
 40
1
 40
1
 40
1
 10
205.145436
 20
205.507003
 30
0.0
 10
204.214103
 20
208.091347
 30
0.0
 10
203.355742
 20
210.979671
 30
0.0
 10
203.215380
 20
212.001359
 30
0.0
  0
SPLINE
  5
489
100
AcDbEntity
  8
0
 62
7
100
AcDbSpline
 70
8
 71
3
 72
8
 73
4
 74
0
 40
0
 40
0
 40
0
 40
0
 40
1
 40
1
 40
1
 40
1
 10
203.215380
 20
212.001359
 30
0.0
 10
202.840889
 20
214.727705
 30
0.0
 10
203.333040
 20
217.619707
 30
0.0
 10
204.547690
 20
219.829904
 30
0.0
  0
SPLINE
  5
48a
100
AcDbEntity
  8
0
 62
7
100
AcDbSpline
 70
8
 71
3
 72
8
 73
4
 74
0
 40
0
 40
0
 40
0
 40
0
 40
1
 40
1
 40
1
 40
1
 10
204.547690
 20
219.829904
 30
0.0
 10
205.047408
 20
220.739250
 30
0.0
 10
205.053732
 20
220.861223
 30
0.0
 10
204.664000
 20
222.078862
 30
0.0
  0
SPLINE
  5
48b
100
AcDbEntity
  8
0
 62
7
100
AcDbSpline
 70
8
 71
3
 72
8
 73
4
 74
0
 40
0
 40
0
 40
0
 40
0
 40
1
 40
1
 40
1
 40
1
 10
204.664000
 20
222.078862
 30
0.0
 10
203.123490
 20
226.892268
 30
0.0
 10
203.496818
 20
238.365554
 30
0.0
 10
205.445130
 20
246.083635
 30
0.0
  0
SPLINE
  5
48c
100
AcDbEntity
  8
0
 62
7
100
AcDbSpline
 70
8
 71
3
 72
8
 73
4
 74
0
 40
0
 40
0
 40
0
 40
0
 40
1
 40
1
 40
1
 40
1
 10
205.445130
 20
246.083635
 30
0.0
 10
205.660395
 20
246.936493
 30
0.0
 10
205.770858
 20
247.699948
 30
0.0
 10
205.690557
 20
247.780249
 30
0.0
  0
SPLINE
  5
48d
100
AcDbEntity
  8
0
 62
7
100
AcDbSpline
 70
8
 71
3
 72
8
 73
4
 74
0
 40
0
 40
0
 40
0
 40
0
 40
1
 40
1
 40
1
 40
1
 10
205.690557
 20
247.780249
 30
0.0
 10
205.610256
 20
247.860550
 30
0.0
 10
205.231003
 20
247.783424
 30
0.0
 10
204.847780
 20
247.608799
 30
0.0
  0
SPLINE
  5
48e
100
AcDbEntity
  8
0
 62
7
100
AcDbSpline
 70
8
 71
3
 72
8
 73
4
 74
0
 40
0
 40
0
 40
0
 40
0
 40
1
 40
1
 40
1
 40
1
 10
204.847780
 20
247.608799
 30
0.0
 10
204.464558
 20
247.434201
 30
0.0
 10
204.107820
 20
247.334532
 30
0.0
 10
204.055009
 20
247.387316
 30
0.0
  0
SPLINE
  5
48f
100
AcDbEntity
  8
0
 62
7
100
AcDbSpline
 70
8
 71
3
 72
8
 73
4
 74
0
 40
0
 40
0
 40
0
 40
0
 40
1
 40
1
 40
1
 40
1
 10
204.055009
 20
247.387316
 30
0.0
 10
203.901154
 20
247.541198
 30
0.0
 10
205.737283
 20
251.944791
 30
0.0
 10
207.047235
 20
254.563451
 30
0.0
  0
SPLINE
  5
490
100
AcDbEntity
  8
0
 62
7
100
AcDbSpline
 70
8
 71
3
 72
8
 73
4
 74
0
 40
0
 40
0
 40
0
 40
0
 40
1
 40
1
 40
1
 40
1
 10
207.047235
 20
254.563451
 30
0.0
 10
210.428266
 20
261.322444
 30
0.0
 10
214.185217
 20
266.580112
 30
0.0
 10
219.278261
 20
271.680114
 30
0.0
  0
SPLINE
  5
491
100
AcDbEntity
  8
0
 62
7
100
AcDbSpline
 70
8
 71
3
 72
8
 73
4
 74
0
 40
0
 40
0
 40
0
 40
0
 40
1
 40
1
 40
1
 40
1
 10
219.278261
 20
271.680114
 30
0.0
 10
223.346812
 20
275.754222
 30
0.0
 10
227.286325
 20
278.798994
 30
0.0
 10
232.581458
 20
281.961929
 30
0.0
  0
SPLINE
  5
492
100
AcDbEntity
  8
0
 62
7
100
AcDbSpline
 70
8
 71
3
 72
8
 73
4
 74
0
 40
0
 40
0
 40
0
 40
0
 40
1
 40
1
 40
1
 40
1
 10
232.581458
 20
281.961929
 30
0.0
 10
235.897984
 20
283.942970
 30
0.0
 10
236.272025
 20
284.245124
 30
0.0
 10
236.996163
 20
285.528247
 30
0.0
  0
SPLINE
  5
493
100
AcDbEntity
  8
0
 62
7
100
AcDbSpline
 70
8
 71
3
 72
8
 73
4
 74
0
 40
0
 40
0
 40
0
 40
0
 40
1
 40
1
 40
1
 40
1
 10
236.996163
 20
285.528247
 30
0.0
 10
237.431323
 20
286.299323
 30
0.0
 10
238.387819
 20
287.651714
 30
0.0
 10
239.121746
 20
288.533597
 30
0.0
  0
SPLINE
  5
494
100
AcDbEntity
  8
0
 62
7
100
AcDbSpline
 70
8
 71
3
 72
8
 73
4
 74
0
 40
0
 40
0
 40
0
 40
0
 40
1
 40
1
 40
1
 40
1
 10
239.121746
 20
288.533597
 30
0.0
 10
240.168226
 20
289.791082
 30
0.0
 10
240.360049
 20
290.155492
 30
0.0
 10
240.010879
 20
290.222749
 30
0.0
  0
SPLINE
  5
495
100
AcDbEntity
  8
0
 62
7
100
AcDbSpline
 70
8
 71
3
 72
8
 73
4
 74
0
 40
0
 40
0
 40
0
 40
0
 40
1
 40
1
 40
1
 40
1
 10
240.010879
 20
290.222749
 30
0.0
 10
239.705814
 20
290.281487
 30
0.0
 10
240.218418
 20
290.833593
 30
0.0
 10
241.639204
 20
291.976540
 30
0.0
  0
SPLINE
  5
496
100
AcDbEntity
  8
0
 62
7
100
AcDbSpline
 70
8
 71
3
 72
8
 73
4
 74
0
 40
0
 40
0
 40
0
 40
0
 40
1
 40
1
 40
1
 40
1
 10
241.639204
 20
291.976540
 30
0.0
 10
248.622299
 20
297.594158
 30
0.0
 10
255.249556
 20
300.459928
 30
0.0
 10
263.486061
 20
301.423589
 30
0.0
  0
SPLINE
  5
497
100
AcDbEntity
  8
0
 62
7
100
AcDbSpline
 70
8
 71
3
 72
8
 73
4
 74
0
 40
0
 40
0
 40
0
 40
0
 40
1
 40
1
 40
1
 40
1
 10
263.486061
 20
301.423589
 30
0.0
 10
266.113842
 20
301.731037
 30
0.0
 10
279.003151
 20
302.329556
 30
0.0
 10
283.263657
 20
302.341968
 30
0.0
  0
LWPOLYLINE
  5
498
100
AcDbEntity
  8
0
 62
7
100
AcDbPolyline
 90
7
 70
0
 10
141.755529
 20
256.431383
 30
0.0
 10
144.161862
 20
245.591351
 30
0.0
 10
146.944141
 20
209.343434
 30
0.0
 10
149.726393
 20
173.095518
 30
0.0
 10
154.946331
 20
162.401403
 30
0.0
 10
160.166270
 20
151.707321
 30
0.0
 10
160.331211
 20
155.919144
 30
0.0
  0
SPLINE
  5
499
100
AcDbEntity
  8
0
 62
7
100
AcDbSpline
 70
8
 71
3
 72
8
 73
4
 74
0
 40
0
 40
0
 40
0
 40
0
 40
1
 40
1
 40
1
 40
1
 10
284.131755
 20
303.998260
 30
0.0
 10
284.157155
 20
309.117696
 30
0.0
 10
285.900363
 20
315.628023
 30
0.0
 10
287.973929
 20
318.346611
 30
0.0
  0
SPLINE
  5
49a
100
AcDbEntity
  8
0
 62
7
100
AcDbSpline
 70
8
 71
3
 72
8
 73
4
 74
0
 40
0
 40
0
 40
0
 40
0
 40
1
 40
1
 40
1
 40
1
 10
287.973929
 20
318.346611
 30
0.0
 10
288.853060
 20
319.499194
 30
0.0
 10
291.039047
 20
320.601171
 30
0.0
 10
292.443747
 20
320.599874
 30
0.0
  0
SPLINE
  5
49b
100
AcDbEntity
  8
0
 62
7
100
AcDbSpline
 70
8
 71
3
 72
8
 73
4
 74
0
 40
0
 40
0
 40
0
 40
0
 40
1
 40
1
 40
1
 40
1
 10
292.443747
 20
320.599874
 30
0.0
 10
293.882339
 20
320.598551
 30
0.0
 10
294.732075
 20
320.029284
 30
0.0
 10
297.220243
 20
317.399956
 30
0.0
  0
SPLINE
  5
49c
100
AcDbEntity
  8
0
 62
7
100
AcDbSpline
 70
8
 71
3
 72
8
 73
4
 74
0
 40
0
 40
0
 40
0
 40
0
 40
1
 40
1
 40
1
 40
1
 10
297.220243
 20
317.399956
 30
0.0
 10
302.897910
 20
311.400142
 30
0.0
 10
305.664261
 20
309.198880
 30
0.0
 10
310.214407
 20
307.060092
 30
0.0
  0
SPLINE
  5
49d
100
AcDbEntity
  8
0
 62
7
100
AcDbSpline
 70
8
 71
3
 72
8
 73
4
 74
0
 40
0
 40
0
 40
0
 40
0
 40
1
 40
1
 40
1
 40
1
 10
310.214407
 20
307.060092
 30
0.0
 10
314.149714
 20
305.210324
 30
0.0
 10
315.533670
 20
305.312276
 30
0.0
 10
323.719402
 20
308.054973
 30
0.0
  0
SPLINE
  5
49e
100
AcDbEntity
  8
0
 62
7
100
AcDbSpline
 70
8
 71
3
 72
8
 73
4
 74
0
 40
0
 40
0
 40
0
 40
0
 40
1
 40
1
 40
1
 40
1
 10
323.719402
 20
308.054973
 30
0.0
 10
329.087057
 20
309.853449
 30
0.0
 10
329.786880
 20
310.009236
 30
0.0
 10
329.533620
 20
309.349288
 30
0.0
  0
SPLINE
  5
49f
100
AcDbEntity
  8
0
 62
7
100
AcDbSpline
 70
8
 71
3
 72
8
 73
4
 74
0
 40
0
 40
0
 40
0
 40
0
 40
1
 40
1
 40
1
 40
1
 10
329.533620
 20
309.349288
 30
0.0
 10
329.360847
 20
308.899033
 30
0.0
 10
330.024131
 20
308.928852
 30
0.0
 10
336.106294
 20
309.644748
 30
0.0
  0
SPLINE
  5
4a0
100
AcDbEntity
  8
0
 62
7
100
AcDbSpline
 70
8
 71
3
 72
8
 73
4
 74
0
 40
0
 40
0
 40
0
 40
0
 40
1
 40
1
 40
1
 40
1
 10
336.106294
 20
309.644748
 30
0.0
 10
340.702000
 20
310.185681
 30
0.0
 10
343.526692
 20
310.145681
 30
0.0
 10
344.141399
 20
309.530964
 30
0.0
  0
SPLINE
  5
4a1
100
AcDbEntity
  8
0
 62
7
100
AcDbSpline
 70
8
 71
3
 72
8
 73
4
 74
0
 40
0
 40
0
 40
0
 40
0
 40
1
 40
1
 40
1
 40
1
 10
344.141399
 20
309.530964
 30
0.0
 10
344.539544
 20
309.132819
 30
0.0
 10
345.234921
 20
309.011952
 30
0.0
 10
347.967935
 20
308.865844
 30
0.0
  0
SPLINE
  5
4a2
100
AcDbEntity
  8
0
 62
7
100
AcDbSpline
 70
8
 71
3
 72
8
 73
4
 74
0
 40
0
 40
0
 40
0
 40
0
 40
1
 40
1
 40
1
 40
1
 10
347.967935
 20
308.865844
 30
0.0
 10
351.997116
 20
308.650447
 30
0.0
 10
354.852420
 20
308.136105
 30
0.0
 10
357.805725
 20
307.093721
 30
0.0
  0
SPLINE
  5
4a3
100
AcDbEntity
  8
0
 62
7
100
AcDbSpline
 70
8
 71
3
 72
8
 73
4
 74
0
 40
0
 40
0
 40
0
 40
0
 40
1
 40
1
 40
1
 40
1
 10
357.805725
 20
307.093721
 30
0.0
 10
360.419121
 20
306.171312
 30
0.0
 10
361.174586
 20
306.129698
 30
0.0
 10
362.189316
 20
306.852259
 30
0.0
  0
SPLINE
  5
4a4
100
AcDbEntity
  8
0
 62
7
100
AcDbSpline
 70
8
 71
3
 72
8
 73
4
 74
0
 40
0
 40
0
 40
0
 40
0
 40
1
 40
1
 40
1
 40
1
 10
362.189316
 20
306.852259
 30
0.0
 10
363.491701
 20
307.779624
 30
0.0
 10
365.199110
 20
308.409832
 30
0.0
 10
367.858754
 20
308.944859
 30
0.0
  0
SPLINE
  5
4a5
100
AcDbEntity
  8
0
 62
7
100
AcDbSpline
 70
8
 71
3
 72
8
 73
4
 74
0
 40
0
 40
0
 40
0
 40
0
 40
1
 40
1
 40
1
 40
1
 10
367.858754
 20
308.944859
 30
0.0
 10
371.000205
 20
309.576806
 30
0.0
 10
373.272235
 20
310.607422
 30
0.0
 10
375.097331
 20
312.228370
 30
0.0
  0
SPLINE
  5
4a6
100
AcDbEntity
  8
0
 62
7
100
AcDbSpline
 70
8
 71
3
 72
8
 73
4
 74
0
 40
0
 40
0
 40
0
 40
0
 40
1
 40
1
 40
1
 40
1
 10
375.097331
 20
312.228370
 30
0.0
 10
376.697928
 20
313.649937
 30
0.0
 10
377.493345
 20
313.780440
 30
0.0
 10
378.300774
 20
312.753962
 30
0.0
  0
SPLINE
  5
4a7
100
AcDbEntity
  8
0
 62
7
100
AcDbSpline
 70
8
 71
3
 72
8
 73
4
 74
0
 40
0
 40
0
 40
0
 40
0
 40
1
 40
1
 40
1
 40
1
 10
378.300774
 20
312.753962
 30
0.0
 10
379.831388
 20
310.808105
 30
0.0
 10
380.135791
 20
305.973094
 30
0.0
 10
378.979007
 20
301.981283
 30
0.0
  0
SPLINE
  5
4a8
100
AcDbEntity
  8
0
 62
7
100
AcDbSpline
 70
8
 71
3
 72
8
 73
4
 74
0
 40
0
 40
0
 40
0
 40
0
 40
1
 40
1
 40
1
 40
1
 10
378.979007
 20
301.981283
 30
0.0
 10
377.846643
 20
298.073723
 30
0.0
 10
376.204162
 20
295.320844
 30
0.0
 10
372.891923
 20
291.779055
 30
0.0
  0
SPLINE
  5
4a9
100
AcDbEntity
  8
0
 62
7
100
AcDbSpline
 70
8
 71
3
 72
8
 73
4
 74
0
 40
0
 40
0
 40
0
 40
0
 40
1
 40
1
 40
1
 40
1
 10
372.891923
 20
291.779055
 30
0.0
 10
371.809989
 20
290.622138
 30
0.0
 10
370.831454
 20
289.341184
 30
0.0
 10
370.717392
 20
288.932509
 30
0.0
  0
SPLINE
  5
4aa
100
AcDbEntity
  8
0
 62
7
100
AcDbSpline
 70
8
 71
3
 72
8
 73
4
 74
0
 40
0
 40
0
 40
0
 40
0
 40
1
 40
1
 40
1
 40
1
 10
370.717392
 20
288.932509
 30
0.0
 10
370.326523
 20
287.531778
 30
0.0
 10
370.536602
 20
284.282483
 30
0.0
 10
371.158876
 20
282.103983
 30
0.0
  0
SPLINE
  5
4ab
100
AcDbEntity
  8
0
 62
7
100
AcDbSpline
 70
8
 71
3
 72
8
 73
4
 74
0
 40
0
 40
0
 40
0
 40
0
 40
1
 40
1
 40
1
 40
1
 10
371.158876
 20
282.103983
 30
0.0
 10
372.229777
 20
278.354970
 30
0.0
 10
374.199309
 20
274.956476
 30
0.0
 10
376.947245
 20
272.115963
 30
0.0
  0
LWPOLYLINE
  5
4ac
100
AcDbEntity
  8
0
 62
7
100
AcDbPolyline
 90
3
 70
0
 10
283.263657
 20
302.341968
 30
0.0
 10
284.123553
 20
302.344614
 30
0.0
 10
284.131755
 20
303.998260
 30
0.0
  0
SPLINE
  5
4ad
100
AcDbEntity
  8
0
 62
7
100
AcDbSpline
 70
8
 71
3
 72
8
 73
4
 74
0
 40
0
 40
0
 40
0
 40
0
 40
1
 40
1
 40
1
 40
1
 10
377.152509
 20
270.859192
 30
0.0
 10
376.444536
 20
270.859192
 30
0.0
 10
376.184583
 20
270.760158
 30
0.0
 10
376.284331
 20
270.528463
 30
0.0
  0
SPLINE
  5
4ae
100
AcDbEntity
  8
0
 62
7
100
AcDbSpline
 70
8
 71
3
 72
8
 73
4
 74
0
 40
0
 40
0
 40
0
 40
0
 40
1
 40
1
 40
1
 40
1
 10
376.284331
 20
270.528463
 30
0.0
 10
376.362621
 20
270.346562
 30
0.0
 10
376.967988
 20
269.006923
 30
0.0
 10
377.629579
 20
267.551503
 30
0.0
  0
SPLINE
  5
4af
100
AcDbEntity
  8
0
 62
7
100
AcDbSpline
 70
8
 71
3
 72
8
 73
4
 74
0
 40
0
 40
0
 40
0
 40
0
 40
1
 40
1
 40
1
 40
1
 10
377.629579
 20
267.551503
 30
0.0
 10
380.450460
 20
261.345701
 30
0.0
 10
380.651147
 20
256.646251
 30
0.0
 10
378.299266
 20
251.868908
 30
0.0
  0
SPLINE
  5
4b0
100
AcDbEntity
  8
0
 62
7
100
AcDbSpline
 70
8
 71
3
 72
8
 73
4
 74
0
 40
0
 40
0
 40
0
 40
0
 40
1
 40
1
 40
1
 40
1
 10
378.299266
 20
251.868908
 30
0.0
 10
377.843256
 20
250.942655
 30
0.0
 10
377.428839
 20
250.226137
 30
0.0
 10
377.378330
 20
250.276672
 30
0.0
  0
SPLINE
  5
4b1
100
AcDbEntity
  8
0
 62
7
100
AcDbSpline
 70
8
 71
3
 72
8
 73
4
 74
0
 40
0
 40
0
 40
0
 40
0
 40
1
 40
1
 40
1
 40
1
 10
377.378330
 20
250.276672
 30
0.0
 10
377.327821
 20
250.327181
 30
0.0
 10
377.525756
 20
251.258197
 30
0.0
 10
377.818200
 20
252.345634
 30
0.0
  0
SPLINE
  5
4b2
100
AcDbEntity
  8
0
 62
7
100
AcDbSpline
 70
8
 71
3
 72
8
 73
4
 74
0
 40
0
 40
0
 40
0
 40
0
 40
1
 40
1
 40
1
 40
1
 10
377.818200
 20
252.345634
 30
0.0
 10
378.558504
 20
255.098280
 30
0.0
 10
378.419148
 20
258.245023
 30
0.0
 10
377.464929
 20
260.322213
 30
0.0
  0
SPLINE
  5
4b3
100
AcDbEntity
  8
0
 62
7
100
AcDbSpline
 70
8
 71
3
 72
8
 73
4
 74
0
 40
0
 40
0
 40
0
 40
0
 40
1
 40
1
 40
1
 40
1
 10
377.464929
 20
260.322213
 30
0.0
 10
376.140266
 20
263.205854
 30
0.0
 10
374.179968
 20
264.838095
 30
0.0
 10
368.657955
 20
267.655484
 30
0.0
  0
SPLINE
  5
4b4
100
AcDbEntity
  8
0
 62
7
100
AcDbSpline
 70
8
 71
3
 72
8
 73
4
 74
0
 40
0
 40
0
 40
0
 40
0
 40
1
 40
1
 40
1
 40
1
 10
368.657955
 20
267.655484
 30
0.0
 10
364.819539
 20
269.613877
 30
0.0
 10
364.807659
 20
269.622979
 30
0.0
 10
364.065423
 20
271.168463
 30
0.0
  0
SPLINE
  5
4b5
100
AcDbEntity
  8
0
 62
7
100
AcDbSpline
 70
8
 71
3
 72
8
 73
4
 74
0
 40
0
 40
0
 40
0
 40
0
 40
1
 40
1
 40
1
 40
1
 10
364.065423
 20
271.168463
 30
0.0
 10
362.702501
 20
274.006331
 30
0.0
 10
360.716063
 20
275.911172
 30
0.0
 10
358.551004
 20
276.456346
 30
0.0
  0
SPLINE
  5
4b6
100
AcDbEntity
  8
0
 62
7
100
AcDbSpline
 70
8
 71
3
 72
8
 73
4
 74
0
 40
0
 40
0
 40
0
 40
0
 40
1
 40
1
 40
1
 40
1
 10
358.551004
 20
276.456346
 30
0.0
 10
357.925185
 20
276.613932
 30
0.0
 10
357.413163
 20
276.852533
 30
0.0
 10
357.413163
 20
276.986571
 30
0.0
  0
SPLINE
  5
4b7
100
AcDbEntity
  8
0
 62
7
100
AcDbSpline
 70
8
 71
3
 72
8
 73
4
 74
0
 40
0
 40
0
 40
0
 40
0
 40
1
 40
1
 40
1
 40
1
 10
357.413163
 20
276.986571
 30
0.0
 10
357.413163
 20
277.499096
 30
0.0
 10
358.455383
 20
279.224073
 30
0.0
 10
359.174865
 20
279.902359
 30
0.0
  0
SPLINE
  5
4b8
100
AcDbEntity
  8
0
 62
7
100
AcDbSpline
 70
8
 71
3
 72
8
 73
4
 74
0
 40
0
 40
0
 40
0
 40
0
 40
1
 40
1
 40
1
 40
1
 10
359.174865
 20
279.902359
 30
0.0
 10
359.588382
 20
280.292196
 30
0.0
 10
360.462486
 20
280.926667
 30
0.0
 10
361.117330
 20
281.312297
 30
0.0
  0
LWPOLYLINE
  5
4b9
100
AcDbEntity
  8
0
 62
7
100
AcDbPolyline
 90
3
 70
0
 10
376.947245
 20
272.115963
 30
0.0
 10
378.163058
 20
270.859192
 30
0.0
 10
377.152509
 20
270.859192
 30
0.0
  0
SPLINE
  5
4ba
100
AcDbEntity
  8
0
 62
7
100
AcDbSpline
 70
8
 71
3
 72
8
 73
4
 74
0
 40
0
 40
0
 40
0
 40
0
 40
1
 40
1
 40
1
 40
1
 10
360.139589
 20
281.886284
 30
0.0
 10
357.900261
 20
281.754972
 30
0.0
 10
355.958166
 20
281.079781
 30
0.0
 10
354.182098
 20
279.815099
 30
0.0
  0
LWPOLYLINE
  5
4bb
100
AcDbEntity
  8
0
 62
7
100
AcDbPolyline
 90
3
 70
0
 10
361.117330
 20
281.312297
 30
0.0
 10
362.307955
 20
282.013417
 30
0.0
 10
360.139589
 20
281.886284
 30
0.0
  0
SPLINE
  5
4bc
100
AcDbEntity
  8
0
 62
7
100
AcDbSpline
 70
8
 71
3
 72
8
 73
4
 74
0
 40
0
 40
0
 40
0
 40
0
 40
1
 40
1
 40
1
 40
1
 10
353.537599
 20
280.931033
 30
0.0
 10
353.635919
 20
281.867208
 30
0.0
 10
353.790276
 20
282.971896
 30
0.0
 10
353.880632
 20
283.385943
 30
0.0
  0
LWPOLYLINE
  5
4bd
100
AcDbEntity
  8
0
 62
7
100
AcDbPolyline
 90
3
 70
0
 10
354.182098
 20
279.815099
 30
0.0
 10
353.358847
 20
279.228889
 30
0.0
 10
353.537599
 20
280.931033
 30
0.0
  0
SPLINE
  5
4be
100
AcDbEntity
  8
0
 62
7
100
AcDbSpline
 70
8
 71
3
 72
8
 73
4
 74
0
 40
0
 40
0
 40
0
 40
0
 40
1
 40
1
 40
1
 40
1
 10
352.692547
 20
283.167159
 30
0.0
 10
349.943764
 20
281.192335
 30
0.0
 10
347.384740
 20
277.487163
 30
0.0
 10
346.940479
 20
274.838763
 30
0.0
  0
SPLINE
  5
4bf
100
AcDbEntity
  8
0
 62
7
100
AcDbSpline
 70
8
 71
3
 72
8
 73
4
 74
0
 40
0
 40
0
 40
0
 40
0
 40
1
 40
1
 40
1
 40
1
 10
346.940479
 20
274.838763
 30
0.0
 10
346.854039
 20
274.323487
 30
0.0
 10
346.624143
 20
273.544713
 30
0.0
 10
346.429568
 20
273.108150
 30
0.0
  0
SPLINE
  5
4c0
100
AcDbEntity
  8
0
 62
7
100
AcDbSpline
 70
8
 71
3
 72
8
 73
4
 74
0
 40
0
 40
0
 40
0
 40
0
 40
1
 40
1
 40
1
 40
1
 10
346.429568
 20
273.108150
 30
0.0
 10
345.756547
 20
271.597988
 30
0.0
 10
345.716437
 20
269.235814
 30
0.0
 10
346.258832
 20
263.053983
 30
0.0
  0
SPLINE
  5
4c1
100
AcDbEntity
  8
0
 62
7
100
AcDbSpline
 70
8
 71
3
 72
8
 73
4
 74
0
 40
0
 40
0
 40
0
 40
0
 40
1
 40
1
 40
1
 40
1
 10
346.258832
 20
263.053983
 30
0.0
 10
346.824088
 20
256.611512
 30
0.0
 10
347.145451
 20
251.766012
 30
0.0
 10
346.978261
 20
252.206067
 30
0.0
  0
SPLINE
  5
4c2
100
AcDbEntity
  8
0
 62
7
100
AcDbSpline
 70
8
 71
3
 72
8
 73
4
 74
0
 40
0
 40
0
 40
0
 40
0
 40
1
 40
1
 40
1
 40
1
 10
346.978261
 20
252.206067
 30
0.0
 10
346.922990
 20
252.351588
 30
0.0
 10
346.204778
 20
254.595836
 30
0.0
 10
345.382241
 20
257.193304
 30
0.0
  0
SPLINE
  5
4c3
100
AcDbEntity
  8
0
 62
7
100
AcDbSpline
 70
8
 71
3
 72
8
 73
4
 74
0
 40
0
 40
0
 40
0
 40
0
 40
1
 40
1
 40
1
 40
1
 10
345.382241
 20
257.193304
 30
0.0
 10
343.794397
 20
262.207634
 30
0.0
 10
342.819911
 20
264.594943
 30
0.0
 10
341.178780
 20
267.491099
 30
0.0
  0
SPLINE
  5
4c4
100
AcDbEntity
  8
0
 62
7
100
AcDbSpline
 70
8
 71
3
 72
8
 73
4
 74
0
 40
0
 40
0
 40
0
 40
0
 40
1
 40
1
 40
1
 40
1
 10
341.178780
 20
267.491099
 30
0.0
 10
340.443132
 20
268.789303
 30
0.0
 10
340.075123
 20
269.845335
 30
0.0
 10
339.841866
 20
271.327557
 30
0.0
  0
LWPOLYLINE
  5
4c5
100
AcDbEntity
  8
0
 62
7
100
AcDbPolyline
 90
3
 70
0
 10
353.880632
 20
283.385943
 30
0.0
 10
354.044885
 20
284.138709
 30
0.0
 10
352.692547
 20
283.167159
 30
0.0
  0
SPLINE
  5
4c6
100
AcDbEntity
  8
0
 62
7
100
AcDbSpline
 70
8
 71
3
 72
8
 73
4
 74
0
 40
0
 40
0
 40
0
 40
0
 40
1
 40
1
 40
1
 40
1
 10
339.335957
 20
270.833580
 30
0.0
 10
338.941304
 20
265.388455
 30
0.0
 10
337.219581
 20
260.968485
 30
0.0
 10
333.644505
 20
256.222548
 30
0.0
  0
SPLINE
  5
4c7
100
AcDbEntity
  8
0
 62
7
100
AcDbSpline
 70
8
 71
3
 72
8
 73
4
 74
0
 40
0
 40
0
 40
0
 40
0
 40
1
 40
1
 40
1
 40
1
 10
333.644505
 20
256.222548
 30
0.0
 10
331.211370
 20
252.992541
 30
0.0
 10
330.535756
 20
251.312569
 30
0.0
 10
330.761181
 20
249.053027
 30
0.0
  0
LWPOLYLINE
  5
4c8
100
AcDbEntity
  8
0
 62
7
100
AcDbPolyline
 90
3
 70
0
 10
339.841866
 20
271.327557
 30
0.0
 10
339.520001
 20
273.372733
 30
0.0
 10
339.335957
 20
270.833580
 30
0.0
  0
SPLINE
  5
4c9
100
AcDbEntity
  8
0
 62
7
100
AcDbSpline
 70
8
 71
3
 72
8
 73
4
 74
0
 40
0
 40
0
 40
0
 40
0
 40
1
 40
1
 40
1
 40
1
 10
330.412090
 20
249.163358
 30
0.0
 10
330.146290
 20
249.963723
 30
0.0
 10
329.921552
 20
251.002557
 30
0.0
 10
329.912662
 20
251.471848
 30
0.0
  0
SPLINE
  5
4ca
100
AcDbEntity
  8
0
 62
7
100
AcDbSpline
 70
8
 71
3
 72
8
 73
4
 74
0
 40
0
 40
0
 40
0
 40
0
 40
1
 40
1
 40
1
 40
1
 10
329.912662
 20
251.471848
 30
0.0
 10
329.897052
 20
252.289966
 30
0.0
 10
329.861042
 20
252.318303
 30
0.0
 10
329.036601
 20
252.159527
 30
0.0
  0
SPLINE
  5
4cb
100
AcDbEntity
  8
0
 62
7
100
AcDbSpline
 70
8
 71
3
 72
8
 73
4
 74
0
 40
0
 40
0
 40
0
 40
0
 40
1
 40
1
 40
1
 40
1
 10
329.036601
 20
252.159527
 30
0.0
 10
327.523528
 20
251.868141
 30
0.0
 10
325.597097
 20
250.866852
 30
0.0
 10
323.028707
 20
249.036808
 30
0.0
  0
SPLINE
  5
4cc
100
AcDbEntity
  8
0
 62
7
100
AcDbSpline
 70
8
 71
3
 72
8
 73
4
 74
0
 40
0
 40
0
 40
0
 40
0
 40
1
 40
1
 40
1
 40
1
 10
323.028707
 20
249.036808
 30
0.0
 10
318.107774
 20
245.530576
 30
0.0
 10
318.198500
 20
245.557881
 30
0.0
 10
312.546206
 20
245.879932
 30
0.0
  0
SPLINE
  5
4cd
100
AcDbEntity
  8
0
 62
7
100
AcDbSpline
 70
8
 71
3
 72
8
 73
4
 74
0
 40
0
 40
0
 40
0
 40
0
 40
1
 40
1
 40
1
 40
1
 10
312.546206
 20
245.879932
 30
0.0
 10
308.464162
 20
246.112527
 30
0.0
 10
306.060978
 20
245.639743
 30
0.0
 10
303.757515
 20
244.150933
 30
0.0
  0
SPLINE
  5
4ce
100
AcDbEntity
  8
0
 62
7
100
AcDbSpline
 70
8
 71
3
 72
8
 73
4
 74
0
 40
0
 40
0
 40
0
 40
0
 40
1
 40
1
 40
1
 40
1
 10
303.757515
 20
244.150933
 30
0.0
 10
302.892539
 20
243.591868
 30
0.0
 10
302.011159
 20
242.886489
 30
0.0
 10
301.798884
 20
242.583436
 30
0.0
  0
SPLINE
  5
4cf
100
AcDbEntity
  8
0
 62
7
100
AcDbSpline
 70
8
 71
3
 72
8
 73
4
 74
0
 40
0
 40
0
 40
0
 40
0
 40
1
 40
1
 40
1
 40
1
 10
301.798884
 20
242.583436
 30
0.0
 10
301.415767
 20
242.036462
 30
0.0
 10
301.406957
 20
242.038685
 30
0.0
 10
300.603073
 20
242.885907
 30
0.0
  0
SPLINE
  5
4d0
100
AcDbEntity
  8
0
 62
7
100
AcDbSpline
 70
8
 71
3
 72
8
 73
4
 74
0
 40
0
 40
0
 40
0
 40
0
 40
1
 40
1
 40
1
 40
1
 10
300.603073
 20
242.885907
 30
0.0
 10
299.183478
 20
244.382047
 30
0.0
 10
298.811791
 20
245.377092
 30
0.0
 10
298.833805
 20
247.622478
 30
0.0
  0
LWPOLYLINE
  5
4d1
100
AcDbEntity
  8
0
 62
7
100
AcDbPolyline
 90
3
 70
0
 10
330.761181
 20
249.053027
 30
0.0
 10
330.895351
 20
247.708150
 30
0.0
 10
330.412090
 20
249.163358
 30
0.0
  0
SPLINE
  5
4d2
100
AcDbEntity
  8
0
 62
7
100
AcDbSpline
 70
8
 71
3
 72
8
 73
4
 74
0
 40
0
 40
0
 40
0
 40
0
 40
1
 40
1
 40
1
 40
1
 10
297.969067
 20
248.978732
 30
0.0
 10
297.482551
 20
248.607654
 30
0.0
 10
296.838979
 20
247.991360
 30
0.0
 10
296.538941
 20
247.609222
 30
0.0
  0
LWPOLYLINE
  5
4d3
100
AcDbEntity
  8
0
 62
7
100
AcDbPolyline
 90
3
 70
0
 10
298.833805
 20
247.622478
 30
0.0
 10
298.853648
 20
249.653446
 30
0.0
 10
297.969067
 20
248.978732
 30
0.0
  0
SPLINE
  5
4d4
100
AcDbEntity
  8
0
 62
7
100
AcDbSpline
 70
8
 71
3
 72
8
 73
4
 74
0
 40
0
 40
0
 40
0
 40
0
 40
1
 40
1
 40
1
 40
1
 10
296.144632
 20
248.820882
 30
0.0
 10
296.573866
 20
254.231955
 30
0.0
 10
301.135045
 20
261.284688
 30
0.0
 10
305.969961
 20
264.013363
 30
0.0
  0
SPLINE
  5
4d5
100
AcDbEntity
  8
0
 62
7
100
AcDbSpline
 70
8
 71
3
 72
8
 73
4
 74
0
 40
0
 40
0
 40
0
 40
0
 40
1
 40
1
 40
1
 40
1
 10
305.969961
 20
264.013363
 30
0.0
 10
307.012737
 20
264.601875
 30
0.0
 10
307.407125
 20
264.980653
 30
0.0
 10
307.407839
 20
265.394355
 30
0.0
  0
SPLINE
  5
4d6
100
AcDbEntity
  8
0
 62
7
100
AcDbSpline
 70
8
 71
3
 72
8
 73
4
 74
0
 40
0
 40
0
 40
0
 40
0
 40
1
 40
1
 40
1
 40
1
 10
307.407839
 20
265.394355
 30
0.0
 10
307.410485
 20
266.341617
 30
0.0
 10
308.361450
 20
267.601086
 30
0.0
 10
309.643833
 20
268.352609
 30
0.0
  0
SPLINE
  5
4d7
100
AcDbEntity
  8
0
 62
7
100
AcDbSpline
 70
8
 71
3
 72
8
 73
4
 74
0
 40
0
 40
0
 40
0
 40
0
 40
1
 40
1
 40
1
 40
1
 10
309.643833
 20
268.352609
 30
0.0
 10
311.458531
 20
269.416101
 30
0.0
 10
313.878463
 20
270.153283
 30
0.0
 10
319.582959
 20
271.380394
 30
0.0
  0
SPLINE
  5
4d8
100
AcDbEntity
  8
0
 62
7
100
AcDbSpline
 70
8
 71
3
 72
8
 73
4
 74
0
 40
0
 40
0
 40
0
 40
0
 40
1
 40
1
 40
1
 40
1
 10
319.582959
 20
271.380394
 30
0.0
 10
322.417705
 20
271.990180
 30
0.0
 10
325.656443
 20
272.791894
 30
0.0
 10
326.780128
 20
273.161940
 30
0.0
  0
LWPOLYLINE
  5
4d9
100
AcDbEntity
  8
0
 62
7
100
AcDbPolyline
 90
3
 70
0
 10
296.538941
 20
247.609222
 30
0.0
 10
295.993423
 20
246.914400
 30
0.0
 10
296.144632
 20
248.820882
 30
0.0
  0
SPLINE
  5
4da
100
AcDbEntity
  8
0
 62
7
100
AcDbSpline
 70
8
 71
3
 72
8
 73
4
 74
0
 40
0
 40
0
 40
0
 40
0
 40
1
 40
1
 40
1
 40
1
 10
329.374579
 20
276.050687
 30
0.0
 10
329.863397
 20
275.493924
 30
0.0
 10
331.169804
 20
274.348384
 30
0.0
 10
332.277694
 20
273.505025
 30
0.0
  0
SPLINE
  5
4db
100
AcDbEntity
  8
0
 62
7
100
AcDbSpline
 70
8
 71
3
 72
8
 73
4
 74
0
 40
0
 40
0
 40
0
 40
0
 40
1
 40
1
 40
1
 40
1
 10
332.277694
 20
273.505025
 30
0.0
 10
335.823877
 20
270.805561
 30
0.0
 10
336.994923
 20
269.041134
 30
0.0
 10
337.272498
 20
265.979296
 30
0.0
  0
LWPOLYLINE
  5
4dc
100
AcDbEntity
  8
0
 62
7
100
AcDbPolyline
 90
5
 70
0
 10
326.780128
 20
273.161940
 30
0.0
 10
328.823188
 20
273.834802
 30
0.0
 10
328.654489
 20
275.448892
 30
0.0
 10
328.485765
 20
277.062983
 30
0.0
 10
329.374579
 20
276.050687
 30
0.0
  0
SPLINE
  5
4dd
100
AcDbEntity
  8
0
 62
7
100
AcDbSpline
 70
8
 71
3
 72
8
 73
4
 74
0
 40
0
 40
0
 40
0
 40
0
 40
1
 40
1
 40
1
 40
1
 10
337.968564
 20
266.228983
 30
0.0
 10
338.684288
 20
269.104607
 30
0.0
 10
338.714794
 20
274.861068
 30
0.0
 10
338.024761
 20
276.837399
 30
0.0
  0
SPLINE
  5
4de
100
AcDbEntity
  8
0
 62
7
100
AcDbSpline
 70
8
 71
3
 72
8
 73
4
 74
0
 40
0
 40
0
 40
0
 40
0
 40
1
 40
1
 40
1
 40
1
 10
338.024761
 20
276.837399
 30
0.0
 10
337.579203
 20
278.113564
 30
0.0
 10
336.254566
 20
280.243275
 30
0.0
 10
336.239326
 20
279.707996
 30
0.0
  0
SPLINE
  5
4df
100
AcDbEntity
  8
0
 62
7
100
AcDbSpline
 70
8
 71
3
 72
8
 73
4
 74
0
 40
0
 40
0
 40
0
 40
0
 40
1
 40
1
 40
1
 40
1
 10
336.239326
 20
279.707996
 30
0.0
 10
336.235357
 20
279.570598
 30
0.0
 10
335.886557
 20
279.041431
 30
0.0
 10
335.464097
 20
278.532108
 30
0.0
  0
LWPOLYLINE
  5
4e0
100
AcDbEntity
  8
0
 62
7
100
AcDbPolyline
 90
3
 70
0
 10
337.272498
 20
265.979296
 30
0.0
 10
337.441752
 20
264.112317
 30
0.0
 10
337.968564
 20
266.228983
 30
0.0
  0
SPLINE
  5
4e1
100
AcDbEntity
  8
0
 62
7
100
AcDbSpline
 70
8
 71
3
 72
8
 73
4
 74
0
 40
0
 40
0
 40
0
 40
0
 40
1
 40
1
 40
1
 40
1
 10
333.503799
 20
278.849794
 30
0.0
 10
332.227925
 20
280.180807
 30
0.0
 10
330.527581
 20
281.151748
 30
0.0
 10
328.518599
 20
281.696472
 30
0.0
  0
SPLINE
  5
4e2
100
AcDbEntity
  8
0
 62
7
100
AcDbSpline
 70
8
 71
3
 72
8
 73
4
 74
0
 40
0
 40
0
 40
0
 40
0
 40
1
 40
1
 40
1
 40
1
 10
328.518599
 20
281.696472
 30
0.0
 10
327.446640
 20
281.987117
 30
0.0
 10
327.004098
 20
281.969152
 30
0.0
 10
325.343599
 20
281.567567
 30
0.0
  0
SPLINE
  5
4e3
100
AcDbEntity
  8
0
 62
7
100
AcDbSpline
 70
8
 71
3
 72
8
 73
4
 74
0
 40
0
 40
0
 40
0
 40
0
 40
1
 40
1
 40
1
 40
1
 10
325.343599
 20
281.567567
 30
0.0
 10
318.882395
 20
280.004964
 30
0.0
 10
312.385392
 20
276.926035
 30
0.0
 10
307.064225
 20
272.904977
 30
0.0
  0
SPLINE
  5
4e4
100
AcDbEntity
  8
0
 62
7
100
AcDbSpline
 70
8
 71
3
 72
8
 73
4
 74
0
 40
0
 40
0
 40
0
 40
0
 40
1
 40
1
 40
1
 40
1
 10
307.064225
 20
272.904977
 30
0.0
 10
304.490173
 20
270.959839
 30
0.0
 10
299.953574
 20
266.648057
 30
0.0
 10
300.148784
 20
266.332224
 30
0.0
  0
SPLINE
  5
4e5
100
AcDbEntity
  8
0
 62
7
100
AcDbSpline
 70
8
 71
3
 72
8
 73
4
 74
0
 40
0
 40
0
 40
0
 40
0
 40
1
 40
1
 40
1
 40
1
 10
300.148784
 20
266.332224
 30
0.0
 10
300.228847
 20
266.202684
 30
0.0
 10
300.882632
 20
266.096692
 30
0.0
 10
301.601637
 20
266.096692
 30
0.0
  0
SPLINE
  5
4e6
100
AcDbEntity
  8
0
 62
7
100
AcDbSpline
 70
8
 71
3
 72
8
 73
4
 74
0
 40
0
 40
0
 40
0
 40
0
 40
1
 40
1
 40
1
 40
1
 10
301.601637
 20
266.096692
 30
0.0
 10
302.326701
 20
266.096692
 30
0.0
 10
302.908944
 20
265.974666
 30
0.0
 10
302.908944
 20
265.822716
 30
0.0
  0
SPLINE
  5
4e7
100
AcDbEntity
  8
0
 62
7
100
AcDbSpline
 70
8
 71
3
 72
8
 73
4
 74
0
 40
0
 40
0
 40
0
 40
0
 40
1
 40
1
 40
1
 40
1
 10
302.908944
 20
265.822716
 30
0.0
 10
302.908944
 20
265.672009
 30
0.0
 10
302.351334
 20
265.309715
 30
0.0
 10
301.669820
 20
265.017562
 30
0.0
  0
SPLINE
  5
4e8
100
AcDbEntity
  8
0
 62
7
100
AcDbSpline
 70
8
 71
3
 72
8
 73
4
 74
0
 40
0
 40
0
 40
0
 40
0
 40
1
 40
1
 40
1
 40
1
 10
301.669820
 20
265.017562
 30
0.0
 10
297.921415
 20
263.410827
 30
0.0
 10
293.542006
 20
258.858882
 30
0.0
 10
291.668253
 20
254.621951
 30
0.0
  0
SPLINE
  5
4e9
100
AcDbEntity
  8
0
 62
7
100
AcDbSpline
 70
8
 71
3
 72
8
 73
4
 74
0
 40
0
 40
0
 40
0
 40
0
 40
1
 40
1
 40
1
 40
1
 10
291.668253
 20
254.621951
 30
0.0
 10
289.761930
 20
250.311465
 30
0.0
 10
288.988421
 20
244.673512
 30
0.0
 10
289.685095
 20
240.167525
 30
0.0
  0
SPLINE
  5
4ea
100
AcDbEntity
  8
0
 62
7
100
AcDbSpline
 70
8
 71
3
 72
8
 73
4
 74
0
 40
0
 40
0
 40
0
 40
0
 40
1
 40
1
 40
1
 40
1
 10
289.685095
 20
240.167525
 30
0.0
 10
289.920415
 20
238.645536
 30
0.0
 10
290.074826
 20
238.334889
 30
0.0
 10
291.027802
 20
237.466420
 30
0.0
  0
SPLINE
  5
4eb
100
AcDbEntity
  8
0
 62
7
100
AcDbSpline
 70
8
 71
3
 72
8
 73
4
 74
0
 40
0
 40
0
 40
0
 40
0
 40
1
 40
1
 40
1
 40
1
 10
291.027802
 20
237.466420
 30
0.0
 10
292.186995
 20
236.409992
 30
0.0
 10
294.132317
 20
235.563299
 30
0.0
 10
296.066739
 20
235.273210
 30
0.0
  0
SPLINE
  5
4ec
100
AcDbEntity
  8
0
 62
7
100
AcDbSpline
 70
8
 71
3
 72
8
 73
4
 74
0
 40
0
 40
0
 40
0
 40
0
 40
1
 40
1
 40
1
 40
1
 10
296.066739
 20
235.273210
 30
0.0
 10
297.841591
 20
235.007039
 30
0.0
 10
300.957800
 20
235.564860
 30
0.0
 10
305.290194
 20
236.924236
 30
0.0
  0
SPLINE
  5
4ed
100
AcDbEntity
  8
0
 62
7
100
AcDbSpline
 70
8
 71
3
 72
8
 73
4
 74
0
 40
0
 40
0
 40
0
 40
0
 40
1
 40
1
 40
1
 40
1
 10
305.290194
 20
236.924236
 30
0.0
 10
315.560207
 20
240.146676
 30
0.0
 10
316.563931
 20
240.199566
 30
0.0
 10
321.129104
 20
237.758997
 30
0.0
  0
SPLINE
  5
4ee
100
AcDbEntity
  8
0
 62
7
100
AcDbSpline
 70
8
 71
3
 72
8
 73
4
 74
0
 40
0
 40
0
 40
0
 40
0
 40
1
 40
1
 40
1
 40
1
 10
321.129104
 20
237.758997
 30
0.0
 10
322.200667
 20
237.186147
 30
0.0
 10
325.355823
 20
235.199947
 30
0.0
 10
328.140563
 20
233.345270
 30
0.0
  0
SPLINE
  5
4ef
100
AcDbEntity
  8
0
 62
7
100
AcDbSpline
 70
8
 71
3
 72
8
 73
4
 74
0
 40
0
 40
0
 40
0
 40
0
 40
1
 40
1
 40
1
 40
1
 10
328.140563
 20
233.345270
 30
0.0
 10
330.925302
 20
231.490568
 30
0.0
 10
334.039131
 20
229.536540
 30
0.0
 10
335.060131
 20
229.002955
 30
0.0
  0
SPLINE
  5
4f0
100
AcDbEntity
  8
0
 62
7
100
AcDbSpline
 70
8
 71
3
 72
8
 73
4
 74
0
 40
0
 40
0
 40
0
 40
0
 40
1
 40
1
 40
1
 40
1
 10
335.060131
 20
229.002955
 30
0.0
 10
337.307079
 20
227.828734
 30
0.0
 10
340.388257
 20
226.938358
 30
0.0
 10
342.204807
 20
226.938358
 30
0.0
  0
SPLINE
  5
4f1
100
AcDbEntity
  8
0
 62
7
100
AcDbSpline
 70
8
 71
3
 72
8
 73
4
 74
0
 40
0
 40
0
 40
0
 40
0
 40
1
 40
1
 40
1
 40
1
 10
342.204807
 20
226.938358
 30
0.0
 10
343.356988
 20
226.938358
 30
0.0
 10
346.484443
 20
227.563172
 30
0.0
 10
346.772071
 20
227.850801
 30
0.0
  0
SPLINE
  5
4f2
100
AcDbEntity
  8
0
 62
7
100
AcDbSpline
 70
8
 71
3
 72
8
 73
4
 74
0
 40
0
 40
0
 40
0
 40
0
 40
1
 40
1
 40
1
 40
1
 10
346.772071
 20
227.850801
 30
0.0
 10
346.971461
 20
228.050191
 30
0.0
 10
346.010706
 20
229.579138
 30
0.0
 10
345.521518
 20
229.840943
 30
0.0
  0
SPLINE
  5
4f3
100
AcDbEntity
  8
0
 62
7
100
AcDbSpline
 70
8
 71
3
 72
8
 73
4
 74
0
 40
0
 40
0
 40
0
 40
0
 40
1
 40
1
 40
1
 40
1
 10
345.521518
 20
229.840943
 30
0.0
 10
345.241536
 20
229.990777
 30
0.0
 10
344.558170
 20
230.115978
 30
0.0
 10
344.002889
 20
230.119179
 30
0.0
  0
SPLINE
  5
4f4
100
AcDbEntity
  8
0
 62
7
100
AcDbSpline
 70
8
 71
3
 72
8
 73
4
 74
0
 40
0
 40
0
 40
0
 40
0
 40
1
 40
1
 40
1
 40
1
 10
344.002889
 20
230.119179
 30
0.0
 10
342.953922
 20
230.125265
 30
0.0
 10
340.744360
 20
230.975794
 30
0.0
 10
340.744360
 20
231.373595
 30
0.0
  0
SPLINE
  5
4f5
100
AcDbEntity
  8
0
 62
7
100
AcDbSpline
 70
8
 71
3
 72
8
 73
4
 74
0
 40
0
 40
0
 40
0
 40
0
 40
1
 40
1
 40
1
 40
1
 10
340.744360
 20
231.373595
 30
0.0
 10
340.744360
 20
231.498849
 30
0.0
 10
341.101548
 20
231.865429
 30
0.0
 10
341.538110
 20
232.188194
 30
0.0
  0
SPLINE
  5
4f6
100
AcDbEntity
  8
0
 62
7
100
AcDbSpline
 70
8
 71
3
 72
8
 73
4
 74
0
 40
0
 40
0
 40
0
 40
0
 40
1
 40
1
 40
1
 40
1
 10
341.538110
 20
232.188194
 30
0.0
 10
342.801125
 20
233.121988
 30
0.0
 10
342.612636
 20
233.864621
 30
0.0
 10
340.744360
 20
235.315464
 30
0.0
  0
SPLINE
  5
4f7
100
AcDbEntity
  8
0
 62
7
100
AcDbSpline
 70
8
 71
3
 72
8
 73
4
 74
0
 40
0
 40
0
 40
0
 40
0
 40
1
 40
1
 40
1
 40
1
 10
340.744360
 20
235.315464
 30
0.0
 10
339.871235
 20
235.993511
 30
0.0
 10
339.156860
 20
236.751252
 30
0.0
 10
339.156860
 20
236.999298
 30
0.0
  0
SPLINE
  5
4f8
100
AcDbEntity
  8
0
 62
7
100
AcDbSpline
 70
8
 71
3
 72
8
 73
4
 74
0
 40
0
 40
0
 40
0
 40
0
 40
1
 40
1
 40
1
 40
1
 10
339.156860
 20
236.999298
 30
0.0
 10
339.156860
 20
239.643624
 30
0.0
 10
347.062981
 20
241.909092
 30
0.0
 10
353.305348
 20
241.053482
 30
0.0
  0
SPLINE
  5
4f9
100
AcDbEntity
  8
0
 62
7
100
AcDbSpline
 70
8
 71
3
 72
8
 73
4
 74
0
 40
0
 40
0
 40
0
 40
0
 40
1
 40
1
 40
1
 40
1
 10
353.305348
 20
241.053482
 30
0.0
 10
354.537301
 20
240.884599
 30
0.0
 10
354.578735
 20
240.848007
 30
0.0
 10
355.326447
 20
239.267545
 30
0.0
  0
SPLINE
  5
4fa
100
AcDbEntity
  8
0
 62
7
100
AcDbSpline
 70
8
 71
3
 72
8
 73
4
 74
0
 40
0
 40
0
 40
0
 40
0
 40
1
 40
1
 40
1
 40
1
 10
355.326447
 20
239.267545
 30
0.0
 10
356.221427
 20
237.375695
 30
0.0
 10
356.323477
 20
236.565832
 30
0.0
 10
355.627173
 20
236.880739
 30
0.0
  0
SPLINE
  5
4fb
100
AcDbEntity
  8
0
 62
7
100
AcDbSpline
 70
8
 71
3
 72
8
 73
4
 74
0
 40
0
 40
0
 40
0
 40
0
 40
1
 40
1
 40
1
 40
1
 10
355.627173
 20
236.880739
 30
0.0
 10
355.372511
 20
236.995912
 30
0.0
 10
353.981729
 20
237.139554
 30
0.0
 10
352.536522
 20
237.199932
 30
0.0
  0
SPLINE
  5
4fc
100
AcDbEntity
  8
0
 62
7
100
AcDbSpline
 70
8
 71
3
 72
8
 73
4
 74
0
 40
0
 40
0
 40
0
 40
0
 40
1
 40
1
 40
1
 40
1
 10
352.536522
 20
237.199932
 30
0.0
 10
349.506831
 20
237.326482
 30
0.0
 10
346.963286
 20
236.788928
 30
0.0
 10
346.064337
 20
235.832036
 30
0.0
  0
LWPOLYLINE
  5
4fd
100
AcDbEntity
  8
0
 62
7
100
AcDbPolyline
 90
3
 70
0
 10
335.464097
 20
278.532108
 30
0.0
 10
334.696012
 20
277.606067
 30
0.0
 10
333.503799
 20
278.849794
 30
0.0
  0
SPLINE
  5
4fe
100
AcDbEntity
  8
0
 62
7
100
AcDbSpline
 70
8
 71
3
 72
8
 73
4
 74
0
 40
0
 40
0
 40
0
 40
0
 40
1
 40
1
 40
1
 40
1
 10
347.825430
 20
235.604230
 30
0.0
 10
350.022874
 20
235.944696
 30
0.0
 10
354.048536
 20
235.889054
 30
0.0
 10
355.512158
 20
235.497973
 30
0.0
  0
SPLINE
  5
4ff
100
AcDbEntity
  8
0
 62
7
100
AcDbSpline
 70
8
 71
3
 72
8
 73
4
 74
0
 40
0
 40
0
 40
0
 40
0
 40
1
 40
1
 40
1
 40
1
 10
355.512158
 20
235.497973
 30
0.0
 10
356.059687
 20
235.351659
 30
0.0
 10
356.106518
 20
235.226405
 30
0.0
 10
355.953192
 20
234.318778
 30
0.0
  0
SPLINE
  5
500
100
AcDbEntity
  8
0
 62
7
100
AcDbSpline
 70
8
 71
3
 72
8
 73
4
 74
0
 40
0
 40
0
 40
0
 40
0
 40
1
 40
1
 40
1
 40
1
 10
355.953192
 20
234.318778
 30
0.0
 10
355.858815
 20
233.760269
 30
0.0
 10
355.564308
 20
232.585572
 30
0.0
 10
355.298692
 20
231.708320
 30
0.0
  0
SPLINE
  5
501
100
AcDbEntity
  8
0
 62
7
100
AcDbSpline
 70
8
 71
3
 72
8
 73
4
 74
0
 40
0
 40
0
 40
0
 40
0
 40
1
 40
1
 40
1
 40
1
 10
355.298692
 20
231.708320
 30
0.0
 10
355.033104
 20
230.831094
 30
0.0
 10
354.923937
 20
230.113358
 30
0.0
 10
355.056122
 20
230.113358
 30
0.0
  0
SPLINE
  5
502
100
AcDbEntity
  8
0
 62
7
100
AcDbSpline
 70
8
 71
3
 72
8
 73
4
 74
0
 40
0
 40
0
 40
0
 40
0
 40
1
 40
1
 40
1
 40
1
 10
355.056122
 20
230.113358
 30
0.0
 10
355.188308
 20
230.113358
 30
0.0
 10
355.296444
 20
230.221150
 30
0.0
 10
355.296444
 20
230.352912
 30
0.0
  0
SPLINE
  5
503
100
AcDbEntity
  8
0
 62
7
100
AcDbSpline
 70
8
 71
3
 72
8
 73
4
 74
0
 40
0
 40
0
 40
0
 40
0
 40
1
 40
1
 40
1
 40
1
 10
355.296444
 20
230.352912
 30
0.0
 10
355.296444
 20
230.706396
 30
0.0
 10
356.888547
 20
232.549536
 30
0.0
 10
358.084411
 20
233.580511
 30
0.0
  0
LWPOLYLINE
  5
504
100
AcDbEntity
  8
0
 62
7
100
AcDbPolyline
 90
3
 70
0
 10
346.064337
 20
235.832036
 30
0.0
 10
345.513819
 20
235.246037
 30
0.0
 10
347.825430
 20
235.604230
 30
0.0
  0
SPLINE
  5
505
100
AcDbEntity
  8
0
 62
7
100
AcDbSpline
 70
8
 71
3
 72
8
 73
4
 74
0
 40
0
 40
0
 40
0
 40
0
 40
1
 40
1
 40
1
 40
1
 10
358.152541
 20
233.324368
 30
0.0
 10
355.261201
 20
229.897141
 30
0.0
 10
355.412331
 20
226.833980
 30
0.0
 10
358.631569
 20
223.614742
 30
0.0
  0
LWPOLYLINE
  5
506
100
AcDbEntity
  8
0
 62
7
100
AcDbPolyline
 90
3
 70
0
 10
358.084411
 20
233.580511
 30
0.0
 10
359.126605
 20
234.478983
 30
0.0
 10
358.152541
 20
233.324368
 30
0.0
  0
SPLINE
  5
507
100
AcDbEntity
  8
0
 62
7
100
AcDbSpline
 70
8
 71
3
 72
8
 73
4
 74
0
 40
0
 40
0
 40
0
 40
0
 40
1
 40
1
 40
1
 40
1
 10
359.259135
 20
222.042244
 30
0.0
 10
358.832997
 20
221.948661
 30
0.0
 10
358.362382
 20
221.947444
 30
0.0
 10
358.213316
 20
222.039598
 30
0.0
  0
SPLINE
  5
508
100
AcDbEntity
  8
0
 62
7
100
AcDbSpline
 70
8
 71
3
 72
8
 73
4
 74
0
 40
0
 40
0
 40
0
 40
0
 40
1
 40
1
 40
1
 40
1
 10
358.213316
 20
222.039598
 30
0.0
 10
357.857160
 20
222.259705
 30
0.0
 10
357.870628
 20
221.925695
 30
0.0
 10
358.320975
 20
219.366751
 30
0.0
  0
SPLINE
  5
509
100
AcDbEntity
  8
0
 62
7
100
AcDbSpline
 70
8
 71
3
 72
8
 73
4
 74
0
 40
0
 40
0
 40
0
 40
0
 40
1
 40
1
 40
1
 40
1
 10
358.320975
 20
219.366751
 30
0.0
 10
359.321470
 20
213.681755
 30
0.0
 10
359.126023
 20
210.218359
 30
0.0
 10
357.498438
 20
204.791543
 30
0.0
  0
SPLINE
  5
50a
100
AcDbEntity
  8
0
 62
7
100
AcDbSpline
 70
8
 71
3
 72
8
 73
4
 74
0
 40
0
 40
0
 40
0
 40
0
 40
1
 40
1
 40
1
 40
1
 10
357.498438
 20
204.791543
 30
0.0
 10
356.627959
 20
201.889037
 30
0.0
 10
356.090220
 20
200.949899
 30
0.0
 10
356.090220
 20
202.332108
 30
0.0
  0
SPLINE
  5
50b
100
AcDbEntity
  8
0
 62
7
100
AcDbSpline
 70
8
 71
3
 72
8
 73
4
 74
0
 40
0
 40
0
 40
0
 40
0
 40
1
 40
1
 40
1
 40
1
 10
356.090220
 20
202.332108
 30
0.0
 10
356.090220
 20
203.517865
 30
0.0
 10
355.568832
 20
202.981819
 30
0.0
 10
355.045116
 20
201.257583
 30
0.0
  0
SPLINE
  5
50c
100
AcDbEntity
  8
0
 62
7
100
AcDbSpline
 70
8
 71
3
 72
8
 73
4
 74
0
 40
0
 40
0
 40
0
 40
0
 40
1
 40
1
 40
1
 40
1
 10
355.045116
 20
201.257583
 30
0.0
 10
354.200248
 20
198.475992
 30
0.0
 10
352.160549
 20
194.704145
 30
0.0
 10
349.828459
 20
191.610821
 30
0.0
  0
SPLINE
  5
50d
100
AcDbEntity
  8
0
 62
7
100
AcDbSpline
 70
8
 71
3
 72
8
 73
4
 74
0
 40
0
 40
0
 40
0
 40
0
 40
1
 40
1
 40
1
 40
1
 10
349.828459
 20
191.610821
 30
0.0
 10
348.026011
 20
189.219993
 30
0.0
 10
347.744732
 20
188.948372
 30
0.0
 10
347.670623
 20
189.527095
 30
0.0
  0
SPLINE
  5
50e
100
AcDbEntity
  8
0
 62
7
100
AcDbSpline
 70
8
 71
3
 72
8
 73
4
 74
0
 40
0
 40
0
 40
0
 40
0
 40
1
 40
1
 40
1
 40
1
 10
347.670623
 20
189.527095
 30
0.0
 10
347.519255
 20
190.708857
 30
0.0
 10
346.908993
 20
190.545847
 30
0.0
 10
345.047623
 20
188.826452
 30
0.0
  0
SPLINE
  5
50f
100
AcDbEntity
  8
0
 62
7
100
AcDbSpline
 70
8
 71
3
 72
8
 73
4
 74
0
 40
0
 40
0
 40
0
 40
0
 40
1
 40
1
 40
1
 40
1
 10
345.047623
 20
188.826452
 30
0.0
 10
343.063301
 20
186.993498
 30
0.0
 10
340.218898
 20
185.063178
 30
0.0
 10
336.704226
 20
183.164263
 30
0.0
  0
SPLINE
  5
510
100
AcDbEntity
  8
0
 62
7
100
AcDbSpline
 70
8
 71
3
 72
8
 73
4
 74
0
 40
0
 40
0
 40
0
 40
0
 40
1
 40
1
 40
1
 40
1
 10
336.704226
 20
183.164263
 30
0.0
 10
333.920862
 20
181.660451
 30
0.0
 10
331.698653
 20
179.706318
 30
0.0
 10
331.116014
 20
178.250130
 30
0.0
  0
SPLINE
  5
511
100
AcDbEntity
  8
0
 62
7
100
AcDbSpline
 70
8
 71
3
 72
8
 73
4
 74
0
 40
0
 40
0
 40
0
 40
0
 40
1
 40
1
 40
1
 40
1
 10
331.116014
 20
178.250130
 30
0.0
 10
330.780602
 20
177.411877
 30
0.0
 10
330.667863
 20
175.863536
 30
0.0
 10
330.581476
 20
170.908419
 30
0.0
  0
SPLINE
  5
512
100
AcDbEntity
  8
0
 62
7
100
AcDbSpline
 70
8
 71
3
 72
8
 73
4
 74
0
 40
0
 40
0
 40
0
 40
0
 40
1
 40
1
 40
1
 40
1
 10
330.581476
 20
170.908419
 30
0.0
 10
330.426801
 20
162.036993
 30
0.0
 10
329.794738
 20
158.913428
 30
0.0
 10
327.706143
 20
156.699135
 30
0.0
  0
SPLINE
  5
513
100
AcDbEntity
  8
0
 62
7
100
AcDbSpline
 70
8
 71
3
 72
8
 73
4
 74
0
 40
0
 40
0
 40
0
 40
0
 40
1
 40
1
 40
1
 40
1
 10
327.706143
 20
156.699135
 30
0.0
 10
327.090193
 20
156.046117
 30
0.0
 10
326.723375
 20
155.354470
 30
0.0
 10
326.606985
 20
154.626628
 30
0.0
  0
SPLINE
  5
514
100
AcDbEntity
  8
0
 62
7
100
AcDbSpline
 70
8
 71
3
 72
8
 73
4
 74
0
 40
0
 40
0
 40
0
 40
0
 40
1
 40
1
 40
1
 40
1
 10
326.606985
 20
154.626628
 30
0.0
 10
326.359758
 20
153.080535
 30
0.0
 10
325.468430
 20
152.054825
 30
0.0
 10
322.759970
 20
150.199778
 30
0.0
  0
SPLINE
  5
515
100
AcDbEntity
  8
0
 62
7
100
AcDbSpline
 70
8
 71
3
 72
8
 73
4
 74
0
 40
0
 40
0
 40
0
 40
0
 40
1
 40
1
 40
1
 40
1
 10
322.759970
 20
150.199778
 30
0.0
 10
319.443947
 20
147.928595
 30
0.0
 10
318.532880
 20
146.862879
 30
0.0
 10
318.469777
 20
145.181346
 30
0.0
  0
SPLINE
  5
516
100
AcDbEntity
  8
0
 62
7
100
AcDbSpline
 70
8
 71
3
 72
8
 73
4
 74
0
 40
0
 40
0
 40
0
 40
0
 40
1
 40
1
 40
1
 40
1
 10
318.469777
 20
145.181346
 30
0.0
 10
318.359684
 20
142.247329
 30
0.0
 10
318.232578
 20
142.528264
 30
0.0
 10
320.106887
 20
141.563222
 30
0.0
  0
SPLINE
  5
517
100
AcDbEntity
  8
0
 62
7
100
AcDbSpline
 70
8
 71
3
 72
8
 73
4
 74
0
 40
0
 40
0
 40
0
 40
0
 40
1
 40
1
 40
1
 40
1
 10
320.106887
 20
141.563222
 30
0.0
 10
323.572029
 20
139.779084
 30
0.0
 10
328.287168
 20
138.632962
 30
0.0
 10
332.333441
 20
138.591264
 30
0.0
  0
SPLINE
  5
518
100
AcDbEntity
  8
0
 62
7
100
AcDbSpline
 70
8
 71
3
 72
8
 73
4
 74
0
 40
0
 40
0
 40
0
 40
0
 40
1
 40
1
 40
1
 40
1
 10
332.333441
 20
138.591264
 30
0.0
 10
333.601034
 20
138.578299
 30
0.0
 10
338.482596
 20
138.919850
 30
0.0
 10
343.181358
 20
139.350433
 30
0.0
  0
LWPOLYLINE
  5
519
100
AcDbEntity
  8
0
 62
7
100
AcDbPolyline
 90
3
 70
0
 10
358.631569
 20
223.614742
 30
0.0
 10
360.033914
 20
222.212397
 30
0.0
 10
359.259135
 20
222.042244
 30
0.0
  0
SPLINE
  5
51a
100
AcDbEntity
  8
0
 62
7
100
AcDbSpline
 70
8
 71
3
 72
8
 73
4
 74
0
 40
0
 40
0
 40
0
 40
0
 40
1
 40
1
 40
1
 40
1
 10
179.877728
 20
186.278515
 30
0.0
 10
179.877728
 20
186.370378
 30
0.0
 10
180.753737
 20
187.104861
 30
0.0
 10
181.824426
 20
187.910729
 30
0.0
  0
SPLINE
  5
51b
100
AcDbEntity
  8
0
 62
7
100
AcDbSpline
 70
8
 71
3
 72
8
 73
4
 74
0
 40
0
 40
0
 40
0
 40
0
 40
1
 40
1
 40
1
 40
1
 10
181.824426
 20
187.910729
 30
0.0
 10
183.691432
 20
189.315958
 30
0.0
 10
183.813273
 20
189.366017
 30
0.0
 10
184.800989
 20
189.134216
 30
0.0
  0
SPLINE
  5
51c
100
AcDbEntity
  8
0
 62
7
100
AcDbSpline
 70
8
 71
3
 72
8
 73
4
 74
0
 40
0
 40
0
 40
0
 40
0
 40
1
 40
1
 40
1
 40
1
 10
184.800989
 20
189.134216
 30
0.0
 10
185.367409
 20
189.001289
 30
0.0
 10
185.589368
 20
188.880559
 30
0.0
 10
185.294225
 20
188.865954
 30
0.0
  0
SPLINE
  5
51d
100
AcDbEntity
  8
0
 62
7
100
AcDbSpline
 70
8
 71
3
 72
8
 73
4
 74
0
 40
0
 40
0
 40
0
 40
0
 40
1
 40
1
 40
1
 40
1
 10
185.294225
 20
188.865954
 30
0.0
 10
184.640307
 20
188.833543
 30
0.0
 10
180.982893
 20
187.108116
 30
0.0
 10
180.340749
 20
186.529049
 30
0.0
  0
SPLINE
  5
51e
100
AcDbEntity
  8
0
 62
7
100
AcDbSpline
 70
8
 71
3
 72
8
 73
4
 74
0
 40
0
 40
0
 40
0
 40
0
 40
1
 40
1
 40
1
 40
1
 10
180.340749
 20
186.529049
 30
0.0
 10
180.086087
 20
186.299417
 30
0.0
 10
179.877728
 20
186.186678
 30
0.0
 10
179.877728
 20
186.278515
 30
0.0
  0
LWPOLYLINE
  5
51f
100
AcDbEntity
  8
0
 62
7
100
AcDbPolyline
 90
2
 70
0
 10
343.181358
 20
139.350433
 30
0.0
 10
343.181358
 20
139.351438
 30
0.0
  0
SPLINE
  5
520
100
AcDbEntity
  8
0
 62
7
100
AcDbSpline
 70
8
 71
3
 72
8
 73
4
 74
0
 40
0
 40
0
 40
0
 40
0
 40
1
 40
1
 40
1
 40
1
 10
365.747512
 20
239.021033
 30
0.0
 10
365.893033
 20
239.164093
 30
0.0
 10
367.251350
 20
240.154508
 30
0.0
 10
368.765984
 20
241.221969
 30
0.0
  0
SPLINE
  5
521
100
AcDbEntity
  8
0
 62
7
100
AcDbSpline
 70
8
 71
3
 72
8
 73
4
 74
0
 40
0
 40
0
 40
0
 40
0
 40
1
 40
1
 40
1
 40
1
 10
368.765984
 20
241.221969
 30
0.0
 10
372.113254
 20
243.580941
 30
0.0
 10
374.473073
 20
245.888187
 30
0.0
 10
375.147284
 20
247.461029
 30
0.0
  0
SPLINE
  5
522
100
AcDbEntity
  8
0
 62
7
100
AcDbSpline
 70
8
 71
3
 72
8
 73
4
 74
0
 40
0
 40
0
 40
0
 40
0
 40
1
 40
1
 40
1
 40
1
 10
375.147284
 20
247.461029
 30
0.0
 10
375.586599
 20
248.485919
 30
0.0
 10
376.198553
 20
249.044852
 30
0.0
 10
376.198553
 20
248.421202
 30
0.0
  0
SPLINE
  5
523
100
AcDbEntity
  8
0
 62
7
100
AcDbSpline
 70
8
 71
3
 72
8
 73
4
 74
0
 40
0
 40
0
 40
0
 40
0
 40
1
 40
1
 40
1
 40
1
 10
376.198553
 20
248.421202
 30
0.0
 10
376.198553
 20
247.848459
 30
0.0
 10
374.201875
 20
244.934708
 30
0.0
 10
373.126370
 20
243.937970
 30
0.0
  0
SPLINE
  5
524
100
AcDbEntity
  8
0
 62
7
100
AcDbSpline
 70
8
 71
3
 72
8
 73
4
 74
0
 40
0
 40
0
 40
0
 40
0
 40
1
 40
1
 40
1
 40
1
 10
373.126370
 20
243.937970
 30
0.0
 10
371.727809
 20
242.641829
 30
0.0
 10
364.597659
 20
237.890627
 30
0.0
 10
365.747512
 20
239.021033
 30
0.0
  0
LWPOLYLINE
  5
525
100
AcDbEntity
  8
0
 62
7
100
AcDbPolyline
 90
1
 70
1
 10
179.877728
 20
186.278515
 30
0.0
  0
SPLINE
  5
526
100
AcDbEntity
  8
0
 62
7
100
AcDbSpline
 70
8
 71
3
 72
8
 73
4
 74
0
 40
0
 40
0
 40
0
 40
0
 40
1
 40
1
 40
1
 40
1
 10
361.362837
 20
246.557107
 30
0.0
 10
359.244397
 20
248.703539
 30
0.0
 10
355.409421
 20
250.487281
 30
0.0
 10
352.913024
 20
250.487281
 30
0.0
  0
SPLINE
  5
527
100
AcDbEntity
  8
0
 62
7
100
AcDbSpline
 70
8
 71
3
 72
8
 73
4
 74
0
 40
0
 40
0
 40
0
 40
0
 40
1
 40
1
 40
1
 40
1
 10
352.913024
 20
250.487281
 30
0.0
 10
351.976611
 20
250.487281
 30
0.0
 10
351.952031
 20
250.462145
 30
0.0
 10
352.068765
 20
249.627385
 30
0.0
  0
SPLINE
  5
528
100
AcDbEntity
  8
0
 62
7
100
AcDbSpline
 70
8
 71
3
 72
8
 73
4
 74
0
 40
0
 40
0
 40
0
 40
0
 40
1
 40
1
 40
1
 40
1
 10
352.068765
 20
249.627385
 30
0.0
 10
352.312658
 20
247.882907
 30
0.0
 10
351.870830
 20
249.136821
 30
0.0
 10
350.972411
 20
252.738911
 30
0.0
  0
SPLINE
  5
529
100
AcDbEntity
  8
0
 62
7
100
AcDbSpline
 70
8
 71
3
 72
8
 73
4
 74
0
 40
0
 40
0
 40
0
 40
0
 40
1
 40
1
 40
1
 40
1
 10
350.972411
 20
252.738911
 30
0.0
 10
350.464623
 20
254.774748
 30
0.0
 10
349.851689
 20
257.452437
 30
0.0
 10
349.610310
 20
258.689364
 30
0.0
  0
SPLINE
  5
52a
100
AcDbEntity
  8
0
 62
7
100
AcDbSpline
 70
8
 71
3
 72
8
 73
4
 74
0
 40
0
 40
0
 40
0
 40
0
 40
1
 40
1
 40
1
 40
1
 10
349.610310
 20
258.689364
 30
0.0
 10
349.368957
 20
259.926291
 30
0.0
 10
348.761156
 20
262.328231
 30
0.0
 10
348.259638
 20
264.026989
 30
0.0
  0
LWPOLYLINE
  5
52b
100
AcDbEntity
  8
0
 62
7
100
AcDbPolyline
 90
1
 70
1
 10
365.747512
 20
239.021033
 30
0.0
  0
SPLINE
  5
52c
100
AcDbEntity
  8
0
 62
7
100
AcDbSpline
 70
8
 71
3
 72
8
 73
4
 74
0
 40
0
 40
0
 40
0
 40
0
 40
1
 40
1
 40
1
 40
1
 10
348.029133
 20
268.657197
 30
0.0
 10
349.870183
 20
272.822532
 30
0.0
 10
352.897837
 20
276.416447
 30
0.0
 10
354.565823
 20
276.416447
 30
0.0
  0
SPLINE
  5
52d
100
AcDbEntity
  8
0
 62
7
100
AcDbSpline
 70
8
 71
3
 72
8
 73
4
 74
0
 40
0
 40
0
 40
0
 40
0
 40
1
 40
1
 40
1
 40
1
 10
354.565823
 20
276.416447
 30
0.0
 10
355.292792
 20
276.416447
 30
0.0
 10
355.719221
 20
276.137153
 30
0.0
 10
357.024543
 20
274.806114
 30
0.0
  0
SPLINE
  5
52e
100
AcDbEntity
  8
0
 62
7
100
AcDbSpline
 70
8
 71
3
 72
8
 73
4
 74
0
 40
0
 40
0
 40
0
 40
0
 40
1
 40
1
 40
1
 40
1
 10
357.024543
 20
274.806114
 30
0.0
 10
357.893117
 20
273.920421
 30
0.0
 10
359.540916
 20
272.465636
 30
0.0
 10
360.686350
 20
271.573249
 30
0.0
  0
SPLINE
  5
52f
100
AcDbEntity
  8
0
 62
7
100
AcDbSpline
 70
8
 71
3
 72
8
 73
4
 74
0
 40
0
 40
0
 40
0
 40
0
 40
1
 40
1
 40
1
 40
1
 10
360.686350
 20
271.573249
 30
0.0
 10
361.831758
 20
270.680863
 30
0.0
 10
363.172428
 20
269.422266
 30
0.0
 10
363.665611
 20
268.776392
 30
0.0
  0
SPLINE
  5
530
100
AcDbEntity
  8
0
 62
7
100
AcDbSpline
 70
8
 71
3
 72
8
 73
4
 74
0
 40
0
 40
0
 40
0
 40
0
 40
1
 40
1
 40
1
 40
1
 10
363.665611
 20
268.776392
 30
0.0
 10
364.315481
 20
267.925254
 30
0.0
 10
364.972997
 20
267.435113
 30
0.0
 10
366.054534
 20
266.995534
 30
0.0
  0
SPLINE
  5
531
100
AcDbEntity
  8
0
 62
7
100
AcDbSpline
 70
8
 71
3
 72
8
 73
4
 74
0
 40
0
 40
0
 40
0
 40
0
 40
1
 40
1
 40
1
 40
1
 10
366.054534
 20
266.995534
 30
0.0
 10
368.808026
 20
265.876453
 30
0.0
 10
369.966875
 20
264.321629
 30
0.0
 10
371.836447
 20
259.237924
 30
0.0
  0
SPLINE
  5
532
100
AcDbEntity
  8
0
 62
7
100
AcDbSpline
 70
8
 71
3
 72
8
 73
4
 74
0
 40
0
 40
0
 40
0
 40
0
 40
1
 40
1
 40
1
 40
1
 10
371.836447
 20
259.237924
 30
0.0
 10
373.271124
 20
255.336802
 30
0.0
 10
373.339122
 20
255.205092
 30
0.0
 10
374.657620
 20
253.774702
 30
0.0
  0
SPLINE
  5
533
100
AcDbEntity
  8
0
 62
7
100
AcDbSpline
 70
8
 71
3
 72
8
 73
4
 74
0
 40
0
 40
0
 40
0
 40
0
 40
1
 40
1
 40
1
 40
1
 10
374.657620
 20
253.774702
 30
0.0
 10
375.653168
 20
252.694646
 30
0.0
 10
375.677827
 20
252.627072
 30
0.0
 10
375.174431
 20
252.357673
 30
0.0
  0
SPLINE
  5
534
100
AcDbEntity
  8
0
 62
7
100
AcDbSpline
 70
8
 71
3
 72
8
 73
4
 74
0
 40
0
 40
0
 40
0
 40
0
 40
1
 40
1
 40
1
 40
1
 10
375.174431
 20
252.357673
 30
0.0
 10
374.883706
 20
252.202072
 30
0.0
 10
374.260084
 20
252.074781
 30
0.0
 10
373.788570
 20
252.074781
 30
0.0
  0
LWPOLYLINE
  5
535
100
AcDbEntity
  8
0
 62
7
100
AcDbPolyline
 90
3
 70
0
 10
348.259638
 20
264.026989
 30
0.0
 10
347.347805
 20
267.115682
 30
0.0
 10
348.029133
 20
268.657197
 30
0.0
  0
SPLINE
  5
536
100
AcDbEntity
  8
0
 62
7
100
AcDbSpline
 70
8
 71
3
 72
8
 73
4
 74
0
 40
0
 40
0
 40
0
 40
0
 40
1
 40
1
 40
1
 40
1
 10
373.532691
 20
250.746043
 30
0.0
 10
372.659778
 20
250.738106
 30
0.0
 10
371.123633
 20
249.995341
 30
0.0
 10
368.984980
 20
248.547038
 30
0.0
  0
SPLINE
  5
537
100
AcDbEntity
  8
0
 62
7
100
AcDbSpline
 70
8
 71
3
 72
8
 73
4
 74
0
 40
0
 40
0
 40
0
 40
0
 40
1
 40
1
 40
1
 40
1
 10
368.984980
 20
248.547038
 30
0.0
 10
367.035397
 20
247.226767
 30
0.0
 10
365.818526
 20
246.786844
 30
0.0
 10
364.109847
 20
246.784569
 30
0.0
  0
SPLINE
  5
538
100
AcDbEntity
  8
0
 62
7
100
AcDbSpline
 70
8
 71
3
 72
8
 73
4
 74
0
 40
0
 40
0
 40
0
 40
0
 40
1
 40
1
 40
1
 40
1
 10
364.109847
 20
246.784569
 30
0.0
 10
363.052810
 20
246.781923
 30
0.0
 10
362.997512
 20
246.743162
 30
0.0
 10
362.919222
 20
245.923218
 30
0.0
  0
LWPOLYLINE
  5
539
100
AcDbEntity
  8
0
 62
7
100
AcDbPolyline
 90
5
 70
0
 10
373.788570
 20
252.074781
 30
0.0
 10
372.931320
 20
252.074781
 30
0.0
 10
373.552720
 20
251.413322
 30
0.0
 10
374.174120
 20
250.751864
 30
0.0
 10
373.532691
 20
250.746043
 30
0.0
  0
SPLINE
  5
53a
100
AcDbEntity
  8
0
 62
7
100
AcDbSpline
 70
8
 71
3
 72
8
 73
4
 74
0
 40
0
 40
0
 40
0
 40
0
 40
1
 40
1
 40
1
 40
1
 10
352.142346
 20
248.260362
 30
0.0
 10
352.155046
 20
248.568602
 30
0.0
 10
352.217752
 20
248.631281
 30
0.0
 10
352.302207
 20
248.420223
 30
0.0
  0
SPLINE
  5
53b
100
AcDbEntity
  8
0
 62
7
100
AcDbSpline
 70
8
 71
3
 72
8
 73
4
 74
0
 40
0
 40
0
 40
0
 40
0
 40
1
 40
1
 40
1
 40
1
 10
352.302207
 20
248.420223
 30
0.0
 10
352.378645
 20
248.229221
 30
0.0
 10
352.369252
 20
248.001017
 30
0.0
 10
352.281305
 20
247.913096
 30
0.0
  0
SPLINE
  5
53c
100
AcDbEntity
  8
0
 62
7
100
AcDbSpline
 70
8
 71
3
 72
8
 73
4
 74
0
 40
0
 40
0
 40
0
 40
0
 40
1
 40
1
 40
1
 40
1
 10
352.281305
 20
247.913096
 30
0.0
 10
352.193384
 20
247.825175
 30
0.0
 10
352.130836
 20
247.981465
 30
0.0
 10
352.142319
 20
248.260362
 30
0.0
  0
LWPOLYLINE
  5
53d
100
AcDbEntity
  8
0
 62
7
100
AcDbPolyline
 90
4
 70
0
 10
362.919222
 20
245.923218
 30
0.0
 10
362.837095
 20
245.063322
 30
0.0
 10
361.362837
 20
246.557080
 30
0.0
 10
361.362837
 20
246.557107
 30
0.0
  0
SPLINE
  5
53e
100
AcDbEntity
  8
0
 62
7
100
AcDbSpline
 70
8
 71
3
 72
8
 73
4
 74
0
 40
0
 40
0
 40
0
 40
0
 40
1
 40
1
 40
1
 40
1
 10
548.532420
 20
146.713628
 30
0.0
 10
549.125458
 20
148.348409
 30
0.0
 10
549.171707
 20
148.664004
 30
0.0
 10
548.836956
 20
148.792459
 30
0.0
  0
SPLINE
  5
53f
100
AcDbEntity
  8
0
 62
7
100
AcDbSpline
 70
8
 71
3
 72
8
 73
4
 74
0
 40
0
 40
0
 40
0
 40
0
 40
1
 40
1
 40
1
 40
1
 10
548.836956
 20
148.792459
 30
0.0
 10
548.566446
 20
148.896255
 30
0.0
 10
548.441033
 20
149.330357
 30
0.0
 10
548.438255
 20
150.172367
 30
0.0
  0
SPLINE
  5
540
100
AcDbEntity
  8
0
 62
7
100
AcDbSpline
 70
8
 71
3
 72
8
 73
4
 74
0
 40
0
 40
0
 40
0
 40
0
 40
1
 40
1
 40
1
 40
1
 10
548.438255
 20
150.172367
 30
0.0
 10
548.433228
 20
151.730075
 30
0.0
 10
548.094006
 20
152.365472
 30
0.0
 10
547.680330
 20
151.592518
 30
0.0
  0
SPLINE
  5
541
100
AcDbEntity
  8
0
 62
7
100
AcDbSpline
 70
8
 71
3
 72
8
 73
4
 74
0
 40
0
 40
0
 40
0
 40
0
 40
1
 40
1
 40
1
 40
1
 10
547.680330
 20
151.592518
 30
0.0
 10
547.344970
 20
150.965852
 30
0.0
 10
545.890979
 20
150.011659
 30
0.0
 10
544.790551
 20
149.696064
 30
0.0
  0
SPLINE
  5
542
100
AcDbEntity
  8
0
 62
7
100
AcDbSpline
 70
8
 71
3
 72
8
 73
4
 74
0
 40
0
 40
0
 40
0
 40
0
 40
1
 40
1
 40
1
 40
1
 10
544.790551
 20
149.696064
 30
0.0
 10
544.032096
 20
149.478550
 30
0.0
 10
544.029344
 20
149.482175
 30
0.0
 10
543.552592
 20
151.320315
 30
0.0
  0
SPLINE
  5
543
100
AcDbEntity
  8
0
 62
7
100
AcDbSpline
 70
8
 71
3
 72
8
 73
4
 74
0
 40
0
 40
0
 40
0
 40
0
 40
1
 40
1
 40
1
 40
1
 10
543.552592
 20
151.320315
 30
0.0
 10
543.174396
 20
152.778434
 30
0.0
 10
542.944764
 20
153.211980
 30
0.0
 10
542.451237
 20
153.399622
 30
0.0
  0
SPLINE
  5
544
100
AcDbEntity
  8
0
 62
7
100
AcDbSpline
 70
8
 71
3
 72
8
 73
4
 74
0
 40
0
 40
0
 40
0
 40
0
 40
1
 40
1
 40
1
 40
1
 10
542.451237
 20
153.399622
 30
0.0
 10
541.942708
 20
153.592980
 30
0.0
 10
541.827720
 20
153.827850
 30
0.0
 10
541.827720
 20
154.673274
 30
0.0
  0
SPLINE
  5
545
100
AcDbEntity
  8
0
 62
7
100
AcDbSpline
 70
8
 71
3
 72
8
 73
4
 74
0
 40
0
 40
0
 40
0
 40
0
 40
1
 40
1
 40
1
 40
1
 10
541.827720
 20
154.673274
 30
0.0
 10
541.827720
 20
155.918191
 30
0.0
 10
542.390224
 20
156.262282
 30
0.0
 10
543.162649
 20
155.489857
 30
0.0
  0
SPLINE
  5
546
100
AcDbEntity
  8
0
 62
7
100
AcDbSpline
 70
8
 71
3
 72
8
 73
4
 74
0
 40
0
 40
0
 40
0
 40
0
 40
1
 40
1
 40
1
 40
1
 10
543.162649
 20
155.489857
 30
0.0
 10
543.613658
 20
155.038848
 30
0.0
 10
543.714755
 20
155.020513
 30
0.0
 10
543.847232
 20
155.365715
 30
0.0
  0
SPLINE
  5
547
100
AcDbEntity
  8
0
 62
7
100
AcDbSpline
 70
8
 71
3
 72
8
 73
4
 74
0
 40
0
 40
0
 40
0
 40
0
 40
1
 40
1
 40
1
 40
1
 10
543.847232
 20
155.365715
 30
0.0
 10
543.932719
 20
155.588467
 30
0.0
 10
543.821567
 20
156.156739
 30
0.0
 10
543.600428
 20
156.628491
 30
0.0
  0
SPLINE
  5
548
100
AcDbEntity
  8
0
 62
7
100
AcDbSpline
 70
8
 71
3
 72
8
 73
4
 74
0
 40
0
 40
0
 40
0
 40
0
 40
1
 40
1
 40
1
 40
1
 10
543.600428
 20
156.628491
 30
0.0
 10
543.183736
 20
157.517147
 30
0.0
 10
543.068060
 20
158.121932
 30
0.0
 10
543.120157
 20
159.139885
 30
0.0
  0
SPLINE
  5
549
100
AcDbEntity
  8
0
 62
7
100
AcDbSpline
 70
8
 71
3
 72
8
 73
4
 74
0
 40
0
 40
0
 40
0
 40
0
 40
1
 40
1
 40
1
 40
1
 10
543.120157
 20
159.139885
 30
0.0
 10
543.156325
 20
159.846243
 30
0.0
 10
543.624823
 20
159.929216
 30
0.0
 10
543.867234
 20
159.272176
 30
0.0
  0
SPLINE
  5
54a
100
AcDbEntity
  8
0
 62
7
100
AcDbSpline
 70
8
 71
3
 72
8
 73
4
 74
0
 40
0
 40
0
 40
0
 40
0
 40
1
 40
1
 40
1
 40
1
 10
543.867234
 20
159.272176
 30
0.0
 10
543.961214
 20
159.017515
 30
0.0
 10
544.165816
 20
158.721690
 30
0.0
 10
544.321974
 20
158.614771
 30
0.0
  0
SPLINE
  5
54b
100
AcDbEntity
  8
0
 62
7
100
AcDbSpline
 70
8
 71
3
 72
8
 73
4
 74
0
 40
0
 40
0
 40
0
 40
0
 40
1
 40
1
 40
1
 40
1
 10
544.321974
 20
158.614771
 30
0.0
 10
544.724087
 20
158.339420
 30
0.0
 10
547.227231
 20
158.365799
 30
0.0
 10
547.983595
 20
158.653348
 30
0.0
  0
SPLINE
  5
54c
100
AcDbEntity
  8
0
 62
7
100
AcDbSpline
 70
8
 71
3
 72
8
 73
4
 74
0
 40
0
 40
0
 40
0
 40
0
 40
1
 40
1
 40
1
 40
1
 10
547.983595
 20
158.653348
 30
0.0
 10
548.810974
 20
158.967932
 30
0.0
 10
550.016283
 20
160.257273
 30
0.0
 10
550.452264
 20
161.294175
 30
0.0
  0
SPLINE
  5
54d
100
AcDbEntity
  8
0
 62
7
100
AcDbSpline
 70
8
 71
3
 72
8
 73
4
 74
0
 40
0
 40
0
 40
0
 40
0
 40
1
 40
1
 40
1
 40
1
 10
550.452264
 20
161.294175
 30
0.0
 10
550.785162
 20
162.085888
 30
0.0
 10
550.773653
 20
162.116447
 30
0.0
 10
550.142701
 20
162.116447
 30
0.0
  0
SPLINE
  5
54e
100
AcDbEntity
  8
0
 62
7
100
AcDbSpline
 70
8
 71
3
 72
8
 73
4
 74
0
 40
0
 40
0
 40
0
 40
0
 40
1
 40
1
 40
1
 40
1
 10
550.142701
 20
162.116447
 30
0.0
 10
549.626261
 20
162.116447
 30
0.0
 10
549.453779
 20
161.948252
 30
0.0
 10
549.328657
 20
161.322697
 30
0.0
  0
SPLINE
  5
54f
100
AcDbEntity
  8
0
 62
7
100
AcDbSpline
 70
8
 71
3
 72
8
 73
4
 74
0
 40
0
 40
0
 40
0
 40
0
 40
1
 40
1
 40
1
 40
1
 10
549.328657
 20
161.322697
 30
0.0
 10
549.107175
 20
160.215337
 30
0.0
 10
548.251539
 20
160.270661
 30
0.0
 10
547.307849
 20
161.453348
 30
0.0
  0
SPLINE
  5
550
100
AcDbEntity
  8
0
 62
7
100
AcDbSpline
 70
8
 71
3
 72
8
 73
4
 74
0
 40
0
 40
0
 40
0
 40
0
 40
1
 40
1
 40
1
 40
1
 10
547.307849
 20
161.453348
 30
0.0
 10
546.902190
 20
161.961772
 30
0.0
 10
546.238218
 20
162.549464
 30
0.0
 10
545.832400
 20
162.759332
 30
0.0
  0
SPLINE
  5
551
100
AcDbEntity
  8
0
 62
7
100
AcDbSpline
 70
8
 71
3
 72
8
 73
4
 74
0
 40
0
 40
0
 40
0
 40
0
 40
1
 40
1
 40
1
 40
1
 10
545.832400
 20
162.759332
 30
0.0
 10
545.250952
 20
163.060004
 30
0.0
 10
545.027564
 20
163.439999
 30
0.0
 10
544.778803
 20
164.551672
 30
0.0
  0
SPLINE
  5
552
100
AcDbEntity
  8
0
 62
7
100
AcDbSpline
 70
8
 71
3
 72
8
 73
4
 74
0
 40
0
 40
0
 40
0
 40
0
 40
1
 40
1
 40
1
 40
1
 10
544.778803
 20
164.551672
 30
0.0
 10
544.355258
 20
166.444184
 30
0.0
 10
543.519386
 20
167.823960
 30
0.0
 10
543.038295
 20
167.424677
 30
0.0
  0
SPLINE
  5
553
100
AcDbEntity
  8
0
 62
7
100
AcDbSpline
 70
8
 71
3
 72
8
 73
4
 74
0
 40
0
 40
0
 40
0
 40
0
 40
1
 40
1
 40
1
 40
1
 10
543.038295
 20
167.424677
 30
0.0
 10
542.543127
 20
167.013726
 30
0.0
 10
542.237480
 20
168.278143
 30
0.0
 10
542.647029
 20
169.043345
 30
0.0
  0
SPLINE
  5
554
100
AcDbEntity
  8
0
 62
7
100
AcDbSpline
 70
8
 71
3
 72
8
 73
4
 74
0
 40
0
 40
0
 40
0
 40
0
 40
1
 40
1
 40
1
 40
1
 10
542.647029
 20
169.043345
 30
0.0
 10
542.918306
 20
169.550233
 30
0.0
 10
542.975641
 20
169.563489
 30
0.0
 10
543.195748
 20
169.170212
 30
0.0
  0
SPLINE
  5
555
100
AcDbEntity
  8
0
 62
7
100
AcDbSpline
 70
8
 71
3
 72
8
 73
4
 74
0
 40
0
 40
0
 40
0
 40
0
 40
1
 40
1
 40
1
 40
1
 10
543.195748
 20
169.170212
 30
0.0
 10
543.485387
 20
168.652661
 30
0.0
 10
544.782798
 20
167.937281
 30
0.0
 10
545.431821
 20
167.937281
 30
0.0
  0
SPLINE
  5
556
100
AcDbEntity
  8
0
 62
7
100
AcDbSpline
 70
8
 71
3
 72
8
 73
4
 74
0
 40
0
 40
0
 40
0
 40
0
 40
1
 40
1
 40
1
 40
1
 10
545.431821
 20
167.937281
 30
0.0
 10
545.979482
 20
167.937281
 30
0.0
 10
548.177720
 20
170.165019
 30
0.0
 10
548.177720
 20
170.720062
 30
0.0
  0
SPLINE
  5
557
100
AcDbEntity
  8
0
 62
7
100
AcDbSpline
 70
8
 71
3
 72
8
 73
4
 74
0
 40
0
 40
0
 40
0
 40
0
 40
1
 40
1
 40
1
 40
1
 10
548.177720
 20
170.720062
 30
0.0
 10
548.177720
 20
171.186628
 30
0.0
 10
550.023004
 20
171.277830
 30
0.0
 10
550.467609
 20
170.833225
 30
0.0
  0
SPLINE
  5
558
100
AcDbEntity
  8
0
 62
7
100
AcDbSpline
 70
8
 71
3
 72
8
 73
4
 74
0
 40
0
 40
0
 40
0
 40
0
 40
1
 40
1
 40
1
 40
1
 10
550.467609
 20
170.833225
 30
0.0
 10
550.663295
 20
170.637539
 30
0.0
 10
550.848054
 20
170.916224
 30
0.0
 10
551.085994
 20
171.766066
 30
0.0
  0
SPLINE
  5
559
100
AcDbEntity
  8
0
 62
7
100
AcDbSpline
 70
8
 71
3
 72
8
 73
4
 74
0
 40
0
 40
0
 40
0
 40
0
 40
1
 40
1
 40
1
 40
1
 10
551.085994
 20
171.766066
 30
0.0
 10
551.491150
 20
173.213205
 30
0.0
 10
551.750283
 20
173.432491
 30
0.0
 10
552.201450
 20
172.710046
 30
0.0
  0
SPLINE
  5
55a
100
AcDbEntity
  8
0
 62
7
100
AcDbSpline
 70
8
 71
3
 72
8
 73
4
 74
0
 40
0
 40
0
 40
0
 40
0
 40
1
 40
1
 40
1
 40
1
 10
552.201450
 20
172.710046
 30
0.0
 10
552.703047
 20
171.906904
 30
0.0
 10
552.940432
 20
172.052716
 30
0.0
 10
552.938474
 20
173.162801
 30
0.0
  0
SPLINE
  5
55b
100
AcDbEntity
  8
0
 62
7
100
AcDbSpline
 70
8
 71
3
 72
8
 73
4
 74
0
 40
0
 40
0
 40
0
 40
0
 40
1
 40
1
 40
1
 40
1
 10
552.938474
 20
173.162801
 30
0.0
 10
552.935828
 20
174.094082
 30
0.0
 10
551.900672
 20
176.215908
 30
0.0
 10
551.872547
 20
175.345614
 30
0.0
  0
SPLINE
  5
55c
100
AcDbEntity
  8
0
 62
7
100
AcDbSpline
 70
8
 71
3
 72
8
 73
4
 74
0
 40
0
 40
0
 40
0
 40
0
 40
1
 40
1
 40
1
 40
1
 10
551.872547
 20
175.345614
 30
0.0
 10
551.865403
 20
175.127333
 30
0.0
 10
551.650191
 20
175.341645
 30
0.0
 10
551.394127
 20
175.821864
 30
0.0
  0
LWPOLYLINE
  5
55d
100
AcDbEntity
  8
0
 62
7
100
AcDbPolyline
 90
1
 70
1
 10
352.142319
 20
248.260362
 30
0.0
  0
SPLINE
  5
55e
100
AcDbEntity
  8
0
 62
7
100
AcDbSpline
 70
8
 71
3
 72
8
 73
4
 74
0
 40
0
 40
0
 40
0
 40
0
 40
1
 40
1
 40
1
 40
1
 10
550.239009
 20
176.152593
 30
0.0
 10
549.859756
 20
175.854275
 30
0.0
 10
549.497779
 20
175.610197
 30
0.0
 10
549.434650
 20
175.610197
 30
0.0
  0
SPLINE
  5
55f
100
AcDbEntity
  8
0
 62
7
100
AcDbSpline
 70
8
 71
3
 72
8
 73
4
 74
0
 40
0
 40
0
 40
0
 40
0
 40
1
 40
1
 40
1
 40
1
 10
549.434650
 20
175.610197
 30
0.0
 10
549.371494
 20
175.610197
 30
0.0
 10
549.177131
 20
176.086447
 30
0.0
 10
549.002717
 20
176.668531
 30
0.0
  0
SPLINE
  5
560
100
AcDbEntity
  8
0
 62
7
100
AcDbSpline
 70
8
 71
3
 72
8
 73
4
 74
0
 40
0
 40
0
 40
0
 40
0
 40
1
 40
1
 40
1
 40
1
 10
549.002717
 20
176.668531
 30
0.0
 10
548.651139
 20
177.842063
 30
0.0
 10
548.145467
 20
178.015709
 30
0.0
 10
547.551028
 20
177.167032
 30
0.0
  0
SPLINE
  5
561
100
AcDbEntity
  8
0
 62
7
100
AcDbSpline
 70
8
 71
3
 72
8
 73
4
 74
0
 40
0
 40
0
 40
0
 40
0
 40
1
 40
1
 40
1
 40
1
 10
547.551028
 20
177.167032
 30
0.0
 10
547.173124
 20
176.627520
 30
0.0
 10
547.096209
 20
176.702238
 30
0.0
 10
545.432641
 20
179.225093
 30
0.0
  0
SPLINE
  5
562
100
AcDbEntity
  8
0
 62
7
100
AcDbSpline
 70
8
 71
3
 72
8
 73
4
 74
0
 40
0
 40
0
 40
0
 40
0
 40
1
 40
1
 40
1
 40
1
 10
545.432641
 20
179.225093
 30
0.0
 10
544.483184
 20
180.664956
 30
0.0
 10
543.402732
 20
182.128261
 30
0.0
 10
543.031627
 20
182.476876
 30
0.0
  0
SPLINE
  5
563
100
AcDbEntity
  8
0
 62
7
100
AcDbSpline
 70
8
 71
3
 72
8
 73
4
 74
0
 40
0
 40
0
 40
0
 40
0
 40
1
 40
1
 40
1
 40
1
 10
543.031627
 20
182.476876
 30
0.0
 10
542.436182
 20
183.036284
 30
0.0
 10
542.356887
 20
183.322987
 30
0.0
 10
542.356887
 20
184.916731
 30
0.0
  0
SPLINE
  5
564
100
AcDbEntity
  8
0
 62
7
100
AcDbSpline
 70
8
 71
3
 72
8
 73
4
 74
0
 40
0
 40
0
 40
0
 40
0
 40
1
 40
1
 40
1
 40
1
 10
542.356887
 20
184.916731
 30
0.0
 10
542.356887
 20
185.910003
 30
0.0
 10
542.446184
 20
186.719655
 30
0.0
 10
542.555324
 20
186.715924
 30
0.0
  0
SPLINE
  5
565
100
AcDbEntity
  8
0
 62
7
100
AcDbSpline
 70
8
 71
3
 72
8
 73
4
 74
0
 40
0
 40
0
 40
0
 40
0
 40
1
 40
1
 40
1
 40
1
 10
542.555324
 20
186.715924
 30
0.0
 10
542.664465
 20
186.712220
 30
0.0
 10
543.403076
 20
186.295475
 30
0.0
 10
544.196720
 20
185.789882
 30
0.0
  0
SPLINE
  5
566
100
AcDbEntity
  8
0
 62
7
100
AcDbSpline
 70
8
 71
3
 72
8
 73
4
 74
0
 40
0
 40
0
 40
0
 40
0
 40
1
 40
1
 40
1
 40
1
 10
544.196720
 20
185.789882
 30
0.0
 10
545.866876
 20
184.725860
 30
0.0
 10
546.174745
 20
184.686543
 30
0.0
 10
547.251678
 20
185.399781
 30
0.0
  0
SPLINE
  5
567
100
AcDbEntity
  8
0
 62
7
100
AcDbSpline
 70
8
 71
3
 72
8
 73
4
 74
0
 40
0
 40
0
 40
0
 40
0
 40
1
 40
1
 40
1
 40
1
 10
547.251678
 20
185.399781
 30
0.0
 10
547.688241
 20
185.688891
 30
0.0
 10
548.297259
 20
185.926248
 30
0.0
 10
548.605049
 20
185.927201
 30
0.0
  0
SPLINE
  5
568
100
AcDbEntity
  8
0
 62
7
100
AcDbSpline
 70
8
 71
3
 72
8
 73
4
 74
0
 40
0
 40
0
 40
0
 40
0
 40
1
 40
1
 40
1
 40
1
 10
548.605049
 20
185.927201
 30
0.0
 10
550.082932
 20
185.931699
 30
0.0
 10
551.067155
 20
187.778649
 30
0.0
 10
550.213742
 20
188.945779
 30
0.0
  0
SPLINE
  5
569
100
AcDbEntity
  8
0
 62
7
100
AcDbSpline
 70
8
 71
3
 72
8
 73
4
 74
0
 40
0
 40
0
 40
0
 40
0
 40
1
 40
1
 40
1
 40
1
 10
550.213742
 20
188.945779
 30
0.0
 10
549.994667
 20
189.245341
 30
0.0
 10
549.922144
 20
189.811443
 30
0.0
 10
550.015304
 20
190.494650
 30
0.0
  0
SPLINE
  5
56a
100
AcDbEntity
  8
0
 62
7
100
AcDbSpline
 70
8
 71
3
 72
8
 73
4
 74
0
 40
0
 40
0
 40
0
 40
0
 40
1
 40
1
 40
1
 40
1
 10
550.015304
 20
190.494650
 30
0.0
 10
550.141061
 20
191.417146
 30
0.0
 10
550.284015
 20
191.612568
 30
0.0
 10
551.013471
 20
191.859001
 30
0.0
  0
SPLINE
  5
56b
100
AcDbEntity
  8
0
 62
7
100
AcDbSpline
 70
8
 71
3
 72
8
 73
4
 74
0
 40
0
 40
0
 40
0
 40
0
 40
1
 40
1
 40
1
 40
1
 10
551.013471
 20
191.859001
 30
0.0
 10
552.249049
 20
192.276460
 30
0.0
 10
552.647406
 20
192.792927
 30
0.0
 10
552.844838
 20
194.233292
 30
0.0
  0
LWPOLYLINE
  5
56c
100
AcDbEntity
  8
0
 62
7
100
AcDbPolyline
 90
3
 70
0
 10
551.394127
 20
175.821864
 30
0.0
 10
550.928566
 20
176.694989
 30
0.0
 10
550.239009
 20
176.152593
 30
0.0
  0
SPLINE
  5
56d
100
AcDbEntity
  8
0
 62
7
100
AcDbSpline
 70
8
 71
3
 72
8
 73
4
 74
0
 40
0
 40
0
 40
0
 40
0
 40
1
 40
1
 40
1
 40
1
 10
552.186528
 20
195.330440
 30
0.0
 10
551.525810
 20
195.185342
 30
0.0
 10
551.352720
 20
195.234078
 30
0.0
 10
551.352720
 20
195.565205
 30
0.0
  0
SPLINE
  5
56e
100
AcDbEntity
  8
0
 62
7
100
AcDbSpline
 70
8
 71
3
 72
8
 73
4
 74
0
 40
0
 40
0
 40
0
 40
0
 40
1
 40
1
 40
1
 40
1
 10
551.352720
 20
195.565205
 30
0.0
 10
551.352720
 20
196.063971
 30
0.0
 10
551.237441
 20
196.080825
 30
0.0
 10
550.590429
 20
195.676779
 30
0.0
  0
SPLINE
  5
56f
100
AcDbEntity
  8
0
 62
7
100
AcDbSpline
 70
8
 71
3
 72
8
 73
4
 74
0
 40
0
 40
0
 40
0
 40
0
 40
1
 40
1
 40
1
 40
1
 10
550.590429
 20
195.676779
 30
0.0
 10
550.320633
 20
195.508293
 30
0.0
 10
549.900157
 20
195.447068
 30
0.0
 10
549.656026
 20
195.540757
 30
0.0
  0
SPLINE
  5
570
100
AcDbEntity
  8
0
 62
7
100
AcDbSpline
 70
8
 71
3
 72
8
 73
4
 74
0
 40
0
 40
0
 40
0
 40
0
 40
1
 40
1
 40
1
 40
1
 10
549.656026
 20
195.540757
 30
0.0
 10
549.050633
 20
195.773088
 30
0.0
 10
548.442303
 20
197.323202
 30
0.0
 10
548.442303
 20
198.633577
 30
0.0
  0
SPLINE
  5
571
100
AcDbEntity
  8
0
 62
7
100
AcDbSpline
 70
8
 71
3
 72
8
 73
4
 74
0
 40
0
 40
0
 40
0
 40
0
 40
1
 40
1
 40
1
 40
1
 10
548.442303
 20
198.633577
 30
0.0
 10
548.442303
 20
199.227567
 30
0.0
 10
548.256407
 20
200.073043
 30
0.0
 10
548.029183
 20
200.512437
 30
0.0
  0
SPLINE
  5
572
100
AcDbEntity
  8
0
 62
7
100
AcDbSpline
 70
8
 71
3
 72
8
 73
4
 74
0
 40
0
 40
0
 40
0
 40
0
 40
1
 40
1
 40
1
 40
1
 10
548.029183
 20
200.512437
 30
0.0
 10
547.477527
 20
201.579237
 30
0.0
 10
546.854803
 20
204.923808
 30
0.0
 10
546.854803
 20
206.819945
 30
0.0
  0
LWPOLYLINE
  5
573
100
AcDbEntity
  8
0
 62
7
100
AcDbPolyline
 90
3
 70
0
 10
552.844838
 20
194.233292
 30
0.0
 10
553.020309
 20
195.513584
 30
0.0
 10
552.186528
 20
195.330440
 30
0.0
  0
SPLINE
  5
574
100
AcDbEntity
  8
0
 62
7
100
AcDbSpline
 70
8
 71
3
 72
8
 73
4
 74
0
 40
0
 40
0
 40
0
 40
0
 40
1
 40
1
 40
1
 40
1
 10
549.103762
 20
210.474661
 30
0.0
 10
550.340689
 20
211.643352
 30
0.0
 10
551.347534
 20
212.700600
 30
0.0
 10
551.341184
 20
212.824134
 30
0.0
  0
SPLINE
  5
575
100
AcDbEntity
  8
0
 62
7
100
AcDbSpline
 70
8
 71
3
 72
8
 73
4
 74
0
 40
0
 40
0
 40
0
 40
0
 40
1
 40
1
 40
1
 40
1
 10
551.341184
 20
212.824134
 30
0.0
 10
551.334834
 20
212.947668
 30
0.0
 10
551.182514
 20
213.763114
 30
0.0
 10
551.002703
 20
214.636239
 30
0.0
  0
SPLINE
  5
576
100
AcDbEntity
  8
0
 62
7
100
AcDbSpline
 70
8
 71
3
 72
8
 73
4
 74
0
 40
0
 40
0
 40
0
 40
0
 40
1
 40
1
 40
1
 40
1
 10
551.002703
 20
214.636239
 30
0.0
 10
550.754312
 20
215.842421
 30
0.0
 10
550.534073
 20
216.286736
 30
0.0
 10
550.085789
 20
216.485967
 30
0.0
  0
SPLINE
  5
577
100
AcDbEntity
  8
0
 62
7
100
AcDbSpline
 70
8
 71
3
 72
8
 73
4
 74
0
 40
0
 40
0
 40
0
 40
0
 40
1
 40
1
 40
1
 40
1
 10
550.085789
 20
216.485967
 30
0.0
 10
549.414832
 20
216.784179
 30
0.0
 10
549.345247
 20
216.967456
 30
0.0
 10
549.106725
 20
219.065337
 30
0.0
  0
SPLINE
  5
578
100
AcDbEntity
  8
0
 62
7
100
AcDbSpline
 70
8
 71
3
 72
8
 73
4
 74
0
 40
0
 40
0
 40
0
 40
0
 40
1
 40
1
 40
1
 40
1
 10
549.106725
 20
219.065337
 30
0.0
 10
549.000812
 20
219.996856
 30
0.0
 10
548.780017
 20
220.670221
 30
0.0
 10
548.535595
 20
220.807010
 30
0.0
  0
SPLINE
  5
579
100
AcDbEntity
  8
0
 62
7
100
AcDbSpline
 70
8
 71
3
 72
8
 73
4
 74
0
 40
0
 40
0
 40
0
 40
0
 40
1
 40
1
 40
1
 40
1
 10
548.535595
 20
220.807010
 30
0.0
 10
548.236219
 20
220.974518
 30
0.0
 10
548.182403
 20
221.271301
 30
0.0
 10
548.319166
 20
222.000307
 30
0.0
  0
SPLINE
  5
57a
100
AcDbEntity
  8
0
 62
7
100
AcDbSpline
 70
8
 71
3
 72
8
 73
4
 74
0
 40
0
 40
0
 40
0
 40
0
 40
1
 40
1
 40
1
 40
1
 10
548.319166
 20
222.000307
 30
0.0
 10
548.561710
 20
223.293194
 30
0.0
 10
548.971470
 20
223.237896
 30
0.0
 10
548.971470
 20
221.912281
 30
0.0
  0
SPLINE
  5
57b
100
AcDbEntity
  8
0
 62
7
100
AcDbSpline
 70
8
 71
3
 72
8
 73
4
 74
0
 40
0
 40
0
 40
0
 40
0
 40
1
 40
1
 40
1
 40
1
 10
548.971470
 20
221.912281
 30
0.0
 10
548.971470
 20
220.744436
 30
0.0
 10
549.098840
 20
220.647757
 30
0.0
 10
549.800674
 20
221.282916
 30
0.0
  0
SPLINE
  5
57c
100
AcDbEntity
  8
0
 62
7
100
AcDbSpline
 70
8
 71
3
 72
8
 73
4
 74
0
 40
0
 40
0
 40
0
 40
0
 40
1
 40
1
 40
1
 40
1
 10
549.800674
 20
221.282916
 30
0.0
 10
550.368152
 20
221.796472
 30
0.0
 10
551.088137
 20
221.590838
 30
0.0
 10
551.088137
 20
220.915198
 30
0.0
  0
SPLINE
  5
57d
100
AcDbEntity
  8
0
 62
7
100
AcDbSpline
 70
8
 71
3
 72
8
 73
4
 74
0
 40
0
 40
0
 40
0
 40
0
 40
1
 40
1
 40
1
 40
1
 10
551.088137
 20
220.915198
 30
0.0
 10
551.088137
 20
220.648736
 30
0.0
 10
551.414527
 20
219.927323
 30
0.0
 10
551.813465
 20
219.312088
 30
0.0
  0
SPLINE
  5
57e
100
AcDbEntity
  8
0
 62
7
100
AcDbSpline
 70
8
 71
3
 72
8
 73
4
 74
0
 40
0
 40
0
 40
0
 40
0
 40
1
 40
1
 40
1
 40
1
 10
551.813465
 20
219.312088
 30
0.0
 10
552.671324
 20
217.989065
 30
0.0
 10
554.219375
 20
217.149781
 30
0.0
 10
555.801874
 20
217.149781
 30
0.0
  0
LWPOLYLINE
  5
57f
100
AcDbEntity
  8
0
 62
7
100
AcDbPolyline
 90
3
 70
0
 10
546.854803
 20
206.819945
 30
0.0
 10
546.854803
 20
208.349792
 30
0.0
 10
549.103762
 20
210.474661
 30
0.0
  0
SPLINE
  5
580
100
AcDbEntity
  8
0
 62
7
100
AcDbSpline
 70
8
 71
3
 72
8
 73
4
 74
0
 40
0
 40
0
 40
0
 40
0
 40
1
 40
1
 40
1
 40
1
 10
556.905001
 20
218.538843
 30
0.0
 10
556.899445
 20
220.459348
 30
0.0
 10
556.555249
 20
220.895090
 30
0.0
 10
556.139641
 20
219.507906
 30
0.0
  0
SPLINE
  5
581
100
AcDbEntity
  8
0
 62
7
100
AcDbSpline
 70
8
 71
3
 72
8
 73
4
 74
0
 40
0
 40
0
 40
0
 40
0
 40
1
 40
1
 40
1
 40
1
 10
556.139641
 20
219.507906
 30
0.0
 10
555.895775
 20
218.694021
 30
0.0
 10
555.732632
 20
218.484947
 30
0.0
 10
555.512843
 20
218.704737
 30
0.0
  0
SPLINE
  5
582
100
AcDbEntity
  8
0
 62
7
100
AcDbSpline
 70
8
 71
3
 72
8
 73
4
 74
0
 40
0
 40
0
 40
0
 40
0
 40
1
 40
1
 40
1
 40
1
 10
555.512843
 20
218.704737
 30
0.0
 10
555.349357
 20
218.868143
 30
0.0
 10
554.941793
 20
219.001864
 30
0.0
 10
554.607095
 20
219.001864
 30
0.0
  0
SPLINE
  5
583
100
AcDbEntity
  8
0
 62
7
100
AcDbSpline
 70
8
 71
3
 72
8
 73
4
 74
0
 40
0
 40
0
 40
0
 40
0
 40
1
 40
1
 40
1
 40
1
 10
554.607095
 20
219.001864
 30
0.0
 10
554.052237
 20
219.001864
 30
0.0
 10
553.998553
 20
219.120000
 30
0.0
 10
553.998553
 20
220.341423
 30
0.0
  0
SPLINE
  5
584
100
AcDbEntity
  8
0
 62
7
100
AcDbSpline
 70
8
 71
3
 72
8
 73
4
 74
0
 40
0
 40
0
 40
0
 40
0
 40
1
 40
1
 40
1
 40
1
 10
553.998553
 20
220.341423
 30
0.0
 10
553.998553
 20
221.569328
 30
0.0
 10
554.046946
 20
221.674050
 30
0.0
 10
554.579234
 20
221.598194
 30
0.0
  0
SPLINE
  5
585
100
AcDbEntity
  8
0
 62
7
100
AcDbSpline
 70
8
 71
3
 72
8
 73
4
 74
0
 40
0
 40
0
 40
0
 40
0
 40
1
 40
1
 40
1
 40
1
 10
554.579234
 20
221.598194
 30
0.0
 10
555.271226
 20
221.499531
 30
0.0
 10
555.520093
 20
222.158740
 30
0.0
 10
555.559674
 20
224.195132
 30
0.0
  0
LWPOLYLINE
  5
586
100
AcDbEntity
  8
0
 62
7
100
AcDbPolyline
 90
3
 70
0
 10
555.801874
 20
217.149781
 30
0.0
 10
556.908970
 20
217.149781
 30
0.0
 10
556.905001
 20
218.538843
 30
0.0
  0
SPLINE
  5
587
100
AcDbEntity
  8
0
 62
7
100
AcDbSpline
 70
8
 71
3
 72
8
 73
4
 74
0
 40
0
 40
0
 40
0
 40
0
 40
1
 40
1
 40
1
 40
1
 10
553.998633
 20
226.145614
 30
0.0
 10
552.353427
 20
226.760876
 30
0.0
 10
551.865086
 20
227.524146
 30
0.0
 10
552.905401
 20
227.854319
 30
0.0
  0
SPLINE
  5
588
100
AcDbEntity
  8
0
 62
7
100
AcDbSpline
 70
8
 71
3
 72
8
 73
4
 74
0
 40
0
 40
0
 40
0
 40
0
 40
1
 40
1
 40
1
 40
1
 10
552.905401
 20
227.854319
 30
0.0
 10
553.177260
 20
227.940600
 30
0.0
 10
553.609431
 20
228.242966
 30
0.0
 10
553.865785
 20
228.526255
 30
0.0
  0
SPLINE
  5
589
100
AcDbEntity
  8
0
 62
7
100
AcDbSpline
 70
8
 71
3
 72
8
 73
4
 74
0
 40
0
 40
0
 40
0
 40
0
 40
1
 40
1
 40
1
 40
1
 10
553.865785
 20
228.526255
 30
0.0
 10
554.311582
 20
229.018857
 30
0.0
 10
554.306634
 20
229.142496
 30
0.0
 10
553.752094
 20
231.363753
 30
0.0
  0
SPLINE
  5
58a
100
AcDbEntity
  8
0
 62
7
100
AcDbSpline
 70
8
 71
3
 72
8
 73
4
 74
0
 40
0
 40
0
 40
0
 40
0
 40
1
 40
1
 40
1
 40
1
 10
553.752094
 20
231.363753
 30
0.0
 10
553.433192
 20
232.641135
 30
0.0
 10
552.961228
 20
234.046522
 30
0.0
 10
552.703286
 20
234.486868
 30
0.0
  0
SPLINE
  5
58b
100
AcDbEntity
  8
0
 62
7
100
AcDbSpline
 70
8
 71
3
 72
8
 73
4
 74
0
 40
0
 40
0
 40
0
 40
0
 40
1
 40
1
 40
1
 40
1
 10
552.703286
 20
234.486868
 30
0.0
 10
552.445370
 20
234.927241
 30
0.0
 10
552.156498
 20
236.031955
 30
0.0
 10
552.061406
 20
236.941831
 30
0.0
  0
SPLINE
  5
58c
100
AcDbEntity
  8
0
 62
7
100
AcDbSpline
 70
8
 71
3
 72
8
 73
4
 74
0
 40
0
 40
0
 40
0
 40
0
 40
1
 40
1
 40
1
 40
1
 10
552.061406
 20
236.941831
 30
0.0
 10
551.896836
 20
238.516419
 30
0.0
 10
551.913002
 20
238.583041
 30
0.0
 10
552.397004
 20
238.324014
 30
0.0
  0
SPLINE
  5
58d
100
AcDbEntity
  8
0
 62
7
100
AcDbSpline
 70
8
 71
3
 72
8
 73
4
 74
0
 40
0
 40
0
 40
0
 40
0
 40
1
 40
1
 40
1
 40
1
 10
552.397004
 20
238.324014
 30
0.0
 10
552.676695
 20
238.174339
 30
0.0
 10
552.982897
 20
238.051864
 30
0.0
 10
553.077486
 20
238.051864
 30
0.0
  0
SPLINE
  5
58e
100
AcDbEntity
  8
0
 62
7
100
AcDbSpline
 70
8
 71
3
 72
8
 73
4
 74
0
 40
0
 40
0
 40
0
 40
0
 40
1
 40
1
 40
1
 40
1
 10
553.077486
 20
238.051864
 30
0.0
 10
553.172101
 20
238.051864
 30
0.0
 10
553.164587
 20
239.361551
 30
0.0
 10
553.060817
 20
240.962281
 30
0.0
  0
SPLINE
  5
58f
100
AcDbEntity
  8
0
 62
7
100
AcDbSpline
 70
8
 71
3
 72
8
 73
4
 74
0
 40
0
 40
0
 40
0
 40
0
 40
1
 40
1
 40
1
 40
1
 10
553.060817
 20
240.962281
 30
0.0
 10
552.877567
 20
243.789697
 30
0.0
 10
552.887806
 20
243.872697
 30
0.0
 10
553.419777
 20
243.872697
 30
0.0
  0
SPLINE
  5
590
100
AcDbEntity
  8
0
 62
7
100
AcDbSpline
 70
8
 71
3
 72
8
 73
4
 74
0
 40
0
 40
0
 40
0
 40
0
 40
1
 40
1
 40
1
 40
1
 10
553.419777
 20
243.872697
 30
0.0
 10
553.720952
 20
243.872697
 30
0.0
 10
554.042871
 20
243.750566
 30
0.0
 10
554.135131
 20
243.601288
 30
0.0
  0
SPLINE
  5
591
100
AcDbEntity
  8
0
 62
7
100
AcDbSpline
 70
8
 71
3
 72
8
 73
4
 74
0
 40
0
 40
0
 40
0
 40
0
 40
1
 40
1
 40
1
 40
1
 10
554.135131
 20
243.601288
 30
0.0
 10
554.236070
 20
243.437934
 30
0.0
 10
554.619081
 20
243.595996
 30
0.0
 10
555.097077
 20
243.998163
 30
0.0
  0
SPLINE
  5
592
100
AcDbEntity
  8
0
 62
7
100
AcDbSpline
 70
8
 71
3
 72
8
 73
4
 74
0
 40
0
 40
0
 40
0
 40
0
 40
1
 40
1
 40
1
 40
1
 10
555.097077
 20
243.998163
 30
0.0
 10
556.057964
 20
244.806703
 30
0.0
 10
556.370702
 20
244.825621
 30
0.0
 10
557.256421
 20
244.128920
 30
0.0
  0
SPLINE
  5
593
100
AcDbEntity
  8
0
 62
7
100
AcDbSpline
 70
8
 71
3
 72
8
 73
4
 74
0
 40
0
 40
0
 40
0
 40
0
 40
1
 40
1
 40
1
 40
1
 10
557.256421
 20
244.128920
 30
0.0
 10
557.933913
 20
243.596022
 30
0.0
 10
557.942194
 20
243.595864
 30
0.0
 10
558.218155
 20
244.111457
 30
0.0
  0
SPLINE
  5
594
100
AcDbEntity
  8
0
 62
7
100
AcDbSpline
 70
8
 71
3
 72
8
 73
4
 74
0
 40
0
 40
0
 40
0
 40
0
 40
1
 40
1
 40
1
 40
1
 10
558.218155
 20
244.111457
 30
0.0
 10
558.371269
 20
244.397525
 30
0.0
 10
558.496523
 20
245.710969
 30
0.0
 10
558.496523
 20
247.030235
 30
0.0
  0
SPLINE
  5
595
100
AcDbEntity
  8
0
 62
7
100
AcDbSpline
 70
8
 71
3
 72
8
 73
4
 74
0
 40
0
 40
0
 40
0
 40
0
 40
1
 40
1
 40
1
 40
1
 10
558.496523
 20
247.030235
 30
0.0
 10
558.496523
 20
249.306101
 30
0.0
 10
558.467498
 20
249.428868
 30
0.0
 10
557.929309
 20
249.428868
 30
0.0
  0
SPLINE
  5
596
100
AcDbEntity
  8
0
 62
7
100
AcDbSpline
 70
8
 71
3
 72
8
 73
4
 74
0
 40
0
 40
0
 40
0
 40
0
 40
1
 40
1
 40
1
 40
1
 10
557.929309
 20
249.428868
 30
0.0
 10
557.383236
 20
249.428868
 30
0.0
 10
557.368604
 20
249.505227
 30
0.0
 10
557.536403
 20
251.479389
 30
0.0
  0
SPLINE
  5
597
100
AcDbEntity
  8
0
 62
7
100
AcDbSpline
 70
8
 71
3
 72
8
 73
4
 74
0
 40
0
 40
0
 40
0
 40
0
 40
1
 40
1
 40
1
 40
1
 10
557.536403
 20
251.479389
 30
0.0
 10
557.751747
 20
254.012642
 30
0.0
 10
557.933040
 20
254.720534
 30
0.0
 10
558.366401
 20
254.720534
 30
0.0
  0
SPLINE
  5
598
100
AcDbEntity
  8
0
 62
7
100
AcDbSpline
 70
8
 71
3
 72
8
 73
4
 74
0
 40
0
 40
0
 40
0
 40
0
 40
1
 40
1
 40
1
 40
1
 10
558.366401
 20
254.720534
 30
0.0
 10
558.551953
 20
254.720534
 30
0.0
 10
558.776135
 20
254.432059
 30
0.0
 10
558.864638
 20
254.079476
 30
0.0
  0
SPLINE
  5
599
100
AcDbEntity
  8
0
 62
7
100
AcDbSpline
 70
8
 71
3
 72
8
 73
4
 74
0
 40
0
 40
0
 40
0
 40
0
 40
1
 40
1
 40
1
 40
1
 10
558.864638
 20
254.079476
 30
0.0
 10
559.143006
 20
252.970369
 30
0.0
 10
560.313417
 20
251.810118
 30
0.0
 10
561.153892
 20
251.810118
 30
0.0
  0
SPLINE
  5
59a
100
AcDbEntity
  8
0
 62
7
100
AcDbSpline
 70
8
 71
3
 72
8
 73
4
 74
0
 40
0
 40
0
 40
0
 40
0
 40
1
 40
1
 40
1
 40
1
 10
561.153892
 20
251.810118
 30
0.0
 10
561.820404
 20
251.810118
 30
0.0
 10
561.934783
 20
251.930159
 30
0.0
 10
562.099381
 20
252.802305
 30
0.0
  0
SPLINE
  5
59b
100
AcDbEntity
  8
0
 62
7
100
AcDbSpline
 70
8
 71
3
 72
8
 73
4
 74
0
 40
0
 40
0
 40
0
 40
0
 40
1
 40
1
 40
1
 40
1
 10
562.099381
 20
252.802305
 30
0.0
 10
562.379654
 20
254.287306
 30
0.0
 10
561.651388
 20
256.655194
 30
0.0
 10
559.559381
 20
261.060983
 30
0.0
  0
SPLINE
  5
59c
100
AcDbEntity
  8
0
 62
7
100
AcDbSpline
 70
8
 71
3
 72
8
 73
4
 74
0
 40
0
 40
0
 40
0
 40
0
 40
1
 40
1
 40
1
 40
1
 10
559.559381
 20
261.060983
 30
0.0
 10
557.605459
 20
265.175995
 30
0.0
 10
556.891005
 20
267.508376
 30
0.0
 10
557.421812
 20
268.039157
 30
0.0
  0
SPLINE
  5
59d
100
AcDbEntity
  8
0
 62
7
100
AcDbSpline
 70
8
 71
3
 72
8
 73
4
 74
0
 40
0
 40
0
 40
0
 40
0
 40
1
 40
1
 40
1
 40
1
 10
557.421812
 20
268.039157
 30
0.0
 10
557.838107
 20
268.455479
 30
0.0
 10
558.124466
 20
267.944515
 30
0.0
 10
558.334783
 20
266.410091
 30
0.0
  0
SPLINE
  5
59e
100
AcDbEntity
  8
0
 62
7
100
AcDbSpline
 70
8
 71
3
 72
8
 73
4
 74
0
 40
0
 40
0
 40
0
 40
0
 40
1
 40
1
 40
1
 40
1
 10
558.334783
 20
266.410091
 30
0.0
 10
558.529781
 20
264.987400
 30
0.0
 10
559.579992
 20
263.716368
 30
0.0
 10
560.560511
 20
263.716368
 30
0.0
  0
SPLINE
  5
59f
100
AcDbEntity
  8
0
 62
7
100
AcDbSpline
 70
8
 71
3
 72
8
 73
4
 74
0
 40
0
 40
0
 40
0
 40
0
 40
1
 40
1
 40
1
 40
1
 10
560.560511
 20
263.716368
 30
0.0
 10
561.185933
 20
263.716368
 30
0.0
 10
563.263071
 20
264.722763
 30
0.0
 10
563.254975
 20
265.021875
 30
0.0
  0
SPLINE
  5
5a0
100
AcDbEntity
  8
0
 62
7
100
AcDbSpline
 70
8
 71
3
 72
8
 73
4
 74
0
 40
0
 40
0
 40
0
 40
0
 40
1
 40
1
 40
1
 40
1
 10
563.254975
 20
265.021875
 30
0.0
 10
563.241746
 20
265.510190
 30
0.0
 10
562.701122
 20
265.774535
 30
0.0
 10
561.481870
 20
265.888862
 30
0.0
  0
SPLINE
  5
5a1
100
AcDbEntity
  8
0
 62
7
100
AcDbSpline
 70
8
 71
3
 72
8
 73
4
 74
0
 40
0
 40
0
 40
0
 40
0
 40
1
 40
1
 40
1
 40
1
 10
561.481870
 20
265.888862
 30
0.0
 10
560.722701
 20
265.960034
 30
0.0
 10
559.919029
 20
266.169770
 30
0.0
 10
559.695932
 20
266.354925
 30
0.0
  0
SPLINE
  5
5a2
100
AcDbEntity
  8
0
 62
7
100
AcDbSpline
 70
8
 71
3
 72
8
 73
4
 74
0
 40
0
 40
0
 40
0
 40
0
 40
1
 40
1
 40
1
 40
1
 10
559.695932
 20
266.354925
 30
0.0
 10
559.170919
 20
266.790641
 30
0.0
 10
559.176502
 20
268.271038
 30
0.0
 10
559.712072
 20
270.625459
 30
0.0
  0
SPLINE
  5
5a3
100
AcDbEntity
  8
0
 62
7
100
AcDbSpline
 70
8
 71
3
 72
8
 73
4
 74
0
 40
0
 40
0
 40
0
 40
0
 40
1
 40
1
 40
1
 40
1
 10
559.712072
 20
270.625459
 30
0.0
 10
560.056744
 20
272.140886
 30
0.0
 10
560.250102
 20
272.523844
 30
0.0
 10
560.770405
 20
272.721647
 30
0.0
  0
SPLINE
  5
5a4
100
AcDbEntity
  8
0
 62
7
100
AcDbSpline
 70
8
 71
3
 72
8
 73
4
 74
0
 40
0
 40
0
 40
0
 40
0
 40
1
 40
1
 40
1
 40
1
 10
560.770405
 20
272.721647
 30
0.0
 10
561.148362
 20
272.865342
 30
0.0
 10
561.407019
 20
273.177550
 30
0.0
 10
561.407019
 20
273.489997
 30
0.0
  0
SPLINE
  5
5a5
100
AcDbEntity
  8
0
 62
7
100
AcDbSpline
 70
8
 71
3
 72
8
 73
4
 74
0
 40
0
 40
0
 40
0
 40
0
 40
1
 40
1
 40
1
 40
1
 10
561.407019
 20
273.489997
 30
0.0
 10
561.407019
 20
274.103460
 30
0.0
 10
562.457732
 20
274.499118
 30
0.0
 10
553.191336
 20
270.396303
 30
0.0
  0
SPLINE
  5
5a6
100
AcDbEntity
  8
0
 62
7
100
AcDbSpline
 70
8
 71
3
 72
8
 73
4
 74
0
 40
0
 40
0
 40
0
 40
0
 40
1
 40
1
 40
1
 40
1
 10
553.191336
 20
270.396303
 30
0.0
 10
547.707079
 20
267.968090
 30
0.0
 10
546.612339
 20
267.361982
 30
0.0
 10
539.652422
 20
262.900472
 30
0.0
  0
LWPOLYLINE
  5
5a7
100
AcDbEntity
  8
0
 62
7
100
AcDbPolyline
 90
3
 70
0
 10
555.559674
 20
224.195132
 30
0.0
 10
555.586133
 20
225.551915
 30
0.0
 10
553.998633
 20
226.145614
 30
0.0
  0
SPLINE
  5
5a8
100
AcDbEntity
  8
0
 62
7
100
AcDbSpline
 70
8
 71
3
 72
8
 73
4
 74
0
 40
0
 40
0
 40
0
 40
0
 40
1
 40
1
 40
1
 40
1
 10
482.426407
 20
169.789284
 30
0.0
 10
482.530626
 20
164.768816
 30
0.0
 10
482.644688
 20
160.629965
 30
0.0
 10
482.679904
 20
160.591812
 30
0.0
  0
SPLINE
  5
5a9
100
AcDbEntity
  8
0
 62
7
100
AcDbSpline
 70
8
 71
3
 72
8
 73
4
 74
0
 40
0
 40
0
 40
0
 40
0
 40
1
 40
1
 40
1
 40
1
 10
482.679904
 20
160.591812
 30
0.0
 10
482.715094
 20
160.553686
 30
0.0
 10
486.780655
 20
161.521267
 30
0.0
 10
491.714499
 20
162.742002
 30
0.0
  0
SPLINE
  5
5aa
100
AcDbEntity
  8
0
 62
7
100
AcDbSpline
 70
8
 71
3
 72
8
 73
4
 74
0
 40
0
 40
0
 40
0
 40
0
 40
1
 40
1
 40
1
 40
1
 10
491.714499
 20
162.742002
 30
0.0
 10
503.185033
 20
165.580055
 30
0.0
 10
507.792540
 20
167.161469
 30
0.0
 10
513.525426
 20
170.227937
 30
0.0
  0
SPLINE
  5
5ab
100
AcDbEntity
  8
0
 62
7
100
AcDbSpline
 70
8
 71
3
 72
8
 73
4
 74
0
 40
0
 40
0
 40
0
 40
0
 40
1
 40
1
 40
1
 40
1
 10
513.525426
 20
170.227937
 30
0.0
 10
518.427097
 20
172.849826
 30
0.0
 10
524.071321
 20
176.983887
 30
0.0
 10
524.666633
 20
178.388243
 30
0.0
  0
SPLINE
  5
5ac
100
AcDbEntity
  8
0
 62
7
100
AcDbSpline
 70
8
 71
3
 72
8
 73
4
 74
0
 40
0
 40
0
 40
0
 40
0
 40
1
 40
1
 40
1
 40
1
 10
524.666633
 20
178.388243
 30
0.0
 10
524.851683
 20
178.824805
 30
0.0
 10
525.734201
 20
180.705252
 30
0.0
 10
526.627725
 20
182.567019
 30
0.0
  0
LWPOLYLINE
  5
5ad
100
AcDbEntity
  8
0
 62
7
100
AcDbPolyline
 90
7
 70
0
 10
539.652422
 20
262.900472
 30
0.0
 10
532.080232
 20
258.046479
 30
0.0
 10
516.779563
 20
230.520499
 30
0.0
 10
501.478841
 20
202.994493
 30
0.0
 10
491.857877
 20
190.955951
 30
0.0
 10
482.236886
 20
178.917409
 30
0.0
 10
482.426407
 20
169.789284
 30
0.0
  0
SPLINE
  5
5ae
100
AcDbEntity
  8
0
 62
7
100
AcDbSpline
 70
8
 71
3
 72
8
 73
4
 74
0
 40
0
 40
0
 40
0
 40
0
 40
1
 40
1
 40
1
 40
1
 10
526.286280
 20
174.205868
 30
0.0
 10
523.445026
 20
170.128983
 30
0.0
 10
518.792222
 20
162.458368
 30
0.0
 10
518.816325
 20
161.890943
 30
0.0
  0
SPLINE
  5
5af
100
AcDbEntity
  8
0
 62
7
100
AcDbSpline
 70
8
 71
3
 72
8
 73
4
 74
0
 40
0
 40
0
 40
0
 40
0
 40
1
 40
1
 40
1
 40
1
 10
518.816325
 20
161.890943
 30
0.0
 10
518.820294
 20
161.796645
 30
0.0
 10
523.820840
 20
158.923429
 30
0.0
 10
529.928587
 20
155.505997
 30
0.0
  0
SPLINE
  5
5b0
100
AcDbEntity
  8
0
 62
7
100
AcDbSpline
 70
8
 71
3
 72
8
 73
4
 74
0
 40
0
 40
0
 40
0
 40
0
 40
1
 40
1
 40
1
 40
1
 10
529.928587
 20
155.505997
 30
0.0
 10
537.994013
 20
150.993184
 30
0.0
 10
541.920747
 20
148.631566
 30
0.0
 10
544.274931
 20
146.877722
 30
0.0
  0
SPLINE
  5
5b1
100
AcDbEntity
  8
0
 62
7
100
AcDbSpline
 70
8
 71
3
 72
8
 73
4
 74
0
 40
0
 40
0
 40
0
 40
0
 40
1
 40
1
 40
1
 40
1
 10
544.274931
 20
146.877722
 30
0.0
 10
546.057720
 20
145.549567
 30
0.0
 10
547.587646
 20
144.535657
 30
0.0
 10
547.674800
 20
144.624531
 30
0.0
  0
SPLINE
  5
5b2
100
AcDbEntity
  8
0
 62
7
100
AcDbSpline
 70
8
 71
3
 72
8
 73
4
 74
0
 40
0
 40
0
 40
0
 40
0
 40
1
 40
1
 40
1
 40
1
 10
547.674800
 20
144.624531
 30
0.0
 10
547.761980
 20
144.713431
 30
0.0
 10
548.147928
 20
145.653495
 30
0.0
 10
548.532500
 20
146.713549
 30
0.0
  0
LWPOLYLINE
  5
5b3
100
AcDbEntity
  8
0
 62
7
100
AcDbPolyline
 90
5
 70
0
 10
526.627725
 20
182.567019
 30
0.0
 10
528.252372
 20
185.952045
 30
0.0
 10
528.946613
 20
182.485713
 30
0.0
 10
529.640853
 20
179.019353
 30
0.0
 10
526.286280
 20
174.205868
 30
0.0
  0
SPLINE
  5
5b4
100
AcDbEntity
  8
0
 62
7
100
AcDbSpline
 70
8
 71
3
 72
8
 73
4
 74
0
 40
0
 40
0
 40
0
 40
0
 40
1
 40
1
 40
1
 40
1
 10
61.147817
 20
212.609028
 30
0.0
 10
60.994875
 20
220.279166
 30
0.0
 10
61.095861
 20
221.762368
 30
0.0
 10
61.725500
 20
221.093686
 30
0.0
  0
SPLINE
  5
5b5
100
AcDbEntity
  8
0
 62
7
100
AcDbSpline
 70
8
 71
3
 72
8
 73
4
 74
0
 40
0
 40
0
 40
0
 40
0
 40
1
 40
1
 40
1
 40
1
 10
61.725500
 20
221.093686
 30
0.0
 10
61.918165
 20
220.889057
 30
0.0
 10
62.298186
 20
220.066812
 30
0.0
 10
62.569992
 20
219.266447
 30
0.0
  0
LWPOLYLINE
  5
5b6
100
AcDbEntity
  8
0
 62
7
100
AcDbPolyline
 90
1
 70
1
 10
548.532500
 20
146.713549
 30
0.0
  0
SPLINE
  5
5b7
100
AcDbEntity
  8
0
 62
7
100
AcDbSpline
 70
8
 71
3
 72
8
 73
4
 74
0
 40
0
 40
0
 40
0
 40
0
 40
1
 40
1
 40
1
 40
1
 10
63.142664
 20
229.849781
 30
0.0
 10
63.257234
 20
247.424728
 30
0.0
 10
62.775145
 20
255.215332
 30
0.0
 10
61.447654
 20
257.241326
 30
0.0
  0
SPLINE
  5
5b8
100
AcDbEntity
  8
0
 62
7
100
AcDbSpline
 70
8
 71
3
 72
8
 73
4
 74
0
 40
0
 40
0
 40
0
 40
0
 40
1
 40
1
 40
1
 40
1
 10
61.447654
 20
257.241326
 30
0.0
 10
60.901670
 20
258.074604
 30
0.0
 10
60.528174
 20
258.065556
 30
0.0
 10
59.660682
 20
257.198066
 30
0.0
  0
LWPOLYLINE
  5
5b9
100
AcDbEntity
  8
0
 62
7
100
AcDbPolyline
 90
3
 70
0
 10
62.569992
 20
219.266447
 30
0.0
 10
63.064186
 20
217.811239
 30
0.0
 10
63.142664
 20
229.849781
 30
0.0
  0
SPLINE
  5
5ba
100
AcDbEntity
  8
0
 62
7
100
AcDbSpline
 70
8
 71
3
 72
8
 73
4
 74
0
 40
0
 40
0
 40
0
 40
0
 40
1
 40
1
 40
1
 40
1
 10
58.963145
 20
260.759014
 30
0.0
 10
58.963145
 20
263.679062
 30
0.0
 10
59.175571
 20
266.787995
 30
0.0
 10
59.639028
 20
270.650806
 30
0.0
  0
SPLINE
  5
5bb
100
AcDbEntity
  8
0
 62
7
100
AcDbSpline
 70
8
 71
3
 72
8
 73
4
 74
0
 40
0
 40
0
 40
0
 40
0
 40
1
 40
1
 40
1
 40
1
 10
59.639028
 20
270.650806
 30
0.0
 10
60.731368
 20
279.755198
 30
0.0
 10
60.814336
 20
281.304810
 30
0.0
 10
60.817405
 20
292.659774
 30
0.0
  0
SPLINE
  5
5bc
100
AcDbEntity
  8
0
 62
7
100
AcDbSpline
 70
8
 71
3
 72
8
 73
4
 74
0
 40
0
 40
0
 40
0
 40
0
 40
1
 40
1
 40
1
 40
1
 10
60.817405
 20
292.659774
 30
0.0
 10
60.822300
 20
310.794051
 30
0.0
 10
60.243910
 20
314.959593
 30
0.0
 10
56.772220
 20
321.792489
 30
0.0
  0
SPLINE
  5
5bd
100
AcDbEntity
  8
0
 62
7
100
AcDbSpline
 70
8
 71
3
 72
8
 73
4
 74
0
 40
0
 40
0
 40
0
 40
0
 40
1
 40
1
 40
1
 40
1
 10
56.772220
 20
321.792489
 30
0.0
 10
54.141285
 20
326.970631
 30
0.0
 10
53.759743
 20
327.806717
 30
0.0
 10
53.331105
 20
329.333114
 30
0.0
  0
SPLINE
  5
5be
100
AcDbEntity
  8
0
 62
7
100
AcDbSpline
 70
8
 71
3
 72
8
 73
4
 74
0
 40
0
 40
0
 40
0
 40
0
 40
1
 40
1
 40
1
 40
1
 10
53.331105
 20
329.333114
 30
0.0
 10
52.361171
 20
332.787085
 30
0.0
 10
51.698567
 20
337.613514
 30
0.0
 10
51.292532
 20
344.182078
 30
0.0
  0
SPLINE
  5
5bf
100
AcDbEntity
  8
0
 62
7
100
AcDbSpline
 70
8
 71
3
 72
8
 73
4
 74
0
 40
0
 40
0
 40
0
 40
0
 40
1
 40
1
 40
1
 40
1
 10
51.292532
 20
344.182078
 30
0.0
 10
51.084602
 20
347.545853
 30
0.0
 10
50.552382
 20
351.514156
 30
0.0
 10
49.309689
 20
358.966447
 30
0.0
  0
SPLINE
  5
5c0
100
AcDbEntity
  8
0
 62
7
100
AcDbSpline
 70
8
 71
3
 72
8
 73
4
 74
0
 40
0
 40
0
 40
0
 40
0
 40
1
 40
1
 40
1
 40
1
 10
49.309689
 20
358.966447
 30
0.0
 10
47.632369
 20
369.025130
 30
0.0
 10
47.607106
 20
369.252471
 30
0.0
 10
47.295649
 20
377.090406
 30
0.0
  0
SPLINE
  5
5c1
100
AcDbEntity
  8
0
 62
7
100
AcDbSpline
 70
8
 71
3
 72
8
 73
4
 74
0
 40
0
 40
0
 40
0
 40
0
 40
1
 40
1
 40
1
 40
1
 10
47.295649
 20
377.090406
 30
0.0
 10
47.122170
 20
381.456031
 30
0.0
 10
46.883585
 20
385.206499
 30
0.0
 10
46.765459
 20
385.424781
 30
0.0
  0
SPLINE
  5
5c2
100
AcDbEntity
  8
0
 62
7
100
AcDbSpline
 70
8
 71
3
 72
8
 73
4
 74
0
 40
0
 40
0
 40
0
 40
0
 40
1
 40
1
 40
1
 40
1
 10
46.765459
 20
385.424781
 30
0.0
 10
46.634323
 20
385.667097
 30
0.0
 10
46.594861
 20
385.461015
 30
0.0
 10
46.664123
 20
384.895614
 30
0.0
  0
SPLINE
  5
5c3
100
AcDbEntity
  8
0
 62
7
100
AcDbSpline
 70
8
 71
3
 72
8
 73
4
 74
0
 40
0
 40
0
 40
0
 40
0
 40
1
 40
1
 40
1
 40
1
 10
46.664123
 20
384.895614
 30
0.0
 10
46.726517
 20
384.386291
 30
0.0
 10
46.906942
 20
380.635822
 30
0.0
 10
47.065068
 20
376.561239
 30
0.0
  0
SPLINE
  5
5c4
100
AcDbEntity
  8
0
 62
7
100
AcDbSpline
 70
8
 71
3
 72
8
 73
4
 74
0
 40
0
 40
0
 40
0
 40
0
 40
1
 40
1
 40
1
 40
1
 10
47.065068
 20
376.561239
 30
0.0
 10
47.345335
 20
369.339315
 30
0.0
 10
47.395233
 20
368.896590
 30
0.0
 10
49.048149
 20
358.966447
 30
0.0
  0
SPLINE
  5
5c5
100
AcDbEntity
  8
0
 62
7
100
AcDbSpline
 70
8
 71
3
 72
8
 73
4
 74
0
 40
0
 40
0
 40
0
 40
0
 40
1
 40
1
 40
1
 40
1
 10
49.048149
 20
358.966447
 30
0.0
 10
50.285888
 20
351.530550
 30
0.0
 10
50.820476
 20
347.538455
 30
0.0
 10
51.027949
 20
344.182078
 30
0.0
  0
SPLINE
  5
5c6
100
AcDbEntity
  8
0
 62
7
100
AcDbSpline
 70
8
 71
3
 72
8
 73
4
 74
0
 40
0
 40
0
 40
0
 40
0
 40
1
 40
1
 40
1
 40
1
 10
51.027949
 20
344.182078
 30
0.0
 10
51.433984
 20
337.613514
 30
0.0
 10
52.096588
 20
332.787085
 30
0.0
 10
53.066521
 20
329.333114
 30
0.0
  0
SPLINE
  5
5c7
100
AcDbEntity
  8
0
 62
7
100
AcDbSpline
 70
8
 71
3
 72
8
 73
4
 74
0
 40
0
 40
0
 40
0
 40
0
 40
1
 40
1
 40
1
 40
1
 10
53.066521
 20
329.333114
 30
0.0
 10
53.495160
 20
327.806717
 30
0.0
 10
53.876702
 20
326.970631
 30
0.0
 10
56.507637
 20
321.792489
 30
0.0
  0
SPLINE
  5
5c8
100
AcDbEntity
  8
0
 62
7
100
AcDbSpline
 70
8
 71
3
 72
8
 73
4
 74
0
 40
0
 40
0
 40
0
 40
0
 40
1
 40
1
 40
1
 40
1
 10
56.507637
 20
321.792489
 30
0.0
 10
59.979327
 20
314.959593
 30
0.0
 10
60.557727
 20
310.794051
 30
0.0
 10
60.552822
 20
292.659774
 30
0.0
  0
SPLINE
  5
5c9
100
AcDbEntity
  8
0
 62
7
100
AcDbSpline
 70
8
 71
3
 72
8
 73
4
 74
0
 40
0
 40
0
 40
0
 40
0
 40
1
 40
1
 40
1
 40
1
 10
60.552822
 20
292.659774
 30
0.0
 10
60.549753
 20
281.304810
 30
0.0
 10
60.466785
 20
279.755198
 30
0.0
 10
59.374445
 20
270.650806
 30
0.0
  0
SPLINE
  5
5ca
100
AcDbEntity
  8
0
 62
7
100
AcDbSpline
 70
8
 71
3
 72
8
 73
4
 74
0
 40
0
 40
0
 40
0
 40
0
 40
1
 40
1
 40
1
 40
1
 10
59.374445
 20
270.650806
 30
0.0
 10
58.879920
 20
266.529074
 30
0.0
 10
58.698826
 20
263.724755
 30
0.0
 10
58.699551
 20
260.199764
 30
0.0
  0
SPLINE
  5
5cb
100
AcDbEntity
  8
0
 62
7
100
AcDbSpline
 70
8
 71
3
 72
8
 73
4
 74
0
 40
0
 40
0
 40
0
 40
0
 40
1
 40
1
 40
1
 40
1
 10
58.699551
 20
260.199764
 30
0.0
 10
58.700609
 20
255.414933
 30
0.0
 10
58.703864
 20
255.387496
 30
0.0
 10
59.185839
 20
256.175822
 30
0.0
  0
SPLINE
  5
5cc
100
AcDbEntity
  8
0
 62
7
100
AcDbSpline
 70
8
 71
3
 72
8
 73
4
 74
0
 40
0
 40
0
 40
0
 40
0
 40
1
 40
1
 40
1
 40
1
 10
59.185839
 20
256.175822
 30
0.0
 10
59.452753
 20
256.612385
 30
0.0
 10
59.871261
 20
257.134831
 30
0.0
 10
60.115855
 20
257.336814
 30
0.0
  0
SPLINE
  5
5cd
100
AcDbEntity
  8
0
 62
7
100
AcDbSpline
 70
8
 71
3
 72
8
 73
4
 74
0
 40
0
 40
0
 40
0
 40
0
 40
1
 40
1
 40
1
 40
1
 10
60.115855
 20
257.336814
 30
0.0
 10
60.499162
 20
257.653361
 30
0.0
 10
60.630887
 20
257.640423
 30
0.0
 10
61.069815
 20
257.243204
 30
0.0
  0
SPLINE
  5
5ce
100
AcDbEntity
  8
0
 62
7
100
AcDbSpline
 70
8
 71
3
 72
8
 73
4
 74
0
 40
0
 40
0
 40
0
 40
0
 40
1
 40
1
 40
1
 40
1
 10
61.069815
 20
257.243204
 30
0.0
 10
62.441415
 20
256.001912
 30
0.0
 10
62.935623
 20
248.997941
 30
0.0
 10
62.909368
 20
231.172697
 30
0.0
  0
SPLINE
  5
5cf
100
AcDbEntity
  8
0
 62
7
100
AcDbSpline
 70
8
 71
3
 72
8
 73
4
 74
0
 40
0
 40
0
 40
0
 40
0
 40
1
 40
1
 40
1
 40
1
 10
62.909368
 20
231.172697
 30
0.0
 10
62.895319
 20
221.634627
 30
0.0
 10
62.827122
 20
219.310977
 30
0.0
 10
62.581036
 20
219.985532
 30
0.0
  0
SPLINE
  5
5d0
100
AcDbEntity
  8
0
 62
7
100
AcDbSpline
 70
8
 71
3
 72
8
 73
4
 74
0
 40
0
 40
0
 40
0
 40
0
 40
1
 40
1
 40
1
 40
1
 10
62.581036
 20
219.985532
 30
0.0
 10
62.214260
 20
220.990896
 30
0.0
 10
61.442148
 20
221.833329
 30
0.0
 10
61.152257
 20
221.544483
 30
0.0
  0
SPLINE
  5
5d1
100
AcDbEntity
  8
0
 62
7
100
AcDbSpline
 70
8
 71
3
 72
8
 73
4
 74
0
 40
0
 40
0
 40
0
 40
0
 40
1
 40
1
 40
1
 40
1
 10
61.152257
 20
221.544483
 30
0.0
 10
60.734316
 20
221.128029
 30
0.0
 10
60.795217
 20
205.243531
 30
0.0
 10
61.214757
 20
205.243531
 30
0.0
  0
SPLINE
  5
5d2
100
AcDbEntity
  8
0
 62
7
100
AcDbSpline
 70
8
 71
3
 72
8
 73
4
 74
0
 40
0
 40
0
 40
0
 40
0
 40
1
 40
1
 40
1
 40
1
 10
61.214757
 20
205.243531
 30
0.0
 10
61.258717
 20
205.243531
 30
0.0
 10
61.228594
 20
208.558019
 30
0.0
 10
61.147817
 20
212.609028
 30
0.0
  0
LWPOLYLINE
  5
5d3
100
AcDbEntity
  8
0
 62
7
100
AcDbPolyline
 90
3
 70
0
 10
59.660682
 20
257.198066
 30
0.0
 10
58.963145
 20
256.500545
 30
0.0
 10
58.963145
 20
260.759014
 30
0.0
  0
SPLINE
  5
5d4
100
AcDbEntity
  8
0
 62
7
100
AcDbSpline
 70
8
 71
3
 72
8
 73
4
 74
0
 40
0
 40
0
 40
0
 40
0
 40
1
 40
1
 40
1
 40
1
 10
485.081659
 20
231.719432
 30
0.0
 10
487.241268
 20
233.627422
 30
0.0
 10
489.063718
 20
235.597218
 30
0.0
 10
491.507462
 20
238.664745
 30
0.0
  0
SPLINE
  5
5d5
100
AcDbEntity
  8
0
 62
7
100
AcDbSpline
 70
8
 71
3
 72
8
 73
4
 74
0
 40
0
 40
0
 40
0
 40
0
 40
1
 40
1
 40
1
 40
1
 10
491.507462
 20
238.664745
 30
0.0
 10
494.959164
 20
242.997482
 30
0.0
 10
501.456960
 20
252.141403
 30
0.0
 10
501.845051
 20
253.212118
 30
0.0
  0
SPLINE
  5
5d6
100
AcDbEntity
  8
0
 62
7
100
AcDbSpline
 70
8
 71
3
 72
8
 73
4
 74
0
 40
0
 40
0
 40
0
 40
0
 40
1
 40
1
 40
1
 40
1
 10
501.845051
 20
253.212118
 30
0.0
 10
501.961150
 20
253.532476
 30
0.0
 10
502.813770
 20
258.389723
 30
0.0
 10
503.739785
 20
264.006034
 30
0.0
  0
LWPOLYLINE
  5
5d7
100
AcDbEntity
  8
0
 62
7
100
AcDbPolyline
 90
1
 70
1
 10
61.147817
 20
212.609028
 30
0.0
  0
SPLINE
  5
5d8
100
AcDbEntity
  8
0
 62
7
100
AcDbSpline
 70
8
 71
3
 72
8
 73
4
 74
0
 40
0
 40
0
 40
0
 40
0
 40
1
 40
1
 40
1
 40
1
 10
501.259449
 20
281.954282
 30
0.0
 10
498.986122
 20
283.819542
 30
0.0
 10
498.489870
 20
284.081559
 30
0.0
 10
491.572100
 20
287.069128
 30
0.0
  0
SPLINE
  5
5d9
100
AcDbEntity
  8
0
 62
7
100
AcDbSpline
 70
8
 71
3
 72
8
 73
4
 74
0
 40
0
 40
0
 40
0
 40
0
 40
1
 40
1
 40
1
 40
1
 10
491.572100
 20
287.069128
 30
0.0
 10
487.561916
 20
288.801011
 30
0.0
 10
484.192077
 20
290.302998
 30
0.0
 10
484.083598
 20
290.406873
 30
0.0
  0
SPLINE
  5
5da
100
AcDbEntity
  8
0
 62
7
100
AcDbSpline
 70
8
 71
3
 72
8
 73
4
 74
0
 40
0
 40
0
 40
0
 40
0
 40
1
 40
1
 40
1
 40
1
 10
484.083598
 20
290.406873
 30
0.0
 10
483.975119
 20
290.510748
 30
0.0
 10
483.699423
 20
292.912027
 30
0.0
 10
483.470929
 20
295.743072
 30
0.0
  0
SPLINE
  5
5db
100
AcDbEntity
  8
0
 62
7
100
AcDbSpline
 70
8
 71
3
 72
8
 73
4
 74
0
 40
0
 40
0
 40
0
 40
0
 40
1
 40
1
 40
1
 40
1
 10
483.470929
 20
295.743072
 30
0.0
 10
483.146497
 20
299.763378
 30
0.0
 10
482.900011
 20
301.382824
 30
0.0
 10
482.345286
 20
303.139364
 30
0.0
  0
LWPOLYLINE
  5
5dc
100
AcDbEntity
  8
0
 62
7
100
AcDbPolyline
 90
5
 70
0
 10
503.739785
 20
264.006034
 30
0.0
 10
505.423408
 20
274.217495
 30
0.0
 10
504.539488
 20
277.102909
 30
0.0
 10
503.655542
 20
279.988322
 30
0.0
 10
501.259449
 20
281.954282
 30
0.0
  0
SPLINE
  5
5dd
100
AcDbEntity
  8
0
 62
7
100
AcDbSpline
 70
8
 71
3
 72
8
 73
4
 74
0
 40
0
 40
0
 40
0
 40
0
 40
1
 40
1
 40
1
 40
1
 10
481.546403
 20
303.271656
 30
0.0
 10
481.420673
 20
300.267650
 30
0.0
 10
481.807573
 20
229.056031
 30
0.0
 10
481.949654
 20
229.056031
 30
0.0
  0
SPLINE
  5
5de
100
AcDbEntity
  8
0
 62
7
100
AcDbSpline
 70
8
 71
3
 72
8
 73
4
 74
0
 40
0
 40
0
 40
0
 40
0
 40
1
 40
1
 40
1
 40
1
 10
481.949654
 20
229.056031
 30
0.0
 10
482.014213
 20
229.056031
 30
0.0
 10
483.423621
 20
230.254567
 30
0.0
 10
485.081659
 20
231.719432
 30
0.0
  0
LWPOLYLINE
  5
5df
100
AcDbEntity
  8
0
 62
7
100
AcDbPolyline
 90
3
 70
0
 10
482.345286
 20
303.139364
 30
0.0
 10
481.635012
 20
305.388322
 30
0.0
 10
481.546403
 20
303.271656
 30
0.0
  0
SPLINE
  5
5e0
100
AcDbEntity
  8
0
 62
7
100
AcDbSpline
 70
8
 71
3
 72
8
 73
4
 74
0
 40
0
 40
0
 40
0
 40
0
 40
1
 40
1
 40
1
 40
1
 10
130.821015
 20
250.685639
 30
0.0
 10
130.833979
 20
259.235041
 30
0.0
 10
130.891844
 20
268.789833
 30
0.0
 10
130.949681
 20
271.918531
 30
0.0
  0
SPLINE
  5
5e1
100
AcDbEntity
  8
0
 62
7
100
AcDbSpline
 70
8
 71
3
 72
8
 73
4
 74
0
 40
0
 40
0
 40
0
 40
0
 40
1
 40
1
 40
1
 40
1
 10
130.949681
 20
271.918531
 30
0.0
 10
131.031967
 20
276.371336
 30
0.0
 10
130.956031
 20
278.268054
 30
0.0
 10
130.599611
 20
280.649781
 30
0.0
  0
SPLINE
  5
5e2
100
AcDbEntity
  8
0
 62
7
100
AcDbSpline
 70
8
 71
3
 72
8
 73
4
 74
0
 40
0
 40
0
 40
0
 40
0
 40
1
 40
1
 40
1
 40
1
 10
130.599611
 20
280.649781
 30
0.0
 10
130.349236
 20
282.323270
 30
0.0
 10
129.664812
 20
288.990770
 30
0.0
 10
129.078680
 20
295.466447
 30
0.0
  0
SPLINE
  5
5e3
100
AcDbEntity
  8
0
 62
7
100
AcDbSpline
 70
8
 71
3
 72
8
 73
4
 74
0
 40
0
 40
0
 40
0
 40
0
 40
1
 40
1
 40
1
 40
1
 10
129.078680
 20
295.466447
 30
0.0
 10
127.876969
 20
308.743056
 30
0.0
 10
126.923993
 20
318.348982
 30
0.0
 10
126.151992
 20
324.967489
 30
0.0
  0
SPLINE
  5
5e4
100
AcDbEntity
  8
0
 62
7
100
AcDbSpline
 70
8
 71
3
 72
8
 73
4
 74
0
 40
0
 40
0
 40
0
 40
0
 40
1
 40
1
 40
1
 40
1
 10
126.151992
 20
324.967489
 30
0.0
 10
125.051352
 20
334.403152
 30
0.0
 10
125.187162
 20
340.698325
 30
0.0
 10
126.736959
 20
352.087281
 30
0.0
  0
SPLINE
  5
5e5
100
AcDbEntity
  8
0
 62
7
100
AcDbSpline
 70
8
 71
3
 72
8
 73
4
 74
0
 40
0
 40
0
 40
0
 40
0
 40
1
 40
1
 40
1
 40
1
 10
126.736959
 20
352.087281
 30
0.0
 10
127.678426
 20
359.005608
 30
0.0
 10
127.665329
 20
360.715758
 30
0.0
 10
126.576198
 20
373.121656
 30
0.0
  0
SPLINE
  5
5e6
100
AcDbEntity
  8
0
 62
7
100
AcDbSpline
 70
8
 71
3
 72
8
 73
4
 74
0
 40
0
 40
0
 40
0
 40
0
 40
1
 40
1
 40
1
 40
1
 10
126.576198
 20
373.121656
 30
0.0
 10
126.057668
 20
379.027928
 30
0.0
 10
125.669524
 20
381.833496
 30
0.0
 10
124.661806
 20
386.959028
 30
0.0
  0
SPLINE
  5
5e7
100
AcDbEntity
  8
0
 62
7
100
AcDbSpline
 70
8
 71
3
 72
8
 73
4
 74
0
 40
0
 40
0
 40
0
 40
0
 40
1
 40
1
 40
1
 40
1
 10
124.661806
 20
386.959028
 30
0.0
 10
123.966586
 20
390.495002
 30
0.0
 10
123.358177
 20
393.269219
 30
0.0
 10
123.309732
 20
393.123954
 30
0.0
  0
SPLINE
  5
5e8
100
AcDbEntity
  8
0
 62
7
100
AcDbSpline
 70
8
 71
3
 72
8
 73
4
 74
0
 40
0
 40
0
 40
0
 40
0
 40
1
 40
1
 40
1
 40
1
 10
123.309732
 20
393.123954
 30
0.0
 10
123.261313
 20
392.978693
 30
0.0
 10
123.763492
 20
390.145156
 30
0.0
 10
124.425665
 20
386.827207
 30
0.0
  0
SPLINE
  5
5e9
100
AcDbEntity
  8
0
 62
7
100
AcDbSpline
 70
8
 71
3
 72
8
 73
4
 74
0
 40
0
 40
0
 40
0
 40
0
 40
1
 40
1
 40
1
 40
1
 10
124.425665
 20
386.827207
 30
0.0
 10
125.390389
 20
381.993394
 30
0.0
 10
125.763742
 20
379.269789
 30
0.0
 10
126.304524
 20
373.121656
 30
0.0
  0
SPLINE
  5
5ea
100
AcDbEntity
  8
0
 62
7
100
AcDbSpline
 70
8
 71
3
 72
8
 73
4
 74
0
 40
0
 40
0
 40
0
 40
0
 40
1
 40
1
 40
1
 40
1
 10
126.304524
 20
373.121656
 30
0.0
 10
127.404820
 20
360.611989
 30
0.0
 10
127.417415
 20
359.032913
 30
0.0
 10
126.472323
 20
352.087281
 30
0.0
  0
SPLINE
  5
5eb
100
AcDbEntity
  8
0
 62
7
100
AcDbSpline
 70
8
 71
3
 72
8
 73
4
 74
0
 40
0
 40
0
 40
0
 40
0
 40
1
 40
1
 40
1
 40
1
 10
126.472323
 20
352.087281
 30
0.0
 10
124.922579
 20
340.697905
 30
0.0
 10
124.786795
 20
334.403023
 30
0.0
 10
125.887409
 20
324.967489
 30
0.0
  0
SPLINE
  5
5ec
100
AcDbEntity
  8
0
 62
7
100
AcDbSpline
 70
8
 71
3
 72
8
 73
4
 74
0
 40
0
 40
0
 40
0
 40
0
 40
1
 40
1
 40
1
 40
1
 10
125.887409
 20
324.967489
 30
0.0
 10
126.659410
 20
318.348982
 30
0.0
 10
127.612386
 20
308.743056
 30
0.0
 10
128.814097
 20
295.466447
 30
0.0
  0
SPLINE
  5
5ed
100
AcDbEntity
  8
0
 62
7
100
AcDbSpline
 70
8
 71
3
 72
8
 73
4
 74
0
 40
0
 40
0
 40
0
 40
0
 40
1
 40
1
 40
1
 40
1
 10
128.814097
 20
295.466447
 30
0.0
 10
129.400229
 20
288.990770
 30
0.0
 10
130.076186
 20
282.323270
 30
0.0
 10
130.316216
 20
280.649781
 30
0.0
  0
SPLINE
  5
5ee
100
AcDbEntity
  8
0
 62
7
100
AcDbSpline
 70
8
 71
3
 72
8
 73
4
 74
0
 40
0
 40
0
 40
0
 40
0
 40
1
 40
1
 40
1
 40
1
 10
130.316216
 20
280.649781
 30
0.0
 10
130.801039
 20
277.269385
 30
0.0
 10
130.812574
 20
275.915221
 30
0.0
 10
130.534683
 20
254.985197
 30
0.0
  0
SPLINE
  5
5ef
100
AcDbEntity
  8
0
 62
7
100
AcDbSpline
 70
8
 71
3
 72
8
 73
4
 74
0
 40
0
 40
0
 40
0
 40
0
 40
1
 40
1
 40
1
 40
1
 10
130.534683
 20
254.985197
 30
0.0
 10
130.386198
 20
243.800942
 30
0.0
 10
130.483406
 20
235.141923
 30
0.0
 10
130.757488
 20
235.141368
 30
0.0
  0
SPLINE
  5
5f0
100
AcDbEntity
  8
0
 62
7
100
AcDbSpline
 70
8
 71
3
 72
8
 73
4
 74
0
 40
0
 40
0
 40
0
 40
0
 40
1
 40
1
 40
1
 40
1
 10
130.757488
 20
235.141368
 30
0.0
 10
130.779449
 20
235.141315
 30
0.0
 10
130.808103
 20
242.136237
 30
0.0
 10
130.821015
 20
250.685639
 30
0.0
  0
LWPOLYLINE
  5
5f1
100
AcDbEntity
  8
0
 62
7
100
AcDbPolyline
 90
1
 70
1
 10
485.081659
 20
231.719432
 30
0.0
  0
SPLINE
  5
5f2
100
AcDbEntity
  8
0
 62
7
100
AcDbSpline
 70
8
 71
3
 72
8
 73
4
 74
0
 40
0
 40
0
 40
0
 40
0
 40
1
 40
1
 40
1
 40
1
 10
550.324999
 20
293.420477
 30
0.0
 10
575.893353
 20
307.077420
 30
0.0
 10
578.851130
 20
308.726782
 30
0.0
 10
585.114717
 20
312.820487
 30
0.0
  0
SPLINE
  5
5f3
100
AcDbEntity
  8
0
 62
7
100
AcDbSpline
 70
8
 71
3
 72
8
 73
4
 74
0
 40
0
 40
0
 40
0
 40
0
 40
1
 40
1
 40
1
 40
1
 10
585.114717
 20
312.820487
 30
0.0
 10
590.585825
 20
316.396264
 30
0.0
 10
591.828070
 20
317.312283
 30
0.0
 10
591.301814
 20
317.382787
 30
0.0
  0
SPLINE
  5
5f4
100
AcDbEntity
  8
0
 62
7
100
AcDbSpline
 70
8
 71
3
 72
8
 73
4
 74
0
 40
0
 40
0
 40
0
 40
0
 40
1
 40
1
 40
1
 40
1
 10
591.301814
 20
317.382787
 30
0.0
 10
590.939652
 20
317.431306
 30
0.0
 10
587.077370
 20
318.234978
 30
0.0
 10
582.718942
 20
319.168724
 30
0.0
  0
SPLINE
  5
5f5
100
AcDbEntity
  8
0
 62
7
100
AcDbSpline
 70
8
 71
3
 72
8
 73
4
 74
0
 40
0
 40
0
 40
0
 40
0
 40
1
 40
1
 40
1
 40
1
 10
582.718942
 20
319.168724
 30
0.0
 10
578.360514
 20
320.102473
 30
0.0
 10
574.364776
 20
320.866447
 30
0.0
 10
573.839525
 20
320.866447
 30
0.0
  0
SPLINE
  5
5f6
100
AcDbEntity
  8
0
 62
7
100
AcDbSpline
 70
8
 71
3
 72
8
 73
4
 74
0
 40
0
 40
0
 40
0
 40
0
 40
1
 40
1
 40
1
 40
1
 10
573.839525
 20
320.866447
 30
0.0
 10
573.314274
 20
320.866447
 30
0.0
 10
570.943661
 20
320.266788
 30
0.0
 10
568.571512
 20
319.533871
 30
0.0
  0
LWPOLYLINE
  5
5f7
100
AcDbEntity
  8
0
 62
7
100
AcDbPolyline
 90
1
 70
1
 10
130.821015
 20
250.685639
 30
0.0
  0
SPLINE
  5
5f8
100
AcDbEntity
  8
0
 62
7
100
AcDbSpline
 70
8
 71
3
 72
8
 73
4
 74
0
 40
0
 40
0
 40
0
 40
0
 40
1
 40
1
 40
1
 40
1
 10
552.844679
 20
317.002329
 30
0.0
 10
546.567069
 20
316.342898
 30
0.0
 10
540.662574
 20
315.781698
 30
0.0
 10
539.723595
 20
315.755218
 30
0.0
  0
LWPOLYLINE
  5
5f9
100
AcDbEntity
  8
0
 62
7
100
AcDbPolyline
 90
3
 70
0
 10
568.571512
 20
319.533871
 30
0.0
 10
564.258513
 20
318.201294
 30
0.0
 10
552.844679
 20
317.002329
 30
0.0
  0
SPLINE
  5
5fa
100
AcDbEntity
  8
0
 62
7
100
AcDbSpline
 70
8
 71
3
 72
8
 73
4
 74
0
 40
0
 40
0
 40
0
 40
0
 40
1
 40
1
 40
1
 40
1
 10
536.532402
 20
331.978947
 30
0.0
 10
536.517056
 20
345.731462
 30
0.0
 10
536.535842
 20
345.592453
 30
0.0
 10
534.300456
 20
348.299945
 30
0.0
  0
SPLINE
  5
5fb
100
AcDbEntity
  8
0
 62
7
100
AcDbSpline
 70
8
 71
3
 72
8
 73
4
 74
0
 40
0
 40
0
 40
0
 40
0
 40
1
 40
1
 40
1
 40
1
 10
534.300456
 20
348.299945
 30
0.0
 10
533.601851
 20
349.146053
 30
0.0
 10
532.896604
 20
350.135978
 30
0.0
 10
532.733224
 20
350.499781
 30
0.0
  0
SPLINE
  5
5fc
100
AcDbEntity
  8
0
 62
7
100
AcDbSpline
 70
8
 71
3
 72
8
 73
4
 74
0
 40
0
 40
0
 40
0
 40
0
 40
1
 40
1
 40
1
 40
1
 10
532.733224
 20
350.499781
 30
0.0
 10
532.423767
 20
351.188851
 30
0.0
 10
516.907701
 20
370.780254
 30
0.0
 10
516.257196
 20
371.303293
 30
0.0
  0
SPLINE
  5
5fd
100
AcDbEntity
  8
0
 62
7
100
AcDbSpline
 70
8
 71
3
 72
8
 73
4
 74
0
 40
0
 40
0
 40
0
 40
0
 40
1
 40
1
 40
1
 40
1
 10
516.257196
 20
371.303293
 30
0.0
 10
516.053123
 20
371.467361
 30
0.0
 10
514.893216
 20
371.809981
 30
0.0
 10
513.679572
 20
372.064666
 30
0.0
  0
SPLINE
  5
5fe
100
AcDbEntity
  8
0
 62
7
100
AcDbSpline
 70
8
 71
3
 72
8
 73
4
 74
0
 40
0
 40
0
 40
0
 40
0
 40
1
 40
1
 40
1
 40
1
 10
513.679572
 20
372.064666
 30
0.0
 10
511.915384
 20
372.434895
 30
0.0
 10
510.656787
 20
372.500697
 30
0.0
 10
507.401962
 20
372.392874
 30
0.0
  0
SPLINE
  5
5ff
100
AcDbEntity
  8
0
 62
7
100
AcDbSpline
 70
8
 71
3
 72
8
 73
4
 74
0
 40
0
 40
0
 40
0
 40
0
 40
1
 40
1
 40
1
 40
1
 10
507.401962
 20
372.392874
 30
0.0
 10
505.162899
 20
372.318703
 30
0.0
 10
499.905999
 20
372.374988
 30
0.0
 10
495.720000
 20
372.517966
 30
0.0
  0
LWPOLYLINE
  5
600
100
AcDbEntity
  8
0
 62
7
100
AcDbPolyline
 90
5
 70
0
 10
539.723595
 20
315.755218
 30
0.0
 10
538.016318
 20
315.707072
 30
0.0
 10
537.281120
 20
317.823739
 30
0.0
 10
536.545896
 20
319.940406
 30
0.0
 10
536.532402
 20
331.978947
 30
0.0
  0
SPLINE
  5
601
100
AcDbEntity
  8
0
 62
7
100
AcDbSpline
 70
8
 71
3
 72
8
 73
4
 74
0
 40
0
 40
0
 40
0
 40
0
 40
1
 40
1
 40
1
 40
1
 10
485.136666
 20
371.119593
 30
0.0
 10
483.501832
 20
370.207514
 30
0.0
 10
481.718752
 20
369.213291
 30
0.0
 10
481.174240
 20
368.910211
 30
0.0
  0
LWPOLYLINE
  5
602
100
AcDbEntity
  8
0
 62
7
100
AcDbPolyline
 90
3
 70
0
 10
495.720000
 20
372.517966
 30
0.0
 10
488.109075
 20
372.777919
 30
0.0
 10
485.136666
 20
371.119593
 30
0.0
  0
SPLINE
  5
603
100
AcDbEntity
  8
0
 62
7
100
AcDbSpline
 70
8
 71
3
 72
8
 73
4
 74
0
 40
0
 40
0
 40
0
 40
0
 40
1
 40
1
 40
1
 40
1
 10
480.181602
 20
363.411770
 30
0.0
 10
480.178957
 20
357.991783
 30
0.0
 10
479.751919
 20
353.911588
 30
0.0
 10
478.704672
 20
349.309156
 30
0.0
  0
SPLINE
  5
604
100
AcDbEntity
  8
0
 62
7
100
AcDbSpline
 70
8
 71
3
 72
8
 73
4
 74
0
 40
0
 40
0
 40
0
 40
0
 40
1
 40
1
 40
1
 40
1
 10
478.704672
 20
349.309156
 30
0.0
 10
478.340420
 20
347.708426
 30
0.0
 10
477.977438
 20
346.095600
 30
0.0
 10
477.898010
 20
345.725099
 30
0.0
  0
SPLINE
  5
605
100
AcDbEntity
  8
0
 62
7
100
AcDbSpline
 70
8
 71
3
 72
8
 73
4
 74
0
 40
0
 40
0
 40
0
 40
0
 40
1
 40
1
 40
1
 40
1
 10
477.898010
 20
345.725099
 30
0.0
 10
477.772201
 20
345.138179
 30
0.0
 10
477.961007
 20
344.905991
 30
0.0
 10
479.364543
 20
343.921466
 30
0.0
  0
SPLINE
  5
606
100
AcDbEntity
  8
0
 62
7
100
AcDbSpline
 70
8
 71
3
 72
8
 73
4
 74
0
 40
0
 40
0
 40
0
 40
0
 40
1
 40
1
 40
1
 40
1
 10
479.364543
 20
343.921466
 30
0.0
 10
482.773672
 20
341.530085
 30
0.0
 10
487.314214
 20
339.935563
 30
0.0
 10
493.408600
 20
338.989527
 30
0.0
  0
SPLINE
  5
607
100
AcDbEntity
  8
0
 62
7
100
AcDbSpline
 70
8
 71
3
 72
8
 73
4
 74
0
 40
0
 40
0
 40
0
 40
0
 40
1
 40
1
 40
1
 40
1
 10
493.408600
 20
338.989527
 30
0.0
 10
503.394451
 20
337.439418
 30
0.0
 10
507.765738
 20
336.529402
 30
0.0
 10
509.261877
 20
335.689191
 30
0.0
  0
SPLINE
  5
608
100
AcDbEntity
  8
0
 62
7
100
AcDbSpline
 70
8
 71
3
 72
8
 73
4
 74
0
 40
0
 40
0
 40
0
 40
0
 40
1
 40
1
 40
1
 40
1
 10
509.261877
 20
335.689191
 30
0.0
 10
509.626394
 20
335.484483
 30
0.0
 10
509.629198
 20
335.438022
 30
0.0
 10
509.283573
 20
335.329519
 30
0.0
  0
SPLINE
  5
609
100
AcDbEntity
  8
0
 62
7
100
AcDbSpline
 70
8
 71
3
 72
8
 73
4
 74
0
 40
0
 40
0
 40
0
 40
0
 40
1
 40
1
 40
1
 40
1
 10
509.283573
 20
335.329519
 30
0.0
 10
509.065292
 20
335.260992
 30
0.0
 10
502.757519
 20
334.769344
 30
0.0
 10
495.266266
 20
334.236965
 30
0.0
  0
SPLINE
  5
60a
100
AcDbEntity
  8
0
 62
7
100
AcDbSpline
 70
8
 71
3
 72
8
 73
4
 74
0
 40
0
 40
0
 40
0
 40
0
 40
1
 40
1
 40
1
 40
1
 10
495.266266
 20
334.236965
 30
0.0
 10
487.775038
 20
333.704589
 30
0.0
 10
481.612416
 20
333.235570
 30
0.0
 10
481.571538
 20
333.194700
 30
0.0
  0
SPLINE
  5
60b
100
AcDbEntity
  8
0
 62
7
100
AcDbSpline
 70
8
 71
3
 72
8
 73
4
 74
0
 40
0
 40
0
 40
0
 40
0
 40
1
 40
1
 40
1
 40
1
 10
481.571538
 20
333.194700
 30
0.0
 10
481.530686
 20
333.153829
 30
0.0
 10
481.528146
 20
327.321653
 30
0.0
 10
481.565982
 20
320.234305
 30
0.0
  0
LWPOLYLINE
  5
60c
100
AcDbEntity
  8
0
 62
7
100
AcDbPolyline
 90
3
 70
0
 10
481.174240
 20
368.910211
 30
0.0
 10
480.184248
 20
368.359156
 30
0.0
 10
480.181602
 20
363.411770
 30
0.0
  0
SPLINE
  5
60d
100
AcDbEntity
  8
0
 62
7
100
AcDbSpline
 70
8
 71
3
 72
8
 73
4
 74
0
 40
0
 40
0
 40
0
 40
0
 40
1
 40
1
 40
1
 40
1
 10
486.033948
 20
313.458114
 30
0.0
 10
486.704005
 20
313.458114
 30
0.0
 10
487.128211
 20
313.320044
 30
0.0
 10
487.223858
 20
313.070825
 30
0.0
  0
SPLINE
  5
60e
100
AcDbEntity
  8
0
 62
7
100
AcDbSpline
 70
8
 71
3
 72
8
 73
4
 74
0
 40
0
 40
0
 40
0
 40
0
 40
1
 40
1
 40
1
 40
1
 10
487.223858
 20
313.070825
 30
0.0
 10
487.305588
 20
312.857817
 30
0.0
 10
486.932922
 20
310.051524
 30
0.0
 10
486.395686
 20
306.834619
 30
0.0
  0
LWPOLYLINE
  5
60f
100
AcDbEntity
  8
0
 62
7
100
AcDbPolyline
 90
5
 70
0
 10
481.565982
 20
320.234305
 30
0.0
 10
481.634668
 20
307.348218
 30
0.0
 10
483.313661
 20
310.403166
 30
0.0
 10
484.992627
 20
313.458114
 30
0.0
 10
486.033948
 20
313.458114
 30
0.0
  0
SPLINE
  5
610
100
AcDbEntity
  8
0
 62
7
100
AcDbSpline
 70
8
 71
3
 72
8
 73
4
 74
0
 40
0
 40
0
 40
0
 40
0
 40
1
 40
1
 40
1
 40
1
 10
489.601642
 20
293.393842
 30
0.0
 10
492.038270
 20
291.368660
 30
0.0
 10
492.059277
 20
291.358024
 30
0.0
 10
502.713413
 20
286.757475
 30
0.0
  0
SPLINE
  5
611
100
AcDbEntity
  8
0
 62
7
100
AcDbSpline
 70
8
 71
3
 72
8
 73
4
 74
0
 40
0
 40
0
 40
0
 40
0
 40
1
 40
1
 40
1
 40
1
 10
502.713413
 20
286.757475
 30
0.0
 10
518.637044
 20
279.881536
 30
0.0
 10
516.912834
 20
280.794904
 30
0.0
 10
518.113195
 20
278.599709
 30
0.0
  0
LWPOLYLINE
  5
612
100
AcDbEntity
  8
0
 62
7
100
AcDbPolyline
 90
5
 70
0
 10
486.395686
 20
306.834619
 30
0.0
 10
485.418897
 20
300.985701
 30
0.0
 10
486.289985
 20
298.203990
 30
0.0
 10
487.161099
 20
295.422280
 30
0.0
 10
489.601642
 20
293.393842
 30
0.0
  0
SPLINE
  5
613
100
AcDbEntity
  8
0
 62
7
100
AcDbSpline
 70
8
 71
3
 72
8
 73
4
 74
0
 40
0
 40
0
 40
0
 40
0
 40
1
 40
1
 40
1
 40
1
 10
520.759029
 20
277.610485
 30
0.0
 10
521.650833
 20
278.096710
 30
0.0
 10
534.955353
 20
285.211224
 30
0.0
 10
550.324655
 20
293.420477
 30
0.0
  0
LWPOLYLINE
  5
614
100
AcDbEntity
  8
0
 62
7
100
AcDbPolyline
 90
3
 70
0
 10
518.113195
 20
278.599709
 30
0.0
 10
519.137530
 20
276.726407
 30
0.0
 10
520.759029
 20
277.610485
 30
0.0
  0
SPLINE
  5
615
100
AcDbEntity
  8
0
 62
7
100
AcDbSpline
 70
8
 71
3
 72
8
 73
4
 74
0
 40
0
 40
0
 40
0
 40
0
 40
1
 40
1
 40
1
 40
1
 10
142.968353
 20
281.802808
 30
0.0
 10
144.423561
 20
282.822724
 30
0.0
 10
151.507780
 20
287.842187
 30
0.0
 10
158.711061
 20
292.957139
 30
0.0
  0
SPLINE
  5
616
100
AcDbEntity
  8
0
 62
7
100
AcDbSpline
 70
8
 71
3
 72
8
 73
4
 74
0
 40
0
 40
0
 40
0
 40
0
 40
1
 40
1
 40
1
 40
1
 10
158.711061
 20
292.957139
 30
0.0
 10
187.057752
 20
313.085800
 30
0.0
 10
191.569613
 20
316.086643
 30
0.0
 10
195.163025
 20
317.201428
 30
0.0
  0
SPLINE
  5
617
100
AcDbEntity
  8
0
 62
7
100
AcDbSpline
 70
8
 71
3
 72
8
 73
4
 74
0
 40
0
 40
0
 40
0
 40
0
 40
1
 40
1
 40
1
 40
1
 10
195.163025
 20
317.201428
 30
0.0
 10
200.472154
 20
318.848470
 30
0.0
 10
205.935429
 20
321.989201
 30
0.0
 10
216.919395
 20
329.708732
 30
0.0
  0
SPLINE
  5
618
100
AcDbEntity
  8
0
 62
7
100
AcDbSpline
 70
8
 71
3
 72
8
 73
4
 74
0
 40
0
 40
0
 40
0
 40
0
 40
1
 40
1
 40
1
 40
1
 10
216.919395
 20
329.708732
 30
0.0
 10
226.086599
 20
336.151440
 30
0.0
 10
227.788478
 20
337.219851
 30
0.0
 10
233.041198
 20
339.829669
 30
0.0
  0
LWPOLYLINE
  5
619
100
AcDbEntity
  8
0
 62
7
100
AcDbPolyline
 90
2
 70
0
 10
550.324655
 20
293.420477
 30
0.0
 10
550.324999
 20
293.420477
 30
0.0
  0
SPLINE
  5
61a
100
AcDbEntity
  8
0
 62
7
100
AcDbSpline
 70
8
 71
3
 72
8
 73
4
 74
0
 40
0
 40
0
 40
0
 40
0
 40
1
 40
1
 40
1
 40
1
 10
244.915380
 20
350.964323
 30
0.0
 10
240.944752
 20
351.062803
 30
0.0
 10
145.761586
 20
350.073915
 30
0.0
 10
145.620378
 20
349.932718
 30
0.0
  0
SPLINE
  5
61b
100
AcDbEntity
  8
0
 62
7
100
AcDbSpline
 70
8
 71
3
 72
8
 73
4
 74
0
 40
0
 40
0
 40
0
 40
0
 40
1
 40
1
 40
1
 40
1
 10
145.620378
 20
349.932718
 30
0.0
 10
145.554840
 20
349.867183
 30
0.0
 10
145.982169
 20
341.814925
 30
0.0
 10
146.569967
 20
332.038812
 30
0.0
  0
LWPOLYLINE
  5
61c
100
AcDbEntity
  8
0
 62
7
100
AcDbPolyline
 90
5
 70
0
 10
233.041198
 20
339.829669
 30
0.0
 10
237.925486
 20
342.256435
 30
0.0
 10
242.784585
 20
346.576544
 30
0.0
 10
247.643684
 20
350.896656
 30
0.0
 10
244.915380
 20
350.964323
 30
0.0
  0
SPLINE
  5
61d
100
AcDbEntity
  8
0
 62
7
100
AcDbSpline
 70
8
 71
3
 72
8
 73
4
 74
0
 40
0
 40
0
 40
0
 40
0
 40
1
 40
1
 40
1
 40
1
 10
143.647327
 20
297.126192
 30
0.0
 10
141.452052
 20
287.700371
 30
0.0
 10
139.657093
 20
279.891987
 30
0.0
 10
139.658495
 20
279.774274
 30
0.0
  0
SPLINE
  5
61e
100
AcDbEntity
  8
0
 62
7
100
AcDbSpline
 70
8
 71
3
 72
8
 73
4
 74
0
 40
0
 40
0
 40
0
 40
0
 40
1
 40
1
 40
1
 40
1
 10
139.658495
 20
279.774274
 30
0.0
 10
139.661934
 20
279.498711
 30
0.0
 10
139.814096
 20
279.592056
 30
0.0
 10
142.968353
 20
281.802808
 30
0.0
  0
LWPOLYLINE
  5
61f
100
AcDbEntity
  8
0
 62
7
100
AcDbPolyline
 90
3
 70
0
 10
146.569967
 20
332.038812
 30
0.0
 10
147.638725
 20
314.264064
 30
0.0
 10
143.647327
 20
297.126192
 30
0.0
  0
SPLINE
  5
620
100
AcDbEntity
  8
0
 62
7
100
AcDbSpline
 70
8
 71
3
 72
8
 73
4
 74
0
 40
0
 40
0
 40
0
 40
0
 40
1
 40
1
 40
1
 40
1
 10
90.572598
 20
300.890406
 30
0.0
 10
90.354131
 20
306.070680
 30
0.0
 10
90.026022
 20
307.835451
 30
0.0
 10
89.051403
 20
309.072121
 30
0.0
  0
SPLINE
  5
621
100
AcDbEntity
  8
0
 62
7
100
AcDbSpline
 70
8
 71
3
 72
8
 73
4
 74
0
 40
0
 40
0
 40
0
 40
0
 40
1
 40
1
 40
1
 40
1
 10
89.051403
 20
309.072121
 30
0.0
 10
88.278078
 20
310.053366
 30
0.0
 10
88.221775
 20
310.284691
 30
0.0
 10
88.020771
 20
313.305455
 30
0.0
  0
SPLINE
  5
622
100
AcDbEntity
  8
0
 62
7
100
AcDbSpline
 70
8
 71
3
 72
8
 73
4
 74
0
 40
0
 40
0
 40
0
 40
0
 40
1
 40
1
 40
1
 40
1
 10
88.020771
 20
313.305455
 30
0.0
 10
87.748568
 20
317.396984
 30
0.0
 10
86.706056
 20
325.666706
 30
0.0
 10
85.547234
 20
332.927021
 30
0.0
  0
SPLINE
  5
623
100
AcDbEntity
  8
0
 62
7
100
AcDbSpline
 70
8
 71
3
 72
8
 73
4
 74
0
 40
0
 40
0
 40
0
 40
0
 40
1
 40
1
 40
1
 40
1
 10
85.547234
 20
332.927021
 30
0.0
 10
84.354916
 20
340.397325
 30
0.0
 10
82.125140
 20
363.285955
 30
0.0
 10
81.579993
 20
373.650822
 30
0.0
  0
SPLINE
  5
624
100
AcDbEntity
  8
0
 62
7
100
AcDbSpline
 70
8
 71
3
 72
8
 73
4
 74
0
 40
0
 40
0
 40
0
 40
0
 40
1
 40
1
 40
1
 40
1
 10
81.579993
 20
373.650822
 30
0.0
 10
81.342741
 20
378.161968
 30
0.0
 10
81.046566
 20
382.329156
 30
0.0
 10
80.921868
 20
382.911239
 30
0.0
  0
SPLINE
  5
625
100
AcDbEntity
  8
0
 62
7
100
AcDbSpline
 70
8
 71
3
 72
8
 73
4
 74
0
 40
0
 40
0
 40
0
 40
0
 40
1
 40
1
 40
1
 40
1
 10
80.921868
 20
382.911239
 30
0.0
 10
80.727955
 20
383.816378
 30
0.0
 10
80.712159
 20
383.739782
 30
0.0
 10
80.812701
 20
382.382072
 30
0.0
  0
SPLINE
  5
626
100
AcDbEntity
  8
0
 62
7
100
AcDbSpline
 70
8
 71
3
 72
8
 73
4
 74
0
 40
0
 40
0
 40
0
 40
0
 40
1
 40
1
 40
1
 40
1
 10
80.812701
 20
382.382072
 30
0.0
 10
80.877391
 20
381.508947
 30
0.0
 10
81.110675
 20
377.401291
 30
0.0
 10
81.331178
 20
373.253947
 30
0.0
  0
SPLINE
  5
627
100
AcDbEntity
  8
0
 62
7
100
AcDbSpline
 70
8
 71
3
 72
8
 73
4
 74
0
 40
0
 40
0
 40
0
 40
0
 40
1
 40
1
 40
1
 40
1
 10
81.331178
 20
373.253947
 30
0.0
 10
81.857646
 20
363.350879
 30
0.0
 10
84.132666
 20
340.132146
 30
0.0
 10
85.282122
 20
332.930373
 30
0.0
  0
SPLINE
  5
628
100
AcDbEntity
  8
0
 62
7
100
AcDbSpline
 70
8
 71
3
 72
8
 73
4
 74
0
 40
0
 40
0
 40
0
 40
0
 40
1
 40
1
 40
1
 40
1
 10
85.282122
 20
332.930373
 30
0.0
 10
86.442981
 20
325.657242
 30
0.0
 10
87.484011
 20
317.396339
 30
0.0
 10
87.757325
 20
313.288939
 30
0.0
  0
SPLINE
  5
629
100
AcDbEntity
  8
0
 62
7
100
AcDbSpline
 70
8
 71
3
 72
8
 73
4
 74
0
 40
0
 40
0
 40
0
 40
0
 40
1
 40
1
 40
1
 40
1
 10
87.757325
 20
313.288939
 30
0.0
 10
87.951953
 20
310.363664
 30
0.0
 10
88.033445
 20
310.002880
 30
0.0
 10
88.670455
 20
309.245825
 30
0.0
  0
SPLINE
  5
62a
100
AcDbEntity
  8
0
 62
7
100
AcDbSpline
 70
8
 71
3
 72
8
 73
4
 74
0
 40
0
 40
0
 40
0
 40
0
 40
1
 40
1
 40
1
 40
1
 10
88.670455
 20
309.245825
 30
0.0
 10
89.055160
 20
308.788649
 30
0.0
 10
89.496776
 20
307.971812
 30
0.0
 10
89.651821
 20
307.430628
 30
0.0
  0
SPLINE
  5
62b
100
AcDbEntity
  8
0
 62
7
100
AcDbSpline
 70
8
 71
3
 72
8
 73
4
 74
0
 40
0
 40
0
 40
0
 40
0
 40
1
 40
1
 40
1
 40
1
 10
89.651821
 20
307.430628
 30
0.0
 10
90.079997
 20
305.936351
 30
0.0
 10
90.486529
 20
299.387707
 30
0.0
 10
90.345294
 20
296.260197
 30
0.0
  0
SPLINE
  5
62c
100
AcDbEntity
  8
0
 62
7
100
AcDbSpline
 70
8
 71
3
 72
8
 73
4
 74
0
 40
0
 40
0
 40
0
 40
0
 40
1
 40
1
 40
1
 40
1
 10
90.345294
 20
296.260197
 30
0.0
 10
90.223877
 20
293.571591
 30
0.0
 10
90.227846
 20
293.546014
 30
0.0
 10
90.468749
 20
295.466447
 30
0.0
  0
SPLINE
  5
62d
100
AcDbEntity
  8
0
 62
7
100
AcDbSpline
 70
8
 71
3
 72
8
 73
4
 74
0
 40
0
 40
0
 40
0
 40
0
 40
1
 40
1
 40
1
 40
1
 10
90.468749
 20
295.466447
 30
0.0
 10
90.605671
 20
296.557853
 30
0.0
 10
90.652396
 20
298.998635
 30
0.0
 10
90.572598
 20
300.890406
 30
0.0
  0
LWPOLYLINE
  5
62e
100
AcDbEntity
  8
0
 62
7
100
AcDbPolyline
 90
1
 70
1
 10
142.968353
 20
281.802808
 30
0.0
  0
SPLINE
  5
62f
100
AcDbEntity
  8
0
 62
7
100
AcDbSpline
 70
8
 71
3
 72
8
 73
4
 74
0
 40
0
 40
0
 40
0
 40
0
 40
1
 40
1
 40
1
 40
1
 10
34.969328
 20
312.267489
 30
0.0
 10
34.980414
 20
316.240525
 30
0.0
 10
34.930906
 20
316.671642
 30
0.0
 10
34.163976
 20
319.278947
 30
0.0
  0
SPLINE
  5
630
100
AcDbEntity
  8
0
 62
7
100
AcDbSpline
 70
8
 71
3
 72
8
 73
4
 74
0
 40
0
 40
0
 40
0
 40
0
 40
1
 40
1
 40
1
 40
1
 10
34.163976
 20
319.278947
 30
0.0
 10
32.286226
 20
325.662676
 30
0.0
 10
31.228662
 20
332.695852
 30
0.0
 10
30.782260
 20
341.768531
 30
0.0
  0
SPLINE
  5
631
100
AcDbEntity
  8
0
 62
7
100
AcDbSpline
 70
8
 71
3
 72
8
 73
4
 74
0
 40
0
 40
0
 40
0
 40
0
 40
1
 40
1
 40
1
 40
1
 10
30.782260
 20
341.768531
 30
0.0
 10
30.610916
 20
345.250963
 30
0.0
 10
30.660491
 20
345.733428
 30
0.0
 10
32.762039
 20
361.035912
 30
0.0
  0
SPLINE
  5
632
100
AcDbEntity
  8
0
 62
7
100
AcDbSpline
 70
8
 71
3
 72
8
 73
4
 74
0
 40
0
 40
0
 40
0
 40
0
 40
1
 40
1
 40
1
 40
1
 10
32.762039
 20
361.035912
 30
0.0
 10
33.947579
 20
369.668441
 30
0.0
 10
34.880711
 20
376.919172
 30
0.0
 10
34.835669
 20
377.148651
 30
0.0
  0
SPLINE
  5
633
100
AcDbEntity
  8
0
 62
7
100
AcDbSpline
 70
8
 71
3
 72
8
 73
4
 74
0
 40
0
 40
0
 40
0
 40
0
 40
1
 40
1
 40
1
 40
1
 10
34.835669
 20
377.148651
 30
0.0
 10
34.790623
 20
377.378129
 30
0.0
 10
33.758232
 20
370.267214
 30
0.0
 10
32.541461
 20
361.346618
 30
0.0
  0
SPLINE
  5
634
100
AcDbEntity
  8
0
 62
7
100
AcDbSpline
 70
8
 71
3
 72
8
 73
4
 74
0
 40
0
 40
0
 40
0
 40
0
 40
1
 40
1
 40
1
 40
1
 10
32.541461
 20
361.346618
 30
0.0
 10
30.416614
 20
345.768541
 30
0.0
 10
30.336075
 20
344.995585
 30
0.0
 10
30.504223
 20
341.794296
 30
0.0
  0
SPLINE
  5
635
100
AcDbEntity
  8
0
 62
7
100
AcDbSpline
 70
8
 71
3
 72
8
 73
4
 74
0
 40
0
 40
0
 40
0
 40
0
 40
1
 40
1
 40
1
 40
1
 10
30.504223
 20
341.794296
 30
0.0
 10
30.988360
 20
332.576932
 30
0.0
 10
32.025571
 20
325.683115
 30
0.0
 10
33.891776
 20
319.278947
 30
0.0
  0
SPLINE
  5
636
100
AcDbEntity
  8
0
 62
7
100
AcDbSpline
 70
8
 71
3
 72
8
 73
4
 74
0
 40
0
 40
0
 40
0
 40
0
 40
1
 40
1
 40
1
 40
1
 10
33.891776
 20
319.278947
 30
0.0
 10
34.614419
 20
316.799092
 30
0.0
 10
34.704044
 20
316.103130
 30
0.0
 10
34.726563
 20
312.796656
 30
0.0
  0
SPLINE
  5
637
100
AcDbEntity
  8
0
 62
7
100
AcDbSpline
 70
8
 71
3
 72
8
 73
4
 74
0
 40
0
 40
0
 40
0
 40
0
 40
1
 40
1
 40
1
 40
1
 10
34.726563
 20
312.796656
 30
0.0
 10
34.740427
 20
310.759364
 30
0.0
 10
34.667343
 20
308.556708
 30
0.0
 10
34.564132
 20
307.901864
 30
0.0
  0
SPLINE
  5
638
100
AcDbEntity
  8
0
 62
7
100
AcDbSpline
 70
8
 71
3
 72
8
 73
4
 74
0
 40
0
 40
0
 40
0
 40
0
 40
1
 40
1
 40
1
 40
1
 10
34.564132
 20
307.901864
 30
0.0
 10
34.408261
 20
306.912888
 30
0.0
 10
34.425681
 20
306.823266
 30
0.0
 10
34.666994
 20
307.372697
 30
0.0
  0
SPLINE
  5
639
100
AcDbEntity
  8
0
 62
7
100
AcDbSpline
 70
8
 71
3
 72
8
 73
4
 74
0
 40
0
 40
0
 40
0
 40
0
 40
1
 40
1
 40
1
 40
1
 10
34.666994
 20
307.372697
 30
0.0
 10
34.836412
 20
307.758441
 30
0.0
 10
34.962436
 20
309.798723
 30
0.0
 10
34.969328
 20
312.267489
 30
0.0
  0
LWPOLYLINE
  5
63a
100
AcDbEntity
  8
0
 62
7
100
AcDbPolyline
 90
1
 70
1
 10
90.572598
 20
300.890406
 30
0.0
  0
LWPOLYLINE
  5
63b
100
AcDbEntity
  8
0
 62
7
100
AcDbPolyline
 90
1
 70
1
 10
34.969328
 20
312.267489
 30
0.0
  0
SPLINE
  5
63c
100
AcDbEntity
  8
0
 62
7
100
AcDbSpline
 70
8
 71
3
 72
8
 73
4
 74
0
 40
0
 40
0
 40
0
 40
0
 40
1
 40
1
 40
1
 40
1
 10
476.521092
 20
395.941968
 30
0.0
 10
476.895954
 20
391.236764
 30
0.0
 10
477.618531
 20
386.434018
 30
0.0
 10
477.971961
 20
386.298395
 30
0.0
  0
SPLINE
  5
63d
100
AcDbEntity
  8
0
 62
7
100
AcDbSpline
 70
8
 71
3
 72
8
 73
4
 74
0
 40
0
 40
0
 40
0
 40
0
 40
1
 40
1
 40
1
 40
1
 10
477.971961
 20
386.298395
 30
0.0
 10
478.159260
 20
386.226521
 30
0.0
 10
483.584409
 20
386.733870
 30
0.0
 10
490.027886
 20
387.425838
 30
0.0
  0
SPLINE
  5
63e
100
AcDbEntity
  8
0
 62
7
100
AcDbSpline
 70
8
 71
3
 72
8
 73
4
 74
0
 40
0
 40
0
 40
0
 40
0
 40
1
 40
1
 40
1
 40
1
 10
490.027886
 20
387.425838
 30
0.0
 10
502.272644
 20
388.740819
 30
0.0
 10
506.057826
 20
388.914238
 30
0.0
 10
508.497364
 20
388.272020
 30
0.0
  0
SPLINE
  5
63f
100
AcDbEntity
  8
0
 62
7
100
AcDbSpline
 70
8
 71
3
 72
8
 73
4
 74
0
 40
0
 40
0
 40
0
 40
0
 40
1
 40
1
 40
1
 40
1
 10
508.497364
 20
388.272020
 30
0.0
 10
510.583180
 20
387.722922
 30
0.0
 10
511.647202
 20
386.965447
 30
0.0
 10
515.829497
 20
383.052164
 30
0.0
  0
SPLINE
  5
640
100
AcDbEntity
  8
0
 62
7
100
AcDbSpline
 70
8
 71
3
 72
8
 73
4
 74
0
 40
0
 40
0
 40
0
 40
0
 40
1
 40
1
 40
1
 40
1
 10
515.829497
 20
383.052164
 30
0.0
 10
519.984752
 20
379.164226
 30
0.0
 10
521.378921
 20
378.034584
 30
0.0
 10
522.035431
 20
378.023808
 30
0.0
  0
SPLINE
  5
641
100
AcDbEntity
  8
0
 62
7
100
AcDbSpline
 70
8
 71
3
 72
8
 73
4
 74
0
 40
0
 40
0
 40
0
 40
0
 40
1
 40
1
 40
1
 40
1
 10
522.035431
 20
378.023808
 30
0.0
 10
522.282103
 20
378.019760
 30
0.0
 10
522.989651
 20
377.476843
 30
0.0
 10
523.607797
 20
376.817326
 30
0.0
  0
SPLINE
  5
642
100
AcDbEntity
  8
0
 62
7
100
AcDbSpline
 70
8
 71
3
 72
8
 73
4
 74
0
 40
0
 40
0
 40
0
 40
0
 40
1
 40
1
 40
1
 40
1
 10
523.607797
 20
376.817326
 30
0.0
 10
525.359365
 20
374.948553
 30
0.0
 10
528.418055
 20
373.211976
 30
0.0
 10
534.022406
 20
370.904434
 30
0.0
  0
SPLINE
  5
643
100
AcDbEntity
  8
0
 62
7
100
AcDbSpline
 70
8
 71
3
 72
8
 73
4
 74
0
 40
0
 40
0
 40
0
 40
0
 40
1
 40
1
 40
1
 40
1
 10
534.022406
 20
370.904434
 30
0.0
 10
534.750010
 20
370.604852
 30
0.0
 10
539.232634
 20
369.410692
 30
0.0
 10
543.983783
 20
368.250750
 30
0.0
  0
SPLINE
  5
644
100
AcDbEntity
  8
0
 62
7
100
AcDbSpline
 70
8
 71
3
 72
8
 73
4
 74
0
 40
0
 40
0
 40
0
 40
0
 40
1
 40
1
 40
1
 40
1
 10
543.983783
 20
368.250750
 30
0.0
 10
551.785393
 20
366.346068
 30
0.0
 10
552.887541
 20
366.008669
 30
0.0
 10
555.360866
 20
364.767855
 30
0.0
  0
SPLINE
  5
645
100
AcDbEntity
  8
0
 62
7
100
AcDbSpline
 70
8
 71
3
 72
8
 73
4
 74
0
 40
0
 40
0
 40
0
 40
0
 40
1
 40
1
 40
1
 40
1
 10
555.360866
 20
364.767855
 30
0.0
 10
558.208498
 20
363.339253
 30
0.0
 10
561.539708
 20
360.852487
 30
0.0
 10
566.133959
 20
356.725657
 30
0.0
  0
SPLINE
  5
646
100
AcDbEntity
  8
0
 62
7
100
AcDbSpline
 70
8
 71
3
 72
8
 73
4
 74
0
 40
0
 40
0
 40
0
 40
0
 40
1
 40
1
 40
1
 40
1
 10
566.133959
 20
356.725657
 30
0.0
 10
567.496986
 20
355.501310
 30
0.0
 10
568.985268
 20
354.328688
 30
0.0
 10
569.441251
 20
354.119826
 30
0.0
  0
SPLINE
  5
647
100
AcDbEntity
  8
0
 62
7
100
AcDbSpline
 70
8
 71
3
 72
8
 73
4
 74
0
 40
0
 40
0
 40
0
 40
0
 40
1
 40
1
 40
1
 40
1
 10
569.441251
 20
354.119826
 30
0.0
 10
570.013835
 20
353.857560
 30
0.0
 10
572.275705
 20
353.641734
 30
0.0
 10
576.752614
 20
353.422188
 30
0.0
  0
SPLINE
  5
648
100
AcDbEntity
  8
0
 62
7
100
AcDbSpline
 70
8
 71
3
 72
8
 73
4
 74
0
 40
0
 40
0
 40
0
 40
0
 40
1
 40
1
 40
1
 40
1
 10
576.752614
 20
353.422188
 30
0.0
 10
580.317875
 20
353.247346
 30
0.0
 10
585.878093
 20
352.943620
 30
0.0
 10
589.108682
 20
352.747241
 30
0.0
  0
LWPOLYLINE
  5
649
100
AcDbEntity
  8
0
 62
7
100
AcDbPolyline
 90
7
 70
0
 10
602.104672
 20
323.909156
 30
0.0
 10
610.611608
 20
329.465406
 30
0.0
 10
610.615577
 20
363.927385
 30
0.0
 10
610.619281
 20
398.389363
 30
0.0
 10
543.472688
 20
398.389363
 30
0.0
 10
476.326094
 20
398.389363
 30
0.0
 10
476.521092
 20
395.941968
 30
0.0
  0
SPLINE
  5
64a
100
AcDbEntity
  8
0
 62
7
100
AcDbSpline
 70
8
 71
3
 72
8
 73
4
 74
0
 40
0
 40
0
 40
0
 40
0
 40
1
 40
1
 40
1
 40
1
 10
601.676391
 20
349.565174
 30
0.0
 10
605.358041
 20
348.011417
 30
0.0
 10
608.396384
 20
346.716649
 30
0.0
 10
608.428240
 20
346.687913
 30
0.0
  0
SPLINE
  5
64b
100
AcDbEntity
  8
0
 62
7
100
AcDbSpline
 70
8
 71
3
 72
8
 73
4
 74
0
 40
0
 40
0
 40
0
 40
0
 40
1
 40
1
 40
1
 40
1
 10
608.428240
 20
346.687913
 30
0.0
 10
608.460122
 20
346.659174
 30
0.0
 10
608.822363
 20
343.159308
 30
0.0
 10
609.233261
 20
338.910430
 30
0.0
  0
LWPOLYLINE
  5
64c
100
AcDbEntity
  8
0
 62
7
100
AcDbPolyline
 90
3
 70
0
 10
589.108682
 20
352.747241
 30
0.0
 10
594.982432
 20
352.390189
 30
0.0
 10
601.676391
 20
349.565174
 30
0.0
  0
SPLINE
  5
64d
100
AcDbEntity
  8
0
 62
7
100
AcDbSpline
 70
8
 71
3
 72
8
 73
4
 74
0
 40
0
 40
0
 40
0
 40
0
 40
1
 40
1
 40
1
 40
1
 10
600.375937
 20
330.457593
 30
0.0
 10
599.485402
 20
329.620756
 30
0.0
 10
598.050885
 20
327.221958
 30
0.0
 10
596.064314
 20
323.247697
 30
0.0
  0
SPLINE
  5
64e
100
AcDbEntity
  8
0
 62
7
100
AcDbSpline
 70
8
 71
3
 72
8
 73
4
 74
0
 40
0
 40
0
 40
0
 40
0
 40
1
 40
1
 40
1
 40
1
 10
596.064314
 20
323.247697
 30
0.0
 10
595.300541
 20
321.719728
 30
0.0
 10
594.317614
 20
319.948208
 30
0.0
 10
593.880046
 20
319.310986
 30
0.0
  0
SPLINE
  5
64f
100
AcDbEntity
  8
0
 62
7
100
AcDbSpline
 70
8
 71
3
 72
8
 73
4
 74
0
 40
0
 40
0
 40
0
 40
0
 40
1
 40
1
 40
1
 40
1
 10
593.880046
 20
319.310986
 30
0.0
 10
593.442451
 20
318.673763
 30
0.0
 10
593.199908
 20
318.197513
 30
0.0
 10
593.341037
 20
318.252652
 30
0.0
  0
SPLINE
  5
650
100
AcDbEntity
  8
0
 62
7
100
AcDbSpline
 70
8
 71
3
 72
8
 73
4
 74
0
 40
0
 40
0
 40
0
 40
0
 40
1
 40
1
 40
1
 40
1
 10
593.341037
 20
318.252652
 30
0.0
 10
593.482165
 20
318.307791
 30
0.0
 10
597.425754
 20
320.853218
 30
0.0
 10
602.104566
 20
323.909156
 30
0.0
  0
LWPOLYLINE
  5
651
100
AcDbEntity
  8
0
 62
7
100
AcDbPolyline
 90
5
 70
0
 10
609.233261
 20
338.910430
 30
0.0
 10
609.980365
 20
331.185197
 30
0.0
 10
605.565316
 20
331.185197
 30
0.0
 10
601.150240
 20
331.185197
 30
0.0
 10
600.375937
 20
330.457593
 30
0.0
  0
SPLINE
  5
652
100
AcDbEntity
  8
0
 62
7
100
AcDbSpline
 70
8
 71
3
 72
8
 73
4
 74
0
 40
0
 40
0
 40
0
 40
0
 40
1
 40
1
 40
1
 40
1
 10
186.610792
 20
367.197934
 30
0.0
 10
190.356868
 20
367.732937
 30
0.0
 10
195.740398
 20
368.768659
 30
0.0
 10
209.758579
 20
371.651263
 30
0.0
  0
SPLINE
  5
653
100
AcDbEntity
  8
0
 62
7
100
AcDbSpline
 70
8
 71
3
 72
8
 73
4
 74
0
 40
0
 40
0
 40
0
 40
0
 40
1
 40
1
 40
1
 40
1
 10
209.758579
 20
371.651263
 30
0.0
 10
214.042051
 20
372.532090
 30
0.0
 10
219.637988
 20
373.580454
 30
0.0
 10
222.193996
 20
373.980961
 30
0.0
  0
SPLINE
  5
654
100
AcDbEntity
  8
0
 62
7
100
AcDbSpline
 70
8
 71
3
 72
8
 73
4
 74
0
 40
0
 40
0
 40
0
 40
0
 40
1
 40
1
 40
1
 40
1
 10
222.193996
 20
373.980961
 30
0.0
 10
226.725012
 20
374.690939
 30
0.0
 10
227.112653
 20
374.708735
 30
0.0
 10
237.689186
 20
374.692392
 30
0.0
  0
SPLINE
  5
655
100
AcDbEntity
  8
0
 62
7
100
AcDbSpline
 70
8
 71
3
 72
8
 73
4
 74
0
 40
0
 40
0
 40
0
 40
0
 40
1
 40
1
 40
1
 40
1
 10
237.689186
 20
374.692392
 30
0.0
 10
248.730011
 20
374.675326
 30
0.0
 10
255.781924
 20
374.334164
 30
0.0
 10
267.416624
 20
373.254204
 30
0.0
  0
LWPOLYLINE
  5
656
100
AcDbEntity
  8
0
 62
7
100
AcDbPolyline
 90
2
 70
0
 10
602.104566
 20
323.909156
 30
0.0
 10
602.104672
 20
323.909156
 30
0.0
  0
SPLINE
  5
657
100
AcDbEntity
  8
0
 62
7
100
AcDbSpline
 70
8
 71
3
 72
8
 73
4
 74
0
 40
0
 40
0
 40
0
 40
0
 40
1
 40
1
 40
1
 40
1
 10
273.766624
 20
373.386533
 30
0.0
 10
274.382839
 20
373.790596
 30
0.0
 10
276.979221
 20
374.596549
 30
0.0
 10
280.960618
 20
375.619642
 30
0.0
  0
SPLINE
  5
658
100
AcDbEntity
  8
0
 62
7
100
AcDbSpline
 70
8
 71
3
 72
8
 73
4
 74
0
 40
0
 40
0
 40
0
 40
0
 40
1
 40
1
 40
1
 40
1
 10
280.960618
 20
375.619642
 30
0.0
 10
284.386973
 20
376.500117
 30
0.0
 10
289.149473
 20
377.863925
 30
0.0
 10
291.543952
 20
378.650331
 30
0.0
  0
SPLINE
  5
659
100
AcDbEntity
  8
0
 62
7
100
AcDbSpline
 70
8
 71
3
 72
8
 73
4
 74
0
 40
0
 40
0
 40
0
 40
0
 40
1
 40
1
 40
1
 40
1
 10
291.543952
 20
378.650331
 30
0.0
 10
293.938404
 20
379.436736
 30
0.0
 10
296.790480
 20
380.287697
 30
0.0
 10
297.881887
 20
380.541358
 30
0.0
  0
SPLINE
  5
65a
100
AcDbEntity
  8
0
 62
7
100
AcDbSpline
 70
8
 71
3
 72
8
 73
4
 74
0
 40
0
 40
0
 40
0
 40
0
 40
1
 40
1
 40
1
 40
1
 10
297.881887
 20
380.541358
 30
0.0
 10
299.198295
 20
380.847317
 30
0.0
 10
300.133438
 20
381.240964
 30
0.0
 10
300.660012
 20
381.710811
 30
0.0
  0
SPLINE
  5
65b
100
AcDbEntity
  8
0
 62
7
100
AcDbSpline
 70
8
 71
3
 72
8
 73
4
 74
0
 40
0
 40
0
 40
0
 40
0
 40
1
 40
1
 40
1
 40
1
 10
300.660012
 20
381.710811
 30
0.0
 10
301.096574
 20
382.100349
 30
0.0
 10
301.751418
 20
382.603338
 30
0.0
 10
302.115220
 20
382.828565
 30
0.0
  0
SPLINE
  5
65c
100
AcDbEntity
  8
0
 62
7
100
AcDbSpline
 70
8
 71
3
 72
8
 73
4
 74
0
 40
0
 40
0
 40
0
 40
0
 40
1
 40
1
 40
1
 40
1
 10
302.115220
 20
382.828565
 30
0.0
 10
302.479022
 20
383.053788
 30
0.0
 10
303.788710
 20
384.158979
 30
0.0
 10
305.025637
 20
385.284541
 30
0.0
  0
SPLINE
  5
65d
100
AcDbEntity
  8
0
 62
7
100
AcDbSpline
 70
8
 71
3
 72
8
 73
4
 74
0
 40
0
 40
0
 40
0
 40
0
 40
1
 40
1
 40
1
 40
1
 10
305.025637
 20
385.284541
 30
0.0
 10
308.069747
 20
388.054580
 30
0.0
 10
319.968933
 20
397.649426
 30
0.0
 10
320.852826
 20
398.046701
 30
0.0
  0
SPLINE
  5
65e
100
AcDbEntity
  8
0
 62
7
100
AcDbSpline
 70
8
 71
3
 72
8
 73
4
 74
0
 40
0
 40
0
 40
0
 40
0
 40
1
 40
1
 40
1
 40
1
 10
320.852826
 20
398.046701
 30
0.0
 10
321.407843
 20
398.296169
 30
0.0
 10
302.096355
 20
398.368090
 30
0.0
 10
232.048614
 20
398.377430
 30
0.0
  0
LWPOLYLINE
  5
65f
100
AcDbEntity
  8
0
 62
7
100
AcDbPolyline
 90
3
 70
0
 10
267.416624
 20
373.254204
 30
0.0
 10
272.802403
 20
372.754284
 30
0.0
 10
273.766624
 20
373.386533
 30
0.0
  0
SPLINE
  5
660
100
AcDbEntity
  8
0
 62
7
100
AcDbSpline
 70
8
 71
3
 72
8
 73
4
 74
0
 40
0
 40
0
 40
0
 40
0
 40
1
 40
1
 40
1
 40
1
 10
142.697340
 20
396.338843
 30
0.0
 10
142.892709
 20
393.869434
 30
0.0
 10
144.422953
 20
368.330705
 30
0.0
 10
144.423297
 20
367.533648
 30
0.0
  0
LWPOLYLINE
  5
661
100
AcDbEntity
  8
0
 62
7
100
AcDbPolyline
 90
3
 70
0
 10
232.048614
 20
398.377430
 30
0.0
 10
142.535124
 20
398.389363
 30
0.0
 10
142.697340
 20
396.338843
 30
0.0
  0
SPLINE
  5
662
100
AcDbEntity
  8
0
 62
7
100
AcDbSpline
 70
8
 71
3
 72
8
 73
4
 74
0
 40
0
 40
0
 40
0
 40
0
 40
1
 40
1
 40
1
 40
1
 10
160.232151
 20
366.706973
 30
0.0
 10
178.260542
 20
366.403911
 30
0.0
 10
181.468932
 20
366.463625
 30
0.0
 10
186.610527
 20
367.197934
 30
0.0
  0
LWPOLYLINE
  5
663
100
AcDbEntity
  8
0
 62
7
100
AcDbPolyline
 90
3
 70
0
 10
144.423297
 20
367.533648
 30
0.0
 10
144.423297
 20
366.972723
 30
0.0
 10
160.232151
 20
366.706973
 30
0.0
  0
LWPOLYLINE
  5
664
100
AcDbEntity
  8
0
 62
7
100
AcDbPolyline
 90
2
 70
0
 10
186.610527
 20
367.197934
 30
0.0
 10
186.610792
 20
367.197934
 30
0.0
  0
SPLINE
  5
665
100
AcDbEntity
  8
0
 62
7
100
AcDbSpline
 70
8
 71
3
 72
8
 73
4
 74
0
 40
0
 40
0
 40
0
 40
0
 40
1
 40
1
 40
1
 40
1
 10
437.987043
 20
379.064060
 30
0.0
 10
437.582284
 20
390.442408
 30
0.0
 10
437.285077
 20
397.250924
 30
0.0
 10
437.169401
 20
397.794050
 30
0.0
  0
LWPOLYLINE
  5
666
100
AcDbEntity
  8
0
 62
7
100
AcDbPolyline
 90
3
 70
0
 10
434.822679
 20
373.177080
 30
0.0
 10
438.142724
 20
374.687711
 30
0.0
 10
437.987043
 20
379.064060
 30
0.0
  0
SPLINE
  5
667
100
AcDbEntity
  8
0
 62
7
100
AcDbSpline
 70
8
 71
3
 72
8
 73
4
 74
0
 40
0
 40
0
 40
0
 40
0
 40
1
 40
1
 40
1
 40
1
 10
389.063918
 20
397.562540
 30
0.0
 10
388.972981
 20
397.107787
 30
0.0
 10
388.890748
 20
396.304116
 30
0.0
 10
388.881197
 20
395.776603
 30
0.0
  0
SPLINE
  5
668
100
AcDbEntity
  8
0
 62
7
100
AcDbSpline
 70
8
 71
3
 72
8
 73
4
 74
0
 40
0
 40
0
 40
0
 40
0
 40
1
 40
1
 40
1
 40
1
 10
388.881197
 20
395.776603
 30
0.0
 10
388.865586
 20
394.919570
 30
0.0
 10
388.805155
 20
395.007571
 30
0.0
 10
388.312607
 20
396.603426
 30
0.0
  0
LWPOLYLINE
  5
669
100
AcDbEntity
  8
0
 62
7
100
AcDbPolyline
 90
5
 70
0
 10
437.169401
 20
397.794050
 30
0.0
 10
437.042639
 20
398.389363
 30
0.0
 10
413.135948
 20
398.389363
 30
0.0
 10
389.229282
 20
398.389363
 30
0.0
 10
389.063918
 20
397.562540
 30
0.0
  0
SPLINE
  5
66a
100
AcDbEntity
  8
0
 62
7
100
AcDbSpline
 70
8
 71
3
 72
8
 73
4
 74
0
 40
0
 40
0
 40
0
 40
0
 40
1
 40
1
 40
1
 40
1
 10
375.968048
 20
398.389363
 30
0.0
 10
364.471797
 20
398.389363
 30
0.0
 10
364.187846
 20
398.377007
 30
0.0
 10
364.696534
 20
397.898675
 30
0.0
  0
SPLINE
  5
66b
100
AcDbEntity
  8
0
 62
7
100
AcDbSpline
 70
8
 71
3
 72
8
 73
4
 74
0
 40
0
 40
0
 40
0
 40
0
 40
1
 40
1
 40
1
 40
1
 10
364.696534
 20
397.898675
 30
0.0
 10
364.983527
 20
397.628797
 30
0.0
 10
367.063814
 20
395.825141
 30
0.0
 10
369.319387
 20
393.890548
 30
0.0
  0
SPLINE
  5
66c
100
AcDbEntity
  8
0
 62
7
100
AcDbSpline
 70
8
 71
3
 72
8
 73
4
 74
0
 40
0
 40
0
 40
0
 40
0
 40
1
 40
1
 40
1
 40
1
 10
369.319387
 20
393.890548
 30
0.0
 10
371.574960
 20
391.955951
 30
0.0
 10
373.896678
 20
389.924645
 30
0.0
 10
374.478762
 20
389.376531
 30
0.0
  0
LWPOLYLINE
  5
66d
100
AcDbEntity
  8
0
 62
7
100
AcDbPolyline
 90
3
 70
0
 10
388.312607
 20
396.603426
 30
0.0
 10
387.761374
 20
398.389363
 30
0.0
 10
375.968048
 20
398.389363
 30
0.0
  0
SPLINE
  5
66e
100
AcDbEntity
  8
0
 62
7
100
AcDbSpline
 70
8
 71
3
 72
8
 73
4
 74
0
 40
0
 40
0
 40
0
 40
0
 40
1
 40
1
 40
1
 40
1
 10
381.622512
 20
387.827562
 30
0.0
 10
390.696873
 20
387.003851
 30
0.0
 10
396.857273
 20
386.672979
 30
0.0
 10
400.407928
 20
386.818611
 30
0.0
  0
LWPOLYLINE
  5
66f
100
AcDbEntity
  8
0
 62
7
100
AcDbPolyline
 90
3
 70
0
 10
374.478762
 20
389.376531
 30
0.0
 10
375.537095
 20
388.379959
 30
0.0
 10
381.622512
 20
387.827562
 30
0.0
  0
SPLINE
  5
670
100
AcDbEntity
  8
0
 62
7
100
AcDbSpline
 70
8
 71
3
 72
8
 73
4
 74
0
 40
0
 40
0
 40
0
 40
0
 40
1
 40
1
 40
1
 40
1
 10
406.096470
 20
385.407493
 30
0.0
 10
407.478918
 20
384.559754
 30
0.0
 10
409.068746
 20
383.591763
 30
0.0
 10
409.629451
 20
383.256401
 30
0.0
  0
SPLINE
  5
671
100
AcDbEntity
  8
0
 62
7
100
AcDbSpline
 70
8
 71
3
 72
8
 73
4
 74
0
 40
0
 40
0
 40
0
 40
0
 40
1
 40
1
 40
1
 40
1
 10
409.629451
 20
383.256401
 30
0.0
 10
410.190130
 20
382.921042
 30
0.0
 10
411.790700
 20
381.396499
 30
0.0
 10
413.186245
 20
379.868531
 30
0.0
  0
SPLINE
  5
672
100
AcDbEntity
  8
0
 62
7
100
AcDbSpline
 70
8
 71
3
 72
8
 73
4
 74
0
 40
0
 40
0
 40
0
 40
0
 40
1
 40
1
 40
1
 40
1
 10
413.186245
 20
379.868531
 30
0.0
 10
415.572972
 20
377.255371
 30
0.0
 10
417.050934
 20
375.899781
 30
0.0
 10
417.513320
 20
375.899781
 30
0.0
  0
SPLINE
  5
673
100
AcDbEntity
  8
0
 62
7
100
AcDbSpline
 70
8
 71
3
 72
8
 73
4
 74
0
 40
0
 40
0
 40
0
 40
0
 40
1
 40
1
 40
1
 40
1
 10
417.513320
 20
375.899781
 30
0.0
 10
417.624154
 20
375.899781
 30
0.0
 10
418.300032
 20
375.554745
 30
0.0
 10
419.015254
 20
375.133039
 30
0.0
  0
SPLINE
  5
674
100
AcDbEntity
  8
0
 62
7
100
AcDbSpline
 70
8
 71
3
 72
8
 73
4
 74
0
 40
0
 40
0
 40
0
 40
0
 40
1
 40
1
 40
1
 40
1
 10
419.015254
 20
375.133039
 30
0.0
 10
420.867179
 20
374.041096
 30
0.0
 10
424.698239
 20
372.562244
 30
0.0
 10
426.866262
 20
372.102412
 30
0.0
  0
SPLINE
  5
675
100
AcDbEntity
  8
0
 62
7
100
AcDbSpline
 70
8
 71
3
 72
8
 73
4
 74
0
 40
0
 40
0
 40
0
 40
0
 40
1
 40
1
 40
1
 40
1
 10
426.866262
 20
372.102412
 30
0.0
 10
430.282482
 20
371.377840
 30
0.0
 10
431.115629
 20
371.490375
 30
0.0
 10
434.822679
 20
373.177080
 30
0.0
  0
LWPOLYLINE
  5
676
100
AcDbEntity
  8
0
 62
7
100
AcDbPolyline
 90
3
 70
0
 10
400.407928
 20
386.818611
 30
0.0
 10
403.582928
 20
386.948836
 30
0.0
 10
406.096470
 20
385.407493
 30
0.0
  0
LWPOLYLINE
  5
677
100
AcDbEntity
  8
0
 62
7
100
AcDbPolyline
 90
1
 70
1
 10
434.822679
 20
373.177080
 30
0.0
  0
ENDSEC
  0
SECTION
  2
OBJECTS
  0
DICTIONARY
  5
C
330
0
100
AcDbDictionary
  3
ACAD_GROUP
350
D
  3
ACAD_MLINESTYLE
350
17
  0
DICTIONARY
  5
D
330
C
100
AcDbDictionary
  0
DICTIONARY
  5
1A
330
C
100
AcDbDictionary
  0
DICTIONARY
  5
17
330
C
100
AcDbDictionary
  3
STANDARD
350
18
  0
DICTIONARY
  5
19
330
C
100
AcDbDictionary
  0
ENDSEC
  0
EOF
