  0
SECTION
  2
HEADER
  9
$ACADVER
  1
AC1018
  9
$ACADMAINTVER
 70
     0
  9
$DWGCODEPAGE
  3
ANSI_1256
  9
$INSBASE
 10
0.0
 20
0.0
 30
0.0
  9
$EXTMIN
 10
0.0
 20
0.0
 30
0.0
  9
$EXTMAX
 10
176.022
 20
350.012
 30
0.0
  9
$LIMMIN
 10
0.0
 20
0.0
  9
$LIMMAX
 10
12.0
 20
9.0
  9
$ORTHOMODE
 70
     0
  9
$REGENMODE
 70
     1
  9
$FILLMODE
 70
     1
  9
$QTEXTMODE
 70
     0
  9
$MIRRTEXT
 70
     1
  9
$LTSCALE
 40
1.0
  9
$ATTMODE
 70
     1
  9
$TEXTSIZE
 40
0.2
  9
$TRACEWID
 40
0.05
  9
$TEXTSTYLE
  7
Standard
  9
$CLAYER
  8
0
  9
$CELTYPE
  6
ByBlock
  9
$CECOLOR
 62
   256
  9
$CELTSCALE
 40
1.0
  9
$DISPSILH
 70
     0
  9
$DIMSCALE
 40
1.0
  9
$DIMASZ
 40
0.18
  9
$DIMEXO
 40
0.0625
  9
$DIMDLI
 40
0.38
  9
$DIMRND
 40
0.0
  9
$DIMDLE
 40
0.0
  9
$DIMEXE
 40
0.18
  9
$DIMTP
 40
0.0
  9
$DIMTM
 40
0.0
  9
$DIMTXT
 40
0.18
  9
$DIMCEN
 40
0.09
  9
$DIMTSZ
 40
0.0
  9
$DIMTOL
 70
     0
  9
$DIMLIM
 70
     0
  9
$DIMTIH
 70
     1
  9
$DIMTOH
 70
     1
  9
$DIMSE1
 70
     0
  9
$DIMSE2
 70
     0
  9
$DIMTAD
 70
     0
  9
$DIMZIN
 70
     0
  9
$DIMBLK
  1

  9
$DIMASO
 70
     1
  9
$DIMSHO
 70
     1
  9
$DIMPOST
  1

  9
$DIMAPOST
  1

  9
$DIMALT
 70
     0
  9
$DIMALTD
 70
     2
  9
$DIMALTF
 40
25.4
  9
$DIMLFAC
 40
1.0
  9
$DIMTOFL
 70
     0
  9
$DIMTVP
 40
0.0
  9
$DIMTIX
 70
     0
  9
$DIMSOXD
 70
     0
  9
$DIMSAH
 70
     0
  9
$DIMBLK1
  1

  9
$DIMBLK2
  1

  9
$DIMSTYLE
  2
Standard
  9
$DIMCLRD
 70
     0
  9
$DIMCLRE
 70
     0
  9
$DIMCLRT
 70
     0
  9
$DIMTFAC
 40
1.0
  9
$DIMGAP
 40
0.09
  9
$DIMJUST
 70
     0
  9
$DIMSD1
 70
     0
  9
$DIMSD2
 70
     0
  9
$DIMTOLJ
 70
     1
  9
$DIMTZIN
 70
     0
  9
$DIMALTZ
 70
     0
  9
$DIMALTTZ
 70
     0
  9
$DIMUPT
 70
     0
  9
$DIMDEC
 70
     4
  9
$DIMTDEC
 70
     4
  9
$DIMALTU
 70
     2
  9
$DIMALTTD
 70
     2
  9
$DIMTXSTY
  7
Standard
  9
$DIMAUNIT
 70
     0
  9
$DIMADEC
 70
     0
  9
$DIMALTRND
 40
0.0
  9
$DIMAZIN
 70
     0
  9
$DIMDSEP
 70
    46
  9
$DIMATFIT
 70
     3
  9
$DIMFRAC
 70
     0
  9
$DIMLDRBLK
  1

  9
$DIMLUNIT
 70
     2
  9
$DIMLWD
 70
    -2
  9
$DIMLWE
 70
    -2
  9
$DIMTMOVE
 70
     2
  9
$LUNITS
 70
     2
  9
$LUPREC
 70
     4
  9
$SKETCHINC
 40
0.1
  9
$FILLETRAD
 40
0.5
  9
$AUNITS
 70
     0
  9
$AUPREC
 70
     0
  9
$MENU
  1
.
  9
$ELEVATION
 40
0.0
  9
$PELEVATION
 40
0.0
  9
$THICKNESS
 40
0.0
  9
$LIMCHECK
 70
     0
  9
$CHAMFERA
 40
0.0
  9
$CHAMFERB
 40
0.0
  9
$CHAMFERC
 40
0.0
  9
$CHAMFERD
 40
0.0
  9
$SKPOLY
 70
     0
  9
$TDCREATE
 40
2457957.59486728
  9
$TDUCREATE
 40
2457957.46986728
  9
$TDUPDATE
 40
2457957.594867755
  9
$TDUUPDATE
 40
2457957.469867755
  9
$TDINDWG
 40
0.0000000116
  9
$TDUSRTIMER
 40
0.0000000116
  9
$USRTIMER
 70
     1
  9
$ANGBASE
 50
0.0
  9
$ANGDIR
 70
     0
  9
$PDMODE
 70
     0
  9
$PDSIZE
 40
0.0
  9
$PLINEWID
 40
0.0
  9
$SPLFRAME
 70
     0
  9
$SPLINETYPE
 70
     6
  9
$SPLINESEGS
 70
     8
  9
$HANDSEED
  5
BE8
  9
$SURFTAB1
 70
     6
  9
$SURFTAB2
 70
     6
  9
$SURFTYPE
 70
     6
  9
$SURFU
 70
     6
  9
$SURFV
 70
     6
  9
$UCSBASE
  2

  9
$UCSNAME
  2

  9
$UCSORG
 10
0.0
 20
0.0
 30
0.0
  9
$UCSXDIR
 10
1.0
 20
0.0
 30
0.0
  9
$UCSYDIR
 10
0.0
 20
1.0
 30
0.0
  9
$UCSORTHOREF
  2

  9
$UCSORTHOVIEW
 70
     0
  9
$UCSORGTOP
 10
0.0
 20
0.0
 30
0.0
  9
$UCSORGBOTTOM
 10
0.0
 20
0.0
 30
0.0
  9
$UCSORGLEFT
 10
0.0
 20
0.0
 30
0.0
  9
$UCSORGRIGHT
 10
0.0
 20
0.0
 30
0.0
  9
$UCSORGFRONT
 10
0.0
 20
0.0
 30
0.0
  9
$UCSORGBACK
 10
0.0
 20
0.0
 30
0.0
  9
$PUCSBASE
  2

  9
$PUCSNAME
  2

  9
$PUCSORG
 10
0.0
 20
0.0
 30
0.0
  9
$PUCSXDIR
 10
1.0
 20
0.0
 30
0.0
  9
$PUCSYDIR
 10
0.0
 20
1.0
 30
0.0
  9
$PUCSORTHOREF
  2

  9
$PUCSORTHOVIEW
 70
     0
  9
$PUCSORGTOP
 10
0.0
 20
0.0
 30
0.0
  9
$PUCSORGBOTTOM
 10
0.0
 20
0.0
 30
0.0
  9
$PUCSORGLEFT
 10
0.0
 20
0.0
 30
0.0
  9
$PUCSORGRIGHT
 10
0.0
 20
0.0
 30
0.0
  9
$PUCSORGFRONT
 10
0.0
 20
0.0
 30
0.0
  9
$PUCSORGBACK
 10
0.0
 20
0.0
 30
0.0
  9
$USERI1
 70
     0
  9
$USERI2
 70
     0
  9
$USERI3
 70
     0
  9
$USERI4
 70
     0
  9
$USERI5
 70
     0
  9
$USERR1
 40
0.0
  9
$USERR2
 40
0.0
  9
$USERR3
 40
0.0
  9
$USERR4
 40
0.0
  9
$USERR5
 40
0.0
  9
$WORLDVIEW
 70
     1
  9
$SHADEDGE
 70
     3
  9
$SHADEDIF
 70
    70
  9
$TILEMODE
 70
     1
  9
$MAXACTVP
 70
    64
  9
$PINSBASE
 10
0.0
 20
0.0
 30
0.0
  9
$PLIMCHECK
 70
     0
  9
$PEXTMIN
 10
1.000000000000000E+20
 20
1.000000000000000E+20
 30
1.000000000000000E+20
  9
$PEXTMAX
 10
-1.000000000000000E+20
 20
-1.000000000000000E+20
 30
-1.000000000000000E+20
  9
$PLIMMIN
 10
0.0
 20
0.0
  9
$PLIMMAX
 10
12.0
 20
9.0
  9
$UNITMODE
 70
     0
  9
$VISRETAIN
 70
     1
  9
$PLINEGEN
 70
     0
  9
$PSLTSCALE
 70
     1
  9
$TREEDEPTH
 70
  3020
  9
$CMLSTYLE
  2
Standard
  9
$CMLJUST
 70
     0
  9
$CMLSCALE
 40
1.0
  9
$PROXYGRAPHICS
 70
     1
  9
$MEASUREMENT
 70
     0
  9
$CELWEIGHT
370
    -1
  9
$ENDCAPS
280
     0
  9
$JOINSTYLE
280
     0
  9
$LWDISPLAY
290
     0
  9
$INSUNITS
 70
     0
  9
$HYPERLINKBASE
  1

  9
$STYLESHEET
  1

  9
$XEDIT
290
     1
  9
$CEPSNTYPE
380
     0
  9
$PSTYLEMODE
290
     1
  9
$FINGERPRINTGUID
  2
{D3E62714-3C4D-4D5D-8223-550571362D44}
  9
$VERSIONGUID
  2
{FAEB1C32-E019-11D5-929B-00C0DF256EC4}
  9
$EXTNAMES
290
     1
  9
$PSVPSCALE
 40
0.0
  9
$OLESTARTUP
290
     0
  9
$SORTENTS
280
   127
  9
$INDEXCTL
280
     0
  9
$HIDETEXT
280
     1
  9
$XCLIPFRAME
290
     0
  9
$HALOGAP
280
     0
  9
$OBSCOLOR
 70
   257
  9
$OBSLTYPE
280
     0
  9
$INTERSECTIONDISPLAY
280
     0
  9
$INTERSECTIONCOLOR
 70
   257
  9
$DIMASSOC
280
     2
  9
$PROJECTNAME
  1

  0
ENDSEC
  0
SECTION
  2
CLASSES
  0
CLASS
  1
ACDBDICTIONARYWDFLT
  2
AcDbDictionaryWithDefault
  3
ObjectDBX Classes
 90
        0
 91
        4
280
     0
281
     0
  0
CLASS
  1
SCALE
  2
AcDbScale
  3
ObjectDBX Classes
 90
     1153
 91
        4
280
     0
281
     0
  0
CLASS
  1
VISUALSTYLE
  2
AcDbVisualStyle
  3
ObjectDBX Classes
 90
     4095
 91
        4
280
     0
281
     0
  0
CLASS
  1
MATERIAL
  2
AcDbMaterial
  3
ObjectDBX Classes
 90
     1153
 91
        4
280
     0
281
     0
  0
CLASS
  1
TABLESTYLE
  2
AcDbTableStyle
  3
ObjectDBX Classes
 90
     4095
 91
        4
280
     0
281
     0
  0
CLASS
  1
MLEADERSTYLE
  2
AcDbMLeaderStyle
  3
ACDB_MLEADERSTYLE_CLASS
 90
     4095
 91
        4
280
     0
281
     0
  0
CLASS
  1
DICTIONARYVAR
  2
AcDbDictionaryVar
  3
ObjectDBX Classes
 90
        0
 91
        4
280
     0
281
     0
  0
CLASS
  1
CELLSTYLEMAP
  2
AcDbCellStyleMap
  3
ObjectDBX Classes
 90
     1152
 91
        4
280
     0
281
     0
  0
ENDSEC
  0
SECTION
  2
TABLES
  0
TABLE
  2
VPORT
  5
8
102
{ACAD_XDICTIONARY
360
BA1
102
}
330
0
100
AcDbSymbolTable
 70
     1
  0
VPORT
  5
21
330
8
100
AcDbSymbolTableRecord
100
AcDbViewportTableRecord
  2
*Active
 70
     0
 10
0.0
 20
0.0
 11
1.0
 21
1.0
 12
10.42990654205607
 22
4.5
 13
0.0
 23
0.0
 14
0.5
 24
0.5
 15
0.5
 25
0.5
 16
0.0
 26
0.0
 36
1.0
 17
0.0
 27
0.0
 37
0.0
 40
9.0
 41
1.972972972850329
 42
50.0
 43
0.0
 44
0.0
 50
0.0
 51
0.0
 71
     0
 72
   100
 73
     1
 74
     3
 75
     0
 76
     0
 77
     0
 78
     0
281
     0
 65
     1
110
0.0
120
0.0
130
0.0
111
1.0
121
0.0
131
0.0
112
0.0
122
1.0
132
0.0
 79
     0
146
0.0
  0
ENDTAB
  0
TABLE
  2
LTYPE
  5
5
330
0
100
AcDbSymbolTable
 70
     1
  0
LTYPE
  5
14
330
5
100
AcDbSymbolTableRecord
100
AcDbLinetypeTableRecord
  2
ByBlock
 70
     0
  3

 72
    65
 73
     0
 40
0.0
  0
LTYPE
  5
15
330
5
100
AcDbSymbolTableRecord
100
AcDbLinetypeTableRecord
  2
ByLayer
 70
     0
  3

 72
    65
 73
     0
 40
0.0
  0
LTYPE
  5
16
330
5
100
AcDbSymbolTableRecord
100
AcDbLinetypeTableRecord
  2
Continuous
 70
     0
  3
Solid line
 72
    65
 73
     0
 40
0.0
  0
ENDTAB
  0
TABLE
  2
LAYER
  5
2
330
0
100
AcDbSymbolTable
 70
     1
  0
LAYER
  5
10
330
2
100
AcDbSymbolTableRecord
100
AcDbLayerTableRecord
  2
0
 70
     0
 62
     7
  6
Continuous
370
    -3
390
F
  0
ENDTAB
  0
TABLE
  2
STYLE
  5
3
330
0
100
AcDbSymbolTable
 70
     1
  0
STYLE
  5
11
330
3
100
AcDbSymbolTableRecord
100
AcDbTextStyleTableRecord
  2
Standard
 70
     0
 40
0.0
 41
1.0
 50
0.0
 71
     0
 42
0.2
  3
txt
  4

  0
ENDTAB
  0
TABLE
  2
VIEW
  5
6
330
0
100
AcDbSymbolTable
 70
     0
  0
ENDTAB
  0
TABLE
  2
UCS
  5
7
330
0
100
AcDbSymbolTable
 70
     0
  0
ENDTAB
  0
TABLE
  2
APPID
  5
9
330
0
100
AcDbSymbolTable
 70
     2
  0
APPID
  5
12
330
9
100
AcDbSymbolTableRecord
100
AcDbRegAppTableRecord
  2
ACAD
 70
     0
  0
APPID
  5
BDF
330
9
100
AcDbSymbolTableRecord
100
AcDbRegAppTableRecord
  2
ACAD_MLEADERVER
 70
     0
  0
ENDTAB
  0
TABLE
  2
DIMSTYLE
  5
A
330
0
100
AcDbSymbolTable
 70
     1
100
AcDbDimStyleTable
  0
DIMSTYLE
105
20
330
A
100
AcDbSymbolTableRecord
100
AcDbDimStyleTableRecord
  2
Standard
 70
     0
178
     0
340
11
  0
ENDTAB
  0
TABLE
  2
BLOCK_RECORD
  5
1
330
0
100
AcDbSymbolTable
 70
     0
  0
BLOCK_RECORD
  5
1D
330
1
100
AcDbSymbolTableRecord
100
AcDbBlockTableRecord
  2
*Model_Space
340
1E
  0
BLOCK_RECORD
  5
1B
330
1
100
AcDbSymbolTableRecord
100
AcDbBlockTableRecord
  2
*Paper_Space
340
1C
  0
ENDTAB
  0
ENDSEC
  0
SECTION
  2
BLOCKS
  0
BLOCK
  5
B7C
330
1D
100
AcDbEntity
  8
0
100
AcDbBlockBegin
  2
*Model_Space
 70
     0
 10
0.0
 20
0.0
 30
0.0
  3
*Model_Space
  1

  0
ENDBLK
  5
B7D
330
1D
100
AcDbEntity
  8
0
100
AcDbBlockEnd
  0
BLOCK
  5
B7E
330
1B
100
AcDbEntity
 67
     1
  8
0
100
AcDbBlockBegin
  2
*Paper_Space
 70
     0
 10
0.0
 20
0.0
 30
0.0
  3
*Paper_Space
  1

  0
ENDBLK
  5
B7F
330
1B
100
AcDbEntity
 67
     1
  8
0
100
AcDbBlockEnd
  0
ENDSEC
  0
SECTION
  2
ENTITIES
  0
LWPOLYLINE
  5
22
330
1D
100
AcDbEntity
  8
0
100
AcDbPolyline
 90
        8
 70
     1
 43
0.0
 10
88.011
 20
350.012
 10
0.0
 20
350.012
 10
0.0
 20
175.006
 10
0.0
 20
0.0
 10
88.011
 20
0.0
 10
176.022
 20
0.0
 10
176.022
 20
175.006
 10
176.022
 20
350.012
  0
LWPOLYLINE
  5
2C
330
1D
100
AcDbEntity
  8
0
100
AcDbPolyline
 90
       44
 70
     1
 43
0.0
 10
16.008983
 20
344.13541
 42
-0.001537
 10
20.337848
 20
344.141411
 42
-0.010415
 10
22.478763
 20
344.093193
 42
-0.017657
 10
23.752041
 20
343.992833
 42
-0.124905
 10
24.327483
 20
343.774597
 42
-0.063158
 10
24.590426
 20
343.535872
 42
-0.077613
 10
24.764241
 20
343.254002
 42
-0.066366
 10
24.860995
 20
342.897646
 42
-0.033157
 10
24.892
 20
342.430615
 42
-0.098171
 10
24.74161
 20
341.672036
 42
-0.016314
 10
24.126375
 20
340.309229
 42
-0.011115
 10
23.054402
 20
338.244677
 42
-0.002465
 10
21.123998
 20
334.761518
 42
-0.000408
 10
19.409954
 20
331.710227
 42
-0.000242
 10
17.361795
 20
328.075227
 42
-0.000242
 10
15.315312
 20
324.451407
 42
-0.000417
 10
13.607736
 20
321.437
 42
-0.00321
 10
12.126202
 20
318.865311
 42
-0.004592
 10
10.776669
 20
316.605047
 42
-0.002563
 10
9.611323
 20
314.715249
 42
-0.068381
 10
9.233574
 20
314.2615
 42
-0.049369
 10
8.940302
 20
314.042535
 42
-0.035923
 10
8.577294
 20
313.857743
 42
-0.036557
 10
8.203281
 20
313.731316
 42
-0.063307
 10
7.878271
 20
313.69
 42
-0.060512
 10
7.525523
 20
313.732848
 42
-0.06276
 10
7.197918
 20
313.858826
 42
-0.058935
 10
6.895211
 20
314.070484
 42
-0.044115
 10
6.616204
 20
314.367175
 42
-0.135344
 10
6.288459
 20
315.147881
 42
-0.024171
 10
6.160748
 20
316.739306
 42
-0.008669
 10
6.116868
 20
319.784999
 42
-0.000521
 10
6.153269
 20
328.945663
 42
-0.000614
 10
6.207235
 20
337.588408
 42
-0.007502
 10
6.281553
 20
340.894542
 42
-0.014695
 10
6.403035
 20
342.708597
 42
-0.16124
 10
6.694025
 20
343.367298
 42
-0.04037
 10
6.914309
 20
343.574327
 42
-0.030217
 10
7.186773
 20
343.766089
 42
-0.030876
 10
7.467296
 20
343.916124
 42
-0.059127
 10
7.710025
 20
343.99422
 42
-0.043324
 10
8.119125
 20
344.037984
 42
-0.000742
 10
10.372646
 20
344.079667
 42
-0.001885
 10
12.998023
 20
344.114433
 42
-0.001253
  0
LWPOLYLINE
  5
5A
330
1D
100
AcDbEntity
  8
0
100
AcDbPolyline
 90
       56
 70
     1
 43
0.0
 10
47.407976
 20
344.112674
 42
-0.000602
 10
56.057299
 20
344.058434
 42
-0.007812
 10
59.278458
 20
343.984013
 42
-0.016477
 10
61.025167
 20
343.858604
 42
-0.15909
 10
61.695476
 20
343.559133
 42
-0.061276
 10
61.932597
 20
343.284762
 42
-0.059213
 10
62.099397
 20
342.958024
 42
-0.053118
 10
62.197539
 20
342.569764
 42
-0.035378
 10
62.23
 20
342.11156
 42
-0.035926
 10
62.192258
 20
341.586966
 42
-0.08507
 10
62.071914
 20
341.215592
 42
-0.081728
 10
61.831332
 20
340.896612
 42
-0.031292
 10
61.4045
 20
340.537869
 42
-0.02383
 10
60.852675
 20
340.16941
 42
-0.001963
 10
59.366547
 20
339.284333
 42
-0.002625
 10
57.583185
 20
338.244281
 42
-0.002019
 10
55.626
 20
337.127086
 42
-0.000692
 10
53.070127
 20
335.686467
 42
-0.00022
 10
49.255363
 20
333.545428
 42
-0.000219
 10
45.001189
 20
331.162678
 42
-0.000244
 10
40.894
 20
328.867247
 42
-0.000129
 10
36.871228
 20
326.622934
 42
-0.000131
 10
32.870589
 20
324.393701
 42
-0.000128
 10
29.391605
 20
322.457505
 42
-0.000544
 10
27.312474
 20
321.304039
 42
-0.002224
 10
25.776432
 20
320.462955
 42
-0.002573
 10
24.305618
 20
319.675833
 42
-0.002298
 10
23.053636
 20
319.021428
 42
-0.015144
 10
22.416089
 20
318.716003
 42
-0.026192
 10
21.960277
 20
318.542297
 42
-0.027595
 10
21.496614
 20
318.420663
 42
-0.028678
 10
21.087664
 20
318.361349
 42
-0.098826
 10
20.822619
 20
318.390708
 42
-0.038031
 10
20.603512
 20
318.479076
 42
-0.022709
 10
20.357408
 20
318.615059
 42
-0.022658
 10
20.123252
 20
318.773714
 42
-0.036161
 10
19.940504
 20
318.931782
 42
-0.07948
 10
19.793729
 20
319.134459
 42
-0.03792
 10
19.67036
 20
319.4326
 42
-0.036355
 10
19.586204
 20
319.770839
 42
-0.042821
 10
19.558
 20
320.099561
 42
-0.091661
 10
19.653333
 20
320.615223
 42
-0.01414
 10
20.054443
 20
321.580304
 42
-0.013511
 10
20.650571
 20
322.816912
 42
-0.006925
 10
21.460924
 20
324.335918
 42
-0.002291
 10
22.484398
 20
326.172107
 42
-0.000613
 10
24.129845
 20
329.08426
 42
-0.000621
 10
26.007973
 20
332.389153
 42
-0.000641
 10
27.874424
 20
335.654285
 42
-0.002566
 10
29.956901
 20
339.243696
 42
-0.007421
 10
31.44825
 20
341.699857
 42
-0.005699
 10
32.575773
 20
343.451513
 42
-0.127616
 10
33.02
 20
343.851959
 42
-0.111543
 10
33.700574
 20
344.031249
 42
-0.004325
 10
36.314557
 20
344.101239
 42
-0.00483
 10
40.299743
 20
344.134949
 42
-0.000966
  0
LWPOLYLINE
  5
94
330
1D
100
AcDbEntity
  8
0
100
AcDbPolyline
 90
       44
 70
     1
 43
0.0
 10
168.529
 20
343.957644
 42
-0.047746
 10
168.862436
 20
343.8826
 42
-0.02982
 10
169.235041
 20
343.735323
 42
-0.029791
 10
169.5882
 20
343.544403
 42
-0.046962
 10
169.8625
 20
343.336302
 10
170.434
 20
342.811448
 10
170.434
 20
328.747179
 10
170.434
 20
314.682909
 10
169.810545
 20
314.059455
 42
-0.045043
 10
169.524593
 20
313.820853
 42
-0.036954
 10
169.181485
 20
313.61914
 42
-0.038352
 10
168.835634
 20
313.480628
 42
-0.076214
 10
168.544553
 20
313.436
 42
-0.081787
 10
168.246012
 20
313.485162
 42
-0.035684
 10
167.874668
 20
313.641184
 42
-0.034093
 10
167.495279
 20
313.867189
 42
-0.038542
 10
167.16638
 20
314.1345
 42
-0.061741
 10
166.73101
 20
314.664203
 42
-0.003241
 10
165.56577
 20
316.530434
 42
-0.005075
 10
164.213854
 20
318.778002
 42
-0.003666
 10
162.750511
 20
321.31
 42
-0.000015
 10
161.146398
 20
324.133346
 42
-0.000011
 10
159.367499
 20
327.264713
 42
-0.000011
 10
157.68381
 20
330.228793
 42
-0.000025
 10
156.401865
 20
332.486
 42
-0.000466
 10
155.294097
 20
334.440991
 42
-0.000444
 10
154.172224
 20
336.429302
 42
-0.00044
 10
153.184249
 20
338.187565
 42
-0.001584
 10
152.558728
 20
339.311411
 42
-0.012496
 10
152.10897
 20
340.175886
 42
-0.014795
 10
151.729076
 20
341.01494
 42
-0.013685
 10
151.45086
 20
341.736102
 42
-0.085414
 10
151.384
 20
342.124635
 42
-0.067759
 10
151.425822
 20
342.431827
 42
-0.042741
 10
151.552177
 20
342.771578
 42
-0.041682
 10
151.740254
 20
343.096436
 42
-0.05217
 10
151.967763
 20
343.359866
 42
-0.12508
 10
152.555355
 20
343.68494
 42
-0.045217
 10
153.503358
 20
343.843848
 42
-0.015409
 10
155.274719
 20
343.92342
 42
-0.001122
 10
160.159263
 20
343.981209
 42
-0.001269
 10
163.129451
 20
344.002142
 42
-0.001831
 10
165.756065
 20
344.004368
 42
-0.000945
 10
167.982875
 20
343.993892
 42
-0.02985
  0
LWPOLYLINE
  5
C2
330
1D
100
AcDbEntity
  8
0
100
AcDbPolyline
 90
       50
 70
     1
 43
0.0
 10
129.09144
 20
343.916
 10
143.279091
 20
343.916
 10
143.857933
 20
343.337158
 42
-0.059435
 10
144.216958
 20
342.880874
 42
-0.00185
 10
145.451282
 20
340.841358
 42
-0.003594
 10
146.882187
 20
338.417834
 42
-0.002479
 10
148.469259
 20
335.653658
 42
0.000026
 10
150.177002
 20
332.645232
 42
0.000023
 10
151.973771
 20
329.480698
 42
0.000023
 10
153.605271
 20
326.607851
 42
0.000066
 10
154.736872
 20
324.616081
 42
-0.005498
 10
155.593205
 20
323.069946
 42
-0.007878
 10
156.315431
 20
321.679442
 42
-0.004678
 10
156.891172
 20
320.499443
 42
-0.111604
 10
156.972
 20
320.141835
 42
-0.073997
 10
156.933813
 20
319.885218
 42
-0.030388
 10
156.810789
 20
319.554577
 42
-0.029243
 10
156.633244
 20
319.209706
 42
-0.033167
 10
156.423198
 20
318.90282
 42
-0.036043
 10
156.083111
 20
318.529293
 42
-0.103919
 10
155.786677
 20
318.346291
 42
-0.091063
 10
155.418635
 20
318.285251
 42
-0.023747
 10
154.818045
 20
318.324197
 42
-0.078569
 10
154.014276
 20
318.545831
 42
-0.009109
 10
152.321726
 20
319.351128
 42
-0.008261
 10
149.953936
 20
320.580308
 42
-0.00278
 10
146.540347
 20
322.449206
 42
-0.000245
 10
143.295826
 20
324.251136
 42
-0.000153
 10
139.500346
 20
326.363006
 42
-0.000154
 10
135.763535
 20
328.445236
 42
-0.00028
 10
132.715
 20
330.147414
 42
-0.000337
 10
129.779563
 20
331.791204
 42
-0.000223
 10
126.40945
 20
333.683371
 42
-0.000225
 10
123.135697
 20
335.525292
 42
-0.000436
 10
120.523
 20
336.999831
 42
-0.002544
 10
118.340675
 20
338.248686
 42
-0.003583
 10
116.408597
 20
339.38599
 42
-0.002108
 10
114.79231
 20
340.362347
 42
-0.048954
 10
114.3635
 20
340.685267
 42
-0.054002
 10
114.118911
 20
340.964356
 42
-0.053533
 10
113.938925
 20
341.290131
 42
-0.052294
 10
113.829065
 20
341.653905
 42
-0.047235
 10
113.792
 20
342.045381
 42
-0.047181
 10
113.828628
 20
342.432684
 42
-0.050373
 10
113.937176
 20
342.797441
 42
-0.051818
 10
114.11278
 20
343.123948
 42
-0.056003
 10
114.347895
 20
343.398105
 42
-0.159411
 10
115.044448
 20
343.720822
 42
-0.02065
 10
116.701704
 20
343.847694
 42
-0.008254
 10
119.851995
 20
343.906311
 42
-0.000524
  0
LWPOLYLINE
  5
F6
330
1D
100
AcDbEntity
  8
0
100
AcDbPolyline
 90
       54
 70
     1
 43
0.0
 10
77.220712
 20
342.646
 42
-0.049543
 10
77.508446
 20
342.617419
 42
-0.029541
 10
77.841544
 20
342.52985
 42
-0.029359
 10
78.166332
 20
342.402064
 42
-0.044397
 10
78.429483
 20
342.250597
 42
-0.0625
 10
78.686927
 20
342.01748
 42
-0.074008
 10
78.861796
 20
341.740018
 42
-0.065896
 10
78.961425
 20
341.397439
 42
-0.037871
 10
78.994
 20
340.967984
 42
-0.03693
 10
78.96451
 20
340.569257
 42
-0.022111
 10
78.873861
 20
340.102606
 42
-0.022072
 10
78.741764
 20
339.6436
 42
-0.035463
 10
78.585015
 20
339.267886
 42
-0.011666
 10
78.260539
 20
338.658787
 42
-0.000136
 10
76.019019
 20
334.680269
 42
-0.000413
 10
73.424626
 20
330.087228
 42
-0.00027
 10
70.424028
 20
324.791964
 42
-0.001104
 10
66.340177
 20
317.630985
 42
-0.005907
 10
64.058367
 20
313.75711
 42
-0.005795
 10
62.530563
 20
311.296857
 42
-0.132325
 10
61.922769
 20
310.741473
 42
-0.109614
 10
61.066979
 20
310.514829
 42
-0.005965
 10
58.262684
 20
310.434587
 42
-0.00471
 10
53.587532
 20
310.400661
 42
-0.000599
 10
43.518179
 20
310.434509
 10
25.862846
 20
310.515
 10
25.377423
 20
311.114639
 42
-0.04822
 10
25.191519
 20
311.395831
 42
-0.032954
 10
25.034593
 20
311.74544
 42
-0.033262
 10
24.927146
 20
312.10613
 42
-0.055814
 10
24.892
 20
312.42
 42
-0.052278
 10
24.924393
 20
312.72897
 42
-0.034084
 10
25.022572
 20
313.07421
 42
-0.034156
 10
25.166214
 20
313.401572
 42
-0.053995
 10
25.3365
 20
313.656085
 42
-0.061481
 10
25.635436
 20
313.934818
 42
-0.008826
 10
26.321941
 20
314.41461
 42
-0.00991
 10
27.15917
 20
314.954216
 42
-0.00832
 10
28.067
 20
315.493534
 42
-0.001842
 10
29.527504
 20
316.321494
 42
-0.00017
 10
33.150969
 20
318.356414
 42
-0.000219
 10
37.473828
 20
320.779681
 42
-0.000172
 10
42.164
 20
323.404026
 42
-0.00002
 10
47.095742
 20
326.161052
 42
-0.000019
 10
52.146994
 20
328.984377
 42
-0.000019
 10
56.637272
 20
331.493715
 42
-0.000063
 10
59.563
 20
333.128096
 42
0.000089
 10
62.115384
 20
334.554089
 42
0.000051
 10
65.187639
 20
336.271659
 42
0.000051
 10
68.27172
 20
337.996668
 42
0.000086
 10
70.863729
 20
339.447379
 42
-0.004478
 10
73.099431
 20
340.673005
 42
-0.006583
 10
75.087593
 20
341.706405
 42
-0.003385
 10
76.783253
 20
342.545269
 42
-0.113645
  0
LWPOLYLINE
  5
12E
330
1D
100
AcDbEntity
  8
0
100
AcDbPolyline
 90
       62
 70
     1
 43
0.0
 10
98.760643
 20
342.645043
 42
-0.116197
 10
99.270316
 20
342.524219
 42
-0.002781
 10
101.457566
 20
341.414042
 42
-0.005552
 10
104.139284
 20
339.996193
 42
-0.00292
 10
107.442
 20
338.17776
 42
0.000168
 10
110.682154
 20
336.370466
 42
0.000189
 10
113.801525
 20
334.633459
 42
0.000173
 10
116.458504
 20
333.156446
 42
0.001014
 10
117.856
 20
332.383914
 42
-0.00128
 10
119.28236
 20
331.594433
 42
-0.000193
 10
122.134313
 20
330.004899
 42
-0.000217
 10
125.500063
 20
328.125383
 42
-0.000187
 10
129.032
 20
326.149319
 42
0.000144
 10
132.851293
 20
324.012054
 42
0.000106
 10
137.086181
 20
321.645007
 42
0.000107
 10
141.094123
 20
319.407053
 42
0.000239
 10
144.145
 20
317.706274
 42
-0.003541
 10
146.619313
 20
316.305414
 42
-0.00503
 10
148.797566
 20
315.02237
 42
-0.002915
 10
150.61375
 20
313.913348
 42
-0.071169
 10
151.0665
 20
313.534987
 42
-0.035584
 10
151.285214
 20
313.254009
 42
-0.032169
 10
151.470122
 20
312.935492
 42
-0.033659
 10
151.598131
 20
312.627907
 42
-0.081953
 10
151.638
 20
312.386298
 42
-0.100422
 10
151.587679
 20
312.138275
 42
-0.033409
 10
151.419902
 20
311.805629
 42
-0.031695
 10
151.179675
 20
311.452448
 42
-0.031192
 10
150.895538
 20
311.130462
 10
150.153077
 20
310.388
 10
132.147433
 20
310.388
 42
-0.000434
 10
120.708562
 20
310.397939
 42
-0.006047
 10
116.582295
 20
310.455012
 42
-0.011085
 10
114.327067
 20
310.563555
 42
-0.171596
 10
113.626305
 20
310.868246
 42
-0.048356
 10
113.358842
 20
311.170667
 42
-0.008481
 10
112.922812
 20
311.79382
 42
-0.009129
 10
112.435504
 20
312.545265
 42
-0.008086
 10
111.955305
 20
313.344746
 42
-0.001429
 10
111.293205
 20
314.496156
 42
-0.000253
 10
110.060174
 20
316.657219
 42
-0.000274
 10
108.61752
 20
319.191882
 42
-0.000247
 10
107.126434
 20
321.818
 42
-0.000442
 10
105.49411
 20
324.702117
 42
-0.000291
 10
103.620794
 20
328.023383
 42
-0.000293
 10
101.801805
 20
331.257147
 42
-0.000565
 10
100.350666
 20
333.847347
 42
-0.001384
 10
99.145241
 20
336.018771
 42
-0.001995
 10
98.091777
 20
337.947043
 42
-0.001038
 10
97.208992
 20
339.586457
 42
-0.03215
 10
97.017413
 20
340.006847
 42
-0.050221
 10
96.940594
 20
340.292209
 42
-0.039758
 10
96.91405
 20
340.610775
 42
-0.039905
 10
96.938246
 20
340.928073
 42
-0.051907
 10
97.013014
 20
341.209585
 42
-0.031079
 10
97.130234
 20
341.468271
 42
-0.01984
 10
97.296435
 20
341.753714
 42
-0.019928
 10
97.482393
 20
342.021601
 42
-0.034701
 10
97.659871
 20
342.225585
 42
-0.066271
 10
97.87034
 20
342.3866
 42
-0.039178
 10
98.156644
 20
342.522222
 42
-0.038514
 10
98.469319
 20
342.614535
 42
-0.052923
  0
LWPOLYLINE
  5
16E
330
1D
100
AcDbEntity
  8
0
100
AcDbPolyline
 90
       50
 70
     1
 43
0.0
 10
83.345702
 20
334.772
 42
-0.100422
 10
83.593725
 20
334.721679
 42
-0.033409
 10
83.926371
 20
334.553902
 42
-0.031695
 10
84.279552
 20
334.313675
 42
-0.031192
 10
84.601538
 20
334.029538
 10
85.344
 20
333.287077
 10
85.344
 20
307.981925
 42
-0.000399
 10
85.332366
 20
293.388671
 42
-0.003372
 10
85.277606
 20
286.821699
 42
-0.003438
 10
85.190203
 20
282.842158
 42
-0.112575
 10
84.950834
 20
281.916474
 42
-0.044769
 10
84.754556
 20
281.608037
 42
-0.034659
 10
84.490204
 20
281.309953
 42
-0.035617
 10
84.201898
 20
281.064739
 42
-0.067673
 10
83.934834
 20
280.919375
 42
-0.048571
 10
83.646722
 20
280.840797
 42
-0.038961
 10
83.326461
 20
280.811473
 42
-0.039546
 10
83.011725
 20
280.832157
 42
-0.056047
 10
82.7405
 20
280.903338
 42
-0.045282
 10
82.483431
 20
281.030425
 42
-0.022194
 10
82.180462
 20
281.235047
 42
-0.021814
 10
81.882199
 20
281.477237
 42
-0.029514
 10
81.636518
 20
281.722551
 42
-0.041082
 10
81.326902
 20
282.134072
 42
-0.003455
 10
80.624545
 20
283.264393
 42
-0.004575
 10
79.807199
 20
284.628146
 42
-0.00352
 10
78.939243
 20
286.131
 42
0.000112
 10
77.822658
 20
288.095147
 42
0.000036
 10
76.157145
 20
291.022881
 42
0.000036
 10
74.300315
 20
294.285844
 42
0.00004
 10
72.508192
 20
297.434
 42
-0.001324
 10
70.831191
 20
300.397606
 42
-0.001756
 10
69.322059
 20
303.103307
 42
-0.001246
 10
68.070511
 20
305.379203
 42
-0.017564
 10
67.652697
 20
306.211682
 42
-0.017507
 10
67.375015
 20
306.877678
 42
-0.044519
 10
67.234927
 20
307.381817
 42
-0.058428
 10
67.206661
 20
307.813843
 42
-0.057295
 10
67.278613
 20
308.243682
 42
-0.055937
 10
67.503615
 20
308.787838
 42
-0.000583
 10
69.495049
 20
312.390182
 42
-0.001862
 10
71.812601
 20
316.534453
 42
-0.001208
 10
74.521795
 20
321.31
 42
-0.001802
 10
77.261727
 20
326.072693
 42
-0.002761
 10
79.673707
 20
330.178172
 42
-0.000945
 10
81.781887
 20
333.706396
 42
-0.075736
 10
82.191075
 20
334.2005
 42
-0.03522
 10
82.474325
 20
334.419215
 42
-0.031889
 10
82.794764
 20
334.604122
 42
-0.033356
 10
83.10371
 20
334.732173
 42
-0.08174
  0
LWPOLYLINE
  5
1A2
330
1D
100
AcDbEntity
  8
0
100
AcDbPolyline
 90
       54
 70
     1
 43
0.0
 10
92.906893
 20
334.661368
 42
-0.052936
 10
93.211981
 20
334.554689
 42
-0.029423
 10
93.557976
 20
334.365229
 42
-0.029023
 10
93.889324
 20
334.129755
 42
-0.041282
 10
94.151452
 20
333.881418
 42
-0.037618
 10
94.454642
 20
333.486451
 42
-0.005053
 10
95.019756
 20
332.603604
 42
-0.005812
 10
95.667906
 20
331.540867
 42
-0.004862
 10
96.331598
 20
330.39848
 42
0.000118
 10
97.274912
 20
328.738731
 42
0.00002
 10
99.067922
 20
325.585978
 42
0.000022
 10
101.173609
 20
321.884154
 42
0.00002
 10
103.361046
 20
318.039359
 42
-0.001934
 10
105.920173
 20
313.50092
 42
-0.00666
 10
107.529197
 20
310.529183
 42
-0.005662
 10
108.601172
 20
308.427222
 42
-0.115581
 10
108.7628
 20
307.737363
 42
-0.119109
 10
108.590115
 20
307.02274
 42
-0.004382
 10
107.288306
 20
304.540189
 42
-0.005693
 10
105.35061
 20
301.019346
 42
-0.001559
 10
102.215868
 20
295.514005
 42
-0.000077
 10
99.668902
 20
291.074782
 42
-0.000114
 10
97.4373
 20
287.188661
 42
-0.000049
 10
95.526676
 20
283.863998
 42
-0.002366
 10
95.141968
 20
283.20199
 42
-0.005103
 10
94.911182
 20
282.818167
 42
-0.004
 10
94.653311
 20
282.40646
 42
-0.004045
 10
94.40724
 20
282.027295
 42
-0.0099
 10
94.218452
 20
281.753435
 42
-0.047666
 10
94.017151
 20
281.523274
 42
-0.02813
 10
93.737773
 20
281.287631
 42
-0.027953
 10
93.429434
 20
281.08183
 42
-0.042359
 10
93.138952
 20
280.942231
 42
-0.04314
 10
92.820617
 20
280.851693
 42
-0.040151
 10
92.483662
 20
280.814269
 42
-0.041548
 10
92.158099
 20
280.831441
 42
-0.056956
 10
91.874061
 20
280.903826
 42
-0.037703
 10
91.62419
 20
281.021062
 42
-0.02447
 10
91.354215
 20
281.19145
 42
-0.0246
 10
91.105538
 20
281.384893
 42
-0.042159
 10
90.921561
 20
281.572277
 42
-0.164562
 10
90.702939
 20
282.143111
 42
-0.004691
 10
90.622991
 20
284.791911
 42
-0.004988
 10
90.576834
 20
289.059876
 42
-0.000692
 10
90.581666
 20
297.918237
 42
-0.000076
 10
90.595811
 20
304.718531
 42
-0.000061
 10
90.612968
 20
312.006406
 42
-0.000062
 10
90.630437
 20
318.721676
 42
-0.000162
 10
90.645166
 20
323.552038
 10
90.678
 20
333.287077
 10
91.446393
 20
334.05547
 42
-0.024105
 10
91.869094
 20
334.439267
 42
-0.074072
 10
92.199542
 20
334.637852
 42
-0.096055
 10
92.522506
 20
334.7039
 42
-0.060275
  0
LWPOLYLINE
  5
1DA
330
1D
100
AcDbEntity
  8
0
100
AcDbPolyline
 90
       60
 70
     1
 43
0.0
 10
43.919738
 20
305.054
 42
-0.000584
 10
54.06027
 20
305.04216
 42
-0.004786
 10
58.68531
 20
304.987083
 42
-0.005323
 10
61.474084
 20
304.897458
 42
-0.143023
 10
62.168711
 20
304.66194
 42
-0.066402
 10
62.446435
 20
304.406502
 42
-0.013806
 10
62.857284
 20
303.884662
 42
-0.01427
 10
63.303493
 20
303.247328
 42
-0.013042
 10
63.726767
 20
302.56644
 42
-0.002677
 10
64.393708
 20
301.414328
 42
-0.000157
 10
66.405079
 20
297.893904
 42
-0.000237
 10
68.796719
 20
293.700249
 42
-0.000175
 10
71.442543
 20
289.052
 42
-0.000271
 10
74.047072
 20
284.466808
 42
-0.000409
 10
76.309245
 20
280.471696
 42
-0.000152
 10
78.2529
 20
277.030098
 42
-0.009954
 10
78.577004
 20
276.428114
 42
-0.030582
 10
78.736714
 20
276.063484
 42
-0.021949
 10
78.871507
 20
275.639476
 42
-0.022277
 10
78.964377
 20
275.222926
 42
-0.043732
 10
78.994
 20
274.884889
 42
-0.062298
 10
78.951279
 20
274.543345
 42
-0.048917
 10
78.824401
 20
274.192085
 42
-0.046863
 10
78.624442
 20
273.857013
 42
-0.046261
 10
78.364809
 20
273.563457
 42
-0.046122
 10
78.05578
 20
273.322622
 42
-0.044299
 10
77.703764
 20
273.138779
 42
-0.045852
 10
77.338244
 20
273.025265
 42
-0.059544
 10
76.989224
 20
272.993584
 42
-0.041833
 10
76.642718
 20
273.032571
 42
-0.02086
 10
76.213303
 20
273.136461
 42
-0.020549
 10
75.774752
 20
273.281879
 42
-0.028398
 10
75.395916
 20
273.450173
 42
-0.007248
 10
74.788729
 20
273.773518
 42
-0.000196
 10
72.149038
 20
275.230086
 42
-0.000408
 10
69.048442
 20
276.945867
 42
-0.000279
 10
65.532
 20
278.898083
 42
-0.00041
 10
61.269098
 20
281.2724
 42
-0.000199
 10
55.82329
 20
284.314251
 42
-0.000197
 10
50.155088
 20
287.486214
 42
-0.000284
 10
45.143244
 20
290.297213
 42
-0.000261
 10
40.496581
 20
292.910054
 42
-0.000276
 10
35.938338
 20
295.479617
 42
-0.000263
 10
32.012672
 20
297.69816
 42
-0.001257
 10
29.776244
 20
298.971036
 42
-0.004793
 10
28.213495
 20
299.885695
 42
-0.006539
 10
26.824031
 20
300.74179
 42
-0.004452
 10
25.678138
 20
301.48305
 42
-0.072351
 10
25.3365
 20
301.787274
 42
-0.06236
 10
25.166068
 20
302.050699
 42
-0.034079
 10
25.022572
 20
302.408346
 42
-0.033378
 10
24.924601
 20
302.797382
 42
-0.045022
 10
24.892
 20
303.158704
 42
-0.04557
 10
24.930388
 20
303.579027
 42
-0.068252
 10
25.045628
 20
303.928593
 42
-0.06791
 10
25.25125
 20
304.235462
 42
-0.044609
 10
25.561254
 20
304.527565
 42
-0.143843
 10
26.3929
 20
304.860498
 42
-0.016601
 10
28.422272
 20
304.986208
 42
-0.006763
 10
32.278898
 20
305.044605
 42
-0.000404
  0
LWPOLYLINE
  5
218
330
1D
100
AcDbEntity
  8
0
100
AcDbPolyline
 90
       60
 70
     1
 43
0.0
 10
132.207
 20
305.034155
 42
-0.000774
 10
141.110677
 20
305.026649
 42
-0.003653
 10
146.218658
 20
304.977114
 42
-0.002498
 10
149.672687
 20
304.901117
 42
-0.110772
 10
150.368
 20
304.725322
 42
-0.0562
 10
150.637009
 20
304.548859
 42
-0.031847
 10
150.9207
 20
304.281097
 42
-0.031405
 10
151.17552
 20
303.970971
 42
-0.044512
 10
151.357831
 20
303.664095
 42
-0.026454
 10
151.534453
 20
303.239493
 42
-0.086785
 10
151.585116
 20
302.941074
 42
-0.093346
 10
151.529822
 20
302.655298
 42
-0.03356
 10
151.350948
 20
302.279618
 42
-0.052709
 10
151.142366
 20
301.985454
 42
-0.020859
 10
150.799059
 20
301.627002
 42
-0.020369
 10
150.392984
 20
301.267576
 42
-0.024035
 10
149.980117
 20
300.962903
 42
-0.017845
 10
149.245606
 20
300.510551
 42
-0.000586
 10
146.245622
 20
298.812185
 42
-0.00112
 10
142.698625
 20
296.820087
 42
-0.000778
 10
138.684
 20
294.585359
 42
-0.000153
 10
134.107293
 20
292.048908
 42
-0.000101
 10
128.844675
 20
289.13582
 42
-0.000102
 10
123.726398
 20
286.305344
 42
-0.000197
 10
119.634
 20
284.04539
 42
-0.000182
 10
115.860502
 20
281.965277
 42
-0.000143
 10
111.76635
 20
279.711874
 42
-0.000144
 10
107.956763
 20
277.617944
 42
-0.000355
 10
105.156
 20
276.082151
 42
-0.003442
 10
102.430416
 20
274.614391
 42
-0.010638
 10
100.561888
 20
273.675043
 42
-0.01229
 10
99.235589
 20
273.082804
 42
-0.098404
 10
98.582774
 20
272.951007
 42
-0.042828
 10
98.16918
 20
272.985234
 42
-0.061282
 10
97.816905
 20
273.090581
 42
-0.064601
 10
97.514426
 20
273.272726
 42
-0.054829
 10
97.249274
 20
273.535339
 42
-0.052347
 10
97.067196
 20
273.815652
 42
-0.033223
 10
96.913612
 20
274.173868
 42
-0.033189
 10
96.808596
 20
274.549999
 42
-0.051524
 10
96.774
 20
274.884841
 42
-0.083665
 10
96.84869
 20
275.328079
 42
-0.016455
 10
97.13922
 20
276.084327
 42
-0.016253
 10
97.555726
 20
276.987258
 42
-0.011683
 10
98.076513
 20
277.968202
 42
-0.002108
 10
98.910723
 20
279.440011
 42
-0.000199
 10
100.972848
 20
283.039441
 42
-0.000255
 10
103.435494
 20
287.328946
 42
-0.000201
 10
106.107316
 20
291.973
 42
-0.00085
 10
108.716189
 20
296.485685
 42
-0.001324
 10
110.980988
 20
300.364203
 42
-0.000359
 10
112.967074
 20
303.739276
 42
-0.046448
 10
113.250303
 20
304.13148
 42
-0.0322
 10
113.446115
 20
304.328374
 42
-0.021749
 10
113.692408
 20
304.527657
 42
-0.021954
 10
113.948476
 20
304.700184
 42
-0.040147
 10
114.173
 20
304.813879
 42
-0.094012
 10
114.589694
 20
304.898789
 42
-0.000333
 10
119.680038
 20
304.964353
 42
-0.001769
 10
125.451811
 20
305.014425
 42
-0.001108
  0
LWPOLYLINE
  5
256
330
1D
100
AcDbEntity
  8
0
100
AcDbPolyline
 90
       46
 70
     1
 43
0.0
 10
8.054605
 20
302.002111
 42
-0.048483
 10
8.425532
 20
301.967844
 42
-0.04823
 10
8.783599
 20
301.862785
 42
-0.049787
 10
9.104011
 20
301.695457
 42
-0.060074
 10
9.363348
 20
301.476679
 42
-0.055811
 10
9.700171
 20
301.022887
 42
-0.000229
 10
12.852624
 20
295.599739
 42
-0.001143
 10
16.414747
 20
289.432973
 42
-0.000719
 10
20.549243
 20
282.213375
 42
-0.000969
 10
25.552435
 20
273.408041
 42
-0.003324
 10
28.753728
 20
267.659577
 42
-0.00148
 10
31.062448
 20
263.418524
 42
-0.124526
 10
31.242
 20
262.708763
 42
-0.117494
 10
31.088367
 20
262.063999
 42
-0.00477
 10
29.980461
 20
259.922186
 42
-0.006374
 10
28.376751
 20
256.984237
 42
-0.002091
 10
25.942315
 20
252.698567
 42
-0.000219
 10
23.51606
 20
248.472888
 42
-0.000126
 10
20.584418
 20
243.375154
 42
-0.000125
 10
17.63381
 20
238.250396
 42
-0.000209
 10
15.144778
 20
233.934
 42
-0.002036
 10
12.999109
 20
230.251365
 42
-0.003112
 10
11.105175
 20
227.076397
 42
-0.001105
 10
9.450387
 20
224.354771
 42
-0.082119
 10
9.113324
 20
223.9645
 42
-0.050348
 10
8.861221
 20
223.79426
 42
-0.033809
 10
8.544358
 20
223.650572
 42
-0.034028
 10
8.215041
 20
223.552258
 42
-0.055578
 10
7.925731
 20
223.52
 42
-0.067604
 10
7.632642
 20
223.55981
 42
-0.037128
 10
7.291164
 20
223.682231
 42
-0.036234
 10
6.956965
 20
223.86087
 42
-0.047753
 10
6.683871
 20
224.072276
 10
6.096
 20
224.624552
 10
6.096
 20
262.569974
 42
-0.000377
 10
6.109862
 20
280.972155
 42
-0.00152
 10
6.160917
 20
292.20346
 42
-0.000377
 10
6.229614
 20
300.441433
 42
-0.119418
 10
6.388025
 20
301.070198
 42
-0.022518
 10
6.520353
 20
301.296284
 42
-0.020535
 10
6.676363
 20
301.516844
 42
-0.021032
 10
6.832155
 20
301.702275
 42
-0.060387
 10
6.959525
 20
301.811611
 42
-0.082639
 10
7.119952
 20
301.88399
 42
-0.021675
 10
7.396488
 20
301.944547
 42
-0.021408
 10
7.721863
 20
301.986896
 42
-0.020465
  0
LWPOLYLINE
  5
286
330
1D
100
AcDbEntity
  8
0
100
AcDbPolyline
 90
       54
 70
     1
 43
0.0
 10
168.656
 20
301.865242
 42
-0.060633
 10
168.940348
 20
301.768916
 42
-0.030373
 10
169.272347
 20
301.583874
 42
-0.02963
 10
169.597121
 20
301.347851
 42
-0.03849
 10
169.8625
 20
301.093273
 10
170.434
 20
300.453672
 10
170.434
 20
266.726403
 42
-0.000465
 10
170.421701
 20
253.494283
 42
-0.000647
 10
170.384356
 20
241.647767
 42
-0.000392
 10
170.332174
 20
231.670571
 42
-0.008351
 10
170.265
 20
228.714021
 42
-0.002661
 10
170.147513
 20
226.089815
 42
-0.02574
 10
170.034531
 20
224.980869
 42
-0.064667
 10
169.847585
 20
224.335981
 42
-0.093796
 10
169.514545
 20
223.847454
 42
-0.047923
 10
169.244697
 20
223.624909
 42
-0.03761
 10
168.915147
 20
223.436802
 42
-0.038755
 10
168.578767
 20
223.307872
 42
-0.072261
 10
168.290553
 20
223.266
 42
-0.081171
 10
167.990608
 20
223.315017
 42
-0.034747
 10
167.614376
 20
223.471184
 42
-0.033218
 10
167.228052
 20
223.697185
 42
-0.037383
 10
166.890961
 20
223.9645
 42
-0.058335
 10
166.467507
 20
224.458092
 42
-0.005434
 10
165.584593
 20
225.800841
 42
-0.006928
 10
164.568228
 20
227.433055
 42
-0.005388
 10
163.506845
 20
229.235
 42
0.00035
 10
162.052803
 20
231.761441
 42
0.000078
 10
159.560877
 20
236.082681
 42
0.000081
 10
156.680216
 20
241.074373
 42
0.000078
 10
153.762831
 20
246.126
 42
-0.000197
 10
150.968648
 20
250.966967
 42
-0.000272
 10
148.462434
 20
255.318445
 42
-0.000171
 10
146.35775
 20
258.980253
 42
-0.003309
 10
145.71294
 20
260.120409
 42
-0.017353
 10
145.355829
 20
260.817587
 42
-0.01821
 10
145.054051
 20
261.526881
 42
-0.018187
 10
144.839053
 20
262.155641
 42
-0.073408
 10
144.78
 20
262.555696
 42
-0.107946
 10
144.903564
 20
263.12137
 42
-0.008972
 10
145.558516
 20
264.483965
 42
-0.009696
 10
146.51985
 20
266.30644
 42
-0.003927
 10
147.897574
 20
268.754286
 42
-0.000789
 10
149.596152
 20
271.706705
 42
-0.000192
 10
152.410045
 20
276.575612
 42
-0.000197
 10
155.641097
 20
282.156321
 42
-0.000196
 10
158.881309
 20
287.742734
 42
-0.001447
 10
162.475692
 20
293.893132
 42
-0.004286
 10
164.990652
 20
298.085421
 42
-0.002117
 10
166.911195
 20
301.19585
 42
-0.12762
 10
167.384235
 20
301.645039
 42
-0.049121
 10
167.674536
 20
301.770355
 42
-0.034489
 10
168.020482
 20
301.855159
 42
-0.034929
 10
168.36655
 20
301.890448
 42
-0.059394
  0
LWPOLYLINE
  5
2BE
330
1D
100
AcDbEntity
  8
0
100
AcDbPolyline
 90
       68
 70
     1
 43
0.0
 10
21.463
 20
297.408369
 42
-0.088951
 10
21.615279
 20
297.389929
 42
-0.010473
 10
21.940838
 20
297.282442
 42
-0.012272
 10
22.325365
 20
297.135779
 42
-0.009767
 10
22.733
 20
296.959357
 42
-0.018682
 10
23.47171
 20
296.588432
 42
-0.000345
 10
27.293094
 20
294.483923
 42
-0.000849
 10
31.74361
 20
292.019073
 42
-0.000567
 10
36.83
 20
289.183199
 42
0.000027
 10
42.470487
 20
286.03039
 42
0.000021
 10
48.605281
 20
282.602041
 42
0.000021
 10
54.324543
 20
279.406529
 42
0.000051
 10
58.547
 20
277.048115
 42
-0.000287
 10
62.048881
 20
275.09
 42
-0.000318
 10
65.429606
 20
273.194257
 42
-0.000294
 10
68.312308
 20
271.573137
 42
-0.001654
 10
69.85
 20
270.700496
 42
-0.004984
 10
70.913025
 20
270.078428
 42
-0.00596
 10
71.901447
 20
269.470592
 42
-0.005182
 10
72.722104
 20
268.940367
 42
-0.038565
 10
73.0885
 20
268.655369
 42
-0.053686
 10
73.328567
 20
268.384592
 42
-0.052408
 10
73.507733
 20
268.066799
 42
-0.052233
 10
73.617372
 20
267.717657
 42
-0.052609
 10
73.651922
 20
267.354224
 42
-0.034091
 10
73.62607
 20
267.025555
 42
-0.028832
 10
73.555324
 20
266.6841
 42
-0.029836
 10
73.45386
 20
266.379555
 42
-0.068489
 10
73.334422
 20
266.169989
 42
-0.039123
 10
73.17628
 20
265.994336
 42
-0.019967
 10
72.95292
 20
265.798563
 42
-0.019711
 10
72.705258
 20
265.614042
 42
-0.027888
 10
72.470198
 20
265.471489
 42
-0.117204
 10
71.878067
 20
265.316474
 42
-0.001586
 10
68.095158
 20
265.242584
 42
-0.003232
 10
62.822943
 20
265.190426
 42
-0.000857
 10
54.406952
 20
265.176
 42
-0.000431
 10
43.101696
 20
265.185751
 42
-0.006495
 10
39.167577
 20
265.243643
 42
-0.014287
 10
37.061956
 20
265.362262
 42
-0.146451
 10
36.259199
 20
265.678881
 42
-0.083941
 10
35.882048
 20
266.094603
 42
-0.00329
 10
34.778056
 20
267.844897
 42
-0.005758
 10
33.504118
 20
269.948025
 42
-0.004027
 10
32.114763
 20
272.346381
 42
0.000044
 10
30.556792
 20
275.085887
 42
0.000029
 10
28.768275
 20
278.229699
 42
0.00003
 10
27.030899
 20
281.282779
 42
0.000058
 10
25.644556
 20
283.718
 42
-0.000708
 10
24.394913
 20
285.919753
 42
-0.000616
 10
23.092002
 20
288.229584
 42
-0.000619
 10
21.918257
 20
290.322494
 42
-0.001829
 10
21.118738
 20
291.764626
 42
-0.008297
 10
20.425554
 20
293.076939
 42
-0.017723
 10
19.943599
 20
294.117017
 42
-0.021835
 10
19.643405
 20
294.92725
 42
-0.077947
 10
19.558
 20
295.471759
 42
-0.04177
 10
19.589318
 20
295.845989
 42
-0.043398
 10
19.682381
 20
296.204872
 42
-0.046911
 10
19.824445
 20
296.51122
 42
-0.081727
 10
20.0025
 20
296.726489
 42
-0.020859
 10
20.200581
 20
296.885016
 42
-0.016194
 10
20.428347
 20
297.041117
 42
-0.016473
 10
20.650608
 20
297.172993
 42
-0.037571
 10
20.828
 20
297.253803
 42
-0.015652
 10
20.992485
 20
297.308503
 42
-0.012746
 10
21.171694
 20
297.356995
 42
-0.012944
 10
21.339125
 20
297.393186
 42
-0.032529
  0
LWPOLYLINE
  5
304
330
1D
100
AcDbEntity
  8
0
100
AcDbPolyline
 90
       56
 70
     1
 43
0.0
 10
154.819983
 20
297.175252
 42
-0.041393
 10
155.153606
 20
297.149659
 42
-0.029335
 10
155.520379
 20
297.068427
 42
-0.029769
 10
155.863881
 20
296.948411
 42
-0.053892
 10
156.124461
 20
296.804926
 42
-0.055475
 10
156.341491
 20
296.613864
 42
-0.035062
 10
156.550656
 20
296.348772
 42
-0.034958
 10
156.721716
 20
296.055497
 42
-0.05311
 10
156.823367
 20
295.778762
 42
-0.068987
 10
156.86055
 20
295.43629
 42
-0.038005
 10
156.816071
 20
295.016574
 42
-0.033744
 10
156.69705
 20
294.548533
 42
-0.026218
 10
156.507538
 20
294.058337
 42
-0.019145
 10
156.181747
 20
293.400134
 42
-0.001986
 10
155.350598
 20
291.88548
 42
-0.002467
 10
154.34402
 20
290.089252
 42
-0.001971
 10
153.241999
 20
288.163
 42
-0.000028
 10
151.961536
 20
285.945459
 42
-0.000016
 10
150.40399
 20
283.248598
 42
-0.000015
 10
148.829719
 20
280.523167
 42
-0.000025
 10
147.493362
 20
278.210056
 42
-0.000199
 10
146.209646
 20
275.99036
 42
-0.000151
 10
144.800877
 20
273.558366
 42
-0.000153
 10
143.478145
 20
271.278099
 42
-0.000358
 10
142.48734
 20
269.574056
 42
-0.005272
 10
141.666149
 20
268.19763
 42
-0.007014
 10
140.889194
 20
266.965213
 42
-0.005126
 10
140.215578
 20
265.952101
 42
-0.06837
 10
139.916691
 20
265.6205
 42
-0.162236
 10
139.219937
 20
265.342983
 42
-0.008337
 10
136.762919
 20
265.242933
 42
-0.005523
 10
132.424969
 20
265.186631
 42
-0.000483
 10
121.418115
 20
265.176
 42
-0.000396
 10
109.585986
 20
265.185373
 42
-0.006662
 10
105.672419
 20
265.243725
 42
-0.016245
 10
103.612508
 20
265.368958
 42
-0.144317
 10
102.777254
 20
265.702435
 42
-0.044801
 10
102.453786
 20
266.007458
 42
-0.075253
 10
102.251147
 20
266.32017
 42
-0.070844
 10
102.142798
 20
266.692336
 42
-0.035477
 10
102.108
 20
267.18216
 42
-0.036635
 10
102.141895
 20
267.644142
 42
-0.05578
 10
102.244404
 20
268.03274
 42
-0.06064
 10
102.421885
 20
268.365088
 42
-0.054576
 10
102.6795
 20
268.658415
 42
-0.053917
 10
103.137356
 20
268.994601
 42
-0.001061
 10
105.657253
 20
270.449134
 42
-0.002526
 10
108.614545
 20
272.127974
 42
-0.001691
 10
112.014
 20
274.0201
 42
-0.000174
 10
116.49821
 20
276.494134
 42
-0.000057
 10
123.089988
 20
280.126973
 42
-0.000057
 10
130.401813
 20
284.154457
 42
-0.000065
 10
137.414
 20
288.014661
 42
-0.001162
 10
145.001955
 20
292.16759
 42
-0.003497
 10
150.205822
 20
294.952988
 42
-0.001542
 10
154.137103
 20
297.006524
 42
-0.11858
  0
LWPOLYLINE
  5
33E
330
1D
100
AcDbEntity
  8
0
100
AcDbPolyline
 90
       72
 70
     1
 43
0.0
 10
53.975
 20
260.068838
 42
-0.001176
 10
60.478595
 20
260.05549
 42
-0.001783
 10
66.135259
 20
260.010397
 42
-0.000658
 10
71.005069
 20
259.9478
 42
-0.044231
 10
71.83069
 20
259.862815
 42
-0.032075
 10
72.275071
 20
259.746925
 42
-0.030717
 10
72.707661
 20
259.573817
 42
-0.032197
 10
73.069425
 20
259.37315
 42
-0.088195
 10
73.283112
 20
259.175377
 42
-0.056461
 10
73.422026
 20
258.941153
 42
-0.030766
 10
73.540252
 20
258.628012
 42
-0.030243
 10
73.622431
 20
258.290771
 42
-0.041851
 10
73.651922
 20
257.980962
 42
-0.066849
 10
73.609154
 20
257.632866
 42
-0.05018
 10
73.474463
 20
257.270666
 42
-0.045991
 10
73.255418
 20
256.911961
 42
-0.038127
 10
72.9615
 20
256.574371
 42
-0.050331
 10
72.489042
 20
256.194146
 42
-0.005512
 10
71.311691
 20
255.446046
 42
-0.006696
 10
69.884688
 20
254.587485
 42
-0.005363
 10
68.326
 20
253.700168
 42
-0.000069
 10
66.346992
 20
252.601868
 42
-0.000025
 10
63.530956
 20
251.039732
 42
-0.000025
 10
60.445242
 20
249.328399
 42
-0.000029
 10
57.531
 20
247.712577
 42
-0.000289
 10
54.426545
 20
245.993869
 42
-0.000174
 10
50.747613
 20
243.961564
 42
-0.000175
 10
47.092721
 20
241.94587
 42
-0.000307
 10
44.069
 20
240.282067
 42
-0.00011
 10
40.995819
 20
238.594384
 42
-0.000058
 10
37.176013
 20
236.498341
 42
-0.000057
 10
33.2629
 20
234.352269
 42
-0.000088
 10
29.877215
 20
232.496736
 42
-0.001749
 10
26.924301
 20
230.892465
 42
-0.002625
 10
24.335251
 20
229.51507
 42
-0.001066
 10
22.10819
 20
228.351269
 42
-0.058443
 10
21.666145
 20
228.18354
 42
-0.059311
 10
21.383116
 20
228.147279
 42
-0.036399
 10
21.047141
 20
228.168753
 42
-0.036096
 10
20.712836
 20
228.239573
 42
-0.05267
 10
20.43415
 20
228.352877
 42
-0.069621
 10
20.181024
 20
228.537596
 42
-0.037384
 10
19.923662
 20
228.827133
 42
-0.036365
 10
19.700881
 20
229.167762
 42
-0.046967
 10
19.551103
 20
229.509897
 42
-0.045248
 10
19.43469
 20
230.010831
 42
-0.080858
 10
19.444583
 20
230.432466
 42
-0.057221
 10
19.595081
 20
230.920468
 42
-0.013513
 10
19.959265
 20
231.693073
 42
-0.009538
 10
20.383964
 20
232.495895
 42
-0.001327
 10
21.300036
 20
234.140121
 42
-0.001519
 10
22.395863
 20
236.080914
 42
-0.001288
 10
23.565191
 20
238.125
 42
-0.00002
 10
24.860394
 20
240.375447
 42
-0.000014
 10
26.338827
 20
242.943856
 42
-0.000014
 10
27.768996
 20
245.428106
 42
-0.000027
 10
28.902118
 20
247.396
 42
-0.000084
 10
29.96535
 20
249.241566
 42
-0.000058
 10
31.166902
 20
251.325856
 42
-0.000059
 10
32.320644
 20
253.326126
 42
-0.000122
 10
33.222851
 20
254.889
 42
-0.001777
 10
33.989773
 20
256.205947
 42
-0.002171
 10
34.716812
 20
257.432038
 42
-0.001815
 10
35.336333
 20
258.458076
 42
-0.015399
 10
35.630435
 20
258.909298
 42
-0.031503
 10
35.861643
 20
259.200288
 42
-0.025903
 10
36.142465
 20
259.480664
 42
-0.026657
 10
36.428359
 20
259.711623
 42
-0.060679
 10
36.670893
 20
259.845698
 42
-0.092586
 10
37.11126
 20
259.934572
 42
-0.000401
 10
41.976769
 20
260.001212
 42
-0.001933
 10
47.509773
 20
260.051173
 42
-0.001216
  0
LWPOLYLINE
  5
388
330
1D
100
AcDbEntity
  8
0
100
AcDbPolyline
 90
       60
 70
     1
 43
0.0
 10
121.341404
 20
259.842
 10
139.470256
 20
259.842
 10
140.06583
 20
259.199365
 42
-0.042713
 10
140.406994
 20
258.761623
 42
-0.004001
 10
141.143029
 20
257.609906
 42
-0.005112
 10
141.997061
 20
256.218294
 42
-0.003998
 10
142.896553
 20
254.690865
 42
-0.00002
 10
143.946476
 20
252.874774
 42
-0.00001
 10
145.2728
 20
250.580267
 42
-0.00001
 10
146.644583
 20
248.206898
 42
-0.000015
 10
147.847184
 20
246.126
 42
-0.000054
 10
149.107977
 20
243.94372
 42
-0.000029
 10
150.669058
 20
241.240646
 42
-0.000029
 10
152.264473
 20
238.477393
 42
-0.000044
 10
153.640333
 20
236.093604
 42
-0.003667
 10
155.084434
 20
233.548129
 42
-0.011334
 10
156.007968
 20
231.800061
 42
-0.013247
 10
156.588286
 20
230.557356
 42
-0.102959
 10
156.718
 20
229.934104
 42
-0.048322
 10
156.682618
 20
229.568851
 42
-0.042039
 10
156.577397
 20
229.19899
 42
-0.043309
 10
156.416864
 20
228.864752
 42
-0.062851
 10
156.216461
 20
228.606461
 42
-0.039307
 10
155.97779
 20
228.402631
 42
-0.025675
 10
155.674167
 20
228.205043
 42
-0.025822
 10
155.356249
 20
228.041972
 42
-0.044129
 10
155.074644
 20
227.944222
 42
-0.081602
 10
154.707574
 20
227.913662
 42
-0.04613
 10
154.26658
 20
227.99026
 42
-0.035921
 10
153.73814
 20
228.174802
 42
-0.018063
 10
153.099683
 20
228.478433
 42
-0.003543
 10
152.286182
 20
228.909341
 42
-0.000435
 10
150.515588
 20
229.865336
 42
-0.000515
 10
148.414378
 20
231.005002
 42
-0.000425
 10
146.177
 20
232.223974
 42
-0.000487
 10
143.358226
 20
233.766377
 42
-0.000172
 10
139.320587
 20
235.982644
 42
-0.00017
 10
134.88526
 20
238.421155
 42
-0.0002
 10
130.683
 20
240.735584
 42
-0.000014
 10
126.52718
 20
243.02676
 42
-0.000013
 10
122.231944
 20
245.395103
 42
-0.000013
 10
118.386624
 20
247.515627
 42
-0.000041
 10
115.824
 20
248.929165
 42
-0.000646
 10
113.631583
 20
250.142431
 42
-0.000436
 10
111.132807
 20
251.532302
 42
-0.000439
 10
108.718537
 20
252.880703
 42
-0.000873
 10
106.809259
 20
253.95364
 42
-0.005739
 10
105.227693
 20
254.870143
 42
-0.00803
 10
103.837399
 20
255.727788
 42
-0.005188
 10
102.694998
 20
256.474904
 42
-0.0991
 10
102.396009
 20
256.774915
 42
-0.045779
 10
102.261303
 20
257.024664
 42
-0.028216
 10
102.147756
 20
257.338913
 42
-0.028171
 10
102.070008
 20
257.6651
 42
-0.044445
 10
102.0445
 20
257.951491
 42
-0.071149
 10
102.086373
 20
258.244265
 42
-0.03683
 10
102.216058
 20
258.591173
 42
-0.035701
 10
102.404989
 20
258.934765
 42
-0.045049
 10
102.628526
 20
259.220333
 10
103.212552
 20
259.842
  0
LWPOLYLINE
  5
3C6
330
1D
100
AcDbEntity
  8
0
100
AcDbPolyline
 90
       56
 70
     1
 43
0.0
 10
77.190767
 20
252.153687
 42
-0.045797
 10
77.6088
 20
252.086496
 42
-0.060664
 10
77.96753
 20
251.946499
 42
-0.061358
 10
78.279122
 20
251.726012
 42
-0.048328
 10
78.556818
 20
251.419328
 42
-0.039821
 10
78.788066
 20
251.050196
 42
-0.066488
 10
78.912626
 20
250.706054
 42
-0.065586
 10
78.943437
 20
250.337956
 42
-0.037674
 10
78.888813
 20
249.895328
 42
-0.076559
 10
78.664465
 20
249.282474
 42
-0.000762
 10
76.402076
 20
245.192509
 42
-0.002475
 10
73.762476
 20
240.492713
 42
-0.0016
 10
70.662453
 20
235.077
 42
-0.000917
 10
66.096321
 20
227.192357
 42
-0.006826
 10
63.867439
 20
223.477476
 42
-0.009662
 10
62.463498
 20
221.303371
 42
-0.12919
 10
61.755526
 20
220.681014
 42
-0.103069
 10
60.802382
 20
220.428722
 42
-0.00936
 10
58.330688
 20
220.343103
 42
-0.005417
 10
53.987441
 20
220.321068
 42
-0.000541
 10
43.596836
 20
220.392153
 42
-0.000682
 10
34.183482
 20
220.479574
 42
-0.004363
 10
29.413962
 20
220.572004
 42
-0.003927
 10
26.39415
 20
220.680633
 42
-0.129844
 10
25.705934
 20
220.895073
 42
-0.043929
 10
25.46235
 20
221.079517
 42
-0.027994
 10
25.212483
 20
221.332639
 42
-0.028058
 10
24.993617
 20
221.61069
 42
-0.045838
 10
24.844877
 20
221.870989
 42
-0.048587
 10
24.730903
 20
222.203272
 42
-0.066324
 10
24.69906
 20
222.51786
 42
-0.059505
 10
24.750144
 20
222.85485
 42
-0.030856
 10
24.888687
 20
223.258001
 42
-0.095476
 10
25.200076
 20
223.730109
 42
-0.040082
 10
25.776026
 20
224.232436
 42
-0.024408
 10
26.714652
 20
224.858588
 42
-0.006283
 10
28.289743
 20
225.774965
 42
-0.001134
 10
29.757443
 20
226.599968
 42
-0.000533
 10
31.658268
 20
227.660108
 42
-0.000528
 10
33.652137
 20
228.766598
 42
-0.000743
 10
35.433
 20
229.748966
 42
0.000043
 10
37.41633
 20
230.839399
 42
0.000018
 10
40.0939
 20
232.311948
 42
0.000018
 10
42.96157
 20
233.889309
 42
0.000023
 10
45.593
 20
235.337004
 42
0.000042
 10
48.69693
 20
237.045171
 42
0.000014
 10
53.218556
 20
239.534193
 42
0.000014
 10
58.217572
 20
242.286371
 42
0.000016
 10
62.992
 20
244.915281
 42
-0.000145
 10
67.396696
 20
247.339124
 42
-0.000213
 10
71.273194
 20
249.468686
 42
-0.0001
 10
74.576738
 20
251.280804
 42
-0.003928
 10
75.311
 20
251.675912
 42
-0.032348
 10
75.771305
 20
251.882098
 42
-0.026897
 10
76.283425
 20
252.042019
 42
-0.027775
 10
76.780338
 20
252.139319
 42
-0.051461
  0
LWPOLYLINE
  5
400
330
1D
100
AcDbEntity
  8
0
100
AcDbPolyline
 90
       54
 70
     1
 43
0.0
 10
98.653236
 20
252.213922
 42
-0.084037
 10
99.067537
 20
252.148461
 42
-0.014621
 10
99.813076
 20
251.873248
 42
-0.015455
 10
100.68045
 20
251.492359
 42
-0.013031
 10
101.574236
 20
251.037509
 42
-0.00134
 10
103.102673
 20
250.203543
 42
-0.000053
 10
108.675857
 20
247.142436
 42
-0.000094
 10
115.273603
 20
243.516056
 42
-0.000066
 10
122.682
 20
239.441015
 42
0.000068
 10
130.225452
 20
235.291725
 42
0.000085
 10
137.240169
 20
231.436071
 42
0.000069
 10
143.131526
 20
228.200238
 42
0.000647
 10
145.669
 20
226.811254
 42
-0.005281
 10
147.285548
 20
225.906804
 42
-0.006397
 10
148.781691
 20
225.023224
 42
-0.005485
 10
150.021117
 20
224.250954
 42
-0.043161
 10
150.5585
 20
223.838638
 42
-0.030276
 10
150.932823
 20
223.452245
 42
-0.052116
 10
151.187338
 20
223.084075
 42
-0.060872
 10
151.334069
 20
222.715776
 42
-0.064473
 10
151.384
 20
222.330165
 42
-0.059669
 10
151.340879
 20
221.970122
 42
-0.05204
 10
151.213393
 20
221.612434
 42
-0.049347
 10
151.006643
 20
221.271387
 42
-0.043261
 10
150.728636
 20
220.960776
 10
150.073272
 20
220.345
 10
132.378626
 20
220.27637
 42
-0.000881
 10
124.024765
 20
220.258692
 42
-0.003046
 10
118.61405
 20
220.289743
 42
-0.001597
 10
114.689828
 20
220.34871
 42
-0.093894
 10
113.993121
 20
220.493903
 42
-0.074436
 10
113.67648
 20
220.684266
 42
-0.026446
 10
113.286354
 20
221.042474
 42
-0.025556
 10
112.893252
 20
221.487037
 42
-0.027399
 10
112.557248
 20
221.959533
 42
-0.009353
 10
112.036352
 20
222.819397
 42
-0.000262
 10
109.860365
 20
226.57237
 42
-0.000536
 10
107.308052
 20
230.990621
 42
-0.000368
 10
104.422561
 20
236.006536
 42
-0.000697
 10
101.572092
 20
240.986084
 42
-0.001085
 10
99.130121
 20
245.28751
 42
-0.000298
 10
97.012121
 20
249.042432
 42
-0.037431
 10
96.782731
 20
249.532036
 42
-0.044748
 10
96.690233
 20
249.861272
 42
-0.04756
 10
96.660319
 20
250.19499
 42
-0.047106
 10
96.69398
 20
250.531191
 42
-0.042373
 10
96.790273
 20
250.8678
 42
-0.033907
 10
96.920766
 20
251.151503
 42
-0.02573
 10
97.099911
 20
251.44347
 42
-0.026286
 10
97.297434
 20
251.700963
 42
-0.053594
 10
97.482486
 20
251.875722
 42
-0.061796
 10
97.70156
 20
252.002988
 42
-0.030415
 10
98.005631
 20
252.111244
 42
-0.029623
 10
98.339491
 20
252.186599
 42
-0.037966
  0
LWPOLYLINE
  5
438
330
1D
100
AcDbEntity
  8
0
100
AcDbPolyline
 90
       50
 70
     1
 43
0.0
 10
83.222627
 20
244.348
 42
-0.047522
 10
83.608037
 20
244.311286
 42
-0.050244
 10
83.972108
 20
244.202505
 42
-0.051613
 10
84.298413
 20
244.026827
 42
-0.055997
 10
84.572105
 20
243.792105
 42
-0.175662
 10
84.914696
 20
242.986855
 42
-0.008643
 10
85.023822
 20
240.053806
 42
-0.004708
 10
85.080994
 20
234.602351
 42
-0.000268
 10
85.09
 20
217.775541
 10
85.09
 20
192.314871
 10
84.420746
 20
191.788435
 42
-0.043255
 10
84.113136
 20
191.586872
 42
-0.031716
 10
83.742141
 20
191.41664
 42
-0.032329
 10
83.367317
 20
191.299813
 42
-0.059447
 10
83.050406
 20
191.262
 42
-0.065471
 10
82.737981
 20
191.303086
 42
-0.041816
 10
82.392783
 20
191.427178
 42
-0.041004
 10
82.063674
 20
191.611546
 42
-0.053028
 10
81.798754
 20
191.834036
 42
-0.046449
 10
81.479763
 20
192.233837
 42
-0.00381
 10
80.755061
 20
193.357067
 42
-0.005083
 10
79.912877
 20
194.714802
 42
-0.003892
 10
79.018892
 20
196.215536
 42
-0.001165
 10
77.844276
 20
198.233515
 42
-0.000325
 10
76.014829
 20
201.39815
 42
-0.000328
 10
73.949578
 20
204.981478
 42
-0.000345
 10
71.922798
 20
208.509017
 42
-0.002443
 10
69.778599
 20
212.289555
 42
-0.006295
 10
68.277781
 20
215.046917
 42
-0.004168
 10
67.196772
 20
217.135945
 42
-0.117838
 10
67.056
 20
217.724961
 42
-0.057732
 10
67.09836
 20
218.090609
 42
-0.019563
 10
67.241332
 20
218.607619
 42
-0.019158
 10
67.445413
 20
219.171552
 42
-0.020875
 10
67.686917
 20
219.701942
 42
-0.01
 10
68.077393
 20
220.435736
 42
-0.001453
 10
68.906038
 20
221.910481
 42
-0.001644
 10
69.896686
 20
223.648252
 42
-0.001408
 10
70.951149
 20
225.471998
 42
0.000266
 10
72.223431
 20
227.660921
 42
0.000116
 10
73.911557
 20
230.5704
 42
0.000114
 10
75.704133
 20
233.663174
 42
0.000152
 10
77.331286
 20
236.474
 42
-0.002709
 10
78.814403
 20
239.006063
 42
-0.00378
 10
80.170317
 20
241.253566
 42
-0.002313
 10
81.333446
 20
243.129457
 42
-0.048723
 10
81.734575
 20
243.6495
 42
-0.038659
 10
82.080465
 20
243.964777
 42
-0.055802
 10
82.432901
 20
244.181034
 42
-0.059064
 10
82.808381
 20
244.305832
 42
-0.050766
  0
LWPOLYLINE
  5
46C
330
1D
100
AcDbEntity
  8
0
100
AcDbPolyline
 90
       50
 70
     1
 43
0.0
 10
92.43016
 20
244.348
 42
-0.036736
 10
92.891895
 20
244.314029
 42
-0.055478
 10
93.281403
 20
244.211362
 42
-0.060206
 10
93.615185
 20
244.033829
 42
-0.054375
 10
93.909924
 20
243.7765
 42
-0.051669
 10
94.260097
 20
243.307326
 42
-0.000616
 10
96.218644
 20
240.015316
 42
-0.001848
 10
98.464922
 20
236.196982
 42
-0.001206
 10
101.030091
 20
231.775
 42
-0.000464
 10
103.597762
 20
227.314448
 42
-0.000675
 10
105.853845
 20
223.374462
 42
-0.000332
 10
107.764512
 20
220.02207
 42
-0.011662
 10
108.192154
 20
219.228061
 42
-0.02414
 10
108.433863
 20
218.690339
 42
-0.037697
 10
108.583227
 20
218.20545
 42
-0.044015
 10
108.642819
 20
217.768297
 42
-0.061303
 10
108.613283
 20
217.374914
 42
-0.069342
 10
108.445756
 20
216.895008
 42
-0.003501
 10
107.676469
 20
215.422098
 42
-0.005555
 10
106.727696
 20
213.683037
 42
-0.00399
 10
105.630894
 20
211.760853
 42
0.000093
 10
104.283552
 20
209.441764
 42
0.000044
 10
102.546822
 20
206.450557
 42
0.000044
 10
100.730144
 20
203.320387
 42
0.000062
 10
99.113196
 20
200.533
 42
-0.00057
 10
97.647621
 20
198.012468
 42
-0.000727
 10
96.29005
 20
195.691561
 42
-0.000564
 10
95.146621
 20
193.748284
 42
-0.00609
 10
94.673729
 20
192.968528
 42
-0.016438
 10
94.350205
 20
192.485556
 42
-0.01787
 10
94.004117
 20
192.038537
 42
-0.017627
 10
93.682098
 20
191.678562
 42
-0.078749
 10
93.457104
 20
191.508028
 42
-0.045868
 10
93.233591
 20
191.413601
 42
-0.023096
 10
92.937608
 20
191.334271
 42
-0.022723
 10
92.621734
 20
191.279969
 42
-0.031212
 10
92.334153
 20
191.262
 42
-0.074267
 10
92.034757
 20
191.306717
 42
-0.038689
 10
91.682581
 20
191.444881
 42
-0.037372
 10
91.335179
 20
191.646526
 42
-0.046227
 10
91.047455
 20
191.885455
 10
90.424
 20
192.508909
 10
90.424
 20
217.7592
 42
-0.000268
 10
90.432983
 20
234.522998
 42
-0.004809
 10
90.490507
 20
239.904059
 42
-0.009839
 10
90.605162
 20
242.769976
 42
-0.152888
 10
90.950435
 20
243.678746
 42
-0.044801
 10
91.255458
 20
244.002214
 42
-0.075253
 10
91.56817
 20
244.204853
 42
-0.070844
 10
91.940336
 20
244.313202
 42
-0.035477
  0
LWPOLYLINE
  5
4A0
330
1D
100
AcDbEntity
  8
0
100
AcDbPolyline
 90
       60
 70
     1
 43
0.0
 10
43.953219
 20
215.339493
 42
-0.000571
 10
54.134716
 20
215.284307
 42
-0.005119
 10
58.601266
 20
215.209265
 42
-0.006741
 10
61.228754
 20
215.102742
 42
-0.133551
 10
61.987219
 20
214.851788
 42
-0.10651
 10
62.390144
 20
214.439169
 42
-0.002278
 10
63.895427
 20
212.020703
 42
-0.00485
 10
65.695733
 20
209.034161
 42
-0.002626
 10
67.855656
 20
205.326788
 42
0.000103
 10
70.073705
 20
201.475104
 42
0.000089
 10
72.401382
 20
197.436644
 42
0.00009
 10
74.510769
 20
193.779942
 42
0.000264
 10
75.965631
 20
191.262
 42
-0.004043
 10
77.298639
 20
188.914166
 42
-0.011904
 10
78.163554
 20
187.270857
 42
-0.014019
 10
78.708484
 20
186.090906
 42
-0.09988
 10
78.836274
 20
185.477856
 42
-0.046699
 10
78.804041
 20
185.107963
 42
-0.044637
 10
78.703686
 20
184.744599
 42
-0.046594
 10
78.54678
 20
184.421269
 42
-0.065228
 10
78.3463
 20
184.1709
 42
-0.031743
 10
78.116686
 20
183.976765
 42
-0.022188
 10
77.835681
 20
183.786969
 42
-0.022467
 10
77.548906
 20
183.628533
 42
-0.042621
 10
77.303549
 20
183.532061
 42
-0.135122
 10
76.917569
 20
183.524025
 42
-0.027981
 10
76.263395
 20
183.729075
 42
-0.02145
 10
75.366209
 20
184.111139
 42
-0.007811
 10
74.128549
 20
184.726035
 42
-0.00357
 10
72.779619
 20
185.434937
 42
-0.001136
 10
70.780592
 20
186.509614
 42
-0.001134
 10
68.558607
 20
187.717187
 42
-0.001263
 10
66.421
 20
188.892215
 42
-0.000001
 10
63.813943
 20
190.333889
 10
59.960669
 20
192.464715
 10
55.678489
 20
194.832726
 10
51.562
 20
197.109115
 42
-0.000106
 10
47.325471
 20
199.453058
 42
-0.00008
 10
42.67835
 20
202.026423
 42
-0.000081
 10
38.317119
 20
204.44331
 42
-0.000189
 10
35.052
 20
206.255061
 42
-0.000528
 10
32.360939
 20
207.753327
 42
-0.000641
 10
29.841902
 20
209.163544
 42
-0.00054
 10
27.724869
 20
210.355284
 42
-0.004455
 10
26.767539
 20
210.90686
 42
-0.018127
 10
26.049951
 20
211.364653
 42
-0.033654
 10
25.509497
 20
211.794061
 42
-0.041861
 10
25.123386
 20
212.209818
 42
-0.068123
 10
24.880785
 20
212.625075
 42
-0.026043
 10
24.719958
 20
213.078824
 42
-0.078637
 10
24.677038
 20
213.403082
 42
-0.086196
 10
24.737951
 20
213.707771
 42
-0.03556
 10
24.917924
 20
214.089683
 42
-0.041851
 10
25.105444
 20
214.366673
 42
-0.027369
 10
25.363817
 20
214.653361
 42
-0.027519
 10
25.648473
 20
214.906852
 42
-0.046423
 10
25.915678
 20
215.08182
 42
-0.115665
 10
26.619493
 20
215.266536
 42
-0.003018
 10
29.887429
 20
215.332949
 42
-0.003908
 10
34.855837
 20
215.365087
 42
-0.000733
  0
LWPOLYLINE
  5
4DE
330
1D
100
AcDbEntity
  8
0
100
AcDbPolyline
 90
       56
 70
     1
 43
0.0
 10
132.1547
 20
215.079369
 10
150.413028
 20
215.011
 10
150.922396
 20
214.381868
 42
-0.04409
 10
151.151924
 20
214.040883
 42
-0.064186
 10
151.284902
 20
213.70419
 42
-0.062633
 10
151.330043
 20
213.338585
 42
-0.039676
 10
151.29501
 20
212.910023
 42
-0.049566
 10
151.19977
 20
212.5519
 42
-0.03491
 10
151.026399
 20
212.172641
 42
-0.035368
 10
150.806959
 20
211.82973
 42
-0.060076
 10
150.572628
 20
211.583173
 42
-0.043996
 10
150.103838
 20
211.260475
 42
-0.000613
 10
147.099916
 20
209.565526
 42
-0.001712
 10
143.606472
 20
207.615721
 42
-0.001126
 10
139.573
 20
205.394437
 42
-0.00018
 10
135.065401
 20
202.927364
 42
-0.000137
 10
130.128963
 20
200.22965
 42
-0.000139
 10
125.50187
 20
197.704306
 42
-0.000327
 10
122.047
 20
195.822899
 42
0.000032
 10
118.907187
 20
194.115462
 42
0.000022
 10
115.345369
 20
192.178043
 42
0.000022
 10
111.915673
 20
190.312103
 42
0.000045
 10
109.22
 20
188.845047
 42
-0.000514
 10
106.868212
 20
187.568002
 42
-0.000523
 10
104.527724
 20
186.303375
 42
-0.000508
 10
102.490936
 20
185.208265
 42
-0.002168
 10
101.271613
 20
184.561066
 42
-0.008781
 10
100.378561
 20
184.111828
 42
-0.01133
 10
99.542517
 20
183.732588
 42
-0.009222
 10
98.834836
 20
183.446025
 42
-0.091834
 10
98.521574
 20
183.388
 42
-0.100023
 10
98.272247
 20
183.438381
 42
-0.033519
 10
97.938591
 20
183.606098
 42
-0.031793
 10
97.58469
 20
183.846326
 42
-0.03138
 10
97.262462
 20
184.130462
 42
-0.036183
 10
96.97834
 20
184.458975
 42
-0.034032
 10
96.738098
 20
184.831574
 42
-0.035875
 10
96.571664
 20
185.191682
 42
-0.09055
 10
96.52
 20
185.47462
 42
-0.095073
 10
96.588021
 20
185.829115
 42
-0.011339
 10
96.90199
 20
186.567951
 42
-0.013195
 10
97.322437
 20
187.436353
 42
-0.010482
 10
97.820392
 20
188.351659
 42
-0.001251
 10
98.585186
 20
189.682105
 42
-0.000201
 10
100.083762
 20
192.271606
 42
-0.000223
 10
101.851094
 20
195.319545
 42
-0.000195
 10
103.699399
 20
198.501
 42
-0.000167
 10
105.610889
 20
201.785722
 42
-0.000157
 10
107.568037
 20
205.143894
 42
-0.000156
 10
109.307719
 20
208.124647
 42
-0.000535
 10
110.439684
 20
210.058
 42
-0.004346
 10
111.31481
 20
211.519761
 42
-0.00537
 10
112.156569
 20
212.865734
 42
-0.00446
 10
112.884896
 20
213.980944
 42
-0.039173
 10
113.248863
 20
214.444369
 10
113.896373
 20
215.147739
  0
LWPOLYLINE
  5
518
330
1D
100
AcDbEntity
  8
0
100
AcDbPolyline
 90
       54
 70
     1
 43
0.0
 10
7.85391
 20
212.344
 42
-0.078873
 10
8.075446
 20
212.308835
 42
-0.029345
 10
8.369902
 20
212.193435
 42
-0.0282
 10
8.681869
 20
212.027608
 42
-0.030399
 10
8.96511
 20
211.831437
 42
-0.076407
 10
9.333215
 20
211.437697
 42
-0.005418
 10
10.16994
 20
210.183715
 42
-0.007542
 10
11.133186
 20
208.655776
 42
-0.005615
 10
12.151622
 20
206.941937
 42
-0.000012
 10
13.459282
 20
204.683911
 42
-0.000004
 10
15.410771
 20
201.3139
 42
-0.000004
 10
17.586605
 20
197.556339
 42
-0.000004
 10
19.686958
 20
193.929
 42
-0.000214
 10
21.835866
 20
190.214074
 42
-0.000169
 10
24.158844
 20
186.19113
 42
-0.00017
 10
26.313759
 20
182.453387
 42
-0.000423
 10
27.8885
 20
179.714463
 42
-0.003642
 10
29.349748
 20
177.124433
 42
-0.010201
 10
30.322943
 20
175.282086
 42
-0.010529
 10
30.960535
 20
173.943494
 42
-0.106263
 10
31.0896
 20
173.343064
 42
-0.087792
 10
31.000889
 20
172.841721
 42
-0.018027
 10
30.660966
 20
172.006039
 42
-0.016047
 10
30.142173
 20
170.944179
 42
-0.008314
 10
29.430135
 20
169.650601
 42
-0.001535
 10
28.455823
 20
167.960236
 42
-0.000251
 10
26.556955
 20
164.69287
 42
-0.000276
 10
24.318309
 20
160.850187
 42
-0.000244
 10
21.979408
 20
156.845
 42
-0.000021
 10
19.53872
 20
152.670584
 42
-0.000018
 10
16.99418
 20
148.319331
 42
-0.000019
 10
14.700445
 20
144.397628
 42
-0.000056
 10
13.14083
 20
141.732
 42
-0.001737
 10
11.928856
 20
139.677487
 42
-0.002286
 10
10.8081
 20
137.812066
 42
-0.001659
 10
9.856583
 20
136.256267
 42
-0.021961
 10
9.478831
 20
135.6995
 42
-0.031225
 10
9.117881
 20
135.273115
 42
-0.08118
 10
8.797177
 20
135.032396
 42
-0.084631
 10
8.42476
 20
134.911859
 42
-0.036056
 10
7.90044
 20
134.874
 42
-0.035365
 10
7.44198
 20
134.906467
 42
-0.053237
 10
7.053865
 20
135.004649
 42
-0.059351
 10
6.72732
 20
135.171637
 42
-0.061194
 10
6.452867
 20
135.409217
 42
-0.179216
 10
6.125488
 20
136.227949
 42
-0.003336
 10
6.035788
 20
140.936757
 42
-0.002982
 10
5.982501
 20
149.249179
 42
-0.000191
 10
5.98095
 20
173.541488
 10
5.9929
 20
211.138543
 10
6.693614
 20
211.741271
 42
-0.029077
 10
6.99565
 20
211.971944
 42
-0.028757
 10
7.323495
 20
212.166948
 42
-0.03002
 10
7.629546
 20
212.303283
 42
-0.090005
  0
LWPOLYLINE
  5
550
330
1D
100
AcDbEntity
  8
0
100
AcDbPolyline
 90
       56
 70
     1
 43
0.0
 10
168.187685
 20
212.09
 42
-0.061046
 10
168.535558
 20
212.047368
 42
-0.045907
 10
168.899892
 20
211.920278
 42
-0.044128
 10
169.2502
 20
211.721755
 42
-0.045436
 10
169.556545
 20
211.466545
 10
170.18
 20
210.843091
 10
170.18
 20
173.4008
 10
170.18
 20
135.958508
 10
169.653565
 20
135.289254
 42
-0.044789
 10
169.348886
 20
134.966137
 42
-0.075057
 10
169.036352
 20
134.763419
 42
-0.070801
 10
168.664847
 20
134.654896
 42
-0.035726
 10
168.177086
 20
134.62
 42
-0.039031
 10
167.689729
 20
134.658102
 42
-0.063801
 10
167.292441
 20
134.77384
 42
-0.063599
 10
166.936305
 20
134.986318
 42
-0.038522
 10
166.573936
 20
135.3185
 42
-0.04732
 10
166.167067
 20
135.845726
 42
-0.001895
 10
164.881696
 20
137.900966
 42
-0.003319
 10
163.383185
 20
140.353535
 42
-0.002342
 10
161.730247
 20
143.129
 42
-0.00019
 10
160.034061
 20
146.01017
 42
-0.000213
 10
158.402873
 20
148.786056
 42
-0.000196
 10
157.015446
 20
151.151546
 42
-0.001139
 10
156.287664
 20
152.4
 42
0.000735
 10
155.536128
 20
153.691601
 42
0.000103
 10
153.981846
 20
156.352537
 42
0.000118
 10
152.140863
 20
159.501102
 42
0.0001
 10
150.196198
 20
162.823657
 42
-0.000488
 10
148.310029
 20
166.052008
 42
-0.000705
 10
146.649052
 20
168.910559
 42
-0.000361
 10
145.245141
 20
171.338591
 42
-0.011568
 10
144.916652
 20
171.939336
 42
-0.035555
 10
144.742199
 20
172.34496
 42
-0.038405
 10
144.632278
 20
172.760975
 42
-0.040703
 10
144.591773
 20
173.163922
 42
-0.054108
 10
144.624581
 20
173.530406
 42
-0.072548
 10
144.801595
 20
174.027276
 42
-0.002577
 10
145.763621
 20
175.821226
 42
-0.004717
 10
146.934272
 20
177.929777
 42
-0.00328
 10
148.29432
 20
180.289727
 42
-0.00007
 10
149.806418
 20
182.873344
 42
-0.000056
 10
151.438306
 20
185.660026
 42
-0.000057
 10
152.950413
 20
188.240833
 42
-0.000143
 10
154.051845
 20
190.119
 42
0.000176
 10
155.239599
 20
192.144676
 42
0.000048
 10
157.11514
 20
195.346638
 42
0.000049
 10
159.241985
 20
198.979237
 42
0.00005
 10
161.340454
 20
202.565
 42
-0.002128
 10
163.314842
 20
205.906802
 42
-0.003226
 10
165.063076
 20
208.794747
 42
-0.001231
 10
166.586583
 20
211.261546
 42
-0.078171
 10
166.917772
 20
211.6455
 42
-0.05716
 10
167.172808
 20
211.815826
 42
-0.034496
 10
167.507168
 20
211.959428
 42
-0.034193
 10
167.863895
 20
212.057517
 42
-0.050036
  0
LWPOLYLINE
  5
58A
330
1D
100
AcDbEntity
  8
0
100
AcDbPolyline
 90
       56
 70
     1
 43
0.0
 10
21.51475
 20
207.615692
 42
-0.060926
 10
22.02013
 20
207.42596
 42
-0.001024
 10
24.665108
 20
206.039221
 42
-0.002616
 10
27.735021
 20
204.40109
 42
-0.001735
 10
31.242
 20
202.490352
 42
-0.000177
 10
35.213304
 20
200.306899
 42
-0.000123
 10
39.699406
 20
197.836896
 42
-0.000124
 10
44.005416
 20
195.463278
 42
-0.000256
 10
47.371
 20
193.604716
 42
0.000036
 10
50.528821
 20
191.859069
 42
0.000024
 10
54.147244
 20
189.859362
 42
0.000024
 10
57.657418
 20
187.919913
 42
0.000047
 10
60.452
 20
186.37636
 42
-0.000135
 10
62.976601
 20
184.981347
 42
-0.000117
 10
65.626422
 20
183.515401
 42
-0.000117
 10
68.027756
 20
182.185456
 42
-0.000342
 10
69.685055
 20
181.265593
 42
-0.007038
 10
71.185846
 20
180.403383
 42
-0.017567
 10
72.250008
 20
179.720285
 42
-0.021975
 10
72.978065
 20
179.16711
 42
-0.100082
 10
73.309944
 20
178.754692
 42
-0.045184
 10
73.44107
 20
178.433691
 42
-0.037441
 10
73.522623
 20
178.073473
 42
-0.038483
 10
73.547805
 20
177.718764
 42
-0.060034
 10
73.509366
 20
177.415266
 42
-0.053655
 10
73.4085
 20
177.141589
 42
-0.034988
 10
73.238068
 20
176.850886
 42
-0.035044
 10
73.029343
 20
176.587578
 42
-0.054918
 10
72.812461
 20
176.397074
 42
-0.144266
 10
72.150881
 20
176.174556
 42
-0.004346
 10
69.214712
 20
176.088759
 42
-0.004515
 10
64.46721
 20
176.03421
 42
-0.000615
 10
54.536785
 20
176.022
 42
-0.000997
 10
46.821855
 20
176.03739
 42
-0.002539
 10
41.224824
 20
176.088147
 42
-0.000732
 10
36.785722
 20
176.157453
 42
-0.119139
 10
36.314899
 20
176.2798
 42
-0.11126
 10
36.048462
 20
176.510207
 42
-0.007406
 10
35.456173
 20
177.337452
 42
-0.010396
 10
34.779258
 20
178.357765
 42
-0.007577
 10
34.068014
 20
179.5183
 42
-0.002268
 10
33.028068
 20
181.292668
 42
-0.000336
 10
30.948373
 20
184.883811
 42
-0.000379
 10
28.497322
 20
189.130187
 42
-0.000326
 10
25.926726
 20
193.598204
 42
-0.001812
 10
23.47197
 20
197.907395
 42
-0.002775
 10
21.378649
 20
201.66177
 42
-0.000955
 10
19.596404
 20
204.915051
 42
-0.075611
 10
19.397595
 20
205.462527
 42
-0.051044
 10
19.356675
 20
205.890161
 42
-0.095
 10
19.424263
 20
206.230506
 42
-0.076222
 10
19.626237
 20
206.569279
 42
-0.023912
 10
20.024535
 20
207.007612
 42
-0.023032
 10
20.459903
 20
207.404617
 42
-0.076614
 10
20.790999
 20
207.603246
 42
-0.09975
 10
21.116184
 20
207.665308
 42
-0.056857
  0
LWPOLYLINE
  5
5C4
330
1D
100
AcDbEntity
  8
0
100
AcDbPolyline
 90
       48
 70
     1
 43
0.0
 10
154.888045
 20
207.508058
 42
-0.083573
 10
155.156069
 20
207.46763
 42
-0.038509
 10
155.482961
 20
207.33194
 42
-0.036743
 10
155.812947
 20
207.132391
 42
-0.042041
 10
156.094545
 20
206.894545
 42
-0.046112
 10
156.335549
 20
206.604458
 42
-0.038205
 10
156.536797
 20
206.256778
 42
-0.039645
 10
156.673485
 20
205.903409
 42
-0.072587
 10
156.718
 20
205.59839
 42
-0.100407
 10
156.634501
 20
205.18678
 42
-0.008964
 10
156.203492
 20
204.216975
 42
-0.011398
 10
155.637293
 20
203.071104
 42
-0.008649
 10
154.966482
 20
201.840344
 42
-0.001967
 10
153.933391
 20
200.03709
 42
-0.000316
 10
151.901446
 20
196.527595
 42
-0.000349
 10
149.50287
 20
192.397552
 42
-0.000307
 10
146.991895
 20
188.087
 42
-0.001776
 10
144.552463
 20
183.939083
 42
-0.002603
 10
142.374426
 20
180.308765
 42
-0.001243
 10
140.498292
 20
177.235478
 42
-0.047209
 10
140.011629
 20
176.588498
 10
139.254431
 20
175.757995
 10
121.167145
 20
175.826498
 10
103.07986
 20
175.895
 10
102.46693
 20
176.607664
 42
-0.03696
 10
102.232347
 20
176.925102
 42
-0.031917
 10
102.034048
 20
177.289193
 42
-0.033219
 10
101.897089
 20
177.643888
 42
-0.075664
 10
101.854
 20
177.927
 42
-0.072934
 10
101.894703
 20
178.204551
 42
-0.035545
 10
102.021878
 20
178.540098
 42
-0.034307
 10
102.206765
 20
178.876985
 42
-0.04187
 10
102.4255
 20
179.162218
 42
-0.07777
 10
102.916073
 20
179.557039
 42
-0.001115
 10
106.186684
 20
181.430586
 42
-0.003053
 10
110.005151
 20
183.575893
 42
-0.002005
 10
114.427
 20
186.001684
 42
-0.000032
 10
119.767933
 20
188.903444
 42
-0.000016
 10
126.4539
 20
192.535143
 42
-0.000016
 10
133.332414
 20
196.270853
 42
-0.000024
 10
139.319
 20
199.521529
 42
-0.000428
 10
144.533663
 20
202.346951
 42
-0.000659
 10
149.050375
 20
204.781521
 42
-0.000204
 10
152.972895
 20
206.887082
 42
-0.019833
 10
153.543
 20
207.164286
 42
-0.022965
 10
153.877441
 20
207.292846
 42
-0.017712
 10
154.252432
 20
207.402974
 42
-0.01803
 10
154.610769
 20
207.480914
 42
-0.040288
  0
LWPOLYLINE
  5
5F6
330
1D
100
AcDbEntity
  8
0
100
AcDbPolyline
 90
       44
 70
     1
 43
0.0
 10
54.241496
 20
170.688
 10
72.107672
 20
170.688
 10
72.799169
 20
170.093199
 42
-0.040979
 10
73.108979
 20
169.779097
 42
-0.05834
 10
73.323599
 20
169.45156
 42
-0.061839
 10
73.448395
 20
169.098758
 42
-0.054171
 10
73.490667
 20
168.709733
 42
-0.035329
 10
73.467323
 20
168.379761
 42
-0.030807
 10
73.397553
 20
168.040543
 42
-0.032053
 10
73.295469
 20
167.741073
 42
-0.075169
 10
73.173683
 20
167.539126
 42
-0.058246
 10
72.97101
 20
167.345834
 42
-0.010946
 10
72.554351
 20
167.046195
 42
-0.011574
 10
72.049096
 20
166.716304
 42
-0.010368
 10
71.510446
 20
166.397406
 42
-0.003128
 10
70.531254
 20
165.852832
 42
-0.000081
 10
66.130023
 20
163.441952
 42
-0.000172
 10
60.960306
 20
160.613508
 42
-0.000117
 10
55.084596
 20
157.403208
 42
-0.000149
 10
48.652451
 20
153.893337
 42
-0.000123
 10
41.794095
 20
150.155734
 42
-0.000124
 10
35.499924
 20
146.729632
 42
-0.000333
 10
31.015942
 20
144.294182
 42
-0.001568
 10
26.091594
 20
141.643743
 42
-0.009646
 10
23.525501
 20
140.33594
 42
-0.015023
 10
21.927654
 20
139.618548
 42
-0.120015
 10
21.135174
 20
139.496287
 42
-0.043885
 10
20.705534
 20
139.5716
 42
-0.058487
 10
20.337578
 20
139.71775
 42
-0.059928
 10
20.020207
 20
139.941766
 42
-0.049338
 10
19.741182
 20
140.248672
 42
-0.040571
 10
19.512107
 20
140.615555
 42
-0.064229
 10
19.385604
 20
140.963431
 42
-0.063332
 10
19.35052
 20
141.335569
 42
-0.038256
 10
19.398752
 20
141.776431
 42
-0.080539
 10
19.619675
 20
142.388913
 42
-0.000859
 10
21.815059
 20
146.326415
 42
-0.002698
 10
24.383053
 20
150.856143
 42
-0.001748
 10
27.400004
 20
156.069191
 42
-0.001158
 10
30.446421
 20
161.263282
 42
-0.00179
 10
33.104537
 20
165.734706
 42
-0.00054
 10
35.430414
 20
169.606054
 42
-0.056107
 10
35.808362
 20
170.098933
 10
36.37532
 20
170.688
  0
LWPOLYLINE
  5
624
330
1D
100
AcDbEntity
  8
0
100
AcDbPolyline
 90
       66
 70
     1
 43
0.0
 10
121.271437
 20
170.629449
 42
-0.000404
 10
133.066084
 20
170.575458
 42
-0.006373
 10
137.08492
 20
170.502578
 42
-0.01311
 10
139.23529
 20
170.379661
 42
-0.179061
 10
139.93335
 20
170.053
 42
-0.056983
 10
140.256169
 20
169.641236
 42
-0.00111
 10
141.660993
 20
167.343931
 42
-0.002654
 10
143.282505
 20
164.646861
 42
-0.001775
 10
145.110758
 20
161.544
 42
0.000039
 10
147.124264
 20
158.099439
 42
0.000031
 10
149.308652
 20
154.363738
 42
0.000031
 10
151.341033
 20
150.888975
 42
0.000076
 10
152.834992
 20
148.336
 42
-0.0008
 10
154.034098
 20
146.280062
 42
-0.00107
 10
155.115078
 20
144.41062
 42
-0.000741
 10
156.016136
 20
142.839224
 42
-0.011159
 10
156.316661
 20
142.284961
 42
-0.034902
 10
156.493375
 20
141.872465
 42
-0.042121
 10
156.597932
 20
141.464314
 42
-0.044821
 10
156.628546
 20
141.067538
 42
-0.050951
 10
156.585038
 20
140.688854
 42
-0.056501
 10
156.476574
 20
140.37125
 42
-0.038279
 10
156.286886
 20
140.038788
 42
-0.038479
 10
156.050703
 20
139.741853
 42
-0.060551
 10
155.802009
 20
139.531958
 42
-0.052472
 10
155.47558
 20
139.364006
 42
-0.049946
 10
155.115911
 20
139.264257
 42
-0.046733
 10
154.721799
 20
139.23372
 42
-0.036218
 10
154.292838
 20
139.271771
 42
-0.063067
 10
153.752738
 20
139.431087
 42
-0.006347
 10
152.527627
 20
139.986295
 42
-0.007883
 10
151.080993
 20
140.692183
 42
-0.006195
 10
149.535257
 20
141.501078
 42
-0.00043
 10
147.41691
 20
142.64563
 42
-0.0001
 10
143.857519
 20
144.573655
 42
-0.000103
 10
139.760687
 20
146.794944
 42
-0.000101
 10
135.636
 20
149.033509
 42
-0.000117
 10
131.594545
 20
151.229184
 42
-0.000136
 10
127.748109
 20
153.321431
 42
-0.000121
 10
124.492068
 20
155.094703
 42
-0.000807
 10
122.8725
 20
155.980637
 42
0.000193
 10
121.629485
 20
156.662572
 42
0.000113
 10
120.142
 20
157.47744
 42
0.000113
 10
118.654494
 20
158.291442
 42
0.000194
 10
117.4115
 20
158.970649
 42
-0.00002
 10
116.138344
 20
159.665764
 42
-0.000011
 10
114.550428
 20
160.532859
 42
-0.000011
 10
112.920383
 20
161.423048
 42
-0.000016
 10
111.506
 20
162.195558
 42
-0.000553
 10
110.09612
 20
162.967695
 42
-0.000367
 10
108.480225
 20
163.856529
 42
-0.00037
 10
106.912528
 20
164.721864
 42
-0.000721
 10
105.664
 20
165.414583
 42
-0.008354
 10
104.60101
 20
166.029854
 42
-0.00973
 10
103.612553
 20
166.650754
 42
-0.008842
 10
102.798239
 20
167.205475
 42
-0.056314
 10
102.4255
 20
167.537838
 42
-0.042704
 10
102.206754
 20
167.828751
 42
-0.034209
 10
102.021878
 20
168.174533
 42
-0.035327
 10
101.894812
 20
168.520512
 42
-0.070454
 10
101.854
 20
168.808709
 42
-0.077589
 10
101.898881
 20
169.09619
 42
-0.038181
 10
102.038594
 20
169.439923
 42
-0.036708
 10
102.241913
 20
169.782389
 42
-0.044091
 10
102.482404
 20
170.069495
 10
103.110808
 20
170.697899
  0
LWPOLYLINE
  5
668
330
1D
100
AcDbEntity
  8
0
100
AcDbPolyline
 90
       46
 70
     1
 43
0.0
 10
76.814868
 20
163.068
 42
-0.059528
 10
77.147836
 20
163.028217
 42
-0.038474
 10
77.517432
 20
162.907889
 42
-0.038078
 10
77.869965
 20
162.7298
 42
-0.052622
 10
78.152129
 20
162.515724
 42
-0.051144
 10
78.412012
 20
162.216052
 42
-0.056595
 10
78.595518
 20
161.879458
 42
-0.054478
 10
78.70374
 20
161.499127
 42
-0.042118
 10
78.74
 20
161.069431
 42
-0.120167
 10
78.534984
 20
160.228703
 42
-0.005598
 10
77.146743
 20
157.623318
 42
-0.005699
 10
74.916326
 20
153.656028
 42
-0.001115
 10
70.805736
 20
146.572207
 42
-0.001178
 10
67.723965
 20
141.317028
 42
-0.001826
 10
65.036724
 20
136.797064
 42
-0.000536
 10
62.68268
 20
132.87978
 42
-0.059042
 10
62.308281
 20
132.3975
 10
61.745091
 20
131.826
 10
43.8608
 20
131.826
 42
-0.000398
 10
32.087821
 20
131.83538
 42
-0.006693
 10
28.191861
 20
131.893745
 42
-0.016354
 10
26.1414
 20
132.019125
 42
-0.144172
 10
25.307254
 20
132.352435
 42
-0.044801
 10
25.00966
 20
132.63306
 42
-0.06147
 10
24.801368
 20
132.935949
 42
-0.064344
 10
24.679364
 20
133.26903
 42
-0.055708
 10
24.638
 20
133.639134
 42
-0.028485
 10
24.656576
 20
133.964941
 42
-0.022195
 10
24.712499
 20
134.315272
 42
-0.022678
 10
24.794195
 20
134.637879
 42
-0.049547
 10
24.891613
 20
134.873277
 42
-0.125647
 10
25.13751
 20
135.141832
 42
-0.004831
 10
26.283294
 20
135.87587
 42
-0.008376
 10
27.67312
 20
136.715323
 42
-0.005781
 10
29.273113
 20
137.62091
 42
-0.001044
 10
31.88296
 20
139.051392
 42
-0.000103
 10
38.157433
 20
142.471793
 42
-0.00013
 10
45.637774
 20
146.545015
 42
-0.000103
 10
53.721
 20
150.941624
 42
-0.000038
 10
61.58246
 20
155.214738
 42
-0.000058
 10
68.369345
 20
158.902079
 42
-0.000017
 10
74.277573
 20
162.110895
 42
-0.001916
 10
75.053238
 20
162.528292
 42
-0.026499
 10
75.495742
 20
162.734916
 42
-0.021648
 10
75.988265
 20
162.909461
 42
-0.022172
 10
76.456429
 20
163.030476
 42
-0.052201
  0
LWPOLYLINE
  5
698
330
1D
100
AcDbEntity
  8
0
100
AcDbPolyline
 90
       58
 70
     1
 43
0.0
 10
98.529532
 20
163.068
 42
-0.108821
 10
98.986772
 20
162.967293
 42
-0.003847
 10
100.62967
 20
162.191289
 42
-0.0069
 10
102.575803
 20
161.220357
 42
-0.004585
 10
104.781778
 20
160.055763
 42
-0.00033
 10
107.627215
 20
158.51763
 42
-0.000111
 10
111.782629
 20
156.266643
 42
-0.00011
 10
116.38067
 20
153.773262
 42
-0.000126
 10
120.777
 20
151.38658
 42
0.000037
 10
125.108685
 20
149.034002
 42
0.000036
 10
129.512219
 20
146.643234
 42
0.000035
 10
133.404175
 20
144.530926
 42
0.000127
 10
135.89
 20
143.182818
 42
-0.000381
 10
138.03781
 20
142.01661
 42
-0.000218
 10
140.626306
 20
140.607102
 42
-0.000218
 10
143.226794
 20
139.18812
 42
-0.000364
 10
145.415
 20
137.990798
 42
-0.003089
 10
147.299231
 20
136.942831
 42
-0.004342
 10
148.96637
 20
135.982889
 42
-0.002599
 10
150.357474
 20
135.155963
 42
-0.05814
 10
150.727833
 20
134.869907
 42
-0.066419
 10
150.917019
 20
134.628315
 42
-0.041163
 10
151.073821
 20
134.303224
 42
-0.040239
 10
151.179339
 20
133.945326
 42
-0.051613
 10
151.214667
 20
133.604
 42
-0.05342
 10
151.176122
 20
133.24426
 42
-0.04474
 10
151.06157
 20
132.877706
 42
-0.044763
 10
150.883725
 20
132.53758
 42
-0.053634
 10
150.657072
 20
132.256389
 10
150.099476
 20
131.699
 10
131.984629
 20
131.699
 42
-0.000588
 10
121.778895
 20
131.711009
 42
-0.00449
 10
116.97875
 20
131.765415
 42
-0.004033
 10
114.008799
 20
131.849727
 42
-0.165599
 10
113.415345
 20
132.076271
 42
-0.040354
 10
113.197543
 20
132.288972
 42
-0.012478
 10
112.904988
 20
132.642264
 42
-0.01239
 10
112.59632
 20
133.055201
 42
-0.013317
 10
112.316105
 20
133.473271
 42
-0.008108
 10
111.865698
 20
134.211816
 42
-0.000243
 10
110.036437
 20
137.32718
 42
-0.000483
 10
107.88729
 20
140.999526
 42
-0.000333
 10
105.461002
 20
145.161
 42
0.000065
 10
102.990166
 20
149.404106
 42
0.000082
 10
100.702795
 20
153.329481
 42
0.000065
 10
98.782818
 20
156.622131
 42
0.000664
 10
97.983696
 20
157.988
 42
-0.012687
 10
97.489401
 20
158.88147
 42
-0.013503
 10
97.051755
 20
159.780702
 42
-0.013181
 10
96.717392
 20
160.572478
 42
-0.058954
 10
96.59033
 20
161.059028
 42
-0.03174
 10
96.55265
 20
161.565819
 42
-0.096142
 10
96.614619
 20
161.904557
 42
-0.098703
 10
96.797643
 20
162.190474
 42
-0.03454
 10
97.161239
 20
162.519528
 42
-0.040188
 10
97.477433
 20
162.729494
 42
-0.031165
 10
97.850799
 20
162.906886
 42
-0.031997
 10
98.222357
 20
163.028888
 42
-0.063407
  0
LWPOLYLINE
  5
6D4
330
1D
100
AcDbEntity
  8
0
100
AcDbPolyline
 90
       44
 70
     1
 43
0.0
 10
83.312
 20
155.31383
 42
-0.059628
 10
83.596341
 20
155.214989
 42
-0.02986
 10
83.928347
 20
155.02781
 42
-0.029148
 10
84.253129
 20
154.790337
 42
-0.038005
 10
84.5185
 20
154.535273
 10
85.09
 20
153.895672
 10
85.09
 20
129.125298
 10
85.09
 20
104.354923
 10
84.347538
 20
103.612462
 42
-0.030038
 10
84.027038
 20
103.328318
 42
-0.031075
 10
83.678273
 20
103.088098
 42
-0.032702
 10
83.351795
 20
102.919934
 42
-0.102927
 10
83.111793
 20
102.87
 42
-0.077247
 10
82.875342
 20
102.90675
 42
-0.029712
 10
82.564355
 20
103.026577
 42
-0.028556
 10
82.236553
 20
103.199023
 42
-0.031294
 10
81.940874
 20
103.403027
 42
-0.075959
 10
81.552388
 20
103.817827
 42
-0.004802
 10
80.618445
 20
105.208417
 42
-0.006974
 10
79.540296
 20
106.898386
 42
-0.005122
 10
78.39056
 20
108.800527
 42
-0.000271
 10
77.133389
 20
110.932005
 42
-0.000194
 10
75.729126
 20
113.317942
 42
-0.000196
 10
74.392784
 20
115.592531
 42
-0.00042
 10
73.364336
 20
117.348
 42
-0.000248
 10
72.385281
 20
119.024292
 42
-0.000146
 10
71.216204
 20
121.029558
 42
-0.000146
 10
70.048942
 20
123.034396
 42
-0.000249
 10
69.075669
 20
124.70909
 42
-0.005283
 10
68.037371
 20
126.542056
 42
-0.017459
 10
67.409035
 20
127.779293
 42
-0.025544
 10
67.05064
 20
128.666484
 42
-0.086389
 10
66.951143
 20
129.28109
 42
-0.11678
 10
67.15553
 20
130.10078
 42
-0.006068
 10
68.441469
 20
132.517452
 42
-0.006084
 10
70.495754
 20
136.161669
 42
-0.001276
 10
74.185043
 20
142.486834
 42
-0.00156
 10
77.530377
 20
148.148278
 42
-0.004851
 10
79.834031
 20
151.935127
 42
-0.002684
 10
81.569884
 20
154.694079
 42
-0.132717
 10
82.042673
 20
155.125727
 42
-0.048759
 10
82.331999
 20
155.240821
 42
-0.033524
 10
82.677198
 20
155.315894
 42
-0.033859
 10
83.022715
 20
155.343395
 42
-0.056853
  0
LWPOLYLINE
  5
702
330
1D
100
AcDbEntity
  8
0
100
AcDbPolyline
 90
       46
 70
     1
 43
0.0
 10
93.028028
 20
155.115567
 42
-0.054425
 10
93.329808
 20
154.980452
 42
-0.031634
 10
93.659365
 20
154.758384
 42
-0.031292
 10
93.965139
 20
154.490869
 42
-0.045426
 10
94.195646
 20
154.216468
 42
-0.01867
 10
94.530608
 20
153.694522
 42
-0.000231
 10
96.552547
 20
150.265356
 42
-0.000684
 10
98.883972
 20
146.29473
 42
-0.000448
 10
101.561118
 20
141.711593
 42
-0.001384
 10
105.009528
 20
135.758122
 42
-0.006042
 10
106.99769
 20
132.205036
 42
-0.005531
 10
108.270631
 20
129.801219
 42
-0.119551
 10
108.458
 20
129.028785
 42
-0.109393
 10
108.304813
 20
128.336991
 42
-0.011485
 10
107.565988
 20
126.841284
 42
-0.009638
 10
106.36503
 20
124.648432
 42
-0.002517
 10
104.351585
 20
121.175192
 42
-0.000452
 10
102.551773
 20
118.112531
 42
-0.000325
 10
100.536268
 20
114.694999
 42
-0.000328
 10
98.613915
 20
111.445124
 42
-0.000709
 10
97.129726
 20
108.947827
 42
-0.002387
 10
95.909847
 20
106.92389
 42
-0.00358
 10
94.824032
 20
105.170064
 42
-0.001496
 10
93.880371
 20
103.679865
 42
-0.0778
 10
93.655433
 20
103.424835
 42
-0.055789
 10
93.465134
 20
103.299814
 42
-0.021882
 10
93.178789
 20
103.16986
 42
-0.021335
 10
92.853966
 20
103.055096
 42
-0.024896
 10
92.536732
 20
102.975046
 42
-0.049648
 10
92.128478
 20
102.934835
 42
-0.078046
 10
91.781089
 20
102.98976
 42
-0.068863
 10
91.437729
 20
103.155662
 42
-0.03074
 10
91.03694
 20
103.459751
 10
90.297
 20
104.096427
 10
90.297
 20
129.110661
 42
-0.000308
 10
90.30678
 20
144.976283
 42
-0.004303
 10
90.363017
 20
150.691948
 42
-0.006051
 10
90.460927
 20
153.896373
 42
-0.175012
 10
90.768025
 20
154.645258
 42
-0.042083
 10
90.988337
 20
154.850914
 42
-0.03189
 10
91.260773
 20
155.038551
 42
-0.032652
 10
91.541274
 20
155.182482
 42
-0.062354
 10
91.784025
 20
155.253408
 42
-0.045574
 10
92.042628
 20
155.271184
 42
-0.021978
 10
92.374253
 20
155.24913
 42
-0.021586
 10
92.720497
 20
155.195553
 42
-0.028891
  0
LWPOLYLINE
  5
732
330
1D
100
AcDbEntity
  8
0
100
AcDbPolyline
 90
       50
 70
     1
 43
0.0
 10
43.603353
 20
126.492
 10
61.439672
 20
126.492
 10
62.070758
 20
125.9205
 42
-0.069682
 10
62.466913
 20
125.446109
 42
-0.001503
 10
64.060365
 20
122.868134
 42
-0.003422
 10
65.897906
 20
119.828732
 42
-0.002299
 10
67.957681
 20
116.332
 42
0.000095
 10
70.172548
 20
112.533796
 42
0.000084
 10
72.481318
 20
108.577815
 42
0.000084
 10
74.562425
 20
105.01468
 42
0.000257
 10
75.976759
 20
102.596945
 42
-0.004402
 10
77.230789
 20
100.411882
 42
-0.011771
 10
78.073637
 20
98.826632
 42
-0.01289
 10
78.619532
 20
97.665124
 42
-0.103763
 10
78.74
 20
97.090881
 42
-0.051978
 10
78.699666
 20
96.703936
 42
-0.0659
 10
78.580148
 20
96.365348
 42
-0.063752
 10
78.372807
 20
96.061155
 42
-0.044698
 10
78.070746
 20
95.776435
 42
-0.032923
 10
77.776675
 20
95.57495
 42
-0.029158
 10
77.446785
 20
95.40464
 42
-0.030307
 10
77.130935
 20
95.286589
 42
-0.074408
 10
76.886427
 20
95.25
 42
-0.101375
 10
76.553128
 20
95.318278
 42
-0.005713
 10
75.58349
 20
95.746122
 42
-0.008583
 10
74.436428
 20
96.291944
 42
-0.006174
 10
73.174181
 20
96.938925
 42
-0.002739
 10
71.075561
 20
98.062279
 42
-0.000197
 10
65.282928
 20
101.206883
 42
-0.000277
 10
58.378164
 20
104.963701
 42
-0.000209
 10
50.8
 20
109.096462
 42
-0.000034
 10
43.25989
 20
113.213219
 42
-0.000046
 10
36.472812
 20
116.920234
 42
-0.00003
 10
30.768686
 20
120.036872
 42
-0.000541
 10
28.956
 20
121.029978
 42
-0.00418
 10
27.874409
 20
121.635887
 42
-0.004505
 10
26.829941
 20
122.245072
 42
-0.004262
 10
25.943072
 20
122.783395
 42
-0.021459
 10
25.4635
 20
123.109368
 42
-0.031223
 10
25.033766
 20
123.473035
 42
-0.082823
 10
24.793987
 20
123.794559
 42
-0.08499
 10
24.674951
 20
124.171424
 42
-0.034105
 10
24.638
 20
124.712524
 42
-0.030526
 10
24.668055
 20
125.204355
 42
-0.066398
 10
24.763153
 20
125.569667
 42
-0.079727
 10
24.936352
 20
125.854465
 42
-0.063656
 10
25.202517
 20
126.096597
 42
-0.14289
 10
25.904543
 20
126.334828
 42
-0.005452
 10
28.690091
 20
126.425083
 42
-0.004799
 10
33.330214
 20
126.480242
 42
-0.000572
  0
LWPOLYLINE
  5
766
330
1D
100
AcDbEntity
  8
0
100
AcDbPolyline
 90
       58
 70
     1
 43
0.0
 10
132.115599
 20
126.43502
 10
150.100111
 20
126.365
 10
150.657389
 20
125.807611
 42
-0.053727
 10
150.879837
 20
125.531372
 42
-0.042803
 10
151.058348
 20
125.192666
 42
-0.043083
 10
151.175446
 20
124.831315
 42
-0.056877
 10
151.214667
 20
124.487645
 42
-0.036164
 10
151.191508
 20
124.167876
 42
-0.031075
 10
151.122274
 20
123.837749
 42
-0.032294
 10
151.020952
 20
123.545208
 42
-0.073819
 10
150.900138
 20
123.346085
 42
-0.079518
 10
150.650546
 20
123.127454
 42
-0.004067
 10
149.732038
 20
122.561104
 42
-0.0064
 10
148.62183
 20
121.908222
 42
-0.004591
 10
147.365305
 20
121.205997
 42
-0.000497
 10
145.718339
 20
120.307441
 42
-0.000165
 10
143.300265
 20
118.992334
 42
-0.000164
 10
140.61904
 20
117.536394
 42
-0.000187
 10
138.049
 20
116.143161
 42
-0.000548
 10
134.880746
 20
114.431653
 42
-0.000168
 10
130.087687
 20
111.851274
 42
-0.000168
 10
124.719107
 20
108.965705
 42
-0.000184
 10
119.507
 20
106.168959
 42
0.000021
 10
114.467295
 20
103.46683
 42
0.000024
 10
109.61654
 20
100.86545
 42
0.000022
 10
105.486181
 20
98.649922
 42
0.000127
 10
103.314712
 20
97.48431
 42
-0.006219
 10
101.816441
 20
96.703425
 42
-0.007896
 10
100.413172
 20
96.02171
 42
-0.006383
 10
99.224621
 20
95.485693
 42
-0.062589
 10
98.697873
 20
95.33086
 42
-0.036991
 10
98.22345
 20
95.289516
 42
-0.084519
 10
97.86973
 20
95.345025
 42
-0.082075
 10
97.547979
 20
95.515851
 42
-0.033396
 10
97.17366
 20
95.843249
 42
-0.042668
 10
96.910871
 20
96.155171
 42
-0.041385
 10
96.701813
 20
96.510258
 42
-0.04374
 10
96.565263
 20
96.870891
 42
-0.068741
 10
96.52
 20
97.198563
 42
-0.101974
 10
96.612754
 20
97.648627
 42
-0.010882
 10
97.058494
 20
98.625031
 42
-0.01231
 10
97.676143
 20
99.827115
 42
-0.007603
 10
98.458138
 20
101.210608
 42
-0.000306
 10
99.457568
 20
102.915269
 42
-0.000098
 10
100.94711
 20
105.451191
 42
-0.000097
 10
102.607505
 20
108.275467
 42
-0.000109
 10
104.209595
 20
110.998
 42
-0.000356
 10
105.844252
 20
113.769984
 42
-0.000288
 10
107.60317
 20
116.743929
 42
-0.000291
 10
109.229435
 20
119.486345
 42
-0.00075
 10
110.407317
 20
121.463247
 42
-0.006048
 10
111.369403
 20
123.029151
 42
-0.007924
 10
112.288021
 20
124.434687
 42
-0.006045
 10
113.086936
 20
125.585535
 42
-0.071464
 10
113.461403
 20
125.978268
 42
-0.14485
 10
114.296979
 20
126.310862
 42
-0.016661
 10
116.338115
 20
126.42897
 42
-0.006704
 10
120.228155
 20
126.472044
 42
-0.000389
  0
LWPOLYLINE
  5
7A2
330
1D
100
AcDbEntity
  8
0
100
AcDbPolyline
 90
       52
 70
     1
 43
0.0
 10
7.58158
 20
123.444
 42
-0.036667
 10
8.061836
 20
123.408733
 42
-0.058486
 10
8.458812
 20
123.301665
 42
-0.061915
 10
8.804155
 20
123.111226
 42
-0.047281
 10
9.128295
 20
122.825717
 42
-0.053959
 10
9.523743
 20
122.301598
 42
-0.000312
 10
12.668521
 20
117.030697
 42
-0.001321
 10
16.238191
 20
111.002986
 42
-0.000839
 10
20.364473
 20
103.966217
 42
-0.000608
 10
26.634625
 20
93.202117
 42
-0.005693
 10
29.275205
 20
88.534729
 42
-0.007818
 10
30.741151
 20
85.771966
 42
-0.150029
 10
30.908047
 20
84.824502
 42
-0.074663
 10
30.755007
 20
84.276911
 42
-0.009635
 10
30.234345
 20
83.173377
 42
-0.010696
 10
29.540031
 20
81.844611
 42
-0.007529
 10
28.705143
 20
80.379502
 42
0.000001
 10
27.752729
 20
78.765148
 42
0.000001
 10
26.612022
 20
76.831622
 42
0.000001
 10
25.470678
 20
74.897005
 42
0.000001
 10
24.516129
 20
73.279
 42
0.000047
 10
23.516641
 20
71.584446
 42
0.000022
 10
22.222694
 20
69.389964
 42
0.000022
 10
20.865963
 20
67.08854
 42
0.000031
 10
19.654631
 20
65.033259
 42
-0.000279
 10
18.335105
 20
62.796942
 42
-0.00013
 10
16.620935
 20
59.897199
 42
-0.000128
 10
14.819986
 20
56.854245
 42
-0.000179
 10
13.208
 20
54.134392
 42
-0.004167
 10
11.748217
 20
51.719455
 42
-0.005955
 10
10.409854
 20
49.603351
 42
-0.003423
 10
9.250835
 20
47.844707
 42
-0.08622
 10
8.854267
 20
47.428771
 42
-0.032911
 10
8.452598
 20
47.170508
 42
-0.096449
 10
8.140969
 20
47.069543
 42
-0.086748
 10
7.795317
 20
47.08755
 42
-0.023421
 10
7.264818
 20
47.235479
 42
-0.039206
 10
6.891294
 20
47.392147
 42
-0.03423
 10
6.528582
 20
47.61152
 42
-0.035773
 10
6.227654
 20
47.856817
 42
-0.080277
 10
6.048598
 20
48.089842
 42
-0.122322
 10
5.88526
 20
48.725483
 42
-0.000442
 10
5.829045
 20
56.525828
 42
-0.00162
 10
5.795758
 20
67.321809
 42
-0.000376
 10
5.812242
 20
85.471
 42
-0.000283
 10
5.858425
 20
106.214434
 42
-0.002191
 10
5.928011
 20
115.912334
 42
-0.001176
 10
6.014332
 20
122.117927
 42
-0.140853
 10
6.244549
 20
122.8725
 42
-0.063798
 10
6.474408
 20
123.143516
 42
-0.084205
 10
6.74628
 20
123.318526
 42
-0.070017
 10
7.099218
 20
123.413977
 42
-0.031091
  0
LWPOLYLINE
  5
7D8
330
1D
100
AcDbEntity
  8
0
100
AcDbPolyline
 90
       56
 70
     1
 43
0.0
 10
168.358038
 20
123.423947
 42
-0.136329
 10
168.534364
 20
123.386077
 42
-0.026942
 10
168.81491
 20
123.219272
 42
-0.026726
 10
169.130119
 20
122.982751
 42
-0.022061
 10
169.440056
 20
122.699021
 10
170.185036
 20
121.954041
 10
170.119018
 20
84.830559
 10
170.053
 20
47.707077
 10
169.453361
 20
47.221538
 42
-0.042926
 10
169.17862
 20
47.035652
 42
-0.032257
 10
168.848975
 20
46.878627
 42
-0.032992
 10
168.517086
 20
46.770814
 42
-0.062113
 10
168.237924
 20
46.736
 42
-0.051664
 10
167.957367
 20
46.765067
 42
-0.02777
 10
167.620987
 20
46.855271
 42
-0.027345
 10
167.284756
 20
46.986534
 42
-0.03831
 10
167.002451
 20
47.142028
 42
-0.056759
 10
166.710124
 20
47.384989
 42
-0.017478
 10
166.327719
 20
47.813148
 42
-0.017238
 10
165.930173
 20
48.32582
 42
-0.018105
 10
165.575676
 20
48.856528
 42
-0.003694
 10
165.000735
 20
49.804224
 42
-0.000103
 10
162.545398
 20
53.92163
 42
-0.000211
 10
159.660888
 20
58.765636
 42
-0.000145
 10
156.393209
 20
64.262
 42
-0.000271
 10
153.058315
 20
69.882064
 42
-0.000338
 10
149.96524
 20
75.109103
 42
-0.000273
 10
147.373535
 20
79.501108
 42
-0.002579
 10
146.27192
 20
81.39252
 42
-0.007077
 10
145.603135
 20
82.593529
 42
-0.009743
 10
145.038864
 20
83.692238
 42
-0.006801
 10
144.599861
 20
84.621454
 42
-0.107349
 10
144.526
 20
84.96151
 42
-0.105302
 10
144.597337
 20
85.296481
 42
-0.007677
 10
144.997043
 20
86.156607
 42
-0.010452
 10
145.515343
 20
87.173745
 42
-0.007716
 10
146.12955
 20
88.27799
 42
-0.00174
 10
147.045427
 20
89.853682
 42
-0.000334
 10
148.718213
 20
92.704291
 42
-0.000356
 10
150.674799
 20
96.02801
 42
-0.000328
 10
152.690226
 20
99.441
 42
-0.000069
 10
154.889126
 20
103.157944
 42
-0.000046
 10
157.404445
 20
107.407509
 42
-0.000047
 10
159.841511
 20
111.523117
 42
-0.000092
 10
161.777563
 20
114.790564
 42
-0.000767
 10
163.390736
 20
117.502447
 42
-0.001126
 10
164.818375
 20
119.881875
 42
-0.000525
 10
166.041327
 20
121.90498
 42
-0.020886
 10
166.329388
 20
122.33845
 42
-0.042575
 10
166.537064
 20
122.578411
 42
-0.027663
 10
166.813683
 20
122.819555
 42
-0.027791
 10
167.112148
 20
123.026433
 42
-0.046448
 10
167.386
 20
123.161333
 42
-0.013133
 10
167.653838
 20
123.255661
 42
-0.012122
 10
167.933474
 20
123.338533
 42
-0.012215
 10
168.186099
 20
123.400205
 42
-0.038916
  0
LWPOLYLINE
  5
812
330
1D
100
AcDbEntity
  8
0
100
AcDbPolyline
 90
       56
 70
     1
 43
0.0
 10
21.040782
 20
118.872
 42
-0.078541
 10
21.622923
 20
118.779989
 42
-0.022512
 10
22.480616
 20
118.458584
 42
-0.017273
 10
23.615144
 20
117.927111
 42
-0.006946
 10
25.128916
 20
117.126425
 42
0.000467
 10
27.279654
 20
115.952916
 42
0.000028
 10
33.8
 20
112.403583
 42
0.000042
 10
41.565233
 20
108.177996
 42
0.000031
 10
50.165
 20
103.499896
 42
-0.000876
 10
58.588694
 20
98.899115
 42
-0.001382
 10
65.797509
 20
94.919505
 42
-0.000312
 10
72.110689
 20
91.406365
 42
-0.059361
 10
72.7075
 20
90.973949
 42
-0.039865
 10
73.000458
 20
90.656641
 42
-0.047091
 10
73.221419
 20
90.31321
 42
-0.051178
 10
73.359513
 20
89.962731
 42
-0.068374
 10
73.406
 20
89.624373
 42
-0.063883
 10
73.365997
 20
89.312558
 42
-0.042924
 10
73.245726
 20
88.973615
 42
-0.042393
 10
73.066624
 20
88.654559
 42
-0.05619
 10
72.850105
 20
88.401895
 42
-0.093245
 10
72.40069
 20
88.117578
 42
-0.063195
 10
71.812395
 20
87.966173
 42
-0.027671
 10
70.835659
 20
87.897351
 42
-0.003504
 10
68.722605
 20
87.880429
 42
0.00027
 10
66.771444
 20
87.877424
 42
0.000064
 10
63.514109
 20
87.870235
 42
0.000066
 10
59.769727
 20
87.861001
 42
0.000065
 10
56.007
 20
87.850741
 42
-0.000422
 10
52.118916
 20
87.842916
 42
-0.000354
 10
47.997278
 20
87.841017
 42
-0.000357
 10
44.232346
 20
87.844638
 42
-0.000986
 10
41.580372
 20
87.854312
 42
-0.001641
 10
38.123676
 20
87.885083
 42
-0.024045
 10
36.908027
 20
87.958433
 42
-0.074814
 10
36.240172
 20
88.134449
 42
-0.104918
 10
35.738372
 20
88.489755
 42
-0.049949
 10
35.371369
 20
88.976759
 42
-0.000862
 10
33.647823
 20
91.824505
 42
-0.00218
 10
31.659534
 20
95.155251
 42
-0.001449
 10
29.407111
 20
98.991462
 42
-0.000233
 10
27.038522
 20
103.056785
 42
-0.00024
 10
24.694566
 20
107.088591
 42
-0.000232
 10
22.664468
 20
110.588119
 42
-0.001014
 10
21.469611
 20
112.659712
 42
-0.006163
 10
20.543737
 20
114.319553
 42
-0.012591
 10
19.866586
 20
115.648299
 42
-0.012653
 10
19.406391
 20
116.676521
 42
-0.099204
 10
19.304
 20
117.187504
 42
-0.047613
 10
19.334858
 20
117.510824
 42
-0.035394
 10
19.427483
 20
117.85752
 42
-0.036151
 10
19.563223
 20
118.174945
 42
-0.06489
 10
19.724367
 20
118.4075
 42
-0.075312
 10
19.957739
 20
118.598115
 42
-0.048874
 10
20.273979
 20
118.745792
 42
-0.044855
 10
20.644598
 20
118.840255
 42
-0.04
  0
LWPOLYLINE
  5
84C
330
1D
100
AcDbEntity
  8
0
100
AcDbPolyline
 90
       60
 70
     1
 43
0.0
 10
154.715246
 20
118.869519
 42
-0.085737
 10
154.917313
 20
118.83587
 42
-0.028098
 10
155.197165
 20
118.7201
 42
-0.027051
 10
155.499122
 20
118.554152
 42
-0.027484
 10
155.779732
 20
118.357374
 42
-0.031193
 10
156.041955
 20
118.123233
 42
-0.026411
 10
156.288907
 20
117.845465
 42
-0.027255
 10
156.487135
 20
117.567464
 42
-0.064489
 10
156.594374
 20
117.33737
 42
-0.141001
 10
156.603703
 20
116.994171
 42
-0.028497
 10
156.415757
 20
116.407355
 42
-0.023098
 10
156.074019
 20
115.627756
 42
-0.009767
 10
155.547472
 20
114.613496
 42
-0.005336
 10
154.861167
 20
113.383806
 42
-0.00113
 10
153.637251
 20
111.255983
 42
-0.001183
 10
152.206827
 20
108.79555
 42
-0.001123
 10
150.739955
 20
106.299
 42
-0.000078
 10
149.123559
 20
103.563037
 42
-0.000049
 10
147.235163
 20
100.368524
 42
-0.000049
 10
145.37756
 20
97.227507
 42
-0.00009
 10
143.86437
 20
94.670485
 42
-0.001722
 10
142.569821
 20
92.500908
 42
-0.002368
 10
141.39027
 20
90.560316
 42
-0.00151
 10
140.386425
 20
88.937294
 42
-0.028408
 10
140.041358
 20
88.447485
 10
139.493716
 20
87.757
 10
121.159309
 20
87.757
 10
102.824901
 20
87.757
 10
102.339451
 20
88.356639
 42
-0.048539
 10
102.153532
 20
88.638227
 42
-0.032985
 10
101.996601
 20
88.989073
 42
-0.033266
 10
101.889165
 20
89.351549
 42
-0.055467
 10
101.854
 20
89.66756
 42
-0.066616
 10
101.900692
 20
90.016461
 42
-0.059634
 10
102.038001
 20
90.355118
 42
-0.053681
 10
102.267193
 20
90.681939
 42
-0.038131
 10
102.586993
 20
90.995615
 42
-0.044717
 10
103.137433
 20
91.380435
 42
-0.001671
 10
105.332912
 20
92.629957
 42
-0.003013
 10
107.946057
 20
94.084947
 42
-0.002113
 10
110.905493
 20
95.693225
 42
0.000017
 10
114.395753
 20
97.571061
 42
0.000009
 10
118.650357
 20
99.860422
 42
0.000009
 10
122.956462
 20
102.177704
 42
0.000015
 10
126.619
 20
104.148891
 42
-0.000169
 10
130.130639
 20
106.037471
 42
-0.00013
 10
133.963569
 20
108.095885
 42
-0.000132
 10
137.546928
 20
110.017853
 42
-0.000315
 10
140.208
 20
111.442086
 42
0.000403
 10
142.522248
 20
112.681221
 42
0.000344
 10
144.960181
 20
113.991269
 42
0.000346
 10
147.175797
 20
115.185796
 42
0.000985
 10
148.717
 20
116.022025
 42
-0.002266
 10
149.977078
 20
116.701551
 42
-0.002269
 10
151.242713
 20
117.369329
 42
-0.002216
 10
152.352429
 20
117.942177
 42
-0.009022
 10
153.035
 20
118.275318
 42
-0.011123
 10
153.551309
 20
118.50204
 42
-0.012904
 10
154.052447
 20
118.693949
 42
-0.011971
 10
154.482652
 20
118.834594
 42
-0.071618
  0
LWPOLYLINE
  5
88A
330
1D
100
AcDbEntity
  8
0
100
AcDbPolyline
 90
       58
 70
     1
 43
0.0
 10
54.399158
 20
82.480018
 10
72.095317
 20
82.423
 10
72.750658
 20
81.807224
 42
-0.044008
 10
73.012775
 20
81.513477
 42
-0.042604
 10
73.222645
 20
81.175313
 42
-0.045131
 10
73.360378
 20
80.830556
 42
-0.072597
 10
73.406
 20
80.518
 42
-0.069475
 10
73.364521
 20
80.220921
 42
-0.04131
 10
73.238417
 20
79.885927
 42
-0.040477
 10
73.053613
 20
79.565772
 42
-0.054161
 10
72.8345
 20
79.312206
 42
-0.059956
 10
72.354502
 20
78.962105
 42
-0.000546
 10
68.476416
 20
76.796363
 42
-0.001856
 10
64.002055
 20
74.325748
 42
-0.001197
 10
58.801
 20
71.495184
 42
-0.000028
 10
53.505591
 20
68.630071
 42
-0.000038
 10
48.733869
 20
66.049124
 42
-0.000025
 10
44.724077
 20
63.880951
 42
-0.000447
 10
43.434
 20
63.184952
 42
0.000011
 10
42.319146
 20
62.584739
 42
0.000002
 10
40.148669
 20
61.416129
 42
0.000002
 10
37.59307
 20
60.04014
 42
0.000002
 10
34.925
 20
58.603568
 42
-0.000033
 10
32.194132
 20
57.133406
 42
-0.000033
 10
29.449829
 20
55.656479
 42
-0.000032
 10
27.045363
 20
54.362849
 42
-0.000126
 10
25.559821
 20
53.564217
 42
-0.00391
 10
24.438655
 20
52.973091
 42
-0.004422
 10
23.353216
 20
52.42372
 42
-0.004045
 10
22.422925
 20
51.972495
 42
-0.02414
 10
21.925376
 20
51.764917
 42
-0.02499
 10
21.438664
 20
51.615955
 42
-0.072261
 10
21.088922
 20
51.579885
 42
-0.080781
 10
20.765914
 20
51.646276
 42
-0.036902
 10
20.374793
 20
51.829308
 42
-0.042181
 10
20.087788
 20
52.023886
 42
-0.026218
 10
19.785127
 20
52.296117
 42
-0.026225
 10
19.512794
 20
52.598343
 42
-0.042403
 10
19.318544
 20
52.884592
 42
-0.065964
 10
19.139057
 20
53.334321
 42
-0.11918
 10
19.134818
 20
53.728683
 42
-0.057313
 10
19.322055
 20
54.256329
 42
-0.00647
 10
19.896084
 20
55.390786
 42
-0.010289
 10
20.551055
 20
56.584172
 42
-0.000733
 10
22.445869
 20
59.863115
 42
-0.001033
 10
24.719505
 20
63.765721
 42
-0.000779
 10
27.23307
 20
68.044433
 42
0.000017
 10
29.739615
 20
72.296341
 42
0.000023
 10
31.991024
 20
76.116157
 42
0.000015
 10
33.884463
 20
79.329187
 42
0.000284
 10
34.47049
 20
80.324993
 42
-0.021206
 10
34.849079
 20
80.910792
 42
-0.020891
 10
35.277722
 20
81.465452
 42
-0.021303
 10
35.693389
 20
81.918576
 42
-0.071234
 10
36.015199
 20
82.160011
 42
-0.116434
 10
36.811822
 20
82.380145
 42
-0.005094
 10
39.713066
 20
82.460221
 42
-0.004539
 10
44.462058
 20
82.499764
 42
-0.000617
  0
LWPOLYLINE
  5
8C6
330
1D
100
AcDbEntity
  8
0
100
AcDbPolyline
 90
       64
 70
     1
 43
0.0
 10
121.793
 20
82.344331
 42
-0.000689
 10
131.128295
 20
82.288947
 42
-0.004298
 10
135.908315
 20
82.212909
 42
-0.003633
 10
138.960272
 20
82.115921
 42
-0.135183
 10
139.615773
 20
81.907556
 42
-0.100152
 10
139.938122
 20
81.591118
 42
-0.003785
 10
140.878543
 20
80.178778
 42
-0.006687
 10
141.961459
 20
78.476195
 42
-0.004644
 10
143.141137
 20
76.525225
 42
0.000091
 10
144.450678
 20
74.314267
 42
0.000064
 10
145.928843
 20
71.820372
 42
0.000064
 10
147.346942
 20
69.42921
 42
0.000133
 10
148.454115
 20
67.564
 42
0.00004
 10
149.53442
 20
65.74549
 42
0.000022
 10
150.860491
 20
63.513913
 42
0.000022
 10
152.208539
 20
61.245805
 42
0.000035
 10
153.362341
 20
59.305023
 42
-0.002467
 10
154.37357
 20
57.585068
 42
-0.003165
 10
155.286132
 20
55.992132
 42
-0.002438
 10
156.035732
 20
54.648978
 42
-0.027101
 10
156.302706
 20
54.096255
 42
-0.024392
 10
156.486415
 20
53.588262
 42
-0.071145
 10
156.544275
 20
53.220808
 42
-0.074536
 10
156.495607
 20
52.8616
 42
-0.028648
 10
156.326877
 20
52.385733
 42
-0.018652
 10
156.179431
 20
52.068701
 42
-0.025966
 10
156.022703
 20
51.797836
 42
-0.02453
 10
155.875985
 20
51.594701
 42
-0.20104
 10
155.777762
 20
51.541113
 42
0.01003
 10
155.65805
 20
51.52635
 42
0.001514
 10
155.41907
 20
51.491259
 42
0.001698
 10
155.137142
 20
51.448009
 42
0.001467
 10
154.841413
 20
51.400725
 42
-0.141936
 10
154.175024
 20
51.48142
 42
-0.0111
 10
152.526384
 20
52.226958
 42
-0.009049
 10
149.978895
 20
53.504979
 42
-0.001769
 10
145.443413
 20
55.90452
 42
-0.000139
 10
141.607637
 20
57.952646
 42
-0.000094
 10
137.235021
 20
60.290042
 42
-0.000095
 10
133.009389
 20
62.550919
 42
-0.000189
 10
129.667
 20
64.341668
 42
-0.000562
 10
126.252384
 20
66.177717
 42
-0.000252
 10
121.771569
 20
68.596477
 42
-0.00025
 10
117.039973
 20
71.156749
 42
-0.00034
 10
112.776
 20
73.470501
 42
-0.001612
 10
108.987033
 20
75.545693
 42
-0.002434
 10
105.701703
 20
77.379757
 42
-0.000941
 10
102.890779
 20
78.973957
 42
-0.057441
 10
102.4255
 20
79.315017
 42
-0.054295
 10
102.206061
 20
79.567745
 42
-0.040779
 10
102.021317
 20
79.886685
 42
-0.041623
 10
101.895447
 20
80.220779
 42
-0.069388
 10
101.854
 20
80.518
 42
-0.069462
 10
101.895475
 20
80.815099
 42
-0.041356
 10
102.021544
 20
81.149962
 42
-0.040521
 10
102.206339
 20
81.46994
 42
-0.054181
 10
102.4255
 20
81.723385
 42
-0.048292
 10
102.699849
 20
81.933269
 42
-0.030995
 10
103.052959
 20
82.123693
 42
-0.03105
 10
103.425556
 20
82.268433
 42
-0.049756
 10
103.759
 20
82.339161
 42
-0.02714
 10
104.350352
 20
82.371906
 42
-0.000191
 10
109.370813
 20
82.375263
 42
-0.000738
 10
115.11761
 20
82.368429
 42
-0.000472
  0
LWPOLYLINE
  5
908
330
1D
100
AcDbEntity
  8
0
100
AcDbPolyline
 90
       62
 70
     1
 43
0.0
 10
76.574858
 20
74.93
 42
-0.052068
 10
76.756436
 20
74.91104
 42
-0.017886
 10
77.01324
 20
74.847146
 42
-0.017554
 10
77.293485
 20
74.755914
 42
-0.019427
 10
77.557143
 20
74.647944
 42
-0.049029
 10
77.817163
 20
74.49716
 42
-0.031622
 10
78.086685
 20
74.276201
 42
-0.031688
 10
78.325156
 20
74.024044
 42
-0.050733
 10
78.490542
 20
73.778514
 42
-0.054764
 10
78.599388
 20
73.507556
 42
-0.036251
 10
78.666101
 20
73.1786
 42
-0.036358
 10
78.684434
 20
72.845212
 42
-0.057101
 10
78.646759
 20
72.561078
 42
-0.064585
 10
78.472594
 20
72.118479
 42
-0.001243
 10
77.277592
 20
69.963789
 42
-0.002983
 10
75.859735
 20
67.457451
 42
-0.001992
 10
74.207828
 20
64.604008
 42
-0.00046
 10
72.358551
 20
61.445456
 42
-0.000357
 10
70.340595
 20
58.011671
 42
-0.000361
 10
68.453993
 20
54.811921
 42
-0.000873
 10
67.054111
 20
52.451
 42
0.000123
 10
65.890059
 20
50.494503
 42
0.000137
 10
64.768147
 20
48.606596
 42
0.000126
 10
63.812496
 20
46.996533
 42
0.000722
 10
63.306422
 20
46.140603
 42
-0.019065
 10
62.849095
 20
45.428125
 42
-0.038227
 10
62.426173
 20
44.91065
 42
-0.047318
 10
61.999256
 20
44.540257
 42
-0.056128
 10
61.532999
 20
44.280725
 42
-0.089385
 10
60.564509
 20
44.06671
 42
-0.005801
 10
57.673837
 20
43.986952
 42
-0.004523
 10
52.919555
 20
43.953973
 42
-0.000644
 10
43.164467
 20
43.987121
 10
25.69459
 20
44.069
 10
25.039295
 20
44.684776
 42
-0.043162
 10
24.788537
 20
44.96486
 42
-0.037609
 10
24.576493
 20
45.296584
 42
-0.039431
 10
24.430617
 20
45.6279
 42
-0.084181
 10
24.384
 20
45.902821
 42
-0.075119
 10
24.425026
 20
46.174355
 42
-0.038846
 10
24.551878
 20
46.494209
 42
-0.037519
 10
24.736778
 20
46.809623
 42
-0.046457
 10
24.9555
 20
47.070317
 42
-0.055172
 10
25.358047
 20
47.389006
 42
-0.004748
 10
26.478309
 20
48.075718
 42
-0.006219
 10
27.836117
 20
48.86761
 42
-0.004784
 10
29.337
 20
49.699236
 42
-0.000329
 10
31.660499
 20
50.955788
 42
-0.000041
 10
36.691094
 20
53.67153
 42
-0.000049
 10
42.664501
 20
56.894859
 42
-0.00004
 10
49.022
 20
60.32399
 42
0.000123
 10
55.296745
 20
63.709828
 42
0.000162
 10
61.01715
 20
66.800769
 42
0.000117
 10
65.811711
 20
69.394907
 42
0.001577
 10
67.564
 20
70.350685
 42
-0.001916
 10
68.800252
 20
71.023905
 42
-0.001038
 10
70.325972
 20
71.843111
 42
-0.001033
 10
71.882567
 20
72.670606
 42
-0.001633
 10
73.221309
 20
73.373159
 42
-0.00463
 10
74.393414
 20
73.96966
 42
-0.006716
 10
75.439917
 20
74.472678
 42
-0.003688
 10
76.329557
 20
74.877732
 42
-0.105356
  0
LWPOLYLINE
  5
948
330
1D
100
AcDbEntity
  8
0
100
AcDbPolyline
 90
       56
 70
     1
 43
0.0
 10
98.933
 20
74.772391
 42
-0.05237
 10
99.375072
 20
74.632019
 42
-0.007224
 10
100.254594
 20
74.232313
 42
-0.008221
 10
101.285023
 20
73.725063
 42
-0.006876
 10
102.362
 20
73.153879
 42
0.001487
 10
104.160738
 20
72.17492
 42
0.000088
 10
109.617669
 20
69.227246
 42
0.000133
 10
116.117593
 20
65.719884
 42
0.000098
 10
123.317
 20
61.839369
 42
0.000023
 10
130.625048
 20
57.902568
 42
0.000028
 10
137.458404
 20
54.222371
 42
0.000023
 10
143.205001
 20
51.128215
 42
0.000198
 10
145.776927
 20
49.744872
 42
-0.004079
 10
147.417876
 20
48.845776
 42
-0.005392
 10
148.896831
 20
47.998628
 42
-0.003939
 10
150.120433
 20
47.267085
 42
-0.051913
 10
150.539427
 20
46.948263
 42
-0.051046
 10
150.776127
 20
46.675431
 42
-0.044552
 10
150.965163
 20
46.347978
 42
-0.045704
 10
151.088655
 20
46.002354
 42
-0.063039
 10
151.13
 20
45.675724
 42
-0.059294
 10
151.092872
 20
45.363741
 42
-0.039021
 10
150.980775
 20
45.019606
 42
-0.039016
 10
150.81654
 20
44.697
 42
-0.059198
 10
150.622
 20
44.45
 42
-0.177546
 10
149.920791
 20
44.125037
 42
-0.013734
 10
147.817798
 20
44.009106
 42
-0.006495
 10
143.873781
 20
43.951463
 42
-0.000406
 10
132.223535
 20
43.942
 42
-0.001087
 10
124.866765
 20
43.957995
 42
-0.00219
 10
119.065531
 20
44.00863
 42
-0.000621
 10
114.253281
 20
44.077687
 42
-0.087152
 10
113.694221
 20
44.18489
 42
-0.144111
 10
113.241786
 20
44.528527
 42
-0.011438
 10
112.367401
 20
45.774008
 42
-0.010638
 10
111.155454
 20
47.673383
 42
-0.002897
 10
109.322344
 20
50.72539
 42
0.000018
 10
107.631071
 20
53.578326
 42
0.000011
 10
105.623843
 20
56.963777
 42
0.000011
 10
103.627768
 20
60.330076
 42
0.000019
 10
101.973823
 20
63.119
 42
-0.001051
 10
100.517838
 20
65.585708
 42
-0.001194
 10
99.132855
 20
67.956375
 42
-0.001083
 10
97.965366
 20
69.975816
 42
-0.006645
 10
97.379519
 20
71.026321
 42
-0.008809
 10
96.8492
 20
72.050425
 42
-0.045481
 10
96.619076
 20
72.644973
 42
-0.080739
 10
96.565648
 20
73.098479
 42
-0.073711
 10
96.655072
 20
73.560922
 42
-0.05381
 10
96.798662
 20
73.861477
 42
-0.037322
 10
97.020009
 20
74.166458
 42
-0.037683
 10
97.280067
 20
74.430522
 42
-0.061366
 10
97.540218
 20
74.606648
 42
-0.053899
 10
97.841276
 20
74.72164
 42
-0.034694
 10
98.20869
 20
74.791465
 42
-0.034252
 10
98.589812
 20
74.810525
 42
-0.04611
  0
LWPOLYLINE
  5
982
330
1D
100
AcDbEntity
  8
0
100
AcDbPolyline
 90
       52
 70
     1
 43
0.0
 10
83.596732
 20
66.989174
 42
-0.073163
 10
83.883937
 20
66.847909
 42
-0.03738
 10
84.197589
 20
66.595355
 42
-0.036145
 10
84.488055
 20
66.28099
 42
-0.044942
 10
84.707346
 20
65.949056
 42
-0.114214
 10
84.983786
 20
64.936657
 42
-0.00646
 10
85.06939
 20
61.669417
 42
-0.004147
 10
85.098201
 20
55.886309
 42
-0.000351
 10
85.038475
 20
41.006981
 42
-0.000471
 10
84.963707
 20
27.792375
 42
-0.003164
 10
84.87893
 20
21.234797
 42
-0.002208
 10
84.779343
 20
17.02872
 42
-0.133026
 10
84.562861
 20
16.310068
 42
-0.053705
 10
84.379823
 20
16.076353
 42
-0.037565
 10
84.128941
 20
15.854531
 42
-0.037976
 10
83.852751
 20
15.676335
 42
-0.062228
 10
83.59383
 20
15.57508
 42
-0.049172
 10
83.313329
 20
15.532623
 42
-0.028071
 10
82.97031
 20
15.534054
 42
-0.027798
 10
82.621969
 20
15.574601
 42
-0.040902
 10
82.32383
 20
15.651751
 42
-0.089264
 10
82.002846
 20
15.832576
 42
-0.026225
 10
81.584963
 20
16.216852
 42
-0.024937
 10
81.143523
 20
16.715152
 42
-0.021984
 10
80.733808
 20
17.275739
 42
-0.011641
 10
80.120888
 20
18.244938
 42
-0.000582
 10
78.191232
 20
21.468067
 42
-0.000936
 10
75.909496
 20
25.305674
 42
-0.000677
 10
73.380242
 20
29.591
 42
-0.001924
 10
70.909672
 20
33.827084
 42
-0.002974
 10
68.811173
 20
37.507585
 42
-0.000939
 10
67.019168
 20
40.708499
 42
-0.090138
 10
66.850235
 20
41.2038
 42
-0.124334
 10
66.901161
 20
41.719191
 42
-0.024296
 10
67.262423
 20
42.587005
 42
-0.017036
 10
67.911186
 20
43.841965
 42
-0.004657
 10
69.019724
 20
45.7758
 42
-0.000316
 10
70.201041
 20
47.789899
 42
-0.000097
 10
71.987437
 20
50.829885
 42
-0.000097
 10
73.988256
 20
54.231744
 42
-0.000106
 10
75.930533
 20
57.531
 42
-0.00117
 10
77.751602
 20
60.606387
 42
-0.001666
 10
79.384876
 20
63.32929
 42
-0.000919
 10
80.777381
 20
65.623827
 42
-0.024741
 10
81.177501
 20
66.212754
 42
-0.035401
 10
81.45286
 20
66.528606
 42
-0.033131
 10
81.775863
 20
66.810063
 42
-0.034846
 10
82.096637
 20
67.020625
 42
-0.088451
 10
82.358891
 20
67.111853
 42
-0.042173
 10
82.625842
 20
67.131651
 42
-0.022134
 10
82.958502
 20
67.113495
 42
-0.021857
 10
83.300039
 20
67.064497
 42
-0.031223
  0
LWPOLYLINE
  5
9B8
330
1D
100
AcDbEntity
  8
0
100
AcDbPolyline
 90
       48
 70
     1
 43
0.0
 10
92.172914
 20
67.056
 42
-0.038903
 10
92.660516
 20
67.018004
 42
-0.064204
 10
93.056644
 20
66.90248
 42
-0.064107
 10
93.410921
 20
66.690098
 42
-0.038659
 10
93.771282
 20
66.3575
 42
-0.049425
 10
94.195035
 20
65.799375
 42
-0.000944
 10
96.094072
 20
62.693153
 42
-0.00228
 10
98.288407
 20
59.051359
 42
-0.001524
 10
100.76824
 20
54.864
 42
-0.000094
 10
103.249291
 20
50.643482
 42
-0.000135
 10
105.448941
 20
46.89772
 42
-0.000073
 10
107.3094
 20
43.726547
 42
-0.002065
 10
107.787438
 20
42.903684
 42
-0.016647
 10
108.044124
 20
42.421135
 42
-0.018006
 10
108.261022
 20
41.934879
 42
-0.017804
 10
108.41632
 20
41.506727
 42
-0.078248
 10
108.458
 20
41.242025
 42
-0.100937
 10
108.396077
 20
40.938412
 42
-0.008998
 10
108.076311
 20
40.223101
 42
-0.011444
 10
107.656276
 20
39.378005
 42
-0.00868
 10
107.158633
 20
38.470341
 42
-0.003586
 10
106.345463
 20
37.069805
 42
-0.000412
 10
104.490344
 20
33.932732
 42
-0.000497
 10
102.276826
 20
30.205062
 42
-0.000405
 10
99.899739
 20
26.21832
 42
-0.002401
 10
97.472438
 20
22.198816
 42
-0.004313
 10
95.436259
 20
18.92709
 42
-0.00182
 10
93.718554
 20
16.241096
 42
-0.104921
 10
93.30778
 20
15.827256
 42
-0.045096
 10
92.949896
 20
15.636406
 42
-0.070842
 10
92.613508
 20
15.547522
 42
-0.062538
 10
92.23633
 20
15.550552
 42
-0.027723
 10
91.746481
 20
15.643936
 42
-0.040279
 10
91.331395
 20
15.783485
 42
-0.050411
 10
90.976108
 20
15.98016
 42
-0.055214
 10
90.694382
 20
16.225577
 42
-0.069357
 10
90.497551
 20
16.51
 42
-0.112537
 10
90.318448
 20
17.233293
 42
-0.001404
 10
90.242744
 20
22.024129
 42
-0.002667
 10
90.189118
 20
29.026125
 42
-0.000543
 10
90.173744
 20
41.431246
 42
-0.00028
 10
90.180277
 20
57.544118
 42
-0.004994
 10
90.237077
 20
62.729521
 42
-0.010465
 10
90.352557
 20
65.485906
 42
-0.152086
 10
90.696435
 20
66.386746
 42
-0.044789
 10
91.001114
 20
66.709863
 42
-0.075057
 10
91.313648
 20
66.912581
 42
-0.070801
 10
91.685153
 20
67.021104
 42
-0.035726
  0
LWPOLYLINE
  5
9EA
330
1D
100
AcDbEntity
  8
0
100
AcDbPolyline
 90
       74
 70
     1
 43
0.0
 10
43.620493
 20
38.5919
 10
61.205986
 20
38.608
 10
61.962801
 20
37.9095
 42
-0.063894
 10
62.422488
 20
37.361335
 42
-0.002511
 10
63.830969
 20
35.140503
 42
-0.004416
 10
65.465344
 20
32.48278
 42
-0.003102
 10
67.259759
 20
29.464
 42
0.000286
 10
69.24539
 20
26.080285
 42
0.000207
 10
71.460572
 20
22.3139
 42
0.000209
 10
73.567126
 20
18.739025
 42
0.000457
 10
75.18488
 20
16.002
 42
-0.003942
 10
76.611874
 20
13.548839
 42
-0.008269
 10
77.674379
 20
11.615117
 42
-0.006022
 10
78.45001
 20
10.102619
 42
-0.115819
 10
78.570263
 20
9.591778
 42
-0.052335
 10
78.538836
 20
9.290663
 42
-0.036009
 10
78.443744
 20
8.960661
 42
-0.036335
 10
78.304353
 20
8.652817
 42
-0.059507
 10
78.138994
 20
8.419563
 42
-0.067146
 10
77.871889
 20
8.194061
 42
-0.083841
 10
77.573324
 20
8.067914
 42
-0.063419
 10
77.187274
 20
8.026915
 42
-0.022954
 10
76.636161
 20
8.063764
 42
-0.055744
 10
76.034237
 20
8.200918
 42
-0.015359
 10
75.126176
 20
8.549078
 42
-0.014364
 10
74.055478
 20
9.034386
 42
-0.010587
 10
72.898
 20
9.630323
 42
0.000723
 10
71.783779
 20
10.232085
 42
0.000674
 10
70.641369
 20
10.844954
 42
0.000671
 10
69.62474
 20
11.386829
 42
0.002291
 10
68.961
 20
11.735577
 42
-0.000653
 10
68.357385
 20
12.050215
 42
-0.000308
 10
67.579081
 20
12.457814
 42
-0.000305
 10
66.764853
 20
12.885502
 42
-0.000431
 10
66.04
 20
13.267607
 42
-0.001046
 10
65.288449
 20
13.666627
 42
-0.00061
 10
64.389
 20
14.147997
 42
-0.00061
 10
63.489618
 20
14.632159
 42
-0.001034
 10
62.738
 20
15.039969
 42
0.000042
 10
61.905455
 20
15.493829
 42
0.000015
 10
60.713938
 20
16.143205
 42
0.000015
 10
59.405364
 20
16.856276
 42
0.000017
 10
58.166
 20
17.531529
 42
-0.000112
 10
56.600935
 20
18.384618
 42
-0.000029
 10
54.088506
 20
19.755016
 42
-0.00003
 10
51.226839
 20
21.316341
 42
-0.00003
 10
48.387
 20
22.866197
 42
0.000519
 10
45.380953
 20
24.502948
 42
0.000371
 10
42.013981
 20
26.328451
 42
0.000375
 10
38.802548
 20
28.063429
 42
0.000804
 10
36.322
 20
29.396005
 42
-0.000289
 10
34.216724
 20
30.524193
 42
-0.000327
 10
32.196881
 20
31.609804
 42
-0.000298
 10
30.480509
 20
32.535074
 42
-0.001795
 10
29.591
 20
33.019411
 42
-0.001866
 10
28.884499
 20
33.410835
 42
-0.000989
 10
28.011738
 20
33.900905
 42
-0.000984
 10
27.121248
 20
34.405566
 42
-0.001527
 10
26.354875
 20
34.844985
 42
-0.014779
 10
25.590134
 20
35.317247
 42
-0.030948
 10
25.031489
 20
35.737237
 42
-0.040041
 10
24.658399
 20
36.111202
 42
-0.115075
 10
24.491777
 20
36.435159
 42
-0.055855
 10
24.455265
 20
36.705375
 42
-0.03631
 10
24.470987
 20
37.020369
 42
-0.036316
 10
24.532098
 20
37.329679
 42
-0.055993
 10
24.633007
 20
37.58267
 42
-0.051557
 10
24.78539
 20
37.808097
 42
-0.033984
 10
25.002375
 20
38.033946
 42
-0.034111
 10
25.246276
 20
38.226891
 42
-0.054571
 10
25.480104
 20
38.352227
 42
-0.092328
 10
25.932939
 20
38.443493
 42
-0.000384
 10
31.037738
 20
38.514855
 42
-0.001888
 10
36.839255
 20
38.569601
 42
-0.001186
  0
LWPOLYLINE
  5
A36
330
1D
100
AcDbEntity
  8
0
100
AcDbPolyline
 90
       72
 70
     1
 43
0.0
 10
132.17612
 20
38.464365
 42
-0.000853
 10
140.678483
 20
38.379543
 42
-0.003195
 10
146.01771
 20
38.283051
 42
-0.001403
 10
149.878667
 20
38.177757
 42
-0.131496
 10
150.410052
 20
38.018281
 42
-0.063705
 10
150.607178
 20
37.858778
 42
-0.038198
 10
150.798458
 20
37.625553
 42
-0.037677
 10
150.955968
 20
37.359922
 42
-0.052917
 10
151.051488
 20
37.101601
 42
-0.062486
 10
151.087011
 20
36.815734
 42
-0.039401
 10
151.060119
 20
36.480037
 42
-0.038643
 10
150.979098
 20
36.143041
 42
-0.050186
 10
150.851556
 20
35.852362
 42
-0.049392
 10
150.660276
 20
35.580117
 42
-0.026514
 10
150.375901
 20
35.283417
 42
-0.026136
 10
150.050867
 20
35.008904
 42
-0.036919
 10
149.733
 20
34.802791
 42
-0.002291
 10
149.234103
 20
34.532259
 42
-0.000176
 10
147.889119
 20
33.811494
 42
-0.000241
 10
146.284024
 20
32.953061
 42
-0.000184
 10
144.526
 20
32.014763
 42
-0.000095
 10
142.6845
 20
31.03323
 42
-0.000092
 10
140.827125
 20
30.044127
 42
-0.000091
 10
139.195242
 20
29.175872
 42
-0.000346
 10
138.176
 20
28.634718
 42
0.000836
 10
137.227034
 20
28.129682
 42
0.000313
 10
135.897938
 20
27.418417
 42
0.00031
 10
134.451186
 20
26.641865
 42
0.000377
 10
133.096
 20
25.91206
 42
-0.000759
 10
131.373565
 20
24.986179
 42
-0.000187
 10
128.540669
 20
23.470276
 42
-0.000191
 10
125.29443
 20
21.736344
 42
-0.000191
 10
122.047
 20
20.004965
 42
-0.00011
 10
118.734355
 20
18.241382
 42
-0.000098
 10
115.292188
 20
16.410688
 42
-0.000099
 10
112.197399
 20
14.76631
 42
-0.000306
 10
110.109
 20
13.658833
 42
-0.00025
 10
108.299811
 20
12.702
 42
-0.000165
 10
106.217269
 20
11.602807
 42
-0.000166
 10
104.190261
 20
10.534638
 42
-0.00032
 10
102.567448
 20
9.681479
 42
-0.005324
 10
100.764662
 20
8.759527
 42
-0.02034
 10
99.613084
 20
8.24332
 42
-0.03275
 10
98.794308
 20
7.97629
 42
-0.079422
 10
98.162901
 20
7.918503
 42
-0.037904
 10
97.747227
 20
7.97836
 42
-0.05029
 10
97.384674
 20
8.098218
 42
-0.056721
 10
97.090427
 20
8.27185
 42
-0.078501
 10
96.877953
 20
8.491983
 42
-0.04702
 10
96.740796
 20
8.733185
 42
-0.029499
 10
96.625149
 20
9.036658
 42
-0.029492
 10
96.545977
 20
9.351787
 42
-0.046827
 10
96.52
 20
9.628549
 42
-0.122709
 10
96.630596
 20
10.072407
 42
-0.002561
 10
97.715876
 20
12.089974
 42
-0.005689
 10
99.050405
 20
14.475691
 42
-0.003499
 10
100.673176
 20
17.255533
 42
0.000102
 10
102.536143
 20
20.397602
 42
0.000064
 10
104.709311
 20
24.065632
 42
0.000065
 10
106.844615
 20
27.67187
 42
0.000119
 10
108.581094
 20
30.607
 42
-0.001987
 10
110.058694
 20
33.083392
 42
-0.002841
 10
111.390795
 20
35.267725
 42
-0.001553
 10
112.532864
 20
37.103951
 42
-0.042942
 10
112.873418
 20
37.556277
 42
-0.023928
 10
113.116447
 20
37.802421
 42
-0.01867
 10
113.40231
 20
38.046435
 42
-0.019029
 10
113.686258
 20
38.253984
 42
-0.042922
 10
113.919
 20
38.383361
 42
-0.104214
 10
114.359113
 20
38.478952
 42
-0.00044
 10
119.302438
 20
38.505236
 42
-0.002055
 10
125.083146
 20
38.50712
 42
-0.001122
  0
LWPOLYLINE
  5
A80
330
1D
100
AcDbEntity
  8
0
100
AcDbPolyline
 90
       50
 70
     1
 43
0.0
 10
7.40136
 20
35.56
 42
-0.068864
 10
7.745225
 20
35.512414
 42
-0.041994
 10
8.129697
 20
35.368154
 42
-0.039041
 10
8.517905
 20
35.145396
 42
-0.037075
 10
8.873971
 20
34.8615
 42
-0.047592
 10
9.262518
 20
34.425987
 42
-0.008795
 10
9.884115
 20
33.547447
 42
-0.009367
 10
10.576147
 20
32.489895
 42
-0.008414
 10
11.253972
 20
31.369
 42
0.000773
 10
12.102195
 20
29.916662
 42
0.000235
 10
13.392864
 20
27.716956
 42
0.000235
 10
14.841732
 20
25.252936
 42
0.000256
 10
16.251966
 20
22.86
 42
-0.000126
 10
17.630056
 20
20.522997
 42
-0.000133
 10
18.982432
 20
18.226881
 42
-0.000127
 10
20.147312
 20
16.246749
 42
-0.000604
 10
20.812051
 20
15.113
 42
-0.000515
 10
21.351648
 20
14.187951
 42
-0.000303
 10
21.994926
 20
13.081
 42
-0.000303
 10
22.636436
 20
11.974005
 42
-0.000518
 10
23.170454
 20
11.049
 42
-0.005481
 10
23.630588
 20
10.229419
 42
-0.006558
 10
24.045267
 20
9.447264
 42
-0.005712
 10
24.378053
 20
8.780539
 42
-0.042388
 10
24.505149
 20
8.449729
 42
-0.077151
 10
24.543766
 20
8.149876
 42
-0.087479
 10
24.486102
 20
7.866032
 42
-0.070393
 10
24.32025
 20
7.573315
 42
-0.032349
 10
24.03032
 20
7.243229
 10
23.391091
 20
6.604
 10
15.492932
 20
6.604
 42
-0.001708
 10
11.269551
 20
6.618427
 42
-0.009199
 10
8.972897
 20
6.676383
 42
-0.014099
 10
7.545075
 20
6.779109
 42
-0.094589
 10
6.866543
 20
6.980582
 42
-0.057994
 10
6.546698
 20
7.196179
 42
-0.045767
 10
6.25577
 20
7.495992
 42
-0.044301
 10
6.015105
 20
7.855164
 42
-0.045788
 10
5.844554
 20
8.247262
 42
-0.072472
 10
5.700268
 20
9.067699
 42
-0.003489
 10
5.637846
 20
11.852036
 42
-0.004247
 10
5.610421
 20
15.801842
 42
-0.001274
 10
5.635071
 20
21.816415
 42
-0.000671
 10
5.698373
 20
29.73931
 42
-0.00837
 10
5.776697
 20
32.742626
 42
-0.017922
 10
5.905304
 20
34.374344
 42
-0.156527
 10
6.20104
 20
35.027735
 42
-0.060725
 10
6.440874
 20
35.235524
 42
-0.04384
 10
6.750883
 20
35.406904
 42
-0.043832
 10
7.086105
 20
35.521641
 42
-0.060615
  0
LWPOLYLINE
  5
AB4
330
1D
100
AcDbEntity
  8
0
100
AcDbPolyline
 90
       46
 70
     1
 43
0.0
 10
168.173709
 20
35.306
 42
-0.05909
 10
168.529794
 20
35.263771
 42
-0.046904
 10
168.896514
 20
35.138233
 42
-0.045176
 10
169.247405
 20
34.94018
 42
-0.045345
 10
169.556545
 20
34.682545
 10
170.18
 20
34.059091
 10
170.18
 20
21.105497
 42
-0.001262
 10
170.164778
 20
15.076282
 42
-0.004044
 10
170.111983
 20
11.057574
 42
-0.002449
 10
170.035653
 20
8.136195
 42
-0.099452
 10
169.891596
 20
7.518924
 42
-0.036391
 10
169.751025
 20
7.26178
 42
-0.030897
 10
169.567445
 20
7.012518
 42
-0.032061
 10
169.370885
 20
6.805991
 42
-0.072162
 10
169.193096
 20
6.683849
 42
-0.10612
 10
168.864174
 20
6.601113
 42
-0.001186
 10
166.565203
 20
6.526132
 42
-0.003615
 10
163.903485
 20
6.464898
 42
-0.00234
 10
160.822959
 20
6.430733
 42
-0.002557
 10
157.500031
 20
6.426429
 42
-0.004954
 10
154.843908
 20
6.46289
 42
-0.002978
 10
152.733327
 20
6.52536
 42
-0.082128
 10
152.192128
 20
6.634747
 42
-0.026592
 10
151.921273
 20
6.754566
 42
-0.025861
 10
151.662048
 20
6.903463
 42
-0.026776
 10
151.448546
 20
7.058029
 42
-0.081244
 10
151.329559
 20
7.191391
 42
-0.070003
 10
151.255397
 20
7.354563
 42
-0.02342
 10
151.192972
 20
7.609677
 42
-0.022782
 10
151.149489
 20
7.902143
 42
-0.024123
 10
151.133889
 20
8.191808
 42
-0.105173
 10
151.228988
 20
8.651469
 42
-0.011094
 10
151.694315
 20
9.650834
 42
-0.012285
 10
152.349291
 20
10.901204
 42
-0.006977
 10
153.199662
 20
12.382808
 42
-0.000291
 10
154.337482
 20
14.300135
 42
-0.000067
 10
156.260447
 20
17.535219
 42
-0.000069
 10
158.477116
 20
21.262104
 42
-0.000067
 10
160.713023
 20
25.019
 42
-0.002172
 10
162.844636
 20
28.564429
 42
-0.003239
 10
164.742346
 20
31.644828
 42
-0.001398
 10
166.387543
 20
34.260711
 42
-0.067324
 10
166.785525
 20
34.7345
 42
-0.04905
 10
167.086249
 20
34.958249
 42
-0.037795
 10
167.45177
 20
35.14213
 42
-0.038449
 10
167.831386
 20
35.265275
 42
-0.059275
  0
LWPOLYLINE
  5
AE4
330
1D
100
AcDbEntity
  8
0
100
AcDbPolyline
 90
       62
 70
     1
 43
0.0
 10
20.865903
 20
30.988
 42
-0.094648
 10
21.422823
 20
30.881625
 42
-0.011594
 10
22.570624
 20
30.39546
 42
-0.01146
 10
24.077066
 20
29.673779
 42
-0.005253
 10
26.009403
 20
28.667334
 42
-0.000606
 10
28.086484
 20
27.554365
 42
-0.000278
 10
30.793156
 20
26.097873
 42
-0.000275
 10
33.640885
 20
24.561411
 42
-0.00038
 10
36.195
 20
23.179041
 42
0.000037
 10
38.664455
 20
21.840299
 42
0.000032
 10
41.253569
 20
20.437148
 42
0.000032
 10
43.597962
 20
19.167011
 42
0.000095
 10
45.212
 20
18.293093
 42
0.000516
 10
46.839281
 20
17.414573
 42
0.000169
 10
49.237911
 20
16.123871
 42
0.000169
 10
51.90129
 20
14.693026
 42
0.000191
 10
54.458717
 20
13.321469
 42
-0.002584
 10
56.826713
 20
12.03687
 42
-0.00368
 10
58.915848
 20
10.869435
 42
-0.002068
 10
60.667148
 20
9.86419
 42
-0.053824
 10
61.10569
 20
9.542584
 42
-0.031904
 10
61.337075
 20
9.302381
 42
-0.025094
 10
61.556608
 20
9.015236
 42
-0.025712
 10
61.734046
 20
8.726572
 42
-0.055375
 10
61.832923
 20
8.485411
 42
-0.085647
 10
61.861992
 20
8.216252
 42
-0.060325
 10
61.806237
 20
7.916323
 42
-0.052565
 10
61.668629
 20
7.599138
 42
-0.038056
 10
61.454014
 20
7.278911
 10
60.923129
 20
6.604
 10
47.110516
 20
6.604
 42
-0.001158
 10
40.617323
 20
6.619039
 42
-0.003881
 10
36.362445
 20
6.671779
 42
-0.002338
 10
33.291791
 20
6.748051
 42
-0.099834
 10
32.658451
 20
6.895354
 42
-0.093447
 10
32.336597
 20
7.122168
 42
-0.016744
 10
31.84076
 20
7.668396
 42
-0.017562
 10
31.296796
 20
8.357159
 42
-0.015068
 10
30.772775
 20
9.117854
 42
-0.004915
 10
30.166441
 20
10.078015
 42
-0.001924
 10
29.347888
 20
11.414382
 42
-0.001904
 10
28.473389
 20
12.86694
 42
-0.00237
 10
27.672111
 20
14.224
 42
0.000259
 10
26.821826
 20
15.678048
 42
0.000147
 10
25.791729
 20
17.436306
 42
0.000147
 10
24.753185
 20
19.20659
 42
0.000243
 10
23.874916
 20
20.701
 42
-0.000084
 10
23.025798
 20
22.144757
 42
-0.000061
 10
22.079528
 20
23.754765
 42
-0.000061
 10
21.180549
 20
25.285164
 42
-0.000133
 10
20.49108
 20
26.459944
 42
-0.008663
 10
19.939151
 20
27.439448
 42
-0.011493
 10
19.473317
 20
28.35013
 42
-0.008943
 10
19.117921
 20
29.121079
 42
-0.103888
 10
19.05
 20
29.444444
 42
-0.075777
 10
19.086389
 20
29.683173
 42
-0.038403
 10
19.199225
 20
29.966255
 42
-0.037031
 10
19.363582
 20
30.246709
 42
-0.045351
 10
19.558
 20
30.48
 42
-0.061608
 10
19.815515
 20
30.680825
 42
-0.042226
 10
20.148833
 20
30.843845
 42
-0.041421
 10
20.513641
 20
30.951787
 42
-0.051266
  0
LWPOLYLINE
  5
B24
330
1D
100
AcDbEntity
  8
0
100
AcDbPolyline
 90
       52
 70
     1
 43
0.0
 10
154.539
 20
30.725124
 42
-0.034876
 10
154.968588
 20
30.698967
 42
-0.036038
 10
155.38557
 20
30.613319
 42
-0.038841
 10
155.745614
 20
30.480966
 42
-0.076562
 10
155.9995
 20
30.313633
 42
-0.063309
 10
156.177357
 20
30.106199
 42
-0.041929
 10
156.327553
 20
29.830299
 42
-0.041852
 10
156.429953
 20
29.532371
 42
-0.06193
 10
156.464
 20
29.258543
 42
-0.07998
 10
156.408118
 20
28.911426
 42
-0.015833
 10
156.190934
 20
28.318117
 42
-0.016399
 10
155.890275
 20
27.63639
 42
-0.014599
 10
155.534413
 20
26.948409
 42
-0.006369
 10
154.919417
 20
25.872529
 42
-0.000528
 10
153.282741
 20
23.098825
 42
-0.000705
 10
151.322099
 20
19.794737
 42
-0.000544
 10
149.174523
 20
16.196143
 42
-0.00275
 10
147.036555
 20
12.666692
 42
-0.004363
 10
145.162926
 20
9.670647
 42
-0.001557
 10
143.530238
 20
7.127367
 42
-0.119954
 10
143.182609
 20
6.798143
 42
-0.12154
 10
142.572159
 20
6.624223
 42
-0.003296
 10
139.772493
 20
6.542823
 42
-0.004483
 10
135.631905
 20
6.486884
 42
-0.000987
 10
128.524
 20
6.468629
 42
-0.000744
 10
120.484768
 20
6.475814
 42
-0.005963
 10
116.782655
 20
6.528783
 42
-0.00683
 10
114.554284
 20
6.617723
 42
-0.174083
 10
114.003107
 20
6.849629
 42
-0.051317
 10
113.828624
 20
7.046464
 42
-0.027911
 10
113.65492
 20
7.319306
 42
-0.027511
 10
113.507641
 20
7.619498
 42
-0.03888
 10
113.413043
 20
7.901754
 42
-0.058438
 10
113.367672
 20
8.251735
 42
-0.080558
 10
113.414516
 20
8.56467
 42
-0.070334
 10
113.565267
 20
8.876912
 42
-0.034178
 10
113.836936
 20
9.227994
 42
-0.077205
 10
114.312296
 20
9.620165
 42
-0.002918
 10
116.305512
 20
10.787648
 42
-0.005196
 10
118.692984
 20
12.134506
 42
-0.003629
 10
121.412
 20
13.605752
 42
0.000037
 10
124.411852
 20
15.201207
 42
0.000029
 10
127.650875
 20
16.924415
 42
0.00003
 10
130.653117
 20
18.522106
 42
0.000074
 10
132.842
 20
19.68754
 42
0.000016
 10
135.098756
 20
20.889639
 42
0.000006
 10
138.368881
 20
22.631711
 42
0.000006
 10
141.97722
 20
24.554061
 42
0.000006
 10
145.415
 20
26.385652
 42
-0.002002
 10
149.644891
 20
28.617642
 42
-0.009397
 10
152.105324
 20
29.845071
 42
-0.013289
 10
153.712436
 20
30.557698
 42
-0.095761
  0
ENDSEC
  0
SECTION
  2
OBJECTS
  0
DICTIONARY
  5
C
330
0
100
AcDbDictionary
281
     1
  3
ACAD_DETAILVIEWSTYLE
350
BE6
  3
ACAD_GROUP
350
D
  3
ACAD_LAYOUT
350
1A
  3
ACAD_MATERIAL
350
B99
  3
ACAD_MLEADERSTYLE
350
B9F
  3
ACAD_MLINESTYLE
350
17
  3
ACAD_PLOTSETTINGS
350
19
  3
ACAD_PLOTSTYLENAME
350
E
  3
ACAD_SCALELIST
350
B5A
  3
ACAD_SECTIONVIEWSTYLE
350
BE7
  3
ACAD_TABLESTYLE
350
B9D
  3
ACAD_VISUALSTYLE
350
B80
  3
ACDB_RECOMPOSE_DATA
350
BE2
  3
AcDbVariableDictionary
350
BA3
  0
DICTIONARY
  5
BA1
330
8
100
AcDbDictionary
280
     1
281
     1
  3
ACAD_XREC_ROUNDTRIP
360
BA2
  0
DICTIONARY
  5
BE6
102
{ACAD_REACTORS
330
C
102
}
330
C
100
AcDbDictionary
281
     1
  0
DICTIONARY
  5
D
102
{ACAD_REACTORS
330
C
102
}
330
C
100
AcDbDictionary
281
     1
  0
DICTIONARY
  5
1A
102
{ACAD_REACTORS
330
C
102
}
330
C
100
AcDbDictionary
281
     1
  3
Layout1
350
1C
  3
Model
350
1E
  0
DICTIONARY
  5
B99
102
{ACAD_REACTORS
330
C
102
}
330
C
100
AcDbDictionary
281
     1
  3
ByBlock
350
B9B
  3
ByLayer
350
B9A
  3
Global
350
B9C
  0
DICTIONARY
  5
B9F
102
{ACAD_REACTORS
330
C
102
}
330
C
100
AcDbDictionary
281
     1
  3
Standard
350
BA0
  0
DICTIONARY
  5
17
102
{ACAD_REACTORS
330
C
102
}
330
C
100
AcDbDictionary
281
     1
  3
Standard
350
18
  0
DICTIONARY
  5
19
102
{ACAD_REACTORS
330
C
102
}
330
C
100
AcDbDictionary
281
     1
  0
ACDBDICTIONARYWDFLT
  5
E
102
{ACAD_REACTORS
330
C
102
}
330
C
100
AcDbDictionary
281
     1
  3
Normal
350
F
100
AcDbDictionaryWithDefault
340
F
  0
DICTIONARY
  5
B5A
102
{ACAD_REACTORS
330
C
102
}
330
C
100
AcDbDictionary
281
     1
  3
A0
350
B5B
  3
A1
350
B5C
  3
A2
350
B5D
  3
A3
350
B5E
  3
A4
350
B5F
  3
A5
350
B60
  3
A6
350
B61
  3
A7
350
B62
  3
A8
350
B63
  3
A9
350
B64
  3
B0
350
B65
  3
B1
350
B66
  3
B2
350
B67
  3
B3
350
B68
  3
B4
350
B69
  3
B5
350
B6A
  3
B6
350
B6B
  3
B7
350
B6C
  3
B8
350
B6D
  3
B9
350
B6E
  3
C0
350
B6F
  3
C1
350
B70
  3
C2
350
B71
  3
C3
350
B72
  3
C4
350
B73
  3
C5
350
B74
  3
C6
350
B75
  3
C7
350
B76
  3
C8
350
B77
  3
C9
350
B78
  3
D0
350
B79
  3
D1
350
B7A
  3
D2
350
B7B
  0
DICTIONARY
  5
BE7
102
{ACAD_REACTORS
330
C
102
}
330
C
100
AcDbDictionary
281
     1
  0
DICTIONARY
  5
B9D
102
{ACAD_REACTORS
330
C
102
}
330
C
100
AcDbDictionary
281
     1
  3
Standard
350
B9E
  0
DICTIONARY
  5
B80
102
{ACAD_REACTORS
330
C
102
}
330
C
100
AcDbDictionary
281
     1
  3
2dWireframe
350
B85
  3
Basic
350
B88
  3
Brighten
350
B8C
  3
ColorChange
350
B90
  3
Conceptual
350
B8A
  3
Dim
350
B8B
  3
EdgeColorOff
350
B93
  3
Facepattern
350
B8F
  3
Flat
350
B81
  3
FlatWithEdges
350
B82
  3
Gouraud
350
B83
  3
GouraudWithEdges
350
B84
  3
Hidden
350
B87
  3
JitterOff
350
B91
  3
Linepattern
350
B8E
  3
OverhangOff
350
B92
  3
Realistic
350
B89
  3
Shaded
350
B98
  3
Shaded with edges
350
B97
  3
Shades of Gray
350
B94
  3
Sketchy
350
B95
  3
Thicken
350
B8D
  3
Wireframe
350
B86
  3
X-Ray
350
B96
  0
XRECORD
  5
BE2
102
{ACAD_REACTORS
330
C
102
}
330
C
100
AcDbXrecord
280
     1
 90
        1
330
B9E
  0
DICTIONARY
  5
BA3
102
{ACAD_REACTORS
330
C
102
}
330
C
100
AcDbDictionary
281
     1
  3
CANNOSCALE
350
BA4
  3
CMLEADERSTYLE
350
BE4
  3
CTABLESTYLE
350
BE3
  3
MSLTSCALE
350
BE5
  3
XCLIPFRAME
350
BA5
  0
XRECORD
  5
BA2
102
{ACAD_REACTORS
330
BA1
102
}
330
BA1
100
AcDbXrecord
280
     1
102
VTR_0.000_0.000_1.000_1.000_VISUALSTYLE
340
B85
102
VTR_0.000_0.000_1.000_1.000_GRIDDISPLAY
 70
     3
102
VTR_0.000_0.000_1.000_1.000_GRIDMAJOR
 70
     5
102
VTR_0.000_0.000_1.000_1.000_DEFAULTLIGHTING
280
     1
102
VTR_0.000_0.000_1.000_1.000_DEFAULTLIGHTINGTYPE
 70
     1
102
VTR_0.000_0.000_1.000_1.000_BRIGHTNESS
141
0.0
102
VTR_0.000_0.000_1.000_1.000_CONTRAST
142
0.0
  0
LAYOUT
  5
1C
102
{ACAD_REACTORS
330
1A
102
}
330
1A
100
AcDbPlotSettings
  1

  2
none_device
  4

  6

 40
0.0
 41
0.0
 42
0.0
 43
0.0
 44
0.0
 45
0.0
 46
0.0
 47
0.0
 48
0.0
 49
0.0
140
0.0
141
0.0
142
1.0
143
1.0
 70
   688
 72
     0
 73
     0
 74
     5
  7

 75
    16
 76
     0
 77
     2
 78
   300
147
1.0
148
0.0
149
0.0
100
AcDbLayout
  1
Layout1
 70
     1
 71
     1
 10
0.0
 20
0.0
 11
12.0
 21
9.0
 12
0.0
 22
0.0
 32
0.0
 14
1.000000000000000E+20
 24
1.000000000000000E+20
 34
1.000000000000000E+20
 15
-1.000000000000000E+20
 25
-1.000000000000000E+20
 35
-1.000000000000000E+20
146
0.0
 13
0.0
 23
0.0
 33
0.0
 16
1.0
 26
0.0
 36
0.0
 17
0.0
 27
1.0
 37
0.0
 76
     0
330
1B
  0
LAYOUT
  5
1E
102
{ACAD_REACTORS
330
1A
102
}
330
1A
100
AcDbPlotSettings
  1

  2
none_device
  4
Letter_(8.50_x_11.00_Inches)
  6

 40
6.35
 41
6.35
 42
6.35000508
 43
6.35000508
 44
215.9
 45
279.4
 46
0.0
 47
0.0
 48
0.0
 49
0.0
140
0.0
141
0.0
142
1.0
143
1.0
 70
  1712
 72
     0
 73
     0
 74
     0
  7

 75
     0
 76
     0
 77
     2
 78
   300
147
1.0
148
0.0
149
0.0
100
AcDbLayout
  1
Model
 70
     1
 71
     0
 10
0.0
 20
0.0
 11
12.0
 21
9.0
 12
0.0
 22
0.0
 32
0.0
 14
0.0
 24
0.0
 34
0.0
 15
176.022
 25
350.012
 35
0.0
146
0.0
 13
0.0
 23
0.0
 33
0.0
 16
1.0
 26
0.0
 36
0.0
 17
0.0
 27
1.0
 37
0.0
 76
     0
330
1D
331
21
  0
MATERIAL
  5
B9B
102
{ACAD_REACTORS
330
B99
102
}
102
{ACAD_XDICTIONARY
360
BD8
102
}
330
B99
100
AcDbMaterial
  1
ByBlock
  0
MATERIAL
  5
B9A
102
{ACAD_REACTORS
330
B99
102
}
102
{ACAD_XDICTIONARY
360
BD6
102
}
330
B99
100
AcDbMaterial
  1
ByLayer
  0
MATERIAL
  5
B9C
102
{ACAD_REACTORS
330
B99
102
}
102
{ACAD_XDICTIONARY
360
BDA
102
}
330
B99
100
AcDbMaterial
  1
Global
  0
MLEADERSTYLE
  5
BA0
102
{ACAD_REACTORS
330
B9F
102
}
102
{ACAD_XDICTIONARY
360
BE0
102
}
330
B9F
100
AcDbMLeaderStyle
170
     2
171
     1
172
     0
 90
        2
 40
0.0
 41
0.0
173
     1
 91
-1056964608
340
14
 92
       -2
290
     1
 42
0.09
291
     1
 43
0.36
  3
Standard
341
0
 44
0.18
300

342
11
174
     1
178
     6
175
     1
176
     0
 93
-1056964608
 45
0.18
292
     0
297
     0
 46
0.18
343
0
 94
-1056964608
 47
1.0
 49
1.0
140
1.0
293
     1
141
0.0
294
     1
177
     0
142
1.0
295
     0
296
     0
143
0.125
1001
ACAD_MLEADERVER
1070
     2
  0
MLINESTYLE
  5
18
102
{ACAD_REACTORS
330
17
102
}
330
17
100
AcDbMlineStyle
  2
Standard
 70
     0
  3

 62
   256
 51
90.0
 52
90.0
 71
     2
 49
0.5
 62
   256
  6
BYLAYER
 49
-0.5
 62
   256
  6
BYLAYER
  0
ACDBPLACEHOLDER
  5
F
102
{ACAD_REACTORS
330
E
102
}
330
E
  0
SCALE
  5
B5B
102
{ACAD_REACTORS
330
B5A
102
}
330
B5A
100
AcDbScale
 70
     0
300
1:1
140
1.0
141
1.0
290
     1
  0
SCALE
  5
B5C
102
{ACAD_REACTORS
330
B5A
102
}
330
B5A
100
AcDbScale
 70
     0
300
1:2
140
1.0
141
2.0
290
     0
  0
SCALE
  5
B5D
102
{ACAD_REACTORS
330
B5A
102
}
330
B5A
100
AcDbScale
 70
     0
300
1:4
140
1.0
141
4.0
290
     0
  0
SCALE
  5
B5E
102
{ACAD_REACTORS
330
B5A
102
}
330
B5A
100
AcDbScale
 70
     0
300
1:5
140
1.0
141
5.0
290
     0
  0
SCALE
  5
B5F
102
{ACAD_REACTORS
330
B5A
102
}
330
B5A
100
AcDbScale
 70
     0
300
1:8
140
1.0
141
8.0
290
     0
  0
SCALE
  5
B60
102
{ACAD_REACTORS
330
B5A
102
}
330
B5A
100
AcDbScale
 70
     0
300
1:10
140
1.0
141
10.0
290
     0
  0
SCALE
  5
B61
102
{ACAD_REACTORS
330
B5A
102
}
330
B5A
100
AcDbScale
 70
     0
300
1:16
140
1.0
141
16.0
290
     0
  0
SCALE
  5
B62
102
{ACAD_REACTORS
330
B5A
102
}
330
B5A
100
AcDbScale
 70
     0
300
1:20
140
1.0
141
20.0
290
     0
  0
SCALE
  5
B63
102
{ACAD_REACTORS
330
B5A
102
}
330
B5A
100
AcDbScale
 70
     0
300
1:30
140
1.0
141
30.0
290
     0
  0
SCALE
  5
B64
102
{ACAD_REACTORS
330
B5A
102
}
330
B5A
100
AcDbScale
 70
     0
300
1:40
140
1.0
141
40.0
290
     0
  0
SCALE
  5
B65
102
{ACAD_REACTORS
330
B5A
102
}
330
B5A
100
AcDbScale
 70
     0
300
1:50
140
1.0
141
50.0
290
     0
  0
SCALE
  5
B66
102
{ACAD_REACTORS
330
B5A
102
}
330
B5A
100
AcDbScale
 70
     0
300
1:100
140
1.0
141
100.0
290
     0
  0
SCALE
  5
B67
102
{ACAD_REACTORS
330
B5A
102
}
330
B5A
100
AcDbScale
 70
     0
300
2:1
140
2.0
141
1.0
290
     0
  0
SCALE
  5
B68
102
{ACAD_REACTORS
330
B5A
102
}
330
B5A
100
AcDbScale
 70
     0
300
4:1
140
4.0
141
1.0
290
     0
  0
SCALE
  5
B69
102
{ACAD_REACTORS
330
B5A
102
}
330
B5A
100
AcDbScale
 70
     0
300
8:1
140
8.0
141
1.0
290
     0
  0
SCALE
  5
B6A
102
{ACAD_REACTORS
330
B5A
102
}
330
B5A
100
AcDbScale
 70
     0
300
10:1
140
10.0
141
1.0
290
     0
  0
SCALE
  5
B6B
102
{ACAD_REACTORS
330
B5A
102
}
330
B5A
100
AcDbScale
 70
     0
300
100:1
140
100.0
141
1.0
290
     0
  0
SCALE
  5
B6C
102
{ACAD_REACTORS
330
B5A
102
}
330
B5A
100
AcDbScale
 70
     0
300
1/128\" = 1\'-0\"
140
0.0078125
141
12.0
290
     0
  0
SCALE
  5
B6D
102
{ACAD_REACTORS
330
B5A
102
}
330
B5A
100
AcDbScale
 70
     0
300
1/64\" = 1\'-0\"
140
0.015625
141
12.0
290
     0
  0
SCALE
  5
B6E
102
{ACAD_REACTORS
330
B5A
102
}
330
B5A
100
AcDbScale
 70
     0
300
1/32\" = 1\'-0\"
140
0.03125
141
12.0
290
     0
  0
SCALE
  5
B6F
102
{ACAD_REACTORS
330
B5A
102
}
330
B5A
100
AcDbScale
 70
     0
300
1/16\" = 1\'-0\"
140
0.0625
141
12.0
290
     0
  0
SCALE
  5
B70
102
{ACAD_REACTORS
330
B5A
102
}
330
B5A
100
AcDbScale
 70
     0
300
3/32\" = 1\'-0\"
140
0.09375
141
12.0
290
     0
  0
SCALE
  5
B71
102
{ACAD_REACTORS
330
B5A
102
}
330
B5A
100
AcDbScale
 70
     0
300
1/8\" = 1\'-0\"
140
0.125
141
12.0
290
     0
  0
SCALE
  5
B72
102
{ACAD_REACTORS
330
B5A
102
}
330
B5A
100
AcDbScale
 70
     0
300
3/16\" = 1\'-0\"
140
0.1875
141
12.0
290
     0
  0
SCALE
  5
B73
102
{ACAD_REACTORS
330
B5A
102
}
330
B5A
100
AcDbScale
 70
     0
300
1/4\" = 1\'-0\"
140
0.25
141
12.0
290
     0
  0
SCALE
  5
B74
102
{ACAD_REACTORS
330
B5A
102
}
330
B5A
100
AcDbScale
 70
     0
300
3/8\" = 1\'-0\"
140
0.375
141
12.0
290
     0
  0
SCALE
  5
B75
102
{ACAD_REACTORS
330
B5A
102
}
330
B5A
100
AcDbScale
 70
     0
300
1/2\" = 1\'-0\"
140
0.5
141
12.0
290
     0
  0
SCALE
  5
B76
102
{ACAD_REACTORS
330
B5A
102
}
330
B5A
100
AcDbScale
 70
     0
300
3/4\" = 1\'-0\"
140
0.75
141
12.0
290
     0
  0
SCALE
  5
B77
102
{ACAD_REACTORS
330
B5A
102
}
330
B5A
100
AcDbScale
 70
     0
300
1\" = 1\'-0\"
140
1.0
141
12.0
290
     0
  0
SCALE
  5
B78
102
{ACAD_REACTORS
330
B5A
102
}
330
B5A
100
AcDbScale
 70
     0
300
1-1/2\" = 1\'-0\"
140
1.5
141
12.0
290
     0
  0
SCALE
  5
B79
102
{ACAD_REACTORS
330
B5A
102
}
330
B5A
100
AcDbScale
 70
     0
300
3\" = 1\'-0\"
140
3.0
141
12.0
290
     0
  0
SCALE
  5
B7A
102
{ACAD_REACTORS
330
B5A
102
}
330
B5A
100
AcDbScale
 70
     0
300
6\" = 1\'-0\"
140
6.0
141
12.0
290
     0
  0
SCALE
  5
B7B
102
{ACAD_REACTORS
330
B5A
102
}
330
B5A
100
AcDbScale
 70
     0
300
1\'-0\" = 1\'-0\"
140
12.0
141
12.0
290
     0
  0
TABLESTYLE
  5
B9E
102
{ACAD_REACTORS
330
B9D
102
}
102
{ACAD_XDICTIONARY
360
BDC
102
}
330
B9D
100
AcDbTableStyle
  3
Standard
 70
     0
 71
     0
 40
0.06
 41
0.06
280
     0
281
     0
  7
Standard
140
0.18
170
     2
 62
     0
 63
   257
283
     0
274
    -2
284
     1
 64
     0
275
    -2
285
     1
 65
     0
276
    -2
286
     1
 66
     0
277
    -2
287
     1
 67
     0
278
    -2
288
     1
 68
     0
279
    -2
289
     1
 69
     0
  7
Standard
140
0.25
170
     5
 62
     0
 63
   257
283
     0
274
    -2
284
     1
 64
     0
275
    -2
285
     1
 65
     0
276
    -2
286
     1
 66
     0
277
    -2
287
     1
 67
     0
278
    -2
288
     1
 68
     0
279
    -2
289
     1
 69
     0
  7
Standard
140
0.18
170
     5
 62
     0
 63
   257
283
     0
274
    -2
284
     1
 64
     0
275
    -2
285
     1
 65
     0
276
    -2
286
     1
 66
     0
277
    -2
287
     1
 67
     0
278
    -2
288
     1
 68
     0
279
    -2
289
     1
 69
     0
  0
VISUALSTYLE
  5
B85
102
{ACAD_REACTORS
330
B80
102
}
102
{ACAD_XDICTIONARY
360
BAE
102
}
330
B80
100
AcDbVisualStyle
  2
2dWireframe
 70
     4
 71
     0
 72
     2
 73
     0
 90
        0
 40
0.6
 41
30.0
 62
     5
 63
     7
421
 16777215
 74
     1
 91
        4
 64
     7
 65
   257
 75
     1
175
     1
 42
1.0
 92
        0
 66
   257
 43
1.0
 76
     1
 77
     6
 78
     2
 67
     7
 79
     5
170
     0
171
     0
290
     0
174
     0
 93
        1
 44
0.0
173
     0
291
     0
 45
0.0
1001
ACAD
1000
AcDbSavedByObjectVersion
1070
     0
  0
VISUALSTYLE
  5
B88
102
{ACAD_REACTORS
330
B80
102
}
102
{ACAD_XDICTIONARY
360
BB4
102
}
330
B80
100
AcDbVisualStyle
  2
Basic
 70
     7
 71
     1
 72
     0
 73
     1
 90
        0
 40
0.6
 41
30.0
 62
     5
 63
     7
421
 16777215
 74
     0
 91
        4
 64
     7
 65
   257
 75
     1
175
     1
 42
1.0
 92
        8
 66
     7
 43
1.0
 76
     1
 77
     6
 78
     2
 67
     7
 79
     5
170
     0
171
     0
290
     0
174
     0
 93
        1
 44
0.0
173
     0
291
     1
 45
0.0
1001
ACAD
1000
AcDbSavedByObjectVersion
1070
     0
  0
VISUALSTYLE
  5
B8C
102
{ACAD_REACTORS
330
B80
102
}
102
{ACAD_XDICTIONARY
360
BBC
102
}
330
B80
100
AcDbVisualStyle
  2
Brighten
 70
    12
 71
     2
 72
     2
 73
     0
 90
        0
 40
0.6
 41
30.0
 62
     5
 63
     7
421
 16777215
 74
     1
 91
        4
 64
     7
 65
   257
 75
     1
175
     1
 42
1.0
 92
        8
 66
     7
 43
1.0
 76
     1
 77
     6
 78
     2
 67
     7
 79
     5
170
     0
171
     0
290
     0
174
     0
 93
        1
 44
50.0
173
     0
291
     1
 45
0.0
1001
ACAD
1000
AcDbSavedByObjectVersion
1070
     0
  0
VISUALSTYLE
  5
B90
102
{ACAD_REACTORS
330
B80
102
}
102
{ACAD_XDICTIONARY
360
BC4
102
}
330
B80
100
AcDbVisualStyle
  2
ColorChange
 70
    16
 71
     2
 72
     2
 73
     3
 90
        0
 40
0.6
 41
30.0
 62
     5
 63
     8
421
  8421504
 74
     1
 91
        4
 64
     7
 65
   257
 75
     1
175
     1
 42
1.0
 92
        8
 66
     8
424
  8421504
 43
1.0
 76
     1
 77
     6
 78
     2
 67
     7
 79
     5
170
     0
171
     0
290
     0
174
     0
 93
        1
 44
0.0
173
     0
291
     1
 45
0.0
1001
ACAD
1000
AcDbSavedByObjectVersion
1070
     0
  0
VISUALSTYLE
  5
B8A
102
{ACAD_REACTORS
330
B80
102
}
102
{ACAD_XDICTIONARY
360
BB8
102
}
330
B80
100
AcDbVisualStyle
  2
Conceptual
 70
     9
 71
     3
 72
     2
 73
     0
 90
        0
 40
0.6
 41
30.0
 62
     5
 63
     7
421
 16777215
 74
     2
 91
        2
 64
     7
 65
   257
 75
     1
175
     1
 42
179.0
 92
        8
 66
     7
 43
1.0
 76
     1
 77
     6
 78
     2
 67
     7
 79
     3
170
     0
171
     0
290
     0
174
     0
 93
        1
 44
0.0
173
     0
291
     0
 45
0.0
1001
ACAD
1000
AcDbSavedByObjectVersion
1070
     0
  0
VISUALSTYLE
  5
B8B
102
{ACAD_REACTORS
330
B80
102
}
102
{ACAD_XDICTIONARY
360
BBA
102
}
330
B80
100
AcDbVisualStyle
  2
Dim
 70
    11
 71
     2
 72
     2
 73
     0
 90
        0
 40
0.6
 41
30.0
 62
     5
 63
     7
421
 16777215
 74
     1
 91
        4
 64
     7
 65
   257
 75
     1
175
     1
 42
1.0
 92
        8
 66
     7
 43
1.0
 76
     1
 77
     6
 78
     2
 67
     7
 79
     5
170
     0
171
     0
290
     0
174
     0
 93
        1
 44
-50.0
173
     0
291
     1
 45
0.0
1001
ACAD
1000
AcDbSavedByObjectVersion
1070
     0
  0
VISUALSTYLE
  5
B93
102
{ACAD_REACTORS
330
B80
102
}
102
{ACAD_XDICTIONARY
360
BCA
102
}
330
B80
100
AcDbVisualStyle
  2
EdgeColorOff
 70
    22
 71
     2
 72
     2
 73
     0
 90
        0
 40
0.6
 41
30.0
 62
     5
 63
     7
421
 16777215
 74
     1
 91
        4
 64
     7
 65
   257
 75
     1
175
     1
 42
1.0
 92
        8
 66
     7
 43
1.0
 76
     1
 77
     6
 78
     2
 67
     7
 79
     5
170
     0
171
     0
290
     0
174
     0
 93
        1
 44
0.0
173
     0
291
     1
 45
0.0
1001
ACAD
1000
AcDbSavedByObjectVersion
1070
     0
  0
VISUALSTYLE
  5
B8F
102
{ACAD_REACTORS
330
B80
102
}
102
{ACAD_XDICTIONARY
360
BC2
102
}
330
B80
100
AcDbVisualStyle
  2
Facepattern
 70
    15
 71
     2
 72
     2
 73
     0
 90
        0
 40
0.6
 41
30.0
 62
     5
 63
     7
421
 16777215
 74
     1
 91
        4
 64
     7
 65
   257
 75
     1
175
     1
 42
1.0
 92
        8
 66
     7
 43
1.0
 76
     1
 77
     6
 78
     2
 67
     7
 79
     5
170
     0
171
     0
290
     0
174
     0
 93
        1
 44
0.0
173
     0
291
     1
 45
0.0
1001
ACAD
1000
AcDbSavedByObjectVersion
1070
     0
  0
VISUALSTYLE
  5
B81
102
{ACAD_REACTORS
330
B80
102
}
102
{ACAD_XDICTIONARY
360
BA6
102
}
330
B80
100
AcDbVisualStyle
  2
Flat
 70
     0
 71
     2
 72
     1
 73
     1
 90
        2
 40
0.6
 41
30.0
 62
     5
 63
     7
421
 16777215
 74
     0
 91
        0
 64
     7
 65
   257
 75
     1
175
     1
 42
1.0
 92
        8
 66
     7
 43
1.0
 76
     1
 77
     6
 78
     2
 67
     7
 79
     5
170
     0
171
     0
290
     0
174
     0
 93
       13
 44
0.0
173
     0
291
     1
 45
0.0
1001
ACAD
1000
AcDbSavedByObjectVersion
1070
     0
  0
VISUALSTYLE
  5
B82
102
{ACAD_REACTORS
330
B80
102
}
102
{ACAD_XDICTIONARY
360
BA8
102
}
330
B80
100
AcDbVisualStyle
  2
FlatWithEdges
 70
     1
 71
     2
 72
     1
 73
     1
 90
        2
 40
0.6
 41
30.0
 62
     5
 63
     7
421
 16777215
 74
     1
 91
        0
 64
     7
 65
   257
 75
     1
175
     1
 42
1.0
 92
        0
 66
   257
 43
1.0
 76
     1
 77
     6
 78
     2
 67
     7
 79
     5
170
     0
171
     0
290
     0
174
     0
 93
       13
 44
0.0
173
     0
291
     1
 45
0.0
1001
ACAD
1000
AcDbSavedByObjectVersion
1070
     0
  0
VISUALSTYLE
  5
B83
102
{ACAD_REACTORS
330
B80
102
}
102
{ACAD_XDICTIONARY
360
BAA
102
}
330
B80
100
AcDbVisualStyle
  2
Gouraud
 70
     2
 71
     2
 72
     2
 73
     1
 90
        2
 40
0.6
 41
30.0
 62
     5
 63
     7
421
 16777215
 74
     0
 91
        0
 64
     7
 65
   257
 75
     1
175
     1
 42
1.0
 92
        0
 66
     7
 43
1.0
 76
     1
 77
     6
 78
     2
 67
     7
 79
     5
170
     0
171
     0
290
     0
174
     0
 93
       13
 44
0.0
173
     0
291
     1
 45
0.0
1001
ACAD
1000
AcDbSavedByObjectVersion
1070
     0
  0
VISUALSTYLE
  5
B84
102
{ACAD_REACTORS
330
B80
102
}
102
{ACAD_XDICTIONARY
360
BAC
102
}
330
B80
100
AcDbVisualStyle
  2
GouraudWithEdges
 70
     3
 71
     2
 72
     2
 73
     1
 90
        2
 40
0.6
 41
30.0
 62
     5
 63
     7
421
 16777215
 74
     1
 91
        0
 64
     7
 65
   257
 75
     1
175
     1
 42
1.0
 92
        0
 66
   257
 43
1.0
 76
     1
 77
     6
 78
     2
 67
     7
 79
     5
170
     0
171
     0
290
     0
174
     0
 93
       13
 44
0.0
173
     0
291
     1
 45
0.0
1001
ACAD
1000
AcDbSavedByObjectVersion
1070
     0
  0
VISUALSTYLE
  5
B87
102
{ACAD_REACTORS
330
B80
102
}
102
{ACAD_XDICTIONARY
360
BB2
102
}
330
B80
100
AcDbVisualStyle
  2
Hidden
 70
     6
 71
     1
 72
     2
 73
     2
 90
        0
 40
0.6
 41
30.0
 62
     5
 63
     7
421
 16777215
 74
     2
 91
        2
 64
     7
 65
   257
 75
     2
175
     1
 42
40.0
 92
        0
 66
   257
 43
1.0
 76
     1
 77
     6
 78
     2
 67
     7
 79
     3
170
     0
171
     0
290
     0
174
     0
 93
        1
 44
0.0
173
     0
291
     0
 45
0.0
1001
ACAD
1000
AcDbSavedByObjectVersion
1070
     0
  0
VISUALSTYLE
  5
B91
102
{ACAD_REACTORS
330
B80
102
}
102
{ACAD_XDICTIONARY
360
BC6
102
}
330
B80
100
AcDbVisualStyle
  2
JitterOff
 70
    20
 71
     2
 72
     2
 73
     0
 90
        0
 40
0.6
 41
30.0
 62
     5
 63
     7
421
 16777215
 74
     1
 91
        4
 64
     7
 65
   257
 75
     1
175
     1
 42
1.0
 92
       10
 66
     7
 43
1.0
 76
     1
 77
     6
 78
     2
 67
     7
 79
     5
170
     0
171
     0
290
     0
174
     0
 93
        1
 44
0.0
173
     0
291
     1
 45
0.0
1001
ACAD
1000
AcDbSavedByObjectVersion
1070
     0
  0
VISUALSTYLE
  5
B8E
102
{ACAD_REACTORS
330
B80
102
}
102
{ACAD_XDICTIONARY
360
BC0
102
}
330
B80
100
AcDbVisualStyle
  2
Linepattern
 70
    14
 71
     2
 72
     2
 73
     0
 90
        0
 40
0.6
 41
30.0
 62
     5
 63
     7
421
 16777215
 74
     1
 91
        4
 64
     7
 65
   257
 75
     7
175
     7
 42
1.0
 92
        8
 66
     7
 43
1.0
 76
     1
 77
     6
 78
     2
 67
     7
 79
     5
170
     0
171
     0
290
     0
174
     0
 93
        1
 44
0.0
173
     0
291
     1
 45
0.0
1001
ACAD
1000
AcDbSavedByObjectVersion
1070
     0
  0
VISUALSTYLE
  5
B92
102
{ACAD_REACTORS
330
B80
102
}
102
{ACAD_XDICTIONARY
360
BC8
102
}
330
B80
100
AcDbVisualStyle
  2
OverhangOff
 70
    21
 71
     2
 72
     2
 73
     0
 90
        0
 40
0.6
 41
30.0
 62
     5
 63
     7
421
 16777215
 74
     1
 91
        4
 64
     7
 65
   257
 75
     1
175
     1
 42
1.0
 92
        9
 66
     7
 43
1.0
 76
     1
 77
     6
 78
     2
 67
     7
 79
     5
170
     0
171
     0
290
     0
174
     0
 93
        1
 44
0.0
173
     0
291
     1
 45
0.0
1001
ACAD
1000
AcDbSavedByObjectVersion
1070
     0
  0
VISUALSTYLE
  5
B89
102
{ACAD_REACTORS
330
B80
102
}
102
{ACAD_XDICTIONARY
360
BB6
102
}
330
B80
100
AcDbVisualStyle
  2
Realistic
 70
     8
 71
     2
 72
     3
 73
     0
 90
        2
 40
0.6
 41
30.0
 62
     5
 63
     7
421
 16777215
 74
     0
 91
        0
 64
     7
 65
   257
 75
     1
175
     1
 42
1.0
 92
        8
 66
   257
 43
1.0
 76
     1
 77
     6
 78
     2
 67
     7
 79
     3
170
     0
171
     0
290
     0
174
     0
 93
       13
 44
0.0
173
     0
291
     0
 45
0.0
1001
ACAD
1000
AcDbSavedByObjectVersion
1070
     0
  0
VISUALSTYLE
  5
B98
102
{ACAD_REACTORS
330
B80
102
}
102
{ACAD_XDICTIONARY
360
BD4
102
}
330
B80
100
AcDbVisualStyle
  2
Shaded
 70
    27
 71
     2
 72
     2
 73
     1
 90
        2
 40
0.6
 41
30.0
 62
     5
 63
     7
421
 16777215
 74
     0
 91
        4
 64
     7
 65
   257
 75
     1
175
     1
 42
1.0
 92
        8
 66
   257
 43
1.0
 76
     1
 77
     6
 78
     2
 67
     8
425
  7895160
 79
     3
170
     0
171
     0
290
     0
174
     0
 93
        5
 44
0.0
173
     0
291
     0
 45
0.0
1001
ACAD
1000
AcDbSavedByObjectVersion
1070
     0
  0
VISUALSTYLE
  5
B97
102
{ACAD_REACTORS
330
B80
102
}
102
{ACAD_XDICTIONARY
360
BD2
102
}
330
B80
100
AcDbVisualStyle
  2
Shaded with edges
 70
    26
 71
     2
 72
     2
 73
     1
 90
        2
 40
0.6
 41
30.0
 62
     5
 63
     7
421
 16777215
 74
     1
 91
       10
 64
     7
 65
   257
 75
     2
175
     1
 42
1.0
 92
        8
 66
   257
 43
1.0
 76
     1
 77
     6
 78
     2
 67
     7
 79
     3
170
     0
171
     0
290
     0
174
     0
 93
        5
 44
0.0
173
     0
291
     0
 45
0.0
1001
ACAD
1000
AcDbSavedByObjectVersion
1070
     0
  0
VISUALSTYLE
  5
B94
102
{ACAD_REACTORS
330
B80
102
}
102
{ACAD_XDICTIONARY
360
BCC
102
}
330
B80
100
AcDbVisualStyle
  2
Shades of Gray
 70
    23
 71
     2
 72
     2
 73
     3
 90
        0
 40
0.6
 41
30.0
 62
     5
 63
     7
421
 16777215
 74
     2
 91
        2
 64
     7
 65
     7
 75
     1
175
     1
 42
40.0
 92
        8
 66
     7
 43
1.0
 76
     1
 77
     6
 78
     2
 67
     7
 79
     3
170
     0
171
     0
290
     0
174
     0
 93
        1
 44
0.0
173
     0
291
     0
 45
0.0
1001
ACAD
1000
AcDbSavedByObjectVersion
1070
     0
  0
VISUALSTYLE
  5
B95
102
{ACAD_REACTORS
330
B80
102
}
102
{ACAD_XDICTIONARY
360
BCE
102
}
330
B80
100
AcDbVisualStyle
  2
Sketchy
 70
    24
 71
     1
 72
     2
 73
     2
 90
        0
 40
0.6
 41
30.0
 62
     5
 63
     7
421
 16777215
 74
     2
 91
        2
 64
     7
 65
     7
 75
     1
175
     1
 42
40.0
 92
       11
 66
     7
 43
1.0
 76
     1
 77
     6
 78
     2
 67
     7
 79
     6
170
     0
171
     0
290
     0
174
     0
 93
        1
 44
0.0
173
     0
291
     0
 45
0.0
1001
ACAD
1000
AcDbSavedByObjectVersion
1070
     0
  0
VISUALSTYLE
  5
B8D
102
{ACAD_REACTORS
330
B80
102
}
102
{ACAD_XDICTIONARY
360
BBE
102
}
330
B80
100
AcDbVisualStyle
  2
Thicken
 70
    13
 71
     2
 72
     2
 73
     0
 90
        0
 40
0.6
 41
30.0
 62
     5
 63
     7
421
 16777215
 74
     1
 91
        4
 64
     7
 65
   257
 75
     1
175
     1
 42
1.0
 92
       12
 66
     7
 43
1.0
 76
     1
 77
     6
 78
     2
 67
     7
 79
     5
170
     0
171
     0
290
     0
174
     0
 93
        1
 44
0.0
173
     0
291
     1
 45
0.0
1001
ACAD
1000
AcDbSavedByObjectVersion
1070
     0
  0
VISUALSTYLE
  5
B86
102
{ACAD_REACTORS
330
B80
102
}
102
{ACAD_XDICTIONARY
360
BB0
102
}
330
B80
100
AcDbVisualStyle
  2
Wireframe
 70
     5
 71
     0
 72
     2
 73
     0
 90
        0
 40
0.6
 41
30.0
 62
     5
 63
     7
421
 16777215
 74
     1
 91
        4
 64
     7
 65
   257
 75
     1
175
     1
 42
1.0
 92
        0
 66
   257
 43
1.0
 76
     1
 77
     6
 78
     2
 67
     7
 79
     3
170
     0
171
     0
290
     0
174
     0
 93
        1
 44
0.0
173
     0
291
     0
 45
0.0
1001
ACAD
1000
AcDbSavedByObjectVersion
1070
     0
  0
VISUALSTYLE
  5
B96
102
{ACAD_REACTORS
330
B80
102
}
102
{ACAD_XDICTIONARY
360
BD0
102
}
330
B80
100
AcDbVisualStyle
  2
X-Ray
 70
    25
 71
     2
 72
     2
 73
     1
 90
        1
 40
0.5
 41
30.0
 62
     5
 63
     7
421
 16777215
 74
     1
 91
        0
 64
     7
 65
   257
 75
     1
175
     1
 42
1.0
 92
        8
 66
     7
 43
1.0
 76
     1
 77
     6
 78
     2
 67
     7
 79
     3
170
     0
171
     0
290
     0
174
     0
 93
       13
 44
0.0
173
     0
291
     0
 45
0.0
1001
ACAD
1000
AcDbSavedByObjectVersion
1070
     0
  0
DICTIONARYVAR
  5
BA4
102
{ACAD_REACTORS
330
BA3
102
}
330
BA3
100
DictionaryVariables
280
     0
  1
1:1
  0
DICTIONARYVAR
  5
BE4
102
{ACAD_REACTORS
330
BA3
102
}
330
BA3
100
DictionaryVariables
280
     0
  1
Standard
  0
DICTIONARYVAR
  5
BE3
102
{ACAD_REACTORS
330
BA3
102
}
330
BA3
100
DictionaryVariables
280
     0
  1
Standard
  0
DICTIONARYVAR
  5
BE5
102
{ACAD_REACTORS
330
BA3
102
}
330
BA3
100
DictionaryVariables
280
     0
  1
0
  0
DICTIONARYVAR
  5
BA5
102
{ACAD_REACTORS
330
BA3
102
}
330
BA3
100
DictionaryVariables
280
     0
  1
2
  0
DICTIONARY
  5
BD8
330
B9B
100
AcDbDictionary
280
     1
281
     1
  3
ACAD_XREC_ROUNDTRIP
360
BD9
  0
DICTIONARY
  5
BD6
330
B9A
100
AcDbDictionary
280
     1
281
     1
  3
ACAD_XREC_ROUNDTRIP
360
BD7
  0
DICTIONARY
  5
BDA
330
B9C
100
AcDbDictionary
280
     1
281
     1
  3
ACAD_XREC_ROUNDTRIP
360
BDB
  0
DICTIONARY
  5
BE0
330
BA0
100
AcDbDictionary
280
     1
281
     1
  3
ACAD_XREC_ROUNDTRIP
360
BE1
  0
DICTIONARY
  5
BDC
330
B9E
100
AcDbDictionary
280
     1
281
     1
  3
ACAD_ROUNDTRIP_2008_TABLESTYLE_CELLSTYLEMAP
360
BDE
  3
ACAD_XREC_ROUNDTRIP
360
BDD
  0
DICTIONARY
  5
BAE
330
B85
100
AcDbDictionary
280
     1
281
     1
  3
ACAD_XREC_ROUNDTRIP
360
BAF
  0
DICTIONARY
  5
BB4
330
B88
100
AcDbDictionary
280
     1
281
     1
  3
ACAD_XREC_ROUNDTRIP
360
BB5
  0
DICTIONARY
  5
BBC
330
B8C
100
AcDbDictionary
280
     1
281
     1
  3
ACAD_XREC_ROUNDTRIP
360
BBD
  0
DICTIONARY
  5
BC4
330
B90
100
AcDbDictionary
280
     1
281
     1
  3
ACAD_XREC_ROUNDTRIP
360
BC5
  0
DICTIONARY
  5
BB8
330
B8A
100
AcDbDictionary
280
     1
281
     1
  3
ACAD_XREC_ROUNDTRIP
360
BB9
  0
DICTIONARY
  5
BBA
330
B8B
100
AcDbDictionary
280
     1
281
     1
  3
ACAD_XREC_ROUNDTRIP
360
BBB
  0
DICTIONARY
  5
BCA
330
B93
100
AcDbDictionary
280
     1
281
     1
  3
ACAD_XREC_ROUNDTRIP
360
BCB
  0
DICTIONARY
  5
BC2
330
B8F
100
AcDbDictionary
280
     1
281
     1
  3
ACAD_XREC_ROUNDTRIP
360
BC3
  0
DICTIONARY
  5
BA6
330
B81
100
AcDbDictionary
280
     1
281
     1
  3
ACAD_XREC_ROUNDTRIP
360
BA7
  0
DICTIONARY
  5
BA8
330
B82
100
AcDbDictionary
280
     1
281
     1
  3
ACAD_XREC_ROUNDTRIP
360
BA9
  0
DICTIONARY
  5
BAA
330
B83
100
AcDbDictionary
280
     1
281
     1
  3
ACAD_XREC_ROUNDTRIP
360
BAB
  0
DICTIONARY
  5
BAC
330
B84
100
AcDbDictionary
280
     1
281
     1
  3
ACAD_XREC_ROUNDTRIP
360
BAD
  0
DICTIONARY
  5
BB2
330
B87
100
AcDbDictionary
280
     1
281
     1
  3
ACAD_XREC_ROUNDTRIP
360
BB3
  0
DICTIONARY
  5
BC6
330
B91
100
AcDbDictionary
280
     1
281
     1
  3
ACAD_XREC_ROUNDTRIP
360
BC7
  0
DICTIONARY
  5
BC0
330
B8E
100
AcDbDictionary
280
     1
281
     1
  3
ACAD_XREC_ROUNDTRIP
360
BC1
  0
DICTIONARY
  5
BC8
330
B92
100
AcDbDictionary
280
     1
281
     1
  3
ACAD_XREC_ROUNDTRIP
360
BC9
  0
DICTIONARY
  5
BB6
330
B89
100
AcDbDictionary
280
     1
281
     1
  3
ACAD_XREC_ROUNDTRIP
360
BB7
  0
DICTIONARY
  5
BD4
330
B98
100
AcDbDictionary
280
     1
281
     1
  3
ACAD_XREC_ROUNDTRIP
360
BD5
  0
DICTIONARY
  5
BD2
330
B97
100
AcDbDictionary
280
     1
281
     1
  3
ACAD_XREC_ROUNDTRIP
360
BD3
  0
DICTIONARY
  5
BCC
330
B94
100
AcDbDictionary
280
     1
281
     1
  3
ACAD_XREC_ROUNDTRIP
360
BCD
  0
DICTIONARY
  5
BCE
330
B95
100
AcDbDictionary
280
     1
281
     1
  3
ACAD_XREC_ROUNDTRIP
360
BCF
  0
DICTIONARY
  5
BBE
330
B8D
100
AcDbDictionary
280
     1
281
     1
  3
ACAD_XREC_ROUNDTRIP
360
BBF
  0
DICTIONARY
  5
BB0
330
B86
100
AcDbDictionary
280
     1
281
     1
  3
ACAD_XREC_ROUNDTRIP
360
BB1
  0
DICTIONARY
  5
BD0
330
B96
100
AcDbDictionary
280
     1
281
     1
  3
ACAD_XREC_ROUNDTRIP
360
BD1
  0
XRECORD
  5
BD9
102
{ACAD_REACTORS
330
BD8
102
}
330
BD8
100
AcDbXrecord
280
     1
102
MATERIAL
148
0.0
149
0.0
149
0.0
 93
        0
 94
      127
282
     0
 72
     1
 77
     1
171
     1
175
     1
179
     1
273
     0
  0
XRECORD
  5
BD7
102
{ACAD_REACTORS
330
BD6
102
}
330
BD6
100
AcDbXrecord
280
     1
102
MATERIAL
148
0.0
149
0.0
149
0.0
 93
        0
 94
      127
282
     0
 72
     1
 77
     1
171
     1
175
     1
179
     1
273
     0
  0
XRECORD
  5
BDB
102
{ACAD_REACTORS
330
BDA
102
}
330
BDA
100
AcDbXrecord
280
     1
102
MATERIAL
148
0.0
149
0.0
149
0.0
 93
        0
 94
      127
282
     0
 72
     1
 77
     1
171
     1
175
     1
179
     1
273
     0
  0
XRECORD
  5
BE1
102
{ACAD_REACTORS
330
BE0
102
}
330
BE0
100
AcDbXrecord
280
     1
102
ACAD_ROUNDTRIP_2010_MLEADER_STYLE
  0
CELLSTYLEMAP
  5
BDE
102
{ACAD_REACTORS
330
BDC
102
}
330
BDC
100
AcDbCellStyleMap
 90
        3
300
CELLSTYLE
  1
TABLEFORMAT_BEGIN
 90
        5
170
     1
 91
        0
 92
    32768
 62
   257
 93
        1
300
CONTENTFORMAT
  1
CONTENTFORMAT_BEGIN
 90
        0
 91
        0
 92
        4
 93
        0
300

 40
0.0
140
1.0
 94
        5
 62
     0
340
11
144
0.25
309
CONTENTFORMAT_END
171
     1
301
MARGIN
  1
CELLMARGIN_BEGIN
 40
0.06
 40
0.06
 40
0.06
 40
0.06
 40
0.06
 40
0.06
309
CELLMARGIN_END
 94
        6
 95
        1
302
GRIDFORMAT
  1
GRIDFORMAT_BEGIN
 90
        0
 91
        1
 62
     0
 92
       -2
340
14
 93
        0
 40
0.045
309
GRIDFORMAT_END
 95
        2
302
GRIDFORMAT
  1
GRIDFORMAT_BEGIN
 90
        0
 91
        1
 62
     0
 92
       -2
340
14
 93
        0
 40
0.045
309
GRIDFORMAT_END
 95
        4
302
GRIDFORMAT
  1
GRIDFORMAT_BEGIN
 90
        0
 91
        1
 62
     0
 92
       -2
340
14
 93
        0
 40
0.045
309
GRIDFORMAT_END
 95
        8
302
GRIDFORMAT
  1
GRIDFORMAT_BEGIN
 90
        0
 91
        1
 62
     0
 92
       -2
340
14
 93
        0
 40
0.045
309
GRIDFORMAT_END
 95
       16
302
GRIDFORMAT
  1
GRIDFORMAT_BEGIN
 90
        0
 91
        1
 62
     0
 92
       -2
340
14
 93
        0
 40
0.045
309
GRIDFORMAT_END
 95
       32
302
GRIDFORMAT
  1
GRIDFORMAT_BEGIN
 90
        0
 91
        1
 62
     0
 92
       -2
340
14
 93
        0
 40
0.045
309
GRIDFORMAT_END
309
TABLEFORMAT_END
  1
CELLSTYLE_BEGIN
 90
        1
 91
        1
300
_TITLE
309
CELLSTYLE_END
300
CELLSTYLE
  1
TABLEFORMAT_BEGIN
 90
        5
170
     1
 91
        0
 92
        0
 62
   257
 93
        1
300
CONTENTFORMAT
  1
CONTENTFORMAT_BEGIN
 90
        0
 91
        0
 92
        4
 93
        0
300

 40
0.0
140
1.0
 94
        5
 62
     0
340
11
144
0.18
309
CONTENTFORMAT_END
171
     1
301
MARGIN
  1
CELLMARGIN_BEGIN
 40
0.06
 40
0.06
 40
0.06
 40
0.06
 40
0.06
 40
0.06
309
CELLMARGIN_END
 94
        6
 95
        1
302
GRIDFORMAT
  1
GRIDFORMAT_BEGIN
 90
        0
 91
        1
 62
     0
 92
       -2
340
14
 93
        0
 40
0.045
309
GRIDFORMAT_END
 95
        2
302
GRIDFORMAT
  1
GRIDFORMAT_BEGIN
 90
        0
 91
        1
 62
     0
 92
       -2
340
14
 93
        0
 40
0.045
309
GRIDFORMAT_END
 95
        4
302
GRIDFORMAT
  1
GRIDFORMAT_BEGIN
 90
        0
 91
        1
 62
     0
 92
       -2
340
14
 93
        0
 40
0.045
309
GRIDFORMAT_END
 95
        8
302
GRIDFORMAT
  1
GRIDFORMAT_BEGIN
 90
        0
 91
        1
 62
     0
 92
       -2
340
14
 93
        0
 40
0.045
309
GRIDFORMAT_END
 95
       16
302
GRIDFORMAT
  1
GRIDFORMAT_BEGIN
 90
        0
 91
        1
 62
     0
 92
       -2
340
14
 93
        0
 40
0.045
309
GRIDFORMAT_END
 95
       32
302
GRIDFORMAT
  1
GRIDFORMAT_BEGIN
 90
        0
 91
        1
 62
     0
 92
       -2
340
14
 93
        0
 40
0.045
309
GRIDFORMAT_END
309
TABLEFORMAT_END
  1
CELLSTYLE_BEGIN
 90
        2
 91
        1
300
_HEADER
309
CELLSTYLE_END
300
CELLSTYLE
  1
TABLEFORMAT_BEGIN
 90
        5
170
     1
 91
        0
 92
        0
 62
   257
 93
        1
300
CONTENTFORMAT
  1
CONTENTFORMAT_BEGIN
 90
        0
 91
        0
 92
        4
 93
        0
300

 40
0.0
140
1.0
 94
        2
 62
     0
340
11
144
0.18
309
CONTENTFORMAT_END
171
     1
301
MARGIN
  1
CELLMARGIN_BEGIN
 40
0.06
 40
0.06
 40
0.06
 40
0.06
 40
0.06
 40
0.06
309
CELLMARGIN_END
 94
        6
 95
        1
302
GRIDFORMAT
  1
GRIDFORMAT_BEGIN
 90
        0
 91
        1
 62
     0
 92
       -2
340
14
 93
        0
 40
0.045
309
GRIDFORMAT_END
 95
        2
302
GRIDFORMAT
  1
GRIDFORMAT_BEGIN
 90
        0
 91
        1
 62
     0
 92
       -2
340
14
 93
        0
 40
0.045
309
GRIDFORMAT_END
 95
        4
302
GRIDFORMAT
  1
GRIDFORMAT_BEGIN
 90
        0
 91
        1
 62
     0
 92
       -2
340
14
 93
        0
 40
0.045
309
GRIDFORMAT_END
 95
        8
302
GRIDFORMAT
  1
GRIDFORMAT_BEGIN
 90
        0
 91
        1
 62
     0
 92
       -2
340
14
 93
        0
 40
0.045
309
GRIDFORMAT_END
 95
       16
302
GRIDFORMAT
  1
GRIDFORMAT_BEGIN
 90
        0
 91
        1
 62
     0
 92
       -2
340
14
 93
        0
 40
0.045
309
GRIDFORMAT_END
 95
       32
302
GRIDFORMAT
  1
GRIDFORMAT_BEGIN
 90
        0
 91
        1
 62
     0
 92
       -2
340
14
 93
        0
 40
0.045
309
GRIDFORMAT_END
309
TABLEFORMAT_END
  1
CELLSTYLE_BEGIN
 90
        3
 91
        2
300
_DATA
309
CELLSTYLE_END
  0
XRECORD
  5
BDD
102
{ACAD_REACTORS
330
BDC
102
}
330
BDC
100
AcDbXrecord
280
     1
102
ACAD_ROUNDTRIP_PRE2007_TABLESTYLE
 90
        4
 91
        0
  1

 92
        4
 93
        0
  2

 94
        4
 95
        0
  3

  0
XRECORD
  5
BAF
102
{ACAD_REACTORS
330
BAE
102
}
330
BAE
100
AcDbXrecord
280
     1
102
RTVSPropertyOp0
 70
     1
102
RTVSPropertyOp1
 70
     1
102
RTVSPropertyOp2
 70
     1
102
RTVSPropertyOp3
 70
     1
102
RTVSPropertyOp4
 70
     1
102
RTVSPropertyOp5
 70
     1
102
RTVSPropertyOp6
 70
     1
102
RTVSPropertyOp7
 70
     1
102
RTVSPropertyOp8
 70
     1
102
RTVSPropertyOp9
 70
     1
102
RTVSPropertyOp10
 70
     1
102
RTVSPropertyOp11
 70
     1
102
RTVSPropertyOp12
 70
     1
102
RTVSPropertyOp13
 70
     1
102
RTVSPropertyOp14
 70
     1
102
RTVSPropertyOp15
 70
     1
102
RTVSPropertyOp16
 70
     1
102
RTVSPropertyOp17
 70
     1
102
RTVSPropertyOp18
 70
     1
102
RTVSPropertyOp19
 70
     1
102
RTVSPropertyOp20
 70
     1
102
RTVSPropertyOp21
 70
     1
102
RTVSPropertyOp22
 70
     1
102
RTVSPropertyOp23
 70
     1
102
RTVSPropertyOp24
 70
     1
102
RTVSPropertyOp25
 70
     1
102
RTVSPropertyOp26
 70
     1
102
RTVSPropertyOp27
 70
     1
102
RTVSPropertyOp28
 70
     1
102
RTVSPropertyOp29
 70
     1
102
RTVSPropertyOp30
 70
     1
102
RTVSPropertyOp31
 70
     1
102
RTVSPropertyOp32
 70
     1
102
RTVSPropertyOp33
 70
     1
102
RTVSPropertyOp34
 70
     1
102
RTVSPropertyOp35
 70
     1
102
RTVSPropertyOp36
 70
     1
102
RTVSPropertyOp37
 70
     1
102
RTVSPropertyOp38
 70
     1
102
RTVSPropertyOp39
 70
     1
102
RTVSPropertyOp40
 70
     1
102
RTVSPropertyOp41
 70
     1
102
RTVSPropertyOp42
 70
     1
102
RTVSPropertyOp43
 70
     1
102
RTVSPropertyOp44
 70
     1
102
RTVSPropertyOp45
 70
     1
102
RTVSPropertyOp46
 70
     1
102
RTVSPropertyOp47
 70
     1
102
RTVSPropertyOp48
 70
     1
102
RTVSPropertyOp49
 70
     1
102
RTVSPropertyOp50
 70
     1
102
RTVSPropertyOp51
 70
     0
102
RTVSPropertyOp52
 70
     0
102
RTVSPropertyOp53
 70
     1
102
RTVSPropertyOp54
 70
     1
102
RTVSPropertyOp55
 70
     1
102
RTVSPropertyOp56
 70
     1
102
RTVSPropertyOp57
 70
     1
102
RTVSPost2010Prop28
280
     1
102
RTVSPost2010PropOp28
 70
     1
102
RTVSPost2010Prop29
280
     1
102
RTVSPost2010PropOp29
 70
     1
102
RTVSPost2010Prop30
280
     0
102
RTVSPost2010PropOp30
 70
     1
102
RTVSPost2010Prop31
280
     0
102
RTVSPost2010PropOp31
 70
     1
102
RTVSPost2010Prop32
280
     0
102
RTVSPost2010PropOp32
 70
     1
102
RTVSPost2010Prop33
280
     0
102
RTVSPost2010PropOp33
 70
     1
102
RTVSPost2010Prop34
280
     0
102
RTVSPost2010PropOp34
 70
     1
102
RTVSPost2010Prop35
280
     0
102
RTVSPost2010PropOp35
 70
     1
102
RTVSPost2010Prop36
280
     0
102
RTVSPost2010PropOp36
 70
     1
102
RTVSPost2010Prop37
 90
       50
102
RTVSPost2010PropOp37
 70
     1
102
RTVSPost2010Prop38
140
0.0
102
RTVSPost2010PropOp38
 70
     1
102
RTVSPost2010Prop39
140
1.0
102
RTVSPost2010PropOp39
 70
     1
102
RTVSPost2010Prop40
 90
        0
102
RTVSPost2010PropOp40
 70
     1
102
RTVSPost2010Prop41ColorIndex
 90
       18
102
RTVSPost2010Prop41ColorRGB
 90
        0
102
RTVSPost2010PropOp41
 70
     1
102
RTVSPost2010Prop42
 90
       50
102
RTVSPost2010PropOp42
 70
     1
102
RTVSPost2010Prop43
 90
        3
102
RTVSPost2010PropOp43
 70
     1
102
RTVSPost2010Prop44ColorIndex
 90
        5
102
RTVSPost2010Prop44ColorRGB
 90
      255
102
RTVSPost2010PropOp44
 70
     1
102
RTVSPost2010Prop45
280
     0
102
RTVSPost2010PropOp45
 70
     1
102
RTVSPost2010Prop46
 90
       50
102
RTVSPost2010PropOp46
 70
     1
102
RTVSPost2010Prop47
 90
       50
102
RTVSPost2010PropOp47
 70
     1
102
RTVSPost2010Prop48
 90
       50
102
RTVSPost2010PropOp48
 70
     1
102
RTVSPost2010Prop49
280
     0
102
RTVSPost2010PropOp49
 70
     1
102
RTVSPost2010Prop50
 90
       50
102
RTVSPost2010PropOp50
 70
     1
102
RTVSPost2010Prop51ColorIndex
 90
      256
102
RTVSPost2010Prop51ColorRGB
 90
-16777216
102
RTVSPost2010PropOp51
 70
     0
102
RTVSPost2010Prop52
140
1.0
102
RTVSPost2010PropOp52
 70
     0
102
RTVSPost2010Prop53
 90
        2
102
RTVSPost2010PropOp53
 70
     1
102
RTVSPost2010Prop54
  1
strokes_ogs.tif
102
RTVSPost2010PropOp54
 70
     1
102
RTVSPost2010Prop55
280
     0
102
RTVSPost2010PropOp55
 70
     1
102
RTVSPost2010Prop56
140
1.0
102
RTVSPost2010PropOp56
 70
     1
102
RTVSPost2010Prop57
140
1.0
102
RTVSPost2010PropOp57
 70
     1
  0
XRECORD
  5
BB5
102
{ACAD_REACTORS
330
BB4
102
}
330
BB4
100
AcDbXrecord
280
     1
102
RTVSPropertyOp0
 70
     1
102
RTVSPropertyOp1
 70
     1
102
RTVSPropertyOp2
 70
     1
102
RTVSPropertyOp3
 70
     1
102
RTVSPropertyOp4
 70
     1
102
RTVSPropertyOp5
 70
     1
102
RTVSPropertyOp6
 70
     1
102
RTVSPropertyOp7
 70
     1
102
RTVSPropertyOp8
 70
     1
102
RTVSPropertyOp9
 70
     1
102
RTVSPropertyOp10
 70
     1
102
RTVSPropertyOp11
 70
     1
102
RTVSPropertyOp12
 70
     1
102
RTVSPropertyOp13
 70
     1
102
RTVSPropertyOp14
 70
     1
102
RTVSPropertyOp15
 70
     1
102
RTVSPropertyOp16
 70
     1
102
RTVSPropertyOp17
 70
     1
102
RTVSPropertyOp18
 70
     1
102
RTVSPropertyOp19
 70
     1
102
RTVSPropertyOp20
 70
     1
102
RTVSPropertyOp21
 70
     1
102
RTVSPropertyOp22
 70
     1
102
RTVSPropertyOp23
 70
     1
102
RTVSPropertyOp24
 70
     1
102
RTVSPropertyOp25
 70
     1
102
RTVSPropertyOp26
 70
     1
102
RTVSPropertyOp27
 70
     1
102
RTVSPropertyOp28
 70
     1
102
RTVSPropertyOp29
 70
     1
102
RTVSPropertyOp30
 70
     1
102
RTVSPropertyOp31
 70
     1
102
RTVSPropertyOp32
 70
     1
102
RTVSPropertyOp33
 70
     1
102
RTVSPropertyOp34
 70
     1
102
RTVSPropertyOp35
 70
     1
102
RTVSPropertyOp36
 70
     1
102
RTVSPropertyOp37
 70
     1
102
RTVSPropertyOp38
 70
     1
102
RTVSPropertyOp39
 70
     1
102
RTVSPropertyOp40
 70
     1
102
RTVSPropertyOp41
 70
     1
102
RTVSPropertyOp42
 70
     1
102
RTVSPropertyOp43
 70
     1
102
RTVSPropertyOp44
 70
     1
102
RTVSPropertyOp45
 70
     1
102
RTVSPropertyOp46
 70
     1
102
RTVSPropertyOp47
 70
     1
102
RTVSPropertyOp48
 70
     1
102
RTVSPropertyOp49
 70
     1
102
RTVSPropertyOp50
 70
     1
102
RTVSPropertyOp51
 70
     0
102
RTVSPropertyOp52
 70
     0
102
RTVSPropertyOp53
 70
     1
102
RTVSPropertyOp54
 70
     1
102
RTVSPropertyOp55
 70
     1
102
RTVSPropertyOp56
 70
     1
102
RTVSPropertyOp57
 70
     1
102
RTVSPost2010Prop28
280
     0
102
RTVSPost2010PropOp28
 70
     1
102
RTVSPost2010Prop29
280
     1
102
RTVSPost2010PropOp29
 70
     1
102
RTVSPost2010Prop30
280
     1
102
RTVSPost2010PropOp30
 70
     1
102
RTVSPost2010Prop31
280
     0
102
RTVSPost2010PropOp31
 70
     1
102
RTVSPost2010Prop32
280
     0
102
RTVSPost2010PropOp32
 70
     1
102
RTVSPost2010Prop33
280
     0
102
RTVSPost2010PropOp33
 70
     1
102
RTVSPost2010Prop34
280
     0
102
RTVSPost2010PropOp34
 70
     1
102
RTVSPost2010Prop35
280
     0
102
RTVSPost2010PropOp35
 70
     1
102
RTVSPost2010Prop36
280
     0
102
RTVSPost2010PropOp36
 70
     1
102
RTVSPost2010Prop37
 90
       50
102
RTVSPost2010PropOp37
 70
     1
102
RTVSPost2010Prop38
140
0.0
102
RTVSPost2010PropOp38
 70
     1
102
RTVSPost2010Prop39
140
1.0
102
RTVSPost2010PropOp39
 70
     1
102
RTVSPost2010Prop40
 90
        0
102
RTVSPost2010PropOp40
 70
     1
102
RTVSPost2010Prop41ColorIndex
 90
       18
102
RTVSPost2010Prop41ColorRGB
 90
        0
102
RTVSPost2010PropOp41
 70
     1
102
RTVSPost2010Prop42
 90
       50
102
RTVSPost2010PropOp42
 70
     1
102
RTVSPost2010Prop43
 90
        3
102
RTVSPost2010PropOp43
 70
     1
102
RTVSPost2010Prop44ColorIndex
 90
        5
102
RTVSPost2010Prop44ColorRGB
 90
      255
102
RTVSPost2010PropOp44
 70
     1
102
RTVSPost2010Prop45
280
     0
102
RTVSPost2010PropOp45
 70
     1
102
RTVSPost2010Prop46
 90
       50
102
RTVSPost2010PropOp46
 70
     1
102
RTVSPost2010Prop47
 90
       50
102
RTVSPost2010PropOp47
 70
     1
102
RTVSPost2010Prop48
 90
       50
102
RTVSPost2010PropOp48
 70
     1
102
RTVSPost2010Prop49
280
     0
102
RTVSPost2010PropOp49
 70
     1
102
RTVSPost2010Prop50
 90
       50
102
RTVSPost2010PropOp50
 70
     1
102
RTVSPost2010Prop51ColorIndex
 90
      256
102
RTVSPost2010Prop51ColorRGB
 90
-16777216
102
RTVSPost2010PropOp51
 70
     0
102
RTVSPost2010Prop52
140
1.0
102
RTVSPost2010PropOp52
 70
     0
102
RTVSPost2010Prop53
 90
        2
102
RTVSPost2010PropOp53
 70
     1
102
RTVSPost2010Prop54
  1
strokes_ogs.tif
102
RTVSPost2010PropOp54
 70
     1
102
RTVSPost2010Prop55
280
     0
102
RTVSPost2010PropOp55
 70
     1
102
RTVSPost2010Prop56
140
1.0
102
RTVSPost2010PropOp56
 70
     1
102
RTVSPost2010Prop57
140
1.0
102
RTVSPost2010PropOp57
 70
     1
  0
XRECORD
  5
BBD
102
{ACAD_REACTORS
330
BBC
102
}
330
BBC
100
AcDbXrecord
280
     1
102
RTVSPropertyOp0
 70
     1
102
RTVSPropertyOp1
 70
     1
102
RTVSPropertyOp2
 70
     1
102
RTVSPropertyOp3
 70
     1
102
RTVSPropertyOp4
 70
     1
102
RTVSPropertyOp5
 70
     1
102
RTVSPropertyOp6
 70
     1
102
RTVSPropertyOp7
 70
     1
102
RTVSPropertyOp8
 70
     1
102
RTVSPropertyOp9
 70
     1
102
RTVSPropertyOp10
 70
     1
102
RTVSPropertyOp11
 70
     1
102
RTVSPropertyOp12
 70
     1
102
RTVSPropertyOp13
 70
     1
102
RTVSPropertyOp14
 70
     1
102
RTVSPropertyOp15
 70
     1
102
RTVSPropertyOp16
 70
     1
102
RTVSPropertyOp17
 70
     1
102
RTVSPropertyOp18
 70
     1
102
RTVSPropertyOp19
 70
     1
102
RTVSPropertyOp20
 70
     1
102
RTVSPropertyOp21
 70
     1
102
RTVSPropertyOp22
 70
     1
102
RTVSPropertyOp23
 70
     1
102
RTVSPropertyOp24
 70
     1
102
RTVSPropertyOp25
 70
     1
102
RTVSPropertyOp26
 70
     1
102
RTVSPropertyOp27
 70
     1
102
RTVSPropertyOp28
 70
     1
102
RTVSPropertyOp29
 70
     1
102
RTVSPropertyOp30
 70
     1
102
RTVSPropertyOp31
 70
     1
102
RTVSPropertyOp32
 70
     1
102
RTVSPropertyOp33
 70
     1
102
RTVSPropertyOp34
 70
     1
102
RTVSPropertyOp35
 70
     1
102
RTVSPropertyOp36
 70
     1
102
RTVSPropertyOp37
 70
     1
102
RTVSPropertyOp38
 70
     1
102
RTVSPropertyOp39
 70
     1
102
RTVSPropertyOp40
 70
     1
102
RTVSPropertyOp41
 70
     1
102
RTVSPropertyOp42
 70
     1
102
RTVSPropertyOp43
 70
     1
102
RTVSPropertyOp44
 70
     1
102
RTVSPropertyOp45
 70
     1
102
RTVSPropertyOp46
 70
     1
102
RTVSPropertyOp47
 70
     1
102
RTVSPropertyOp48
 70
     1
102
RTVSPropertyOp49
 70
     1
102
RTVSPropertyOp50
 70
     1
102
RTVSPropertyOp51
 70
     0
102
RTVSPropertyOp52
 70
     0
102
RTVSPropertyOp53
 70
     1
102
RTVSPropertyOp54
 70
     1
102
RTVSPropertyOp55
 70
     1
102
RTVSPropertyOp56
 70
     1
102
RTVSPropertyOp57
 70
     1
102
RTVSPost2010Prop28
280
     0
102
RTVSPost2010PropOp28
 70
     1
102
RTVSPost2010Prop29
280
     1
102
RTVSPost2010PropOp29
 70
     1
102
RTVSPost2010Prop30
280
     1
102
RTVSPost2010PropOp30
 70
     1
102
RTVSPost2010Prop31
280
     0
102
RTVSPost2010PropOp31
 70
     1
102
RTVSPost2010Prop32
280
     0
102
RTVSPost2010PropOp32
 70
     1
102
RTVSPost2010Prop33
280
     0
102
RTVSPost2010PropOp33
 70
     1
102
RTVSPost2010Prop34
280
     0
102
RTVSPost2010PropOp34
 70
     1
102
RTVSPost2010Prop35
280
     0
102
RTVSPost2010PropOp35
 70
     1
102
RTVSPost2010Prop36
280
     0
102
RTVSPost2010PropOp36
 70
     1
102
RTVSPost2010Prop37
 90
       50
102
RTVSPost2010PropOp37
 70
     1
102
RTVSPost2010Prop38
140
0.0
102
RTVSPost2010PropOp38
 70
     1
102
RTVSPost2010Prop39
140
1.0
102
RTVSPost2010PropOp39
 70
     1
102
RTVSPost2010Prop40
 90
        0
102
RTVSPost2010PropOp40
 70
     1
102
RTVSPost2010Prop41ColorIndex
 90
       18
102
RTVSPost2010Prop41ColorRGB
 90
        0
102
RTVSPost2010PropOp41
 70
     1
102
RTVSPost2010Prop42
 90
       50
102
RTVSPost2010PropOp42
 70
     1
102
RTVSPost2010Prop43
 90
        3
102
RTVSPost2010PropOp43
 70
     1
102
RTVSPost2010Prop44ColorIndex
 90
        5
102
RTVSPost2010Prop44ColorRGB
 90
      255
102
RTVSPost2010PropOp44
 70
     1
102
RTVSPost2010Prop45
280
     0
102
RTVSPost2010PropOp45
 70
     1
102
RTVSPost2010Prop46
 90
       50
102
RTVSPost2010PropOp46
 70
     1
102
RTVSPost2010Prop47
 90
       50
102
RTVSPost2010PropOp47
 70
     1
102
RTVSPost2010Prop48
 90
       50
102
RTVSPost2010PropOp48
 70
     1
102
RTVSPost2010Prop49
280
     0
102
RTVSPost2010PropOp49
 70
     1
102
RTVSPost2010Prop50
 90
       50
102
RTVSPost2010PropOp50
 70
     1
102
RTVSPost2010Prop51ColorIndex
 90
      256
102
RTVSPost2010Prop51ColorRGB
 90
-16777216
102
RTVSPost2010PropOp51
 70
     0
102
RTVSPost2010Prop52
140
1.0
102
RTVSPost2010PropOp52
 70
     0
102
RTVSPost2010Prop53
 90
        2
102
RTVSPost2010PropOp53
 70
     1
102
RTVSPost2010Prop54
  1
strokes_ogs.tif
102
RTVSPost2010PropOp54
 70
     1
102
RTVSPost2010Prop55
280
     0
102
RTVSPost2010PropOp55
 70
     1
102
RTVSPost2010Prop56
140
1.0
102
RTVSPost2010PropOp56
 70
     1
102
RTVSPost2010Prop57
140
1.0
102
RTVSPost2010PropOp57
 70
     1
  0
XRECORD
  5
BC5
102
{ACAD_REACTORS
330
BC4
102
}
330
BC4
100
AcDbXrecord
280
     1
102
RTVSPropertyOp0
 70
     1
102
RTVSPropertyOp1
 70
     1
102
RTVSPropertyOp2
 70
     1
102
RTVSPropertyOp3
 70
     1
102
RTVSPropertyOp4
 70
     1
102
RTVSPropertyOp5
 70
     1
102
RTVSPropertyOp6
 70
     1
102
RTVSPropertyOp7
 70
     1
102
RTVSPropertyOp8
 70
     1
102
RTVSPropertyOp9
 70
     1
102
RTVSPropertyOp10
 70
     1
102
RTVSPropertyOp11
 70
     1
102
RTVSPropertyOp12
 70
     1
102
RTVSPropertyOp13
 70
     1
102
RTVSPropertyOp14
 70
     1
102
RTVSPropertyOp15
 70
     1
102
RTVSPropertyOp16
 70
     1
102
RTVSPropertyOp17
 70
     1
102
RTVSPropertyOp18
 70
     1
102
RTVSPropertyOp19
 70
     1
102
RTVSPropertyOp20
 70
     1
102
RTVSPropertyOp21
 70
     1
102
RTVSPropertyOp22
 70
     1
102
RTVSPropertyOp23
 70
     1
102
RTVSPropertyOp24
 70
     1
102
RTVSPropertyOp25
 70
     1
102
RTVSPropertyOp26
 70
     1
102
RTVSPropertyOp27
 70
     1
102
RTVSPropertyOp28
 70
     1
102
RTVSPropertyOp29
 70
     1
102
RTVSPropertyOp30
 70
     1
102
RTVSPropertyOp31
 70
     1
102
RTVSPropertyOp32
 70
     1
102
RTVSPropertyOp33
 70
     1
102
RTVSPropertyOp34
 70
     1
102
RTVSPropertyOp35
 70
     1
102
RTVSPropertyOp36
 70
     1
102
RTVSPropertyOp37
 70
     1
102
RTVSPropertyOp38
 70
     1
102
RTVSPropertyOp39
 70
     1
102
RTVSPropertyOp40
 70
     1
102
RTVSPropertyOp41
 70
     1
102
RTVSPropertyOp42
 70
     1
102
RTVSPropertyOp43
 70
     1
102
RTVSPropertyOp44
 70
     1
102
RTVSPropertyOp45
 70
     1
102
RTVSPropertyOp46
 70
     1
102
RTVSPropertyOp47
 70
     1
102
RTVSPropertyOp48
 70
     1
102
RTVSPropertyOp49
 70
     1
102
RTVSPropertyOp50
 70
     1
102
RTVSPropertyOp51
 70
     0
102
RTVSPropertyOp52
 70
     0
102
RTVSPropertyOp53
 70
     1
102
RTVSPropertyOp54
 70
     1
102
RTVSPropertyOp55
 70
     1
102
RTVSPropertyOp56
 70
     1
102
RTVSPropertyOp57
 70
     1
102
RTVSPost2010Prop28
280
     0
102
RTVSPost2010PropOp28
 70
     1
102
RTVSPost2010Prop29
280
     1
102
RTVSPost2010PropOp29
 70
     1
102
RTVSPost2010Prop30
280
     1
102
RTVSPost2010PropOp30
 70
     1
102
RTVSPost2010Prop31
280
     0
102
RTVSPost2010PropOp31
 70
     1
102
RTVSPost2010Prop32
280
     0
102
RTVSPost2010PropOp32
 70
     1
102
RTVSPost2010Prop33
280
     0
102
RTVSPost2010PropOp33
 70
     1
102
RTVSPost2010Prop34
280
     0
102
RTVSPost2010PropOp34
 70
     1
102
RTVSPost2010Prop35
280
     0
102
RTVSPost2010PropOp35
 70
     1
102
RTVSPost2010Prop36
280
     0
102
RTVSPost2010PropOp36
 70
     1
102
RTVSPost2010Prop37
 90
       50
102
RTVSPost2010PropOp37
 70
     1
102
RTVSPost2010Prop38
140
0.0
102
RTVSPost2010PropOp38
 70
     1
102
RTVSPost2010Prop39
140
1.0
102
RTVSPost2010PropOp39
 70
     1
102
RTVSPost2010Prop40
 90
        0
102
RTVSPost2010PropOp40
 70
     1
102
RTVSPost2010Prop41ColorIndex
 90
       18
102
RTVSPost2010Prop41ColorRGB
 90
        0
102
RTVSPost2010PropOp41
 70
     1
102
RTVSPost2010Prop42
 90
       50
102
RTVSPost2010PropOp42
 70
     1
102
RTVSPost2010Prop43
 90
        3
102
RTVSPost2010PropOp43
 70
     1
102
RTVSPost2010Prop44ColorIndex
 90
        5
102
RTVSPost2010Prop44ColorRGB
 90
      255
102
RTVSPost2010PropOp44
 70
     1
102
RTVSPost2010Prop45
280
     0
102
RTVSPost2010PropOp45
 70
     1
102
RTVSPost2010Prop46
 90
       50
102
RTVSPost2010PropOp46
 70
     1
102
RTVSPost2010Prop47
 90
       50
102
RTVSPost2010PropOp47
 70
     1
102
RTVSPost2010Prop48
 90
       50
102
RTVSPost2010PropOp48
 70
     1
102
RTVSPost2010Prop49
280
     0
102
RTVSPost2010PropOp49
 70
     1
102
RTVSPost2010Prop50
 90
       50
102
RTVSPost2010PropOp50
 70
     1
102
RTVSPost2010Prop51ColorIndex
 90
      256
102
RTVSPost2010Prop51ColorRGB
 90
-16777216
102
RTVSPost2010PropOp51
 70
     0
102
RTVSPost2010Prop52
140
1.0
102
RTVSPost2010PropOp52
 70
     0
102
RTVSPost2010Prop53
 90
        2
102
RTVSPost2010PropOp53
 70
     1
102
RTVSPost2010Prop54
  1
strokes_ogs.tif
102
RTVSPost2010PropOp54
 70
     1
102
RTVSPost2010Prop55
280
     0
102
RTVSPost2010PropOp55
 70
     1
102
RTVSPost2010Prop56
140
1.0
102
RTVSPost2010PropOp56
 70
     1
102
RTVSPost2010Prop57
140
1.0
102
RTVSPost2010PropOp57
 70
     1
  0
XRECORD
  5
BB9
102
{ACAD_REACTORS
330
BB8
102
}
330
BB8
100
AcDbXrecord
280
     1
102
RTVSPropertyOp0
 70
     1
102
RTVSPropertyOp1
 70
     1
102
RTVSPropertyOp2
 70
     1
102
RTVSPropertyOp3
 70
     1
102
RTVSPropertyOp4
 70
     1
102
RTVSPropertyOp5
 70
     1
102
RTVSPropertyOp6
 70
     1
102
RTVSPropertyOp7
 70
     1
102
RTVSPropertyOp8
 70
     1
102
RTVSPropertyOp9
 70
     1
102
RTVSPropertyOp10
 70
     1
102
RTVSPropertyOp11
 70
     1
102
RTVSPropertyOp12
 70
     1
102
RTVSPropertyOp13
 70
     1
102
RTVSPropertyOp14
 70
     1
102
RTVSPropertyOp15
 70
     1
102
RTVSPropertyOp16
 70
     1
102
RTVSPropertyOp17
 70
     1
102
RTVSPropertyOp18
 70
     1
102
RTVSPropertyOp19
 70
     1
102
RTVSPropertyOp20
 70
     1
102
RTVSPropertyOp21
 70
     1
102
RTVSPropertyOp22
 70
     1
102
RTVSPropertyOp23
 70
     1
102
RTVSPropertyOp24
 70
     1
102
RTVSPropertyOp25
 70
     1
102
RTVSPropertyOp26
 70
     1
102
RTVSPropertyOp27
 70
     1
102
RTVSPropertyOp28
 70
     1
102
RTVSPropertyOp29
 70
     1
102
RTVSPropertyOp30
 70
     1
102
RTVSPropertyOp31
 70
     1
102
RTVSPropertyOp32
 70
     1
102
RTVSPropertyOp33
 70
     1
102
RTVSPropertyOp34
 70
     1
102
RTVSPropertyOp35
 70
     1
102
RTVSPropertyOp36
 70
     1
102
RTVSPropertyOp37
 70
     1
102
RTVSPropertyOp38
 70
     1
102
RTVSPropertyOp39
 70
     1
102
RTVSPropertyOp40
 70
     1
102
RTVSPropertyOp41
 70
     1
102
RTVSPropertyOp42
 70
     1
102
RTVSPropertyOp43
 70
     1
102
RTVSPropertyOp44
 70
     1
102
RTVSPropertyOp45
 70
     1
102
RTVSPropertyOp46
 70
     1
102
RTVSPropertyOp47
 70
     1
102
RTVSPropertyOp48
 70
     1
102
RTVSPropertyOp49
 70
     1
102
RTVSPropertyOp50
 70
     1
102
RTVSPropertyOp51
 70
     0
102
RTVSPropertyOp52
 70
     0
102
RTVSPropertyOp53
 70
     1
102
RTVSPropertyOp54
 70
     1
102
RTVSPropertyOp55
 70
     1
102
RTVSPropertyOp56
 70
     1
102
RTVSPropertyOp57
 70
     1
102
RTVSPost2010Prop28
280
     0
102
RTVSPost2010PropOp28
 70
     1
102
RTVSPost2010Prop29
280
     1
102
RTVSPost2010PropOp29
 70
     1
102
RTVSPost2010Prop30
280
     1
102
RTVSPost2010PropOp30
 70
     1
102
RTVSPost2010Prop31
280
     0
102
RTVSPost2010PropOp31
 70
     1
102
RTVSPost2010Prop32
280
     0
102
RTVSPost2010PropOp32
 70
     1
102
RTVSPost2010Prop33
280
     0
102
RTVSPost2010PropOp33
 70
     1
102
RTVSPost2010Prop34
280
     0
102
RTVSPost2010PropOp34
 70
     1
102
RTVSPost2010Prop35
280
     0
102
RTVSPost2010PropOp35
 70
     1
102
RTVSPost2010Prop36
280
     0
102
RTVSPost2010PropOp36
 70
     1
102
RTVSPost2010Prop37
 90
       50
102
RTVSPost2010PropOp37
 70
     1
102
RTVSPost2010Prop38
140
0.0
102
RTVSPost2010PropOp38
 70
     1
102
RTVSPost2010Prop39
140
1.0
102
RTVSPost2010PropOp39
 70
     1
102
RTVSPost2010Prop40
 90
        0
102
RTVSPost2010PropOp40
 70
     1
102
RTVSPost2010Prop41ColorIndex
 90
       18
102
RTVSPost2010Prop41ColorRGB
 90
        0
102
RTVSPost2010PropOp41
 70
     1
102
RTVSPost2010Prop42
 90
       50
102
RTVSPost2010PropOp42
 70
     1
102
RTVSPost2010Prop43
 90
        3
102
RTVSPost2010PropOp43
 70
     1
102
RTVSPost2010Prop44ColorIndex
 90
        5
102
RTVSPost2010Prop44ColorRGB
 90
      255
102
RTVSPost2010PropOp44
 70
     1
102
RTVSPost2010Prop45
280
     0
102
RTVSPost2010PropOp45
 70
     1
102
RTVSPost2010Prop46
 90
       50
102
RTVSPost2010PropOp46
 70
     1
102
RTVSPost2010Prop47
 90
       50
102
RTVSPost2010PropOp47
 70
     1
102
RTVSPost2010Prop48
 90
       50
102
RTVSPost2010PropOp48
 70
     1
102
RTVSPost2010Prop49
280
     0
102
RTVSPost2010PropOp49
 70
     1
102
RTVSPost2010Prop50
 90
       50
102
RTVSPost2010PropOp50
 70
     1
102
RTVSPost2010Prop51ColorIndex
 90
      256
102
RTVSPost2010Prop51ColorRGB
 90
-16777216
102
RTVSPost2010PropOp51
 70
     0
102
RTVSPost2010Prop52
140
1.0
102
RTVSPost2010PropOp52
 70
     0
102
RTVSPost2010Prop53
 90
        2
102
RTVSPost2010PropOp53
 70
     1
102
RTVSPost2010Prop54
  1
strokes_ogs.tif
102
RTVSPost2010PropOp54
 70
     1
102
RTVSPost2010Prop55
280
     0
102
RTVSPost2010PropOp55
 70
     1
102
RTVSPost2010Prop56
140
1.0
102
RTVSPost2010PropOp56
 70
     1
102
RTVSPost2010Prop57
140
1.0
102
RTVSPost2010PropOp57
 70
     1
  0
XRECORD
  5
BBB
102
{ACAD_REACTORS
330
BBA
102
}
330
BBA
100
AcDbXrecord
280
     1
102
RTVSPropertyOp0
 70
     1
102
RTVSPropertyOp1
 70
     1
102
RTVSPropertyOp2
 70
     1
102
RTVSPropertyOp3
 70
     1
102
RTVSPropertyOp4
 70
     1
102
RTVSPropertyOp5
 70
     1
102
RTVSPropertyOp6
 70
     1
102
RTVSPropertyOp7
 70
     1
102
RTVSPropertyOp8
 70
     1
102
RTVSPropertyOp9
 70
     1
102
RTVSPropertyOp10
 70
     1
102
RTVSPropertyOp11
 70
     1
102
RTVSPropertyOp12
 70
     1
102
RTVSPropertyOp13
 70
     1
102
RTVSPropertyOp14
 70
     1
102
RTVSPropertyOp15
 70
     1
102
RTVSPropertyOp16
 70
     1
102
RTVSPropertyOp17
 70
     1
102
RTVSPropertyOp18
 70
     1
102
RTVSPropertyOp19
 70
     1
102
RTVSPropertyOp20
 70
     1
102
RTVSPropertyOp21
 70
     1
102
RTVSPropertyOp22
 70
     1
102
RTVSPropertyOp23
 70
     1
102
RTVSPropertyOp24
 70
     1
102
RTVSPropertyOp25
 70
     1
102
RTVSPropertyOp26
 70
     1
102
RTVSPropertyOp27
 70
     1
102
RTVSPropertyOp28
 70
     1
102
RTVSPropertyOp29
 70
     1
102
RTVSPropertyOp30
 70
     1
102
RTVSPropertyOp31
 70
     1
102
RTVSPropertyOp32
 70
     1
102
RTVSPropertyOp33
 70
     1
102
RTVSPropertyOp34
 70
     1
102
RTVSPropertyOp35
 70
     1
102
RTVSPropertyOp36
 70
     1
102
RTVSPropertyOp37
 70
     1
102
RTVSPropertyOp38
 70
     1
102
RTVSPropertyOp39
 70
     1
102
RTVSPropertyOp40
 70
     1
102
RTVSPropertyOp41
 70
     1
102
RTVSPropertyOp42
 70
     1
102
RTVSPropertyOp43
 70
     1
102
RTVSPropertyOp44
 70
     1
102
RTVSPropertyOp45
 70
     1
102
RTVSPropertyOp46
 70
     1
102
RTVSPropertyOp47
 70
     1
102
RTVSPropertyOp48
 70
     1
102
RTVSPropertyOp49
 70
     1
102
RTVSPropertyOp50
 70
     1
102
RTVSPropertyOp51
 70
     0
102
RTVSPropertyOp52
 70
     0
102
RTVSPropertyOp53
 70
     1
102
RTVSPropertyOp54
 70
     1
102
RTVSPropertyOp55
 70
     1
102
RTVSPropertyOp56
 70
     1
102
RTVSPropertyOp57
 70
     1
102
RTVSPost2010Prop28
280
     0
102
RTVSPost2010PropOp28
 70
     1
102
RTVSPost2010Prop29
280
     1
102
RTVSPost2010PropOp29
 70
     1
102
RTVSPost2010Prop30
280
     1
102
RTVSPost2010PropOp30
 70
     1
102
RTVSPost2010Prop31
280
     0
102
RTVSPost2010PropOp31
 70
     1
102
RTVSPost2010Prop32
280
     0
102
RTVSPost2010PropOp32
 70
     1
102
RTVSPost2010Prop33
280
     0
102
RTVSPost2010PropOp33
 70
     1
102
RTVSPost2010Prop34
280
     0
102
RTVSPost2010PropOp34
 70
     1
102
RTVSPost2010Prop35
280
     0
102
RTVSPost2010PropOp35
 70
     1
102
RTVSPost2010Prop36
280
     0
102
RTVSPost2010PropOp36
 70
     1
102
RTVSPost2010Prop37
 90
       50
102
RTVSPost2010PropOp37
 70
     1
102
RTVSPost2010Prop38
140
0.0
102
RTVSPost2010PropOp38
 70
     1
102
RTVSPost2010Prop39
140
1.0
102
RTVSPost2010PropOp39
 70
     1
102
RTVSPost2010Prop40
 90
        0
102
RTVSPost2010PropOp40
 70
     1
102
RTVSPost2010Prop41ColorIndex
 90
       18
102
RTVSPost2010Prop41ColorRGB
 90
        0
102
RTVSPost2010PropOp41
 70
     1
102
RTVSPost2010Prop42
 90
       50
102
RTVSPost2010PropOp42
 70
     1
102
RTVSPost2010Prop43
 90
        3
102
RTVSPost2010PropOp43
 70
     1
102
RTVSPost2010Prop44ColorIndex
 90
        5
102
RTVSPost2010Prop44ColorRGB
 90
      255
102
RTVSPost2010PropOp44
 70
     1
102
RTVSPost2010Prop45
280
     0
102
RTVSPost2010PropOp45
 70
     1
102
RTVSPost2010Prop46
 90
       50
102
RTVSPost2010PropOp46
 70
     1
102
RTVSPost2010Prop47
 90
       50
102
RTVSPost2010PropOp47
 70
     1
102
RTVSPost2010Prop48
 90
       50
102
RTVSPost2010PropOp48
 70
     1
102
RTVSPost2010Prop49
280
     0
102
RTVSPost2010PropOp49
 70
     1
102
RTVSPost2010Prop50
 90
       50
102
RTVSPost2010PropOp50
 70
     1
102
RTVSPost2010Prop51ColorIndex
 90
      256
102
RTVSPost2010Prop51ColorRGB
 90
-16777216
102
RTVSPost2010PropOp51
 70
     0
102
RTVSPost2010Prop52
140
1.0
102
RTVSPost2010PropOp52
 70
     0
102
RTVSPost2010Prop53
 90
        2
102
RTVSPost2010PropOp53
 70
     1
102
RTVSPost2010Prop54
  1
strokes_ogs.tif
102
RTVSPost2010PropOp54
 70
     1
102
RTVSPost2010Prop55
280
     0
102
RTVSPost2010PropOp55
 70
     1
102
RTVSPost2010Prop56
140
1.0
102
RTVSPost2010PropOp56
 70
     1
102
RTVSPost2010Prop57
140
1.0
102
RTVSPost2010PropOp57
 70
     1
  0
XRECORD
  5
BCB
102
{ACAD_REACTORS
330
BCA
102
}
330
BCA
100
AcDbXrecord
280
     1
102
RTVSPropertyOp0
 70
     0
102
RTVSPropertyOp1
 70
     0
102
RTVSPropertyOp2
 70
     0
102
RTVSPropertyOp3
 70
     0
102
RTVSPropertyOp4
 70
     0
102
RTVSPropertyOp5
 70
     0
102
RTVSPropertyOp6
 70
     0
102
RTVSPropertyOp7
 70
     0
102
RTVSPropertyOp8
 70
     0
102
RTVSPropertyOp9
 70
     0
102
RTVSPropertyOp10
 70
     0
102
RTVSPropertyOp11
 70
     0
102
RTVSPropertyOp12
 70
     0
102
RTVSPropertyOp13
 70
     0
102
RTVSPropertyOp14
 70
     2
102
RTVSPropertyOp15
 70
     0
102
RTVSPropertyOp16
 70
     0
102
RTVSPropertyOp17
 70
     0
102
RTVSPropertyOp18
 70
     0
102
RTVSPropertyOp19
 70
     0
102
RTVSPropertyOp20
 70
     0
102
RTVSPropertyOp21
 70
     0
102
RTVSPropertyOp22
 70
     0
102
RTVSPropertyOp23
 70
     0
102
RTVSPropertyOp24
 70
     0
102
RTVSPropertyOp25
 70
     0
102
RTVSPropertyOp26
 70
     0
102
RTVSPropertyOp27
 70
     0
102
RTVSPropertyOp28
 70
     0
102
RTVSPropertyOp29
 70
     0
102
RTVSPropertyOp30
 70
     0
102
RTVSPropertyOp31
 70
     0
102
RTVSPropertyOp32
 70
     0
102
RTVSPropertyOp33
 70
     0
102
RTVSPropertyOp34
 70
     0
102
RTVSPropertyOp35
 70
     0
102
RTVSPropertyOp36
 70
     0
102
RTVSPropertyOp37
 70
     0
102
RTVSPropertyOp38
 70
     0
102
RTVSPropertyOp39
 70
     0
102
RTVSPropertyOp40
 70
     0
102
RTVSPropertyOp41
 70
     0
102
RTVSPropertyOp42
 70
     0
102
RTVSPropertyOp43
 70
     0
102
RTVSPropertyOp44
 70
     0
102
RTVSPropertyOp45
 70
     0
102
RTVSPropertyOp46
 70
     0
102
RTVSPropertyOp47
 70
     0
102
RTVSPropertyOp48
 70
     0
102
RTVSPropertyOp49
 70
     0
102
RTVSPropertyOp50
 70
     0
102
RTVSPropertyOp51
 70
     0
102
RTVSPropertyOp52
 70
     0
102
RTVSPropertyOp53
 70
     0
102
RTVSPropertyOp54
 70
     0
102
RTVSPropertyOp55
 70
     0
102
RTVSPropertyOp56
 70
     0
102
RTVSPropertyOp57
 70
     0
102
RTVSPost2010Prop28
280
     0
102
RTVSPost2010PropOp28
 70
     0
102
RTVSPost2010Prop29
280
     1
102
RTVSPost2010PropOp29
 70
     0
102
RTVSPost2010Prop30
280
     1
102
RTVSPost2010PropOp30
 70
     0
102
RTVSPost2010Prop31
280
     0
102
RTVSPost2010PropOp31
 70
     0
102
RTVSPost2010Prop32
280
     0
102
RTVSPost2010PropOp32
 70
     0
102
RTVSPost2010Prop33
280
     0
102
RTVSPost2010PropOp33
 70
     0
102
RTVSPost2010Prop34
280
     0
102
RTVSPost2010PropOp34
 70
     0
102
RTVSPost2010Prop35
280
     0
102
RTVSPost2010PropOp35
 70
     0
102
RTVSPost2010Prop36
280
     0
102
RTVSPost2010PropOp36
 70
     0
102
RTVSPost2010Prop37
 90
       50
102
RTVSPost2010PropOp37
 70
     0
102
RTVSPost2010Prop38
140
0.0
102
RTVSPost2010PropOp38
 70
     0
102
RTVSPost2010Prop39
140
1.0
102
RTVSPost2010PropOp39
 70
     0
102
RTVSPost2010Prop40
 90
        0
102
RTVSPost2010PropOp40
 70
     0
102
RTVSPost2010Prop41ColorIndex
 90
       18
102
RTVSPost2010Prop41ColorRGB
 90
        0
102
RTVSPost2010PropOp41
 70
     0
102
RTVSPost2010Prop42
 90
       50
102
RTVSPost2010PropOp42
 70
     0
102
RTVSPost2010Prop43
 90
        3
102
RTVSPost2010PropOp43
 70
     0
102
RTVSPost2010Prop44ColorIndex
 90
        5
102
RTVSPost2010Prop44ColorRGB
 90
      255
102
RTVSPost2010PropOp44
 70
     0
102
RTVSPost2010Prop45
280
     0
102
RTVSPost2010PropOp45
 70
     0
102
RTVSPost2010Prop46
 90
       50
102
RTVSPost2010PropOp46
 70
     0
102
RTVSPost2010Prop47
 90
       50
102
RTVSPost2010PropOp47
 70
     0
102
RTVSPost2010Prop48
 90
       50
102
RTVSPost2010PropOp48
 70
     0
102
RTVSPost2010Prop49
280
     0
102
RTVSPost2010PropOp49
 70
     0
102
RTVSPost2010Prop50
 90
       50
102
RTVSPost2010PropOp50
 70
     0
102
RTVSPost2010Prop51ColorIndex
 90
      256
102
RTVSPost2010Prop51ColorRGB
 90
-16777216
102
RTVSPost2010PropOp51
 70
     0
102
RTVSPost2010Prop52
140
1.0
102
RTVSPost2010PropOp52
 70
     0
102
RTVSPost2010Prop53
 90
        2
102
RTVSPost2010PropOp53
 70
     0
102
RTVSPost2010Prop54
  1
strokes_ogs.tif
102
RTVSPost2010PropOp54
 70
     0
102
RTVSPost2010Prop55
280
     0
102
RTVSPost2010PropOp55
 70
     0
102
RTVSPost2010Prop56
140
1.0
102
RTVSPost2010PropOp56
 70
     0
102
RTVSPost2010Prop57
140
1.0
102
RTVSPost2010PropOp57
 70
     0
  0
XRECORD
  5
BC3
102
{ACAD_REACTORS
330
BC2
102
}
330
BC2
100
AcDbXrecord
280
     1
102
RTVSPropertyOp0
 70
     1
102
RTVSPropertyOp1
 70
     1
102
RTVSPropertyOp2
 70
     1
102
RTVSPropertyOp3
 70
     1
102
RTVSPropertyOp4
 70
     1
102
RTVSPropertyOp5
 70
     1
102
RTVSPropertyOp6
 70
     1
102
RTVSPropertyOp7
 70
     1
102
RTVSPropertyOp8
 70
     1
102
RTVSPropertyOp9
 70
     1
102
RTVSPropertyOp10
 70
     1
102
RTVSPropertyOp11
 70
     1
102
RTVSPropertyOp12
 70
     1
102
RTVSPropertyOp13
 70
     1
102
RTVSPropertyOp14
 70
     1
102
RTVSPropertyOp15
 70
     1
102
RTVSPropertyOp16
 70
     1
102
RTVSPropertyOp17
 70
     1
102
RTVSPropertyOp18
 70
     1
102
RTVSPropertyOp19
 70
     1
102
RTVSPropertyOp20
 70
     1
102
RTVSPropertyOp21
 70
     1
102
RTVSPropertyOp22
 70
     1
102
RTVSPropertyOp23
 70
     1
102
RTVSPropertyOp24
 70
     1
102
RTVSPropertyOp25
 70
     1
102
RTVSPropertyOp26
 70
     1
102
RTVSPropertyOp27
 70
     1
102
RTVSPropertyOp28
 70
     1
102
RTVSPropertyOp29
 70
     1
102
RTVSPropertyOp30
 70
     1
102
RTVSPropertyOp31
 70
     1
102
RTVSPropertyOp32
 70
     1
102
RTVSPropertyOp33
 70
     1
102
RTVSPropertyOp34
 70
     1
102
RTVSPropertyOp35
 70
     1
102
RTVSPropertyOp36
 70
     1
102
RTVSPropertyOp37
 70
     1
102
RTVSPropertyOp38
 70
     1
102
RTVSPropertyOp39
 70
     1
102
RTVSPropertyOp40
 70
     1
102
RTVSPropertyOp41
 70
     1
102
RTVSPropertyOp42
 70
     1
102
RTVSPropertyOp43
 70
     1
102
RTVSPropertyOp44
 70
     1
102
RTVSPropertyOp45
 70
     1
102
RTVSPropertyOp46
 70
     1
102
RTVSPropertyOp47
 70
     1
102
RTVSPropertyOp48
 70
     1
102
RTVSPropertyOp49
 70
     1
102
RTVSPropertyOp50
 70
     1
102
RTVSPropertyOp51
 70
     0
102
RTVSPropertyOp52
 70
     0
102
RTVSPropertyOp53
 70
     1
102
RTVSPropertyOp54
 70
     1
102
RTVSPropertyOp55
 70
     1
102
RTVSPropertyOp56
 70
     1
102
RTVSPropertyOp57
 70
     1
102
RTVSPost2010Prop28
280
     0
102
RTVSPost2010PropOp28
 70
     1
102
RTVSPost2010Prop29
280
     1
102
RTVSPost2010PropOp29
 70
     1
102
RTVSPost2010Prop30
280
     1
102
RTVSPost2010PropOp30
 70
     1
102
RTVSPost2010Prop31
280
     0
102
RTVSPost2010PropOp31
 70
     1
102
RTVSPost2010Prop32
280
     0
102
RTVSPost2010PropOp32
 70
     1
102
RTVSPost2010Prop33
280
     0
102
RTVSPost2010PropOp33
 70
     1
102
RTVSPost2010Prop34
280
     0
102
RTVSPost2010PropOp34
 70
     1
102
RTVSPost2010Prop35
280
     0
102
RTVSPost2010PropOp35
 70
     1
102
RTVSPost2010Prop36
280
     0
102
RTVSPost2010PropOp36
 70
     1
102
RTVSPost2010Prop37
 90
       50
102
RTVSPost2010PropOp37
 70
     1
102
RTVSPost2010Prop38
140
0.0
102
RTVSPost2010PropOp38
 70
     1
102
RTVSPost2010Prop39
140
1.0
102
RTVSPost2010PropOp39
 70
     1
102
RTVSPost2010Prop40
 90
        0
102
RTVSPost2010PropOp40
 70
     1
102
RTVSPost2010Prop41ColorIndex
 90
       18
102
RTVSPost2010Prop41ColorRGB
 90
        0
102
RTVSPost2010PropOp41
 70
     1
102
RTVSPost2010Prop42
 90
       50
102
RTVSPost2010PropOp42
 70
     1
102
RTVSPost2010Prop43
 90
        3
102
RTVSPost2010PropOp43
 70
     1
102
RTVSPost2010Prop44ColorIndex
 90
        5
102
RTVSPost2010Prop44ColorRGB
 90
      255
102
RTVSPost2010PropOp44
 70
     1
102
RTVSPost2010Prop45
280
     0
102
RTVSPost2010PropOp45
 70
     1
102
RTVSPost2010Prop46
 90
       50
102
RTVSPost2010PropOp46
 70
     1
102
RTVSPost2010Prop47
 90
       50
102
RTVSPost2010PropOp47
 70
     1
102
RTVSPost2010Prop48
 90
       50
102
RTVSPost2010PropOp48
 70
     1
102
RTVSPost2010Prop49
280
     0
102
RTVSPost2010PropOp49
 70
     1
102
RTVSPost2010Prop50
 90
       50
102
RTVSPost2010PropOp50
 70
     1
102
RTVSPost2010Prop51ColorIndex
 90
      256
102
RTVSPost2010Prop51ColorRGB
 90
-16777216
102
RTVSPost2010PropOp51
 70
     0
102
RTVSPost2010Prop52
140
1.0
102
RTVSPost2010PropOp52
 70
     0
102
RTVSPost2010Prop53
 90
        2
102
RTVSPost2010PropOp53
 70
     1
102
RTVSPost2010Prop54
  1
strokes_ogs.tif
102
RTVSPost2010PropOp54
 70
     1
102
RTVSPost2010Prop55
280
     0
102
RTVSPost2010PropOp55
 70
     1
102
RTVSPost2010Prop56
140
1.0
102
RTVSPost2010PropOp56
 70
     1
102
RTVSPost2010Prop57
140
1.0
102
RTVSPost2010PropOp57
 70
     1
  0
XRECORD
  5
BA7
102
{ACAD_REACTORS
330
BA6
102
}
330
BA6
100
AcDbXrecord
280
     1
102
RTVSPropertyOp0
 70
     1
102
RTVSPropertyOp1
 70
     1
102
RTVSPropertyOp2
 70
     1
102
RTVSPropertyOp3
 70
     1
102
RTVSPropertyOp4
 70
     1
102
RTVSPropertyOp5
 70
     1
102
RTVSPropertyOp6
 70
     1
102
RTVSPropertyOp7
 70
     1
102
RTVSPropertyOp8
 70
     1
102
RTVSPropertyOp9
 70
     1
102
RTVSPropertyOp10
 70
     1
102
RTVSPropertyOp11
 70
     1
102
RTVSPropertyOp12
 70
     1
102
RTVSPropertyOp13
 70
     1
102
RTVSPropertyOp14
 70
     1
102
RTVSPropertyOp15
 70
     1
102
RTVSPropertyOp16
 70
     1
102
RTVSPropertyOp17
 70
     1
102
RTVSPropertyOp18
 70
     1
102
RTVSPropertyOp19
 70
     1
102
RTVSPropertyOp20
 70
     1
102
RTVSPropertyOp21
 70
     1
102
RTVSPropertyOp22
 70
     1
102
RTVSPropertyOp23
 70
     1
102
RTVSPropertyOp24
 70
     1
102
RTVSPropertyOp25
 70
     1
102
RTVSPropertyOp26
 70
     1
102
RTVSPropertyOp27
 70
     1
102
RTVSPropertyOp28
 70
     1
102
RTVSPropertyOp29
 70
     1
102
RTVSPropertyOp30
 70
     1
102
RTVSPropertyOp31
 70
     1
102
RTVSPropertyOp32
 70
     1
102
RTVSPropertyOp33
 70
     1
102
RTVSPropertyOp34
 70
     1
102
RTVSPropertyOp35
 70
     1
102
RTVSPropertyOp36
 70
     1
102
RTVSPropertyOp37
 70
     1
102
RTVSPropertyOp38
 70
     1
102
RTVSPropertyOp39
 70
     1
102
RTVSPropertyOp40
 70
     1
102
RTVSPropertyOp41
 70
     1
102
RTVSPropertyOp42
 70
     1
102
RTVSPropertyOp43
 70
     1
102
RTVSPropertyOp44
 70
     1
102
RTVSPropertyOp45
 70
     1
102
RTVSPropertyOp46
 70
     1
102
RTVSPropertyOp47
 70
     1
102
RTVSPropertyOp48
 70
     1
102
RTVSPropertyOp49
 70
     1
102
RTVSPropertyOp50
 70
     1
102
RTVSPropertyOp51
 70
     0
102
RTVSPropertyOp52
 70
     0
102
RTVSPropertyOp53
 70
     1
102
RTVSPropertyOp54
 70
     1
102
RTVSPropertyOp55
 70
     1
102
RTVSPropertyOp56
 70
     1
102
RTVSPropertyOp57
 70
     1
102
RTVSPost2010Prop28
280
     0
102
RTVSPost2010PropOp28
 70
     1
102
RTVSPost2010Prop29
280
     1
102
RTVSPost2010PropOp29
 70
     1
102
RTVSPost2010Prop30
280
     1
102
RTVSPost2010PropOp30
 70
     1
102
RTVSPost2010Prop31
280
     0
102
RTVSPost2010PropOp31
 70
     1
102
RTVSPost2010Prop32
280
     0
102
RTVSPost2010PropOp32
 70
     1
102
RTVSPost2010Prop33
280
     0
102
RTVSPost2010PropOp33
 70
     1
102
RTVSPost2010Prop34
280
     0
102
RTVSPost2010PropOp34
 70
     1
102
RTVSPost2010Prop35
280
     0
102
RTVSPost2010PropOp35
 70
     1
102
RTVSPost2010Prop36
280
     0
102
RTVSPost2010PropOp36
 70
     1
102
RTVSPost2010Prop37
 90
       50
102
RTVSPost2010PropOp37
 70
     1
102
RTVSPost2010Prop38
140
0.0
102
RTVSPost2010PropOp38
 70
     1
102
RTVSPost2010Prop39
140
1.0
102
RTVSPost2010PropOp39
 70
     1
102
RTVSPost2010Prop40
 90
        0
102
RTVSPost2010PropOp40
 70
     1
102
RTVSPost2010Prop41ColorIndex
 90
       18
102
RTVSPost2010Prop41ColorRGB
 90
        0
102
RTVSPost2010PropOp41
 70
     1
102
RTVSPost2010Prop42
 90
       50
102
RTVSPost2010PropOp42
 70
     1
102
RTVSPost2010Prop43
 90
        3
102
RTVSPost2010PropOp43
 70
     1
102
RTVSPost2010Prop44ColorIndex
 90
        5
102
RTVSPost2010Prop44ColorRGB
 90
      255
102
RTVSPost2010PropOp44
 70
     1
102
RTVSPost2010Prop45
280
     0
102
RTVSPost2010PropOp45
 70
     1
102
RTVSPost2010Prop46
 90
       50
102
RTVSPost2010PropOp46
 70
     1
102
RTVSPost2010Prop47
 90
       50
102
RTVSPost2010PropOp47
 70
     1
102
RTVSPost2010Prop48
 90
       50
102
RTVSPost2010PropOp48
 70
     1
102
RTVSPost2010Prop49
280
     0
102
RTVSPost2010PropOp49
 70
     1
102
RTVSPost2010Prop50
 90
       50
102
RTVSPost2010PropOp50
 70
     1
102
RTVSPost2010Prop51ColorIndex
 90
      256
102
RTVSPost2010Prop51ColorRGB
 90
-16777216
102
RTVSPost2010PropOp51
 70
     0
102
RTVSPost2010Prop52
140
1.0
102
RTVSPost2010PropOp52
 70
     0
102
RTVSPost2010Prop53
 90
        2
102
RTVSPost2010PropOp53
 70
     1
102
RTVSPost2010Prop54
  1
strokes_ogs.tif
102
RTVSPost2010PropOp54
 70
     1
102
RTVSPost2010Prop55
280
     0
102
RTVSPost2010PropOp55
 70
     1
102
RTVSPost2010Prop56
140
1.0
102
RTVSPost2010PropOp56
 70
     1
102
RTVSPost2010Prop57
140
1.0
102
RTVSPost2010PropOp57
 70
     1
  0
XRECORD
  5
BA9
102
{ACAD_REACTORS
330
BA8
102
}
330
BA8
100
AcDbXrecord
280
     1
102
RTVSPropertyOp0
 70
     1
102
RTVSPropertyOp1
 70
     1
102
RTVSPropertyOp2
 70
     1
102
RTVSPropertyOp3
 70
     1
102
RTVSPropertyOp4
 70
     1
102
RTVSPropertyOp5
 70
     1
102
RTVSPropertyOp6
 70
     1
102
RTVSPropertyOp7
 70
     1
102
RTVSPropertyOp8
 70
     1
102
RTVSPropertyOp9
 70
     1
102
RTVSPropertyOp10
 70
     1
102
RTVSPropertyOp11
 70
     1
102
RTVSPropertyOp12
 70
     1
102
RTVSPropertyOp13
 70
     1
102
RTVSPropertyOp14
 70
     1
102
RTVSPropertyOp15
 70
     1
102
RTVSPropertyOp16
 70
     1
102
RTVSPropertyOp17
 70
     1
102
RTVSPropertyOp18
 70
     1
102
RTVSPropertyOp19
 70
     1
102
RTVSPropertyOp20
 70
     1
102
RTVSPropertyOp21
 70
     1
102
RTVSPropertyOp22
 70
     1
102
RTVSPropertyOp23
 70
     1
102
RTVSPropertyOp24
 70
     1
102
RTVSPropertyOp25
 70
     1
102
RTVSPropertyOp26
 70
     1
102
RTVSPropertyOp27
 70
     1
102
RTVSPropertyOp28
 70
     1
102
RTVSPropertyOp29
 70
     1
102
RTVSPropertyOp30
 70
     1
102
RTVSPropertyOp31
 70
     1
102
RTVSPropertyOp32
 70
     1
102
RTVSPropertyOp33
 70
     1
102
RTVSPropertyOp34
 70
     1
102
RTVSPropertyOp35
 70
     1
102
RTVSPropertyOp36
 70
     1
102
RTVSPropertyOp37
 70
     1
102
RTVSPropertyOp38
 70
     1
102
RTVSPropertyOp39
 70
     1
102
RTVSPropertyOp40
 70
     1
102
RTVSPropertyOp41
 70
     1
102
RTVSPropertyOp42
 70
     1
102
RTVSPropertyOp43
 70
     1
102
RTVSPropertyOp44
 70
     1
102
RTVSPropertyOp45
 70
     1
102
RTVSPropertyOp46
 70
     1
102
RTVSPropertyOp47
 70
     1
102
RTVSPropertyOp48
 70
     1
102
RTVSPropertyOp49
 70
     1
102
RTVSPropertyOp50
 70
     1
102
RTVSPropertyOp51
 70
     0
102
RTVSPropertyOp52
 70
     0
102
RTVSPropertyOp53
 70
     1
102
RTVSPropertyOp54
 70
     1
102
RTVSPropertyOp55
 70
     1
102
RTVSPropertyOp56
 70
     1
102
RTVSPropertyOp57
 70
     1
102
RTVSPost2010Prop28
280
     0
102
RTVSPost2010PropOp28
 70
     1
102
RTVSPost2010Prop29
280
     1
102
RTVSPost2010PropOp29
 70
     1
102
RTVSPost2010Prop30
280
     1
102
RTVSPost2010PropOp30
 70
     1
102
RTVSPost2010Prop31
280
     0
102
RTVSPost2010PropOp31
 70
     1
102
RTVSPost2010Prop32
280
     0
102
RTVSPost2010PropOp32
 70
     1
102
RTVSPost2010Prop33
280
     0
102
RTVSPost2010PropOp33
 70
     1
102
RTVSPost2010Prop34
280
     0
102
RTVSPost2010PropOp34
 70
     1
102
RTVSPost2010Prop35
280
     0
102
RTVSPost2010PropOp35
 70
     1
102
RTVSPost2010Prop36
280
     0
102
RTVSPost2010PropOp36
 70
     1
102
RTVSPost2010Prop37
 90
       50
102
RTVSPost2010PropOp37
 70
     1
102
RTVSPost2010Prop38
140
0.0
102
RTVSPost2010PropOp38
 70
     1
102
RTVSPost2010Prop39
140
1.0
102
RTVSPost2010PropOp39
 70
     1
102
RTVSPost2010Prop40
 90
        0
102
RTVSPost2010PropOp40
 70
     1
102
RTVSPost2010Prop41ColorIndex
 90
       18
102
RTVSPost2010Prop41ColorRGB
 90
        0
102
RTVSPost2010PropOp41
 70
     1
102
RTVSPost2010Prop42
 90
       50
102
RTVSPost2010PropOp42
 70
     1
102
RTVSPost2010Prop43
 90
        3
102
RTVSPost2010PropOp43
 70
     1
102
RTVSPost2010Prop44ColorIndex
 90
        5
102
RTVSPost2010Prop44ColorRGB
 90
      255
102
RTVSPost2010PropOp44
 70
     1
102
RTVSPost2010Prop45
280
     0
102
RTVSPost2010PropOp45
 70
     1
102
RTVSPost2010Prop46
 90
       50
102
RTVSPost2010PropOp46
 70
     1
102
RTVSPost2010Prop47
 90
       50
102
RTVSPost2010PropOp47
 70
     1
102
RTVSPost2010Prop48
 90
       50
102
RTVSPost2010PropOp48
 70
     1
102
RTVSPost2010Prop49
280
     0
102
RTVSPost2010PropOp49
 70
     1
102
RTVSPost2010Prop50
 90
       50
102
RTVSPost2010PropOp50
 70
     1
102
RTVSPost2010Prop51ColorIndex
 90
      256
102
RTVSPost2010Prop51ColorRGB
 90
-16777216
102
RTVSPost2010PropOp51
 70
     0
102
RTVSPost2010Prop52
140
1.0
102
RTVSPost2010PropOp52
 70
     0
102
RTVSPost2010Prop53
 90
        2
102
RTVSPost2010PropOp53
 70
     1
102
RTVSPost2010Prop54
  1
strokes_ogs.tif
102
RTVSPost2010PropOp54
 70
     1
102
RTVSPost2010Prop55
280
     0
102
RTVSPost2010PropOp55
 70
     1
102
RTVSPost2010Prop56
140
1.0
102
RTVSPost2010PropOp56
 70
     1
102
RTVSPost2010Prop57
140
1.0
102
RTVSPost2010PropOp57
 70
     1
  0
XRECORD
  5
BAB
102
{ACAD_REACTORS
330
BAA
102
}
330
BAA
100
AcDbXrecord
280
     1
102
RTVSPropertyOp0
 70
     1
102
RTVSPropertyOp1
 70
     1
102
RTVSPropertyOp2
 70
     1
102
RTVSPropertyOp3
 70
     1
102
RTVSPropertyOp4
 70
     1
102
RTVSPropertyOp5
 70
     1
102
RTVSPropertyOp6
 70
     1
102
RTVSPropertyOp7
 70
     1
102
RTVSPropertyOp8
 70
     1
102
RTVSPropertyOp9
 70
     1
102
RTVSPropertyOp10
 70
     1
102
RTVSPropertyOp11
 70
     1
102
RTVSPropertyOp12
 70
     1
102
RTVSPropertyOp13
 70
     1
102
RTVSPropertyOp14
 70
     1
102
RTVSPropertyOp15
 70
     1
102
RTVSPropertyOp16
 70
     1
102
RTVSPropertyOp17
 70
     1
102
RTVSPropertyOp18
 70
     1
102
RTVSPropertyOp19
 70
     1
102
RTVSPropertyOp20
 70
     1
102
RTVSPropertyOp21
 70
     1
102
RTVSPropertyOp22
 70
     1
102
RTVSPropertyOp23
 70
     1
102
RTVSPropertyOp24
 70
     1
102
RTVSPropertyOp25
 70
     1
102
RTVSPropertyOp26
 70
     1
102
RTVSPropertyOp27
 70
     1
102
RTVSPropertyOp28
 70
     1
102
RTVSPropertyOp29
 70
     1
102
RTVSPropertyOp30
 70
     1
102
RTVSPropertyOp31
 70
     1
102
RTVSPropertyOp32
 70
     1
102
RTVSPropertyOp33
 70
     1
102
RTVSPropertyOp34
 70
     1
102
RTVSPropertyOp35
 70
     1
102
RTVSPropertyOp36
 70
     1
102
RTVSPropertyOp37
 70
     1
102
RTVSPropertyOp38
 70
     1
102
RTVSPropertyOp39
 70
     1
102
RTVSPropertyOp40
 70
     1
102
RTVSPropertyOp41
 70
     1
102
RTVSPropertyOp42
 70
     1
102
RTVSPropertyOp43
 70
     1
102
RTVSPropertyOp44
 70
     1
102
RTVSPropertyOp45
 70
     1
102
RTVSPropertyOp46
 70
     1
102
RTVSPropertyOp47
 70
     1
102
RTVSPropertyOp48
 70
     1
102
RTVSPropertyOp49
 70
     1
102
RTVSPropertyOp50
 70
     1
102
RTVSPropertyOp51
 70
     0
102
RTVSPropertyOp52
 70
     0
102
RTVSPropertyOp53
 70
     1
102
RTVSPropertyOp54
 70
     1
102
RTVSPropertyOp55
 70
     1
102
RTVSPropertyOp56
 70
     1
102
RTVSPropertyOp57
 70
     1
102
RTVSPost2010Prop28
280
     0
102
RTVSPost2010PropOp28
 70
     1
102
RTVSPost2010Prop29
280
     1
102
RTVSPost2010PropOp29
 70
     1
102
RTVSPost2010Prop30
280
     1
102
RTVSPost2010PropOp30
 70
     1
102
RTVSPost2010Prop31
280
     0
102
RTVSPost2010PropOp31
 70
     1
102
RTVSPost2010Prop32
280
     0
102
RTVSPost2010PropOp32
 70
     1
102
RTVSPost2010Prop33
280
     0
102
RTVSPost2010PropOp33
 70
     1
102
RTVSPost2010Prop34
280
     0
102
RTVSPost2010PropOp34
 70
     1
102
RTVSPost2010Prop35
280
     0
102
RTVSPost2010PropOp35
 70
     1
102
RTVSPost2010Prop36
280
     0
102
RTVSPost2010PropOp36
 70
     1
102
RTVSPost2010Prop37
 90
       50
102
RTVSPost2010PropOp37
 70
     1
102
RTVSPost2010Prop38
140
0.0
102
RTVSPost2010PropOp38
 70
     1
102
RTVSPost2010Prop39
140
1.0
102
RTVSPost2010PropOp39
 70
     1
102
RTVSPost2010Prop40
 90
        0
102
RTVSPost2010PropOp40
 70
     1
102
RTVSPost2010Prop41ColorIndex
 90
       18
102
RTVSPost2010Prop41ColorRGB
 90
        0
102
RTVSPost2010PropOp41
 70
     1
102
RTVSPost2010Prop42
 90
       50
102
RTVSPost2010PropOp42
 70
     1
102
RTVSPost2010Prop43
 90
        3
102
RTVSPost2010PropOp43
 70
     1
102
RTVSPost2010Prop44ColorIndex
 90
        5
102
RTVSPost2010Prop44ColorRGB
 90
      255
102
RTVSPost2010PropOp44
 70
     1
102
RTVSPost2010Prop45
280
     0
102
RTVSPost2010PropOp45
 70
     1
102
RTVSPost2010Prop46
 90
       50
102
RTVSPost2010PropOp46
 70
     1
102
RTVSPost2010Prop47
 90
       50
102
RTVSPost2010PropOp47
 70
     1
102
RTVSPost2010Prop48
 90
       50
102
RTVSPost2010PropOp48
 70
     1
102
RTVSPost2010Prop49
280
     0
102
RTVSPost2010PropOp49
 70
     1
102
RTVSPost2010Prop50
 90
       50
102
RTVSPost2010PropOp50
 70
     1
102
RTVSPost2010Prop51ColorIndex
 90
      256
102
RTVSPost2010Prop51ColorRGB
 90
-16777216
102
RTVSPost2010PropOp51
 70
     0
102
RTVSPost2010Prop52
140
1.0
102
RTVSPost2010PropOp52
 70
     0
102
RTVSPost2010Prop53
 90
        2
102
RTVSPost2010PropOp53
 70
     1
102
RTVSPost2010Prop54
  1
strokes_ogs.tif
102
RTVSPost2010PropOp54
 70
     1
102
RTVSPost2010Prop55
280
     0
102
RTVSPost2010PropOp55
 70
     1
102
RTVSPost2010Prop56
140
1.0
102
RTVSPost2010PropOp56
 70
     1
102
RTVSPost2010Prop57
140
1.0
102
RTVSPost2010PropOp57
 70
     1
  0
XRECORD
  5
BAD
102
{ACAD_REACTORS
330
BAC
102
}
330
BAC
100
AcDbXrecord
280
     1
102
RTVSPropertyOp0
 70
     1
102
RTVSPropertyOp1
 70
     1
102
RTVSPropertyOp2
 70
     1
102
RTVSPropertyOp3
 70
     1
102
RTVSPropertyOp4
 70
     1
102
RTVSPropertyOp5
 70
     1
102
RTVSPropertyOp6
 70
     1
102
RTVSPropertyOp7
 70
     1
102
RTVSPropertyOp8
 70
     1
102
RTVSPropertyOp9
 70
     1
102
RTVSPropertyOp10
 70
     1
102
RTVSPropertyOp11
 70
     1
102
RTVSPropertyOp12
 70
     1
102
RTVSPropertyOp13
 70
     1
102
RTVSPropertyOp14
 70
     1
102
RTVSPropertyOp15
 70
     1
102
RTVSPropertyOp16
 70
     1
102
RTVSPropertyOp17
 70
     1
102
RTVSPropertyOp18
 70
     1
102
RTVSPropertyOp19
 70
     1
102
RTVSPropertyOp20
 70
     1
102
RTVSPropertyOp21
 70
     1
102
RTVSPropertyOp22
 70
     1
102
RTVSPropertyOp23
 70
     1
102
RTVSPropertyOp24
 70
     1
102
RTVSPropertyOp25
 70
     1
102
RTVSPropertyOp26
 70
     1
102
RTVSPropertyOp27
 70
     1
102
RTVSPropertyOp28
 70
     1
102
RTVSPropertyOp29
 70
     1
102
RTVSPropertyOp30
 70
     1
102
RTVSPropertyOp31
 70
     1
102
RTVSPropertyOp32
 70
     1
102
RTVSPropertyOp33
 70
     1
102
RTVSPropertyOp34
 70
     1
102
RTVSPropertyOp35
 70
     1
102
RTVSPropertyOp36
 70
     1
102
RTVSPropertyOp37
 70
     1
102
RTVSPropertyOp38
 70
     1
102
RTVSPropertyOp39
 70
     1
102
RTVSPropertyOp40
 70
     1
102
RTVSPropertyOp41
 70
     1
102
RTVSPropertyOp42
 70
     1
102
RTVSPropertyOp43
 70
     1
102
RTVSPropertyOp44
 70
     1
102
RTVSPropertyOp45
 70
     1
102
RTVSPropertyOp46
 70
     1
102
RTVSPropertyOp47
 70
     1
102
RTVSPropertyOp48
 70
     1
102
RTVSPropertyOp49
 70
     1
102
RTVSPropertyOp50
 70
     1
102
RTVSPropertyOp51
 70
     0
102
RTVSPropertyOp52
 70
     0
102
RTVSPropertyOp53
 70
     1
102
RTVSPropertyOp54
 70
     1
102
RTVSPropertyOp55
 70
     1
102
RTVSPropertyOp56
 70
     1
102
RTVSPropertyOp57
 70
     1
102
RTVSPost2010Prop28
280
     0
102
RTVSPost2010PropOp28
 70
     1
102
RTVSPost2010Prop29
280
     1
102
RTVSPost2010PropOp29
 70
     1
102
RTVSPost2010Prop30
280
     1
102
RTVSPost2010PropOp30
 70
     1
102
RTVSPost2010Prop31
280
     0
102
RTVSPost2010PropOp31
 70
     1
102
RTVSPost2010Prop32
280
     0
102
RTVSPost2010PropOp32
 70
     1
102
RTVSPost2010Prop33
280
     0
102
RTVSPost2010PropOp33
 70
     1
102
RTVSPost2010Prop34
280
     0
102
RTVSPost2010PropOp34
 70
     1
102
RTVSPost2010Prop35
280
     0
102
RTVSPost2010PropOp35
 70
     1
102
RTVSPost2010Prop36
280
     0
102
RTVSPost2010PropOp36
 70
     1
102
RTVSPost2010Prop37
 90
       50
102
RTVSPost2010PropOp37
 70
     1
102
RTVSPost2010Prop38
140
0.0
102
RTVSPost2010PropOp38
 70
     1
102
RTVSPost2010Prop39
140
1.0
102
RTVSPost2010PropOp39
 70
     1
102
RTVSPost2010Prop40
 90
        0
102
RTVSPost2010PropOp40
 70
     1
102
RTVSPost2010Prop41ColorIndex
 90
       18
102
RTVSPost2010Prop41ColorRGB
 90
        0
102
RTVSPost2010PropOp41
 70
     1
102
RTVSPost2010Prop42
 90
       50
102
RTVSPost2010PropOp42
 70
     1
102
RTVSPost2010Prop43
 90
        3
102
RTVSPost2010PropOp43
 70
     1
102
RTVSPost2010Prop44ColorIndex
 90
        5
102
RTVSPost2010Prop44ColorRGB
 90
      255
102
RTVSPost2010PropOp44
 70
     1
102
RTVSPost2010Prop45
280
     0
102
RTVSPost2010PropOp45
 70
     1
102
RTVSPost2010Prop46
 90
       50
102
RTVSPost2010PropOp46
 70
     1
102
RTVSPost2010Prop47
 90
       50
102
RTVSPost2010PropOp47
 70
     1
102
RTVSPost2010Prop48
 90
       50
102
RTVSPost2010PropOp48
 70
     1
102
RTVSPost2010Prop49
280
     0
102
RTVSPost2010PropOp49
 70
     1
102
RTVSPost2010Prop50
 90
       50
102
RTVSPost2010PropOp50
 70
     1
102
RTVSPost2010Prop51ColorIndex
 90
      256
102
RTVSPost2010Prop51ColorRGB
 90
-16777216
102
RTVSPost2010PropOp51
 70
     0
102
RTVSPost2010Prop52
140
1.0
102
RTVSPost2010PropOp52
 70
     0
102
RTVSPost2010Prop53
 90
        2
102
RTVSPost2010PropOp53
 70
     1
102
RTVSPost2010Prop54
  1
strokes_ogs.tif
102
RTVSPost2010PropOp54
 70
     1
102
RTVSPost2010Prop55
280
     0
102
RTVSPost2010PropOp55
 70
     1
102
RTVSPost2010Prop56
140
1.0
102
RTVSPost2010PropOp56
 70
     1
102
RTVSPost2010Prop57
140
1.0
102
RTVSPost2010PropOp57
 70
     1
  0
XRECORD
  5
BB3
102
{ACAD_REACTORS
330
BB2
102
}
330
BB2
100
AcDbXrecord
280
     1
102
RTVSPropertyOp0
 70
     1
102
RTVSPropertyOp1
 70
     1
102
RTVSPropertyOp2
 70
     1
102
RTVSPropertyOp3
 70
     1
102
RTVSPropertyOp4
 70
     1
102
RTVSPropertyOp5
 70
     1
102
RTVSPropertyOp6
 70
     1
102
RTVSPropertyOp7
 70
     1
102
RTVSPropertyOp8
 70
     1
102
RTVSPropertyOp9
 70
     1
102
RTVSPropertyOp10
 70
     1
102
RTVSPropertyOp11
 70
     1
102
RTVSPropertyOp12
 70
     1
102
RTVSPropertyOp13
 70
     1
102
RTVSPropertyOp14
 70
     1
102
RTVSPropertyOp15
 70
     1
102
RTVSPropertyOp16
 70
     1
102
RTVSPropertyOp17
 70
     1
102
RTVSPropertyOp18
 70
     1
102
RTVSPropertyOp19
 70
     1
102
RTVSPropertyOp20
 70
     1
102
RTVSPropertyOp21
 70
     1
102
RTVSPropertyOp22
 70
     1
102
RTVSPropertyOp23
 70
     1
102
RTVSPropertyOp24
 70
     1
102
RTVSPropertyOp25
 70
     1
102
RTVSPropertyOp26
 70
     1
102
RTVSPropertyOp27
 70
     1
102
RTVSPropertyOp28
 70
     1
102
RTVSPropertyOp29
 70
     1
102
RTVSPropertyOp30
 70
     1
102
RTVSPropertyOp31
 70
     1
102
RTVSPropertyOp32
 70
     1
102
RTVSPropertyOp33
 70
     1
102
RTVSPropertyOp34
 70
     1
102
RTVSPropertyOp35
 70
     1
102
RTVSPropertyOp36
 70
     1
102
RTVSPropertyOp37
 70
     1
102
RTVSPropertyOp38
 70
     1
102
RTVSPropertyOp39
 70
     1
102
RTVSPropertyOp40
 70
     1
102
RTVSPropertyOp41
 70
     1
102
RTVSPropertyOp42
 70
     1
102
RTVSPropertyOp43
 70
     1
102
RTVSPropertyOp44
 70
     1
102
RTVSPropertyOp45
 70
     1
102
RTVSPropertyOp46
 70
     1
102
RTVSPropertyOp47
 70
     1
102
RTVSPropertyOp48
 70
     1
102
RTVSPropertyOp49
 70
     1
102
RTVSPropertyOp50
 70
     1
102
RTVSPropertyOp51
 70
     0
102
RTVSPropertyOp52
 70
     0
102
RTVSPropertyOp53
 70
     1
102
RTVSPropertyOp54
 70
     1
102
RTVSPropertyOp55
 70
     1
102
RTVSPropertyOp56
 70
     1
102
RTVSPropertyOp57
 70
     1
102
RTVSPost2010Prop28
280
     0
102
RTVSPost2010PropOp28
 70
     1
102
RTVSPost2010Prop29
280
     1
102
RTVSPost2010PropOp29
 70
     1
102
RTVSPost2010Prop30
280
     1
102
RTVSPost2010PropOp30
 70
     1
102
RTVSPost2010Prop31
280
     0
102
RTVSPost2010PropOp31
 70
     1
102
RTVSPost2010Prop32
280
     0
102
RTVSPost2010PropOp32
 70
     1
102
RTVSPost2010Prop33
280
     0
102
RTVSPost2010PropOp33
 70
     1
102
RTVSPost2010Prop34
280
     0
102
RTVSPost2010PropOp34
 70
     1
102
RTVSPost2010Prop35
280
     0
102
RTVSPost2010PropOp35
 70
     1
102
RTVSPost2010Prop36
280
     0
102
RTVSPost2010PropOp36
 70
     1
102
RTVSPost2010Prop37
 90
       50
102
RTVSPost2010PropOp37
 70
     1
102
RTVSPost2010Prop38
140
0.0
102
RTVSPost2010PropOp38
 70
     1
102
RTVSPost2010Prop39
140
1.0
102
RTVSPost2010PropOp39
 70
     1
102
RTVSPost2010Prop40
 90
        0
102
RTVSPost2010PropOp40
 70
     1
102
RTVSPost2010Prop41ColorIndex
 90
       18
102
RTVSPost2010Prop41ColorRGB
 90
        0
102
RTVSPost2010PropOp41
 70
     1
102
RTVSPost2010Prop42
 90
       50
102
RTVSPost2010PropOp42
 70
     1
102
RTVSPost2010Prop43
 90
        3
102
RTVSPost2010PropOp43
 70
     1
102
RTVSPost2010Prop44ColorIndex
 90
        5
102
RTVSPost2010Prop44ColorRGB
 90
      255
102
RTVSPost2010PropOp44
 70
     1
102
RTVSPost2010Prop45
280
     0
102
RTVSPost2010PropOp45
 70
     1
102
RTVSPost2010Prop46
 90
       50
102
RTVSPost2010PropOp46
 70
     1
102
RTVSPost2010Prop47
 90
       50
102
RTVSPost2010PropOp47
 70
     1
102
RTVSPost2010Prop48
 90
       50
102
RTVSPost2010PropOp48
 70
     1
102
RTVSPost2010Prop49
280
     0
102
RTVSPost2010PropOp49
 70
     1
102
RTVSPost2010Prop50
 90
       50
102
RTVSPost2010PropOp50
 70
     1
102
RTVSPost2010Prop51ColorIndex
 90
      256
102
RTVSPost2010Prop51ColorRGB
 90
-16777216
102
RTVSPost2010PropOp51
 70
     0
102
RTVSPost2010Prop52
140
1.0
102
RTVSPost2010PropOp52
 70
     0
102
RTVSPost2010Prop53
 90
        2
102
RTVSPost2010PropOp53
 70
     1
102
RTVSPost2010Prop54
  1
strokes_ogs.tif
102
RTVSPost2010PropOp54
 70
     1
102
RTVSPost2010Prop55
280
     0
102
RTVSPost2010PropOp55
 70
     1
102
RTVSPost2010Prop56
140
1.0
102
RTVSPost2010PropOp56
 70
     1
102
RTVSPost2010Prop57
140
1.0
102
RTVSPost2010PropOp57
 70
     1
  0
XRECORD
  5
BC7
102
{ACAD_REACTORS
330
BC6
102
}
330
BC6
100
AcDbXrecord
280
     1
102
RTVSPropertyOp0
 70
     0
102
RTVSPropertyOp1
 70
     0
102
RTVSPropertyOp2
 70
     0
102
RTVSPropertyOp3
 70
     0
102
RTVSPropertyOp4
 70
     0
102
RTVSPropertyOp5
 70
     0
102
RTVSPropertyOp6
 70
     0
102
RTVSPropertyOp7
 70
     0
102
RTVSPropertyOp8
 70
     0
102
RTVSPropertyOp9
 70
     0
102
RTVSPropertyOp10
 70
     0
102
RTVSPropertyOp11
 70
     0
102
RTVSPropertyOp12
 70
     0
102
RTVSPropertyOp13
 70
     0
102
RTVSPropertyOp14
 70
     2
102
RTVSPropertyOp15
 70
     0
102
RTVSPropertyOp16
 70
     0
102
RTVSPropertyOp17
 70
     0
102
RTVSPropertyOp18
 70
     0
102
RTVSPropertyOp19
 70
     0
102
RTVSPropertyOp20
 70
     0
102
RTVSPropertyOp21
 70
     0
102
RTVSPropertyOp22
 70
     0
102
RTVSPropertyOp23
 70
     0
102
RTVSPropertyOp24
 70
     0
102
RTVSPropertyOp25
 70
     0
102
RTVSPropertyOp26
 70
     0
102
RTVSPropertyOp27
 70
     0
102
RTVSPropertyOp28
 70
     0
102
RTVSPropertyOp29
 70
     0
102
RTVSPropertyOp30
 70
     0
102
RTVSPropertyOp31
 70
     0
102
RTVSPropertyOp32
 70
     0
102
RTVSPropertyOp33
 70
     0
102
RTVSPropertyOp34
 70
     0
102
RTVSPropertyOp35
 70
     0
102
RTVSPropertyOp36
 70
     0
102
RTVSPropertyOp37
 70
     0
102
RTVSPropertyOp38
 70
     0
102
RTVSPropertyOp39
 70
     0
102
RTVSPropertyOp40
 70
     0
102
RTVSPropertyOp41
 70
     0
102
RTVSPropertyOp42
 70
     0
102
RTVSPropertyOp43
 70
     0
102
RTVSPropertyOp44
 70
     0
102
RTVSPropertyOp45
 70
     0
102
RTVSPropertyOp46
 70
     0
102
RTVSPropertyOp47
 70
     0
102
RTVSPropertyOp48
 70
     0
102
RTVSPropertyOp49
 70
     0
102
RTVSPropertyOp50
 70
     0
102
RTVSPropertyOp51
 70
     0
102
RTVSPropertyOp52
 70
     0
102
RTVSPropertyOp53
 70
     0
102
RTVSPropertyOp54
 70
     0
102
RTVSPropertyOp55
 70
     0
102
RTVSPropertyOp56
 70
     0
102
RTVSPropertyOp57
 70
     0
102
RTVSPost2010Prop28
280
     0
102
RTVSPost2010PropOp28
 70
     0
102
RTVSPost2010Prop29
280
     1
102
RTVSPost2010PropOp29
 70
     0
102
RTVSPost2010Prop30
280
     1
102
RTVSPost2010PropOp30
 70
     0
102
RTVSPost2010Prop31
280
     0
102
RTVSPost2010PropOp31
 70
     0
102
RTVSPost2010Prop32
280
     0
102
RTVSPost2010PropOp32
 70
     0
102
RTVSPost2010Prop33
280
     0
102
RTVSPost2010PropOp33
 70
     0
102
RTVSPost2010Prop34
280
     0
102
RTVSPost2010PropOp34
 70
     0
102
RTVSPost2010Prop35
280
     0
102
RTVSPost2010PropOp35
 70
     0
102
RTVSPost2010Prop36
280
     0
102
RTVSPost2010PropOp36
 70
     0
102
RTVSPost2010Prop37
 90
       50
102
RTVSPost2010PropOp37
 70
     0
102
RTVSPost2010Prop38
140
0.0
102
RTVSPost2010PropOp38
 70
     0
102
RTVSPost2010Prop39
140
1.0
102
RTVSPost2010PropOp39
 70
     0
102
RTVSPost2010Prop40
 90
        0
102
RTVSPost2010PropOp40
 70
     0
102
RTVSPost2010Prop41ColorIndex
 90
       18
102
RTVSPost2010Prop41ColorRGB
 90
        0
102
RTVSPost2010PropOp41
 70
     0
102
RTVSPost2010Prop42
 90
       50
102
RTVSPost2010PropOp42
 70
     0
102
RTVSPost2010Prop43
 90
        3
102
RTVSPost2010PropOp43
 70
     0
102
RTVSPost2010Prop44ColorIndex
 90
        5
102
RTVSPost2010Prop44ColorRGB
 90
      255
102
RTVSPost2010PropOp44
 70
     0
102
RTVSPost2010Prop45
280
     0
102
RTVSPost2010PropOp45
 70
     0
102
RTVSPost2010Prop46
 90
       50
102
RTVSPost2010PropOp46
 70
     0
102
RTVSPost2010Prop47
 90
       50
102
RTVSPost2010PropOp47
 70
     0
102
RTVSPost2010Prop48
 90
       50
102
RTVSPost2010PropOp48
 70
     0
102
RTVSPost2010Prop49
280
     0
102
RTVSPost2010PropOp49
 70
     0
102
RTVSPost2010Prop50
 90
       50
102
RTVSPost2010PropOp50
 70
     0
102
RTVSPost2010Prop51ColorIndex
 90
      256
102
RTVSPost2010Prop51ColorRGB
 90
-16777216
102
RTVSPost2010PropOp51
 70
     0
102
RTVSPost2010Prop52
140
1.0
102
RTVSPost2010PropOp52
 70
     0
102
RTVSPost2010Prop53
 90
        2
102
RTVSPost2010PropOp53
 70
     0
102
RTVSPost2010Prop54
  1
strokes_ogs.tif
102
RTVSPost2010PropOp54
 70
     0
102
RTVSPost2010Prop55
280
     0
102
RTVSPost2010PropOp55
 70
     0
102
RTVSPost2010Prop56
140
1.0
102
RTVSPost2010PropOp56
 70
     0
102
RTVSPost2010Prop57
140
1.0
102
RTVSPost2010PropOp57
 70
     0
  0
XRECORD
  5
BC1
102
{ACAD_REACTORS
330
BC0
102
}
330
BC0
100
AcDbXrecord
280
     1
102
RTVSPropertyOp0
 70
     1
102
RTVSPropertyOp1
 70
     1
102
RTVSPropertyOp2
 70
     1
102
RTVSPropertyOp3
 70
     1
102
RTVSPropertyOp4
 70
     1
102
RTVSPropertyOp5
 70
     1
102
RTVSPropertyOp6
 70
     1
102
RTVSPropertyOp7
 70
     1
102
RTVSPropertyOp8
 70
     1
102
RTVSPropertyOp9
 70
     1
102
RTVSPropertyOp10
 70
     1
102
RTVSPropertyOp11
 70
     1
102
RTVSPropertyOp12
 70
     1
102
RTVSPropertyOp13
 70
     1
102
RTVSPropertyOp14
 70
     1
102
RTVSPropertyOp15
 70
     1
102
RTVSPropertyOp16
 70
     1
102
RTVSPropertyOp17
 70
     1
102
RTVSPropertyOp18
 70
     1
102
RTVSPropertyOp19
 70
     1
102
RTVSPropertyOp20
 70
     1
102
RTVSPropertyOp21
 70
     1
102
RTVSPropertyOp22
 70
     1
102
RTVSPropertyOp23
 70
     1
102
RTVSPropertyOp24
 70
     1
102
RTVSPropertyOp25
 70
     1
102
RTVSPropertyOp26
 70
     1
102
RTVSPropertyOp27
 70
     1
102
RTVSPropertyOp28
 70
     1
102
RTVSPropertyOp29
 70
     1
102
RTVSPropertyOp30
 70
     1
102
RTVSPropertyOp31
 70
     1
102
RTVSPropertyOp32
 70
     1
102
RTVSPropertyOp33
 70
     1
102
RTVSPropertyOp34
 70
     1
102
RTVSPropertyOp35
 70
     1
102
RTVSPropertyOp36
 70
     1
102
RTVSPropertyOp37
 70
     1
102
RTVSPropertyOp38
 70
     1
102
RTVSPropertyOp39
 70
     1
102
RTVSPropertyOp40
 70
     1
102
RTVSPropertyOp41
 70
     1
102
RTVSPropertyOp42
 70
     1
102
RTVSPropertyOp43
 70
     1
102
RTVSPropertyOp44
 70
     1
102
RTVSPropertyOp45
 70
     1
102
RTVSPropertyOp46
 70
     1
102
RTVSPropertyOp47
 70
     1
102
RTVSPropertyOp48
 70
     1
102
RTVSPropertyOp49
 70
     1
102
RTVSPropertyOp50
 70
     1
102
RTVSPropertyOp51
 70
     0
102
RTVSPropertyOp52
 70
     0
102
RTVSPropertyOp53
 70
     1
102
RTVSPropertyOp54
 70
     1
102
RTVSPropertyOp55
 70
     1
102
RTVSPropertyOp56
 70
     1
102
RTVSPropertyOp57
 70
     1
102
RTVSPost2010Prop28
280
     0
102
RTVSPost2010PropOp28
 70
     1
102
RTVSPost2010Prop29
280
     1
102
RTVSPost2010PropOp29
 70
     1
102
RTVSPost2010Prop30
280
     1
102
RTVSPost2010PropOp30
 70
     1
102
RTVSPost2010Prop31
280
     0
102
RTVSPost2010PropOp31
 70
     1
102
RTVSPost2010Prop32
280
     0
102
RTVSPost2010PropOp32
 70
     1
102
RTVSPost2010Prop33
280
     0
102
RTVSPost2010PropOp33
 70
     1
102
RTVSPost2010Prop34
280
     0
102
RTVSPost2010PropOp34
 70
     1
102
RTVSPost2010Prop35
280
     0
102
RTVSPost2010PropOp35
 70
     1
102
RTVSPost2010Prop36
280
     0
102
RTVSPost2010PropOp36
 70
     1
102
RTVSPost2010Prop37
 90
       50
102
RTVSPost2010PropOp37
 70
     1
102
RTVSPost2010Prop38
140
0.0
102
RTVSPost2010PropOp38
 70
     1
102
RTVSPost2010Prop39
140
1.0
102
RTVSPost2010PropOp39
 70
     1
102
RTVSPost2010Prop40
 90
        0
102
RTVSPost2010PropOp40
 70
     1
102
RTVSPost2010Prop41ColorIndex
 90
       18
102
RTVSPost2010Prop41ColorRGB
 90
        0
102
RTVSPost2010PropOp41
 70
     1
102
RTVSPost2010Prop42
 90
       50
102
RTVSPost2010PropOp42
 70
     1
102
RTVSPost2010Prop43
 90
        3
102
RTVSPost2010PropOp43
 70
     1
102
RTVSPost2010Prop44ColorIndex
 90
        5
102
RTVSPost2010Prop44ColorRGB
 90
      255
102
RTVSPost2010PropOp44
 70
     1
102
RTVSPost2010Prop45
280
     0
102
RTVSPost2010PropOp45
 70
     1
102
RTVSPost2010Prop46
 90
       50
102
RTVSPost2010PropOp46
 70
     1
102
RTVSPost2010Prop47
 90
       50
102
RTVSPost2010PropOp47
 70
     1
102
RTVSPost2010Prop48
 90
       50
102
RTVSPost2010PropOp48
 70
     1
102
RTVSPost2010Prop49
280
     0
102
RTVSPost2010PropOp49
 70
     1
102
RTVSPost2010Prop50
 90
       50
102
RTVSPost2010PropOp50
 70
     1
102
RTVSPost2010Prop51ColorIndex
 90
      256
102
RTVSPost2010Prop51ColorRGB
 90
-16777216
102
RTVSPost2010PropOp51
 70
     0
102
RTVSPost2010Prop52
140
1.0
102
RTVSPost2010PropOp52
 70
     0
102
RTVSPost2010Prop53
 90
        2
102
RTVSPost2010PropOp53
 70
     1
102
RTVSPost2010Prop54
  1
strokes_ogs.tif
102
RTVSPost2010PropOp54
 70
     1
102
RTVSPost2010Prop55
280
     0
102
RTVSPost2010PropOp55
 70
     1
102
RTVSPost2010Prop56
140
1.0
102
RTVSPost2010PropOp56
 70
     1
102
RTVSPost2010Prop57
140
1.0
102
RTVSPost2010PropOp57
 70
     1
  0
XRECORD
  5
BC9
102
{ACAD_REACTORS
330
BC8
102
}
330
BC8
100
AcDbXrecord
280
     1
102
RTVSPropertyOp0
 70
     0
102
RTVSPropertyOp1
 70
     0
102
RTVSPropertyOp2
 70
     0
102
RTVSPropertyOp3
 70
     0
102
RTVSPropertyOp4
 70
     0
102
RTVSPropertyOp5
 70
     0
102
RTVSPropertyOp6
 70
     0
102
RTVSPropertyOp7
 70
     0
102
RTVSPropertyOp8
 70
     0
102
RTVSPropertyOp9
 70
     0
102
RTVSPropertyOp10
 70
     0
102
RTVSPropertyOp11
 70
     0
102
RTVSPropertyOp12
 70
     0
102
RTVSPropertyOp13
 70
     0
102
RTVSPropertyOp14
 70
     2
102
RTVSPropertyOp15
 70
     0
102
RTVSPropertyOp16
 70
     0
102
RTVSPropertyOp17
 70
     0
102
RTVSPropertyOp18
 70
     0
102
RTVSPropertyOp19
 70
     0
102
RTVSPropertyOp20
 70
     0
102
RTVSPropertyOp21
 70
     0
102
RTVSPropertyOp22
 70
     0
102
RTVSPropertyOp23
 70
     0
102
RTVSPropertyOp24
 70
     0
102
RTVSPropertyOp25
 70
     0
102
RTVSPropertyOp26
 70
     0
102
RTVSPropertyOp27
 70
     0
102
RTVSPropertyOp28
 70
     0
102
RTVSPropertyOp29
 70
     0
102
RTVSPropertyOp30
 70
     0
102
RTVSPropertyOp31
 70
     0
102
RTVSPropertyOp32
 70
     0
102
RTVSPropertyOp33
 70
     0
102
RTVSPropertyOp34
 70
     0
102
RTVSPropertyOp35
 70
     0
102
RTVSPropertyOp36
 70
     0
102
RTVSPropertyOp37
 70
     0
102
RTVSPropertyOp38
 70
     0
102
RTVSPropertyOp39
 70
     0
102
RTVSPropertyOp40
 70
     0
102
RTVSPropertyOp41
 70
     0
102
RTVSPropertyOp42
 70
     0
102
RTVSPropertyOp43
 70
     0
102
RTVSPropertyOp44
 70
     0
102
RTVSPropertyOp45
 70
     0
102
RTVSPropertyOp46
 70
     0
102
RTVSPropertyOp47
 70
     0
102
RTVSPropertyOp48
 70
     0
102
RTVSPropertyOp49
 70
     0
102
RTVSPropertyOp50
 70
     0
102
RTVSPropertyOp51
 70
     0
102
RTVSPropertyOp52
 70
     0
102
RTVSPropertyOp53
 70
     0
102
RTVSPropertyOp54
 70
     0
102
RTVSPropertyOp55
 70
     0
102
RTVSPropertyOp56
 70
     0
102
RTVSPropertyOp57
 70
     0
102
RTVSPost2010Prop28
280
     0
102
RTVSPost2010PropOp28
 70
     0
102
RTVSPost2010Prop29
280
     1
102
RTVSPost2010PropOp29
 70
     0
102
RTVSPost2010Prop30
280
     1
102
RTVSPost2010PropOp30
 70
     0
102
RTVSPost2010Prop31
280
     0
102
RTVSPost2010PropOp31
 70
     0
102
RTVSPost2010Prop32
280
     0
102
RTVSPost2010PropOp32
 70
     0
102
RTVSPost2010Prop33
280
     0
102
RTVSPost2010PropOp33
 70
     0
102
RTVSPost2010Prop34
280
     0
102
RTVSPost2010PropOp34
 70
     0
102
RTVSPost2010Prop35
280
     0
102
RTVSPost2010PropOp35
 70
     0
102
RTVSPost2010Prop36
280
     0
102
RTVSPost2010PropOp36
 70
     0
102
RTVSPost2010Prop37
 90
       50
102
RTVSPost2010PropOp37
 70
     0
102
RTVSPost2010Prop38
140
0.0
102
RTVSPost2010PropOp38
 70
     0
102
RTVSPost2010Prop39
140
1.0
102
RTVSPost2010PropOp39
 70
     0
102
RTVSPost2010Prop40
 90
        0
102
RTVSPost2010PropOp40
 70
     0
102
RTVSPost2010Prop41ColorIndex
 90
       18
102
RTVSPost2010Prop41ColorRGB
 90
        0
102
RTVSPost2010PropOp41
 70
     0
102
RTVSPost2010Prop42
 90
       50
102
RTVSPost2010PropOp42
 70
     0
102
RTVSPost2010Prop43
 90
        3
102
RTVSPost2010PropOp43
 70
     0
102
RTVSPost2010Prop44ColorIndex
 90
        5
102
RTVSPost2010Prop44ColorRGB
 90
      255
102
RTVSPost2010PropOp44
 70
     0
102
RTVSPost2010Prop45
280
     0
102
RTVSPost2010PropOp45
 70
     0
102
RTVSPost2010Prop46
 90
       50
102
RTVSPost2010PropOp46
 70
     0
102
RTVSPost2010Prop47
 90
       50
102
RTVSPost2010PropOp47
 70
     0
102
RTVSPost2010Prop48
 90
       50
102
RTVSPost2010PropOp48
 70
     0
102
RTVSPost2010Prop49
280
     0
102
RTVSPost2010PropOp49
 70
     0
102
RTVSPost2010Prop50
 90
       50
102
RTVSPost2010PropOp50
 70
     0
102
RTVSPost2010Prop51ColorIndex
 90
      256
102
RTVSPost2010Prop51ColorRGB
 90
-16777216
102
RTVSPost2010PropOp51
 70
     0
102
RTVSPost2010Prop52
140
1.0
102
RTVSPost2010PropOp52
 70
     0
102
RTVSPost2010Prop53
 90
        2
102
RTVSPost2010PropOp53
 70
     0
102
RTVSPost2010Prop54
  1
strokes_ogs.tif
102
RTVSPost2010PropOp54
 70
     0
102
RTVSPost2010Prop55
280
     0
102
RTVSPost2010PropOp55
 70
     0
102
RTVSPost2010Prop56
140
1.0
102
RTVSPost2010PropOp56
 70
     0
102
RTVSPost2010Prop57
140
1.0
102
RTVSPost2010PropOp57
 70
     0
  0
XRECORD
  5
BB7
102
{ACAD_REACTORS
330
BB6
102
}
330
BB6
100
AcDbXrecord
280
     1
102
RTVSPropertyOp0
 70
     1
102
RTVSPropertyOp1
 70
     1
102
RTVSPropertyOp2
 70
     1
102
RTVSPropertyOp3
 70
     1
102
RTVSPropertyOp4
 70
     1
102
RTVSPropertyOp5
 70
     1
102
RTVSPropertyOp6
 70
     1
102
RTVSPropertyOp7
 70
     1
102
RTVSPropertyOp8
 70
     1
102
RTVSPropertyOp9
 70
     1
102
RTVSPropertyOp10
 70
     1
102
RTVSPropertyOp11
 70
     1
102
RTVSPropertyOp12
 70
     1
102
RTVSPropertyOp13
 70
     1
102
RTVSPropertyOp14
 70
     1
102
RTVSPropertyOp15
 70
     1
102
RTVSPropertyOp16
 70
     1
102
RTVSPropertyOp17
 70
     1
102
RTVSPropertyOp18
 70
     1
102
RTVSPropertyOp19
 70
     1
102
RTVSPropertyOp20
 70
     1
102
RTVSPropertyOp21
 70
     1
102
RTVSPropertyOp22
 70
     1
102
RTVSPropertyOp23
 70
     1
102
RTVSPropertyOp24
 70
     1
102
RTVSPropertyOp25
 70
     1
102
RTVSPropertyOp26
 70
     1
102
RTVSPropertyOp27
 70
     1
102
RTVSPropertyOp28
 70
     1
102
RTVSPropertyOp29
 70
     1
102
RTVSPropertyOp30
 70
     1
102
RTVSPropertyOp31
 70
     1
102
RTVSPropertyOp32
 70
     1
102
RTVSPropertyOp33
 70
     1
102
RTVSPropertyOp34
 70
     1
102
RTVSPropertyOp35
 70
     1
102
RTVSPropertyOp36
 70
     1
102
RTVSPropertyOp37
 70
     1
102
RTVSPropertyOp38
 70
     1
102
RTVSPropertyOp39
 70
     1
102
RTVSPropertyOp40
 70
     1
102
RTVSPropertyOp41
 70
     1
102
RTVSPropertyOp42
 70
     1
102
RTVSPropertyOp43
 70
     1
102
RTVSPropertyOp44
 70
     1
102
RTVSPropertyOp45
 70
     1
102
RTVSPropertyOp46
 70
     1
102
RTVSPropertyOp47
 70
     1
102
RTVSPropertyOp48
 70
     1
102
RTVSPropertyOp49
 70
     1
102
RTVSPropertyOp50
 70
     1
102
RTVSPropertyOp51
 70
     0
102
RTVSPropertyOp52
 70
     0
102
RTVSPropertyOp53
 70
     1
102
RTVSPropertyOp54
 70
     1
102
RTVSPropertyOp55
 70
     1
102
RTVSPropertyOp56
 70
     1
102
RTVSPropertyOp57
 70
     1
102
RTVSPost2010Prop28
280
     0
102
RTVSPost2010PropOp28
 70
     1
102
RTVSPost2010Prop29
280
     1
102
RTVSPost2010PropOp29
 70
     1
102
RTVSPost2010Prop30
280
     1
102
RTVSPost2010PropOp30
 70
     1
102
RTVSPost2010Prop31
280
     0
102
RTVSPost2010PropOp31
 70
     1
102
RTVSPost2010Prop32
280
     0
102
RTVSPost2010PropOp32
 70
     1
102
RTVSPost2010Prop33
280
     0
102
RTVSPost2010PropOp33
 70
     1
102
RTVSPost2010Prop34
280
     0
102
RTVSPost2010PropOp34
 70
     1
102
RTVSPost2010Prop35
280
     0
102
RTVSPost2010PropOp35
 70
     1
102
RTVSPost2010Prop36
280
     0
102
RTVSPost2010PropOp36
 70
     1
102
RTVSPost2010Prop37
 90
       50
102
RTVSPost2010PropOp37
 70
     1
102
RTVSPost2010Prop38
140
0.0
102
RTVSPost2010PropOp38
 70
     1
102
RTVSPost2010Prop39
140
1.0
102
RTVSPost2010PropOp39
 70
     1
102
RTVSPost2010Prop40
 90
        0
102
RTVSPost2010PropOp40
 70
     1
102
RTVSPost2010Prop41ColorIndex
 90
       18
102
RTVSPost2010Prop41ColorRGB
 90
        0
102
RTVSPost2010PropOp41
 70
     1
102
RTVSPost2010Prop42
 90
       50
102
RTVSPost2010PropOp42
 70
     1
102
RTVSPost2010Prop43
 90
        3
102
RTVSPost2010PropOp43
 70
     1
102
RTVSPost2010Prop44ColorIndex
 90
        5
102
RTVSPost2010Prop44ColorRGB
 90
      255
102
RTVSPost2010PropOp44
 70
     1
102
RTVSPost2010Prop45
280
     0
102
RTVSPost2010PropOp45
 70
     1
102
RTVSPost2010Prop46
 90
       50
102
RTVSPost2010PropOp46
 70
     1
102
RTVSPost2010Prop47
 90
       50
102
RTVSPost2010PropOp47
 70
     1
102
RTVSPost2010Prop48
 90
       50
102
RTVSPost2010PropOp48
 70
     1
102
RTVSPost2010Prop49
280
     0
102
RTVSPost2010PropOp49
 70
     1
102
RTVSPost2010Prop50
 90
       50
102
RTVSPost2010PropOp50
 70
     1
102
RTVSPost2010Prop51ColorIndex
 90
      256
102
RTVSPost2010Prop51ColorRGB
 90
-16777216
102
RTVSPost2010PropOp51
 70
     0
102
RTVSPost2010Prop52
140
1.0
102
RTVSPost2010PropOp52
 70
     0
102
RTVSPost2010Prop53
 90
        2
102
RTVSPost2010PropOp53
 70
     1
102
RTVSPost2010Prop54
  1
strokes_ogs.tif
102
RTVSPost2010PropOp54
 70
     1
102
RTVSPost2010Prop55
280
     0
102
RTVSPost2010PropOp55
 70
     1
102
RTVSPost2010Prop56
140
1.0
102
RTVSPost2010PropOp56
 70
     1
102
RTVSPost2010Prop57
140
1.0
102
RTVSPost2010PropOp57
 70
     1
  0
XRECORD
  5
BD5
102
{ACAD_REACTORS
330
BD4
102
}
330
BD4
100
AcDbXrecord
280
     1
102
RTVSPropertyOp0
 70
     1
102
RTVSPropertyOp1
 70
     1
102
RTVSPropertyOp2
 70
     1
102
RTVSPropertyOp3
 70
     1
102
RTVSPropertyOp4
 70
     1
102
RTVSPropertyOp5
 70
     1
102
RTVSPropertyOp6
 70
     1
102
RTVSPropertyOp7
 70
     1
102
RTVSPropertyOp8
 70
     1
102
RTVSPropertyOp9
 70
     1
102
RTVSPropertyOp10
 70
     1
102
RTVSPropertyOp11
 70
     1
102
RTVSPropertyOp12
 70
     1
102
RTVSPropertyOp13
 70
     1
102
RTVSPropertyOp14
 70
     1
102
RTVSPropertyOp15
 70
     1
102
RTVSPropertyOp16
 70
     1
102
RTVSPropertyOp17
 70
     1
102
RTVSPropertyOp18
 70
     1
102
RTVSPropertyOp19
 70
     1
102
RTVSPropertyOp20
 70
     1
102
RTVSPropertyOp21
 70
     1
102
RTVSPropertyOp22
 70
     1
102
RTVSPropertyOp23
 70
     1
102
RTVSPropertyOp24
 70
     1
102
RTVSPropertyOp25
 70
     1
102
RTVSPropertyOp26
 70
     1
102
RTVSPropertyOp27
 70
     1
102
RTVSPropertyOp28
 70
     1
102
RTVSPropertyOp29
 70
     1
102
RTVSPropertyOp30
 70
     1
102
RTVSPropertyOp31
 70
     1
102
RTVSPropertyOp32
 70
     1
102
RTVSPropertyOp33
 70
     1
102
RTVSPropertyOp34
 70
     1
102
RTVSPropertyOp35
 70
     1
102
RTVSPropertyOp36
 70
     1
102
RTVSPropertyOp37
 70
     1
102
RTVSPropertyOp38
 70
     1
102
RTVSPropertyOp39
 70
     1
102
RTVSPropertyOp40
 70
     1
102
RTVSPropertyOp41
 70
     1
102
RTVSPropertyOp42
 70
     1
102
RTVSPropertyOp43
 70
     1
102
RTVSPropertyOp44
 70
     1
102
RTVSPropertyOp45
 70
     1
102
RTVSPropertyOp46
 70
     1
102
RTVSPropertyOp47
 70
     1
102
RTVSPropertyOp48
 70
     1
102
RTVSPropertyOp49
 70
     1
102
RTVSPropertyOp50
 70
     1
102
RTVSPropertyOp51
 70
     0
102
RTVSPropertyOp52
 70
     0
102
RTVSPropertyOp53
 70
     1
102
RTVSPropertyOp54
 70
     1
102
RTVSPropertyOp55
 70
     1
102
RTVSPropertyOp56
 70
     1
102
RTVSPropertyOp57
 70
     1
102
RTVSPost2010Prop28
280
     0
102
RTVSPost2010PropOp28
 70
     1
102
RTVSPost2010Prop29
280
     1
102
RTVSPost2010PropOp29
 70
     1
102
RTVSPost2010Prop30
280
     1
102
RTVSPost2010PropOp30
 70
     1
102
RTVSPost2010Prop31
280
     0
102
RTVSPost2010PropOp31
 70
     1
102
RTVSPost2010Prop32
280
     0
102
RTVSPost2010PropOp32
 70
     1
102
RTVSPost2010Prop33
280
     0
102
RTVSPost2010PropOp33
 70
     1
102
RTVSPost2010Prop34
280
     0
102
RTVSPost2010PropOp34
 70
     1
102
RTVSPost2010Prop35
280
     0
102
RTVSPost2010PropOp35
 70
     1
102
RTVSPost2010Prop36
280
     0
102
RTVSPost2010PropOp36
 70
     1
102
RTVSPost2010Prop37
 90
       50
102
RTVSPost2010PropOp37
 70
     1
102
RTVSPost2010Prop38
140
0.0
102
RTVSPost2010PropOp38
 70
     1
102
RTVSPost2010Prop39
140
1.0
102
RTVSPost2010PropOp39
 70
     1
102
RTVSPost2010Prop40
 90
        0
102
RTVSPost2010PropOp40
 70
     1
102
RTVSPost2010Prop41ColorIndex
 90
       18
102
RTVSPost2010Prop41ColorRGB
 90
        0
102
RTVSPost2010PropOp41
 70
     1
102
RTVSPost2010Prop42
 90
       50
102
RTVSPost2010PropOp42
 70
     1
102
RTVSPost2010Prop43
 90
        3
102
RTVSPost2010PropOp43
 70
     1
102
RTVSPost2010Prop44ColorIndex
 90
        5
102
RTVSPost2010Prop44ColorRGB
 90
      255
102
RTVSPost2010PropOp44
 70
     1
102
RTVSPost2010Prop45
280
     0
102
RTVSPost2010PropOp45
 70
     1
102
RTVSPost2010Prop46
 90
       50
102
RTVSPost2010PropOp46
 70
     1
102
RTVSPost2010Prop47
 90
       50
102
RTVSPost2010PropOp47
 70
     1
102
RTVSPost2010Prop48
 90
       50
102
RTVSPost2010PropOp48
 70
     1
102
RTVSPost2010Prop49
280
     0
102
RTVSPost2010PropOp49
 70
     1
102
RTVSPost2010Prop50
 90
       50
102
RTVSPost2010PropOp50
 70
     1
102
RTVSPost2010Prop51ColorIndex
 90
      256
102
RTVSPost2010Prop51ColorRGB
 90
-16777216
102
RTVSPost2010PropOp51
 70
     0
102
RTVSPost2010Prop52
140
1.0
102
RTVSPost2010PropOp52
 70
     0
102
RTVSPost2010Prop53
 90
        2
102
RTVSPost2010PropOp53
 70
     1
102
RTVSPost2010Prop54
  1
strokes_ogs.tif
102
RTVSPost2010PropOp54
 70
     1
102
RTVSPost2010Prop55
280
     0
102
RTVSPost2010PropOp55
 70
     1
102
RTVSPost2010Prop56
140
1.0
102
RTVSPost2010PropOp56
 70
     1
102
RTVSPost2010Prop57
140
1.0
102
RTVSPost2010PropOp57
 70
     1
  0
XRECORD
  5
BD3
102
{ACAD_REACTORS
330
BD2
102
}
330
BD2
100
AcDbXrecord
280
     1
102
RTVSPropertyOp0
 70
     1
102
RTVSPropertyOp1
 70
     1
102
RTVSPropertyOp2
 70
     1
102
RTVSPropertyOp3
 70
     1
102
RTVSPropertyOp4
 70
     1
102
RTVSPropertyOp5
 70
     1
102
RTVSPropertyOp6
 70
     1
102
RTVSPropertyOp7
 70
     1
102
RTVSPropertyOp8
 70
     1
102
RTVSPropertyOp9
 70
     1
102
RTVSPropertyOp10
 70
     1
102
RTVSPropertyOp11
 70
     1
102
RTVSPropertyOp12
 70
     1
102
RTVSPropertyOp13
 70
     1
102
RTVSPropertyOp14
 70
     1
102
RTVSPropertyOp15
 70
     1
102
RTVSPropertyOp16
 70
     1
102
RTVSPropertyOp17
 70
     1
102
RTVSPropertyOp18
 70
     1
102
RTVSPropertyOp19
 70
     1
102
RTVSPropertyOp20
 70
     1
102
RTVSPropertyOp21
 70
     1
102
RTVSPropertyOp22
 70
     1
102
RTVSPropertyOp23
 70
     1
102
RTVSPropertyOp24
 70
     1
102
RTVSPropertyOp25
 70
     1
102
RTVSPropertyOp26
 70
     1
102
RTVSPropertyOp27
 70
     1
102
RTVSPropertyOp28
 70
     1
102
RTVSPropertyOp29
 70
     1
102
RTVSPropertyOp30
 70
     1
102
RTVSPropertyOp31
 70
     1
102
RTVSPropertyOp32
 70
     1
102
RTVSPropertyOp33
 70
     1
102
RTVSPropertyOp34
 70
     1
102
RTVSPropertyOp35
 70
     1
102
RTVSPropertyOp36
 70
     1
102
RTVSPropertyOp37
 70
     1
102
RTVSPropertyOp38
 70
     1
102
RTVSPropertyOp39
 70
     1
102
RTVSPropertyOp40
 70
     1
102
RTVSPropertyOp41
 70
     1
102
RTVSPropertyOp42
 70
     1
102
RTVSPropertyOp43
 70
     1
102
RTVSPropertyOp44
 70
     1
102
RTVSPropertyOp45
 70
     1
102
RTVSPropertyOp46
 70
     1
102
RTVSPropertyOp47
 70
     1
102
RTVSPropertyOp48
 70
     1
102
RTVSPropertyOp49
 70
     1
102
RTVSPropertyOp50
 70
     1
102
RTVSPropertyOp51
 70
     0
102
RTVSPropertyOp52
 70
     0
102
RTVSPropertyOp53
 70
     1
102
RTVSPropertyOp54
 70
     1
102
RTVSPropertyOp55
 70
     1
102
RTVSPropertyOp56
 70
     1
102
RTVSPropertyOp57
 70
     1
102
RTVSPost2010Prop28
280
     0
102
RTVSPost2010PropOp28
 70
     1
102
RTVSPost2010Prop29
280
     1
102
RTVSPost2010PropOp29
 70
     1
102
RTVSPost2010Prop30
280
     1
102
RTVSPost2010PropOp30
 70
     1
102
RTVSPost2010Prop31
280
     0
102
RTVSPost2010PropOp31
 70
     1
102
RTVSPost2010Prop32
280
     0
102
RTVSPost2010PropOp32
 70
     1
102
RTVSPost2010Prop33
280
     0
102
RTVSPost2010PropOp33
 70
     1
102
RTVSPost2010Prop34
280
     0
102
RTVSPost2010PropOp34
 70
     1
102
RTVSPost2010Prop35
280
     0
102
RTVSPost2010PropOp35
 70
     1
102
RTVSPost2010Prop36
280
     0
102
RTVSPost2010PropOp36
 70
     1
102
RTVSPost2010Prop37
 90
       50
102
RTVSPost2010PropOp37
 70
     1
102
RTVSPost2010Prop38
140
0.0
102
RTVSPost2010PropOp38
 70
     1
102
RTVSPost2010Prop39
140
1.0
102
RTVSPost2010PropOp39
 70
     1
102
RTVSPost2010Prop40
 90
        0
102
RTVSPost2010PropOp40
 70
     1
102
RTVSPost2010Prop41ColorIndex
 90
       18
102
RTVSPost2010Prop41ColorRGB
 90
        0
102
RTVSPost2010PropOp41
 70
     1
102
RTVSPost2010Prop42
 90
       50
102
RTVSPost2010PropOp42
 70
     1
102
RTVSPost2010Prop43
 90
        3
102
RTVSPost2010PropOp43
 70
     1
102
RTVSPost2010Prop44ColorIndex
 90
        5
102
RTVSPost2010Prop44ColorRGB
 90
      255
102
RTVSPost2010PropOp44
 70
     1
102
RTVSPost2010Prop45
280
     0
102
RTVSPost2010PropOp45
 70
     1
102
RTVSPost2010Prop46
 90
       50
102
RTVSPost2010PropOp46
 70
     1
102
RTVSPost2010Prop47
 90
       50
102
RTVSPost2010PropOp47
 70
     1
102
RTVSPost2010Prop48
 90
       50
102
RTVSPost2010PropOp48
 70
     1
102
RTVSPost2010Prop49
280
     0
102
RTVSPost2010PropOp49
 70
     1
102
RTVSPost2010Prop50
 90
       50
102
RTVSPost2010PropOp50
 70
     1
102
RTVSPost2010Prop51ColorIndex
 90
      256
102
RTVSPost2010Prop51ColorRGB
 90
-16777216
102
RTVSPost2010PropOp51
 70
     0
102
RTVSPost2010Prop52
140
1.0
102
RTVSPost2010PropOp52
 70
     0
102
RTVSPost2010Prop53
 90
        2
102
RTVSPost2010PropOp53
 70
     1
102
RTVSPost2010Prop54
  1
strokes_ogs.tif
102
RTVSPost2010PropOp54
 70
     1
102
RTVSPost2010Prop55
280
     0
102
RTVSPost2010PropOp55
 70
     1
102
RTVSPost2010Prop56
140
1.0
102
RTVSPost2010PropOp56
 70
     1
102
RTVSPost2010Prop57
140
1.0
102
RTVSPost2010PropOp57
 70
     1
  0
XRECORD
  5
BCD
102
{ACAD_REACTORS
330
BCC
102
}
330
BCC
100
AcDbXrecord
280
     1
102
RTVSPropertyOp0
 70
     1
102
RTVSPropertyOp1
 70
     1
102
RTVSPropertyOp2
 70
     1
102
RTVSPropertyOp3
 70
     1
102
RTVSPropertyOp4
 70
     1
102
RTVSPropertyOp5
 70
     1
102
RTVSPropertyOp6
 70
     1
102
RTVSPropertyOp7
 70
     1
102
RTVSPropertyOp8
 70
     1
102
RTVSPropertyOp9
 70
     1
102
RTVSPropertyOp10
 70
     1
102
RTVSPropertyOp11
 70
     1
102
RTVSPropertyOp12
 70
     1
102
RTVSPropertyOp13
 70
     1
102
RTVSPropertyOp14
 70
     1
102
RTVSPropertyOp15
 70
     1
102
RTVSPropertyOp16
 70
     1
102
RTVSPropertyOp17
 70
     1
102
RTVSPropertyOp18
 70
     1
102
RTVSPropertyOp19
 70
     1
102
RTVSPropertyOp20
 70
     1
102
RTVSPropertyOp21
 70
     1
102
RTVSPropertyOp22
 70
     1
102
RTVSPropertyOp23
 70
     1
102
RTVSPropertyOp24
 70
     1
102
RTVSPropertyOp25
 70
     1
102
RTVSPropertyOp26
 70
     1
102
RTVSPropertyOp27
 70
     1
102
RTVSPropertyOp28
 70
     1
102
RTVSPropertyOp29
 70
     1
102
RTVSPropertyOp30
 70
     1
102
RTVSPropertyOp31
 70
     1
102
RTVSPropertyOp32
 70
     1
102
RTVSPropertyOp33
 70
     1
102
RTVSPropertyOp34
 70
     1
102
RTVSPropertyOp35
 70
     1
102
RTVSPropertyOp36
 70
     1
102
RTVSPropertyOp37
 70
     1
102
RTVSPropertyOp38
 70
     1
102
RTVSPropertyOp39
 70
     1
102
RTVSPropertyOp40
 70
     1
102
RTVSPropertyOp41
 70
     1
102
RTVSPropertyOp42
 70
     1
102
RTVSPropertyOp43
 70
     1
102
RTVSPropertyOp44
 70
     1
102
RTVSPropertyOp45
 70
     1
102
RTVSPropertyOp46
 70
     1
102
RTVSPropertyOp47
 70
     1
102
RTVSPropertyOp48
 70
     1
102
RTVSPropertyOp49
 70
     1
102
RTVSPropertyOp50
 70
     1
102
RTVSPropertyOp51
 70
     0
102
RTVSPropertyOp52
 70
     0
102
RTVSPropertyOp53
 70
     1
102
RTVSPropertyOp54
 70
     1
102
RTVSPropertyOp55
 70
     1
102
RTVSPropertyOp56
 70
     1
102
RTVSPropertyOp57
 70
     1
102
RTVSPost2010Prop28
280
     0
102
RTVSPost2010PropOp28
 70
     1
102
RTVSPost2010Prop29
280
     1
102
RTVSPost2010PropOp29
 70
     1
102
RTVSPost2010Prop30
280
     1
102
RTVSPost2010PropOp30
 70
     1
102
RTVSPost2010Prop31
280
     0
102
RTVSPost2010PropOp31
 70
     1
102
RTVSPost2010Prop32
280
     0
102
RTVSPost2010PropOp32
 70
     1
102
RTVSPost2010Prop33
280
     0
102
RTVSPost2010PropOp33
 70
     1
102
RTVSPost2010Prop34
280
     0
102
RTVSPost2010PropOp34
 70
     1
102
RTVSPost2010Prop35
280
     0
102
RTVSPost2010PropOp35
 70
     1
102
RTVSPost2010Prop36
280
     0
102
RTVSPost2010PropOp36
 70
     1
102
RTVSPost2010Prop37
 90
       50
102
RTVSPost2010PropOp37
 70
     1
102
RTVSPost2010Prop38
140
0.0
102
RTVSPost2010PropOp38
 70
     1
102
RTVSPost2010Prop39
140
1.0
102
RTVSPost2010PropOp39
 70
     1
102
RTVSPost2010Prop40
 90
        0
102
RTVSPost2010PropOp40
 70
     1
102
RTVSPost2010Prop41ColorIndex
 90
       18
102
RTVSPost2010Prop41ColorRGB
 90
        0
102
RTVSPost2010PropOp41
 70
     1
102
RTVSPost2010Prop42
 90
       50
102
RTVSPost2010PropOp42
 70
     1
102
RTVSPost2010Prop43
 90
        3
102
RTVSPost2010PropOp43
 70
     1
102
RTVSPost2010Prop44ColorIndex
 90
        5
102
RTVSPost2010Prop44ColorRGB
 90
      255
102
RTVSPost2010PropOp44
 70
     1
102
RTVSPost2010Prop45
280
     0
102
RTVSPost2010PropOp45
 70
     1
102
RTVSPost2010Prop46
 90
       50
102
RTVSPost2010PropOp46
 70
     1
102
RTVSPost2010Prop47
 90
       50
102
RTVSPost2010PropOp47
 70
     1
102
RTVSPost2010Prop48
 90
       50
102
RTVSPost2010PropOp48
 70
     1
102
RTVSPost2010Prop49
280
     0
102
RTVSPost2010PropOp49
 70
     1
102
RTVSPost2010Prop50
 90
       50
102
RTVSPost2010PropOp50
 70
     1
102
RTVSPost2010Prop51ColorIndex
 90
      256
102
RTVSPost2010Prop51ColorRGB
 90
-16777216
102
RTVSPost2010PropOp51
 70
     0
102
RTVSPost2010Prop52
140
1.0
102
RTVSPost2010PropOp52
 70
     0
102
RTVSPost2010Prop53
 90
        2
102
RTVSPost2010PropOp53
 70
     1
102
RTVSPost2010Prop54
  1
strokes_ogs.tif
102
RTVSPost2010PropOp54
 70
     1
102
RTVSPost2010Prop55
280
     0
102
RTVSPost2010PropOp55
 70
     1
102
RTVSPost2010Prop56
140
1.0
102
RTVSPost2010PropOp56
 70
     1
102
RTVSPost2010Prop57
140
1.0
102
RTVSPost2010PropOp57
 70
     1
  0
XRECORD
  5
BCF
102
{ACAD_REACTORS
330
BCE
102
}
330
BCE
100
AcDbXrecord
280
     1
102
RTVSPropertyOp0
 70
     1
102
RTVSPropertyOp1
 70
     1
102
RTVSPropertyOp2
 70
     1
102
RTVSPropertyOp3
 70
     1
102
RTVSPropertyOp4
 70
     1
102
RTVSPropertyOp5
 70
     1
102
RTVSPropertyOp6
 70
     1
102
RTVSPropertyOp7
 70
     1
102
RTVSPropertyOp8
 70
     1
102
RTVSPropertyOp9
 70
     1
102
RTVSPropertyOp10
 70
     1
102
RTVSPropertyOp11
 70
     1
102
RTVSPropertyOp12
 70
     1
102
RTVSPropertyOp13
 70
     1
102
RTVSPropertyOp14
 70
     1
102
RTVSPropertyOp15
 70
     1
102
RTVSPropertyOp16
 70
     1
102
RTVSPropertyOp17
 70
     1
102
RTVSPropertyOp18
 70
     1
102
RTVSPropertyOp19
 70
     1
102
RTVSPropertyOp20
 70
     1
102
RTVSPropertyOp21
 70
     1
102
RTVSPropertyOp22
 70
     1
102
RTVSPropertyOp23
 70
     1
102
RTVSPropertyOp24
 70
     1
102
RTVSPropertyOp25
 70
     1
102
RTVSPropertyOp26
 70
     1
102
RTVSPropertyOp27
 70
     1
102
RTVSPropertyOp28
 70
     1
102
RTVSPropertyOp29
 70
     1
102
RTVSPropertyOp30
 70
     1
102
RTVSPropertyOp31
 70
     1
102
RTVSPropertyOp32
 70
     1
102
RTVSPropertyOp33
 70
     1
102
RTVSPropertyOp34
 70
     1
102
RTVSPropertyOp35
 70
     1
102
RTVSPropertyOp36
 70
     1
102
RTVSPropertyOp37
 70
     1
102
RTVSPropertyOp38
 70
     1
102
RTVSPropertyOp39
 70
     1
102
RTVSPropertyOp40
 70
     1
102
RTVSPropertyOp41
 70
     1
102
RTVSPropertyOp42
 70
     1
102
RTVSPropertyOp43
 70
     1
102
RTVSPropertyOp44
 70
     1
102
RTVSPropertyOp45
 70
     1
102
RTVSPropertyOp46
 70
     1
102
RTVSPropertyOp47
 70
     1
102
RTVSPropertyOp48
 70
     1
102
RTVSPropertyOp49
 70
     1
102
RTVSPropertyOp50
 70
     1
102
RTVSPropertyOp51
 70
     0
102
RTVSPropertyOp52
 70
     0
102
RTVSPropertyOp53
 70
     1
102
RTVSPropertyOp54
 70
     1
102
RTVSPropertyOp55
 70
     1
102
RTVSPropertyOp56
 70
     1
102
RTVSPropertyOp57
 70
     1
102
RTVSPost2010Prop28
280
     0
102
RTVSPost2010PropOp28
 70
     1
102
RTVSPost2010Prop29
280
     1
102
RTVSPost2010PropOp29
 70
     1
102
RTVSPost2010Prop30
280
     1
102
RTVSPost2010PropOp30
 70
     1
102
RTVSPost2010Prop31
280
     0
102
RTVSPost2010PropOp31
 70
     1
102
RTVSPost2010Prop32
280
     0
102
RTVSPost2010PropOp32
 70
     1
102
RTVSPost2010Prop33
280
     0
102
RTVSPost2010PropOp33
 70
     1
102
RTVSPost2010Prop34
280
     0
102
RTVSPost2010PropOp34
 70
     1
102
RTVSPost2010Prop35
280
     0
102
RTVSPost2010PropOp35
 70
     1
102
RTVSPost2010Prop36
280
     0
102
RTVSPost2010PropOp36
 70
     1
102
RTVSPost2010Prop37
 90
       50
102
RTVSPost2010PropOp37
 70
     1
102
RTVSPost2010Prop38
140
0.0
102
RTVSPost2010PropOp38
 70
     1
102
RTVSPost2010Prop39
140
1.0
102
RTVSPost2010PropOp39
 70
     1
102
RTVSPost2010Prop40
 90
        0
102
RTVSPost2010PropOp40
 70
     1
102
RTVSPost2010Prop41ColorIndex
 90
       18
102
RTVSPost2010Prop41ColorRGB
 90
        0
102
RTVSPost2010PropOp41
 70
     1
102
RTVSPost2010Prop42
 90
       50
102
RTVSPost2010PropOp42
 70
     1
102
RTVSPost2010Prop43
 90
        3
102
RTVSPost2010PropOp43
 70
     1
102
RTVSPost2010Prop44ColorIndex
 90
        5
102
RTVSPost2010Prop44ColorRGB
 90
      255
102
RTVSPost2010PropOp44
 70
     1
102
RTVSPost2010Prop45
280
     0
102
RTVSPost2010PropOp45
 70
     1
102
RTVSPost2010Prop46
 90
       50
102
RTVSPost2010PropOp46
 70
     1
102
RTVSPost2010Prop47
 90
       50
102
RTVSPost2010PropOp47
 70
     1
102
RTVSPost2010Prop48
 90
       50
102
RTVSPost2010PropOp48
 70
     1
102
RTVSPost2010Prop49
280
     0
102
RTVSPost2010PropOp49
 70
     1
102
RTVSPost2010Prop50
 90
       50
102
RTVSPost2010PropOp50
 70
     1
102
RTVSPost2010Prop51ColorIndex
 90
      256
102
RTVSPost2010Prop51ColorRGB
 90
-16777216
102
RTVSPost2010PropOp51
 70
     0
102
RTVSPost2010Prop52
140
1.0
102
RTVSPost2010PropOp52
 70
     0
102
RTVSPost2010Prop53
 90
        2
102
RTVSPost2010PropOp53
 70
     1
102
RTVSPost2010Prop54
  1
strokes_ogs.tif
102
RTVSPost2010PropOp54
 70
     1
102
RTVSPost2010Prop55
280
     0
102
RTVSPost2010PropOp55
 70
     1
102
RTVSPost2010Prop56
140
1.0
102
RTVSPost2010PropOp56
 70
     1
102
RTVSPost2010Prop57
140
1.0
102
RTVSPost2010PropOp57
 70
     1
  0
XRECORD
  5
BBF
102
{ACAD_REACTORS
330
BBE
102
}
330
BBE
100
AcDbXrecord
280
     1
102
RTVSPropertyOp0
 70
     1
102
RTVSPropertyOp1
 70
     1
102
RTVSPropertyOp2
 70
     1
102
RTVSPropertyOp3
 70
     1
102
RTVSPropertyOp4
 70
     1
102
RTVSPropertyOp5
 70
     1
102
RTVSPropertyOp6
 70
     1
102
RTVSPropertyOp7
 70
     1
102
RTVSPropertyOp8
 70
     1
102
RTVSPropertyOp9
 70
     1
102
RTVSPropertyOp10
 70
     1
102
RTVSPropertyOp11
 70
     1
102
RTVSPropertyOp12
 70
     1
102
RTVSPropertyOp13
 70
     1
102
RTVSPropertyOp14
 70
     1
102
RTVSPropertyOp15
 70
     1
102
RTVSPropertyOp16
 70
     1
102
RTVSPropertyOp17
 70
     1
102
RTVSPropertyOp18
 70
     1
102
RTVSPropertyOp19
 70
     1
102
RTVSPropertyOp20
 70
     1
102
RTVSPropertyOp21
 70
     1
102
RTVSPropertyOp22
 70
     1
102
RTVSPropertyOp23
 70
     1
102
RTVSPropertyOp24
 70
     1
102
RTVSPropertyOp25
 70
     1
102
RTVSPropertyOp26
 70
     1
102
RTVSPropertyOp27
 70
     1
102
RTVSPropertyOp28
 70
     1
102
RTVSPropertyOp29
 70
     1
102
RTVSPropertyOp30
 70
     1
102
RTVSPropertyOp31
 70
     1
102
RTVSPropertyOp32
 70
     1
102
RTVSPropertyOp33
 70
     1
102
RTVSPropertyOp34
 70
     1
102
RTVSPropertyOp35
 70
     1
102
RTVSPropertyOp36
 70
     1
102
RTVSPropertyOp37
 70
     1
102
RTVSPropertyOp38
 70
     1
102
RTVSPropertyOp39
 70
     1
102
RTVSPropertyOp40
 70
     1
102
RTVSPropertyOp41
 70
     1
102
RTVSPropertyOp42
 70
     1
102
RTVSPropertyOp43
 70
     1
102
RTVSPropertyOp44
 70
     1
102
RTVSPropertyOp45
 70
     1
102
RTVSPropertyOp46
 70
     1
102
RTVSPropertyOp47
 70
     1
102
RTVSPropertyOp48
 70
     1
102
RTVSPropertyOp49
 70
     1
102
RTVSPropertyOp50
 70
     1
102
RTVSPropertyOp51
 70
     0
102
RTVSPropertyOp52
 70
     0
102
RTVSPropertyOp53
 70
     1
102
RTVSPropertyOp54
 70
     1
102
RTVSPropertyOp55
 70
     1
102
RTVSPropertyOp56
 70
     1
102
RTVSPropertyOp57
 70
     1
102
RTVSPost2010Prop28
280
     0
102
RTVSPost2010PropOp28
 70
     1
102
RTVSPost2010Prop29
280
     1
102
RTVSPost2010PropOp29
 70
     1
102
RTVSPost2010Prop30
280
     1
102
RTVSPost2010PropOp30
 70
     1
102
RTVSPost2010Prop31
280
     0
102
RTVSPost2010PropOp31
 70
     1
102
RTVSPost2010Prop32
280
     0
102
RTVSPost2010PropOp32
 70
     1
102
RTVSPost2010Prop33
280
     0
102
RTVSPost2010PropOp33
 70
     1
102
RTVSPost2010Prop34
280
     0
102
RTVSPost2010PropOp34
 70
     1
102
RTVSPost2010Prop35
280
     0
102
RTVSPost2010PropOp35
 70
     1
102
RTVSPost2010Prop36
280
     0
102
RTVSPost2010PropOp36
 70
     1
102
RTVSPost2010Prop37
 90
       50
102
RTVSPost2010PropOp37
 70
     1
102
RTVSPost2010Prop38
140
0.0
102
RTVSPost2010PropOp38
 70
     1
102
RTVSPost2010Prop39
140
1.0
102
RTVSPost2010PropOp39
 70
     1
102
RTVSPost2010Prop40
 90
        0
102
RTVSPost2010PropOp40
 70
     1
102
RTVSPost2010Prop41ColorIndex
 90
       18
102
RTVSPost2010Prop41ColorRGB
 90
        0
102
RTVSPost2010PropOp41
 70
     1
102
RTVSPost2010Prop42
 90
       50
102
RTVSPost2010PropOp42
 70
     1
102
RTVSPost2010Prop43
 90
        3
102
RTVSPost2010PropOp43
 70
     1
102
RTVSPost2010Prop44ColorIndex
 90
        5
102
RTVSPost2010Prop44ColorRGB
 90
      255
102
RTVSPost2010PropOp44
 70
     1
102
RTVSPost2010Prop45
280
     0
102
RTVSPost2010PropOp45
 70
     1
102
RTVSPost2010Prop46
 90
       50
102
RTVSPost2010PropOp46
 70
     1
102
RTVSPost2010Prop47
 90
       50
102
RTVSPost2010PropOp47
 70
     1
102
RTVSPost2010Prop48
 90
       50
102
RTVSPost2010PropOp48
 70
     1
102
RTVSPost2010Prop49
280
     0
102
RTVSPost2010PropOp49
 70
     1
102
RTVSPost2010Prop50
 90
       50
102
RTVSPost2010PropOp50
 70
     1
102
RTVSPost2010Prop51ColorIndex
 90
      256
102
RTVSPost2010Prop51ColorRGB
 90
-16777216
102
RTVSPost2010PropOp51
 70
     0
102
RTVSPost2010Prop52
140
1.0
102
RTVSPost2010PropOp52
 70
     0
102
RTVSPost2010Prop53
 90
        2
102
RTVSPost2010PropOp53
 70
     1
102
RTVSPost2010Prop54
  1
strokes_ogs.tif
102
RTVSPost2010PropOp54
 70
     1
102
RTVSPost2010Prop55
280
     0
102
RTVSPost2010PropOp55
 70
     1
102
RTVSPost2010Prop56
140
1.0
102
RTVSPost2010PropOp56
 70
     1
102
RTVSPost2010Prop57
140
1.0
102
RTVSPost2010PropOp57
 70
     1
  0
XRECORD
  5
BB1
102
{ACAD_REACTORS
330
BB0
102
}
330
BB0
100
AcDbXrecord
280
     1
102
RTVSPropertyOp0
 70
     1
102
RTVSPropertyOp1
 70
     1
102
RTVSPropertyOp2
 70
     1
102
RTVSPropertyOp3
 70
     1
102
RTVSPropertyOp4
 70
     1
102
RTVSPropertyOp5
 70
     1
102
RTVSPropertyOp6
 70
     1
102
RTVSPropertyOp7
 70
     1
102
RTVSPropertyOp8
 70
     1
102
RTVSPropertyOp9
 70
     1
102
RTVSPropertyOp10
 70
     1
102
RTVSPropertyOp11
 70
     1
102
RTVSPropertyOp12
 70
     1
102
RTVSPropertyOp13
 70
     1
102
RTVSPropertyOp14
 70
     1
102
RTVSPropertyOp15
 70
     1
102
RTVSPropertyOp16
 70
     1
102
RTVSPropertyOp17
 70
     1
102
RTVSPropertyOp18
 70
     1
102
RTVSPropertyOp19
 70
     1
102
RTVSPropertyOp20
 70
     1
102
RTVSPropertyOp21
 70
     1
102
RTVSPropertyOp22
 70
     1
102
RTVSPropertyOp23
 70
     1
102
RTVSPropertyOp24
 70
     1
102
RTVSPropertyOp25
 70
     1
102
RTVSPropertyOp26
 70
     1
102
RTVSPropertyOp27
 70
     1
102
RTVSPropertyOp28
 70
     1
102
RTVSPropertyOp29
 70
     1
102
RTVSPropertyOp30
 70
     1
102
RTVSPropertyOp31
 70
     1
102
RTVSPropertyOp32
 70
     1
102
RTVSPropertyOp33
 70
     1
102
RTVSPropertyOp34
 70
     1
102
RTVSPropertyOp35
 70
     1
102
RTVSPropertyOp36
 70
     1
102
RTVSPropertyOp37
 70
     1
102
RTVSPropertyOp38
 70
     1
102
RTVSPropertyOp39
 70
     1
102
RTVSPropertyOp40
 70
     1
102
RTVSPropertyOp41
 70
     1
102
RTVSPropertyOp42
 70
     1
102
RTVSPropertyOp43
 70
     1
102
RTVSPropertyOp44
 70
     1
102
RTVSPropertyOp45
 70
     1
102
RTVSPropertyOp46
 70
     1
102
RTVSPropertyOp47
 70
     1
102
RTVSPropertyOp48
 70
     1
102
RTVSPropertyOp49
 70
     1
102
RTVSPropertyOp50
 70
     1
102
RTVSPropertyOp51
 70
     0
102
RTVSPropertyOp52
 70
     0
102
RTVSPropertyOp53
 70
     1
102
RTVSPropertyOp54
 70
     1
102
RTVSPropertyOp55
 70
     1
102
RTVSPropertyOp56
 70
     1
102
RTVSPropertyOp57
 70
     1
102
RTVSPost2010Prop28
280
     0
102
RTVSPost2010PropOp28
 70
     1
102
RTVSPost2010Prop29
280
     1
102
RTVSPost2010PropOp29
 70
     1
102
RTVSPost2010Prop30
280
     1
102
RTVSPost2010PropOp30
 70
     1
102
RTVSPost2010Prop31
280
     0
102
RTVSPost2010PropOp31
 70
     1
102
RTVSPost2010Prop32
280
     0
102
RTVSPost2010PropOp32
 70
     1
102
RTVSPost2010Prop33
280
     0
102
RTVSPost2010PropOp33
 70
     1
102
RTVSPost2010Prop34
280
     0
102
RTVSPost2010PropOp34
 70
     1
102
RTVSPost2010Prop35
280
     0
102
RTVSPost2010PropOp35
 70
     1
102
RTVSPost2010Prop36
280
     0
102
RTVSPost2010PropOp36
 70
     1
102
RTVSPost2010Prop37
 90
       50
102
RTVSPost2010PropOp37
 70
     1
102
RTVSPost2010Prop38
140
0.0
102
RTVSPost2010PropOp38
 70
     1
102
RTVSPost2010Prop39
140
1.0
102
RTVSPost2010PropOp39
 70
     1
102
RTVSPost2010Prop40
 90
        0
102
RTVSPost2010PropOp40
 70
     1
102
RTVSPost2010Prop41ColorIndex
 90
       18
102
RTVSPost2010Prop41ColorRGB
 90
        0
102
RTVSPost2010PropOp41
 70
     1
102
RTVSPost2010Prop42
 90
       50
102
RTVSPost2010PropOp42
 70
     1
102
RTVSPost2010Prop43
 90
        3
102
RTVSPost2010PropOp43
 70
     1
102
RTVSPost2010Prop44ColorIndex
 90
        5
102
RTVSPost2010Prop44ColorRGB
 90
      255
102
RTVSPost2010PropOp44
 70
     1
102
RTVSPost2010Prop45
280
     0
102
RTVSPost2010PropOp45
 70
     1
102
RTVSPost2010Prop46
 90
       50
102
RTVSPost2010PropOp46
 70
     1
102
RTVSPost2010Prop47
 90
       50
102
RTVSPost2010PropOp47
 70
     1
102
RTVSPost2010Prop48
 90
       50
102
RTVSPost2010PropOp48
 70
     1
102
RTVSPost2010Prop49
280
     0
102
RTVSPost2010PropOp49
 70
     1
102
RTVSPost2010Prop50
 90
       50
102
RTVSPost2010PropOp50
 70
     1
102
RTVSPost2010Prop51ColorIndex
 90
      256
102
RTVSPost2010Prop51ColorRGB
 90
-16777216
102
RTVSPost2010PropOp51
 70
     0
102
RTVSPost2010Prop52
140
1.0
102
RTVSPost2010PropOp52
 70
     0
102
RTVSPost2010Prop53
 90
        2
102
RTVSPost2010PropOp53
 70
     1
102
RTVSPost2010Prop54
  1
strokes_ogs.tif
102
RTVSPost2010PropOp54
 70
     1
102
RTVSPost2010Prop55
280
     0
102
RTVSPost2010PropOp55
 70
     1
102
RTVSPost2010Prop56
140
1.0
102
RTVSPost2010PropOp56
 70
     1
102
RTVSPost2010Prop57
140
1.0
102
RTVSPost2010PropOp57
 70
     1
  0
XRECORD
  5
BD1
102
{ACAD_REACTORS
330
BD0
102
}
330
BD0
100
AcDbXrecord
280
     1
102
RTVSPropertyOp0
 70
     1
102
RTVSPropertyOp1
 70
     1
102
RTVSPropertyOp2
 70
     1
102
RTVSPropertyOp3
 70
     1
102
RTVSPropertyOp4
 70
     1
102
RTVSPropertyOp5
 70
     1
102
RTVSPropertyOp6
 70
     1
102
RTVSPropertyOp7
 70
     1
102
RTVSPropertyOp8
 70
     1
102
RTVSPropertyOp9
 70
     1
102
RTVSPropertyOp10
 70
     1
102
RTVSPropertyOp11
 70
     1
102
RTVSPropertyOp12
 70
     1
102
RTVSPropertyOp13
 70
     1
102
RTVSPropertyOp14
 70
     1
102
RTVSPropertyOp15
 70
     1
102
RTVSPropertyOp16
 70
     1
102
RTVSPropertyOp17
 70
     1
102
RTVSPropertyOp18
 70
     1
102
RTVSPropertyOp19
 70
     1
102
RTVSPropertyOp20
 70
     1
102
RTVSPropertyOp21
 70
     1
102
RTVSPropertyOp22
 70
     1
102
RTVSPropertyOp23
 70
     1
102
RTVSPropertyOp24
 70
     1
102
RTVSPropertyOp25
 70
     1
102
RTVSPropertyOp26
 70
     1
102
RTVSPropertyOp27
 70
     1
102
RTVSPropertyOp28
 70
     1
102
RTVSPropertyOp29
 70
     1
102
RTVSPropertyOp30
 70
     1
102
RTVSPropertyOp31
 70
     1
102
RTVSPropertyOp32
 70
     1
102
RTVSPropertyOp33
 70
     1
102
RTVSPropertyOp34
 70
     1
102
RTVSPropertyOp35
 70
     1
102
RTVSPropertyOp36
 70
     1
102
RTVSPropertyOp37
 70
     1
102
RTVSPropertyOp38
 70
     1
102
RTVSPropertyOp39
 70
     1
102
RTVSPropertyOp40
 70
     1
102
RTVSPropertyOp41
 70
     1
102
RTVSPropertyOp42
 70
     1
102
RTVSPropertyOp43
 70
     1
102
RTVSPropertyOp44
 70
     1
102
RTVSPropertyOp45
 70
     1
102
RTVSPropertyOp46
 70
     1
102
RTVSPropertyOp47
 70
     1
102
RTVSPropertyOp48
 70
     1
102
RTVSPropertyOp49
 70
     1
102
RTVSPropertyOp50
 70
     1
102
RTVSPropertyOp51
 70
     0
102
RTVSPropertyOp52
 70
     0
102
RTVSPropertyOp53
 70
     1
102
RTVSPropertyOp54
 70
     1
102
RTVSPropertyOp55
 70
     1
102
RTVSPropertyOp56
 70
     1
102
RTVSPropertyOp57
 70
     1
102
RTVSPost2010Prop28
280
     0
102
RTVSPost2010PropOp28
 70
     1
102
RTVSPost2010Prop29
280
     1
102
RTVSPost2010PropOp29
 70
     1
102
RTVSPost2010Prop30
280
     1
102
RTVSPost2010PropOp30
 70
     1
102
RTVSPost2010Prop31
280
     0
102
RTVSPost2010PropOp31
 70
     1
102
RTVSPost2010Prop32
280
     0
102
RTVSPost2010PropOp32
 70
     1
102
RTVSPost2010Prop33
280
     0
102
RTVSPost2010PropOp33
 70
     1
102
RTVSPost2010Prop34
280
     0
102
RTVSPost2010PropOp34
 70
     1
102
RTVSPost2010Prop35
280
     0
102
RTVSPost2010PropOp35
 70
     1
102
RTVSPost2010Prop36
280
     0
102
RTVSPost2010PropOp36
 70
     1
102
RTVSPost2010Prop37
 90
       50
102
RTVSPost2010PropOp37
 70
     1
102
RTVSPost2010Prop38
140
0.0
102
RTVSPost2010PropOp38
 70
     1
102
RTVSPost2010Prop39
140
1.0
102
RTVSPost2010PropOp39
 70
     1
102
RTVSPost2010Prop40
 90
        0
102
RTVSPost2010PropOp40
 70
     1
102
RTVSPost2010Prop41ColorIndex
 90
       18
102
RTVSPost2010Prop41ColorRGB
 90
        0
102
RTVSPost2010PropOp41
 70
     1
102
RTVSPost2010Prop42
 90
       50
102
RTVSPost2010PropOp42
 70
     1
102
RTVSPost2010Prop43
 90
        3
102
RTVSPost2010PropOp43
 70
     1
102
RTVSPost2010Prop44ColorIndex
 90
        5
102
RTVSPost2010Prop44ColorRGB
 90
      255
102
RTVSPost2010PropOp44
 70
     1
102
RTVSPost2010Prop45
280
     0
102
RTVSPost2010PropOp45
 70
     1
102
RTVSPost2010Prop46
 90
       50
102
RTVSPost2010PropOp46
 70
     1
102
RTVSPost2010Prop47
 90
       50
102
RTVSPost2010PropOp47
 70
     1
102
RTVSPost2010Prop48
 90
       50
102
RTVSPost2010PropOp48
 70
     1
102
RTVSPost2010Prop49
280
     0
102
RTVSPost2010PropOp49
 70
     1
102
RTVSPost2010Prop50
 90
       50
102
RTVSPost2010PropOp50
 70
     1
102
RTVSPost2010Prop51ColorIndex
 90
      256
102
RTVSPost2010Prop51ColorRGB
 90
-16777216
102
RTVSPost2010PropOp51
 70
     0
102
RTVSPost2010Prop52
140
1.0
102
RTVSPost2010PropOp52
 70
     0
102
RTVSPost2010Prop53
 90
        2
102
RTVSPost2010PropOp53
 70
     1
102
RTVSPost2010Prop54
  1
strokes_ogs.tif
102
RTVSPost2010PropOp54
 70
     1
102
RTVSPost2010Prop55
280
     0
102
RTVSPost2010PropOp55
 70
     1
102
RTVSPost2010Prop56
140
1.0
102
RTVSPost2010PropOp56
 70
     1
102
RTVSPost2010Prop57
140
1.0
102
RTVSPost2010PropOp57
 70
     1
  0
ENDSEC
  0
EOF
