  0
SECTION
  2
ENTITIES
  0
ARC
  8
APS_GEOMETR�
 10
330.639466
 20
638.089703
 40
120.141856
 50
96.148017
 51
105.12086
  0
ARC
  8
APS_GEOMETR�
 10
324.691848
 20
658.16446
 40
99.211946
 50
104.829173
 51
125.239233
  0
ARC
  8
APS_GEOMETR�
 10
307.537256
 20
681.880377
 40
69.944679
 50
124.971264
 51
150.784978
  0
ARC
  8
APS_GEOMETR�
 10
291.993708
 20
690.837065
 40
52.007217
 50
151.039159
 51
182.536525
  0
ARC
  8
APS_GEOMETR�
 10
218.411669
 20
789.888732
 40
103.634782
 50
261.331993
 51
282.044597
  0
ARC
  8
APS_GEOMETR�
 10
215.810196
 20
777.438086
 40
90.936939
 50
239.149059
 51
261.770101
  0
ARC
  8
APS_GEOMETR�
 10
200.654379
 20
753.027367
 40
62.210189
 50
210.386975
 51
239.603451
  0
ARC
  8
APS_GEOMETR�
 10
155.144919
 20
700.61101
 40
22.479418
 50
92.078578
 51
111.27034
  0
ARC
  8
APS_GEOMETR�
 10
155.294593
 20
699.900017
 40
23.195701
 50
73.593393
 51
92.384348
  0
ARC
  8
APS_GEOMETR�
 10
156.665944
 20
704.169569
 40
18.712979
 50
52.217319
 51
73.928875
  0
ARC
  8
APS_GEOMETR�
 10
190.170872
 20
765.354579
 40
51.364358
 50
244.589994
 51
269.027842
  0
ARC
  8
APS_GEOMETR�
 10
190.75832
 20
766.532484
 40
52.555124
 50
268.409273
 51
292.471148
  0
ARC
  8
APS_GEOMETR�
 10
220.899027
 20
740.866208
 40
25.008108
 50
220.536501
 51
246.296917
  0
ARC
  8
APS_GEOMETR�
 10
214.743615
 20
735.620864
 40
16.920931
 50
187.07764
 51
220.58452
  0
ARC
  8
APS_GEOMETR�
 10
213.436623
 20
735.173909
 40
15.57139
 50
150.604719
 51
186.038077
  0
ARC
  8
APS_GEOMETR�
 10
218.644838
 20
732.088727
 40
21.623776
 50
121.846385
 51
150.255968
  0
ARC
  8
APS_GEOMETR�
 10
224.010538
 20
723.863724
 40
31.442569
 50
100.16446
 51
122.243833
  0
ARC
  8
APS_GEOMETR�
 10
230.421943
 20
753.391317
 40
12.044385
 50
173.222084
 51
204.732487
  0
ARC
  8
APS_GEOMETR�
 10
233.649286
 20
754.985768
 40
15.643083
 50
205.091182
 51
231.528986
  0
ARC
  8
APS_GEOMETR�
 10
237.871206
 20
760.15729
 40
22.318697
 50
231.302719
 51
252.125672
  0
ARC
  8
APS_GEOMETR�
 10
239.70894
 20
765.399131
 40
27.871933
 50
251.837567
 51
269.77203
  0
ARC
  8
APS_GEOMETR�
 10
304.315831
 20
673.934751
 40
90.732682
 50
113.525591
 51
135.502399
  0
ARC
  8
APS_GEOMETR�
 10
316.220707
 20
648.081438
 40
119.19054
 50
104.663869
 51
113.811994
  0
ARC
  8
APS_GEOMETR�
 10
316.220707
 20
648.081438
 40
119.19054
 50
95.515744
 51
104.663869
  0
ARC
  8
APS_GEOMETR�
 10
317.667436
 20
638.849732
 40
128.519748
 50
87.062952
 51
95.762139
  0
ARC
  8
APS_GEOMETR�
 10
317.720248
 20
639.514006
 40
127.853642
 50
78.341928
 51
87.071335
  0
ARC
  8
APS_GEOMETR�
 10
340.190275
 20
762.978779
 40
3.793878
 50
356.523151
 51
27.492359
  0
ARC
  8
APS_GEOMETR�
 10
340.022275
 20
763.039843
 40
3.965596
 50
325.727083
 51
355.789698
  0
ARC
  8
APS_GEOMETR�
 10
338.777793
 20
763.89952
 40
5.478115
 50
301.42697
 51
325.62673
  0
ARC
  8
APS_GEOMETR�
 10
337.641307
 20
765.689798
 40
7.598432
 50
282.275861
 51
301.70068
  0
ARC
  8
APS_GEOMETR�
 10
337.324363
 20
766.95076
 40
8.898049
 50
265.07444
 51
282.543686
  0
ARC
  8
APS_GEOMETR�
 10
330.639466
 20
638.089703
 40
120.141856
 50
87.175173
 51
96.148017
  0
ARC
  8
APS_GEOMETR�
 10
169.520496
 20
794.544168
 40
200.35544
 50
263.94951
 51
270.841457
  0
ARC
  8
APS_GEOMETR�
 10
186.960507
 20
583.493894
 40
18.028427
 50
143.528772
 51
178.23791
  0
ARC
  8
APS_GEOMETR�
 10
186.690367
 20
583.846422
 40
17.750909
 50
179.348508
 51
214.421741
  0
ARC
  8
APS_GEOMETR�
 10
160.225241
 20
508.567634
 40
66.307023
 50
79.729355
 51
96.905125
  0
ARC
  8
APS_GEOMETR�
 10
159.300235
 20
514.035959
 40
60.767712
 50
96.659164
 51
114.871852
  0
ARC
  8
APS_GEOMETR�
 10
152.891969
 20
527.331328
 40
46.010761
 50
114.595398
 51
136.550153
  0
ARC
  8
APS_GEOMETR�
 10
102.976941
 20
438.996636
 40
121.108134
 50
82.163692
 51
100.945508
  0
LINE
  8
APS_GEOMETR�
 10
79.981496
 11
79.97874
 20
557.901597
 21
586.70428
  0
LINE
  8
APS_GEOMETR�
 10
79.97874
 11
79.975985
 20
586.70428
 21
615.506963
  0
ARC
  8
APS_GEOMETR�
 10
167.882651
 20
787.886396
 40
193.500002
 50
242.980224
 51
257.088678
  0
ARC
  8
APS_GEOMETR�
 10
169.520496
 20
794.544168
 40
200.35544
 50
257.057563
 51
263.94951
  0
ARC
  8
APS_GEOMETR�
 10
224.054101
 20
638.245032
 40
70.291605
 50
272.629282
 51
275.25489
  0
ARC
  8
APS_GEOMETR�
 10
227.102057
 20
605.221426
 40
37.127643
 50
275.238493
 51
282.504161
  0
ARC
  8
APS_GEOMETR�
 10
231.915467
 20
583.767519
 40
15.14056
 50
282.2989
 51
297.943278
  0
ARC
  8
APS_GEOMETR�
 10
238.326017
 20
571.718067
 40
1.492059
 50
297.297469
 51
324.465402
  0
ARC
  8
APS_GEOMETR�
 10
238.700369
 20
571.447825
 40
1.030365
 50
324.595666
 51
359.451494
  0
ARC
  8
APS_GEOMETR�
 10
238.700315
 20
571.427895
 40
1.03042
 50
0.559753
 51
35.414321
  0
ARC
  8
APS_GEOMETR�
 10
238.325941
 20
571.157545
 40
1.492196
 50
35.544334
 51
62.710589
  0
ARC
  8
APS_GEOMETR�
 10
231.916725
 20
559.106496
 40
15.14148
 50
62.064817
 51
77.708559
  0
ARC
  8
APS_GEOMETR�
 10
227.106103
 20
537.651812
 40
37.128712
 50
77.503344
 51
84.768873
  0
ARC
  8
APS_GEOMETR�
 10
224.063598
 20
504.653506
 40
70.26698
 50
84.751539
 51
90.004599
  0
ARC
  8
APS_GEOMETR�
 10
224.061327
 20
504.653783
 40
70.266702
 50
90.002747
 51
95.255821
  0
ARC
  8
APS_GEOMETR�
 10
221.014515
 20
537.652487
 40
37.127643
 50
95.238493
 51
102.504161
  0
ARC
  8
APS_GEOMETR�
 10
216.201105
 20
559.106394
 40
15.14056
 50
102.2989
 51
117.943278
  0
ARC
  8
APS_GEOMETR�
 10
209.790554
 20
571.155845
 40
1.492059
 50
117.297469
 51
144.465402
  0
ARC
  8
APS_GEOMETR�
 10
209.416203
 20
571.426087
 40
1.030365
 50
144.595666
 51
179.451494
  0
ARC
  8
APS_GEOMETR�
 10
209.416256
 20
571.446018
 40
1.03042
 50
180.559753
 51
215.414321
  0
ARC
  8
APS_GEOMETR�
 10
209.790631
 20
571.716367
 40
1.492196
 50
215.544334
 51
242.710589
  0
ARC
  8
APS_GEOMETR�
 10
216.199846
 20
583.767417
 40
15.14148
 50
242.064817
 51
257.708559
  0
ARC
  8
APS_GEOMETR�
 10
221.010469
 20
605.2221
 40
37.128712
 50
257.503344
 51
264.768873
  0
ARC
  8
APS_GEOMETR�
 10
224.054101
 20
638.245032
 40
70.291605
 50
264.75246
 51
270.003675
  0
ARC
  8
APS_GEOMETR�
 10
224.054101
 20
638.245032
 40
70.291605
 50
270.003675
 51
272.629282
  0
ARC
  8
APS_GEOMETR�
 10
210.702801
 20
746.14555
 40
158.420059
 50
271.758487
 51
273.513299
  0
ARC
  8
APS_GEOMETR�
 10
215.442427
 20
669.068999
 40
81.197921
 50
273.508041
 51
278.422754
  0
ARC
  8
APS_GEOMETR�
 10
222.695723
 20
620.39641
 40
31.987903
 50
278.34089
 51
289.577486
  0
ARC
  8
APS_GEOMETR�
 10
232.945864
 20
591.614867
 40
1.435676
 50
289.042206
 51
312.204464
  0
ARC
  8
APS_GEOMETR�
 10
233.258366
 20
591.275913
 40
0.974669
 50
311.982016
 51
342.036771
  0
ARC
  8
APS_GEOMETR�
 10
233.429326
 20
591.210453
 40
0.791912
 50
342.727261
 51
17.283701
  0
ARC
  8
APS_GEOMETR�
 10
233.258299
 20
591.144939
 40
0.974751
 50
17.973971
 51
48.027023
  0
ARC
  8
APS_GEOMETR�
 10
232.945824
 20
590.805911
 40
1.435793
 50
47.80446
 51
70.965443
  0
ARC
  8
APS_GEOMETR�
 10
222.699132
 20
562.021765
 40
31.989316
 50
70.430239
 51
81.666504
  0
ARC
  8
APS_GEOMETR�
 10
215.452126
 20
513.348065
 40
81.199507
 50
81.584667
 51
86.499316
  0
ARC
  8
APS_GEOMETR�
 10
210.723231
 20
436.297242
 40
158.395308
 50
86.493777
 51
90.003951
  0
ARC
  8
APS_GEOMETR�
 10
210.721702
 20
436.29766
 40
158.39489
 50
90.003397
 51
93.513578
  0
ARC
  8
APS_GEOMETR�
 10
205.982848
 20
513.349041
 40
81.197921
 50
93.508041
 51
98.422754
  0
ARC
  8
APS_GEOMETR�
 10
198.729551
 20
562.02163
 40
31.987903
 50
98.34089
 51
109.577486
  0
ARC
  8
APS_GEOMETR�
 10
188.479411
 20
590.803173
 40
1.435676
 50
109.042206
 51
132.204464
  0
ARC
  8
APS_GEOMETR�
 10
188.166909
 20
591.142128
 40
0.974669
 50
131.982016
 51
162.036771
  0
ARC
  8
APS_GEOMETR�
 10
187.995949
 20
591.207587
 40
0.791912
 50
162.727261
 51
197.283701
  0
ARC
  8
APS_GEOMETR�
 10
188.166976
 20
591.273101
 40
0.974751
 50
197.973971
 51
228.027023
  0
ARC
  8
APS_GEOMETR�
 10
188.479451
 20
591.612129
 40
1.435793
 50
227.80446
 51
250.965443
  0
ARC
  8
APS_GEOMETR�
 10
198.726143
 20
620.396275
 40
31.989316
 50
250.430239
 51
261.666504
  0
ARC
  8
APS_GEOMETR�
 10
205.973148
 20
669.069976
 40
81.199507
 50
261.584667
 51
266.499316
  0
ARC
  8
APS_GEOMETR�
 10
210.702801
 20
746.14555
 40
158.420059
 50
266.494051
 51
270.003675
  0
ARC
  8
APS_GEOMETR�
 10
210.702801
 20
746.14555
 40
158.420059
 50
270.003675
 51
271.758487
  0
ARC
  8
APS_GEOMETR�
 10
276.513079
 20
1062.340255
 40
517.863673
 50
271.258353
 51
272.513032
  0
ARC
  8
APS_GEOMETR�
 10
287.729963
 20
806.971665
 40
262.248855
 50
272.511056
 51
276.041945
  0
ARC
  8
APS_GEOMETR�
 10
304.560034
 20
648.542296
 40
102.928088
 50
276.008066
 51
284.292086
  0
ARC
  8
APS_GEOMETR�
 10
329.438038
 20
550.998788
 40
2.262227
 50
283.584674
 51
309.627682
  0
ARC
  8
APS_GEOMETR�
 10
329.961631
 20
550.382407
 40
1.453577
 50
309.227639
 51
344.330113
  0
ARC
  8
APS_GEOMETR�
 10
329.961588
 20
549.596902
 40
1.453698
 50
15.680756
 51
50.781246
  0
ARC
  8
APS_GEOMETR�
 10
329.438055
 20
548.980409
 40
2.262396
 50
50.381047
 51
76.422745
  0
ARC
  8
APS_GEOMETR�
 10
304.572122
 20
451.430516
 40
102.931461
 50
75.715466
 51
83.999306
  0
ARC
  8
APS_GEOMETR�
 10
287.762467
 20
292.998667
 40
262.252539
 50
83.965442
 51
87.496298
  0
ARC
  8
APS_GEOMETR�
 10
276.579386
 20
37.673565
 40
517.822429
 50
87.494218
 51
90.003776
  0
ARC
  8
APS_GEOMETR�
 10
276.577558
 20
37.674542
 40
517.821452
 50
90.003573
 51
92.513134
  0
ARC
  8
APS_GEOMETR�
 10
265.361601
 20
293.000912
 40
262.248855
 50
92.511056
 51
96.041945
  0
ARC
  8
APS_GEOMETR�
 10
248.53153
 20
451.43028
 40
102.928088
 50
96.008066
 51
104.292086
  0
ARC
  8
APS_GEOMETR�
 10
223.653527
 20
548.973789
 40
2.262227
 50
103.584674
 51
129.627682
  0
ARC
  8
APS_GEOMETR�
 10
223.129933
 20
549.590169
 40
1.453577
 50
129.227639
 51
164.330113
  0
ARC
  8
APS_GEOMETR�
 10
223.129976
 20
550.375674
 40
1.453698
 50
195.680756
 51
230.781246
  0
ARC
  8
APS_GEOMETR�
 10
223.653509
 20
550.992168
 40
2.262396
 50
230.381047
 51
256.422745
  0
ARC
  8
APS_GEOMETR�
 10
248.519442
 20
648.54206
 40
102.931461
 50
255.715466
 51
263.999306
  0
ARC
  8
APS_GEOMETR�
 10
265.329097
 20
806.97391
 40
262.252539
 50
263.965442
 51
267.496298
  0
ARC
  8
APS_GEOMETR�
 10
276.513079
 20
1062.340255
 40
517.863673
 50
267.494318
 51
270.003675
  0
ARC
  8
APS_GEOMETR�
 10
276.513079
 20
1062.340255
 40
517.863673
 50
270.003675
 51
271.258353
  0
LINE
  8
APS_GEOMETR�
 10
213.377601
 11
168.927471
 20
80.008553
 21
80.005702
  0
LINE
  8
APS_GEOMETR�
 10
168.927471
 11
124.477341
 20
80.005702
 21
80.002851
  0
LINE
  8
APS_GEOMETR�
 10
124.477341
 11
80.027211
 20
80.002851
 21
80.0
  0
LINE
  8
APS_GEOMETR�
 10
80.027211
 11
80.024371
 20
80.0
 21
109.688106
  0
ARC
  8
APS_GEOMETR�
 10
129.450485
 20
257.766577
 40
156.109496
 50
251.541853
 51
272.871222
  0
ARC
  8
APS_GEOMETR�
 10
130.936433
 20
251.372836
 40
149.653873
 50
272.425646
 51
294.37142
  0
ARC
  8
APS_GEOMETR�
 10
207.06661
 20
85.46967
 40
32.892664
 50
88.665758
 51
115.915326
  0
ARC
  8
APS_GEOMETR�
 10
237.079533
 20
125.002696
 40
29.993355
 50
192.808417
 51
216.593947
  0
ARC
  8
APS_GEOMETR�
 10
237.702429
 20
125.456645
 40
30.764084
 50
216.58116
 51
239.972032
  0
ARC
  8
APS_GEOMETR�
 10
310.48214
 20
222.383785
 40
151.797173
 50
234.488089
 51
249.7038
  0
LINE
  8
APS_GEOMETR�
 10
257.827731
 11
213.377601
 20
80.011404
 21
80.008553
  0
LINE
  8
APS_GEOMETR�
 10
495.62228
 11
428.398367
 20
80.027674
 21
80.022821
  0
LINE
  8
APS_GEOMETR�
 10
428.398367
 11
361.174454
 20
80.022821
 21
80.017967
  0
LINE
  8
APS_GEOMETR�
 10
361.174454
 11
293.950541
 20
80.017967
 21
80.013113
  0
ARC
  8
APS_GEOMETR�
 10
268.262914
 20
83.023896
 40
25.863468
 50
353.315004
 51
20.75072
  0
ARC
  8
APS_GEOMETR�
 10
264.807921
 20
81.601657
 40
29.598431
 50
20.955653
 51
46.026319
  0
ARC
  8
APS_GEOMETR�
 10
259.94841
 20
76.639474
 40
36.54364
 50
45.94509
 51
67.707983
  0
ARC
  8
APS_GEOMETR�
 10
257.5301
 20
71.092887
 40
42.59323
 50
67.528265
 51
87.157858
  0
ARC
  8
APS_GEOMETR�
 10
262.3744
 20
149.616272
 40
36.086139
 50
243.164014
 51
265.657569
  0
ARC
  8
APS_GEOMETR�
 10
259.359487
 20
143.942429
 40
29.662588
 50
217.737811
 51
243.412853
  0
ARC
  8
APS_GEOMETR�
 10
254.642484
 20
140.286587
 40
23.694734
 50
187.873991
 51
217.727957
  0
ARC
  8
APS_GEOMETR�
 10
253.333061
 20
139.927822
 40
22.349201
 50
156.380508
 51
187.422787
  0
ARC
  8
APS_GEOMETR�
 10
238.194752
 20
146.222966
 40
5.964291
 50
129.59883
 51
153.520923
  0
ARC
  8
APS_GEOMETR�
 10
239.070508
 20
145.18623
 40
7.321351
 50
108.86284
 51
129.708152
  0
ARC
  8
APS_GEOMETR�
 10
239.427005
 20
144.22039
 40
8.350615
 50
89.95697
 51
109.034999
  0
ARC
  8
APS_GEOMETR�
 10
239.451864
 20
144.217903
 40
8.35312
 50
71.053327
 51
90.127497
  0
ARC
  8
APS_GEOMETR�
 10
229.752992
 20
131.148305
 40
24.367624
 50
20.633334
 51
59.381149
  0
ARC
  8
APS_GEOMETR�
 10
272.905177
 20
148.149801
 40
22.018922
 50
202.467348
 51
233.014503
  0
ARC
  8
APS_GEOMETR�
 10
319.692194
 20
199.356998
 40
91.306669
 50
228.890723
 51
246.111124
  0
ARC
  8
APS_GEOMETR�
 10
348.391075
 20
241.146324
 40
141.445227
 50
242.334256
 51
257.581482
  0
ARC
  8
APS_GEOMETR�
 10
374.674807
 20
354.976522
 40
258.267201
 50
257.3176
 51
274.402677
  0
LINE
  8
APS_GEOMETR�
 10
394.500848
 11
475.120405
 20
97.471425
 21
104.722503
  0
ARC
  8
APS_GEOMETR�
 10
485.559309
 20
-30.689104
 40
135.81338
 50
74.38666
 51
94.408223
  0
ARC
  8
APS_GEOMETR�
 10
490.011175
 20
-16.361272
 40
120.816823
 50
52.925358
 51
74.591218
  0
LINE
  8
APS_GEOMETR�
 10
562.846193
 11
495.62228
 20
80.032528
 21
80.027674
  0
ARC
  8
APS_GEOMETR�
 10
330.663933
 20
461.892229
 40
120.144266
 50
254.886651
 51
263.859374
  0
ARC
  8
APS_GEOMETR�
 10
324.720157
 20
441.82126
 40
99.219081
 50
234.769256
 51
255.178331
  0
ARC
  8
APS_GEOMETR�
 10
307.568619
 20
418.102302
 40
69.95114
 50
209.225159
 51
235.037272
  0
ARC
  8
APS_GEOMETR�
 10
292.022787
 20
409.140898
 40
52.009341
 50
177.474681
 51
208.971181
  0
ARC
  8
APS_GEOMETR�
 10
218.451132
 20
310.075813
 40
103.635356
 50
77.962795
 51
98.675322
  0
ARC
  8
APS_GEOMETR�
 10
215.847197
 20
322.532011
 40
90.931563
 50
98.237203
 51
120.859145
  0
ARC
  8
APS_GEOMETR�
 10
200.687773
 20
346.940927
 40
62.20444
 50
120.404795
 51
149.623091
  0
ARC
  8
APS_GEOMETR�
 10
155.17522
 20
399.346832
 40
22.480256
 50
248.737398
 51
267.928679
  0
ARC
  8
APS_GEOMETR�
 10
155.32475
 20
400.056477
 40
23.195172
 50
267.622912
 51
286.414154
  0
ARC
  8
APS_GEOMETR�
 10
156.69691
 20
395.786255
 40
18.711564
 50
286.078664
 51
307.791323
  0
ARC
  8
APS_GEOMETR�
 10
190.208663
 20
334.609059
 40
51.362216
 50
90.979352
 51
115.417888
  0
ARC
  8
APS_GEOMETR�
 10
190.796346
 20
333.427329
 40
52.556882
 50
67.536591
 51
91.597924
  0
ARC
  8
APS_GEOMETR�
 10
220.933412
 20
359.101361
 40
25.005881
 50
113.710944
 51
139.472904
  0
ARC
  8
APS_GEOMETR�
 10
214.778002
 20
364.345038
 40
16.919787
 50
139.425088
 51
172.933496
  0
ARC
  8
APS_GEOMETR�
 10
213.47262
 20
364.791568
 40
15.571952
 50
173.973168
 51
209.405662
  0
ARC
  8
APS_GEOMETR�
 10
218.681574
 20
367.87832
 40
21.625775
 50
209.754138
 51
238.161953
  0
ARC
  8
APS_GEOMETR�
 10
224.046104
 20
376.104073
 40
31.444557
 50
237.764458
 51
259.842893
  0
ARC
  8
APS_GEOMETR�
 10
230.460515
 20
346.576104
 40
12.044044
 50
155.278087
 51
186.78909
  0
ARC
  8
APS_GEOMETR�
 10
233.68716
 20
344.982655
 40
15.641672
 50
128.479787
 51
154.919193
  0
ARC
  8
APS_GEOMETR�
 10
237.909639
 20
339.81202
 40
22.316951
 50
107.881943
 51
128.705988
  0
ARC
  8
APS_GEOMETR�
 10
239.748349
 20
334.569551
 40
27.871104
 50
90.235233
 51
108.170054
  0
ARC
  8
APS_GEOMETR�
 10
304.3472
 20
426.048977
 40
90.740602
 50
224.506754
 51
246.482275
  0
ARC
  8
APS_GEOMETR�
 10
316.247587
 20
451.901687
 40
119.196033
 50
246.19587
 51
255.343712
  0
ARC
  8
APS_GEOMETR�
 10
316.247587
 20
451.901687
 40
119.196033
 50
255.343712
 51
264.491554
  0
ARC
  8
APS_GEOMETR�
 10
317.692498
 20
461.127714
 40
128.519344
 50
264.245192
 51
272.944397
  0
ARC
  8
APS_GEOMETR�
 10
317.74548
 20
460.46179
 40
127.851579
 50
272.936014
 51
281.665516
  0
ARC
  8
APS_GEOMETR�
 10
340.231165
 20
337.001718
 40
3.793736
 50
332.518057
 51
3.488044
  0
ARC
  8
APS_GEOMETR�
 10
340.062809
 20
336.9406
 40
3.965823
 50
4.221451
 51
34.282906
  0
ARC
  8
APS_GEOMETR�
 10
338.818235
 20
336.080559
 40
5.478625
 50
34.383088
 51
58.581337
  0
ARC
  8
APS_GEOMETR�
 10
337.682011
 20
334.290132
 40
7.598928
 50
58.307601
 51
77.73157
  0
ARC
  8
APS_GEOMETR�
 10
337.365313
 20
333.029504
 40
8.89816
 50
77.463752
 51
94.932853
  0
ARC
  8
APS_GEOMETR�
 10
330.663933
 20
461.892229
 40
120.144266
 50
263.859374
 51
272.832097
  0
ARC
  8
APS_GEOMETR�
 10
169.554286
 20
305.420918
 40
200.34921
 50
89.165761
 51
96.057853
  0
ARC
  8
APS_GEOMETR�
 10
186.967933
 20
516.468445
 40
18.029445
 50
181.773326
 51
216.481141
  0
ARC
  8
APS_GEOMETR�
 10
186.695946
 20
516.115828
 40
17.750011
 50
145.588316
 51
180.662749
  0
ARC
  8
APS_GEOMETR�
 10
160.221457
 20
591.389652
 40
66.306655
 50
263.102196
 51
280.27803
  0
ARC
  8
APS_GEOMETR�
 10
159.297545
 20
585.924543
 40
60.770702
 50
245.136065
 51
263.348151
  0
ARC
  8
APS_GEOMETR�
 10
152.89155
 20
572.629278
 40
46.01483
 50
223.45907
 51
245.412522
  0
ARC
  8
APS_GEOMETR�
 10
102.963249
 20
660.954295
 40
121.108752
 50
259.061877
 51
277.843628
  0
LINE
  8
APS_GEOMETR�
 10
79.983012
 11
79.985767
 20
542.045765
 21
513.243082
  0
LINE
  8
APS_GEOMETR�
 10
79.985767
 11
79.988523
 20
513.243082
 21
484.440399
  0
ARC
  8
APS_GEOMETR�
 10
167.914787
 20
312.081911
 40
193.490249
 50
102.91883
 51
117.027764
  0
ARC
  8
APS_GEOMETR�
 10
169.554286
 20
305.420918
 40
200.34921
 50
96.057853
 51
102.949944
  0
ARC
  8
APS_GEOMETR�
 10
224.066575
 20
461.720812
 40
70.291605
 50
84.75246
 51
87.378067
  0
ARC
  8
APS_GEOMETR�
 10
227.110207
 20
494.743743
 40
37.128712
 50
77.503344
 51
84.768873
  0
ARC
  8
APS_GEOMETR�
 10
231.92083
 20
516.198427
 40
15.14148
 50
62.064817
 51
77.708559
  0
ARC
  8
APS_GEOMETR�
 10
238.330046
 20
528.249476
 40
1.492196
 50
35.544334
 51
62.710589
  0
ARC
  8
APS_GEOMETR�
 10
238.70442
 20
528.519826
 40
1.03042
 50
0.559753
 51
35.414321
  0
ARC
  8
APS_GEOMETR�
 10
238.704473
 20
528.539756
 40
1.030365
 50
324.595666
 51
359.451494
  0
ARC
  8
APS_GEOMETR�
 10
238.330122
 20
528.809998
 40
1.492059
 50
297.297469
 51
324.465402
  0
ARC
  8
APS_GEOMETR�
 10
231.919571
 20
540.85945
 40
15.14056
 50
282.2989
 51
297.943278
  0
ARC
  8
APS_GEOMETR�
 10
227.106162
 20
562.313357
 40
37.127643
 50
275.238493
 51
282.504161
  0
ARC
  8
APS_GEOMETR�
 10
224.059349
 20
595.312061
 40
70.266702
 50
270.002747
 51
275.255821
  0
ARC
  8
APS_GEOMETR�
 10
224.057078
 20
595.312338
 40
70.26698
 50
264.751539
 51
270.004599
  0
ARC
  8
APS_GEOMETR�
 10
221.014573
 20
562.314031
 40
37.128712
 50
257.503344
 51
264.768873
  0
ARC
  8
APS_GEOMETR�
 10
216.203951
 20
540.859348
 40
15.14148
 50
242.064817
 51
257.708559
  0
ARC
  8
APS_GEOMETR�
 10
209.794735
 20
528.808298
 40
1.492196
 50
215.544334
 51
242.710589
  0
ARC
  8
APS_GEOMETR�
 10
209.420361
 20
528.537949
 40
1.03042
 50
180.559753
 51
215.414321
  0
ARC
  8
APS_GEOMETR�
 10
209.420307
 20
528.518018
 40
1.030365
 50
144.595666
 51
179.451494
  0
ARC
  8
APS_GEOMETR�
 10
209.794659
 20
528.247776
 40
1.492059
 50
117.297469
 51
144.465402
  0
ARC
  8
APS_GEOMETR�
 10
216.205209
 20
516.198325
 40
15.14056
 50
102.2989
 51
117.943278
  0
ARC
  8
APS_GEOMETR�
 10
221.018619
 20
494.744418
 40
37.127643
 50
95.238493
 51
102.504161
  0
ARC
  8
APS_GEOMETR�
 10
224.066575
 20
461.720812
 40
70.291605
 50
90.003675
 51
95.25489
  0
ARC
  8
APS_GEOMETR�
 10
224.066575
 20
461.720812
 40
70.291605
 50
87.378067
 51
90.003675
  0
ARC
  8
APS_GEOMETR�
 10
210.730362
 20
353.818582
 40
158.420059
 50
86.494051
 51
88.248863
  0
ARC
  8
APS_GEOMETR�
 10
215.460014
 20
430.894156
 40
81.199507
 50
81.584667
 51
86.499316
  0
ARC
  8
APS_GEOMETR�
 10
222.707019
 20
479.567857
 40
31.989316
 50
70.430239
 51
81.666504
  0
ARC
  8
APS_GEOMETR�
 10
232.953712
 20
508.352003
 40
1.435793
 50
47.80446
 51
70.965443
  0
ARC
  8
APS_GEOMETR�
 10
233.266186
 20
508.691031
 40
0.974751
 50
17.973971
 51
48.027023
  0
ARC
  8
APS_GEOMETR�
 10
233.437213
 20
508.756545
 40
0.791912
 50
342.727261
 51
17.283701
  0
ARC
  8
APS_GEOMETR�
 10
233.266253
 20
508.822004
 40
0.974669
 50
311.982016
 51
342.036771
  0
ARC
  8
APS_GEOMETR�
 10
232.953751
 20
509.160959
 40
1.435676
 50
289.042206
 51
312.204464
  0
ARC
  8
APS_GEOMETR�
 10
222.703611
 20
537.942502
 40
31.987903
 50
278.34089
 51
289.577486
  0
ARC
  8
APS_GEOMETR�
 10
215.450314
 20
586.615091
 40
81.197921
 50
273.508041
 51
278.422754
  0
ARC
  8
APS_GEOMETR�
 10
210.711461
 20
663.666472
 40
158.39489
 50
270.003397
 51
273.513578
  0
ARC
  8
APS_GEOMETR�
 10
210.709931
 20
663.66689
 40
158.395308
 50
266.493777
 51
270.003951
  0
ARC
  8
APS_GEOMETR�
 10
205.981036
 20
586.616068
 40
81.199507
 50
261.584667
 51
266.499316
  0
ARC
  8
APS_GEOMETR�
 10
198.734031
 20
537.942367
 40
31.989316
 50
250.430239
 51
261.666504
  0
ARC
  8
APS_GEOMETR�
 10
188.487338
 20
509.158221
 40
1.435793
 50
227.80446
 51
250.965443
  0
ARC
  8
APS_GEOMETR�
 10
188.174863
 20
508.819193
 40
0.974751
 50
197.973971
 51
228.027023
  0
ARC
  8
APS_GEOMETR�
 10
188.003837
 20
508.753679
 40
0.791912
 50
162.727261
 51
197.283701
  0
ARC
  8
APS_GEOMETR�
 10
188.174797
 20
508.688219
 40
0.974669
 50
131.982016
 51
162.036771
  0
ARC
  8
APS_GEOMETR�
 10
188.487298
 20
508.349265
 40
1.435676
 50
109.042206
 51
132.204464
  0
ARC
  8
APS_GEOMETR�
 10
198.737439
 20
479.567722
 40
31.987903
 50
98.34089
 51
109.577486
  0
ARC
  8
APS_GEOMETR�
 10
205.990735
 20
430.895133
 40
81.197921
 50
93.508041
 51
98.422754
  0
ARC
  8
APS_GEOMETR�
 10
210.730362
 20
353.818582
 40
158.420059
 50
90.003675
 51
93.513299
  0
ARC
  8
APS_GEOMETR�
 10
210.730362
 20
353.818582
 40
158.420059
 50
88.248863
 51
90.003675
  0
LINE
  8
APS_GEOMETR�
 10
1084.041005
 11
1048.05129
 20
1019.967439
 21
1019.967439
  0
LINE
  8
APS_GEOMETR�
 10
1048.05129
 11
1012.061575
 20
1019.967439
 21
1019.967439
  0
LINE
  8
APS_GEOMETR�
 10
1012.061575
 11
976.07186
 20
1019.967439
 21
1019.967439
  0
ARC
  8
APS_GEOMETR�
 10
926.945958
 20
913.502652
 40
117.252314
 50
48.381464
 51
65.230047
  0
ARC
  8
APS_GEOMETR�
 10
988.583634
 20
978.845648
 40
27.595705
 50
30.512861
 51
53.955787
  0
ARC
  8
APS_GEOMETR�
 10
983.409997
 20
975.685509
 40
33.657511
 50
10.164963
 51
30.675753
  0
ARC
  8
APS_GEOMETR�
 10
1017.072167
 20
1004.08709
 40
22.467928
 50
268.640771
 51
301.465
  0
ARC
  8
APS_GEOMETR�
 10
1079.439495
 20
895.619582
 40
102.661786
 50
93.217721
 51
119.555476
  0
ARC
  8
APS_GEOMETR�
 10
1079.912739
 20
894.046281
 40
104.259879
 50
67.370371
 51
93.428852
  0
LINE
  8
APS_GEOMETR�
 10
1120.029093
 11
1120.03072
 20
990.279334
 21
1019.967439
  0
LINE
  8
APS_GEOMETR�
 10
1120.03072
 11
1084.041005
 20
1019.967439
 21
1019.967439
  0
LINE
  8
APS_GEOMETR�
 10
688.55943
 11
764.233553
 20
1019.968744
 21
1019.970049
  0
LINE
  8
APS_GEOMETR�
 10
764.233553
 11
839.907676
 20
1019.970049
 21
1019.971354
  0
LINE
  8
APS_GEOMETR�
 10
839.907676
 11
915.581799
 20
1019.971354
 21
1019.972659
  0
ARC
  8
APS_GEOMETR�
 10
938.581215
 20
1016.95874
 40
23.196052
 50
172.534314
 51
203.260796
  0
ARC
  8
APS_GEOMETR�
 10
944.381162
 20
1019.657554
 40
29.590971
 50
203.626651
 51
229.720904
  0
ARC
  8
APS_GEOMETR�
 10
952.48351
 20
1029.003197
 40
41.959295
 50
229.530755
 51
250.170599
  0
ARC
  8
APS_GEOMETR�
 10
956.492748
 20
1039.387938
 40
53.08889
 50
249.902084
 51
267.524669
  0
ARC
  8
APS_GEOMETR�
 10
951.262693
 20
941.829052
 40
44.616317
 50
65.925382
 51
86.225369
  0
ARC
  8
APS_GEOMETR�
 10
956.259217
 20
952.457317
 40
32.875119
 50
41.387033
 51
66.319883
  0
ARC
  8
APS_GEOMETR�
 10
964.146002
 20
959.369189
 40
22.388263
 50
9.174736
 51
41.460174
  0
ARC
  8
APS_GEOMETR�
 10
966.352149
 20
960.056229
 40
20.103445
 50
333.535724
 51
8.244184
  0
ARC
  8
APS_GEOMETR�
 10
979.006913
 20
954.130602
 40
6.143177
 50
306.007691
 51
330.411861
  0
ARC
  8
APS_GEOMETR�
 10
977.54874
 20
956.081044
 40
8.578278
 50
286.723885
 51
306.227564
  0
ARC
  8
APS_GEOMETR�
 10
976.958575
 20
957.887652
 40
10.478395
 50
269.920448
 51
286.971768
  0
ARC
  8
APS_GEOMETR�
 10
976.917673
 20
957.891719
 40
10.482485
 50
253.097193
 51
270.144045
  0
ARC
  8
APS_GEOMETR�
 10
985.373667
 20
970.446657
 40
25.345603
 50
203.731043
 51
243.007347
  0
ARC
  8
APS_GEOMETR�
 10
941.775197
 20
950.547029
 40
22.584839
 50
25.433748
 51
56.68777
  0
ARC
  8
APS_GEOMETR�
 10
889.88105
 20
886.098155
 40
105.246816
 50
52.343682
 51
68.635072
  0
ARC
  8
APS_GEOMETR�
 10
855.573207
 20
827.642576
 40
172.513172
 50
65.094233
 51
78.98519
  0
ARC
  8
APS_GEOMETR�
 10
824.670857
 20
676.888653
 40
326.397751
 50
78.716682
 51
93.91561
  0
LINE
  8
APS_GEOMETR�
 10
802.382098
 11
711.621572
 20
1002.524497
 21
995.281558
  0
ARC
  8
APS_GEOMETR�
 10
699.879308
 20
1166.213331
 40
171.33462
 50
256.099916
 51
273.929795
  0
ARC
  8
APS_GEOMETR�
 10
692.518102
 20
1139.445685
 40
143.584237
 50
236.316364
 51
256.385336
  0
LINE
  8
APS_GEOMETR�
 10
612.885308
 11
688.55943
 20
1019.967439
 21
1019.968744
  0
ARC
  8
APS_GEOMETR�
 10
869.340135
 20
638.10052
 40
120.141438
 50
74.881323
 51
83.854188
  0
ARC
  8
APS_GEOMETR�
 10
875.287202
 20
658.176288
 40
99.210715
 50
54.762784
 51
75.173016
  0
ARC
  8
APS_GEOMETR�
 10
892.440866
 20
681.892699
 40
69.943591
 50
29.216764
 51
55.030747
  0
ARC
  8
APS_GEOMETR�
 10
907.983476
 20
690.849526
 40
52.006873
 50
357.465041
 51
28.962544
  0
ARC
  8
APS_GEOMETR�
 10
981.561314
 20
789.903362
 40
103.634682
 50
257.957608
 51
278.670226
  0
ARC
  8
APS_GEOMETR�
 10
984.163112
 20
777.453843
 40
90.937876
 50
278.232122
 51
300.853005
  0
ARC
  8
APS_GEOMETR�
 10
999.3198
 20
753.043705
 40
62.21116
 50
300.398609
 51
329.614779
  0
ARC
  8
APS_GEOMETR�
 10
1044.831898
 20
700.628329
 40
22.479272
 50
68.731805
 51
87.923651
  0
ARC
  8
APS_GEOMETR�
 10
1044.682243
 20
699.917093
 40
23.195793
 50
87.617881
 51
106.408784
  0
ARC
  8
APS_GEOMETR�
 10
1043.310772
 20
704.186447
 40
18.713224
 50
106.073308
 51
127.784672
  0
ARC
  8
APS_GEOMETR�
 10
1009.803303
 20
765.370778
 40
51.364736
 50
270.9744
 51
295.412125
  0
ARC
  8
APS_GEOMETR�
 10
1009.215826
 20
766.547972
 40
52.554813
 50
247.530995
 51
271.592968
  0
ARC
  8
APS_GEOMETR�
 10
979.076049
 20
740.881207
 40
25.00849
 50
293.705211
 51
319.465362
  0
ARC
  8
APS_GEOMETR�
 10
985.231788
 20
735.635945
 40
16.921116
 50
319.417303
 51
352.923941
  0
ARC
  8
APS_GEOMETR�
 10
986.539067
 20
735.189
 40
15.5713
 50
353.963484
 51
29.396975
  0
ARC
  8
APS_GEOMETR�
 10
981.331168
 20
732.103769
 40
21.623439
 50
29.745779
 51
58.15566
  0
ARC
  8
APS_GEOMETR�
 10
975.965769
 20
723.878579
 40
31.442223
 50
57.758217
 51
79.837755
  0
ARC
  8
APS_GEOMETR�
 10
969.553092
 20
753.405712
 40
12.04444
 50
335.269177
 51
6.779486
  0
ARC
  8
APS_GEOMETR�
 10
966.325534
 20
755.000137
 40
15.643319
 50
308.472985
 51
334.910521
  0
ARC
  8
APS_GEOMETR�
 10
962.103392
 20
760.171561
 40
22.318997
 50
287.876498
 51
308.699261
  0
ARC
  8
APS_GEOMETR�
 10
960.26551
 20
765.413184
 40
27.872076
 50
270.230198
 51
288.164598
  0
ARC
  8
APS_GEOMETR�
 10
895.662784
 20
673.947462
 40
90.731328
 50
44.499507
 51
66.476536
  0
ARC
  8
APS_GEOMETR�
 10
883.758704
 20
648.093337
 40
119.189589
 50
66.19013
 51
75.338304
  0
ARC
  8
APS_GEOMETR�
 10
883.758704
 20
648.093337
 40
119.189589
 50
75.338304
 51
84.486479
  0
ARC
  8
APS_GEOMETR�
 10
882.312209
 20
638.860164
 40
128.520214
 50
84.24009
 51
92.939255
  0
ARC
  8
APS_GEOMETR�
 10
882.259346
 20
639.524935
 40
127.853609
 50
92.930872
 51
101.660281
  0
ARC
  8
APS_GEOMETR�
 10
859.78457
 20
762.988768
 40
3.793901
 50
152.509331
 51
183.478417
  0
ARC
  8
APS_GEOMETR�
 10
859.952508
 20
763.049833
 40
3.965559
 50
184.211878
 51
214.274678
  0
ARC
  8
APS_GEOMETR�
 10
861.196921
 20
763.909523
 40
5.478029
 50
214.375065
 51
238.575081
  0
ARC
  8
APS_GEOMETR�
 10
862.333343
 20
765.699842
 40
7.598347
 50
238.301372
 51
257.72634
  0
ARC
  8
APS_GEOMETR�
 10
862.650254
 20
766.960881
 40
8.898029
 50
257.45851
 51
274.927782
  0
ARC
  8
APS_GEOMETR�
 10
869.340135
 20
638.10052
 40
120.141438
 50
83.854188
 51
92.827053
  0
ARC
  8
APS_GEOMETR�
 10
1030.451137
 20
794.562794
 40
200.357444
 50
269.160814
 51
276.052713
  0
ARC
  8
APS_GEOMETR�
 10
1013.019498
 20
583.510048
 40
18.028263
 50
1.763654
 51
36.473
  0
ARC
  8
APS_GEOMETR�
 10
1013.289321
 20
583.862578
 40
17.751054
 50
325.580006
 51
0.653052
  0
ARC
  8
APS_GEOMETR�
 10
1039.757395
 20
508.584548
 40
66.307086
 50
83.097092
 51
100.272851
  0
ARC
  8
APS_GEOMETR�
 10
1040.68226
 20
514.053485
 40
60.767195
 50
65.130262
 51
83.343055
  0
ARC
  8
APS_GEOMETR�
 10
1047.090109
 20
527.349253
 40
46.010065
 50
43.451741
 51
65.40672
  0
ARC
  8
APS_GEOMETR�
 10
1097.008215
 20
439.015933
 40
121.108027
 50
79.056698
 51
97.838525
  0
LINE
  8
APS_GEOMETR�
 10
1119.999062
 11
1120.001011
 20
557.921673
 21
586.724356
  0
LINE
  8
APS_GEOMETR�
 10
1120.001011
 11
1120.002961
 20
586.724356
 21
615.527039
  0
ARC
  8
APS_GEOMETR�
 10
1032.089469
 20
787.904045
 40
193.500941
 50
282.913498
 51
297.021903
  0
ARC
  8
APS_GEOMETR�
 10
1030.451137
 20
794.562794
 40
200.357444
 50
276.052713
 51
282.944612
  0
ARC
  8
APS_GEOMETR�
 10
975.923464
 20
638.259545
 40
70.291605
 50
264.747322
 51
267.37293
  0
ARC
  8
APS_GEOMETR�
 10
972.876769
 20
605.235641
 40
37.127462
 50
257.498025
 51
264.763717
  0
ARC
  8
APS_GEOMETR�
 10
968.06418
 20
583.781573
 40
15.140402
 50
242.058807
 51
257.703295
  0
ARC
  8
APS_GEOMETR�
 10
961.654131
 20
571.732008
 40
1.492036
 50
215.536406
 51
242.704626
  0
ARC
  8
APS_GEOMETR�
 10
961.279801
 20
571.461762
 40
1.030356
 50
180.550068
 51
215.406093
  0
ARC
  8
APS_GEOMETR�
 10
961.279872
 20
571.441831
 40
1.030429
 50
144.587438
 51
179.441809
  0
ARC
  8
APS_GEOMETR�
 10
961.654268
 20
571.171486
 40
1.492219
 50
117.291506
 51
144.457473
  0
ARC
  8
APS_GEOMETR�
 10
968.063985
 20
559.120551
 40
15.141638
 50
102.293636
 51
117.937268
  0
ARC
  8
APS_GEOMETR�
 10
972.875429
 20
537.666028
 40
37.128893
 50
95.233336
 51
102.498841
  0
ARC
  8
APS_GEOMETR�
 10
975.919189
 20
504.668103
 40
70.266896
 50
89.997612
 51
95.250676
  0
ARC
  8
APS_GEOMETR�
 10
975.921461
 20
504.668213
 40
70.266786
 50
84.746394
 51
89.999464
  0
ARC
  8
APS_GEOMETR�
 10
978.967017
 20
537.667299
 40
37.127462
 50
77.498025
 51
84.763717
  0
ARC
  8
APS_GEOMETR�
 10
983.779605
 20
559.121366
 40
15.140402
 50
62.058807
 51
77.703295
  0
ARC
  8
APS_GEOMETR�
 10
990.189655
 20
571.170932
 40
1.492036
 50
35.536406
 51
62.704626
  0
ARC
  8
APS_GEOMETR�
 10
990.563985
 20
571.441178
 40
1.030356
 50
0.550068
 51
35.406093
  0
ARC
  8
APS_GEOMETR�
 10
990.563914
 20
571.461108
 40
1.030429
 50
324.587438
 51
359.441809
  0
ARC
  8
APS_GEOMETR�
 10
990.189518
 20
571.731454
 40
1.492219
 50
297.291506
 51
324.457473
  0
ARC
  8
APS_GEOMETR�
 10
983.779801
 20
583.782389
 40
15.141638
 50
282.293636
 51
297.937268
  0
ARC
  8
APS_GEOMETR�
 10
978.968357
 20
605.236912
 40
37.128893
 50
275.233336
 51
282.498841
  0
ARC
  8
APS_GEOMETR�
 10
975.923464
 20
638.259545
 40
70.291605
 50
269.998537
 51
275.249752
  0
ARC
  8
APS_GEOMETR�
 10
975.923464
 20
638.259545
 40
70.291605
 50
267.37293
 51
269.998537
  0
ARC
  8
APS_GEOMETR�
 10
989.27081
 20
746.160579
 40
158.420059
 50
266.488913
 51
268.243725
  0
ARC
  8
APS_GEOMETR�
 10
984.534144
 20
669.083578
 40
81.197653
 50
261.579446
 51
266.49417
  0
ARC
  8
APS_GEOMETR�
 10
977.282718
 20
620.410738
 40
31.987662
 50
250.424662
 51
261.661315
  0
ARC
  8
APS_GEOMETR�
 10
967.033731
 20
591.629018
 40
1.435655
 50
227.797479
 51
250.959959
  0
ARC
  8
APS_GEOMETR�
 10
966.721245
 20
591.290058
 40
0.974656
 50
197.964873
 51
228.019906
  0
ARC
  8
APS_GEOMETR�
 10
966.5503
 20
591.224597
 40
0.791912
 50
162.717902
 51
197.274342
  0
ARC
  8
APS_GEOMETR�
 10
966.721342
 20
591.159084
 40
0.974765
 50
131.9749
 51
162.027673
  0
ARC
  8
APS_GEOMETR�
 10
967.033833
 20
590.820062
 40
1.435813
 50
109.036721
 51
132.197483
  0
ARC
  8
APS_GEOMETR�
 10
977.281678
 20
562.036092
 40
31.989557
 50
98.335701
 51
109.571909
  0
ARC
  8
APS_GEOMETR�
 10
984.530554
 20
513.362643
 40
81.199776
 50
93.502895
 51
98.417533
  0
ARC
  8
APS_GEOMETR�
 10
989.262406
 20
436.312397
 40
158.395182
 50
89.998261
 51
93.508437
  0
ARC
  8
APS_GEOMETR�
 10
989.263935
 20
436.312563
 40
158.395015
 50
86.488636
 51
89.998814
  0
ARC
  8
APS_GEOMETR�
 10
993.999832
 20
513.36452
 40
81.197653
 50
81.579446
 51
86.49417
  0
ARC
  8
APS_GEOMETR�
 10
1001.251258
 20
562.03736
 40
31.987662
 50
70.424662
 51
81.661315
  0
ARC
  8
APS_GEOMETR�
 10
1011.500246
 20
590.81908
 40
1.435655
 50
47.797479
 51
70.959959
  0
ARC
  8
APS_GEOMETR�
 10
1011.812732
 20
591.15804
 40
0.974656
 50
17.964873
 51
48.019906
  0
ARC
  8
APS_GEOMETR�
 10
1011.983677
 20
591.223501
 40
0.791912
 50
342.717902
 51
17.274342
  0
ARC
  8
APS_GEOMETR�
 10
1011.812635
 20
591.289013
 40
0.974765
 50
311.9749
 51
342.027673
  0
ARC
  8
APS_GEOMETR�
 10
1011.500144
 20
591.628036
 40
1.435813
 50
289.036721
 51
312.197483
  0
ARC
  8
APS_GEOMETR�
 10
1001.252298
 20
620.412006
 40
31.989557
 50
278.335701
 51
289.571909
  0
ARC
  8
APS_GEOMETR�
 10
994.003423
 20
669.085455
 40
81.199776
 50
273.502895
 51
278.417533
  0
ARC
  8
APS_GEOMETR�
 10
989.27081
 20
746.160579
 40
158.420059
 50
269.998537
 51
273.508161
  0
ARC
  8
APS_GEOMETR�
 10
989.27081
 20
746.160579
 40
158.420059
 50
268.243725
 51
269.998537
  0
ARC
  8
APS_GEOMETR�
 10
923.447866
 20
1062.352742
 40
517.863672
 50
267.48918
 51
268.743859
  0
ARC
  8
APS_GEOMETR�
 10
912.240817
 20
806.983097
 40
262.248232
 50
263.960261
 51
267.491156
  0
ARC
  8
APS_GEOMETR�
 10
895.416846
 20
648.553132
 40
102.927515
 50
255.710091
 51
263.994143
  0
ARC
  8
APS_GEOMETR�
 10
870.542683
 20
551.009204
 40
2.262197
 50
230.374291
 51
256.417532
  0
ARC
  8
APS_GEOMETR�
 10
870.019118
 20
550.392812
 40
1.453557
 50
195.671512
 51
230.774307
  0
ARC
  8
APS_GEOMETR�
 10
870.019221
 20
549.607308
 40
1.453718
 50
129.220701
 51
164.320868
  0
ARC
  8
APS_GEOMETR�
 10
870.542782
 20
548.990825
 40
2.262425
 50
103.579461
 51
129.620927
  0
ARC
  8
APS_GEOMETR�
 10
895.412556
 20
451.441351
 40
102.932033
 50
96.002903
 51
104.286712
  0
ARC
  8
APS_GEOMETR�
 10
912.228311
 20
293.010099
 40
262.253161
 50
92.505914
 51
96.036764
  0
ARC
  8
APS_GEOMETR�
 10
923.421218
 20
37.686346
 40
517.822134
 50
89.998436
 51
92.507995
  0
ARC
  8
APS_GEOMETR�
 10
923.423047
 20
37.686735
 40
517.821745
 50
87.489078
 51
89.998638
  0
ARC
  8
APS_GEOMETR�
 10
934.629177
 20
293.014453
 40
262.248232
 50
83.960261
 51
87.491156
  0
ARC
  8
APS_GEOMETR�
 10
951.453148
 20
451.444419
 40
102.927515
 50
75.710091
 51
83.994143
  0
ARC
  8
APS_GEOMETR�
 10
976.327311
 20
548.988347
 40
2.262197
 50
50.374291
 51
76.417532
  0
ARC
  8
APS_GEOMETR�
 10
976.850876
 20
549.604739
 40
1.453557
 50
15.671512
 51
50.774307
  0
ARC
  8
APS_GEOMETR�
 10
976.850772
 20
550.390243
 40
1.453718
 50
309.220701
 51
344.320868
  0
ARC
  8
APS_GEOMETR�
 10
976.327211
 20
551.006726
 40
2.262425
 50
283.579461
 51
309.620927
  0
ARC
  8
APS_GEOMETR�
 10
951.457437
 20
648.556199
 40
102.932033
 50
276.002903
 51
284.286712
  0
ARC
  8
APS_GEOMETR�
 10
934.641682
 20
806.987451
 40
262.253161
 50
272.505914
 51
276.036764
  0
ARC
  8
APS_GEOMETR�
 10
923.447866
 20
1062.352742
 40
517.863672
 50
269.998537
 51
272.507894
  0
ARC
  8
APS_GEOMETR�
 10
923.447866
 20
1062.352742
 40
517.863672
 50
268.743859
 51
269.998537
  0
LINE
  8
APS_GEOMETR�
 10
986.616322
 11
1031.066452
 20
80.023479
 21
80.022344
  0
LINE
  8
APS_GEOMETR�
 10
1031.066452
 11
1075.516582
 20
80.022344
 21
80.021209
  0
LINE
  8
APS_GEOMETR�
 10
1075.516582
 11
1119.966712
 20
80.021209
 21
80.020074
  0
LINE
  8
APS_GEOMETR�
 10
1119.966712
 11
1119.968722
 20
80.020074
 21
109.70818
  0
ARC
  8
APS_GEOMETR�
 10
1070.536784
 20
257.785437
 40
156.110187
 50
267.131011
 51
288.460315
  0
ARC
  8
APS_GEOMETR�
 10
1069.050999
 20
251.389839
 40
149.652764
 50
245.630704
 51
267.576589
  0
ARC
  8
APS_GEOMETR�
 10
992.927527
 20
85.485069
 40
32.892436
 50
64.086793
 51
91.336492
  0
ARC
  8
APS_GEOMETR�
 10
962.912337
 20
125.017293
 40
29.99419
 50
323.407952
 51
347.19301
  0
ARC
  8
APS_GEOMETR�
 10
962.289954
 20
125.470882
 40
30.764292
 50
300.029922
 51
323.420661
  0
ARC
  8
APS_GEOMETR�
 10
889.50575
 20
222.396913
 40
151.799189
 50
290.298346
 51
305.513921
  0
LINE
  8
APS_GEOMETR�
 10
942.166192
 11
986.616322
 20
80.024614
 21
80.023479
  0
ARC
  8
APS_GEOMETR�
 10
869.318024
 20
461.903046
 40
120.144683
 50
276.142831
 51
285.115533
  0
ARC
  8
APS_GEOMETR�
 10
875.26235
 20
441.833087
 40
99.220312
 50
284.823858
 51
305.232761
  0
ARC
  8
APS_GEOMETR�
 10
892.414816
 20
418.114623
 40
69.952227
 50
304.96474
 51
330.776583
  0
ARC
  8
APS_GEOMETR�
 10
907.961586
 20
409.153359
 40
52.009684
 50
331.030522
 51
2.526885
  0
ARC
  8
APS_GEOMETR�
 10
981.537443
 20
310.090442
 40
103.635456
 50
81.326897
 51
102.03941
  0
ARC
  8
APS_GEOMETR�
 10
984.141053
 20
322.547768
 40
90.930626
 50
59.142919
 51
81.765021
  0
ARC
  8
APS_GEOMETR�
 10
999.299605
 20
346.957264
 40
62.203469
 50
30.378662
 51
59.597265
  0
ARC
  8
APS_GEOMETR�
 10
1044.809521
 20
399.36415
 40
22.480402
 50
272.073551
 51
291.264747
  0
ARC
  8
APS_GEOMETR�
 10
1044.659972
 20
400.073551
 40
23.19508
 50
253.588023
 51
272.379316
  0
ARC
  8
APS_GEOMETR�
 10
1043.287932
 20
395.803132
 40
18.71132
 50
232.210668
 51
253.923519
  0
ARC
  8
APS_GEOMETR�
 10
1009.778719
 20
334.625257
 40
51.361838
 50
64.584231
 51
89.02289
  0
ARC
  8
APS_GEOMETR�
 10
1009.191066
 20
333.442816
 40
52.557192
 50
88.404317
 51
112.465552
  0
ARC
  8
APS_GEOMETR�
 10
979.053069
 20
359.116359
 40
25.0055
 50
40.528959
 51
66.291184
  0
ARC
  8
APS_GEOMETR�
 10
985.208152
 20
364.360118
 40
16.919602
 50
7.068084
 51
40.576735
  0
ARC
  8
APS_GEOMETR�
 10
986.513247
 20
364.806657
 40
15.572042
 50
330.596032
 51
6.028392
  0
ARC
  8
APS_GEOMETR�
 10
981.303978
 20
367.893361
 40
21.626112
 50
301.840092
 51
330.247609
  0
ARC
  8
APS_GEOMETR�
 10
975.939145
 20
376.118927
 40
31.444902
 50
280.159322
 51
302.237591
  0
ARC
  8
APS_GEOMETR�
 10
969.526008
 20
346.590498
 40
12.043989
 50
353.21248
 51
24.723578
  0
ARC
  8
APS_GEOMETR�
 10
966.299578
 20
344.997022
 40
15.641436
 50
25.08251
 51
51.522183
  0
ARC
  8
APS_GEOMETR�
 10
962.07732
 20
339.82629
 40
22.316651
 50
51.295992
 51
72.120227
  0
ARC
  8
APS_GEOMETR�
 10
960.238759
 20
334.583602
 40
27.87096
 50
71.832111
 51
89.766995
  0
ARC
  8
APS_GEOMETR�
 10
895.635742
 20
426.061687
 40
90.741957
 50
293.519853
 51
315.495152
  0
ARC
  8
APS_GEOMETR�
 10
883.73456
 20
451.913586
 40
119.196984
 50
284.658461
 51
293.806253
  0
ARC
  8
APS_GEOMETR�
 10
883.73456
 20
451.913586
 40
119.196984
 50
275.510668
 51
284.658461
  0
ARC
  8
APS_GEOMETR�
 10
882.289414
 20
461.138145
 40
128.518877
 50
267.05781
 51
275.757037
  0
ARC
  8
APS_GEOMETR�
 10
882.236484
 20
460.472718
 40
127.851612
 50
258.336693
 51
267.066193
  0
ARC
  8
APS_GEOMETR�
 10
859.755547
 20
337.011706
 40
3.793713
 50
176.513523
 51
207.483633
  0
ARC
  8
APS_GEOMETR�
 10
859.923964
 20
336.950588
 40
3.96586
 50
145.718855
 51
175.780125
  0
ARC
  8
APS_GEOMETR�
 10
861.168607
 20
336.090561
 40
5.478711
 50
121.420714
 51
145.618707
  0
ARC
  8
APS_GEOMETR�
 10
862.304896
 20
334.300175
 40
7.599013
 50
102.270631
 51
121.694452
  0
ARC
  8
APS_GEOMETR�
 10
862.621628
 20
333.039624
 40
8.898179
 50
85.069369
 51
102.538444
  0
ARC
  8
APS_GEOMETR�
 10
869.318024
 20
461.903046
 40
120.144683
 50
267.170129
 51
276.142831
  0
ARC
  8
APS_GEOMETR�
 10
1030.435639
 20
305.439544
 40
200.347205
 50
83.94437
 51
90.836509
  0
ARC
  8
APS_GEOMETR�
 10
1013.01362
 20
516.484599
 40
18.029609
 50
323.520631
 51
358.228239
  0
ARC
  8
APS_GEOMETR�
 10
1013.285924
 20
516.131985
 40
17.749867
 50
359.338812
 51
34.413431
  0
ARC
  8
APS_GEOMETR�
 10
1039.757465
 20
591.406566
 40
66.306591
 50
259.724176
 51
276.900021
  0
ARC
  8
APS_GEOMETR�
 10
1040.681518
 20
585.942069
 40
60.771219
 50
276.654068
 51
294.86605
  0
ARC
  8
APS_GEOMETR�
 10
1047.08793
 20
572.647203
 40
46.015525
 50
294.589595
 51
316.542824
  0
ARC
  8
APS_GEOMETR�
 10
1097.013153
 20
660.973591
 40
121.108859
 50
262.158589
 51
280.940329
  0
LINE
  8
APS_GEOMETR�
 10
1119.997988
 11
1119.996039
 20
542.065841
 21
513.263158
  0
LINE
  8
APS_GEOMETR�
 10
1119.996039
 11
1119.994089
 20
513.263158
 21
484.460475
  0
ARC
  8
APS_GEOMETR�
 10
1032.074651
 20
312.09956
 40
193.489309
 50
62.974363
 51
77.083346
  0
ARC
  8
APS_GEOMETR�
 10
1030.435639
 20
305.439544
 40
200.347205
 50
77.05223
 51
83.94437
  0
ARC
  8
APS_GEOMETR�
 10
975.917417
 20
461.735325
 40
70.291605
 50
92.624145
 51
95.249752
  0
ARC
  8
APS_GEOMETR�
 10
972.872525
 20
494.757959
 40
37.128893
 50
95.233336
 51
102.498841
  0
ARC
  8
APS_GEOMETR�
 10
968.061081
 20
516.212482
 40
15.141638
 50
102.293636
 51
117.937268
  0
ARC
  8
APS_GEOMETR�
 10
961.651363
 20
528.263417
 40
1.492219
 50
117.291506
 51
144.457473
  0
ARC
  8
APS_GEOMETR�
 10
961.276968
 20
528.533762
 40
1.030429
 50
144.587438
 51
179.441809
  0
ARC
  8
APS_GEOMETR�
 10
961.276897
 20
528.553693
 40
1.030356
 50
180.550068
 51
215.406093
  0
ARC
  8
APS_GEOMETR�
 10
961.651227
 20
528.823939
 40
1.492036
 50
215.536406
 51
242.704626
  0
ARC
  8
APS_GEOMETR�
 10
968.061276
 20
540.873504
 40
15.140402
 50
242.058807
 51
257.703295
  0
ARC
  8
APS_GEOMETR�
 10
972.873864
 20
562.327572
 40
37.127462
 50
257.498025
 51
264.763717
  0
ARC
  8
APS_GEOMETR�
 10
975.919421
 20
595.326657
 40
70.266786
 50
264.746394
 51
269.999464
  0
ARC
  8
APS_GEOMETR�
 10
975.921692
 20
595.326768
 40
70.266896
 50
269.997612
 51
275.250676
  0
ARC
  8
APS_GEOMETR�
 10
978.965452
 20
562.328843
 40
37.128893
 50
275.233336
 51
282.498841
  0
ARC
  8
APS_GEOMETR�
 10
983.776896
 20
540.87432
 40
15.141638
 50
282.293636
 51
297.937268
  0
ARC
  8
APS_GEOMETR�
 10
990.186614
 20
528.823385
 40
1.492219
 50
297.291506
 51
324.457473
  0
ARC
  8
APS_GEOMETR�
 10
990.561009
 20
528.553039
 40
1.030429
 50
324.587438
 51
359.441809
  0
ARC
  8
APS_GEOMETR�
 10
990.561081
 20
528.533109
 40
1.030356
 50
0.550068
 51
35.406093
  0
ARC
  8
APS_GEOMETR�
 10
990.18675
 20
528.262863
 40
1.492036
 50
35.536406
 51
62.704626
  0
ARC
  8
APS_GEOMETR�
 10
983.776701
 20
516.213297
 40
15.140402
 50
62.058807
 51
77.703295
  0
ARC
  8
APS_GEOMETR�
 10
978.964113
 20
494.75923
 40
37.127462
 50
77.498025
 51
84.763717
  0
ARC
  8
APS_GEOMETR�
 10
975.917417
 20
461.735325
 40
70.291605
 50
84.747322
 51
89.998537
  0
ARC
  8
APS_GEOMETR�
 10
975.917417
 20
461.735325
 40
70.291605
 50
89.998537
 51
92.624145
  0
ARC
  8
APS_GEOMETR�
 10
989.257586
 20
353.833611
 40
158.420059
 50
91.753349
 51
93.508161
  0
ARC
  8
APS_GEOMETR�
 10
984.524973
 20
430.908734
 40
81.199776
 50
93.502895
 51
98.417533
  0
ARC
  8
APS_GEOMETR�
 10
977.276097
 20
479.582184
 40
31.989557
 50
98.335701
 51
109.571909
  0
ARC
  8
APS_GEOMETR�
 10
967.028251
 20
508.366154
 40
1.435813
 50
109.036721
 51
132.197483
  0
ARC
  8
APS_GEOMETR�
 10
966.71576
 20
508.705176
 40
0.974765
 50
131.9749
 51
162.027673
  0
ARC
  8
APS_GEOMETR�
 10
966.544719
 20
508.770689
 40
0.791912
 50
162.717902
 51
197.274342
  0
ARC
  8
APS_GEOMETR�
 10
966.715664
 20
508.836149
 40
0.974656
 50
197.964873
 51
228.019906
  0
ARC
  8
APS_GEOMETR�
 10
967.028149
 20
509.17511
 40
1.435655
 50
227.797479
 51
250.959959
  0
ARC
  8
APS_GEOMETR�
 10
977.277137
 20
537.956829
 40
31.987662
 50
250.424662
 51
261.661315
  0
ARC
  8
APS_GEOMETR�
 10
984.528563
 20
586.629669
 40
81.197653
 50
261.579446
 51
266.49417
  0
ARC
  8
APS_GEOMETR�
 10
989.26446
 20
663.681626
 40
158.395015
 50
266.488636
 51
269.998814
  0
ARC
  8
APS_GEOMETR�
 10
989.26599
 20
663.681793
 40
158.395182
 50
269.998261
 51
273.508437
  0
ARC
  8
APS_GEOMETR�
 10
993.997841
 20
586.631547
 40
81.199776
 50
273.502895
 51
278.417533
  0
ARC
  8
APS_GEOMETR�
 10
1001.246717
 20
537.958097
 40
31.989557
 50
278.335701
 51
289.571909
  0
ARC
  8
APS_GEOMETR�
 10
1011.494563
 20
509.174127
 40
1.435813
 50
289.036721
 51
312.197483
  0
ARC
  8
APS_GEOMETR�
 10
1011.807054
 20
508.835105
 40
0.974765
 50
311.9749
 51
342.027673
  0
ARC
  8
APS_GEOMETR�
 10
1011.978095
 20
508.769592
 40
0.791912
 50
342.717902
 51
17.274342
  0
ARC
  8
APS_GEOMETR�
 10
1011.80715
 20
508.704132
 40
0.974656
 50
17.964873
 51
48.019906
  0
ARC
  8
APS_GEOMETR�
 10
1011.494665
 20
508.365171
 40
1.435655
 50
47.797479
 51
70.959959
  0
ARC
  8
APS_GEOMETR�
 10
1001.245677
 20
479.583452
 40
31.987662
 50
70.424662
 51
81.661315
  0
ARC
  8
APS_GEOMETR�
 10
993.994251
 20
430.910612
 40
81.197653
 50
81.579446
 51
86.49417
  0
ARC
  8
APS_GEOMETR�
 10
989.257586
 20
353.833611
 40
158.420059
 50
86.488913
 51
89.998537
  0
ARC
  8
APS_GEOMETR�
 10
989.257586
 20
353.833611
 40
158.420059
 50
89.998537
 51
91.753349
  0
ARC
  8
APS_GEOMETR�
 10
502.832518
 20
974.640984
 40
134.678829
 50
295.395007
 51
309.413967
  0
ARC
  8
APS_GEOMETR�
 10
753.901072
 20
704.308106
 40
234.647787
 50
130.991109
 51
134.874918
  0
ARC
  8
APS_GEOMETR�
 10
446.078914
 20
704.305687
 40
234.644053
 50
45.126991
 51
49.010841
  0
ARC
  8
APS_GEOMETR�
 10
697.134621
 20
974.643068
 40
134.677124
 50
230.58801
 51
258.626175
  0
ARC
  8
APS_GEOMETR�
 10
667.01742
 20
816.265149
 40
26.584784
 50
60.673243
 51
82.30957
  0
ARC
  8
APS_GEOMETR�
 10
671.047604
 20
823.161264
 40
18.599026
 50
33.571345
 51
61.092307
  0
ARC
  8
APS_GEOMETR�
 10
675.670643
 20
826.284486
 40
13.020137
 50
358.384671
 51
33.369633
  0
ARC
  8
APS_GEOMETR�
 10
675.3162
 20
826.548342
 40
13.384283
 50
322.956436
 51
357.298308
  0
ARC
  8
APS_GEOMETR�
 10
663.741233
 20
849.100799
 40
37.851343
 50
280.647964
 51
306.017855
  0
ARC
  8
APS_GEOMETR�
 10
661.907225
 20
856.413133
 40
45.378887
 50
258.773918
 51
281.217786
  0
ARC
  8
APS_GEOMETR�
 10
684.764274
 20
826.02815
 40
34.697004
 50
204.023701
 51
232.649635
  0
ARC
  8
APS_GEOMETR�
 10
694.699172
 20
838.615118
 40
50.730945
 50
232.354522
 51
254.525419
  0
ARC
  8
APS_GEOMETR�
 10
659.457858
 20
839.014913
 40
53.859169
 50
274.310182
 51
293.766442
  0
ARC
  8
APS_GEOMETR�
 10
658.89002
 20
842.45545
 40
57.333477
 50
255.962754
 51
274.617636
  0
ARC
  8
APS_GEOMETR�
 10
656.258715
 20
833.055732
 40
47.577003
 50
235.142108
 51
256.291286
  0
ARC
  8
APS_GEOMETR�
 10
647.85022
 20
821.292274
 40
33.118891
 50
208.465093
 51
235.447379
  0
ARC
  8
APS_GEOMETR�
 10
632.049542
 20
785.853481
 40
23.738902
 50
124.115855
 51
147.364245
  0
ARC
  8
APS_GEOMETR�
 10
631.578512
 20
786.152661
 40
23.180893
 50
147.359101
 51
170.974569
  0
ARC
  8
APS_GEOMETR�
 10
647.184442
 20
799.658158
 40
39.744608
 50
194.37762
 51
222.198255
  0
ARC
  8
APS_GEOMETR�
 10
659.364982
 20
810.60274
 40
56.11976
 50
222.123088
 51
244.191894
  0
ARC
  8
APS_GEOMETR�
 10
667.742634
 20
827.1204
 40
74.638009
 50
243.922495
 51
262.144701
  0
ARC
  8
APS_GEOMETR�
 10
722.100949
 20
621.985203
 40
146.221384
 50
116.200709
 51
131.748517
  0
ARC
  8
APS_GEOMETR�
 10
714.317288
 20
630.672721
 40
134.557003
 50
131.738937
 51
148.175771
  0
ARC
  8
APS_GEOMETR�
 10
481.215033
 20
626.932042
 40
140.30812
 50
32.165143
 51
48.148118
  0
ARC
  8
APS_GEOMETR�
 10
481.215033
 20
626.932042
 40
140.30812
 50
48.148118
 51
64.131093
  0
ARC
  8
APS_GEOMETR�
 10
532.22951
 20
827.118454
 40
74.638686
 50
277.857515
 51
296.079609
  0
ARC
  8
APS_GEOMETR�
 10
540.60769
 20
810.601266
 40
56.120618
 50
295.810213
 51
317.87879
  0
ARC
  8
APS_GEOMETR�
 10
552.788861
 20
799.656858
 40
39.745114
 50
317.803602
 51
345.624002
  0
ARC
  8
APS_GEOMETR�
 10
568.396354
 20
786.151894
 40
23.180177
 50
9.02679
 51
32.642771
  0
ARC
  8
APS_GEOMETR�
 10
567.924746
 20
785.852359
 40
23.738864
 50
32.637555
 51
55.885994
  0
ARC
  8
APS_GEOMETR�
 10
552.122484
 20
821.290914
 40
33.119405
 50
304.554636
 51
331.536641
  0
ARC
  8
APS_GEOMETR�
 10
543.713531
 20
833.054124
 40
47.577582
 50
283.71091
 51
304.859913
  0
ARC
  8
APS_GEOMETR�
 10
541.081971
 20
842.45333
 40
57.33363
 50
265.384589
 51
284.039436
  0
ARC
  8
APS_GEOMETR�
 10
540.514221
 20
839.012206
 40
53.858755
 50
246.235684
 51
265.692045
  0
ARC
  8
APS_GEOMETR�
 10
505.27286
 20
838.6121
 40
50.731602
 50
285.476769
 51
307.647471
  0
ARC
  8
APS_GEOMETR�
 10
515.208287
 20
826.025376
 40
34.697525
 50
307.352346
 51
335.977992
  0
ARC
  8
APS_GEOMETR�
 10
538.06451
 20
856.410742
 40
45.378887
 50
258.784426
 51
281.228294
  0
ARC
  8
APS_GEOMETR�
 10
536.230697
 20
849.097896
 40
37.850893
 50
233.984158
 51
259.354256
  0
ARC
  8
APS_GEOMETR�
 10
524.656719
 20
826.545277
 40
13.384157
 50
182.703259
 51
217.045343
  0
ARC
  8
APS_GEOMETR�
 10
524.302509
 20
826.281419
 40
13.020237
 50
146.632103
 51
181.616889
  0
ARC
  8
APS_GEOMETR�
 10
528.925811
 20
823.158244
 40
18.599318
 50
118.909771
 51
146.430441
  0
ARC
  8
APS_GEOMETR�
 10
532.956232
 20
816.262303
 40
26.585045
 50
97.692653
 51
119.328835
  0
ARC
  8
APS_GEOMETR�
 10
502.832518
 20
974.640984
 40
134.678829
 50
281.376047
 51
295.395007
  0
ARC
  8
APS_GEOMETR�
 10
682.149468
 20
430.373813
 40
103.168719
 50
108.060139
 51
125.421486
  0
ARC
  8
APS_GEOMETR�
 10
653.335243
 20
619.35743
 40
90.953097
 50
239.287489
 51
268.002889
  0
ARC
  8
APS_GEOMETR�
 10
614.123789
 20
549.40225
 40
10.970223
 50
202.683119
 51
228.695022
  0
ARC
  8
APS_GEOMETR�
 10
613.922076
 20
549.314716
 40
10.750357
 50
176.308064
 51
202.667257
  0
ARC
  8
APS_GEOMETR�
 10
613.923341
 20
550.697601
 40
10.751517
 50
157.325834
 51
183.683068
  0
ARC
  8
APS_GEOMETR�
 10
614.124586
 20
550.610221
 40
10.970892
 50
131.299123
 51
157.309916
  0
ARC
  8
APS_GEOMETR�
 10
653.334192
 20
480.647703
 40
90.959327
 50
91.994473
 51
120.708532
  0
ARC
  8
APS_GEOMETR�
 10
682.149839
 20
669.617175
 40
103.148425
 50
234.569091
 51
251.937672
  0
ARC
  8
APS_GEOMETR�
 10
682.149839
 20
669.617175
 40
103.148425
 50
217.20051
 51
234.569091
  0
ARC
  8
APS_GEOMETR�
 10
521.02275
 20
666.33366
 40
98.621937
 50
305.294111
 51
323.197246
  0
ARC
  8
APS_GEOMETR�
 10
515.771744
 20
673.66869
 40
107.642671
 50
288.43512
 51
305.31959
  0
ARC
  8
APS_GEOMETR�
 10
546.649588
 20
480.64646
 40
90.958507
 50
59.293541
 51
88.007781
  0
ARC
  8
APS_GEOMETR�
 10
585.856071
 20
550.609648
 40
10.97104
 50
22.691852
 51
48.702432
  0
ARC
  8
APS_GEOMETR�
 10
586.057841
 20
550.697239
 40
10.751099
 50
356.318063
 51
22.67601
  0
ARC
  8
APS_GEOMETR�
 10
586.058299
 20
549.314354
 40
10.750775
 50
337.334587
 51
3.693067
  0
ARC
  8
APS_GEOMETR�
 10
585.857111
 20
549.401677
 40
10.970075
 50
311.306532
 51
337.318648
  0
ARC
  8
APS_GEOMETR�
 10
546.642534
 20
619.356187
 40
90.953917
 50
271.999364
 51
300.714585
  0
ARC
  8
APS_GEOMETR�
 10
517.83614
 20
430.372134
 40
103.167164
 50
37.218995
 51
71.942049
  0
ARC
  8
APS_GEOMETR�
 10
682.149468
 20
430.373813
 40
103.168719
 50
125.421486
 51
142.782832
  0
ARC
  8
APS_GEOMETR�
 10
422.435552
 20
584.601491
 40
43.097001
 50
275.046439
 51
280.089203
  0
ARC
  8
APS_GEOMETR�
 10
425.44683
 20
567.890078
 40
26.116517
 50
280.00762
 51
293.20325
  0
ARC
  8
APS_GEOMETR�
 10
430.675297
 20
555.967498
 40
13.09878
 50
292.730283
 51
315.511305
  0
ARC
  8
APS_GEOMETR�
 10
437.13603
 20
549.715651
 40
4.109223
 50
314.570368
 51
358.860491
  0
LINE
  8
APS_GEOMETR�
 10
441.24444
 11
441.24437
 20
549.633931
 21
550.359772
  0
ARC
  8
APS_GEOMETR�
 10
437.135711
 20
550.277231
 40
4.109489
 50
1.150882
 51
45.439053
  0
ARC
  8
APS_GEOMETR�
 10
430.675339
 20
544.023759
 40
13.099917
 50
44.497844
 51
67.27754
  0
ARC
  8
APS_GEOMETR�
 10
425.448428
 20
532.100265
 40
26.117866
 50
66.804623
 51
79.999796
  0
ARC
  8
APS_GEOMETR�
 10
422.444393
 20
515.445315
 40
43.041486
 50
79.911625
 51
90.010209
  0
ARC
  8
APS_GEOMETR�
 10
422.434567
 20
515.445639
 40
43.041162
 50
89.997128
 51
100.095762
  0
ARC
  8
APS_GEOMETR�
 10
419.428219
 20
532.101213
 40
26.116517
 50
100.00762
 51
113.20325
  0
ARC
  8
APS_GEOMETR�
 10
414.199752
 20
544.023792
 40
13.09878
 50
112.730283
 51
135.511305
  0
ARC
  8
APS_GEOMETR�
 10
407.739019
 20
550.27564
 40
4.109223
 50
134.570368
 51
178.860491
  0
LINE
  8
APS_GEOMETR�
 10
403.630609
 11
403.630679
 20
550.357359
 21
549.631519
  0
ARC
  8
APS_GEOMETR�
 10
407.739339
 20
549.714059
 40
4.109489
 50
181.150882
 51
225.439053
  0
ARC
  8
APS_GEOMETR�
 10
414.19971
 20
555.967532
 40
13.099917
 50
224.497844
 51
247.27754
  0
ARC
  8
APS_GEOMETR�
 10
419.426621
 20
567.891026
 40
26.117866
 50
246.804623
 51
259.999796
  0
ARC
  8
APS_GEOMETR�
 10
422.435552
 20
584.601491
 40
43.097001
 50
259.918146
 51
270.003675
  0
ARC
  8
APS_GEOMETR�
 10
422.435552
 20
584.601491
 40
43.097001
 50
270.003675
 51
275.046439
  0
ARC
  8
APS_GEOMETR�
 10
638.566649
 20
61.099862
 40
66.855246
 50
101.223488
 51
113.228875
  0
ARC
  8
APS_GEOMETR�
 10
624.537095
 20
131.168801
 40
4.605969
 50
282.757138
 51
302.871037
  0
ARC
  8
APS_GEOMETR�
 10
625.274451
 20
130.058235
 40
3.273052
 50
302.581464
 51
327.886434
  0
ARC
  8
APS_GEOMETR�
 10
626.02457
 20
129.578832
 40
2.382865
 50
328.061723
 51
359.379891
  0
ARC
  8
APS_GEOMETR�
 10
626.030602
 20
129.54542
 40
2.376706
 50
0.183763
 51
31.556395
  0
ARC
  8
APS_GEOMETR�
 10
625.286133
 20
129.07579
 40
3.256879
 50
31.742437
 51
57.131763
  0
ARC
  8
APS_GEOMETR�
 10
656.905966
 20
198.87654
 40
73.409158
 50
232.588934
 51
246.00504
  0
ARC
  8
APS_GEOMETR�
 10
656.905966
 20
198.87654
 40
73.409158
 50
219.172829
 51
232.588934
  0
ARC
  8
APS_GEOMETR�
 10
544.86384
 20
197.044693
 40
70.874359
 50
307.330887
 51
321.067343
  0
ARC
  8
APS_GEOMETR�
 10
541.772397
 20
201.076335
 40
75.95481
 50
294.225458
 51
307.340915
  0
ARC
  8
APS_GEOMETR�
 10
574.706466
 20
129.074765
 40
3.25693
 50
122.870272
 51
148.25933
  0
ARC
  8
APS_GEOMETR�
 10
573.961954
 20
129.544388
 40
2.376725
 50
148.445333
 51
179.817805
  0
ARC
  8
APS_GEOMETR�
 10
573.967947
 20
129.5778
 40
2.382846
 50
180.621676
 51
211.94001
  0
ARC
  8
APS_GEOMETR�
 10
574.718023
 20
130.05721
 40
3.273001
 50
212.115337
 51
237.420574
  0
ARC
  8
APS_GEOMETR�
 10
575.455339
 20
131.167801
 40
4.605915
 50
237.131004
 51
257.245062
  0
ARC
  8
APS_GEOMETR�
 10
561.428657
 20
61.099147
 40
66.854456
 50
54.767757
 51
78.778726
  0
ARC
  8
APS_GEOMETR�
 10
638.566649
 20
61.099862
 40
66.855246
 50
113.228875
 51
125.234263
  0
ARC
  8
APS_GEOMETR�
 10
697.090942
 20
125.35319
 40
134.690249
 50
101.370938
 51
115.389094
  0
ARC
  8
APS_GEOMETR�
 10
666.978849
 20
283.747498
 40
26.586809
 50
277.687573
 51
299.322788
  0
ARC
  8
APS_GEOMETR�
 10
671.008443
 20
276.851359
 40
18.601328
 50
298.903695
 51
326.422364
  0
ARC
  8
APS_GEOMETR�
 10
675.632413
 20
273.726878
 40
13.020961
 50
326.623715
 51
1.607191
  0
ARC
  8
APS_GEOMETR�
 10
675.279789
 20
273.463132
 40
13.38325
 50
2.693605
 51
37.037254
  0
ARC
  8
APS_GEOMETR�
 10
663.704538
 20
250.913422
 40
37.847871
 50
53.977674
 51
79.34914
  0
ARC
  8
APS_GEOMETR�
 10
661.869496
 20
243.597773
 40
45.378888
 50
78.779288
 51
101.223156
  0
ARC
  8
APS_GEOMETR�
 10
684.730881
 20
273.977611
 40
34.701167
 50
127.345621
 51
155.969248
  0
ARC
  8
APS_GEOMETR�
 10
694.665404
 20
261.389136
 40
50.736057
 50
105.471443
 51
127.640834
  0
ARC
  8
APS_GEOMETR�
 10
659.423601
 20
260.999314
 40
53.855956
 50
66.229957
 51
85.686999
  0
ARC
  8
APS_GEOMETR�
 10
658.855248
 20
257.554415
 40
57.334668
 50
85.379536
 51
104.034157
  0
ARC
  8
APS_GEOMETR�
 10
656.225244
 20
266.951061
 40
47.581504
 50
103.705645
 51
124.853475
  0
ARC
  8
APS_GEOMETR�
 10
647.817366
 20
278.71548
 40
33.12297
 50
124.548141
 51
151.528193
  0
ARC
  8
APS_GEOMETR�
 10
632.015308
 20
314.156625
 40
23.736615
 50
212.629426
 51
235.879367
  0
ARC
  8
APS_GEOMETR�
 10
631.543746
 20
313.857206
 40
23.178029
 50
189.017154
 51
212.634627
  0
ARC
  8
APS_GEOMETR�
 10
647.154616
 20
300.349326
 40
39.748687
 50
137.79603
 51
165.614752
  0
ARC
  8
APS_GEOMETR�
 10
659.336154
 20
289.401858
 40
56.126509
 50
115.804335
 51
137.871358
  0
ARC
  8
APS_GEOMETR�
 10
667.712101
 20
272.884987
 40
74.643283
 50
97.852395
 51
116.073735
  0
ARC
  8
APS_GEOMETR�
 10
718.753281
 20
473.076166
 40
140.316534
 50
228.151759
 51
244.123354
  0
ARC
  8
APS_GEOMETR�
 10
718.753281
 20
473.076166
 40
140.316534
 50
212.180164
 51
228.151759
  0
ARC
  8
APS_GEOMETR�
 10
485.672573
 20
469.337072
 40
134.568909
 50
311.735455
 51
328.160273
  0
ARC
  8
APS_GEOMETR�
 10
477.894324
 20
478.01964
 40
146.225992
 50
296.207984
 51
311.745022
  0
ARC
  8
APS_GEOMETR�
 10
532.277312
 20
272.883042
 40
74.642606
 50
63.928369
 51
82.149822
  0
ARC
  8
APS_GEOMETR�
 10
540.652731
 20
289.400385
 40
56.125651
 50
42.130522
 51
64.197771
  0
ARC
  8
APS_GEOMETR�
 10
552.833638
 20
300.348028
 40
39.74818
 50
14.38687
 51
42.205827
  0
ARC
  8
APS_GEOMETR�
 10
568.442945
 20
313.856441
 40
23.178745
 50
327.367245
 51
350.984204
  0
ARC
  8
APS_GEOMETR�
 10
567.97196
 20
314.155505
 40
23.736653
 50
304.122482
 51
327.372374
  0
ARC
  8
APS_GEOMETR�
 10
552.171488
 20
278.714121
 40
33.122457
 50
28.473542
 51
55.453875
  0
ARC
  8
APS_GEOMETR�
 10
543.764067
 20
266.949455
 40
47.580926
 50
55.148546
 51
76.296552
  0
ARC
  8
APS_GEOMETR�
 10
541.134318
 20
257.552297
 40
57.334514
 50
75.968034
 51
94.622689
  0
ARC
  8
APS_GEOMETR�
 10
540.565876
 20
260.996607
 40
53.85637
 50
94.315228
 51
113.772168
  0
ARC
  8
APS_GEOMETR�
 10
505.324121
 20
261.38612
 40
50.735401
 50
52.361159
 51
74.530745
  0
ARC
  8
APS_GEOMETR�
 10
515.258116
 20
273.974839
 40
34.700645
 50
24.032445
 51
52.656359
  0
ARC
  8
APS_GEOMETR�
 10
538.120325
 20
243.595384
 40
45.378888
 50
78.779056
 51
101.222924
  0
ARC
  8
APS_GEOMETR�
 10
536.285089
 20
250.910521
 40
37.848321
 50
100.65308
 51
126.024339
  0
ARC
  8
APS_GEOMETR�
 10
524.708849
 20
273.460069
 40
13.383376
 50
142.964525
 51
177.307962
  0
ARC
  8
APS_GEOMETR�
 10
524.355991
 20
273.723812
 40
13.020861
 50
178.394369
 51
213.378021
  0
ARC
  8
APS_GEOMETR�
 10
528.979699
 20
276.84834
 40
18.601036
 50
213.579423
 51
241.098382
  0
ARC
  8
APS_GEOMETR�
 10
533.009055
 20
283.744654
 40
26.586548
 50
240.67929
 51
262.31465
  0
ARC
  8
APS_GEOMETR�
 10
502.903477
 20
125.351109
 40
134.688544
 50
50.594729
 51
78.631284
  0
ARC
  8
APS_GEOMETR�
 10
753.929742
 20
395.723755
 40
234.63841
 50
225.134057
 51
229.000624
  0
ARC
  8
APS_GEOMETR�
 10
446.051828
 20
395.721335
 40
234.642144
 50
311.001326
 51
314.867852
  0
ARC
  8
APS_GEOMETR�
 10
697.090942
 20
125.35319
 40
134.690249
 50
115.389094
 51
129.407249
  0
ARC
  8
APS_GEOMETR�
 10
777.543808
 20
584.608346
 40
43.097
 50
259.913009
 51
264.955773
  0
ARC
  8
APS_GEOMETR�
 10
774.533139
 20
567.896589
 40
26.116286
 50
246.798873
 51
259.994581
  0
ARC
  8
APS_GEOMETR�
 10
769.305127
 20
555.973849
 40
13.098586
 50
224.4906
 51
247.271852
  0
ARC
  8
APS_GEOMETR�
 10
762.844715
 20
549.72189
 40
4.109181
 50
181.141059
 51
225.431477
  0
LINE
  8
APS_GEOMETR�
 10
758.736349
 11
758.736398
 20
549.64006
 21
550.3659
  0
ARC
  8
APS_GEOMETR�
 10
762.845102
 20
550.28347
 40
4.109531
 50
134.562793
 51
178.850668
  0
ARC
  8
APS_GEOMETR�
 10
769.305794
 20
544.030109
 40
13.100111
 50
112.724595
 51
135.504062
  0
ARC
  8
APS_GEOMETR�
 10
774.53316
 20
532.106776
 40
26.118096
 50
100.002405
 51
113.1975
  0
ARC
  8
APS_GEOMETR�
 10
777.537794
 20
515.452267
 40
43.041388
 50
89.992
 51
100.090598
  0
ARC
  8
APS_GEOMETR�
 10
777.54762
 20
515.452396
 40
43.041259
 50
79.906461
 51
90.00508
  0
ARC
  8
APS_GEOMETR�
 10
780.553369
 20
532.108411
 40
26.116286
 50
66.798873
 51
79.994581
  0
ARC
  8
APS_GEOMETR�
 10
785.781381
 20
544.031151
 40
13.098586
 50
44.4906
 51
67.271852
  0
ARC
  8
APS_GEOMETR�
 10
792.241793
 20
550.28311
 40
4.109181
 50
1.141059
 51
45.431477
  0
LINE
  8
APS_GEOMETR�
 10
796.350159
 11
796.35011
 20
550.36494
 21
549.6391
  0
ARC
  8
APS_GEOMETR�
 10
792.241406
 20
549.72153
 40
4.109531
 50
314.562793
 51
358.850668
  0
ARC
  8
APS_GEOMETR�
 10
785.780714
 20
555.974891
 40
13.100111
 50
292.724595
 51
315.504062
  0
ARC
  8
APS_GEOMETR�
 10
780.553348
 20
567.898224
 40
26.118096
 50
280.002405
 51
293.1975
  0
ARC
  8
APS_GEOMETR�
 10
777.543808
 20
584.608346
 40
43.097
 50
269.998537
 51
280.084066
  0
ARC
  8
APS_GEOMETR�
 10
777.543808
 20
584.608346
 40
43.097
 50
264.955773
 51
269.998537
  0
ARC
  8
APS_GEOMETR�
 10
356.259243
 20
289.704596
 40
143.214468
 50
266.738218
 51
277.510678
  0
ARC
  8
APS_GEOMETR�
 10
359.404786
 20
274.127487
 40
127.364446
 50
277.023721
 51
300.343511
  0
ARC
  8
APS_GEOMETR�
 10
407.932905
 20
151.405484
 40
20.348391
 50
7.619275
 51
38.997391
  0
ARC
  8
APS_GEOMETR�
 10
409.570585
 20
151.903686
 40
18.661164
 50
333.512924
 51
6.769799
  0
ARC
  8
APS_GEOMETR�
 10
404.059171
 20
154.830078
 40
24.899753
 50
305.74459
 51
333.142093
  0
ARC
  8
APS_GEOMETR�
 10
397.456002
 20
163.687029
 40
35.946183
 50
284.636296
 51
306.04
  0
ARC
  8
APS_GEOMETR�
 10
395.273666
 20
170.892623
 40
43.470361
 50
269.800036
 51
285.019574
  0
ARC
  8
APS_GEOMETR�
 10
389.517827
 20
0.445168
 40
127.100967
 50
87.4729
 51
91.606987
  0
ARC
  8
APS_GEOMETR�
 10
397.711496
 20
137.74274
 40
15.59628
 50
221.070684
 51
246.682052
  0
ARC
  8
APS_GEOMETR�
 10
400.102809
 20
142.889995
 40
21.270272
 50
246.254983
 51
267.036451
  0
ARC
  8
APS_GEOMETR�
 10
402.726259
 20
358.348265
 40
236.729375
 50
269.098849
 51
275.636163
  0
ARC
  8
APS_GEOMETR�
 10
402.726259
 20
358.348265
 40
236.729375
 50
275.636163
 51
282.173476
  0
ARC
  8
APS_GEOMETR�
 10
404.366299
 20
351.254726
 40
229.44953
 50
282.146675
 51
295.497089
  0
ARC
  8
APS_GEOMETR�
 10
473.723939
 20
196.150042
 40
59.740208
 50
299.494403
 51
322.399739
  0
ARC
  8
APS_GEOMETR�
 10
487.015799
 20
185.898048
 40
42.954002
 50
322.416423
 51
350.998572
  0
ARC
  8
APS_GEOMETR�
 10
490.867608
 20
184.849939
 40
38.988043
 50
351.634249
 51
22.135852
  0
ARC
  8
APS_GEOMETR�
 10
481.555206
 20
180.707665
 40
49.175975
 50
22.518024
 51
48.619705
  0
ARC
  8
APS_GEOMETR�
 10
467.900647
 20
165.525554
 40
69.594411
 50
48.447353
 51
69.1209
  0
ARC
  8
APS_GEOMETR�
 10
456.261186
 20
116.906163
 40
119.344027
 50
72.220266
 51
87.608402
  0
ARC
  8
APS_GEOMETR�
 10
462.935219
 20
198.439903
 40
37.744363
 50
92.572211
 51
124.309928
  0
ARC
  8
APS_GEOMETR�
 10
432.891066
 20
191.816333
 40
38.804191
 50
47.611366
 51
76.939719
  0
ARC
  8
APS_GEOMETR�
 10
443.067662
 20
202.719761
 40
23.891001
 50
7.28464
 51
48.008784
  0
ARC
  8
APS_GEOMETR�
 10
447.417098
 20
207.41301
 40
19.42014
 50
317.565647
 51
355.084918
  0
ARC
  8
APS_GEOMETR�
 10
441.103771
 20
212.680653
 40
27.636518
 50
298.378995
 51
318.3371
  0
ARC
  8
APS_GEOMETR�
 10
422.090855
 20
252.483547
 40
71.726338
 50
278.655758
 51
296.62902
  0
ARC
  8
APS_GEOMETR�
 10
420.531843
 20
260.595536
 40
79.981204
 50
262.150165
 51
278.885297
  0
ARC
  8
APS_GEOMETR�
 10
419.237102
 20
253.331566
 40
72.609051
 50
244.521204
 51
262.379412
  0
ARC
  8
APS_GEOMETR�
 10
411.479006
 20
237.624158
 40
55.092472
 50
223.282226
 51
244.777681
  0
ARC
  8
APS_GEOMETR�
 10
399.458474
 20
213.220223
 40
31.104674
 50
170.417379
 51
205.451326
  0
ARC
  8
APS_GEOMETR�
 10
403.419987
 20
211.975113
 40
35.222768
 50
137.26867
 51
169.492962
  0
ARC
  8
APS_GEOMETR�
 10
419.983761
 20
200.071077
 40
55.523311
 50
116.433744
 51
139.844705
  0
ARC
  8
APS_GEOMETR�
 10
429.087164
 20
182.664143
 40
75.16392
 50
97.641502
 51
116.740733
  0
ARC
  8
APS_GEOMETR�
 10
430.576705
 20
174.590981
 40
83.364431
 50
80.103591
 51
97.918338
  0
ARC
  8
APS_GEOMETR�
 10
458.742719
 20
291.302466
 40
37.253144
 50
219.887673
 51
248.193753
  0
ARC
  8
APS_GEOMETR�
 10
448.908837
 20
283.090146
 40
24.441142
 50
182.287284
 51
219.899344
  0
ARC
  8
APS_GEOMETR�
 10
448.40538
 20
282.47499
 40
23.920926
 50
142.701644
 51
180.863006
  0
ARC
  8
APS_GEOMETR�
 10
435.216075
 20
154.502537
 40
142.587339
 50
92.347169
 51
113.093622
  0
ARC
  8
APS_GEOMETR�
 10
419.803381
 20
188.638148
 40
105.144741
 50
112.663986
 51
138.135232
  0
ARC
  8
APS_GEOMETR�
 10
394.166976
 20
211.4626
 40
70.820369
 50
138.045254
 51
171.278
  0
ARC
  8
APS_GEOMETR�
 10
381.349547
 20
213.425368
 40
57.853529
 50
171.274465
 51
197.967456
  0
ARC
  8
APS_GEOMETR�
 10
307.158116
 20
248.608894
 40
56.384922
 50
267.866284
 51
289.864379
  0
ARC
  8
APS_GEOMETR�
 10
306.634182
 20
246.899825
 40
54.659466
 50
245.883936
 51
268.348413
  0
ARC
  8
APS_GEOMETR�
 10
299.880917
 20
232.713702
 40
38.953955
 50
218.191765
 51
246.424604
  0
ARC
  8
APS_GEOMETR�
 10
299.843487
 20
196.657958
 40
32.837902
 50
158.620794
 51
191.692074
  0
ARC
  8
APS_GEOMETR�
 10
304.624437
 20
198.144435
 40
37.824021
 50
192.429446
 51
222.505076
  0
ARC
  8
APS_GEOMETR�
 10
348.542603
 20
263.079333
 40
115.517234
 50
231.568714
 51
256.476456
  0
ARC
  8
APS_GEOMETR�
 10
356.259243
 20
289.704596
 40
143.214468
 50
255.965758
 51
266.738218
  0
ARC
  8
APS_GEOMETR�
 10
1003.52485
 20
775.529758
 40
115.442349
 50
247.178893
 51
256.36103
  0
ARC
  8
APS_GEOMETR�
 10
933.14219
 20
687.351326
 40
31.43223
 50
298.859013
 51
324.557432
  0
ARC
  8
APS_GEOMETR�
 10
926.817647
 20
698.26271
 40
44.041952
 50
278.732181
 51
299.21372
  0
ARC
  8
APS_GEOMETR�
 10
943.227094
 20
674.014411
 40
21.595835
 50
243.241315
 51
270.856941
  0
ARC
  8
APS_GEOMETR�
 10
942.160472
 20
625.769497
 40
26.687697
 50
64.450071
 51
87.015305
  0
ARC
  8
APS_GEOMETR�
 10
945.726645
 20
632.824966
 40
18.784912
 50
36.385258
 51
64.982106
  0
ARC
  8
APS_GEOMETR�
 10
950.649592
 20
636.489569
 40
12.647861
 50
358.916531
 51
36.250143
  0
ARC
  8
APS_GEOMETR�
 10
967.867078
 20
645.642667
 40
10.44589
 50
244.044477
 51
262.430211
  0
ARC
  8
APS_GEOMETR�
 10
968.059839
 20
646.712679
 40
11.532079
 50
262.181172
 51
279.384477
  0
ARC
  8
APS_GEOMETR�
 10
968.314026
 20
645.450874
 40
10.245813
 50
279.132626
 51
297.75882
  0
ARC
  8
APS_GEOMETR�
 10
969.58324
 20
643.117878
 40
7.590259
 50
297.482899
 51
320.267502
  0
ARC
  8
APS_GEOMETR�
 10
971.276055
 20
641.714304
 40
5.391251
 50
320.239294
 51
348.906578
  0
ARC
  8
APS_GEOMETR�
 10
984.293459
 20
638.270644
 40
8.092914
 50
135.195027
 51
162.702197
  0
ARC
  8
APS_GEOMETR�
 10
986.731468
 20
635.883936
 40
11.504634
 50
113.597269
 51
135.317851
  0
ARC
  8
APS_GEOMETR�
 10
988.228148
 20
632.639927
 40
15.076691
 50
95.761695
 51
113.874449
  0
ARC
  8
APS_GEOMETR�
 10
980.421005
 20
626.396355
 40
22.156731
 50
52.200438
 51
73.498044
  0
ARC
  8
APS_GEOMETR�
 10
984.625103
 20
631.702939
 40
15.387144
 50
25.247193
 51
52.459222
  0
ARC
  8
APS_GEOMETR�
 10
987.882181
 20
633.328168
 40
11.748272
 50
352.23388
 51
24.85334
  0
ARC
  8
APS_GEOMETR�
 10
981.897735
 20
635.59273
 40
18.041009
 50
308.321587
 51
347.67133
  0
ARC
  8
APS_GEOMETR�
 10
974.751185
 20
644.189006
 40
29.217857
 50
280.470465
 51
308.863692
  0
ARC
  8
APS_GEOMETR�
 10
1002.556576
 20
732.699521
 40
119.380519
 50
259.138435
 51
276.31714
  0
ARC
  8
APS_GEOMETR�
 10
1004.032101
 20
723.651004
 40
110.225595
 50
276.072342
 51
294.197176
  0
ARC
  8
APS_GEOMETR�
 10
1058.235129
 20
648.573067
 40
27.015002
 50
228.802407
 51
250.486096
  0
ARC
  8
APS_GEOMETR�
 10
1052.738623
 20
642.395801
 40
18.746767
 50
201.290119
 51
229.007486
  0
ARC
  8
APS_GEOMETR�
 10
1049.178992
 20
640.872803
 40
14.877619
 50
168.430569
 51
200.802594
  0
ARC
  8
APS_GEOMETR�
 10
1051.284025
 20
640.23041
 40
17.069976
 50
138.217418
 51
167.735194
  0
ARC
  8
APS_GEOMETR�
 10
1056.817231
 20
635.328301
 40
24.462293
 50
115.111474
 51
138.290986
  0
ARC
  8
APS_GEOMETR�
 10
1060.530997
 20
627.826856
 40
32.831271
 50
96.404521
 51
115.424359
  0
ARC
  8
APS_GEOMETR�
 10
1079.068859
 20
574.462402
 40
88.810287
 50
83.09154
 51
104.475867
  0
ARC
  8
APS_GEOMETR�
 10
1080.807488
 20
583.334699
 40
79.795998
 50
60.578698
 51
83.564594
  0
LINE
  8
APS_GEOMETR�
 10
1120.005487
 11
1120.00717
 20
652.839506
 21
677.70442
  0
LINE
  8
APS_GEOMETR�
 10
1120.00717
 11
1120.008853
 20
677.70442
 21
702.569333
  0
ARC
  8
APS_GEOMETR�
 10
1109.573089
 20
761.178077
 40
59.530581
 50
263.9318
 51
280.096169
  0
ARC
  8
APS_GEOMETR�
 10
1108.826105
 20
756.326896
 40
54.628101
 50
247.050724
 51
264.173001
  0
ARC
  8
APS_GEOMETR�
 10
1113.876804
 20
691.442005
 40
30.115983
 50
151.043356
 51
176.611376
  0
ARC
  8
APS_GEOMETR�
 10
1113.78143
 20
691.467615
 40
30.019269
 50
176.649411
 51
202.271359
  0
LINE
  8
APS_GEOMETR�
 10
1086.00162
 11
1081.8693
 20
680.090504
 21
670.080699
  0
ARC
  8
APS_GEOMETR�
 10
1083.498717
 20
710.104236
 40
40.056691
 50
238.238826
 51
267.668693
  0
ARC
  8
APS_GEOMETR�
 10
1037.616742
 20
696.147678
 40
31.921213
 50
292.01765
 51
320.970069
  0
ARC
  8
APS_GEOMETR�
 10
1032.419882
 20
707.744242
 40
44.622763
 50
269.531118
 51
292.621635
  0
ARC
  8
APS_GEOMETR�
 10
1004.642276
 20
782.694112
 40
122.673139
 50
274.097576
 51
282.912288
  0
ARC
  8
APS_GEOMETR�
 10
1004.642276
 20
782.694112
 40
122.673139
 50
265.282864
 51
274.097576
  0
ARC
  8
APS_GEOMETR�
 10
1003.52485
 20
775.529758
 40
115.442349
 50
256.36103
 51
265.543167
  0
ARC
  8
APS_GEOMETR�
 10
1003.504724
 20
324.457034
 40
115.449054
 50
103.635776
 51
112.817554
  0
ARC
  8
APS_GEOMETR�
 10
933.127279
 20
412.649417
 40
31.428342
 50
35.436434
 51
61.136992
  0
ARC
  8
APS_GEOMETR�
 10
926.801785
 20
401.738051
 40
44.038526
 50
60.782307
 51
81.26492
  0
ARC
  8
APS_GEOMETR�
 10
943.212213
 20
425.98093
 40
21.597033
 50
89.140413
 51
116.754995
  0
ARC
  8
APS_GEOMETR�
 10
942.147804
 20
474.228708
 40
26.689314
 50
272.981938
 51
295.546248
  0
ARC
  8
APS_GEOMETR�
 10
945.713256
 20
467.173627
 40
18.787201
 50
295.014204
 51
323.608702
  0
ARC
  8
APS_GEOMETR�
 10
950.637009
 20
463.507735
 40
12.648732
 50
323.743405
 51
1.07529
  0
ARC
  8
APS_GEOMETR�
 10
967.855104
 20
454.351892
 40
10.44662
 50
97.566894
 51
115.951763
  0
ARC
  8
APS_GEOMETR�
 10
968.047708
 20
453.282633
 40
11.532039
 50
80.612576
 51
97.815922
  0
ARC
  8
APS_GEOMETR�
 10
968.302079
 20
454.545154
 40
10.245035
 50
62.237295
 51
80.864441
  0
ARC
  8
APS_GEOMETR�
 10
969.571515
 20
456.878199
 40
7.589331
 50
39.726733
 51
62.513208
  0
ARC
  8
APS_GEOMETR�
 10
971.264141
 20
458.281351
 40
5.390739
 50
11.085642
 51
39.754753
  0
ARC
  8
APS_GEOMETR�
 10
984.280656
 20
461.722924
 40
8.092034
 50
197.290327
 51
224.799505
  0
ARC
  8
APS_GEOMETR�
 10
986.71854
 20
464.109093
 40
11.503287
 50
224.676822
 51
246.399113
  0
ARC
  8
APS_GEOMETR�
 10
988.215583
 20
467.353378
 40
15.075747
 50
246.121927
 51
264.235445
  0
ARC
  8
APS_GEOMETR�
 10
980.408328
 20
473.60049
 40
22.158998
 50
286.498758
 51
307.794897
  0
ARC
  8
APS_GEOMETR�
 10
984.612269
 20
468.29326
 40
15.389002
 50
307.536027
 51
334.745848
  0
ARC
  8
APS_GEOMETR�
 10
987.870478
 20
466.667074
 40
11.74869
 50
335.139398
 51
7.758081
  0
ARC
  8
APS_GEOMETR�
 10
981.88804
 20
464.403758
 40
18.039066
 50
12.32084
 51
51.673442
  0
ARC
  8
APS_GEOMETR�
 10
974.741402
 20
455.80866
 40
29.215068
 50
51.13162
 51
79.526688
  0
ARC
  8
APS_GEOMETR�
 10
1002.541819
 20
367.292785
 40
119.381719
 50
83.679985
 51
100.858574
  0
ARC
  8
APS_GEOMETR�
 10
1004.018693
 20
376.349418
 40
110.218557
 50
65.799179
 51
83.924793
  0
ARC
  8
APS_GEOMETR�
 10
1058.224727
 20
451.41474
 40
27.017964
 50
109.510544
 51
131.192634
  0
ARC
  8
APS_GEOMETR�
 10
1052.728203
 20
457.593043
 40
18.748943
 50
130.987438
 51
158.702646
  0
ARC
  8
APS_GEOMETR�
 10
1049.166981
 20
459.11711
 40
14.877909
 50
159.189891
 51
191.561495
  0
ARC
  8
APS_GEOMETR�
 10
1051.270154
 20
459.758852
 40
17.068284
 50
192.257066
 51
221.776803
  0
ARC
  8
APS_GEOMETR�
 10
1056.802871
 20
464.659639
 40
24.459358
 50
221.703428
 51
244.884809
  0
ARC
  8
APS_GEOMETR�
 10
1060.517428
 20
472.161519
 40
32.829078
 50
244.571924
 51
263.592618
  0
ARC
  8
APS_GEOMETR�
 10
1079.058137
 20
525.525706
 40
88.808799
 50
255.521065
 51
276.905634
  0
ARC
  8
APS_GEOMETR�
 10
1080.795462
 20
516.660676
 40
79.801914
 50
276.432598
 51
299.417343
  0
LINE
  8
APS_GEOMETR�
 10
1119.991563
 11
1119.98988
 20
447.148007
 21
422.283094
  0
LINE
  8
APS_GEOMETR�
 10
1119.98988
 11
1119.988197
 20
422.283094
 21
397.418181
  0
ARC
  8
APS_GEOMETR�
 10
1109.549507
 20
338.811142
 40
59.529415
 50
79.900771
 51
96.065349
  0
ARC
  8
APS_GEOMETR�
 10
1108.803294
 20
343.657263
 40
54.63206
 50
95.824153
 51
112.945597
  0
ARC
  8
APS_GEOMETR�
 10
1113.858139
 20
408.543782
 40
30.116495
 50
183.381012
 51
208.948743
  0
ARC
  8
APS_GEOMETR�
 10
1113.760911
 20
408.51808
 40
30.017927
 50
157.720258
 51
183.342985
  0
LINE
  8
APS_GEOMETR�
 10
1085.984008
 11
1081.853043
 20
419.898747
 21
429.908762
  0
ARC
  8
APS_GEOMETR�
 10
1083.480739
 20
389.882308
 40
40.059536
 50
92.32868
 51
121.75712
  0
ARC
  8
APS_GEOMETR�
 10
1037.600594
 20
403.847679
 40
31.917413
 50
39.024132
 51
67.97888
  0
ARC
  8
APS_GEOMETR�
 10
1032.402423
 20
392.249882
 40
44.620626
 50
67.374887
 51
90.466153
  0
ARC
  8
APS_GEOMETR�
 10
1004.621076
 20
317.30152
 40
122.670918
 50
77.084654
 51
85.899474
  0
ARC
  8
APS_GEOMETR�
 10
1004.621076
 20
317.30152
 40
122.670918
 50
85.899474
 51
94.714293
  0
ARC
  8
APS_GEOMETR�
 10
1003.504724
 20
324.457034
 40
115.449054
 50
94.453998
 51
103.635776
  0
ARC
  8
APS_GEOMETR�
 10
196.48368
 20
324.442313
 40
115.448192
 50
67.184578
 51
76.366402
  0
ARC
  8
APS_GEOMETR�
 10
266.857807
 20
412.636089
 40
31.428835
 50
118.865086
 51
144.565372
  0
ARC
  8
APS_GEOMETR�
 10
273.183674
 20
401.724999
 40
44.038967
 50
98.737298
 51
119.219771
  0
ARC
  8
APS_GEOMETR�
 10
256.772277
 20
425.967837
 40
21.596875
 50
63.247116
 51
90.861838
  0
ARC
  8
APS_GEOMETR�
 10
257.834788
 20
474.21529
 40
26.689104
 50
244.455866
 51
267.020298
  0
ARC
  8
APS_GEOMETR�
 10
254.269563
 20
467.160002
 40
18.78691
 50
216.393115
 51
244.987913
  0
ARC
  8
APS_GEOMETR�
 10
249.346083
 20
463.494055
 40
12.648627
 50
178.926266
 51
216.258355
  0
ARC
  8
APS_GEOMETR�
 10
232.128473
 20
454.337783
 40
10.446527
 50
64.050343
 51
82.435323
  0
ARC
  8
APS_GEOMETR�
 10
231.935897
 20
453.268418
 40
11.532045
 50
82.186293
 51
99.389633
  0
ARC
  8
APS_GEOMETR�
 10
231.681493
 20
454.530836
 40
10.245135
 50
99.137772
 51
117.764795
  0
ARC
  8
APS_GEOMETR�
 10
230.41198
 20
456.863818
 40
7.589449
 50
117.488883
 51
140.27512
  0
ARC
  8
APS_GEOMETR�
 10
228.719265
 20
458.266949
 40
5.390802
 50
140.247073
 51
168.915961
  0
ARC
  8
APS_GEOMETR�
 10
215.702485
 20
461.708197
 40
8.092143
 50
315.202384
 51
342.711313
  0
ARC
  8
APS_GEOMETR�
 10
213.264476
 20
464.094326
 40
11.503459
 50
293.603013
 51
315.325086
  0
ARC
  8
APS_GEOMETR�
 10
211.767333
 20
467.33851
 40
15.075868
 50
275.766776
 51
293.880195
  0
ARC
  8
APS_GEOMETR�
 10
219.57429
 20
473.585521
 40
22.158707
 50
232.207093
 51
253.503422
  0
ARC
  8
APS_GEOMETR�
 10
215.370572
 20
468.278188
 40
15.388769
 50
205.255856
 51
232.465954
  0
ARC
  8
APS_GEOMETR�
 10
212.11258
 20
466.651976
 40
11.748639
 50
172.243488
 51
204.862264
  0
ARC
  8
APS_GEOMETR�
 10
218.095366
 20
464.388776
 40
18.039305
 50
128.328504
 51
167.680761
  0
ARC
  8
APS_GEOMETR�
 10
225.24239
 20
455.793836
 40
29.215431
 50
100.475539
 51
128.870364
  0
ARC
  8
APS_GEOMETR�
 10
197.445328
 20
367.277399
 40
119.381565
 50
79.14363
 51
96.322234
  0
ARC
  8
APS_GEOMETR�
 10
195.968221
 20
376.332922
 40
110.219461
 50
96.077428
 51
114.202941
  0
ARC
  8
APS_GEOMETR�
 10
141.759183
 20
451.397414
 40
27.017585
 50
48.809319
 51
70.491615
  0
ARC
  8
APS_GEOMETR�
 10
147.255422
 20
457.575828
 40
18.748671
 50
21.299025
 51
49.014501
  0
ARC
  8
APS_GEOMETR�
 10
150.816375
 20
459.099923
 40
14.877873
 50
348.440086
 51
20.81174
  0
ARC
  8
APS_GEOMETR�
 10
148.712943
 20
459.74165
 40
17.068493
 50
318.225045
 51
347.744543
  0
ARC
  8
APS_GEOMETR�
 10
143.179938
 20
464.642359
 40
24.459732
 50
295.117304
 51
318.298447
  0
ARC
  8
APS_GEOMETR�
 10
139.465144
 20
472.14402
 40
32.82936
 50
276.409604
 51
295.430187
  0
ARC
  8
APS_GEOMETR�
 10
120.922391
 20
525.507405
 40
88.808993
 50
263.096591
 51
284.481128
  0
ARC
  8
APS_GEOMETR�
 10
119.185295
 20
516.641355
 40
79.801148
 50
240.584736
 51
263.569632
  0
LINE
  8
APS_GEOMETR�
 10
79.992092
 11
79.99447
 20
447.127932
 21
422.263019
  0
LINE
  8
APS_GEOMETR�
 10
79.99447
 11
79.996849
 20
422.263019
 21
397.398105
  0
ARC
  8
APS_GEOMETR�
 10
90.437821
 20
338.791082
 40
59.5298
 50
83.936885
 51
100.101394
  0
ARC
  8
APS_GEOMETR�
 10
91.183961
 20
343.638352
 40
54.631319
 50
67.05648
 51
84.17808
  0
ARC
  8
APS_GEOMETR�
 10
86.127581
 20
408.523934
 40
30.115492
 50
331.052434
 51
356.620735
  0
ARC
  8
APS_GEOMETR�
 10
86.222689
 20
408.498353
 40
30.019049
 50
356.658774
 51
22.280853
  0
LINE
  8
APS_GEOMETR�
 10
114.00041
 11
118.131095
 20
419.879984
 21
429.890159
  0
ARC
  8
APS_GEOMETR�
 10
116.504989
 20
389.864015
 40
40.059161
 50
58.244944
 51
87.673576
  0
ARC
  8
APS_GEOMETR�
 10
162.384735
 20
403.83032
 40
31.917899
 50
112.023266
 51
140.977714
  0
ARC
  8
APS_GEOMETR�
 10
167.583261
 20
392.23291
 40
44.620904
 50
89.536086
 51
112.627253
  0
ARC
  8
APS_GEOMETR�
 10
195.367511
 20
317.285612
 40
122.671204
 50
94.102735
 51
102.917541
  0
ARC
  8
APS_GEOMETR�
 10
195.367511
 20
317.285612
 40
122.671204
 50
85.28793
 51
94.102735
  0
ARC
  8
APS_GEOMETR�
 10
196.48368
 20
324.442313
 40
115.448192
 50
76.366402
 51
85.548227
  0
ARC
  8
APS_GEOMETR�
 10
196.448304
 20
775.515036
 40
115.443212
 50
283.641148
 51
292.823238
  0
ARC
  8
APS_GEOMETR�
 10
266.834281
 20
687.337997
 40
31.431737
 50
215.444374
 51
241.143065
  0
ARC
  8
APS_GEOMETR�
 10
273.158451
 20
698.249657
 40
44.04151
 50
240.788358
 51
261.270037
  0
ARC
  8
APS_GEOMETR�
 10
256.749974
 20
674.001317
 40
21.595992
 50
269.145311
 51
296.760796
  0
ARC
  8
APS_GEOMETR�
 10
257.818493
 20
625.756078
 40
26.687907
 50
92.98693
 51
115.552044
  0
ARC
  8
APS_GEOMETR�
 10
254.252094
 20
632.811341
 40
18.785204
 50
115.020012
 51
143.616559
  0
ARC
  8
APS_GEOMETR�
 10
249.328874
 20
636.475889
 40
12.647966
 50
143.751617
 51
181.085025
  0
ARC
  8
APS_GEOMETR�
 10
232.110902
 20
645.628557
 40
10.445984
 50
277.572007
 51
295.957628
  0
ARC
  8
APS_GEOMETR�
 10
231.918113
 20
646.698464
 40
11.532074
 50
260.617732
 51
277.821043
  0
ARC
  8
APS_GEOMETR�
 10
231.663959
 20
645.436556
 40
10.245713
 50
242.243269
 51
260.869587
  0
ARC
  8
APS_GEOMETR�
 10
230.394823
 20
643.103497
 40
7.590141
 50
219.73435
 51
242.519192
  0
ARC
  8
APS_GEOMETR�
 10
228.702096
 20
641.699902
 40
5.391188
 50
191.095025
 51
219.762533
  0
ARC
  8
APS_GEOMETR�
 10
215.684957
 20
638.255917
 40
8.092805
 50
17.299443
 51
44.806861
  0
ARC
  8
APS_GEOMETR�
 10
213.247074
 20
635.86917
 40
11.504463
 50
44.684056
 51
66.404857
  0
ARC
  8
APS_GEOMETR�
 10
211.750493
 20
632.625059
 40
15.07657
 50
66.127673
 51
84.240527
  0
ARC
  8
APS_GEOMETR�
 10
219.557933
 20
626.381386
 40
22.157022
 50
106.504136
 51
127.801552
  0
ARC
  8
APS_GEOMETR�
 10
215.353613
 20
631.687867
 40
15.387377
 50
127.542759
 51
154.754511
  0
ARC
  8
APS_GEOMETR�
 10
212.096319
 20
633.313069
 40
11.748323
 50
155.148322
 51
187.767689
  0
ARC
  8
APS_GEOMETR�
 10
218.080417
 20
635.577747
 40
18.04077
 50
192.330271
 51
231.680359
  0
ARC
  8
APS_GEOMETR�
 10
225.22658
 20
644.174182
 40
29.217494
 50
231.138292
 51
259.531762
  0
ARC
  8
APS_GEOMETR�
 10
197.417834
 20
732.684134
 40
119.380673
 50
263.685078
 51
280.863769
  0
ARC
  8
APS_GEOMETR�
 10
195.942543
 20
723.634508
 40
110.224691
 50
245.804944
 51
263.929879
  0
ARC
  8
APS_GEOMETR�
 10
141.742519
 20
648.555741
 40
27.01538
 50
289.516063
 51
311.199547
  0
ARC
  8
APS_GEOMETR�
 10
147.239311
 20
642.378586
 40
18.747039
 50
310.994452
 51
338.711551
  0
ARC
  8
APS_GEOMETR�
 10
150.79921
 20
640.855615
 40
14.877655
 50
339.199037
 51
11.571012
  0
ARC
  8
APS_GEOMETR�
 10
148.694435
 20
640.213207
 40
17.069767
 50
12.266414
 51
41.78443
  0
ARC
  8
APS_GEOMETR�
 10
143.161518
 20
635.31102
 40
24.46192
 50
41.710889
 51
64.89064
  0
ARC
  8
APS_GEOMETR�
 10
139.447989
 20
627.809356
 40
32.830988
 50
64.577751
 51
83.597701
  0
ARC
  8
APS_GEOMETR�
 10
120.912171
 20
574.444101
 40
88.810094
 50
75.526327
 51
96.910685
  0
ARC
  8
APS_GEOMETR�
 10
119.173313
 20
583.315378
 40
79.796765
 50
96.437636
 51
119.423381
  0
LINE
  8
APS_GEOMETR�
 10
79.972416
 11
79.970037
 20
652.81943
 21
677.684343
  0
LINE
  8
APS_GEOMETR�
 10
79.970037
 11
79.967659
 20
677.684343
 21
702.549257
  0
ARC
  8
APS_GEOMETR�
 10
90.401141
 20
761.158015
 40
59.530195
 50
259.905996
 51
276.070433
  0
ARC
  8
APS_GEOMETR�
 10
91.148198
 20
756.307984
 40
54.628842
 50
275.829232
 51
292.951353
  0
ARC
  8
APS_GEOMETR�
 10
86.099033
 20
691.422155
 40
30.116986
 50
3.390372
 51
28.957822
  0
ARC
  8
APS_GEOMETR�
 10
86.196528
 20
691.447887
 40
30.018147
 50
337.729752
 51
3.352348
  0
LINE
  8
APS_GEOMETR�
 10
113.97552
 11
118.10812
 20
680.07174
 21
670.062095
  0
ARC
  8
APS_GEOMETR�
 10
116.477113
 20
710.085943
 40
40.057066
 50
272.333563
 51
301.763237
  0
ARC
  8
APS_GEOMETR�
 10
162.359487
 20
696.130318
 40
31.920727
 50
219.031778
 51
247.984497
  0
ARC
  8
APS_GEOMETR�
 10
167.555992
 20
707.727269
 40
44.622485
 50
247.380505
 51
270.471121
  0
ARC
  8
APS_GEOMETR�
 10
195.330694
 20
782.678203
 40
122.672853
 50
257.089907
 51
265.904633
  0
ARC
  8
APS_GEOMETR�
 10
195.330694
 20
782.678203
 40
122.672853
 50
265.904633
 51
274.719359
  0
ARC
  8
APS_GEOMETR�
 10
196.448304
 20
775.515036
 40
115.443212
 50
274.459058
 51
283.641148
  0
LINE
  8
APS_GEOMETR�
 10
115.996652
 11
151.966094
 20
1019.966949
 21
1019.966458
  0
LINE
  8
APS_GEOMETR�
 10
151.966094
 11
187.935535
 20
1019.966458
 21
1019.965967
  0
LINE
  8
APS_GEOMETR�
 10
187.935535
 11
223.904976
 20
1019.965967
 21
1019.965477
  0
ARC
  8
APS_GEOMETR�
 10
273.025002
 20
913.495505
 40
117.25456
 50
114.766284
 51
131.619662
  0
ARC
  8
APS_GEOMETR�
 10
211.384268
 20
978.839474
 40
27.59513
 50
126.045484
 51
149.488738
  0
ARC
  8
APS_GEOMETR�
 10
216.558094
 20
975.679428
 40
33.657049
 50
149.325855
 51
169.836833
  0
ARC
  8
APS_GEOMETR�
 10
182.895822
 20
1004.080113
 40
22.468163
 50
238.536161
 51
271.360158
  0
ARC
  8
APS_GEOMETR�
 10
120.529988
 20
895.610135
 40
102.66295
 50
60.44568
 51
86.783233
  0
ARC
  8
APS_GEOMETR�
 10
120.056875
 20
894.038705
 40
104.25916
 50
86.572101
 51
112.630703
  0
LINE
  8
APS_GEOMETR�
 10
79.938994
 11
80.027211
 20
990.270343
 21
1019.967439
  0
LINE
  8
APS_GEOMETR�
 10
80.027211
 11
115.996652
 20
1019.967439
 21
1019.966949
  0
LINE
  8
APS_GEOMETR�
 10
704.589137
 11
771.81238
 20
80.381278
 21
80.603929
  0
LINE
  8
APS_GEOMETR�
 10
771.81238
 11
839.035622
 20
80.603929
 21
80.826579
  0
LINE
  8
APS_GEOMETR�
 10
839.035622
 11
906.258865
 20
80.826579
 21
81.04923
  0
ARC
  8
APS_GEOMETR�
 10
931.902379
 20
84.217957
 40
25.83855
 50
159.590736
 51
187.044236
  0
ARC
  8
APS_GEOMETR�
 10
935.284506
 20
82.844161
 40
29.487639
 50
134.246741
 51
159.380635
  0
ARC
  8
APS_GEOMETR�
 10
940.147107
 20
77.922536
 40
36.406115
 50
112.506181
 51
134.324204
  0
ARC
  8
APS_GEOMETR�
 10
942.609054
 20
72.327513
 40
42.517611
 50
93.03208
 51
112.685087
  0
ARC
  8
APS_GEOMETR�
 10
937.514971
 20
150.681926
 40
36.008898
 50
274.531739
 51
297.057709
  0
ARC
  8
APS_GEOMETR�
 10
940.569418
 20
144.98211
 40
29.543778
 50
296.810717
 51
322.555145
  0
ARC
  8
APS_GEOMETR�
 10
945.263002
 20
141.378921
 40
23.62663
 50
322.572179
 51
352.484074
  0
ARC
  8
APS_GEOMETR�
 10
946.481424
 20
141.039144
 40
22.374936
 50
352.938569
 51
23.956785
  0
ARC
  8
APS_GEOMETR�
 10
961.583971
 20
147.424334
 40
5.988134
 50
26.801947
 51
50.660055
  0
ARC
  8
APS_GEOMETR�
 10
960.711424
 20
146.382489
 40
7.347035
 50
50.547911
 51
71.344312
  0
ARC
  8
APS_GEOMETR�
 10
960.362981
 20
145.429208
 40
8.361727
 50
71.171642
 51
90.232663
  0
ARC
  8
APS_GEOMETR�
 10
960.338072
 20
145.448979
 40
8.341892
 50
90.062132
 51
109.153517
  0
ARC
  8
APS_GEOMETR�
 10
970.049293
 20
132.492147
 40
24.272119
 50
120.854521
 51
159.705815
  0
ARC
  8
APS_GEOMETR�
 10
926.967294
 20
149.174217
 40
21.932845
 50
307.23865
 51
337.866587
  0
ARC
  8
APS_GEOMETR�
 10
880.117922
 20
199.97753
 40
90.965207
 50
294.107276
 51
311.370921
  0
ARC
  8
APS_GEOMETR�
 10
851.27979
 20
241.625708
 40
141.067433
 50
282.6176
 51
297.892134
  0
ARC
  8
APS_GEOMETR�
 10
824.55685
 20
355.580052
 40
258.109906
 50
265.788608
 51
282.88066
  0
LINE
  8
APS_GEOMETR�
 10
805.602163
 11
724.938821
 20
98.16707
 21
105.145233
  0
ARC
  8
APS_GEOMETR�
 10
714.957136
 20
-30.189825
 40
135.702661
 50
85.781767
 51
105.814293
  0
ARC
  8
APS_GEOMETR�
 10
710.37987
 20
-15.603927
 40
120.422205
 50
105.610147
 51
127.323639
  0
LINE
  8
APS_GEOMETR�
 10
637.365894
 11
704.589137
 20
80.158627
 21
80.381278
  0
ARC
  8
APS_GEOMETR�
 10
843.933496
 20
289.853045
 40
143.201248
 50
262.526761
 51
273.299889
  0
ARC
  8
APS_GEOMETR�
 10
840.80759
 20
274.348735
 40
127.426672
 50
239.701508
 51
263.013641
  0
ARC
  8
APS_GEOMETR�
 10
792.338356
 20
151.545898
 40
20.336693
 50
141.060779
 51
172.451062
  0
ARC
  8
APS_GEOMETR�
 10
790.716643
 20
152.040246
 40
18.666148
 50
173.30139
 51
206.552273
  0
ARC
  8
APS_GEOMETR�
 10
796.238177
 20
154.97881
 40
24.919403
 50
206.921121
 51
234.304087
  0
ARC
  8
APS_GEOMETR�
 10
802.835783
 20
163.843357
 40
35.968598
 50
234.00817
 51
255.402921
  0
ARC
  8
APS_GEOMETR�
 10
805.009601
 20
171.037512
 40
43.479357
 50
255.02
 51
270.237431
  0
ARC
  8
APS_GEOMETR�
 10
810.878096
 20
0.586645
 40
127.099237
 50
88.431001
 51
92.565126
  0
ARC
  8
APS_GEOMETR�
 10
802.59922
 20
137.865636
 40
15.584376
 50
293.360199
 51
318.984722
  0
ARC
  8
APS_GEOMETR�
 10
800.202525
 20
143.014987
 40
21.26254
 50
273.000682
 51
293.787223
  0
ARC
  8
APS_GEOMETR�
 10
797.439345
 20
358.545819
 40
236.795948
 50
264.401871
 51
270.937944
  0
ARC
  8
APS_GEOMETR�
 10
797.439345
 20
358.545819
 40
236.795948
 50
257.865797
 51
264.401871
  0
ARC
  8
APS_GEOMETR�
 10
795.808513
 20
351.471503
 40
229.536907
 50
244.545601
 51
257.892595
  0
ARC
  8
APS_GEOMETR�
 10
726.549967
 20
196.278998
 40
59.787754
 50
217.657726
 51
240.550834
  0
ARC
  8
APS_GEOMETR�
 10
713.249892
 20
186.000531
 40
42.978866
 50
189.071227
 51
217.642248
  0
ARC
  8
APS_GEOMETR�
 10
709.367488
 20
184.943274
 40
38.980723
 50
157.930887
 51
188.436348
  0
ARC
  8
APS_GEOMETR�
 10
718.656643
 20
180.822107
 40
49.1388
 50
131.432261
 51
157.547212
  0
ARC
  8
APS_GEOMETR�
 10
732.315956
 20
165.661201
 40
69.544662
 50
110.920513
 51
131.603977
  0
ARC
  8
APS_GEOMETR�
 10
743.996092
 20
117.034948
 40
119.310599
 50
92.429118
 51
107.82014
  0
ARC
  8
APS_GEOMETR�
 10
737.268265
 20
198.512899
 40
37.762429
 50
55.736325
 51
87.463758
  0
ARC
  8
APS_GEOMETR�
 10
767.316847
 20
191.952156
 40
38.778655
 50
103.09851
 51
132.439899
  0
ARC
  8
APS_GEOMETR�
 10
757.138237
 20
202.839603
 40
23.875749
 50
132.044804
 51
172.786628
  0
ARC
  8
APS_GEOMETR�
 10
752.809244
 20
207.526543
 40
19.431333
 50
184.986487
 51
222.491114
  0
ARC
  8
APS_GEOMETR�
 10
759.125785
 20
212.806758
 40
27.658212
 50
221.718117
 51
241.66573
  0
ARC
  8
APS_GEOMETR�
 10
778.113505
 20
252.634753
 40
71.759839
 50
243.414647
 51
261.382287
  0
ARC
  8
APS_GEOMETR�
 10
779.662226
 20
260.715776
 40
79.982333
 50
261.15279
 51
277.887763
  0
ARC
  8
APS_GEOMETR�
 10
780.966261
 20
253.419723
 40
72.576933
 50
277.658476
 51
295.521978
  0
ARC
  8
APS_GEOMETR�
 10
788.740318
 20
237.708991
 40
55.050295
 50
295.265546
 51
316.772046
  0
ARC
  8
APS_GEOMETR�
 10
800.756516
 20
213.336739
 40
31.098018
 50
334.614663
 51
9.653678
  0
ARC
  8
APS_GEOMETR�
 10
796.767873
 20
212.082292
 40
35.245115
 50
10.576784
 51
42.78729
  0
ARC
  8
APS_GEOMETR�
 10
780.199051
 20
200.149258
 40
55.566656
 50
40.211283
 51
63.609979
  0
ARC
  8
APS_GEOMETR�
 10
771.112691
 20
182.743625
 40
75.198212
 50
63.302903
 51
82.396294
  0
ARC
  8
APS_GEOMETR�
 10
769.633409
 20
174.705817
 40
83.362055
 50
82.119507
 51
99.934594
  0
ARC
  8
APS_GEOMETR�
 10
741.398553
 20
291.369112
 40
37.224863
 50
291.847745
 51
320.168316
  0
ARC
  8
APS_GEOMETR�
 10
751.22792
 20
283.175516
 40
24.428322
 50
320.159064
 51
357.784496
  0
ARC
  8
APS_GEOMETR�
 10
751.708219
 20
282.56152
 40
23.932044
 50
359.209062
 51
37.358408
  0
ARC
  8
APS_GEOMETR�
 10
764.981406
 20
154.562618
 40
142.63676
 50
66.948299
 51
87.689927
  0
ARC
  8
APS_GEOMETR�
 10
780.357893
 20
188.681462
 40
105.224358
 50
41.91968
 51
67.377963
  0
ARC
  8
APS_GEOMETR�
 10
806.000827
 20
211.553182
 40
70.863673
 50
8.792257
 51
42.01129
  0
ARC
  8
APS_GEOMETR�
 10
818.865874
 20
213.539614
 40
57.846172
 50
342.100315
 51
8.795588
  0
ARC
  8
APS_GEOMETR�
 10
893.038527
 20
248.817071
 40
56.398758
 50
250.176176
 51
272.170644
  0
ARC
  8
APS_GEOMETR�
 10
893.564674
 20
247.07533
 40
54.640273
 50
271.688492
 51
294.158272
  0
ARC
  8
APS_GEOMETR�
 10
900.332537
 20
232.884101
 40
38.92386
 50
293.61769
 51
321.865235
  0
ARC
  8
APS_GEOMETR�
 10
900.380256
 20
196.839845
 40
32.842292
 50
348.378304
 51
21.4466
  0
ARC
  8
APS_GEOMETR�
 10
895.625952
 20
198.31514
 40
37.799466
 50
317.550851
 51
347.639641
  0
ARC
  8
APS_GEOMETR�
 10
851.682274
 20
263.174812
 40
115.444128
 50
283.562221
 51
308.480573
  0
ARC
  8
APS_GEOMETR�
 10
843.933496
 20
289.853045
 40
143.201248
 50
273.299889
 51
284.073017
  0
ARC
  8
APS_GEOMETR�
 10
356.236501
 20
810.300542
 40
143.213703
 50
82.491502
 51
93.264
  0
ARC
  8
APS_GEOMETR�
 10
359.380899
 20
825.873417
 40
127.36807
 50
59.65911
 51
82.978454
  0
ARC
  8
APS_GEOMETR�
 10
407.905594
 20
948.600127
 40
20.347709
 50
321.005994
 51
352.384818
  0
ARC
  8
APS_GEOMETR�
 10
409.542344
 20
948.102151
 40
18.661454
 50
353.234344
 51
26.490872
  0
ARC
  8
APS_GEOMETR�
 10
404.030341
 20
945.17505
 40
24.900897
 50
26.861587
 51
54.258244
  0
ARC
  8
APS_GEOMETR�
 10
397.427495
 20
936.317657
 40
35.947488
 50
53.962805
 51
75.365987
  0
ARC
  8
APS_GEOMETR�
 10
395.245655
 20
929.112727
 40
43.470886
 50
74.98273
 51
90.202145
  0
ARC
  8
APS_GEOMETR�
 10
389.483259
 20
1099.560388
 40
127.10087
 50
268.395224
 51
272.529313
  0
ARC
  8
APS_GEOMETR�
 10
397.681888
 20
962.263892
 40
15.595587
 50
113.320407
 51
138.93254
  0
ARC
  8
APS_GEOMETR�
 10
400.073515
 20
957.116514
 40
21.269823
 50
92.96571
 51
113.747473
  0
ARC
  8
APS_GEOMETR�
 10
402.705095
 20
741.654013
 40
236.733256
 50
84.366051
 51
90.903292
  0
ARC
  8
APS_GEOMETR�
 10
402.705095
 20
741.654013
 40
236.733256
 50
77.82881
 51
84.366051
  0
ARC
  8
APS_GEOMETR�
 10
404.344598
 20
748.746435
 40
229.454621
 50
64.505396
 51
77.855611
  0
ARC
  8
APS_GEOMETR�
 10
473.696474
 20
903.856238
 40
59.742975
 50
37.603607
 51
60.508231
  0
ARC
  8
APS_GEOMETR�
 10
486.988814
 20
914.109772
 40
42.955447
 50
9.005491
 51
37.586993
  0
ARC
  8
APS_GEOMETR�
 10
490.842404
 20
915.158412
 40
38.987615
 50
337.868032
 51
8.36986
  0
ARC
  8
APS_GEOMETR�
 10
481.531354
 20
919.299456
 40
49.17381
 50
311.383318
 51
337.485772
  0
ARC
  8
APS_GEOMETR�
 10
467.876517
 20
934.480334
 40
69.591516
 50
290.88151
 51
311.555634
  0
ARC
  8
APS_GEOMETR�
 10
456.234688
 20
983.100128
 40
119.342084
 50
272.393782
 51
287.782086
  0
ARC
  8
APS_GEOMETR�
 10
462.911854
 20
901.569632
 40
37.745415
 50
235.692764
 51
267.429882
  0
ARC
  8
APS_GEOMETR�
 10
432.867441
 20
908.189545
 40
38.802705
 50
283.062505
 51
312.391617
  0
ARC
  8
APS_GEOMETR�
 10
443.044156
 20
897.287046
 40
23.890112
 50
311.994334
 51
352.719508
  0
ARC
  8
APS_GEOMETR�
 10
447.392402
 20
892.594166
 40
19.420791
 50
4.919238
 51
42.437658
  0
ARC
  8
APS_GEOMETR�
 10
441.078887
 20
887.325791
 40
27.63778
 50
41.666115
 51
61.623609
  0
ARC
  8
APS_GEOMETR�
 10
422.067436
 20
847.521434
 40
71.72829
 50
63.373522
 51
81.346457
  0
ARC
  8
APS_GEOMETR�
 10
420.509025
 20
839.411246
 40
79.981272
 50
81.11692
 51
97.852042
  0
ARC
  8
APS_GEOMETR�
 10
419.213744
 20
846.677084
 40
72.607184
 50
97.622793
 51
115.481309
  0
ARC
  8
APS_GEOMETR�
 10
411.454718
 20
862.384688
 40
55.090017
 50
115.224835
 51
136.720932
  0
ARC
  8
APS_GEOMETR�
 10
399.434437
 20
886.786779
 40
31.104285
 50
154.552513
 51
189.586757
  0
ARC
  8
APS_GEOMETR�
 10
403.397529
 20
888.032431
 40
35.224067
 50
190.511098
 51
222.734588
  0
ARC
  8
APS_GEOMETR�
 10
419.961598
 20
899.938155
 40
55.525834
 50
220.158555
 51
243.568801
  0
ARC
  8
APS_GEOMETR�
 10
429.06401
 20
917.345016
 40
75.165917
 50
243.261807
 51
262.360698
  0
ARC
  8
APS_GEOMETR�
 10
430.552952
 20
925.41612
 40
83.364295
 50
262.083865
 51
279.898631
  0
ARC
  8
APS_GEOMETR�
 10
458.722975
 20
808.707437
 40
37.251498
 50
111.808662
 51
140.115585
  0
ARC
  8
APS_GEOMETR�
 10
448.889354
 20
816.918667
 40
24.440395
 50
140.104054
 51
177.716893
  0
ARC
  8
APS_GEOMETR�
 10
448.387245
 20
817.533755
 40
23.921572
 50
179.141189
 51
217.301852
  0
ARC
  8
APS_GEOMETR�
 10
435.19306
 20
945.507753
 40
142.590219
 50
246.908818
 51
267.65499
  0
ARC
  8
APS_GEOMETR�
 10
419.782473
 20
911.373112
 40
105.149374
 50
221.867965
 51
247.338456
  0
ARC
  8
APS_GEOMETR�
 10
394.145684
 20
888.545908
 40
70.822886
 50
188.72609
 51
221.958038
  0
ARC
  8
APS_GEOMETR�
 10
381.325482
 20
886.581766
 40
57.853098
 50
162.036487
 51
188.729613
  0
ARC
  8
APS_GEOMETR�
 10
307.135145
 20
851.392771
 40
56.385729
 50
70.137982
 51
92.135866
  0
ARC
  8
APS_GEOMETR�
 10
306.611083
 20
853.103742
 40
54.658351
 50
91.653735
 51
114.11852
  0
ARC
  8
APS_GEOMETR�
 10
299.856968
 20
867.290164
 40
38.952203
 50
113.577857
 51
141.811552
  0
ARC
  8
APS_GEOMETR�
 10
299.818937
 20
903.345239
 40
32.838156
 50
168.312021
 51
201.383129
  0
ARC
  8
APS_GEOMETR�
 10
304.598338
 20
901.859414
 40
37.822591
 50
137.498178
 51
167.574574
  0
ARC
  8
APS_GEOMETR�
 10
348.517992
 20
836.928892
 40
115.51298
 50
103.525795
 51
128.434153
  0
ARC
  8
APS_GEOMETR�
 10
356.236501
 20
810.300542
 40
143.213703
 50
93.264
 51
104.036499
  0
ARC
  8
APS_GEOMETR�
 10
843.910763
 20
810.169374
 40
143.202022
 50
86.702329
 51
97.475418
  0
ARC
  8
APS_GEOMETR�
 10
840.783717
 20
825.677923
 40
127.423053
 50
96.988533
 51
120.301112
  0
ARC
  8
APS_GEOMETR�
 10
792.311052
 20
948.476058
 40
20.337373
 50
187.553032
 51
218.942607
  0
ARC
  8
APS_GEOMETR�
 10
790.68841
 20
947.981487
 40
18.665857
 50
153.451521
 51
186.702753
  0
ARC
  8
APS_GEOMETR�
 10
796.209355
 20
945.043632
 40
24.918259
 50
125.698746
 51
153.082557
  0
ARC
  8
APS_GEOMETR�
 10
802.807286
 20
936.179526
 40
35.967294
 50
104.599361
 51
125.994633
  0
ARC
  8
APS_GEOMETR�
 10
804.9816
 20
928.984704
 40
43.478835
 50
89.76475
 51
104.982303
  0
ARC
  8
APS_GEOMETR�
 10
810.843538
 20
1099.435379
 40
127.099341
 50
267.437087
 51
271.57121
  0
ARC
  8
APS_GEOMETR�
 10
802.56962
 20
962.155302
 40
15.585069
 50
41.018503
 51
66.642261
  0
ARC
  8
APS_GEOMETR�
 10
800.173239
 20
957.006072
 40
21.262991
 50
66.215234
 51
87.001479
  0
ARC
  8
APS_GEOMETR�
 10
797.418194
 20
741.479455
 40
236.792079
 50
89.064197
 51
95.600343
  0
ARC
  8
APS_GEOMETR�
 10
797.418194
 20
741.479455
 40
236.792079
 50
95.600343
 51
102.136489
  0
ARC
  8
APS_GEOMETR�
 10
795.786827
 20
748.554892
 40
229.531827
 50
102.10969
 51
115.456883
  0
ARC
  8
APS_GEOMETR�
 10
726.522509
 20
903.742292
 40
59.784986
 50
119.451798
 51
142.345617
  0
ARC
  8
APS_GEOMETR�
 10
713.22291
 20
914.019219
 40
42.977417
 50
142.361166
 51
170.932835
  0
ARC
  8
APS_GEOMETR�
 10
709.342287
 20
915.075941
 40
38.981147
 50
171.56776
 51
202.072998
  0
ARC
  8
APS_GEOMETR�
 10
718.632796
 20
919.198336
 40
49.140963
 50
202.456585
 51
228.570765
  0
ARC
  8
APS_GEOMETR�
 10
732.291834
 20
934.360477
 40
69.547558
 50
228.399012
 51
249.081898
  0
ARC
  8
APS_GEOMETR�
 10
743.969603
 20
982.986334
 40
119.312548
 50
252.182212
 51
267.573066
  0
ARC
  8
APS_GEOMETR�
 10
737.244905
 20
901.505133
 40
37.761378
 50
272.538336
 51
304.266367
  0
ARC
  8
APS_GEOMETR�
 10
767.293231
 20
908.069533
 40
38.780141
 50
227.563085
 51
256.903715
  0
ARC
  8
APS_GEOMETR�
 10
757.114736
 20
897.181154
 40
23.876636
 50
187.217521
 51
227.958316
  0
ARC
  8
APS_GEOMETR�
 10
752.784554
 20
892.493848
 40
19.430681
 50
137.512189
 51
175.017669
  0
ARC
  8
APS_GEOMETR�
 10
759.100908
 20
887.214365
 40
27.656949
 50
118.336873
 51
138.285096
  0
ARC
  8
APS_GEOMETR�
 10
778.090096
 20
847.38783
 40
71.757891
 50
98.619927
 51
116.587894
  0
ARC
  8
APS_GEOMETR�
 10
779.639415
 20
839.305002
 40
79.98227
 50
82.114445
 51
98.849427
  0
ARC
  8
APS_GEOMETR�
 10
780.942909
 20
846.59919
 40
72.578804
 50
64.480536
 51
82.343729
  0
ARC
  8
APS_GEOMETR�
 10
788.716037
 20
862.30973
 40
55.05275
 50
43.231114
 51
64.736971
  0
ARC
  8
APS_GEOMETR�
 10
800.732489
 20
886.683826
 40
31.098404
 50
350.350458
 51
25.389178
  0
ARC
  8
APS_GEOMETR�
 10
796.745425
 20
887.937728
 40
35.243813
 50
317.215966
 51
349.427274
  0
ARC
  8
APS_GEOMETR�
 10
780.176894
 20
899.869074
 40
55.564133
 50
296.392565
 51
319.791974
  0
ARC
  8
APS_GEOMETR�
 10
771.089542
 20
917.274786
 40
75.196218
 50
277.605906
 51
296.699636
  0
ARC
  8
APS_GEOMETR�
 10
769.609665
 20
925.314652
 40
83.362196
 50
260.067629
 51
277.882695
  0
ARC
  8
APS_GEOMETR�
 10
741.378814
 20
808.648549
 40
37.226509
 50
39.834944
 51
68.154671
  0
ARC
  8
APS_GEOMETR�
 10
751.208445
 20
816.843235
 40
24.429067
 50
2.219682
 51
39.844337
  0
ARC
  8
APS_GEOMETR�
 10
751.690092
 20
817.457297
 40
23.931395
 50
322.645086
 51
0.795132
  0
ARC
  8
APS_GEOMETR�
 10
764.958394
 20
945.454665
 40
142.633887
 50
272.312232
 51
293.05414
  0
ARC
  8
APS_GEOMETR�
 10
780.336989
 20
911.334841
 40
105.219723
 50
292.624478
 51
318.083515
  0
ARC
  8
APS_GEOMETR�
 10
805.979547
 20
888.46587
 40
70.86115
 50
317.992
 51
351.211831
  0
ARC
  8
APS_GEOMETR�
 10
818.841824
 20
886.480819
 40
57.846597
 50
351.208489
 51
17.90363
  0
ARC
  8
APS_GEOMETR�
 10
893.015569
 20
851.208826
 40
56.397954
 50
87.831506
 51
109.826184
  0
ARC
  8
APS_GEOMETR�
 10
893.541587
 20
852.948666
 40
54.641391
 50
65.844185
 51
88.313656
  0
ARC
  8
APS_GEOMETR�
 10
900.3086
 20
867.1396
 40
38.925612
 50
38.138084
 51
66.384772
  0
ARC
  8
APS_GEOMETR�
 10
900.355722
 20
903.184524
 40
32.842035
 50
338.557322
 51
11.625793
  0
ARC
  8
APS_GEOMETR�
 10
895.599867
 20
901.708581
 40
37.800894
 50
12.36438
 51
42.452405
  0
ARC
  8
APS_GEOMETR�
 10
851.657669
 20
836.844527
 40
115.448384
 50
51.522296
 51
76.44003
  0
ARC
  8
APS_GEOMETR�
 10
843.910763
 20
810.169374
 40
143.202022
 50
75.92924
 51
86.702329
  0
ARC
  8
APS_GEOMETR�
 10
470.360174
 20
637.894554
 40
87.62966
 50
43.5979
 51
64.409206
  0
ARC
  8
APS_GEOMETR�
 10
410.70976
 20
543.858767
 40
198.643959
 50
60.604576
 51
70.840154
  0
ARC
  8
APS_GEOMETR�
 10
410.70976
 20
543.858767
 40
198.643959
 50
70.840154
 51
81.075733
  0
ARC
  8
APS_GEOMETR�
 10
405.274077
 20
517.693171
 40
225.339845
 50
80.742431
 51
90.148746
  0
ARC
  8
APS_GEOMETR�
 10
405.2323
 20
517.754977
 40
225.277935
 50
90.138162
 51
99.546202
  0
ARC
  8
APS_GEOMETR�
 10
379.116569
 20
669.777309
 40
71.031741
 50
99.108793
 51
123.690418
  0
ARC
  8
APS_GEOMETR�
 10
365.252482
 20
689.819397
 40
46.667175
 50
123.177066
 51
155.816302
  0
ARC
  8
APS_GEOMETR�
 10
355.294049
 20
743.468458
 40
47.497559
 50
226.636353
 51
251.978888
  0
ARC
  8
APS_GEOMETR�
 10
360.275319
 20
757.096427
 40
62.000206
 50
251.497551
 51
272.672434
  0
ARC
  8
APS_GEOMETR�
 10
355.550602
 20
694.402432
 40
7.653481
 50
329.096277
 51
5.708107
  0
ARC
  8
APS_GEOMETR�
 10
352.837607
 20
696.098985
 40
10.852839
 50
299.827845
 51
328.767316
  0
ARC
  8
APS_GEOMETR�
 10
350.271615
 20
700.322061
 40
15.79327
 50
277.808551
 51
300.283218
  0
ARC
  8
APS_GEOMETR�
 10
336.74057
 20
743.491319
 40
60.869476
 50
267.712935
 51
284.924581
  0
ARC
  8
APS_GEOMETR�
 10
336.429979
 20
741.824149
 40
59.191743
 50
250.411019
 51
267.94894
  0
ARC
  8
APS_GEOMETR�
 10
319.844986
 20
680.020871
 40
6.861478
 50
118.369265
 51
146.88595
  0
ARC
  8
APS_GEOMETR�
 10
318.104208
 20
681.18116
 40
4.7696
 50
147.136303
 51
183.565475
  0
ARC
  8
APS_GEOMETR�
 10
318.362706
 20
681.301604
 40
5.036164
 50
184.750295
 51
219.870182
  0
ARC
  8
APS_GEOMETR�
 10
335.088857
 20
749.945724
 40
74.764095
 50
254.013056
 51
271.007677
  0
ARC
  8
APS_GEOMETR�
 10
335.392639
 20
749.104075
 40
73.917798
 50
270.783715
 51
287.908792
  0
ARC
  8
APS_GEOMETR�
 10
339.941661
 20
735.877858
 40
59.934162
 50
287.658791
 51
307.373827
  0
ARC
  8
APS_GEOMETR�
 10
350.482472
 20
722.337529
 40
42.775653
 50
307.162806
 51
331.887478
  0
ARC
  8
APS_GEOMETR�
 10
376.078311
 20
676.708841
 40
28.214723
 50
36.987814
 51
64.530238
  0
ARC
  8
APS_GEOMETR�
 10
383.301693
 20
682.187013
 40
19.149056
 50
1.141237
 51
36.898496
  0
ARC
  8
APS_GEOMETR�
 10
383.432954
 20
682.589839
 40
19.014009
 50
324.007417
 51
359.935413
  0
ARC
  8
APS_GEOMETR�
 10
356.888304
 20
699.305724
 40
50.357472
 50
297.384658
 51
326.369058
  0
ARC
  8
APS_GEOMETR�
 10
346.056084
 20
718.824994
 40
72.674615
 50
275.257115
 51
297.889408
  0
ARC
  8
APS_GEOMETR�
 10
329.240022
 20
767.742615
 40
123.53742
 50
255.372814
 51
280.9541
  0
ARC
  8
APS_GEOMETR�
 10
295.174148
 20
631.67497
 40
16.781234
 50
80.155538
 51
100.089102
  0
ARC
  8
APS_GEOMETR�
 10
294.675495
 20
633.906864
 40
14.496844
 50
99.69403
 51
121.69299
  0
ARC
  8
APS_GEOMETR�
 10
292.251803
 20
637.69851
 40
9.997543
 50
121.29037
 51
149.543818
  0
ARC
  8
APS_GEOMETR�
 10
289.82449
 20
639.172435
 40
7.158169
 50
149.865539
 51
185.240451
  0
ARC
  8
APS_GEOMETR�
 10
290.352142
 20
639.36281
 40
7.702301
 50
186.292256
 51
219.966235
  0
ARC
  8
APS_GEOMETR�
 10
312.759876
 20
654.099413
 40
34.481485
 50
214.810152
 51
243.822801
  0
ARC
  8
APS_GEOMETR�
 10
319.794334
 20
667.373334
 40
49.499306
 50
243.293596
 51
266.027258
  0
ARC
  8
APS_GEOMETR�
 10
342.100227
 20
468.638283
 40
151.555692
 50
79.400723
 51
99.776629
  0
ARC
  8
APS_GEOMETR�
 10
363.130076
 20
514.22156
 40
103.613011
 50
57.051358
 51
86.210914
  0
ARC
  8
APS_GEOMETR�
 10
434.502174
 20
619.400624
 40
23.620572
 50
195.299123
 51
230.51952
  0
ARC
  8
APS_GEOMETR�
 10
430.53376
 20
617.892694
 40
19.399192
 50
153.875721
 51
194.095797
  0
ARC
  8
APS_GEOMETR�
 10
443.079809
 20
593.903869
 40
44.22728
 50
104.727532
 51
132.647636
  0
ARC
  8
APS_GEOMETR�
 10
446.972368
 20
581.713795
 40
57.010321
 50
81.881872
 51
105.396559
  0
ARC
  8
APS_GEOMETR�
 10
463.321112
 20
625.882595
 40
14.812704
 50
124.069564
 51
149.635574
  0
ARC
  8
APS_GEOMETR�
 10
459.987757
 20
627.884442
 40
10.924745
 50
149.85713
 51
181.223264
  0
ARC
  8
APS_GEOMETR�
 10
465.675583
 20
650.066868
 40
27.899036
 50
233.461417
 51
261.068582
  0
ARC
  8
APS_GEOMETR�
 10
466.902095
 20
655.122021
 40
33.086066
 50
260.329435
 51
284.924919
  0
ARC
  8
APS_GEOMETR�
 10
479.952993
 20
604.631445
 40
19.066525
 50
83.36084
 51
103.742689
  0
ARC
  8
APS_GEOMETR�
 10
480.282062
 20
606.391794
 40
17.280375
 50
61.990769
 51
83.769789
  0
ARC
  8
APS_GEOMETR�
 10
482.781837
 20
610.890039
 40
12.13544
 50
34.80264
 51
62.437146
  0
ARC
  8
APS_GEOMETR�
 10
485.845632
 20
613.049214
 40
8.387372
 50
359.200577
 51
34.63676
  0
ARC
  8
APS_GEOMETR�
 10
497.129025
 20
555.134235
 40
57.870506
 50
92.869268
 51
126.796949
  0
ARC
  8
APS_GEOMETR�
 10
482.409962
 20
601.180137
 40
19.946445
 50
179.153524
 51
216.042755
  0
ARC
  8
APS_GEOMETR�
 10
490.07792
 20
606.846919
 40
29.480942
 50
216.179374
 51
244.530759
  0
ARC
  8
APS_GEOMETR�
 10
495.748076
 20
617.879241
 40
41.881098
 50
244.017841
 51
266.391825
  0
ARC
  8
APS_GEOMETR�
 10
480.865773
 20
623.51906
 40
48.993199
 50
284.475464
 51
308.335043
  0
ARC
  8
APS_GEOMETR�
 10
491.204343
 20
610.76362
 40
32.575879
 50
307.98702
 51
339.396112
  0
ARC
  8
APS_GEOMETR�
 10
497.777192
 20
607.932909
 40
25.429544
 50
340.154594
 51
17.260877
  0
ARC
  8
APS_GEOMETR�
 10
500.703741
 20
589.638304
 40
33.524104
 50
50.42512
 51
76.461796
  0
LINE
  8
APS_GEOMETR�
 10
508.551522
 11
508.533321
 20
622.230909
 21
622.233749
  0
ARC
  8
APS_GEOMETR�
 10
512.957827
 20
652.648267
 40
30.734658
 50
235.220034
 51
261.723045
  0
ARC
  8
APS_GEOMETR�
 10
532.251443
 20
577.170565
 40
62.286061
 50
102.986769
 51
126.244442
  0
ARC
  8
APS_GEOMETR�
 10
535.828533
 20
564.192568
 40
75.73811
 50
83.031469
 51
103.417298
  0
ARC
  8
APS_GEOMETR�
 10
503.899784
 20
584.600341
 40
68.48726
 50
53.103685
 51
75.706431
  0
ARC
  8
APS_GEOMETR�
 10
499.507139
 20
569.665387
 40
84.046309
 50
75.318279
 51
95.010122
  0
ARC
  8
APS_GEOMETR�
 10
498.507915
 20
575.394975
 40
78.252914
 50
94.647664
 51
115.309952
  0
ARC
  8
APS_GEOMETR�
 10
476.677538
 20
656.46628
 40
15.55071
 50
181.661754
 51
221.627089
  0
ARC
  8
APS_GEOMETR�
 10
476.504446
 20
656.005951
 40
15.371081
 50
139.685102
 51
179.96506
  0
ARC
  8
APS_GEOMETR�
 10
463.162049
 20
593.849733
 40
72.119365
 50
88.711324
 51
108.391107
  0
ARC
  8
APS_GEOMETR�
 10
457.833078
 20
608.680676
 40
56.365877
 50
108.007269
 51
131.238798
  0
ARC
  8
APS_GEOMETR�
 10
441.618944
 20
666.361106
 40
25.932872
 50
184.414482
 51
216.142399
  0
ARC
  8
APS_GEOMETR�
 10
440.433727
 20
665.894872
 40
24.718108
 50
150.781325
 51
183.5484
  0
ARC
  8
APS_GEOMETR�
 10
467.374513
 20
641.532033
 40
60.668383
 50
116.861034
 51
143.097266
  0
ARC
  8
APS_GEOMETR�
 10
478.837017
 20
620.221082
 40
84.86117
 50
96.333402
 51
117.264027
  0
ARC
  8
APS_GEOMETR�
 10
474.188571
 20
621.510028
 40
83.187909
 50
74.104996
 51
93.247761
  0
ARC
  8
APS_GEOMETR�
 10
478.962032
 20
636.749394
 40
67.225179
 50
52.366543
 51
74.460628
  0
ARC
  8
APS_GEOMETR�
 10
492.085107
 20
653.384727
 40
46.038655
 50
24.157888
 51
52.658926
  0
ARC
  8
APS_GEOMETR�
 10
540.703891
 20
676.723558
 40
7.996685
 50
214.222454
 51
239.762555
  0
ARC
  8
APS_GEOMETR�
 10
542.387915
 20
679.484257
 40
11.230014
 50
239.432653
 51
259.75894
  0
ARC
  8
APS_GEOMETR�
 10
542.762448
 20
681.157245
 40
12.943133
 50
259.444085
 51
277.918777
  0
ARC
  8
APS_GEOMETR�
 10
543.005894
 20
679.861902
 40
11.626772
 50
277.609963
 51
297.467025
  0
ARC
  8
APS_GEOMETR�
 10
544.515184
 20
677.06721
 40
8.451113
 50
297.127099
 51
321.735616
  0
ARC
  8
APS_GEOMETR�
 10
470.360174
 20
637.894554
 40
87.62966
 50
22.786593
 51
43.5979
  0
ARC
  8
APS_GEOMETR�
 10
729.612422
 20
637.888186
 40
87.632534
 50
115.588966
 51
136.399808
  0
ARC
  8
APS_GEOMETR�
 10
789.260466
 20
543.849324
 40
198.648156
 50
109.1581
 51
119.393534
  0
ARC
  8
APS_GEOMETR�
 10
789.260466
 20
543.849324
 40
198.648156
 50
98.922667
 51
109.1581
  0
ARC
  8
APS_GEOMETR�
 10
794.694778
 20
517.687413
 40
225.340152
 50
89.849653
 51
99.255959
  0
ARC
  8
APS_GEOMETR�
 10
794.736558
 20
517.749909
 40
225.27755
 50
80.452186
 51
89.860237
  0
ARC
  8
APS_GEOMETR�
 10
820.856793
 20
669.77274
 40
71.030103
 50
56.307613
 51
80.889619
  0
ARC
  8
APS_GEOMETR�
 10
834.721481
 20
689.814291
 40
46.665635
 50
24.180972
 51
56.820935
  0
ARC
  8
APS_GEOMETR�
 10
844.679776
 20
743.462974
 40
47.498971
 50
288.019419
 51
313.361447
  0
ARC
  8
APS_GEOMETR�
 10
839.699164
 20
757.090295
 40
62.000783
 50
267.326003
 51
288.500754
  0
ARC
  8
APS_GEOMETR�
 10
844.422018
 20
694.39541
 40
7.653373
 50
174.288864
 51
210.901043
  0
ARC
  8
APS_GEOMETR�
 10
847.134862
 20
696.091721
 40
10.852474
 50
211.230112
 51
240.170239
  0
ARC
  8
APS_GEOMETR�
 10
849.701006
 20
700.314743
 40
15.792938
 50
239.714879
 51
262.189864
  0
ARC
  8
APS_GEOMETR�
 10
863.233253
 20
743.483494
 40
60.869021
 50
255.073756
 51
272.285488
  0
ARC
  8
APS_GEOMETR�
 10
863.543753
 20
741.817516
 40
59.192489
 50
272.049484
 51
289.587257
  0
ARC
  8
APS_GEOMETR�
 10
880.127229
 20
680.013247
 40
6.861247
 50
33.111521
 51
61.628851
  0
ARC
  8
APS_GEOMETR�
 10
881.867925
 20
681.173383
 40
4.769523
 50
356.431493
 51
32.861064
  0
ARC
  8
APS_GEOMETR�
 10
881.609239
 20
681.293853
 40
5.036282
 50
320.127368
 51
355.246701
  0
ARC
  8
APS_GEOMETR�
 10
864.884962
 20
749.93897
 40
74.764756
 50
268.990747
 51
285.985268
  0
ARC
  8
APS_GEOMETR�
 10
864.581133
 20
749.095859
 40
73.916988
 50
252.089506
 51
269.214709
  0
ARC
  8
APS_GEOMETR�
 10
860.031458
 20
735.868953
 40
59.932489
 50
232.624104
 51
252.339509
  0
ARC
  8
APS_GEOMETR�
 10
849.490322
 20
722.329188
 40
42.774225
 50
208.109881
 51
232.835108
  0
ARC
  8
APS_GEOMETR�
 10
823.894404
 20
676.701685
 40
28.215655
 50
115.46794
 51
143.009751
  0
ARC
  8
APS_GEOMETR�
 10
816.670804
 20
682.180465
 40
19.149447
 50
143.098974
 51
178.855738
  0
ARC
  8
APS_GEOMETR�
 10
816.538803
 20
682.583304
 40
19.013638
 50
180.061559
 51
215.990029
  0
ARC
  8
APS_GEOMETR�
 10
843.083076
 20
699.297319
 40
50.355788
 50
213.628427
 51
242.61348
  0
ARC
  8
APS_GEOMETR�
 10
853.916062
 20
718.816543
 40
72.673263
 50
242.108739
 51
264.741315
  0
ARC
  8
APS_GEOMETR�
 10
870.733675
 20
767.735307
 40
123.537689
 50
259.044314
 51
284.625562
  0
ARC
  8
APS_GEOMETR�
 10
904.795767
 20
631.66644
 40
16.781232
 50
79.909293
 51
99.842859
  0
ARC
  8
APS_GEOMETR�
 10
905.294537
 20
633.898639
 40
14.496518
 50
58.305076
 51
80.304368
  0
ARC
  8
APS_GEOMETR�
 10
907.718359
 20
637.690214
 40
9.997207
 50
30.453592
 51
58.70768
  0
ARC
  8
APS_GEOMETR�
 10
910.145528
 20
639.163919
 40
7.158069
 50
354.756526
 51
30.131772
  0
ARC
  8
APS_GEOMETR�
 10
909.617602
 20
639.354348
 40
7.702486
 50
320.031324
 51
353.704756
  0
ARC
  8
APS_GEOMETR�
 10
887.209711
 20
654.092463
 40
34.482632
 50
296.175362
 51
325.187361
  0
ARC
  8
APS_GEOMETR�
 10
880.175793
 20
667.366345
 40
49.500166
 50
273.971179
 51
296.704575
  0
ARC
  8
APS_GEOMETR�
 10
857.864427
 20
468.630989
 40
151.555766
 50
80.22177
 51
100.59767
  0
ARC
  8
APS_GEOMETR�
 10
836.836111
 20
514.212849
 40
103.615105
 50
93.787551
 51
122.946709
  0
ARC
  8
APS_GEOMETR�
 10
765.466044
 20
619.396692
 40
23.621288
 50
309.478312
 51
344.697987
  0
ARC
  8
APS_GEOMETR�
 10
769.435209
 20
617.888375
 40
19.39906
 50
345.901208
 51
26.12147
  0
ARC
  8
APS_GEOMETR�
 10
756.889078
 20
593.9007
 40
44.226022
 50
47.35019
 51
75.270829
  0
ARC
  8
APS_GEOMETR�
 10
752.995911
 20
581.709759
 40
57.010075
 50
74.601797
 51
98.116553
  0
ARC
  8
APS_GEOMETR�
 10
736.648602
 20
625.879242
 40
14.812204
 50
30.361834
 51
55.928423
  0
ARC
  8
APS_GEOMETR�
 10
739.981762
 20
627.880787
 40
10.924568
 50
358.77373
 51
30.140206
  0
ARC
  8
APS_GEOMETR�
 10
734.294139
 20
650.06377
 40
27.899708
 50
278.929843
 51
306.536559
  0
ARC
  8
APS_GEOMETR�
 10
733.067892
 20
655.118192
 40
33.085963
 50
255.073449
 51
279.668984
  0
ARC
  8
APS_GEOMETR�
 10
720.015599
 20
604.628165
 40
19.066445
 50
76.255674
 51
96.63758
  0
ARC
  8
APS_GEOMETR�
 10
719.686624
 20
606.388115
 40
17.280706
 50
96.228633
 51
118.007373
  0
ARC
  8
APS_GEOMETR�
 10
717.187026
 20
610.886373
 40
12.135846
 50
117.560987
 51
145.194871
  0
ARC
  8
APS_GEOMETR�
 10
714.123111
 20
613.045813
 40
8.387526
 50
145.360655
 51
180.796397
  0
ARC
  8
APS_GEOMETR�
 10
702.838097
 20
555.13259
 40
57.869266
 50
53.201049
 51
87.129224
  0
ARC
  8
APS_GEOMETR�
 10
717.55764
 20
601.177338
 40
19.946825
 50
323.954686
 51
0.843441
  0
ARC
  8
APS_GEOMETR�
 10
709.889424
 20
606.844771
 40
29.481918
 50
295.467418
 51
323.818172
  0
ARC
  8
APS_GEOMETR�
 10
704.219725
 20
617.877023
 40
41.881802
 50
273.606612
 51
295.980343
  0
ARC
  8
APS_GEOMETR�
 10
719.101965
 20
623.514433
 40
48.991874
 50
231.662876
 51
255.52289
  0
ARC
  8
APS_GEOMETR�
 10
708.76313
 20
610.759575
 40
32.574839
 50
200.601093
 51
232.010862
  0
ARC
  8
APS_GEOMETR�
 10
702.191096
 20
607.929495
 40
25.429506
 50
162.736189
 51
199.842508
  0
ARC
  8
APS_GEOMETR�
 10
699.2646
 20
589.634639
 40
33.525012
 50
103.536575
 51
129.572776
  0
LINE
  8
APS_GEOMETR�
 10
691.417533
 11
691.435734
 20
622.228349
 21
622.231188
  0
ARC
  8
APS_GEOMETR�
 10
687.011961
 20
652.646532
 40
30.735368
 50
278.275381
 51
304.777978
  0
ARC
  8
APS_GEOMETR�
 10
667.717041
 20
577.170237
 40
62.284459
 50
53.753525
 51
77.011601
  0
ARC
  8
APS_GEOMETR�
 10
664.139284
 20
564.191064
 40
75.737819
 50
76.581068
 51
96.966949
  0
ARC
  8
APS_GEOMETR�
 10
696.069273
 20
584.59588
 40
68.489073
 50
104.291921
 51
126.894265
  0
ARC
  8
APS_GEOMETR�
 10
700.461158
 20
569.66209
 40
84.046791
 50
84.988303
 51
104.68007
  0
ARC
  8
APS_GEOMETR�
 10
701.460692
 20
575.393458
 40
78.251581
 50
64.688239
 51
85.350763
  0
ARC
  8
APS_GEOMETR�
 10
723.292911
 20
656.463229
 40
15.55106
 50
318.370479
 51
358.335203
  0
ARC
  8
APS_GEOMETR�
 10
723.466655
 20
656.002883
 40
15.370754
 50
0.031889
 51
40.312428
  0
ARC
  8
APS_GEOMETR�
 10
736.807244
 20
593.846627
 40
72.118641
 50
71.607194
 51
91.287109
  0
ARC
  8
APS_GEOMETR�
 10
742.136937
 20
608.678289
 40
56.364233
 50
48.75905
 51
71.991034
  0
ARC
  8
APS_GEOMETR�
 10
758.351798
 20
666.357343
 40
25.933435
 50
323.855075
 51
355.582527
  0
ARC
  8
APS_GEOMETR�
 10
759.537909
 20
665.89099
 40
24.717751
 50
356.448588
 51
29.215983
  0
ARC
  8
APS_GEOMETR�
 10
732.597442
 20
641.53024
 40
60.666364
 50
36.900295
 51
63.137114
  0
ARC
  8
APS_GEOMETR�
 10
721.134079
 20
620.219277
 40
84.859569
 50
62.734127
 51
83.665017
  0
ARC
  8
APS_GEOMETR�
 10
725.782361
 20
621.505883
 40
83.188531
 50
86.750667
 51
105.893337
  0
ARC
  8
APS_GEOMETR�
 10
721.009667
 20
636.744224
 40
67.227009
 50
105.537707
 51
127.631388
  0
ARC
  8
APS_GEOMETR�
 10
707.886973
 20
653.380269
 40
46.040162
 50
127.338978
 51
155.839388
  0
ARC
  8
APS_GEOMETR�
 10
659.267683
 20
676.722154
 40
7.996955
 50
300.23552
 51
325.775042
  0
ARC
  8
APS_GEOMETR�
 10
657.583758
 20
679.482891
 40
11.230264
 50
280.239448
 51
300.565431
  0
ARC
  8
APS_GEOMETR�
 10
657.209314
 20
681.155664
 40
12.943154
 50
262.079628
 51
280.554301
  0
ARC
  8
APS_GEOMETR�
 10
656.965798
 20
679.860082
 40
11.626544
 50
242.531122
 51
262.388444
  0
ARC
  8
APS_GEOMETR�
 10
655.456396
 20
677.06539
 40
8.450833
 50
218.261976
 51
242.871042
  0
ARC
  8
APS_GEOMETR�
 10
729.612422
 20
637.888186
 40
87.632534
 50
136.399808
 51
157.210649
  0
ARC
  8
APS_GEOMETR�
 10
470.370129
 20
462.108713
 40
87.625696
 50
295.593314
 51
316.405262
  0
ARC
  8
APS_GEOMETR�
 10
410.716445
 20
556.140259
 40
198.63817
 50
289.162253
 51
299.398031
  0
ARC
  8
APS_GEOMETR�
 10
410.716445
 20
556.140259
 40
198.63817
 50
278.926474
 51
289.162253
  0
ARC
  8
APS_GEOMETR�
 10
405.278871
 20
582.310939
 40
225.339421
 50
269.853463
 51
279.259789
  0
ARC
  8
APS_GEOMETR�
 10
405.237099
 20
582.250084
 40
225.278464
 50
260.456022
 51
269.864047
  0
ARC
  8
APS_GEOMETR�
 10
379.127578
 20
430.228441
 40
71.034
 50
236.312298
 51
260.893397
  0
ARC
  8
APS_GEOMETR�
 10
365.264323
 20
410.185612
 40
46.669299
 50
204.187459
 51
236.825691
  0
ARC
  8
APS_GEOMETR�
 10
355.305698
 20
356.536028
 40
47.495612
 50
108.023446
 51
133.36668
  0
ARC
  8
APS_GEOMETR�
 10
360.287877
 20
342.907166
 40
61.999411
 50
87.329721
 51
108.504787
  0
ARC
  8
APS_GEOMETR�
 10
355.560589
 20
405.599935
 40
7.653629
 50
354.296069
 51
30.907419
  0
ARC
  8
APS_GEOMETR�
 10
352.847387
 20
403.903046
 40
10.853342
 50
31.236231
 51
60.174798
  0
ARC
  8
APS_GEOMETR�
 10
350.281605
 20
399.679897
 40
15.793727
 50
59.719405
 51
82.193635
  0
ARC
  8
APS_GEOMETR�
 10
336.752218
 20
356.509939
 40
60.870104
 50
75.077713
 51
92.289239
  0
ARC
  8
APS_GEOMETR�
 10
336.4415
 20
358.178753
 40
59.190714
 50
92.053234
 51
109.591359
  0
ARC
  8
APS_GEOMETR�
 10
319.854415
 20
419.980665
 40
6.861795
 50
213.117536
 51
241.633333
  0
ARC
  8
APS_GEOMETR�
 10
318.113525
 20
418.820165
 40
4.769706
 50
176.438707
 51
212.867329
  0
ARC
  8
APS_GEOMETR�
 10
318.371764
 20
418.699756
 40
5.036003
 50
140.133198
 51
175.253849
  0
ARC
  8
APS_GEOMETR�
 10
335.100497
 20
350.057011
 40
74.763184
 50
88.994496
 51
105.989257
  0
ARC
  8
APS_GEOMETR�
 10
335.404217
 20
350.896644
 40
73.918915
 50
72.093554
 51
89.218458
  0
ARC
  8
APS_GEOMETR�
 10
339.952338
 20
364.121912
 40
59.93647
 50
52.629026
 51
72.343553
  0
ARC
  8
APS_GEOMETR�
 10
350.492699
 20
377.663019
 40
42.777624
 50
28.116164
 51
52.840072
  0
ARC
  8
APS_GEOMETR�
 10
376.08843
 20
423.29334
 40
28.213437
 50
295.472276
 51
323.015546
  0
ARC
  8
APS_GEOMETR�
 10
383.311511
 20
417.816006
 40
19.148517
 50
323.104994
 51
358.862933
  0
ARC
  8
APS_GEOMETR�
 10
383.441751
 20
417.413198
 40
19.01452
 50
0.068763
 51
35.996105
  0
ARC
  8
APS_GEOMETR�
 10
356.896583
 20
400.694735
 40
50.359795
 50
33.634412
 51
62.61791
  0
ARC
  8
APS_GEOMETR�
 10
346.065419
 20
381.175402
 40
72.67648
 50
62.113146
 51
84.745049
  0
ARC
  8
APS_GEOMETR�
 10
329.251496
 20
332.259357
 40
123.537049
 50
79.048088
 51
104.629425
  0
ARC
  8
APS_GEOMETR�
 10
295.180404
 20
468.325316
 40
16.781238
 50
259.913111
 51
279.846673
  0
ARC
  8
APS_GEOMETR�
 10
294.681914
 20
466.093842
 40
14.497294
 50
238.309677
 51
260.308178
  0
ARC
  8
APS_GEOMETR�
 10
292.258399
 20
462.302099
 40
9.998007
 50
210.459754
 51
238.712319
  0
ARC
  8
APS_GEOMETR�
 10
289.830889
 20
460.827872
 40
7.158307
 50
174.763717
 51
210.138169
  0
ARC
  8
APS_GEOMETR�
 10
290.358163
 20
460.637569
 40
7.702046
 50
140.037131
 51
173.711864
  0
ARC
  8
APS_GEOMETR�
 10
312.765682
 20
445.903054
 40
34.479903
 50
116.179732
 51
145.193278
  0
ARC
  8
APS_GEOMETR�
 10
319.800883
 20
432.629078
 40
49.498121
 50
93.974898
 51
116.708925
  0
ARC
  8
APS_GEOMETR�
 10
342.099229
 20
631.363708
 40
151.555589
 50
260.225578
 51
280.601494
  0
ARC
  8
APS_GEOMETR�
 10
363.131193
 20
585.778475
 40
103.610123
 50
273.791203
 51
302.951309
  0
ARC
  8
APS_GEOMETR�
 10
434.50609
 20
480.606003
 40
23.619585
 50
129.48347
 51
164.704863
  0
ARC
  8
APS_GEOMETR�
 10
430.538713
 20
482.1134
 40
19.399375
 50
165.908334
 51
206.128153
  0
ARC
  8
APS_GEOMETR�
 10
443.084647
 20
506.103811
 40
44.229015
 50
227.355362
 51
255.274728
  0
ARC
  8
APS_GEOMETR�
 10
446.976369
 20
518.292689
 40
57.01066
 50
254.605707
 51
278.1203
  0
ARC
  8
APS_GEOMETR�
 10
463.327092
 20
474.124831
 40
14.813392
 50
210.368002
 51
235.933213
  0
ARC
  8
APS_GEOMETR�
 10
459.993469
 20
472.122566
 40
10.924988
 50
178.780881
 51
210.146544
  0
ARC
  8
APS_GEOMETR�
 10
465.681575
 20
449.940911
 40
27.898108
 50
98.933591
 51
126.541375
  0
ARC
  8
APS_GEOMETR�
 10
466.90845
 20
444.884748
 40
33.086208
 50
75.077333
 51
99.672745
  0
ARC
  8
APS_GEOMETR�
 10
479.957424
 20
495.376083
 40
19.066636
 50
256.25957
 51
276.641339
  0
ARC
  8
APS_GEOMETR�
 10
480.286624
 20
493.615182
 40
17.279918
 50
276.232386
 51
298.011793
  0
ARC
  8
APS_GEOMETR�
 10
482.786643
 20
489.116954
 40
12.134881
 50
297.565428
 51
325.200792
  0
ARC
  8
APS_GEOMETR�
 10
485.850272
 20
486.958145
 40
8.387158
 50
325.366804
 51
0.803598
  0
ARC
  8
APS_GEOMETR�
 10
497.13143
 20
544.875545
 40
57.872216
 50
233.205812
 51
267.132812
  0
ARC
  8
APS_GEOMETR�
 10
482.41303
 20
498.828053
 40
19.945921
 50
143.960774
 51
180.850661
  0
ARC
  8
APS_GEOMETR�
 10
490.08063
 20
493.16217
 40
29.479596
 50
115.471754
 51
143.824012
  0
ARC
  8
APS_GEOMETR�
 10
495.751419
 20
482.129752
 40
41.880127
 50
93.610331
 51
115.984663
  0
ARC
  8
APS_GEOMETR�
 10
480.869027
 20
476.48661
 40
48.995025
 50
51.667826
 51
75.526807
  0
ARC
  8
APS_GEOMETR�
 10
491.207232
 20
489.242851
 40
32.577314
 50
20.607742
 51
52.015901
  0
ARC
  8
APS_GEOMETR�
 10
497.781206
 20
492.074433
 40
25.429596
 50
342.743171
 51
19.849401
  0
ARC
  8
APS_GEOMETR�
 10
500.707827
 20
510.368691
 40
33.522852
 50
283.540451
 51
309.577781
  0
LINE
  8
APS_GEOMETR�
 10
508.556592
 11
508.538392
 20
477.777612
 21
477.774771
  0
ARC
  8
APS_GEOMETR�
 10
512.963909
 20
447.36139
 40
30.733677
 50
98.279126
 51
124.782706
  0
ARC
  8
APS_GEOMETR�
 10
532.255725
 20
522.841033
 40
62.288271
 50
233.758362
 51
257.01548
  0
ARC
  8
APS_GEOMETR�
 10
535.831896
 20
535.817407
 40
75.73851
 50
256.584956
 51
276.970712
  0
ARC
  8
APS_GEOMETR�
 10
503.904857
 20
515.405558
 40
68.484758
 50
284.295842
 51
306.899142
  0
ARC
  8
APS_GEOMETR�
 10
499.511164
 20
530.342117
 40
84.045644
 50
264.992051
 51
284.683998
  0
ARC
  8
APS_GEOMETR�
 10
498.512368
 20
524.614984
 40
78.254751
 50
244.692544
 51
265.354506
  0
ARC
  8
APS_GEOMETR�
 10
476.684531
 20
443.541563
 40
15.550227
 50
138.376266
 51
178.342444
  0
ARC
  8
APS_GEOMETR�
 10
476.512338
 20
444.001868
 40
15.371531
 50
180.039148
 51
220.318304
  0
ARC
  8
APS_GEOMETR�
 10
463.167447
 20
506.158035
 40
72.120363
 50
251.611237
 51
271.290837
  0
ARC
  8
APS_GEOMETR�
 10
457.839472
 20
491.328082
 40
56.368145
 50
228.76417
 51
251.995071
  0
ARC
  8
APS_GEOMETR�
 10
441.626342
 20
433.645753
 40
25.932095
 50
143.861086
 51
175.589644
  0
ARC
  8
APS_GEOMETR�
 10
440.442358
 20
434.111824
 40
24.7186
 50
176.455753
 51
209.222388
  0
ARC
  8
APS_GEOMETR�
 10
467.383583
 20
458.477544
 40
60.671166
 50
216.906098
 51
243.141521
  0
ARC
  8
APS_GEOMETR�
 10
478.844901
 20
479.788479
 40
84.863376
 50
242.738519
 51
263.668778
  0
ARC
  8
APS_GEOMETR�
 10
474.196231
 20
478.496305
 40
83.187051
 50
266.754407
 51
285.897305
  0
ARC
  8
APS_GEOMETR�
 10
478.97075
 20
463.255526
 40
67.222656
 50
285.541668
 51
307.63631
  0
ARC
  8
APS_GEOMETR�
 10
492.094349
 20
446.621174
 40
46.036576
 50
307.343965
 51
335.845869
  0
ARC
  8
APS_GEOMETR�
 10
540.712435
 20
423.286556
 40
7.996313
 50
120.2401
 51
145.781
  0
ARC
  8
APS_GEOMETR�
 10
542.396597
 20
420.52591
 40
11.229669
 50
100.243283
 51
120.569988
  0
ARC
  8
APS_GEOMETR�
 10
542.771252
 20
418.852624
 40
12.943105
 50
82.083422
 51
100.558141
  0
ARC
  8
APS_GEOMETR�
 10
543.014601
 20
420.147637
 40
11.627086
 50
62.535532
 51
82.392233
  0
ARC
  8
APS_GEOMETR�
 10
544.523736
 20
422.942331
 40
8.451501
 50
38.267705
 51
62.875465
  0
ARC
  8
APS_GEOMETR�
 10
470.370129
 20
462.108713
 40
87.625696
 50
316.405262
 51
337.21721
  0
ARC
  8
APS_GEOMETR�
 10
729.622377
 20
462.132648
 40
87.636499
 50
223.603354
 51
244.413554
  0
ARC
  8
APS_GEOMETR�
 10
789.26715
 20
556.175749
 40
198.653945
 50
240.609073
 51
250.844307
  0
ARC
  8
APS_GEOMETR�
 10
789.26715
 20
556.175749
 40
198.653945
 50
250.844307
 51
261.07954
  0
ARC
  8
APS_GEOMETR�
 10
794.699572
 20
582.332576
 40
225.340574
 50
260.746262
 51
270.152556
  0
ARC
  8
APS_GEOMETR�
 10
794.741357
 20
582.269128
 40
225.277019
 50
270.141972
 51
279.550037
  0
ARC
  8
APS_GEOMETR�
 10
820.867801
 20
430.245611
 40
71.027844
 50
279.112571
 51
303.695104
  0
ARC
  8
APS_GEOMETR�
 10
834.733321
 20
410.204802
 40
46.663512
 50
303.181822
 51
335.822789
  0
ARC
  8
APS_GEOMETR�
 10
844.691424
 20
356.55664
 40
47.500919
 50
46.641586
 51
71.982915
  0
ARC
  8
APS_GEOMETR�
 10
839.711721
 20
342.930213
 40
62.001578
 50
71.501583
 51
92.676152
  0
ARC
  8
APS_GEOMETR�
 10
844.432005
 20
405.626323
 40
7.653224
 50
149.102653
 51
185.715313
  0
ARC
  8
APS_GEOMETR�
 10
847.144641
 20
403.930348
 40
10.851971
 50
119.832404
 51
148.773435
  0
ARC
  8
APS_GEOMETR�
 10
849.710995
 20
399.7074
 40
15.792481
 50
97.812322
 51
120.287744
  0
ARC
  8
APS_GEOMETR�
 10
863.244899
 20
356.539349
 40
60.868393
 50
87.716686
 51
104.928537
  0
ARC
  8
APS_GEOMETR�
 10
863.555274
 20
358.203683
 40
59.193517
 50
70.415121
 51
87.95269
  0
ARC
  8
APS_GEOMETR�
 10
880.136656
 20
420.009317
 40
6.86093
 50
298.373747
 51
326.891966
  0
ARC
  8
APS_GEOMETR�
 10
881.87724
 20
418.849393
 40
4.769416
 50
327.142567
 51
3.572689
  0
ARC
  8
APS_GEOMETR�
 10
881.618295
 20
418.728887
 40
5.036444
 50
4.757442
 51
39.876012
  0
ARC
  8
APS_GEOMETR�
 10
864.896601
 20
350.082395
 40
74.765667
 50
74.017044
 51
91.011426
  0
ARC
  8
APS_GEOMETR�
 10
864.592709
 20
350.927523
 40
73.915871
 50
90.787464
 51
107.91284
  0
ARC
  8
APS_GEOMETR�
 10
860.042133
 20
364.155378
 40
59.930181
 50
107.662835
 51
127.378749
  0
ARC
  8
APS_GEOMETR�
 10
849.500548
 20
377.694364
 40
42.772255
 50
127.167769
 51
151.893761
  0
ARC
  8
APS_GEOMETR�
 10
823.904522
 20
423.320234
 40
28.216941
 50
216.993608
 51
244.534574
  0
ARC
  8
APS_GEOMETR�
 10
816.680621
 20
417.840616
 40
19.149987
 50
181.148432
 51
216.904516
  0
ARC
  8
APS_GEOMETR�
 10
816.547599
 20
417.437759
 40
19.013127
 50
144.013494
 51
179.942617
  0
ARC
  8
APS_GEOMETR�
 10
843.091354
 20
400.726323
 40
50.353466
 50
117.389088
 51
146.375042
  0
ARC
  8
APS_GEOMETR�
 10
853.925395
 20
381.207162
 40
72.671398
 50
95.260849
 51
117.893815
  0
ARC
  8
APS_GEOMETR�
 10
870.745148
 20
332.286822
 40
123.53806
 50
75.376678
 51
100.957874
  0
ARC
  8
APS_GEOMETR�
 10
904.802022
 20
468.357375
 40
16.781228
 50
260.159352
 51
280.092921
  0
ARC
  8
APS_GEOMETR�
 10
905.300954
 20
466.124755
 40
14.496068
 50
279.697841
 51
301.697592
  0
ARC
  8
APS_GEOMETR�
 10
907.724954
 20
462.333277
 40
9.996743
 50
301.295008
 51
329.54998
  0
ARC
  8
APS_GEOMETR�
 10
910.151926
 20
460.859874
 40
7.157932
 50
329.871936
 51
5.247642
  0
ARC
  8
APS_GEOMETR�
 10
909.623622
 20
460.669373
 40
7.702742
 50
6.299364
 51
39.972042
  0
ARC
  8
APS_GEOMETR�
 10
887.215516
 20
445.929171
 40
34.484214
 50
34.816069
 51
63.82717
  0
ARC
  8
APS_GEOMETR�
 10
880.182341
 20
432.655343
 40
49.501351
 50
63.297946
 51
86.030977
  0
ARC
  8
APS_GEOMETR�
 10
857.863427
 20
631.391119
 40
151.555867
 50
259.404547
 51
279.780437
  0
ARC
  8
APS_GEOMETR�
 10
836.837227
 20
585.811215
 40
103.617993
 50
237.055957
 51
266.214566
  0
ARC
  8
APS_GEOMETR�
 10
765.469959
 20
480.620781
 40
23.622275
 50
15.305999
 51
50.524678
  0
ARC
  8
APS_GEOMETR�
 10
769.44016
 20
482.129631
 40
19.398877
 50
333.882404
 51
14.102924
  0
ARC
  8
APS_GEOMETR�
 10
756.893916
 20
506.115721
 40
44.224287
 50
284.731431
 51
312.652809
  0
ARC
  8
APS_GEOMETR�
 10
752.999911
 20
518.307856
 40
57.009735
 50
261.885619
 51
285.400469
  0
ARC
  8
APS_GEOMETR�
 10
736.654581
 20
474.137432
 40
14.811516
 50
304.074353
 51
329.641741
  0
ARC
  8
APS_GEOMETR�
 10
739.987473
 20
472.136305
 40
10.924325
 50
329.863468
 51
1.230415
  0
ARC
  8
APS_GEOMETR�
 10
734.30013
 20
449.952552
 40
27.900636
 50
53.466233
 51
81.07233
  0
ARC
  8
APS_GEOMETR�
 10
733.074246
 20
444.89914
 40
33.085821
 50
80.333196
 51
104.928803
  0
ARC
  8
APS_GEOMETR�
 10
720.02003
 20
495.388407
 40
19.066334
 50
263.364599
 51
283.746585
  0
ARC
  8
APS_GEOMETR�
 10
719.691185
 20
493.629009
 40
17.281163
 50
241.995189
 51
263.773542
  0
ARC
  8
APS_GEOMETR�
 10
717.19183
 20
489.130734
 40
12.136406
 50
214.808561
 51
242.441587
  0
ARC
  8
APS_GEOMETR�
 10
714.12775
 20
486.970928
 40
8.38774
 50
179.207777
 51
214.642909
  0
ARC
  8
APS_GEOMETR�
 10
702.840502
 20
544.88173
 40
57.867556
 50
272.872857
 51
306.801711
  0
ARC
  8
APS_GEOMETR�
 10
717.560708
 20
498.838572
 40
19.947349
 50
359.160744
 51
36.048843
  0
ARC
  8
APS_GEOMETR�
 10
709.892135
 20
493.17024
 40
29.483264
 50
36.185213
 51
64.535095
  0
ARC
  8
APS_GEOMETR�
 10
704.223067
 20
482.138084
 40
41.882773
 50
64.022161
 51
86.395544
  0
ARC
  8
APS_GEOMETR�
 10
719.105219
 20
476.503997
 40
48.990047
 50
104.479381
 51
128.339993
  0
ARC
  8
APS_GEOMETR�
 10
708.766019
 20
489.258053
 40
32.573404
 50
127.992059
 51
159.402761
  0
ARC
  8
APS_GEOMETR�
 10
702.19511
 20
492.087263
 40
25.429454
 50
160.161488
 51
197.267859
  0
ARC
  8
APS_GEOMETR�
 10
699.268685
 20
510.382466
 40
33.526264
 50
230.430125
 51
256.465671
  0
LINE
  8
APS_GEOMETR�
 10
691.422603
 11
691.440804
 20
477.787231
 21
477.784392
  0
ARC
  8
APS_GEOMETR�
 10
687.018043
 20
447.367911
 40
30.736348
 50
55.224762
 51
81.72679
  0
ARC
  8
APS_GEOMETR�
 10
667.721323
 20
522.842266
 40
62.282249
 50
282.990648
 51
306.249278
  0
ARC
  8
APS_GEOMETR�
 10
664.142646
 20
535.82306
 40
75.737419
 50
263.035232
 51
283.421186
  0
ARC
  8
APS_GEOMETR�
 10
696.074346
 20
515.422321
 40
68.491575
 50
233.108562
 51
255.710351
  0
ARC
  8
APS_GEOMETR�
 10
700.465183
 20
530.354506
 40
84.047455
 50
255.322207
 51
275.01387
  0
ARC
  8
APS_GEOMETR�
 10
701.465145
 20
524.620683
 40
78.249744
 50
274.651407
 51
295.314257
  0
ARC
  8
APS_GEOMETR�
 10
723.299903
 20
443.553029
 40
15.551543
 50
1.668995
 51
41.632876
  0
ARC
  8
APS_GEOMETR�
 10
723.474547
 20
444.013399
 40
15.370304
 50
319.690979
 51
359.972319
  0
ARC
  8
APS_GEOMETR�
 10
736.812642
 20
506.169705
 40
72.117642
 50
268.715051
 51
288.39515
  0
ARC
  8
APS_GEOMETR�
 10
742.143331
 20
491.337054
 40
56.361965
 50
288.011307
 51
311.243919
  0
ARC
  8
APS_GEOMETR�
 10
758.359196
 20
433.659898
 40
25.934212
 50
4.421598
 51
36.14841
  0
ARC
  8
APS_GEOMETR�
 10
759.546539
 20
434.126415
 40
24.717259
 50
330.787731
 51
3.555565
  0
ARC
  8
APS_GEOMETR�
 10
732.606511
 20
458.484283
 40
60.663581
 50
296.865441
 51
323.10307
  0
ARC
  8
APS_GEOMETR�
 10
721.141963
 20
479.795262
 40
84.857362
 50
276.337164
 51
297.268419
  0
ARC
  8
APS_GEOMETR�
 10
725.79002
 20
478.511884
 40
83.189389
 50
254.108963
 51
273.2515
  0
ARC
  8
APS_GEOMETR�
 10
721.018384
 20
463.274956
 40
67.229532
 50
232.371465
 51
254.464589
  0
ARC
  8
APS_GEOMETR�
 10
707.896214
 20
446.637931
 40
46.042241
 50
204.164369
 51
232.663912
  0
ARC
  8
APS_GEOMETR�
 10
659.276227
 20
423.291832
 40
7.997327
 50
34.228411
 51
59.767135
  0
ARC
  8
APS_GEOMETR�
 10
657.59244
 20
420.531043
 40
11.230609
 50
59.43721
 51
79.762774
  0
ARC
  8
APS_GEOMETR�
 10
657.218117
 20
418.858567
 40
12.943182
 50
79.447926
 51
97.922572
  0
ARC
  8
APS_GEOMETR�
 10
656.974506
 20
420.154479
 40
11.62623
 50
97.613752
 51
117.471435
  0
ARC
  8
APS_GEOMETR�
 10
655.464948
 20
422.94917
 40
8.450446
 50
117.131521
 51
141.741346
  0
ARC
  8
APS_GEOMETR�
 10
729.622377
 20
462.132648
 40
87.636499
 50
202.793154
 51
223.603354
  0
ARC
  8
APS_GEOMETR�
 10
1090.789562
 20
433.318048
 40
259.215459
 50
254.481852
 51
257.549597
  0
ARC
  8
APS_GEOMETR�
 10
1031.11667
 20
218.106926
 40
35.884687
 50
233.390038
 51
254.352853
  0
ARC
  8
APS_GEOMETR�
 10
1067.117662
 20
190.586594
 40
57.41572
 50
181.282225
 51
205.844338
  0
ARC
  8
APS_GEOMETR�
 10
1068.21692
 20
191.127626
 40
58.640884
 50
205.851882
 51
230.075655
  0
ARC
  8
APS_GEOMETR�
 10
1063.566889
 20
195.081396
 40
59.005247
 50
236.012955
 51
255.218222
  0
ARC
  8
APS_GEOMETR�
 10
1066.839241
 20
206.286332
 40
70.674912
 50
254.970762
 51
271.983659
  0
ARC
  8
APS_GEOMETR�
 10
1067.170475
 20
204.631338
 40
69.009988
 50
271.756378
 51
289.043921
  0
ARC
  8
APS_GEOMETR�
 10
1108.458803
 20
102.414596
 40
41.474615
 50
95.608089
 51
116.909769
  0
ARC
  8
APS_GEOMETR�
 10
1109.134785
 20
98.671724
 40
45.266672
 50
75.914479
 51
95.99665
  0
LINE
  8
APS_GEOMETR�
 10
1120.151331
 11
1120.149157
 20
142.577388
 21
158.343368
  0
ARC
  8
APS_GEOMETR�
 10
1099.979663
 20
312.235705
 40
155.20844
 50
268.569903
 51
277.466762
  0
ARC
  8
APS_GEOMETR�
 10
1094.293144
 20
180.117521
 40
23.113123
 50
257.355885
 51
274.498754
  0
ARC
  8
APS_GEOMETR�
 10
1093.47681
 20
176.877294
 40
19.772977
 50
238.570584
 51
257.608762
  0
ARC
  8
APS_GEOMETR�
 10
1076.722858
 20
165.322442
 40
8.353959
 50
320.470429
 51
351.865503
  0
ARC
  8
APS_GEOMETR�
 10
1077.441299
 20
165.105432
 40
7.612881
 50
352.717265
 51
26.134191
  0
ARC
  8
APS_GEOMETR�
 10
1075.204878
 20
163.932034
 40
10.137745
 50
26.52048
 51
54.086383
  0
ARC
  8
APS_GEOMETR�
 10
1072.489727
 20
160.312496
 40
14.662025
 50
53.78973
 51
75.298187
  0
ARC
  8
APS_GEOMETR�
 10
1091.288458
 20
436.259356
 40
262.198752
 50
263.658983
 51
266.703401
  0
ARC
  8
APS_GEOMETR�
 10
1091.288458
 20
436.259356
 40
262.198752
 50
260.614565
 51
263.658983
  0
ARC
  8
APS_GEOMETR�
 10
1090.789562
 20
433.318048
 40
259.215459
 50
257.549597
 51
260.617342
  0
ARC
  8
APS_GEOMETR�
 10
109.374619
 20
433.308065
 40
259.213612
 50
282.451388
 51
285.519148
  0
ARC
  8
APS_GEOMETR�
 10
169.050933
 20
218.099216
 40
35.884115
 50
285.648136
 51
306.611176
  0
ARC
  8
APS_GEOMETR�
 10
133.050695
 20
190.578021
 40
57.415196
 50
334.157273
 51
358.719536
  0
ARC
  8
APS_GEOMETR�
 10
131.951984
 20
191.11877
 40
58.639744
 50
309.925621
 51
334.14971
  0
ARC
  8
APS_GEOMETR�
 10
136.601778
 20
195.072829
 40
59.00435
 50
284.782763
 51
303.988226
  0
ARC
  8
APS_GEOMETR�
 10
133.329086
 20
206.278263
 40
70.674589
 50
268.017276
 51
285.030225
  0
ARC
  8
APS_GEOMETR�
 10
132.997907
 20
204.624083
 40
69.010484
 50
250.957096
 51
268.244557
  0
ARC
  8
APS_GEOMETR�
 10
91.711075
 20
102.405713
 40
41.475065
 50
63.091321
 51
84.392845
  0
ARC
  8
APS_GEOMETR�
 10
91.035211
 20
98.663407
 40
45.266543
 50
84.004286
 51
104.086495
  0
LINE
  8
APS_GEOMETR�
 10
80.017951
 11
80.019649
 20
142.568758
 21
158.334738
  0
ARC
  8
APS_GEOMETR�
 10
100.186611
 20
312.227742
 40
155.208772
 50
262.534197
 51
271.431043
  0
ARC
  8
APS_GEOMETR�
 10
105.875318
 20
180.109255
 40
23.113056
 50
265.502184
 51
282.645086
  0
ARC
  8
APS_GEOMETR�
 10
106.691753
 20
176.868835
 40
19.7727
 50
282.392208
 51
301.430564
  0
ARC
  8
APS_GEOMETR�
 10
123.445858
 20
165.314667
 40
8.354081
 50
188.136254
 51
219.531018
  0
ARC
  8
APS_GEOMETR�
 10
122.727254
 20
165.097615
 40
7.612833
 50
153.867445
 51
187.284515
  0
ARC
  8
APS_GEOMETR�
 10
124.963569
 20
163.92434
 40
10.137545
 50
125.914837
 51
153.481106
  0
ARC
  8
APS_GEOMETR�
 10
127.678777
 20
160.304882
 40
14.661795
 50
104.702794
 51
126.211478
  0
ARC
  8
APS_GEOMETR�
 10
108.875627
 20
436.249649
 40
262.197192
 50
273.297545
 51
276.341976
  0
ARC
  8
APS_GEOMETR�
 10
108.875627
 20
436.249649
 40
262.197192
 50
276.341976
 51
279.386406
  0
ARC
  8
APS_GEOMETR�
 10
109.374619
 20
433.308065
 40
259.213612
 50
279.383629
 51
282.451388
  0
ARC
  8
APS_GEOMETR�
 10
1090.772827
 20
666.717232
 40
259.21116
 50
102.452696
 51
105.520474
  0
ARC
  8
APS_GEOMETR�
 10
1031.091972
 20
881.923066
 40
35.883355
 50
105.649449
 51
126.612786
  0
ARC
  8
APS_GEOMETR�
 10
1067.091211
 20
909.445406
 40
57.414501
 50
154.15941
 51
178.721873
  0
ARC
  8
APS_GEOMETR�
 10
1068.189195
 20
908.905033
 40
58.63823
 50
129.927314
 51
154.151823
  0
ARC
  8
APS_GEOMETR�
 10
1063.539716
 20
904.95059
 40
59.00316
 50
104.784071
 51
123.989793
  0
ARC
  8
APS_GEOMETR�
 10
1066.812858
 20
893.744495
 40
70.67416
 50
88.018516
 51
105.031535
  0
ARC
  8
APS_GEOMETR�
 10
1067.143966
 20
895.397595
 40
69.011143
 50
70.958446
 51
88.245796
  0
ARC
  8
APS_GEOMETR�
 10
1108.428813
 20
997.618124
 40
41.475662
 50
243.092766
 51
264.394085
  0
ARC
  8
APS_GEOMETR�
 10
1109.104518
 20
1001.359681
 40
45.266372
 50
264.005527
 51
284.087786
  0
LINE
  8
APS_GEOMETR�
 10
1120.122727
 11
1120.12166
 20
957.454744
 21
941.688764
  0
ARC
  8
APS_GEOMETR�
 10
1099.958059
 20
787.794875
 40
155.209213
 50
82.53547
 51
91.432299
  0
ARC
  8
APS_GEOMETR�
 10
1094.266447
 20
919.913767
 40
23.112968
 50
85.503428
 51
102.646374
  0
ARC
  8
APS_GEOMETR�
 10
1093.44988
 20
923.15444
 40
19.772333
 50
102.393494
 51
121.432088
  0
ARC
  8
APS_GEOMETR�
 10
1076.69557
 20
934.707701
 40
8.354244
 50
8.138584
 51
39.532937
  0
ARC
  8
APS_GEOMETR�
 10
1077.414391
 20
934.92481
 40
7.612768
 50
333.869616
 51
7.286876
  0
ARC
  8
APS_GEOMETR�
 10
1075.178215
 20
936.097921
 40
10.13728
 50
305.916457
 51
333.48321
  0
ARC
  8
APS_GEOMETR�
 10
1072.462934
 20
939.717274
 40
14.661491
 50
284.704096
 51
306.21308
  0
ARC
  8
APS_GEOMETR�
 10
1091.271947
 20
663.775283
 40
262.195121
 50
93.298801
 51
96.343248
  0
ARC
  8
APS_GEOMETR�
 10
1091.271947
 20
663.775283
 40
262.195121
 50
96.343248
 51
99.387694
  0
ARC
  8
APS_GEOMETR�
 10
1090.772827
 20
666.717232
 40
259.21116
 50
99.384917
 51
102.452696
  0
ARC
  8
APS_GEOMETR�
 10
109.357885
 20
666.680763
 40
259.21791
 50
74.483179
 51
77.550904
  0
ARC
  8
APS_GEOMETR�
 10
169.026235
 20
881.894899
 40
35.885447
 50
53.391648
 51
74.354166
  0
ARC
  8
APS_GEOMETR�
 10
133.024244
 20
909.414085
 40
57.416416
 50
1.284562
 51
25.846475
  0
ARC
  8
APS_GEOMETR�
 10
131.924259
 20
908.872678
 40
58.642397
 50
25.853995
 51
50.077348
  0
ARC
  8
APS_GEOMETR�
 10
136.574606
 20
904.919292
 40
59.006437
 50
56.014522
 51
75.21953
  0
ARC
  8
APS_GEOMETR�
 10
133.302704
 20
893.715017
 40
70.675341
 50
74.972071
 51
91.984899
  0
ARC
  8
APS_GEOMETR�
 10
132.971399
 20
895.371091
 40
69.009329
 50
91.757617
 51
109.045272
  0
ARC
  8
APS_GEOMETR�
 10
91.681086
 20
997.585673
 40
41.474018
 50
275.609328
 51
296.911214
  0
ARC
  8
APS_GEOMETR�
 10
91.004945
 20
1001.329295
 40
45.266843
 50
255.915771
 51
275.997891
  0
LINE
  8
APS_GEOMETR�
 10
79.989347
 11
79.992153
 20
957.423217
 21
941.657237
  0
ARC
  8
APS_GEOMETR�
 10
100.165008
 20
787.765785
 40
155.208
 50
88.571159
 51
97.468034
  0
ARC
  8
APS_GEOMETR�
 10
105.848623
 20
919.883564
 40
23.113211
 50
77.357173
 51
94.499999
  0
ARC
  8
APS_GEOMETR�
 10
106.664824
 20
923.123537
 40
19.773344
 50
58.572108
 51
77.610048
  0
ARC
  8
APS_GEOMETR�
 10
123.418571
 20
934.679296
 40
8.353797
 50
140.472348
 51
171.867834
  0
ARC
  8
APS_GEOMETR�
 10
122.700346
 20
934.896249
 40
7.612946
 50
172.719626
 51
206.136362
  0
ARC
  8
APS_GEOMETR�
 10
124.936907
 20
936.069812
 40
10.138009
 50
206.522584
 51
234.088003
  0
ARC
  8
APS_GEOMETR�
 10
127.651984
 20
939.689455
 40
14.662329
 50
233.791332
 51
255.299489
  0
ARC
  8
APS_GEOMETR�
 10
108.859117
 20
663.739819
 40
262.200822
 50
83.660255
 51
86.704657
  0
ARC
  8
APS_GEOMETR�
 10
108.859117
 20
663.739819
 40
262.200822
 50
80.615853
 51
83.660255
  0
ARC
  8
APS_GEOMETR�
 10
109.357885
 20
666.680763
 40
259.21791
 50
77.550904
 51
80.61863
  0
ARC
  8
APS_GEOMETR�
 10
332.796159
 20
483.983493
 40
52.529351
 50
113.501757
 51
130.441942
  0
ARC
  8
APS_GEOMETR�
 10
284.381762
 20
544.748215
 40
25.252927
 50
284.894515
 51
304.600245
  0
ARC
  8
APS_GEOMETR�
 10
282.919819
 20
549.69788
 40
30.41239
 50
267.767533
 51
285.159323
  0
ARC
  8
APS_GEOMETR�
 10
282.762209
 20
548.878845
 40
29.588104
 50
250.294811
 51
268.010723
  0
ARC
  8
APS_GEOMETR�
 10
274.427549
 20
517.224295
 40
4.138732
 50
113.372614
 51
136.404389
  0
ARC
  8
APS_GEOMETR�
 10
273.501431
 20
518.098025
 40
2.865527
 50
136.28759
 51
165.773594
  0
ARC
  8
APS_GEOMETR�
 10
273.096732
 20
518.230616
 40
2.440828
 50
166.455961
 51
199.296089
  0
ARC
  8
APS_GEOMETR�
 10
273.651894
 20
518.45569
 40
3.039316
 50
199.84236
 51
228.184822
  0
ARC
  8
APS_GEOMETR�
 10
274.536011
 20
519.401887
 40
4.334074
 50
227.813685
 51
250.251548
  0
ARC
  8
APS_GEOMETR�
 10
285.239407
 20
547.367866
 40
34.27751
 50
249.207761
 51
274.220501
  0
ARC
  8
APS_GEOMETR�
 10
285.827879
 20
544.958198
 40
31.833702
 50
273.483376
 51
300.058089
  0
ARC
  8
APS_GEOMETR�
 10
320.763678
 20
434.133609
 40
85.410041
 50
86.936941
 51
102.847154
  0
ARC
  8
APS_GEOMETR�
 10
320.882749
 20
434.955934
 40
84.582562
 50
70.973533
 51
86.987719
  0
ARC
  8
APS_GEOMETR�
 10
352.194008
 20
523.402645
 40
9.271507
 50
246.230678
 51
264.706959
  0
ARC
  8
APS_GEOMETR�
 10
352.302829
 20
524.084343
 40
9.96044
 50
264.445394
 51
282.052586
  0
ARC
  8
APS_GEOMETR�
 10
352.638628
 20
522.707243
 40
8.543676
 50
281.778668
 51
301.298581
  0
ARC
  8
APS_GEOMETR�
 10
353.905183
 20
520.68244
 40
6.155642
 50
301.016052
 51
325.345546
  0
ARC
  8
APS_GEOMETR�
 10
355.31322
 20
519.700031
 40
4.438779
 50
325.442087
 51
355.745684
  0
ARC
  8
APS_GEOMETR�
 10
355.503975
 20
519.630008
 40
4.24372
 50
356.497456
 51
27.729101
  0
ARC
  8
APS_GEOMETR�
 10
354.280252
 20
518.955848
 40
5.640655
 50
28.006905
 51
53.806811
  0
ARC
  8
APS_GEOMETR�
 10
321.459847
 20
479.348987
 40
57.069563
 50
50.694166
 51
67.66573
  0
ARC
  8
APS_GEOMETR�
 10
321.459847
 20
479.348987
 40
57.069563
 50
67.66573
 51
84.637294
  0
ARC
  8
APS_GEOMETR�
 10
332.796159
 20
483.983493
 40
52.529351
 50
96.561572
 51
113.501757
  0
ARC
  8
APS_GEOMETR�
 10
332.799719
 20
616.039587
 40
52.527
 50
229.554237
 51
246.494937
  0
ARC
  8
APS_GEOMETR�
 10
284.383532
 20
555.280825
 40
25.251733
 50
55.396098
 51
75.102452
  0
ARC
  8
APS_GEOMETR�
 10
282.921129
 20
550.330493
 40
30.411965
 50
74.837639
 51
92.229593
  0
ARC
  8
APS_GEOMETR�
 10
282.763601
 20
551.148431
 40
29.588786
 50
91.986403
 51
109.702042
  0
ARC
  8
APS_GEOMETR�
 10
274.430362
 20
582.803856
 40
4.138491
 50
223.591453
 51
246.624126
  0
ARC
  8
APS_GEOMETR�
 10
273.50425
 20
581.930254
 40
2.865378
 50
194.221133
 51
223.708166
  0
ARC
  8
APS_GEOMETR�
 10
273.099699
 20
581.797735
 40
2.440843
 50
160.698664
 51
193.538657
  0
ARC
  8
APS_GEOMETR�
 10
273.65499
 20
581.572563
 40
3.039489
 50
131.811149
 51
160.152527
  0
ARC
  8
APS_GEOMETR�
 10
274.539088
 20
580.62626
 40
4.334311
 50
109.745304
 51
132.182344
  0
ARC
  8
APS_GEOMETR�
 10
285.241096
 20
552.659355
 40
34.278116
 50
85.776673
 51
110.789115
  0
ARC
  8
APS_GEOMETR�
 10
285.829802
 20
555.070684
 40
31.832615
 50
59.93848
 51
86.513805
  0
ARC
  8
APS_GEOMETR�
 10
320.770955
 20
665.89257
 40
85.4102
 50
257.149946
 51
273.060139
  0
ARC
  8
APS_GEOMETR�
 10
320.889942
 20
665.071027
 40
84.58351
 50
273.009361
 51
289.023426
  0
ARC
  8
APS_GEOMETR�
 10
352.196896
 20
576.621487
 40
9.271787
 50
95.290152
 51
113.766059
  0
ARC
  8
APS_GEOMETR�
 10
352.30565
 20
575.940133
 40
9.96037
 50
77.944439
 51
95.551715
  0
ARC
  8
APS_GEOMETR�
 10
352.641581
 20
577.317502
 40
8.543313
 50
58.697892
 51
78.218362
  0
ARC
  8
APS_GEOMETR�
 10
353.908265
 20
579.342243
 40
6.155263
 50
34.649903
 51
58.980405
  0
ARC
  8
APS_GEOMETR�
 10
355.316203
 20
580.324427
 40
4.438609
 50
4.248869
 51
34.553247
  0
ARC
  8
APS_GEOMETR�
 10
355.506689
 20
580.394416
 40
4.243827
 50
332.265947
 51
3.497066
  0
ARC
  8
APS_GEOMETR�
 10
354.282809
 20
581.068782
 40
5.640999
 50
306.189424
 51
331.988274
  0
ARC
  8
APS_GEOMETR�
 10
321.463657
 20
620.679423
 40
57.072018
 50
292.330998
 51
309.302067
  0
ARC
  8
APS_GEOMETR�
 10
321.463657
 20
620.679423
 40
57.072018
 50
275.359929
 51
292.330998
  0
ARC
  8
APS_GEOMETR�
 10
332.799719
 20
616.039587
 40
52.527
 50
246.494937
 51
263.435636
  0
ARC
  8
APS_GEOMETR�
 10
867.238717
 20
483.951748
 40
52.522762
 50
49.547347
 51
66.488974
  0
ARC
  8
APS_GEOMETR�
 10
915.658131
 20
544.699764
 40
25.24958
 50
235.389501
 51
255.096983
  0
ARC
  8
APS_GEOMETR�
 10
917.121364
 20
549.651296
 40
30.4112
 50
254.832162
 51
272.224409
  0
ARC
  8
APS_GEOMETR�
 10
917.278745
 20
548.835338
 40
29.590014
 50
271.981221
 51
289.696367
  0
ARC
  8
APS_GEOMETR�
 10
925.60942
 20
517.178333
 40
4.138058
 50
43.583953
 51
66.618247
  0
ARC
  8
APS_GEOMETR�
 10
926.535522
 20
518.051707
 40
2.86511
 50
14.211623
 51
43.700513
  0
ARC
  8
APS_GEOMETR�
 10
926.939807
 20
518.184094
 40
2.44087
 50
340.689203
 51
13.528952
  0
ARC
  8
APS_GEOMETR�
 10
926.38428
 20
518.409442
 40
3.039801
 50
311.803885
 51
340.143306
  0
ARC
  8
APS_GEOMETR�
 10
925.500218
 20
519.355937
 40
4.334739
 50
289.739628
 51
312.175182
  0
ARC
  8
APS_GEOMETR�
 10
914.800714
 20
547.324512
 40
34.279208
 50
265.771576
 51
290.783481
  0
ARC
  8
APS_GEOMETR�
 10
914.211586
 20
544.910189
 40
31.830653
 50
239.932292
 51
266.508721
  0
ARC
  8
APS_GEOMETR�
 10
879.260778
 20
434.093179
 40
85.410484
 50
77.144718
 51
93.054873
  0
ARC
  8
APS_GEOMETR�
 10
879.141941
 20
434.913311
 40
84.585218
 50
93.004096
 51
109.017943
  0
ARC
  8
APS_GEOMETR�
 10
847.842751
 20
523.367951
 40
9.272293
 50
275.284942
 51
293.760173
  0
ARC
  8
APS_GEOMETR�
 10
847.734118
 20
524.048685
 40
9.960243
 50
257.939074
 51
275.5465
  0
ARC
  8
APS_GEOMETR�
 10
847.397951
 20
522.670831
 40
8.542659
 50
238.691532
 51
258.213005
  0
ARC
  8
APS_GEOMETR�
 10
846.131032
 20
520.646202
 40
6.154579
 50
214.641697
 51
238.974014
  0
ARC
  8
APS_GEOMETR�
 10
844.723273
 20
519.664421
 40
4.438303
 50
184.239047
 51
214.544834
  0
ARC
  8
APS_GEOMETR�
 10
844.533272
 20
519.594495
 40
4.244018
 50
152.257019
 51
183.487188
  0
ARC
  8
APS_GEOMETR�
 10
845.757436
 20
518.919757
 40
5.641619
 50
126.182635
 51
151.979578
  0
ARC
  8
APS_GEOMETR�
 10
878.574329
 20
479.3023
 40
57.076444
 50
112.325099
 51
129.295275
  0
ARC
  8
APS_GEOMETR�
 10
878.574329
 20
479.3023
 40
57.076444
 50
95.354923
 51
112.325099
  0
ARC
  8
APS_GEOMETR�
 10
867.238717
 20
483.951748
 40
52.522762
 50
66.488974
 51
83.4306
  0
ARC
  8
APS_GEOMETR�
 10
867.255118
 20
616.00784
 40
52.533588
 50
293.495794
 51
310.435052
  0
ARC
  8
APS_GEOMETR�
 10
915.666285
 20
555.232374
 40
25.25508
 50
104.889045
 51
124.593649
  0
ARC
  8
APS_GEOMETR�
 10
917.127398
 20
550.28391
 40
30.413155
 50
87.762348
 51
105.153846
  0
ARC
  8
APS_GEOMETR�
 10
917.285156
 20
551.104924
 40
29.586874
 50
70.289135
 51
88.005541
  0
ARC
  8
APS_GEOMETR�
 10
925.622378
 20
582.757894
 40
4.139165
 50
293.366735
 51
316.39689
  0
ARC
  8
APS_GEOMETR�
 10
926.548508
 20
581.883935
 40
2.865795
 50
316.279938
 51
345.764084
  0
ARC
  8
APS_GEOMETR�
 10
926.953472
 20
581.751212
 40
2.440801
 50
346.446256
 51
19.286627
  0
ARC
  8
APS_GEOMETR�
 10
926.398546
 20
581.526315
 40
3.039004
 50
19.833139
 51
48.177557
  0
ARC
  8
APS_GEOMETR�
 10
925.514394
 20
580.580309
 40
4.333647
 50
47.806523
 51
70.245871
  0
ARC
  8
APS_GEOMETR�
 10
914.808494
 20
552.616002
 40
34.276417
 50
69.202126
 51
94.215404
  0
ARC
  8
APS_GEOMETR�
 10
914.220443
 20
555.022675
 40
31.835663
 50
93.478293
 51
120.051902
  0
ARC
  8
APS_GEOMETR�
 10
879.294301
 20
665.852136
 40
85.409754
 50
266.931676
 51
282.841926
  0
ARC
  8
APS_GEOMETR�
 10
879.175079
 20
665.0284
 40
84.580851
 50
250.968049
 51
266.982453
  0
ARC
  8
APS_GEOMETR�
 10
847.856057
 20
576.586793
 40
9.271001
 50
66.224792
 51
84.701749
  0
ARC
  8
APS_GEOMETR�
 10
847.747114
 20
575.904475
 40
9.960567
 50
84.440179
 51
102.047221
  0
ARC
  8
APS_GEOMETR�
 10
847.411552
 20
577.28109
 40
8.544331
 50
101.773311
 51
121.292222
  0
ARC
  8
APS_GEOMETR�
 10
846.145232
 20
579.306005
 40
6.156326
 50
121.009662
 51
145.33734
  0
ARC
  8
APS_GEOMETR�
 10
844.737016
 20
580.288817
 40
4.439086
 50
145.433675
 51
175.735862
  0
ARC
  8
APS_GEOMETR�
 10
844.545776
 20
580.358903
 40
4.243529
 50
176.487577
 51
207.720171
  0
ARC
  8
APS_GEOMETR�
 10
845.769215
 20
581.03269
 40
5.640035
 50
207.998208
 51
233.800022
  0
ARC
  8
APS_GEOMETR�
 10
878.591877
 20
620.632735
 40
57.065136
 50
230.687373
 51
247.659831
  0
ARC
  8
APS_GEOMETR�
 10
878.591877
 20
620.632735
 40
57.065136
 50
247.659831
 51
264.632288
  0
ARC
  8
APS_GEOMETR�
 10
867.255118
 20
616.00784
 40
52.533588
 50
276.556536
 51
293.495794
  0
ARC
  8
APS_GEOMETR�
 10
146.878139
 20
431.062396
 40
101.667549
 50
228.807162
 51
244.719052
  0
LINE
  8
APS_GEOMETR�
 10
79.920359
 11
79.919095
 20
354.557846
 21
304.924766
  0
LINE
  8
APS_GEOMETR�
 10
79.919095
 11
79.917832
 20
304.924766
 21
255.291686
  0
ARC
  8
APS_GEOMETR�
 10
58.578102
 20
348.283802
 40
95.409212
 50
282.924405
 51
301.505714
  0
LINE
  8
APS_GEOMETR�
 10
108.437392
 11
108.480143
 20
266.939048
 21
266.978166
  0
ARC
  8
APS_GEOMETR�
 10
104.257713
 20
271.699536
 40
6.334055
 50
311.806994
 51
340.225606
  0
ARC
  8
APS_GEOMETR�
 10
105.41358
 20
271.231876
 40
5.088366
 50
340.777741
 51
13.699389
  0
ARC
  8
APS_GEOMETR�
 10
104.558974
 20
270.950032
 40
5.985834
 50
14.383134
 51
43.902055
  0
ARC
  8
APS_GEOMETR�
 10
102.623257
 20
269.112564
 40
8.65474
 50
43.780672
 51
66.821276
  0
ARC
  8
APS_GEOMETR�
 10
101.451894
 20
266.543279
 40
11.477873
 50
66.494108
 51
85.551157
  0
ARC
  8
APS_GEOMETR�
 10
111.965972
 20
292.350967
 40
17.290244
 50
209.888923
 51
236.179005
  0
ARC
  8
APS_GEOMETR�
 10
108.02264
 20
290.018707
 40
12.709318
 50
177.302092
 51
209.631902
  0
ARC
  8
APS_GEOMETR�
 10
108.494276
 20
289.801893
 40
13.192069
 50
144.927491
 51
176.457857
  0
ARC
  8
APS_GEOMETR�
 10
112.859304
 20
286.698583
 40
18.547747
 50
119.75139
 51
144.829791
  0
ARC
  8
APS_GEOMETR�
 10
116.624112
 20
280.404825
 40
25.880552
 50
100.027233
 51
120.073191
  0
ARC
  8
APS_GEOMETR�
 10
117.444271
 20
276.671871
 40
29.699707
 50
82.058019
 51
100.331394
  0
ARC
  8
APS_GEOMETR�
 10
117.996511
 20
279.622286
 40
26.701651
 50
62.727623
 51
82.35689
  0
ARC
  8
APS_GEOMETR�
 10
121.396
 20
285.971586
 40
19.500755
 50
38.809458
 51
63.057321
  0
ARC
  8
APS_GEOMETR�
 10
161.016094
 20
329.028871
 40
39.336786
 50
231.617701
 51
256.820588
  0
ARC
  8
APS_GEOMETR�
 10
163.584563
 20
338.019454
 40
48.678267
 50
256.289792
 51
278.116178
  0
ARC
  8
APS_GEOMETR�
 10
188.457727
 20
219.170871
 40
72.914766
 50
83.583685
 51
104.292583
  0
ARC
  8
APS_GEOMETR�
 10
218.946198
 20
360.653549
 40
72.549855
 50
252.065613
 51
269.671318
  0
ARC
  8
APS_GEOMETR�
 10
219.259633
 20
361.078256
 40
72.977015
 50
269.42715
 51
286.963534
  0
ARC
  8
APS_GEOMETR�
 10
223.488456
 20
348.175684
 40
59.402673
 50
286.693139
 51
306.830113
  0
ARC
  8
APS_GEOMETR�
 10
256.673691
 20
299.993418
 40
2.505275
 50
14.691883
 51
44.783072
  0
ARC
  8
APS_GEOMETR�
 10
255.851191
 20
299.190303
 40
3.654814
 50
44.636418
 51
67.980668
  0
ARC
  8
APS_GEOMETR�
 10
255.384181
 20
298.114199
 40
4.827605
 50
67.630636
 51
86.989344
  0
ARC
  8
APS_GEOMETR�
 10
255.34543
 20
297.895941
 40
5.047671
 50
86.680201
 51
105.466863
  0
ARC
  8
APS_GEOMETR�
 10
219.621648
 20
437.998303
 40
139.538538
 50
267.753524
 51
284.262622
  0
ARC
  8
APS_GEOMETR�
 10
205.641201
 20
471.108165
 40
172.750931
 50
258.170379
 51
272.823883
  0
ARC
  8
APS_GEOMETR�
 10
205.641201
 20
471.108165
 40
172.750931
 50
243.516875
 51
258.170379
  0
ARC
  8
APS_GEOMETR�
 10
134.240923
 20
316.536944
 40
5.635513
 50
148.254843
 51
180.530917
  0
ARC
  8
APS_GEOMETR�
 10
136.057448
 20
315.381342
 40
7.788338
 50
122.086819
 51
148.056435
  0
ARC
  8
APS_GEOMETR�
 10
137.832522
 20
312.664756
 40
11.033043
 50
101.854787
 51
122.402871
  0
ARC
  8
APS_GEOMETR�
 10
138.300671
 20
310.781561
 40
12.97244
 50
83.74226
 51
102.169683
  0
ARC
  8
APS_GEOMETR�
 10
135.105
 20
324.584839
 40
4.698284
 50
348.855139
 51
24.214383
  0
ARC
  8
APS_GEOMETR�
 10
133.735505
 20
323.90698
 40
6.225568
 50
24.734539
 51
53.995446
  0
ARC
  8
APS_GEOMETR�
 10
131.961895
 20
321.558568
 40
9.168141
 50
53.656198
 51
76.205941
  0
ARC
  8
APS_GEOMETR�
 10
131.406991
 20
319.617539
 40
11.185754
 50
75.81616
 51
95.538718
  0
ARC
  8
APS_GEOMETR�
 10
146.878139
 20
431.062396
 40
101.667549
 50
244.719052
 51
260.630943
  0
ARC
  8
APS_GEOMETR�
 10
1053.078386
 20
431.052305
 40
101.670188
 50
295.279104
 51
311.190715
  0
LINE
  8
APS_GEOMETR�
 10
1120.03507
 11
1120.033807
 20
354.543288
 21
304.910208
  0
LINE
  8
APS_GEOMETR�
 10
1120.033807
 11
1120.032544
 20
304.910208
 21
255.277128
  0
ARC
  8
APS_GEOMETR�
 10
1141.37443
 20
348.266411
 40
95.406933
 50
238.492345
 51
257.073952
  0
LINE
  8
APS_GEOMETR�
 10
1091.513577
 11
1091.470828
 20
266.925288
 21
266.964407
  0
ARC
  8
APS_GEOMETR�
 10
1095.693308
 20
271.685468
 40
6.333858
 50
199.77159
 51
228.190798
  0
ARC
  8
APS_GEOMETR�
 10
1094.537591
 20
271.217919
 40
5.088349
 50
166.297662
 51
199.219381
  0
ARC
  8
APS_GEOMETR�
 10
1095.392365
 20
270.935992
 40
5.986005
 50
136.095623
 51
165.613977
  0
ARC
  8
APS_GEOMETR�
 10
1097.328088
 20
269.098378
 40
8.655015
 50
113.17694
 51
136.217053
  0
ARC
  8
APS_GEOMETR�
 10
1098.499336
 20
266.52914
 40
11.478057
 50
94.447265
 51
113.504109
  0
ARC
  8
APS_GEOMETR�
 10
1087.985738
 20
292.337858
 40
17.290826
 50
303.818988
 51
330.108474
  0
ARC
  8
APS_GEOMETR�
 10
1091.92931
 20
290.005238
 40
12.70951
 50
330.365417
 51
2.694897
  0
ARC
  8
APS_GEOMETR�
 10
1091.45813
 20
289.788471
 40
13.191794
 50
3.539148
 51
35.069958
  0
ARC
  8
APS_GEOMETR�
 10
1087.093262
 20
286.685539
 40
18.547123
 50
35.167727
 51
60.246696
  0
ARC
  8
APS_GEOMETR�
 10
1083.328222
 20
280.391854
 40
25.879984
 50
59.924903
 51
79.971157
  0
ARC
  8
APS_GEOMETR�
 10
1082.507865
 20
276.658405
 40
29.699665
 50
79.666993
 51
97.940385
  0
ARC
  8
APS_GEOMETR�
 10
1081.955784
 20
279.608278
 40
26.702172
 50
97.641517
 51
117.270527
  0
ARC
  8
APS_GEOMETR�
 10
1078.556552
 20
285.957574
 40
19.501402
 50
116.940824
 51
141.188147
  0
ARC
  8
APS_GEOMETR�
 10
1038.936935
 20
329.017604
 40
39.33783
 50
283.177784
 51
308.380221
  0
ARC
  8
APS_GEOMETR�
 10
1036.368925
 20
338.007401
 40
48.678429
 50
261.88224
 51
283.708577
  0
ARC
  8
APS_GEOMETR�
 10
1011.492465
 20
219.159694
 40
72.914425
 50
75.705774
 51
96.414737
  0
ARC
  8
APS_GEOMETR�
 10
981.007836
 20
360.64366
 40
72.550632
 50
270.327108
 51
287.932686
  0
ARC
  8
APS_GEOMETR�
 10
980.694425
 20
361.066894
 40
72.976311
 50
253.034779
 51
270.571276
  0
ARC
  8
APS_GEOMETR�
 10
976.464958
 20
348.163562
 40
59.401046
 50
233.167832
 51
253.305176
  0
ARC
  8
APS_GEOMETR�
 10
943.27903
 20
299.983735
 40
2.505347
 50
135.214627
 51
165.305231
  0
ARC
  8
APS_GEOMETR�
 10
944.10153
 20
299.18056
 40
3.654929
 50
112.01757
 51
135.361329
  0
ARC
  8
APS_GEOMETR�
 10
944.568491
 20
298.104482
 40
4.827676
 50
93.009084
 51
112.367601
  0
ARC
  8
APS_GEOMETR�
 10
944.607231
 20
297.88633
 40
5.047634
 50
74.531473
 51
93.318226
  0
ARC
  8
APS_GEOMETR�
 10
980.334812
 20
437.98666
 40
139.537544
 50
255.73572
 51
272.244897
  0
ARC
  8
APS_GEOMETR�
 10
994.316084
 20
471.09948
 40
172.753275
 50
267.174593
 51
281.827962
  0
ARC
  8
APS_GEOMETR�
 10
994.316084
 20
471.09948
 40
172.753275
 50
281.827962
 51
296.481331
  0
ARC
  8
APS_GEOMETR�
 10
1065.712668
 20
316.524044
 40
5.635416
 50
359.466073
 51
31.742524
  0
ARC
  8
APS_GEOMETR�
 10
1063.896235
 20
315.368605
 40
7.788075
 50
31.941008
 51
57.911213
  0
ARC
  8
APS_GEOMETR�
 10
1062.121072
 20
312.652076
 40
11.032781
 50
57.595175
 51
78.143586
  0
ARC
  8
APS_GEOMETR�
 10
1061.652824
 20
310.768683
 40
12.972395
 50
77.828688
 51
96.256154
  0
ARC
  8
APS_GEOMETR�
 10
1064.848939
 20
324.571721
 40
4.698319
 50
155.782807
 51
191.141871
  0
ARC
  8
APS_GEOMETR�
 10
1066.218559
 20
323.893733
 40
6.225773
 50
126.00249
 51
155.262748
  0
ARC
  8
APS_GEOMETR�
 10
1067.992109
 20
321.545233
 40
9.16838
 50
103.792417
 51
126.341765
  0
ARC
  8
APS_GEOMETR�
 10
1068.546914
 20
319.604365
 40
11.185812
 50
84.459705
 51
104.182195
  0
ARC
  8
APS_GEOMETR�
 10
1053.078386
 20
431.052305
 40
101.670188
 50
279.367493
 51
295.279104
  0
ARC
  8
APS_GEOMETR�
 10
146.86593
 20
668.935737
 40
101.663908
 50
115.28349
 51
131.195766
  0
LINE
  8
APS_GEOMETR�
 10
79.906638
 11
79.90189
 20
745.434125
 21
795.067205
  0
LINE
  8
APS_GEOMETR�
 10
79.90189
 11
79.897142
 20
795.067205
 21
844.700285
  0
ARC
  8
APS_GEOMETR�
 10
58.560387
 20
751.704262
 40
95.412355
 50
58.496962
 51
77.07786
  0
LINE
  8
APS_GEOMETR�
 10
108.417519
 11
108.460273
 20
833.054024
 21
833.014909
  0
ARC
  8
APS_GEOMETR�
 10
104.237913
 20
828.293111
 40
6.334327
 50
19.778262
 51
48.196052
  0
ARC
  8
APS_GEOMETR�
 10
105.393986
 20
828.760925
 40
5.088388
 50
346.304678
 51
19.226229
  0
ARC
  8
APS_GEOMETR�
 10
104.539613
 20
829.042652
 40
5.985599
 50
316.101146
 51
345.620851
  0
ARC
  8
APS_GEOMETR�
 10
102.603904
 20
830.879921
 40
8.654361
 50
293.181184
 51
316.222466
  0
ARC
  8
APS_GEOMETR�
 10
101.432382
 20
833.449272
 40
11.47762
 50
274.451019
 51
293.508351
  0
ARC
  8
APS_GEOMETR�
 10
111.947123
 20
807.643002
 40
17.289441
 50
123.823764
 51
150.114666
  0
ARC
  8
APS_GEOMETR�
 10
108.004123
 20
809.974767
 40
12.709053
 50
150.371795
 51
182.702059
  0
ARC
  8
APS_GEOMETR�
 10
108.476386
 20
810.191646
 40
13.192448
 50
183.546273
 51
215.076028
  0
ARC
  8
APS_GEOMETR�
 10
112.841635
 20
813.295477
 40
18.548609
 50
215.173632
 51
240.25125
  0
ARC
  8
APS_GEOMETR�
 10
116.606123
 20
819.589336
 40
25.881336
 50
239.929437
 51
259.974989
  0
ARC
  8
APS_GEOMETR�
 10
117.42601
 20
823.321608
 40
29.699766
 50
259.670831
 51
277.944182
  0
ARC
  8
APS_GEOMETR�
 10
117.978467
 20
820.370444
 40
26.700932
 50
277.645308
 51
297.27493
  0
ARC
  8
APS_GEOMETR�
 10
121.378312
 20
814.021138
 40
19.499864
 50
296.945238
 51
321.193845
  0
ARC
  8
APS_GEOMETR�
 10
160.999063
 20
770.967638
 40
39.335346
 50
103.181656
 51
128.385164
  0
ARC
  8
APS_GEOMETR�
 10
163.568165
 20
761.975972
 40
48.678044
 50
81.886005
 51
103.712458
  0
ARC
  8
APS_GEOMETR�
 10
188.436784
 20
880.825763
 40
72.915236
 50
255.709682
 51
276.41849
  0
ARC
  8
APS_GEOMETR�
 10
218.930554
 20
739.344861
 40
72.548783
 50
90.330853
 51
107.936731
  0
ARC
  8
APS_GEOMETR�
 10
219.244021
 20
738.918124
 40
72.977986
 50
73.038793
 51
90.575021
  0
ARC
  8
APS_GEOMETR�
 10
223.471956
 20
751.819647
 40
59.404917
 50
53.172722
 51
73.309185
  0
ARC
  8
APS_GEOMETR�
 10
256.656237
 20
800.005277
 40
2.505175
 50
315.220101
 51
345.312098
  0
ARC
  8
APS_GEOMETR�
 10
255.833737
 20
800.808309
 40
3.654656
 50
292.021763
 51
315.36669
  0
ARC
  8
APS_GEOMETR�
 10
255.366659
 20
801.88445
 40
4.827508
 50
273.012825
 51
292.371794
  0
ARC
  8
APS_GEOMETR�
 10
255.327891
 20
802.102853
 40
5.047721
 50
254.535431
 51
273.321969
  0
ARC
  8
APS_GEOMETR�
 10
219.609349
 20
661.99769
 40
139.539908
 50
75.739664
 51
92.248653
  0
ARC
  8
APS_GEOMETR�
 10
205.630041
 20
628.891907
 40
172.747696
 50
87.17822
 51
101.831909
  0
ARC
  8
APS_GEOMETR�
 10
205.630041
 20
628.891907
 40
172.747696
 50
101.831909
 51
116.485598
  0
ARC
  8
APS_GEOMETR�
 10
134.224667
 20
783.457314
 40
5.635647
 50
179.473234
 51
211.748789
  0
ARC
  8
APS_GEOMETR�
 10
136.041321
 20
784.61314
 40
7.7887
 50
211.947091
 51
237.915893
  0
ARC
  8
APS_GEOMETR�
 10
137.816269
 20
787.329807
 40
11.033405
 50
237.599824
 51
258.147456
  0
ARC
  8
APS_GEOMETR�
 10
138.284283
 20
789.212728
 40
12.972503
 50
257.832564
 51
276.259927
  0
ARC
  8
APS_GEOMETR�
 10
135.089224
 20
775.409119
 40
4.698235
 50
335.789493
 51
11.148983
  0
ARC
  8
APS_GEOMETR�
 10
133.719902
 20
776.086799
 40
6.225285
 50
306.0074
 51
335.269203
  0
ARC
  8
APS_GEOMETR�
 10
131.946209
 20
778.435091
 40
9.167811
 50
283.796324
 51
306.346611
  0
ARC
  8
APS_GEOMETR�
 10
131.391168
 20
780.376341
 40
11.185675
 50
264.463458
 51
284.186109
  0
ARC
  8
APS_GEOMETR�
 10
146.86593
 20
668.935737
 40
101.663908
 50
99.371214
 51
115.28349
  0
ARC
  8
APS_GEOMETR�
 10
1053.066175
 20
668.973662
 40
101.673829
 50
48.812212
 51
64.723438
  0
LINE
  8
APS_GEOMETR�
 10
1120.021347
 11
1120.016599
 20
745.488839
 21
795.121919
  0
LINE
  8
APS_GEOMETR�
 10
1120.016599
 11
1120.011851
 20
795.121919
 21
844.754999
  0
ARC
  8
APS_GEOMETR�
 10
1141.356712
 20
751.769624
 40
95.40379
 50
102.928314
 51
121.510331
  0
LINE
  8
APS_GEOMETR�
 10
1091.493703
 11
1091.450956
 20
833.105738
 21
833.066617
  0
ARC
  8
APS_GEOMETR�
 10
1095.673506
 20
828.345984
 40
6.333585
 50
131.812248
 51
160.232278
  0
ARC
  8
APS_GEOMETR�
 10
1094.517995
 20
828.813378
 40
5.088327
 50
160.784588
 51
193.706405
  0
ARC
  8
APS_GEOMETR�
 10
1095.373001
 20
829.095422
 40
5.986241
 50
194.390007
 51
223.907579
  0
ARC
  8
APS_GEOMETR�
 10
1097.308732
 20
830.933236
 40
8.655394
 50
223.786084
 51
246.825519
  0
ARC
  8
APS_GEOMETR�
 10
1098.479822
 20
833.502407
 40
11.47831
 50
246.498349
 51
265.554912
  0
ARC
  8
APS_GEOMETR�
 10
1087.966887
 20
807.692272
 40
17.291629
 50
29.895116
 51
56.183781
  0
ARC
  8
APS_GEOMETR�
 10
1091.91079
 20
810.025387
 40
12.709775
 50
357.309254
 51
29.63828
  0
ARC
  8
APS_GEOMETR�
 10
1091.440237
 20
810.242089
 40
13.191414
 50
324.933561
 51
356.464982
  0
ARC
  8
APS_GEOMETR�
 10
1087.07559
 20
813.3445
 40
18.546261
 50
299.755945
 51
324.835696
  0
ARC
  8
APS_GEOMETR�
 10
1083.31023
 20
819.638083
 40
25.8792
 50
280.031065
 51
300.077726
  0
ARC
  8
APS_GEOMETR�
 10
1082.489601
 20
823.372214
 40
29.699607
 50
262.061816
 51
280.335232
  0
ARC
  8
APS_GEOMETR�
 10
1081.937738
 20
820.423091
 40
26.702891
 50
242.732025
 51
262.360681
  0
ARC
  8
APS_GEOMETR�
 10
1078.538862
 20
814.0738
 40
19.502293
 50
218.815157
 51
243.061735
  0
ARC
  8
APS_GEOMETR�
 10
1038.919903
 20
771.009985
 40
39.339271
 50
51.622643
 51
76.824459
  0
ARC
  8
APS_GEOMETR�
 10
1036.352525
 20
762.021272
 40
48.678652
 50
76.293673
 51
98.119943
  0
ARC
  8
APS_GEOMETR�
 10
1011.471521
 20
880.86777
 40
72.913954
 50
263.587439
 51
284.296491
  0
ARC
  8
APS_GEOMETR�
 10
980.992191
 20
739.382029
 40
72.551703
 50
72.069658
 51
89.675062
  0
ARC
  8
APS_GEOMETR�
 10
980.678811
 20
738.960825
 40
72.97534
 50
89.430895
 51
106.967548
  0
ARC
  8
APS_GEOMETR�
 10
976.448456
 20
751.865205
 40
59.398802
 50
106.697149
 51
126.835002
  0
ARC
  8
APS_GEOMETR�
 10
943.261574
 20
800.041668
 40
2.505447
 50
194.69875
 51
224.788546
  0
ARC
  8
APS_GEOMETR�
 10
944.084074
 20
800.844927
 40
3.655086
 50
224.641779
 51
247.984861
  0
ARC
  8
APS_GEOMETR�
 10
944.550967
 20
801.920968
 40
4.827773
 50
247.634829
 51
266.993084
  0
ARC
  8
APS_GEOMETR�
 10
944.58969
 20
802.138974
 40
5.047584
 50
266.683944
 51
285.470822
  0
ARC
  8
APS_GEOMETR�
 10
980.322511
 20
662.041447
 40
139.536173
 50
87.757281
 51
104.266566
  0
ARC
  8
APS_GEOMETR�
 10
994.304922
 20
628.924548
 40
172.756509
 50
78.174326
 51
92.82751
  0
ARC
  8
APS_GEOMETR�
 10
994.304922
 20
628.924548
 40
172.756509
 50
63.521142
 51
78.174326
  0
ARC
  8
APS_GEOMETR�
 10
1065.69641
 20
783.505796
 40
5.635281
 50
328.261109
 51
0.538078
  0
ARC
  8
APS_GEOMETR�
 10
1063.880105
 20
784.661012
 40
7.787712
 50
302.091499
 51
328.062518
  0
ARC
  8
APS_GEOMETR�
 10
1062.104817
 20
787.37746
 40
11.032419
 50
281.858656
 51
302.40752
  0
ARC
  8
APS_GEOMETR�
 10
1061.636434
 20
789.261127
 40
12.972332
 50
263.746032
 51
282.173559
  0
ARC
  8
APS_GEOMETR�
 10
1064.833161
 20
775.45842
 40
4.698368
 50
168.862251
 51
204.221068
  0
ARC
  8
APS_GEOMETR�
 10
1066.202954
 20
776.136585
 40
6.226056
 50
204.740994
 51
234.000356
  0
ARC
  8
APS_GEOMETR�
 10
1067.976421
 20
778.485208
 40
9.16871
 50
233.661045
 51
256.209847
  0
ARC
  8
APS_GEOMETR�
 10
1068.531089
 20
780.425854
 40
11.185891
 50
255.820074
 51
275.54247
  0
ARC
  8
APS_GEOMETR�
 10
1053.066175
 20
668.973662
 40
101.673829
 50
64.723438
 51
80.634663
  0
ARC
  8
APS_GEOMETR�
 10
561.355966
 20
1038.860528
 40
66.80271
 50
293.282244
 51
305.341665
  0
ARC
  8
APS_GEOMETR�
 10
638.640463
 20
1038.83507
 40
66.782126
 50
234.645481
 51
258.749628
  0
ARC
  8
APS_GEOMETR�
 10
624.594259
 20
968.844418
 40
4.605553
 50
57.1247
 51
77.239822
  0
ARC
  8
APS_GEOMETR�
 10
625.33169
 20
969.954924
 40
3.272645
 50
32.107148
 51
57.414232
  0
ARC
  8
APS_GEOMETR�
 10
626.081644
 20
970.434119
 40
2.382709
 50
0.612045
 51
31.931585
  0
ARC
  8
APS_GEOMETR�
 10
626.087372
 20
970.467529
 40
2.376858
 50
328.436881
 51
359.80817
  0
ARC
  8
APS_GEOMETR�
 10
625.342736
 20
970.937367
 40
3.257284
 50
302.863908
 51
328.251114
  0
ARC
  8
APS_GEOMETR�
 10
658.248864
 20
898.962612
 40
75.918489
 50
114.214763
 51
127.377634
  0
ARC
  8
APS_GEOMETR�
 10
655.144866
 20
903.005189
 40
70.821719
 50
127.367531
 51
141.156098
  0
ARC
  8
APS_GEOMETR�
 10
543.039228
 20
901.16949
 40
73.36443
 50
39.085878
 51
52.551672
  0
ARC
  8
APS_GEOMETR�
 10
543.039228
 20
901.16949
 40
73.36443
 50
52.551672
 51
66.017467
  0
ARC
  8
APS_GEOMETR�
 10
574.626222
 20
970.936339
 40
3.257233
 50
211.750653
 51
237.138127
  0
ARC
  8
APS_GEOMETR�
 10
573.881628
 20
970.466495
 40
2.37684
 50
180.193397
 51
211.564848
  0
ARC
  8
APS_GEOMETR�
 10
573.887395
 20
970.433085
 40
2.382729
 50
148.070147
 51
179.389522
  0
ARC
  8
APS_GEOMETR�
 10
574.637393
 20
969.953897
 40
3.272697
 50
122.587806
 51
147.894623
  0
ARC
  8
APS_GEOMETR�
 10
575.374864
 20
968.843416
 40
4.605606
 50
102.762378
 51
122.877341
  0
ARC
  8
APS_GEOMETR�
 10
561.355966
 20
1038.860528
 40
66.80271
 50
281.222822
 51
293.282244
  0
LINE
  8
APS_GEOMETR�
 10
360.060837
 11
435.734911
 20
1019.967439
 21
1019.967439
  0
LINE
  8
APS_GEOMETR�
 10
435.734911
 11
511.408986
 20
1019.967439
 21
1019.967439
  0
LINE
  8
APS_GEOMETR�
 10
511.408986
 11
587.08306
 20
1019.967439
 21
1019.967439
  0
ARC
  8
APS_GEOMETR�
 10
507.444481
 20
1139.443419
 40
143.58556
 50
283.616841
 51
303.686059
  0
ARC
  8
APS_GEOMETR�
 10
500.082414
 20
1166.209961
 40
171.335105
 50
266.07243
 51
283.902274
  0
LINE
  8
APS_GEOMETR�
 10
488.346754
 11
397.586024
 20
995.277248
 21
1002.516684
  0
ARC
  8
APS_GEOMETR�
 10
375.309838
 20
676.879297
 40
326.398431
 50
86.08661
 51
101.285516
  0
ARC
  8
APS_GEOMETR�
 10
344.40188
 20
827.631098
 40
172.514804
 50
101.017008
 51
114.907877
  0
ARC
  8
APS_GEOMETR�
 10
310.091775
 20
886.085566
 40
105.248264
 50
111.367067
 51
127.658307
  0
ARC
  8
APS_GEOMETR�
 10
258.194708
 20
950.533505
 40
22.585184
 50
123.314256
 51
154.567957
  0
ARC
  8
APS_GEOMETR�
 10
214.594985
 20
970.432146
 40
25.345988
 50
296.994746
 51
336.270644
  0
ARC
  8
APS_GEOMETR�
 10
223.051584
 20
957.877216
 40
10.482534
 50
269.858181
 51
286.904979
  0
ARC
  8
APS_GEOMETR�
 10
223.010682
 20
957.873049
 40
10.478346
 50
253.030403
 51
270.081778
  0
ARC
  8
APS_GEOMETR�
 10
222.420568
 20
956.06636
 40
8.578167
 50
233.774442
 51
253.278291
  0
ARC
  8
APS_GEOMETR�
 10
220.962472
 20
954.115878
 40
6.143081
 50
209.589885
 51
233.994309
  0
ARC
  8
APS_GEOMETR�
 10
233.617069
 20
960.041874
 40
20.103354
 50
171.757382
 51
206.465946
  0
ARC
  8
APS_GEOMETR�
 10
235.823583
 20
959.354849
 40
22.388522
 50
138.541663
 51
170.826854
  0
ARC
  8
APS_GEOMETR�
 10
243.710784
 20
952.443086
 40
32.875619
 50
113.682245
 51
138.614839
  0
ARC
  8
APS_GEOMETR�
 10
248.707637
 20
941.815151
 40
44.616658
 50
93.776861
 51
114.076742
  0
ARC
  8
APS_GEOMETR�
 10
243.473752
 20
1039.374505
 40
53.089222
 50
272.477558
 51
290.100067
  0
ARC
  8
APS_GEOMETR�
 10
247.483292
 20
1028.990153
 40
41.959881
 50
289.831557
 51
310.471205
  0
ARC
  8
APS_GEOMETR�
 10
255.586062
 20
1019.644681
 40
29.59141
 50
310.281045
 51
336.375039
  0
ARC
  8
APS_GEOMETR�
 10
261.38641
 20
1016.945912
 40
23.196146
 50
336.740859
 51
7.467259
  0
LINE
  8
APS_GEOMETR�
 10
284.385836
 11
284.386762
 20
1019.960475
 21
1019.967439
  0
LINE
  8
APS_GEOMETR�
 10
284.386762
 11
360.060837
 20
1019.967439
 21
1019.967439
  0
ARC
  8
APS_GEOMETR�
 10
445.692516
 20
1051.324514
 40
282.655904
 50
233.44
 51
243.343442
  0
ARC
  8
APS_GEOMETR�
 10
445.631167
 20
1051.263885
 40
282.570662
 50
213.631334
 51
233.442669
  0
LINE
  8
APS_GEOMETR�
 10
210.357613
 11
206.691458
 20
894.762979
 21
898.314914
  0
ARC
  8
APS_GEOMETR�
 10
195.676448
 20
883.031568
 40
18.839085
 50
54.218962
 51
77.620046
  0
ARC
  8
APS_GEOMETR�
 10
171.942878
 20
1143.779152
 40
243.932713
 50
262.243284
 51
276.537491
  0
ARC
  8
APS_GEOMETR�
 10
172.662933
 20
1148.145384
 40
248.356209
 50
248.091055
 51
262.214638
  0
LINE
  8
APS_GEOMETR�
 10
79.993127
 11
79.989901
 20
917.725954
 21
875.042495
  0
ARC
  8
APS_GEOMETR�
 10
148.390969
 20
-1215.091259
 40
2091.252691
 50
91.599452
 51
91.874375
  0
ARC
  8
APS_GEOMETR�
 10
95.930147
 20
803.662233
 40
71.927653
 50
73.752642
 51
94.713387
  0
ARC
  8
APS_GEOMETR�
 10
97.379584
 20
808.149538
 40
67.214166
 50
51.928831
 51
73.868634
  0
ARC
  8
APS_GEOMETR�
 10
-2585.261284
 20
2446.877006
 40
3152.056243
 50
329.7944
 51
330.185792
  0
ARC
  8
APS_GEOMETR�
 10
177.643112
 20
859.790177
 40
34.400775
 50
117.407983
 51
144.618362
  0
ARC
  8
APS_GEOMETR�
 10
178.933758
 20
857.486068
 40
37.040463
 50
91.671392
 51
117.539678
  0
ARC
  8
APS_GEOMETR�
 10
180.105498
 20
886.444437
 40
8.374829
 50
82.422151
 51
105.599626
  0
ARC
  8
APS_GEOMETR�
 10
180.143696
 20
886.61997
 40
8.195804
 50
59.002449
 51
82.525033
  0
ARC
  8
APS_GEOMETR�
 10
180.447355
 20
887.101138
 40
7.626977
 50
34.394335
 51
59.096282
  0
ARC
  8
APS_GEOMETR�
 10
180.887301
 20
887.399842
 40
7.095214
 50
8.488555
 51
34.41079
  0
ARC
  8
APS_GEOMETR�
 10
199.009991
 20
878.717414
 40
14.764615
 50
138.776943
 51
167.404006
  0
ARC
  8
APS_GEOMETR�
 10
198.536614
 20
878.850973
 40
14.27353
 50
167.51284
 51
196.773939
  0
ARC
  8
APS_GEOMETR�
 10
199.153107
 20
879.061228
 40
14.92449
 50
196.863739
 51
225.287705
  0
ARC
  8
APS_GEOMETR�
 10
200.131146
 20
880.016491
 40
16.291459
 50
225.206923
 51
251.996083
  0
ARC
  8
APS_GEOMETR�
 10
186.178943
 20
779.428552
 40
85.560094
 50
54.276229
 51
84.01795
  0
ARC
  8
APS_GEOMETR�
 10
216.573797
 20
819.977935
 40
34.907863
 50
28.791644
 51
55.917639
  0
ARC
  8
APS_GEOMETR�
 10
218.611048
 20
821.108135
 40
32.57813
 50
0.379725
 51
28.775308
  0
ARC
  8
APS_GEOMETR�
 10
232.638232
 20
725.1442
 40
97.952404
 50
42.827006
 51
79.083393
  0
ARC
  8
APS_GEOMETR�
 10
370.88734
 20
895.591258
 40
123.277047
 50
237.404519
 51
265.955164
  0
ARC
  8
APS_GEOMETR�
 10
362.478971
 20
777.678025
 40
5.064901
 50
266.748991
 51
286.641574
  0
ARC
  8
APS_GEOMETR�
 10
362.584884
 20
777.156046
 40
4.534708
 50
287.248179
 51
309.715371
  0
ARC
  8
APS_GEOMETR�
 10
362.796592
 20
776.908623
 40
4.209109
 50
309.650645
 51
333.277901
  0
ARC
  8
APS_GEOMETR�
 10
363.00754
 20
776.801113
 40
3.972348
 50
333.294804
 51
357.844823
  0
ARC
  8
APS_GEOMETR�
 10
363.027581
 20
776.794416
 40
3.952074
 50
357.930913
 51
22.562598
  0
ARC
  8
APS_GEOMETR�
 10
362.839121
 20
776.713441
 40
4.15718
 50
22.5966
 51
46.420808
  0
ARC
  8
APS_GEOMETR�
 10
362.61215
 20
776.481207
 40
4.481881
 50
46.365449
 51
69.012177
  0
ARC
  8
APS_GEOMETR�
 10
445.692516
 20
1051.324514
 40
282.655904
 50
243.343442
 51
253.246885
  0
LINE
  8
APS_GEOMETR�
 10
0.0
 11
1200.0
 20
0.0
 21
0.0
  0
LINE
  8
APS_GEOMETR�
 10
1200.0
 11
1200.0
 20
0.0
 21
1200.0
  0
LINE
  8
APS_GEOMETR�
 10
1200.0
 11
0.0
 20
1200.0
 21
1200.0
  0
LINE
  8
APS_GEOMETR�
 10
0.0
 11
0.0
 20
1200.0
 21
0.0
  0
LINE
  8
APS_GEOMETR�
 10
30.0
 11
30.0
 20
550.0
 21
30.0
  0
LINE
  8
APS_GEOMETR�
 10
30.0
 11
1170.0
 20
30.0
 21
30.0
  0
LINE
  8
APS_GEOMETR�
 10
1170.0
 11
1170.0
 20
30.0
 21
1070.0
  0
LINE
  8
APS_GEOMETR�
 10
1170.0
 11
30.0
 20
1070.0
 21
1070.0
  0
LINE
  8
APS_GEOMETR�
 10
30.0
 11
30.0
 20
1070.0
 21
550.0
  0
ARC
  8
APS_GEOMETR�
 10
754.307484
 20
1051.324514
 40
282.655904
 50
296.656558
 51
306.56
  0
ARC
  8
APS_GEOMETR�
 10
754.368833
 20
1051.263885
 40
282.570662
 50
306.557331
 51
326.368666
  0
LINE
  8
APS_GEOMETR�
 10
989.642387
 11
993.308542
 20
894.762979
 21
898.314914
  0
ARC
  8
APS_GEOMETR�
 10
1004.323552
 20
883.031568
 40
18.839085
 50
102.379954
 51
125.781038
  0
ARC
  8
APS_GEOMETR�
 10
1028.057122
 20
1143.779152
 40
243.932713
 50
263.462509
 51
277.756716
  0
ARC
  8
APS_GEOMETR�
 10
1027.337067
 20
1148.145384
 40
248.356209
 50
277.785362
 51
291.908945
  0
LINE
  8
APS_GEOMETR�
 10
1120.006873
 11
1120.010099
 20
917.725954
 21
875.042495
  0
ARC
  8
APS_GEOMETR�
 10
1051.609031
 20
-1215.091259
 40
2091.252691
 50
88.125625
 51
88.400548
  0
ARC
  8
APS_GEOMETR�
 10
1104.069853
 20
803.662233
 40
71.927653
 50
85.286613
 51
106.247358
  0
ARC
  8
APS_GEOMETR�
 10
1102.620416
 20
808.149538
 40
67.214166
 50
106.131366
 51
128.071169
  0
ARC
  8
APS_GEOMETR�
 10
3785.261284
 20
2446.877006
 40
3152.056243
 50
209.814208
 51
210.2056
  0
ARC
  8
APS_GEOMETR�
 10
1022.356888
 20
859.790177
 40
34.400775
 50
35.381638
 51
62.592017
  0
ARC
  8
APS_GEOMETR�
 10
1021.066242
 20
857.486068
 40
37.040463
 50
62.460322
 51
88.328608
  0
ARC
  8
APS_GEOMETR�
 10
1019.894502
 20
886.444437
 40
8.374829
 50
74.400374
 51
97.577849
  0
ARC
  8
APS_GEOMETR�
 10
1019.856304
 20
886.61997
 40
8.195804
 50
97.474967
 51
120.997551
  0
ARC
  8
APS_GEOMETR�
 10
1019.552645
 20
887.101138
 40
7.626977
 50
120.903718
 51
145.605665
  0
ARC
  8
APS_GEOMETR�
 10
1019.112699
 20
887.399842
 40
7.095214
 50
145.58921
 51
171.511445
  0
ARC
  8
APS_GEOMETR�
 10
1000.990009
 20
878.717414
 40
14.764615
 50
12.595994
 51
41.223057
  0
ARC
  8
APS_GEOMETR�
 10
1001.463386
 20
878.850973
 40
14.27353
 50
343.226061
 51
12.48716
  0
ARC
  8
APS_GEOMETR�
 10
1000.846893
 20
879.061228
 40
14.92449
 50
314.712295
 51
343.136261
  0
ARC
  8
APS_GEOMETR�
 10
999.868854
 20
880.016491
 40
16.291459
 50
288.003917
 51
314.793077
  0
ARC
  8
APS_GEOMETR�
 10
1013.821057
 20
779.428552
 40
85.560094
 50
95.98205
 51
125.723771
  0
ARC
  8
APS_GEOMETR�
 10
983.426203
 20
819.977935
 40
34.907863
 50
124.082361
 51
151.208356
  0
ARC
  8
APS_GEOMETR�
 10
981.388952
 20
821.108135
 40
32.57813
 50
151.224692
 51
179.620275
  0
ARC
  8
APS_GEOMETR�
 10
967.361768
 20
725.1442
 40
97.952404
 50
100.916607
 51
137.172994
  0
ARC
  8
APS_GEOMETR�
 10
829.11266
 20
895.591258
 40
123.277047
 50
274.044836
 51
302.595481
  0
ARC
  8
APS_GEOMETR�
 10
837.521029
 20
777.678025
 40
5.064901
 50
253.358426
 51
273.251009
  0
ARC
  8
APS_GEOMETR�
 10
837.415116
 20
777.156046
 40
4.534708
 50
230.284629
 51
252.751821
  0
ARC
  8
APS_GEOMETR�
 10
837.203408
 20
776.908623
 40
4.209109
 50
206.722099
 51
230.349355
  0
ARC
  8
APS_GEOMETR�
 10
836.99246
 20
776.801113
 40
3.972348
 50
182.155177
 51
206.705196
  0
ARC
  8
APS_GEOMETR�
 10
836.972419
 20
776.794416
 40
3.952074
 50
157.437402
 51
182.069087
  0
ARC
  8
APS_GEOMETR�
 10
837.160879
 20
776.713441
 40
4.15718
 50
133.579192
 51
157.4034
  0
ARC
  8
APS_GEOMETR�
 10
837.38785
 20
776.481207
 40
4.481881
 50
110.987823
 51
133.634551
  0
ARC
  8
APS_GEOMETR�
 10
754.307484
 20
1051.324514
 40
282.655904
 50
286.753115
 51
296.656558
  0
ARC
  8
APS_GEOMETR�
 10
445.692516
 20
48.675486
 40
282.655904
 50
116.656558
 51
126.56
  0
ARC
  8
APS_GEOMETR�
 10
445.631167
 20
48.736115
 40
282.570662
 50
126.557331
 51
146.368666
  0
LINE
  8
APS_GEOMETR�
 10
210.357613
 11
206.691458
 20
205.237021
 21
201.685086
  0
ARC
  8
APS_GEOMETR�
 10
195.676448
 20
216.968432
 40
18.839085
 50
282.379954
 51
305.781038
  0
ARC
  8
APS_GEOMETR�
 10
171.942878
 20
-43.779152
 40
243.932713
 50
83.462509
 51
97.756716
  0
ARC
  8
APS_GEOMETR�
 10
172.662933
 20
-48.145384
 40
248.356209
 50
97.785362
 51
111.908945
  0
LINE
  8
APS_GEOMETR�
 10
79.993127
 11
79.989901
 20
182.274046
 21
224.957505
  0
ARC
  8
APS_GEOMETR�
 10
148.390969
 20
2315.091259
 40
2091.252691
 50
268.125625
 51
268.400548
  0
ARC
  8
APS_GEOMETR�
 10
95.930147
 20
296.337767
 40
71.927653
 50
265.286613
 51
286.247358
  0
ARC
  8
APS_GEOMETR�
 10
97.379584
 20
291.850462
 40
67.214166
 50
286.131366
 51
308.071169
  0
ARC
  8
APS_GEOMETR�
 10
-2585.261284
 20
-1346.877006
 40
3152.056243
 50
29.814208
 51
30.2056
  0
ARC
  8
APS_GEOMETR�
 10
177.643112
 20
240.209823
 40
34.400775
 50
215.381638
 51
242.592017
  0
ARC
  8
APS_GEOMETR�
 10
178.933758
 20
242.513932
 40
37.040463
 50
242.460322
 51
268.328608
  0
ARC
  8
APS_GEOMETR�
 10
180.105498
 20
213.555563
 40
8.374829
 50
254.400374
 51
277.577849
  0
ARC
  8
APS_GEOMETR�
 10
180.143696
 20
213.38003
 40
8.195804
 50
277.474967
 51
300.997551
  0
ARC
  8
APS_GEOMETR�
 10
180.447355
 20
212.898862
 40
7.626977
 50
300.903718
 51
325.605665
  0
ARC
  8
APS_GEOMETR�
 10
180.887301
 20
212.600158
 40
7.095214
 50
325.58921
 51
351.511445
  0
ARC
  8
APS_GEOMETR�
 10
199.009991
 20
221.282586
 40
14.764615
 50
192.595994
 51
221.223057
  0
ARC
  8
APS_GEOMETR�
 10
198.536614
 20
221.149027
 40
14.27353
 50
163.226061
 51
192.48716
  0
ARC
  8
APS_GEOMETR�
 10
199.153107
 20
220.938772
 40
14.92449
 50
134.712295
 51
163.136261
  0
ARC
  8
APS_GEOMETR�
 10
200.131146
 20
219.983509
 40
16.291459
 50
108.003917
 51
134.793077
  0
ARC
  8
APS_GEOMETR�
 10
186.178943
 20
320.571448
 40
85.560094
 50
275.98205
 51
305.723771
  0
ARC
  8
APS_GEOMETR�
 10
216.573797
 20
280.022065
 40
34.907863
 50
304.082361
 51
331.208356
  0
ARC
  8
APS_GEOMETR�
 10
218.611048
 20
278.891865
 40
32.57813
 50
331.224692
 51
359.620275
  0
ARC
  8
APS_GEOMETR�
 10
232.638232
 20
374.8558
 40
97.952404
 50
280.916607
 51
317.172994
  0
ARC
  8
APS_GEOMETR�
 10
370.88734
 20
204.408742
 40
123.277047
 50
94.044836
 51
122.595481
  0
ARC
  8
APS_GEOMETR�
 10
362.478971
 20
322.321975
 40
5.064901
 50
73.358426
 51
93.251009
  0
ARC
  8
APS_GEOMETR�
 10
362.584884
 20
322.843954
 40
4.534708
 50
50.284629
 51
72.751821
  0
ARC
  8
APS_GEOMETR�
 10
362.796592
 20
323.091377
 40
4.209109
 50
26.722099
 51
50.349355
  0
ARC
  8
APS_GEOMETR�
 10
363.00754
 20
323.198887
 40
3.972348
 50
2.155177
 51
26.705196
  0
ARC
  8
APS_GEOMETR�
 10
363.027581
 20
323.205584
 40
3.952074
 50
337.437402
 51
2.069087
  0
ARC
  8
APS_GEOMETR�
 10
362.839121
 20
323.286559
 40
4.15718
 50
313.579192
 51
337.4034
  0
ARC
  8
APS_GEOMETR�
 10
362.61215
 20
323.518793
 40
4.481881
 50
290.987823
 51
313.634551
  0
ARC
  8
APS_GEOMETR�
 10
445.692516
 20
48.675486
 40
282.655904
 50
106.753115
 51
116.656558
  0
ARC
  8
APS_GEOMETR�
 10
754.307484
 20
48.675486
 40
282.655904
 50
53.44
 51
63.343442
  0
ARC
  8
APS_GEOMETR�
 10
754.368833
 20
48.736115
 40
282.570662
 50
33.631334
 51
53.442669
  0
LINE
  8
APS_GEOMETR�
 10
989.642387
 11
993.308542
 20
205.237021
 21
201.685086
  0
ARC
  8
APS_GEOMETR�
 10
1004.323552
 20
216.968432
 40
18.839085
 50
234.218962
 51
257.620046
  0
ARC
  8
APS_GEOMETR�
 10
1028.057122
 20
-43.779152
 40
243.932713
 50
82.243284
 51
96.537491
  0
ARC
  8
APS_GEOMETR�
 10
1027.337067
 20
-48.145384
 40
248.356209
 50
68.091055
 51
82.214638
  0
LINE
  8
APS_GEOMETR�
 10
1120.006873
 11
1120.010099
 20
182.274046
 21
224.957505
  0
ARC
  8
APS_GEOMETR�
 10
1051.609031
 20
2315.091259
 40
2091.252691
 50
271.599452
 51
271.874375
  0
ARC
  8
APS_GEOMETR�
 10
1104.069853
 20
296.337767
 40
71.927653
 50
253.752642
 51
274.713387
  0
ARC
  8
APS_GEOMETR�
 10
1102.620416
 20
291.850462
 40
67.214166
 50
231.928831
 51
253.868634
  0
ARC
  8
APS_GEOMETR�
 10
3785.261284
 20
-1346.877006
 40
3152.056243
 50
149.7944
 51
150.185792
  0
ARC
  8
APS_GEOMETR�
 10
1022.356888
 20
240.209823
 40
34.400775
 50
297.407983
 51
324.618362
  0
ARC
  8
APS_GEOMETR�
 10
1021.066242
 20
242.513932
 40
37.040463
 50
271.671392
 51
297.539678
  0
ARC
  8
APS_GEOMETR�
 10
1019.894502
 20
213.555563
 40
8.374829
 50
262.422151
 51
285.599626
  0
ARC
  8
APS_GEOMETR�
 10
1019.856304
 20
213.38003
 40
8.195804
 50
239.002449
 51
262.525033
  0
ARC
  8
APS_GEOMETR�
 10
1019.552645
 20
212.898862
 40
7.626977
 50
214.394335
 51
239.096282
  0
ARC
  8
APS_GEOMETR�
 10
1019.112699
 20
212.600158
 40
7.095214
 50
188.488555
 51
214.41079
  0
ARC
  8
APS_GEOMETR�
 10
1000.990009
 20
221.282586
 40
14.764615
 50
318.776943
 51
347.404006
  0
ARC
  8
APS_GEOMETR�
 10
1001.463386
 20
221.149027
 40
14.27353
 50
347.51284
 51
16.773939
  0
ARC
  8
APS_GEOMETR�
 10
1000.846893
 20
220.938772
 40
14.92449
 50
16.863739
 51
45.287705
  0
ARC
  8
APS_GEOMETR�
 10
999.868854
 20
219.983509
 40
16.291459
 50
45.206923
 51
71.996083
  0
ARC
  8
APS_GEOMETR�
 10
1013.821057
 20
320.571448
 40
85.560094
 50
234.276229
 51
264.01795
  0
ARC
  8
APS_GEOMETR�
 10
983.426203
 20
280.022065
 40
34.907863
 50
208.791644
 51
235.917639
  0
ARC
  8
APS_GEOMETR�
 10
981.388952
 20
278.891865
 40
32.57813
 50
180.379725
 51
208.775308
  0
ARC
  8
APS_GEOMETR�
 10
967.361768
 20
374.8558
 40
97.952404
 50
222.827006
 51
259.083393
  0
ARC
  8
APS_GEOMETR�
 10
829.11266
 20
204.408742
 40
123.277047
 50
57.404519
 51
85.955164
  0
ARC
  8
APS_GEOMETR�
 10
837.521029
 20
322.321975
 40
5.064901
 50
86.748991
 51
106.641574
  0
ARC
  8
APS_GEOMETR�
 10
837.415116
 20
322.843954
 40
4.534708
 50
107.248179
 51
129.715371
  0
ARC
  8
APS_GEOMETR�
 10
837.203408
 20
323.091377
 40
4.209109
 50
129.650645
 51
153.277901
  0
ARC
  8
APS_GEOMETR�
 10
836.99246
 20
323.198887
 40
3.972348
 50
153.294804
 51
177.844823
  0
ARC
  8
APS_GEOMETR�
 10
836.972419
 20
323.205584
 40
3.952074
 50
177.930913
 51
202.562598
  0
ARC
  8
APS_GEOMETR�
 10
837.160879
 20
323.286559
 40
4.15718
 50
202.5966
 51
226.420808
  0
ARC
  8
APS_GEOMETR�
 10
837.38785
 20
323.518793
 40
4.481881
 50
226.365449
 51
249.012177
  0
ARC
  8
APS_GEOMETR�
 10
754.307484
 20
48.675486
 40
282.655904
 50
63.343442
 51
73.246885
  0
ENDSEC
  0
EOF
