999
\"DXF R12 Output\" (www.mydxf.blogspot.com)
 0 
SECTION
 2 
HEADER
 9 
$ACADVER
 1 
AC1009
 9 
$EXTMIN
 10 
 0 
 20 
 0 
 9 
$EXTMAX
 10 
 8.5 
 20 
 11 
 0 
ENDSEC
 0 
SECTION
 2 
ENTITIES
0
LINE
8
Layer 1
10
0.587658
20
70.555556
11
0.587658
21
140.828889
0
LINE
8
Layer 1
10
0.587658
20
140.828889
11
70.860991
21
140.828889
0
LINE
8
Layer 1
10
70.860991
20
140.828889
11
141.134324
21
140.828889
0
LINE
8
Layer 1
10
141.134324
20
140.828889
11
141.134324
21
70.555556
0
LINE
8
Layer 1
10
141.134324
20
70.555556
11
141.134324
21
0.282222
0
LINE
8
Layer 1
10
141.134324
20
0.282222
11
70.860991
21
0.282222
0
LINE
8
Layer 1
10
70.860991
20
0.282222
11
0.587658
21
0.282222
0
LINE
8
Layer 1
10
0.587658
20
0.282222
11
0.587658
21
70.555556
0
LINE
8
Layer 1
10
0.587658
20
70.555556
11
0.587658
21
70.555556
0
LINE
8
Layer 1
10
113.390158
20
33.584444
11
113.701065
21
34.154668
0
LINE
8
Layer 1
10
113.701065
20
34.154668
11
114.077443
21
34.393003
0
LINE
8
Layer 1
10
114.077443
20
34.393003
11
114.518325
21
34.299278
0
LINE
8
Layer 1
10
114.518325
20
34.299278
11
115.022746
21
33.873321
0
LINE
8
Layer 1
10
115.022746
20
33.873321
11
115.432559
21
33.522017
0
LINE
8
Layer 1
10
115.432559
20
33.522017
11
115.723911
21
33.467835
0
LINE
8
Layer 1
10
115.723911
20
33.467835
11
115.860241
21
33.695908
0
LINE
8
Layer 1
10
115.860241
20
33.695908
11
115.804987
21
34.191372
0
LINE
8
Layer 1
10
115.804987
20
34.191372
11
115.831356
21
34.735435
0
LINE
8
Layer 1
10
115.831356
20
34.735435
11
116.154185
21
35.161665
0
LINE
8
Layer 1
10
116.154185
20
35.161665
11
116.684213
21
35.400459
0
LINE
8
Layer 1
10
116.684213
20
35.400459
11
117.332179
21
35.382217
0
LINE
8
Layer 1
10
117.332179
20
35.382217
11
117.746183
21
35.327413
0
LINE
8
Layer 1
10
117.746183
20
35.327413
11
117.949547
21
35.426259
0
LINE
8
Layer 1
10
117.949547
20
35.426259
11
117.731915
21
36.098455
0
LINE
8
Layer 1
10
117.731915
20
36.098455
11
117.607135
21
36.645244
0
LINE
8
Layer 1
10
117.607135
20
36.645244
11
117.802389
21
37.206059
0
LINE
8
Layer 1
10
117.802389
20
37.206059
11
118.232806
21
37.645251
0
LINE
8
Layer 1
10
118.232806
20
37.645251
11
118.813515
21
37.827167
0
LINE
8
Layer 1
10
118.813515
20
37.827167
11
119.544324
21
37.836557
0
LINE
8
Layer 1
10
119.544324
20
37.836557
11
118.945736
21
38.336810
0
LINE
8
Layer 1
10
118.945736
20
38.336810
11
118.380623
21
38.933357
0
LINE
8
Layer 1
10
118.380623
20
38.933357
11
118.146416
21
39.485864
0
LINE
8
Layer 1
10
118.146416
20
39.485864
11
118.246612
21
39.967353
0
LINE
8
Layer 1
10
118.246612
20
39.967353
11
118.684706
21
40.350846
0
LINE
8
Layer 1
10
118.684706
20
40.350846
11
119.122341
21
40.668897
0
LINE
8
Layer 1
10
119.122341
20
40.668897
11
119.216035
21
40.941801
0
LINE
8
Layer 1
10
119.216035
20
40.941801
11
118.977338
21
41.132628
0
LINE
8
Layer 1
10
118.977338
20
41.132628
11
118.417797
21
41.204444
0
LINE
8
Layer 1
10
118.417797
20
41.204444
11
117.908209
21
41.349364
0
LINE
8
Layer 1
10
117.908209
20
41.349364
11
117.594037
21
41.729572
0
LINE
8
Layer 1
10
117.594037
20
41.729572
11
117.510857
21
42.263247
0
LINE
8
Layer 1
10
117.510857
20
42.263247
11
117.694244
21
42.868565
0
LINE
8
Layer 1
10
117.694244
20
42.868565
11
117.949997
21
43.599885
0
LINE
8
Layer 1
10
117.949997
20
43.599885
11
117.754853
21
43.666744
0
LINE
8
Layer 1
10
117.754853
20
43.666744
11
117.317334
21
43.585841
0
LINE
8
Layer 1
10
117.317334
20
43.585841
11
116.765599
21
43.545125
0
LINE
8
Layer 1
10
116.765599
20
43.545125
11
116.476824
21
43.743077
0
LINE
8
Layer 1
10
116.476824
20
43.743077
11
116.466122
21
44.149215
0
LINE
8
Layer 1
10
116.466122
20
44.149215
11
116.748602
21
44.733058
0
LINE
8
Layer 1
10
116.748602
20
44.733058
11
117.035588
21
45.271819
0
LINE
8
Layer 1
10
117.035588
20
45.271819
11
117.050639
21
45.578495
0
LINE
8
Layer 1
10
117.050639
20
45.578495
11
116.802743
21
45.638916
0
LINE
8
Layer 1
10
116.802743
20
45.638916
11
116.300888
21
45.438912
0
LINE
8
Layer 1
10
116.300888
20
45.438912
11
115.742744
21
45.256774
0
LINE
8
Layer 1
10
115.742744
20
45.256774
11
115.258362
21
45.277809
0
LINE
8
Layer 1
10
115.258362
20
45.277809
11
114.973490
21
45.530983
0
LINE
8
Layer 1
10
114.973490
20
45.530983
11
115.280417
21
46.136278
0
LINE
8
Layer 1
10
115.280417
20
46.136278
11
115.642404
21
46.769931
0
LINE
8
Layer 1
10
115.642404
20
46.769931
11
115.715760
21
47.136503
0
LINE
8
Layer 1
10
115.715760
20
47.136503
11
115.497044
21
47.247302
0
LINE
8
Layer 1
10
115.497044
20
47.247302
11
114.982811
21
47.113639
0
LINE
8
Layer 1
10
114.982811
20
47.113639
11
114.315646
21
46.967117
0
LINE
8
Layer 1
10
114.315646
20
46.967117
11
113.938852
21
47.113801
0
LINE
8
Layer 1
10
113.938852
20
47.113801
11
113.881092
21
47.517394
0
LINE
8
Layer 1
10
113.881092
20
47.517394
11
114.171030
21
48.141599
0
LINE
8
Layer 1
10
114.171030
20
48.141599
11
114.667199
21
48.898850
0
LINE
8
Layer 1
10
114.667199
20
48.898850
11
113.670546
21
48.711877
0
LINE
8
Layer 1
10
113.670546
20
48.711877
11
112.925249
21
48.651133
0
LINE
8
Layer 1
10
112.925249
20
48.651133
11
112.537453
21
48.818458
0
LINE
8
Layer 1
10
112.537453
20
48.818458
11
112.504372
21
49.217603
0
LINE
8
Layer 1
10
112.504372
20
49.217603
11
112.823216
21
49.852320
0
LINE
8
Layer 1
10
112.823216
20
49.852320
11
113.322233
21
50.613914
0
LINE
8
Layer 1
10
113.322233
20
50.613914
11
112.400870
21
50.429643
0
LINE
8
Layer 1
10
112.400870
20
50.429643
11
111.643971
21
50.381055
0
LINE
8
Layer 1
10
111.643971
20
50.381055
11
111.311665
21
50.682768
0
LINE
8
Layer 1
10
111.311665
20
50.682768
11
111.287035
21
51.085589
0
LINE
8
Layer 1
10
111.287035
20
51.085589
11
111.463517
21
51.439860
0
LINE
8
Layer 1
10
111.463517
20
51.439860
11
111.740787
21
51.802276
0
LINE
8
Layer 1
10
111.740787
20
51.802276
11
111.737593
21
52.037419
0
LINE
8
Layer 1
10
111.737593
20
52.037419
11
111.465618
21
52.131317
0
LINE
8
Layer 1
10
111.465618
20
52.131317
11
110.936546
21
52.070000
0
LINE
8
Layer 1
10
110.936546
20
52.070000
11
110.313453
21
52.013592
0
LINE
8
Layer 1
10
110.313453
20
52.013592
11
110.089879
21
52.188686
0
LINE
8
Layer 1
10
110.089879
20
52.188686
11
110.958172
21
52.388133
0
LINE
8
Layer 1
10
110.958172
20
52.388133
11
113.075604
21
52.529831
0
LINE
8
Layer 1
10
113.075604
20
52.529831
11
118.133213
21
52.519639
0
LINE
8
Layer 1
10
118.133213
20
52.519639
11
118.977060
21
52.425111
0
LINE
8
Layer 1
10
118.977060
20
52.425111
11
119.901744
21
52.045014
0
LINE
8
Layer 1
10
119.901744
20
52.045014
11
124.502477
21
49.068846
0
LINE
8
Layer 1
10
124.502477
20
49.068846
11
128.871591
21
46.260207
0
LINE
8
Layer 1
10
128.871591
20
46.260207
11
131.780641
21
44.693001
0
LINE
8
Layer 1
10
131.780641
20
44.693001
11
132.789691
21
44.330609
0
LINE
8
Layer 1
10
132.789691
20
44.330609
11
133.556184
21
44.225384
0
LINE
8
Layer 1
10
133.556184
20
44.225384
11
134.120941
21
44.359594
0
LINE
8
Layer 1
10
134.120941
20
44.359594
11
134.524781
21
44.715509
0
LINE
8
Layer 1
10
134.524781
20
44.715509
11
134.739918
21
45.160610
0
LINE
8
Layer 1
10
134.739918
20
45.160610
11
134.748981
21
45.535765
0
LINE
8
Layer 1
10
134.748981
20
45.535765
11
133.897860
21
46.221506
0
LINE
8
Layer 1
10
133.897860
20
46.221506
11
132.044889
21
47.413333
0
LINE
8
Layer 1
10
132.044889
20
47.413333
11
128.948018
21
49.641840
0
LINE
8
Layer 1
10
128.948018
20
49.641840
11
126.308799
21
52.137777
0
LINE
8
Layer 1
10
126.308799
20
52.137777
11
125.321515
21
53.310709
0
LINE
8
Layer 1
10
125.321515
20
53.310709
11
124.641490
21
54.340109
0
LINE
8
Layer 1
10
124.641490
20
54.340109
11
124.333007
21
55.155850
0
LINE
8
Layer 1
10
124.333007
20
55.155850
11
124.460347
21
55.687801
0
LINE
8
Layer 1
10
124.460347
20
55.687801
11
124.715235
21
56.116113
0
LINE
8
Layer 1
10
124.715235
20
56.116113
11
124.699461
21
56.676365
0
LINE
8
Layer 1
10
124.699461
20
56.676365
11
124.396767
21
57.435934
0
LINE
8
Layer 1
10
124.396767
20
57.435934
11
123.790896
21
58.462195
0
LINE
8
Layer 1
10
123.790896
20
58.462195
11
122.791494
21
59.963139
0
LINE
8
Layer 1
10
122.791494
20
59.963139
11
121.946298
21
60.698602
0
LINE
8
Layer 1
10
121.946298
20
60.698602
11
120.661897
21
60.941089
0
LINE
8
Layer 1
10
120.661897
20
60.941089
11
118.344879
21
60.963107
0
LINE
8
Layer 1
10
118.344879
20
60.963107
11
113.717409
21
61.136406
0
LINE
8
Layer 1
10
113.717409
20
61.136406
11
112.688274
21
61.306600
0
LINE
8
Layer 1
10
112.688274
20
61.306600
11
113.648755
21
63.329100
0
LINE
8
Layer 1
10
113.648755
20
63.329100
11
114.423944
21
65.219221
0
LINE
8
Layer 1
10
114.423944
20
65.219221
11
114.938934
21
66.923446
0
LINE
8
Layer 1
10
114.938934
20
66.923446
11
115.124692
21
68.380017
0
LINE
8
Layer 1
10
115.124692
20
68.380017
11
114.988779
21
68.832866
0
LINE
8
Layer 1
10
114.988779
20
68.832866
11
114.675581
21
69.328154
0
LINE
8
Layer 1
10
114.675581
20
69.328154
11
113.856850
21
70.129835
0
LINE
8
Layer 1
10
113.856850
20
70.129835
11
112.721207
21
70.887725
0
LINE
8
Layer 1
10
112.721207
20
70.887725
11
111.870130
21
71.281613
0
LINE
8
Layer 1
10
111.870130
20
71.281613
11
110.913901
21
71.523414
0
LINE
8
Layer 1
10
110.913901
20
71.523414
11
107.267657
21
71.783804
0
LINE
8
Layer 1
10
107.267657
20
71.783804
11
103.875142
21
72.025118
0
LINE
8
Layer 1
10
103.875142
20
72.025118
11
101.465194
21
72.367462
0
LINE
8
Layer 1
10
101.465194
20
72.367462
11
99.180343
21
73.160381
0
LINE
8
Layer 1
10
99.180343
20
73.160381
11
96.354653
21
74.442592
0
LINE
8
Layer 1
10
96.354653
20
74.442592
11
93.709051
21
75.858566
0
LINE
8
Layer 1
10
93.709051
20
75.858566
11
91.964465
21
77.052777
0
LINE
8
Layer 1
10
91.964465
20
77.052777
11
91.798415
21
77.328551
0
LINE
8
Layer 1
10
91.798415
20
77.328551
11
92.133071
21
77.619711
0
LINE
8
Layer 1
10
92.133071
20
77.619711
11
95.256573
21
78.734556
0
LINE
8
Layer 1
10
95.256573
20
78.734556
11
97.617379
21
79.562516
0
LINE
8
Layer 1
10
97.617379
20
79.562516
11
99.203221
21
80.321811
0
LINE
8
Layer 1
10
99.203221
20
80.321811
11
100.412752
21
81.253609
0
LINE
8
Layer 1
10
100.412752
20
81.253609
11
101.644619
21
82.599078
0
LINE
8
Layer 1
10
101.644619
20
82.599078
11
102.779451
21
83.626305
0
LINE
8
Layer 1
10
102.779451
20
83.626305
11
104.547156
21
84.956007
0
LINE
8
Layer 1
10
104.547156
20
84.956007
11
106.765547
21
86.501111
0
LINE
8
Layer 1
10
106.765547
20
86.501111
11
106.638928
21
88.496208
0
LINE
8
Layer 1
10
106.638928
20
88.496208
11
106.337692
21
90.482203
0
LINE
8
Layer 1
10
106.337692
20
90.482203
11
105.636029
21
92.447319
0
LINE
8
Layer 1
10
105.636029
20
92.447319
11
104.571010
21
95.391111
0
LINE
8
Layer 1
10
104.571010
20
95.391111
11
104.170520
21
96.961992
0
LINE
8
Layer 1
10
104.170520
20
96.961992
11
103.484709
21
98.883193
0
LINE
8
Layer 1
10
103.484709
20
98.883193
11
101.051493
21
104.296893
0
LINE
8
Layer 1
10
101.051493
20
104.296893
11
98.998778
21
108.245155
0
LINE
8
Layer 1
10
98.998778
20
108.245155
11
98.245670
21
109.291482
0
LINE
8
Layer 1
10
98.245670
20
109.291482
11
97.421714
21
110.125561
0
LINE
8
Layer 1
10
97.421714
20
110.125561
11
96.227952
21
111.386213
0
LINE
8
Layer 1
10
96.227952
20
111.386213
11
96.024786
21
111.896236
0
LINE
8
Layer 1
10
96.024786
20
111.896236
11
95.973093
21
112.508668
0
LINE
8
Layer 1
10
95.973093
20
112.508668
11
95.706514
21
115.399314
0
LINE
8
Layer 1
10
95.706514
20
115.399314
11
95.316510
21
116.910301
0
LINE
8
Layer 1
10
95.316510
20
116.910301
11
94.616272
21
118.080002
0
LINE
8
Layer 1
10
94.616272
20
118.080002
11
93.576198
21
118.942996
0
LINE
8
Layer 1
10
93.576198
20
118.942996
11
92.166680
21
119.533861
0
LINE
8
Layer 1
10
92.166680
20
119.533861
11
90.700498
21
119.804921
0
LINE
8
Layer 1
10
90.700498
20
119.804921
11
89.058123
21
119.516328
0
LINE
8
Layer 1
10
89.058123
20
119.516328
11
87.202015
21
118.916874
0
LINE
8
Layer 1
10
87.202015
20
118.916874
11
85.405662
21
118.102970
0
LINE
8
Layer 1
10
85.405662
20
118.102970
11
83.789732
21
117.137535
0
LINE
8
Layer 1
10
83.789732
20
117.137535
11
82.474889
21
116.083492
0
LINE
8
Layer 1
10
82.474889
20
116.083492
11
81.457068
21
114.981932
0
LINE
8
Layer 1
10
81.457068
20
114.981932
11
81.438488
21
114.728852
0
LINE
8
Layer 1
10
81.438488
20
114.728852
11
81.676076
21
114.537360
0
LINE
8
Layer 1
10
81.676076
20
114.537360
11
82.592764
21
114.279283
0
LINE
8
Layer 1
10
82.592764
20
114.279283
11
84.074965
21
114.063069
0
LINE
8
Layer 1
10
84.074965
20
114.063069
11
85.959879
21
113.876667
0
LINE
8
Layer 1
10
85.959879
20
113.876667
11
86.220286
21
112.528406
0
LINE
8
Layer 1
10
86.220286
20
112.528406
11
86.339501
21
111.519558
0
LINE
8
Layer 1
10
86.339501
20
111.519558
11
86.152633
21
110.901643
0
LINE
8
Layer 1
10
86.152633
20
110.901643
11
85.563753
21
110.555438
0
LINE
8
Layer 1
10
85.563753
20
110.555438
11
84.476931
21
110.361719
0
LINE
8
Layer 1
10
84.476931
20
110.361719
11
83.512520
21
110.139335
0
LINE
8
Layer 1
10
83.512520
20
110.139335
11
83.229860
21
109.935178
0
LINE
8
Layer 1
10
83.229860
20
109.935178
11
83.071944
21
109.639421
0
LINE
8
Layer 1
10
83.071944
20
109.639421
11
83.105482
21
108.684237
0
LINE
8
Layer 1
10
83.105482
20
108.684237
11
83.563415
21
107.096044
0
LINE
8
Layer 1
10
83.563415
20
107.096044
11
84.033387
21
105.891015
0
LINE
8
Layer 1
10
84.033387
20
105.891015
11
84.511837
21
105.352610
0
LINE
8
Layer 1
10
84.511837
20
105.352610
11
85.160174
21
105.412247
0
LINE
8
Layer 1
10
85.160174
20
105.412247
11
86.139805
21
106.001343
0
LINE
8
Layer 1
10
86.139805
20
106.001343
11
87.007208
21
106.499419
0
LINE
8
Layer 1
10
87.007208
20
106.499419
11
87.510560
21
106.485763
0
LINE
8
Layer 1
10
87.510560
20
106.485763
11
87.702128
21
105.916533
0
LINE
8
Layer 1
10
87.702128
20
105.916533
11
87.634180
21
104.747887
0
LINE
8
Layer 1
10
87.634180
20
104.747887
11
87.407696
21
103.472531
0
LINE
8
Layer 1
10
87.407696
20
103.472531
11
87.068982
21
102.476907
0
LINE
8
Layer 1
10
87.068982
20
102.476907
11
86.611201
21
101.746194
0
LINE
8
Layer 1
10
86.611201
20
101.746194
11
86.027514
21
101.265572
0
LINE
8
Layer 1
10
86.027514
20
101.265572
11
82.289211
21
99.734045
0
LINE
8
Layer 1
10
82.289211
20
99.734045
11
77.352102
21
98.033764
0
LINE
8
Layer 1
10
77.352102
20
98.033764
11
75.180379
21
97.220233
0
LINE
8
Layer 1
10
75.180379
20
97.220233
11
73.327658
21
96.280170
0
LINE
8
Layer 1
10
73.327658
20
96.280170
11
72.420588
21
95.653094
0
LINE
8
Layer 1
10
72.420588
20
95.653094
11
71.755063
21
95.001459
0
LINE
8
Layer 1
10
71.755063
20
95.001459
11
70.398279
21
92.710000
0
LINE
8
Layer 1
10
70.398279
20
92.710000
11
68.692137
21
89.792553
0
LINE
8
Layer 1
10
68.692137
20
89.792553
11
68.068195
21
89.115645
0
LINE
8
Layer 1
10
68.068195
20
89.115645
11
67.552226
21
88.900000
0
LINE
8
Layer 1
10
67.552226
20
88.900000
11
66.835531
21
89.070037
0
LINE
8
Layer 1
10
66.835531
20
89.070037
11
66.053596
21
89.554150
0
LINE
8
Layer 1
10
66.053596
20
89.554150
11
65.255963
21
90.313342
0
LINE
8
Layer 1
10
65.255963
20
90.313342
11
64.492175
21
91.308617
0
LINE
8
Layer 1
10
64.492175
20
91.308617
11
63.507280
21
92.543195
0
LINE
8
Layer 1
10
63.507280
20
92.543195
11
62.596790
21
93.315688
0
LINE
8
Layer 1
10
62.596790
20
93.315688
11
61.724970
21
93.617270
0
LINE
8
Layer 1
10
61.724970
20
93.617270
11
60.791398
21
93.307103
0
LINE
8
Layer 1
10
60.791398
20
93.307103
11
59.736201
21
92.460761
0
LINE
8
Layer 1
10
59.736201
20
92.460761
11
58.508361
21
90.979998
0
LINE
8
Layer 1
10
58.508361
20
90.979998
11
57.123978
21
89.087883
0
LINE
8
Layer 1
10
57.123978
20
89.087883
11
56.554593
21
88.483739
0
LINE
8
Layer 1
10
56.554593
20
88.483739
11
55.925291
21
88.024279
0
LINE
8
Layer 1
10
55.925291
20
88.024279
11
54.061574
21
87.289638
0
LINE
8
Layer 1
10
54.061574
20
87.289638
11
50.682102
21
86.384415
0
LINE
8
Layer 1
10
50.682102
20
86.384415
11
42.638768
21
84.108033
0
LINE
8
Layer 1
10
42.638768
20
84.108033
11
40.090922
21
83.187059
0
LINE
8
Layer 1
10
40.090922
20
83.187059
11
37.863365
21
82.194205
0
LINE
8
Layer 1
10
37.863365
20
82.194205
11
35.975950
21
81.145785
0
LINE
8
Layer 1
10
35.975950
20
81.145785
11
34.448531
21
80.058114
0
LINE
8
Layer 1
10
34.448531
20
80.058114
11
33.300959
21
78.947507
0
LINE
8
Layer 1
10
33.300959
20
78.947507
11
32.553088
21
77.830280
0
LINE
8
Layer 1
10
32.553088
20
77.830280
11
32.224771
21
76.722745
0
LINE
8
Layer 1
10
32.224771
20
76.722745
11
32.335859
21
75.641220
0
LINE
8
Layer 1
10
32.335859
20
75.641220
11
32.955944
21
74.684925
0
LINE
8
Layer 1
10
32.955944
20
74.684925
11
34.250702
21
73.344825
0
LINE
8
Layer 1
10
34.250702
20
73.344825
11
36.048617
21
71.781918
0
LINE
8
Layer 1
10
36.048617
20
71.781918
11
38.178173
21
70.157202
0
LINE
8
Layer 1
10
38.178173
20
70.157202
11
40.459719
21
68.391753
0
LINE
8
Layer 1
10
40.459719
20
68.391753
11
40.713172
21
67.939750
0
LINE
8
Layer 1
10
40.713172
20
67.939750
11
40.628276
21
67.500331
0
LINE
8
Layer 1
10
40.628276
20
67.500331
11
40.135516
21
66.568863
0
LINE
8
Layer 1
10
40.135516
20
66.568863
11
39.313487
21
65.395603
0
LINE
8
Layer 1
10
39.313487
20
65.395603
11
37.159065
21
62.949946
0
LINE
8
Layer 1
10
37.159065
20
62.949946
11
35.870727
21
61.694339
0
LINE
8
Layer 1
10
35.870727
20
61.694339
11
31.846416
21
62.340414
0
LINE
8
Layer 1
10
31.846416
20
62.340414
11
27.822102
21
62.986491
0
LINE
8
Layer 1
10
27.822102
20
62.986491
11
26.975435
21
64.427549
0
LINE
8
Layer 1
10
26.975435
20
64.427549
11
25.548449
21
66.288672
0
LINE
8
Layer 1
10
25.548449
20
66.288672
11
23.306546
21
68.739670
0
LINE
8
Layer 1
10
23.306546
20
68.739670
11
20.605147
21
71.263804
0
LINE
8
Layer 1
10
20.605147
20
71.263804
11
19.506457
21
72.026727
0
LINE
8
Layer 1
10
19.506457
20
72.026727
11
18.288770
21
72.682402
0
LINE
8
Layer 1
10
18.288770
20
72.682402
11
16.114723
21
73.536138
0
LINE
8
Layer 1
10
16.114723
20
73.536138
11
14.434684
21
73.775128
0
LINE
8
Layer 1
10
14.434684
20
73.775128
11
13.785598
21
73.680660
0
LINE
8
Layer 1
10
13.785598
20
73.680660
11
13.266830
21
73.452387
0
LINE
8
Layer 1
10
13.266830
20
73.452387
11
12.880654
21
73.096935
0
LINE
8
Layer 1
10
12.880654
20
73.096935
11
12.629341
21
72.620932
0
LINE
8
Layer 1
10
12.629341
20
72.620932
11
12.540393
21
71.333777
0
LINE
8
Layer 1
10
12.540393
20
71.333777
11
13.018166
21
69.643940
0
LINE
8
Layer 1
10
13.018166
20
69.643940
11
14.080838
21
67.604434
0
LINE
8
Layer 1
10
14.080838
20
67.604434
11
15.746586
21
65.268277
0
LINE
8
Layer 1
10
15.746586
20
65.268277
11
17.821678
21
63.013593
0
LINE
8
Layer 1
10
17.821678
20
63.013593
11
20.161096
21
61.203799
0
LINE
8
Layer 1
10
20.161096
20
61.203799
11
23.003447
21
59.685652
0
LINE
8
Layer 1
10
23.003447
20
59.685652
11
26.587337
21
58.305909
0
LINE
8
Layer 1
10
26.587337
20
58.305909
11
35.584982
21
55.545879
0
LINE
8
Layer 1
10
35.584982
20
55.545879
11
45.893014
21
52.752995
0
LINE
8
Layer 1
10
45.893014
20
52.752995
11
50.729697
21
51.632766
0
LINE
8
Layer 1
10
50.729697
20
51.632766
11
51.906411
21
51.485265
0
LINE
8
Layer 1
10
51.906411
20
51.485265
11
52.603296
21
51.550491
0
LINE
8
Layer 1
10
52.603296
20
51.550491
11
53.306956
21
51.893603
0
LINE
8
Layer 1
10
53.306956
20
51.893603
11
53.504324
21
52.453989
0
LINE
8
Layer 1
10
53.504324
20
52.453989
11
53.404227
21
52.828827
0
LINE
8
Layer 1
10
53.404227
20
52.828827
11
52.978695
21
53.168697
0
LINE
8
Layer 1
10
52.978695
20
53.168697
11
50.399879
21
54.155354
0
LINE
8
Layer 1
10
50.399879
20
54.155354
11
45.640685
21
56.060820
0
LINE
8
Layer 1
10
45.640685
20
56.060820
11
43.837126
21
57.011028
0
LINE
8
Layer 1
10
43.837126
20
57.011028
11
42.555507
21
57.893828
0
LINE
8
Layer 1
10
42.555507
20
57.893828
11
41.650991
21
58.657544
0
LINE
8
Layer 1
10
41.650991
20
58.657544
11
42.872869
21
59.912868
0
LINE
8
Layer 1
10
42.872869
20
59.912868
11
43.615594
21
60.630977
0
LINE
8
Layer 1
10
43.615594
20
60.630977
11
44.279432
21
61.045408
0
LINE
8
Layer 1
10
44.279432
20
61.045408
11
45.192488
21
61.294148
0
LINE
8
Layer 1
10
45.192488
20
61.294148
11
46.682869
21
61.515185
0
LINE
8
Layer 1
10
46.682869
20
61.515185
11
51.912613
21
62.398868
0
LINE
8
Layer 1
10
51.912613
20
62.398868
11
55.359848
21
62.935556
0
LINE
8
Layer 1
10
55.359848
20
62.935556
11
56.849658
21
62.588208
0
LINE
8
Layer 1
10
56.849658
20
62.588208
11
59.269285
21
61.788151
0
LINE
8
Layer 1
10
59.269285
20
61.788151
11
61.598646
21
60.898363
0
LINE
8
Layer 1
10
61.598646
20
60.898363
11
62.817657
21
60.281823
0
LINE
8
Layer 1
10
62.817657
20
60.281823
11
63.250341
21
60.049073
0
LINE
8
Layer 1
10
63.250341
20
60.049073
11
63.894312
21
59.928768
0
LINE
8
Layer 1
10
63.894312
20
59.928768
11
64.830799
21
59.712288
0
LINE
8
Layer 1
10
64.830799
20
59.712288
11
64.899581
21
59.495788
0
LINE
8
Layer 1
10
64.899581
20
59.495788
11
64.703841
21
59.205518
0
LINE
8
Layer 1
10
64.703841
20
59.205518
11
64.396891
21
58.785810
0
LINE
8
Layer 1
10
64.396891
20
58.785810
11
64.367033
21
58.473448
0
LINE
8
Layer 1
10
64.367033
20
58.473448
11
64.589519
21
58.327335
0
LINE
8
Layer 1
10
64.589519
20
58.327335
11
65.039601
21
58.406374
0
LINE
8
Layer 1
10
65.039601
20
58.406374
11
65.658273
21
58.524586
0
LINE
8
Layer 1
10
65.658273
20
58.524586
11
66.029831
21
58.359591
0
LINE
8
Layer 1
10
66.029831
20
58.359591
11
66.112739
21
57.962739
0
LINE
8
Layer 1
10
66.112739
20
57.962739
11
65.865460
21
57.385382
0
LINE
8
Layer 1
10
65.865460
20
57.385382
11
65.588163
21
56.872937
0
LINE
8
Layer 1
10
65.588163
20
56.872937
11
65.589837
21
56.595656
0
LINE
8
Layer 1
10
65.589837
20
56.595656
11
65.877326
21
56.545797
0
LINE
8
Layer 1
10
65.877326
20
56.545797
11
66.457474
21
56.715615
0
LINE
8
Layer 1
10
66.457474
20
56.715615
11
67.095116
21
56.857510
0
LINE
8
Layer 1
10
67.095116
20
56.857510
11
67.380756
21
56.563429
0
LINE
8
Layer 1
10
67.380756
20
56.563429
11
67.405860
21
56.159370
0
LINE
8
Layer 1
10
67.405860
20
56.159370
11
67.229575
21
55.804585
0
LINE
8
Layer 1
10
67.229575
20
55.804585
11
66.917627
21
55.378161
0
LINE
8
Layer 1
10
66.917627
20
55.378161
11
66.905221
21
55.076162
0
LINE
8
Layer 1
10
66.905221
20
55.076162
11
67.162947
21
54.949931
0
LINE
8
Layer 1
10
67.162947
20
54.949931
11
67.661392
21
55.050806
0
LINE
8
Layer 1
10
67.661392
20
55.050806
11
68.316956
21
55.194324
0
LINE
8
Layer 1
10
68.316956
20
55.194324
11
68.701023
21
55.057105
0
LINE
8
Layer 1
10
68.701023
20
55.057105
11
68.779612
21
54.677134
0
LINE
8
Layer 1
10
68.779612
20
54.677134
11
68.518744
21
54.092396
0
LINE
8
Layer 1
10
68.518744
20
54.092396
11
68.244249
21
53.574914
0
LINE
8
Layer 1
10
68.244249
20
53.574914
11
68.244033
21
53.279317
0
LINE
8
Layer 1
10
68.244033
20
53.279317
11
68.517895
21
53.205876
0
LINE
8
Layer 1
10
68.517895
20
53.205876
11
69.065634
21
53.354862
0
LINE
8
Layer 1
10
69.065634
20
53.354862
11
69.587760
21
53.438830
0
LINE
8
Layer 1
10
69.587760
20
53.438830
11
69.896164
21
53.251444
0
LINE
8
Layer 1
10
69.896164
20
53.251444
11
69.961353
21
52.839981
0
LINE
8
Layer 1
10
69.961353
20
52.839981
11
69.753833
21
52.251717
0
LINE
8
Layer 1
10
69.753833
20
52.251717
11
69.488333
21
51.651424
0
LINE
8
Layer 1
10
69.488333
20
51.651424
11
69.491266
21
51.333593
0
LINE
8
Layer 1
10
69.491266
20
51.333593
11
69.767717
21
51.291674
0
LINE
8
Layer 1
10
69.767717
20
51.291674
11
70.322773
21
51.519119
0
LINE
8
Layer 1
10
70.322773
20
51.519119
11
70.976234
21
51.798210
0
LINE
8
Layer 1
10
70.976234
20
51.798210
11
71.322812
21
51.770257
0
LINE
8
Layer 1
10
71.322812
20
51.770257
11
71.394114
21
51.405562
0
LINE
8
Layer 1
10
71.394114
20
51.405562
11
71.221750
21
50.674425
0
LINE
8
Layer 1
10
71.221750
20
50.674425
11
71.046382
21
49.944308
0
LINE
8
Layer 1
10
71.046382
20
49.944308
11
71.102359
21
49.593510
0
LINE
8
Layer 1
10
71.102359
20
49.593510
11
71.410064
21
49.602897
0
LINE
8
Layer 1
10
71.410064
20
49.602897
11
71.989879
21
49.953333
0
LINE
8
Layer 1
10
71.989879
20
49.953333
11
72.563068
21
50.293208
0
LINE
8
Layer 1
10
72.563068
20
50.293208
11
72.907035
21
50.278788
0
LINE
8
Layer 1
10
72.907035
20
50.278788
11
73.074646
21
49.865915
0
LINE
8
Layer 1
10
73.074646
20
49.865915
11
73.118768
21
49.010435
0
LINE
8
Layer 1
10
73.118768
20
49.010435
11
73.118768
21
47.879387
0
LINE
8
Layer 1
10
73.118768
20
47.879387
11
73.803431
21
48.522594
0
LINE
8
Layer 1
10
73.803431
20
48.522594
11
74.356202
21
48.922285
0
LINE
8
Layer 1
10
74.356202
20
48.922285
11
74.760939
21
48.951215
0
LINE
8
Layer 1
10
74.760939
20
48.951215
11
75.009645
21
48.613168
0
LINE
8
Layer 1
10
75.009645
20
48.613168
11
75.094324
21
47.911927
0
LINE
8
Layer 1
10
75.094324
20
47.911927
11
75.094324
21
47.032720
0
LINE
8
Layer 1
10
75.094324
20
47.032720
11
75.747513
21
47.646361
0
LINE
8
Layer 1
10
75.747513
20
47.646361
11
76.332928
21
48.106680
0
LINE
8
Layer 1
10
76.332928
20
48.106680
11
76.745403
21
48.221821
0
LINE
8
Layer 1
10
76.745403
20
48.221821
11
76.989525
21
47.990975
0
LINE
8
Layer 1
10
76.989525
20
47.990975
11
77.069879
21
47.413333
0
LINE
8
Layer 1
10
77.069879
20
47.413333
11
77.139936
21
46.844948
0
LINE
8
Layer 1
10
77.139936
20
46.844948
11
77.326784
21
46.598581
0
LINE
8
Layer 1
10
77.326784
20
46.598581
11
77.595440
21
46.686407
0
LINE
8
Layer 1
10
77.595440
20
46.686407
11
77.910921
21
47.120601
0
LINE
8
Layer 1
10
77.910921
20
47.120601
11
78.264572
21
47.499036
0
LINE
8
Layer 1
10
78.264572
20
47.499036
11
78.634963
21
47.495172
0
LINE
8
Layer 1
10
78.634963
20
47.495172
11
78.926962
21
47.157990
0
LINE
8
Layer 1
10
78.926962
20
47.157990
11
79.045435
21
46.536472
0
LINE
8
Layer 1
10
79.045435
20
46.536472
11
79.097662
21
45.984149
0
LINE
8
Layer 1
10
79.097662
20
45.984149
11
79.249395
21
45.755066
0
LINE
8
Layer 1
10
79.249395
20
45.755066
11
79.493209
21
45.851707
0
LINE
8
Layer 1
10
79.493209
20
45.851707
11
79.821682
21
46.276559
0
LINE
8
Layer 1
10
79.821682
20
46.276559
11
80.218033
21
46.660255
0
LINE
8
Layer 1
10
80.218033
20
46.660255
11
80.607078
21
46.651915
0
LINE
8
Layer 1
10
80.607078
20
46.651915
11
80.903252
21
46.296910
0
LINE
8
Layer 1
10
80.903252
20
46.296910
11
81.020991
21
45.640611
0
LINE
8
Layer 1
10
81.020991
20
45.640611
11
81.020991
21
44.774942
0
LINE
8
Layer 1
10
81.020991
20
44.774942
11
81.705653
21
45.418149
0
LINE
8
Layer 1
10
81.705653
20
45.418149
11
82.258424
21
45.817841
0
LINE
8
Layer 1
10
82.258424
20
45.817841
11
82.663161
21
45.846771
0
LINE
8
Layer 1
10
82.663161
20
45.846771
11
82.911867
21
45.508724
0
LINE
8
Layer 1
10
82.911867
20
45.508724
11
82.996546
21
44.807482
0
LINE
8
Layer 1
10
82.996546
20
44.807482
11
82.996546
21
43.928276
0
LINE
8
Layer 1
10
82.996546
20
43.928276
11
83.681209
21
44.571483
0
LINE
8
Layer 1
10
83.681209
20
44.571483
11
84.233980
21
44.971174
0
LINE
8
Layer 1
10
84.233980
20
44.971174
11
84.638716
21
45.000104
0
LINE
8
Layer 1
10
84.638716
20
45.000104
11
84.887423
21
44.662057
0
LINE
8
Layer 1
10
84.887423
20
44.662057
11
84.972102
21
43.960816
0
LINE
8
Layer 1
10
84.972102
20
43.960816
11
84.972102
21
43.081609
0
LINE
8
Layer 1
10
84.972102
20
43.081609
11
85.625291
21
43.695250
0
LINE
8
Layer 1
10
85.625291
20
43.695250
11
86.210706
21
44.155569
0
LINE
8
Layer 1
10
86.210706
20
44.155569
11
86.623181
21
44.270710
0
LINE
8
Layer 1
10
86.623181
20
44.270710
11
86.867302
21
44.039864
0
LINE
8
Layer 1
10
86.867302
20
44.039864
11
86.947657
21
43.462222
0
LINE
8
Layer 1
10
86.947657
20
43.462222
11
87.017714
21
42.893837
0
LINE
8
Layer 1
10
87.017714
20
42.893837
11
87.204562
21
42.647470
0
LINE
8
Layer 1
10
87.204562
20
42.647470
11
87.473218
21
42.735296
0
LINE
8
Layer 1
10
87.473218
20
42.735296
11
87.788699
21
43.169490
0
LINE
8
Layer 1
10
87.788699
20
43.169490
11
88.142350
21
43.547925
0
LINE
8
Layer 1
10
88.142350
20
43.547925
11
88.512741
21
43.544061
0
LINE
8
Layer 1
10
88.512741
20
43.544061
11
88.804739
21
43.206879
0
LINE
8
Layer 1
10
88.804739
20
43.206879
11
88.923213
21
42.585361
0
LINE
8
Layer 1
10
88.923213
20
42.585361
11
88.975440
21
42.033038
0
LINE
8
Layer 1
10
88.975440
20
42.033038
11
89.127172
21
41.803955
0
LINE
8
Layer 1
10
89.127172
20
41.803955
11
89.370987
21
41.900596
0
LINE
8
Layer 1
10
89.370987
20
41.900596
11
89.699459
21
42.325448
0
LINE
8
Layer 1
10
89.699459
20
42.325448
11
90.095811
21
42.709144
0
LINE
8
Layer 1
10
90.095811
20
42.709144
11
90.484856
21
42.700804
0
LINE
8
Layer 1
10
90.484856
20
42.700804
11
90.781029
21
42.345799
0
LINE
8
Layer 1
10
90.781029
20
42.345799
11
90.898768
21
41.689500
0
LINE
8
Layer 1
10
90.898768
20
41.689500
11
90.898768
21
40.823831
0
LINE
8
Layer 1
10
90.898768
20
40.823831
11
91.583431
21
41.467038
0
LINE
8
Layer 1
10
91.583431
20
41.467038
11
92.136202
21
41.866730
0
LINE
8
Layer 1
10
92.136202
20
41.866730
11
92.540939
21
41.895660
0
LINE
8
Layer 1
10
92.540939
20
41.895660
11
92.789645
21
41.557613
0
LINE
8
Layer 1
10
92.789645
20
41.557613
11
92.874324
21
40.856371
0
LINE
8
Layer 1
10
92.874324
20
40.856371
11
92.874324
21
39.977164
0
LINE
8
Layer 1
10
92.874324
20
39.977164
11
93.558987
21
40.620371
0
LINE
8
Layer 1
10
93.558987
20
40.620371
11
94.111757
21
41.020063
0
LINE
8
Layer 1
10
94.111757
20
41.020063
11
94.516494
21
41.048993
0
LINE
8
Layer 1
10
94.516494
20
41.048993
11
94.765200
21
40.710946
0
LINE
8
Layer 1
10
94.765200
20
40.710946
11
94.849879
21
40.009705
0
LINE
8
Layer 1
10
94.849879
20
40.009705
11
94.849879
21
39.130498
0
LINE
8
Layer 1
10
94.849879
20
39.130498
11
95.503069
21
39.744139
0
LINE
8
Layer 1
10
95.503069
20
39.744139
11
96.088483
21
40.204458
0
LINE
8
Layer 1
10
96.088483
20
40.204458
11
96.500958
21
40.319598
0
LINE
8
Layer 1
10
96.500958
20
40.319598
11
96.745080
21
40.088752
0
LINE
8
Layer 1
10
96.745080
20
40.088752
11
96.825435
21
39.511111
0
LINE
8
Layer 1
10
96.825435
20
39.511111
11
96.895492
21
38.942726
0
LINE
8
Layer 1
10
96.895492
20
38.942726
11
97.082340
21
38.696359
0
LINE
8
Layer 1
10
97.082340
20
38.696359
11
97.350996
21
38.784185
0
LINE
8
Layer 1
10
97.350996
20
38.784185
11
97.666477
21
39.218379
0
LINE
8
Layer 1
10
97.666477
20
39.218379
11
98.020127
21
39.596814
0
LINE
8
Layer 1
10
98.020127
20
39.596814
11
98.390518
21
39.592950
0
LINE
8
Layer 1
10
98.390518
20
39.592950
11
98.682517
21
39.255768
0
LINE
8
Layer 1
10
98.682517
20
39.255768
11
98.800991
21
38.634249
0
LINE
8
Layer 1
10
98.800991
20
38.634249
11
98.853218
21
38.081927
0
LINE
8
Layer 1
10
98.853218
20
38.081927
11
99.004950
21
37.852844
0
LINE
8
Layer 1
10
99.004950
20
37.852844
11
99.248764
21
37.949485
0
LINE
8
Layer 1
10
99.248764
20
37.949485
11
99.577237
21
38.374337
0
LINE
8
Layer 1
10
99.577237
20
38.374337
11
99.973589
21
38.758033
0
LINE
8
Layer 1
10
99.973589
20
38.758033
11
100.362633
21
38.749693
0
LINE
8
Layer 1
10
100.362633
20
38.749693
11
100.658807
21
38.394687
0
LINE
8
Layer 1
10
100.658807
20
38.394687
11
100.776546
21
37.738389
0
LINE
8
Layer 1
10
100.776546
20
37.738389
11
100.776546
21
36.872720
0
LINE
8
Layer 1
10
100.776546
20
36.872720
11
101.461209
21
37.515927
0
LINE
8
Layer 1
10
101.461209
20
37.515927
11
102.013980
21
37.915619
0
LINE
8
Layer 1
10
102.013980
20
37.915619
11
102.418716
21
37.944549
0
LINE
8
Layer 1
10
102.418716
20
37.944549
11
102.667423
21
37.606501
0
LINE
8
Layer 1
10
102.667423
20
37.606501
11
102.752102
21
36.905260
0
LINE
8
Layer 1
10
102.752102
20
36.905260
11
102.752102
21
36.026053
0
LINE
8
Layer 1
10
102.752102
20
36.026053
11
103.405291
21
36.639695
0
LINE
8
Layer 1
10
103.405291
20
36.639695
11
103.990706
21
37.100013
0
LINE
8
Layer 1
10
103.990706
20
37.100013
11
104.403181
21
37.215154
0
LINE
8
Layer 1
10
104.403181
20
37.215154
11
104.647302
21
36.984308
0
LINE
8
Layer 1
10
104.647302
20
36.984308
11
104.727657
21
36.406667
0
LINE
8
Layer 1
10
104.727657
20
36.406667
11
104.783438
21
35.856992
0
LINE
8
Layer 1
10
104.783438
20
35.856992
11
104.946961
21
35.601303
0
LINE
8
Layer 1
10
104.946961
20
35.601303
11
105.212499
21
35.642462
0
LINE
8
Layer 1
10
105.212499
20
35.642462
11
105.574324
21
35.983333
0
LINE
8
Layer 1
10
105.574324
20
35.983333
11
105.998557
21
36.346346
0
LINE
8
Layer 1
10
105.998557
20
36.346346
11
106.359074
21
36.385186
0
LINE
8
Layer 1
10
106.359074
20
36.385186
11
106.609439
21
36.117266
0
LINE
8
Layer 1
10
106.609439
20
36.117266
11
106.703213
21
35.560000
0
LINE
8
Layer 1
10
106.703213
20
35.560000
11
106.773270
21
34.991615
0
LINE
8
Layer 1
10
106.773270
20
34.991615
11
106.960118
21
34.745248
0
LINE
8
Layer 1
10
106.960118
20
34.745248
11
107.228774
21
34.833073
0
LINE
8
Layer 1
10
107.228774
20
34.833073
11
107.544255
21
35.267268
0
LINE
8
Layer 1
10
107.544255
20
35.267268
11
107.897905
21
35.645703
0
LINE
8
Layer 1
10
107.897905
20
35.645703
11
108.268296
21
35.641839
0
LINE
8
Layer 1
10
108.268296
20
35.641839
11
108.560295
21
35.304657
0
LINE
8
Layer 1
10
108.560295
20
35.304657
11
108.678768
21
34.683138
0
LINE
8
Layer 1
10
108.678768
20
34.683138
11
108.731105
21
34.129712
0
LINE
8
Layer 1
10
108.731105
20
34.129712
11
108.883430
21
33.901720
0
LINE
8
Layer 1
10
108.883430
20
33.901720
11
109.128717
21
34.001431
0
LINE
8
Layer 1
10
109.128717
20
34.001431
11
109.459940
21
34.431111
0
LINE
8
Layer 1
10
109.459940
20
34.431111
11
109.814209
21
34.864639
0
LINE
8
Layer 1
10
109.814209
20
34.864639
11
110.104238
21
34.964817
0
LINE
8
Layer 1
10
110.104238
20
34.964817
11
110.300158
21
34.739346
0
LINE
8
Layer 1
10
110.300158
20
34.739346
11
110.372102
21
34.195927
0
LINE
8
Layer 1
10
110.372102
20
34.195927
11
110.422878
21
33.530600
0
LINE
8
Layer 1
10
110.422878
20
33.530600
11
110.590939
21
33.251188
0
LINE
8
Layer 1
10
110.590939
20
33.251188
11
110.899881
21
33.348694
0
LINE
8
Layer 1
10
110.899881
20
33.348694
11
111.373302
21
33.814120
0
LINE
8
Layer 1
10
111.373302
20
33.814120
11
112.034221
21
34.572222
0
LINE
8
Layer 1
10
112.034221
20
34.572222
11
112.359660
21
33.655000
0
LINE
8
Layer 1
10
112.359660
20
33.655000
11
112.633521
21
33.011906
0
LINE
8
Layer 1
10
112.633521
20
33.011906
11
112.873115
21
32.787386
0
LINE
8
Layer 1
10
112.873115
20
32.787386
11
113.113606
21
32.979035
0
LINE
8
Layer 1
10
113.113606
20
32.979035
11
113.390158
21
33.584444
0
LINE
8
Layer 1
10
113.390158
20
33.584444
11
113.390158
21
33.584444
0
LINE
8
Layer 1
10
106.610077
20
41.056004
11
105.624716
21
41.388462
0
LINE
8
Layer 1
10
105.624716
20
41.388462
11
104.921448
21
41.781961
0
LINE
8
Layer 1
10
104.921448
20
41.781961
11
104.553088
21
42.196667
0
LINE
8
Layer 1
10
104.553088
20
42.196667
11
104.572452
21
42.592749
0
LINE
8
Layer 1
10
104.572452
20
42.592749
11
105.778687
21
43.329352
0
LINE
8
Layer 1
10
105.778687
20
43.329352
11
106.706663
21
43.610333
0
LINE
8
Layer 1
10
106.706663
20
43.610333
11
107.285821
21
43.304672
0
LINE
8
Layer 1
10
107.285821
20
43.304672
11
107.761218
21
42.718875
0
LINE
8
Layer 1
10
107.761218
20
42.718875
11
108.126497
21
42.002598
0
LINE
8
Layer 1
10
108.126497
20
42.002598
11
108.306388
21
41.345462
0
LINE
8
Layer 1
10
108.306388
20
41.345462
11
108.225624
21
40.937087
0
LINE
8
Layer 1
10
108.225624
20
40.937087
11
107.646936
21
40.874688
0
LINE
8
Layer 1
10
107.646936
20
40.874688
11
106.610077
21
41.056004
0
LINE
8
Layer 1
10
106.610077
20
41.056004
11
106.610077
21
41.056004
0
LINE
8
Layer 1
10
99.805501
20
45.643063
11
97.878400
21
46.501229
0
LINE
8
Layer 1
10
97.878400
20
46.501229
11
97.372816
21
46.816459
0
LINE
8
Layer 1
10
97.372816
20
46.816459
11
97.161420
21
47.102832
0
LINE
8
Layer 1
10
97.161420
20
47.102832
11
97.235869
21
47.395632
0
LINE
8
Layer 1
10
97.235869
20
47.395632
11
97.587819
21
47.730143
0
LINE
8
Layer 1
10
97.587819
20
47.730143
11
99.090853
21
48.665429
0
LINE
8
Layer 1
10
99.090853
20
48.665429
11
100.644453
21
49.539409
0
LINE
8
Layer 1
10
100.644453
20
49.539409
11
101.148487
21
49.729960
0
LINE
8
Layer 1
10
101.148487
20
49.729960
11
101.534201
21
49.740870
0
LINE
8
Layer 1
10
101.534201
20
49.740870
11
101.849238
21
49.560625
0
LINE
8
Layer 1
10
101.849238
20
49.560625
11
102.141239
21
49.177712
0
LINE
8
Layer 1
10
102.141239
20
49.177712
11
102.846708
21
47.757834
0
LINE
8
Layer 1
10
102.846708
20
47.757834
11
103.880991
21
45.105382
0
LINE
8
Layer 1
10
103.880991
20
45.105382
11
103.662045
21
44.647760
0
LINE
8
Layer 1
10
103.662045
20
44.647760
11
102.957512
21
44.578540
0
LINE
8
Layer 1
10
102.957512
20
44.578540
11
101.695846
21
44.907162
0
LINE
8
Layer 1
10
101.695846
20
44.907162
11
99.805501
21
45.643063
0
LINE
8
Layer 1
10
99.805501
20
45.643063
11
99.805501
21
45.643063
0
LINE
8
Layer 1
10
107.383182
20
47.191631
11
105.664742
21
50.137828
0
LINE
8
Layer 1
10
105.664742
20
50.137828
11
107.018534
21
49.977317
0
LINE
8
Layer 1
10
107.018534
20
49.977317
11
108.280981
21
49.444274
0
LINE
8
Layer 1
10
108.280981
20
49.444274
11
109.615422
21
48.203637
0
LINE
8
Layer 1
10
109.615422
20
48.203637
11
111.226564
21
46.164857
0
LINE
8
Layer 1
10
111.226564
20
46.164857
11
111.670888
21
45.405452
0
LINE
8
Layer 1
10
111.670888
20
45.405452
11
111.733468
21
45.030480
0
LINE
8
Layer 1
10
111.733468
20
45.030480
11
110.430519
21
44.660301
0
LINE
8
Layer 1
10
110.430519
20
44.660301
11
109.218933
21
44.362743
0
LINE
8
Layer 1
10
109.218933
20
44.362743
11
107.383182
21
47.191631
0
LINE
8
Layer 1
10
107.383182
20
47.191631
11
107.383182
21
47.191631
0
LINE
8
Layer 1
10
90.158697
20
51.225159
11
88.650444
21
52.160234
0
LINE
8
Layer 1
10
88.650444
20
52.160234
11
87.054253
21
53.479985
0
LINE
8
Layer 1
10
87.054253
20
53.479985
11
85.395435
21
55.073674
0
LINE
8
Layer 1
10
85.395435
20
55.073674
11
87.088768
21
54.909339
0
LINE
8
Layer 1
10
87.088768
20
54.909339
11
91.922442
21
54.011003
0
LINE
8
Layer 1
10
91.922442
20
54.011003
11
93.968179
21
53.471657
0
LINE
8
Layer 1
10
93.968179
20
53.471657
11
94.878439
21
52.973360
0
LINE
8
Layer 1
10
94.878439
20
52.973360
11
94.948933
21
52.682180
0
LINE
8
Layer 1
10
94.948933
20
52.682180
11
94.784960
21
52.332353
0
LINE
8
Layer 1
10
94.784960
20
52.332353
11
93.819480
21
51.364879
0
LINE
8
Layer 1
10
93.819480
20
51.364879
11
93.038161
21
50.796241
0
LINE
8
Layer 1
10
93.038161
20
50.796241
11
92.286322
21
50.587940
0
LINE
8
Layer 1
10
92.286322
20
50.587940
11
91.385866
21
50.733179
0
LINE
8
Layer 1
10
91.385866
20
50.733179
11
90.158697
21
51.225159
0
LINE
8
Layer 1
10
90.158697
20
51.225159
11
90.158697
21
51.225159
0
LINE
8
Layer 1
10
77.225658
20
52.182751
11
76.943820
21
52.861097
0
LINE
8
Layer 1
10
76.943820
20
52.861097
11
77.350276
21
52.857806
0
LINE
8
Layer 1
10
77.350276
20
52.857806
11
77.835563
21
52.646297
0
LINE
8
Layer 1
10
77.835563
20
52.646297
11
78.200360
21
52.331727
0
LINE
8
Layer 1
10
78.200360
20
52.331727
11
78.389427
21
51.980502
0
LINE
8
Layer 1
10
78.389427
20
51.980502
11
78.347519
21
51.659028
0
LINE
8
Layer 1
10
78.347519
20
51.659028
11
78.103377
21
51.409317
0
LINE
8
Layer 1
10
78.103377
20
51.409317
11
77.835573
21
51.413108
0
LINE
8
Layer 1
10
77.835573
20
51.413108
11
77.225658
21
52.182751
0
LINE
8
Layer 1
10
77.225658
20
52.182751
11
77.225658
21
52.182751
0
LINE
8
Layer 1
10
81.005183
20
52.425769
11
80.050445
21
52.962487
0
LINE
8
Layer 1
10
80.050445
20
52.962487
11
79.546922
21
53.374640
0
LINE
8
Layer 1
10
79.546922
20
53.374640
11
79.422842
21
53.752582
0
LINE
8
Layer 1
10
79.422842
20
53.752582
11
79.606434
21
54.186667
0
LINE
8
Layer 1
10
79.606434
20
54.186667
11
79.921542
21
54.452915
0
LINE
8
Layer 1
10
79.921542
20
54.452915
11
80.354692
21
54.311694
0
LINE
8
Layer 1
10
80.354692
20
54.311694
11
81.782057
21
52.858495
0
LINE
8
Layer 1
10
81.782057
20
52.858495
11
82.458542
21
52.017820
0
LINE
8
Layer 1
10
82.458542
20
52.017820
11
82.641985
21
51.646667
0
LINE
8
Layer 1
10
82.641985
20
51.646667
11
81.005183
21
52.425769
0
LINE
8
Layer 1
10
81.005183
20
52.425769
11
81.005183
21
52.425769
0
LINE
8
Layer 1
10
75.219264
20
55.433592
11
74.865296
21
55.773584
0
LINE
8
Layer 1
10
74.865296
20
55.773584
11
74.870342
21
55.991661
0
LINE
8
Layer 1
10
74.870342
20
55.991661
11
75.213812
21
56.070294
0
LINE
8
Layer 1
10
75.213812
20
56.070294
11
75.875114
21
55.991952
0
LINE
8
Layer 1
10
75.875114
20
55.991952
11
76.493918
21
55.763945
0
LINE
8
Layer 1
10
76.493918
20
55.763945
11
76.595554
21
55.425549
0
LINE
8
Layer 1
10
76.595554
20
55.425549
11
76.396768
21
55.143908
0
LINE
8
Layer 1
10
76.396768
20
55.143908
11
76.095137
21
55.051403
0
LINE
8
Layer 1
10
76.095137
20
55.051403
11
75.219264
21
55.433592
0
LINE
8
Layer 1
10
75.219264
20
55.433592
11
75.219264
21
55.433592
0
LINE
8
Layer 1
10
45.482267
20
63.147222
11
47.014773
21
64.836915
0
LINE
8
Layer 1
10
47.014773
20
64.836915
11
47.667282
21
65.308826
0
LINE
8
Layer 1
10
47.667282
20
65.308826
11
48.178469
21
65.475556
0
LINE
8
Layer 1
10
48.178469
20
65.475556
11
49.222346
21
65.235257
0
LINE
8
Layer 1
10
49.222346
20
65.235257
11
50.845734
21
64.657518
0
LINE
8
Layer 1
10
50.845734
20
64.657518
11
52.881807
21
63.839479
0
LINE
8
Layer 1
10
52.881807
20
63.839479
11
51.358622
21
63.534806
0
LINE
8
Layer 1
10
51.358622
20
63.534806
11
45.638102
21
62.655464
0
LINE
8
Layer 1
10
45.638102
20
62.655464
11
45.267881
21
62.740435
0
LINE
8
Layer 1
10
45.267881
20
62.740435
11
45.482267
21
63.147222
0
LINE
8
Layer 1
10
45.482267
20
63.147222
11
45.482267
21
63.147222
0
LINE
8
Layer 1
10
22.339578
20
64.624915
11
20.226788
21
65.599750
0
LINE
8
Layer 1
10
20.226788
20
65.599750
11
18.432268
21
66.623965
0
LINE
8
Layer 1
10
18.432268
20
66.623965
11
17.012993
21
67.661015
0
LINE
8
Layer 1
10
17.012993
20
67.661015
11
16.025940
21
68.674358
0
LINE
8
Layer 1
10
16.025940
20
68.674358
11
14.957304
21
70.341400
0
LINE
8
Layer 1
10
14.957304
20
70.341400
11
14.416546
21
71.568801
0
LINE
8
Layer 1
10
14.416546
20
71.568801
11
14.876202
21
71.658805
0
LINE
8
Layer 1
10
14.876202
20
71.658805
11
15.981331
21
71.601911
0
LINE
8
Layer 1
10
15.981331
20
71.601911
11
18.075556
21
71.123471
0
LINE
8
Layer 1
10
18.075556
20
71.123471
11
20.058339
21
70.088361
0
LINE
8
Layer 1
10
20.058339
20
70.088361
11
22.042700
21
68.419548
0
LINE
8
Layer 1
10
22.042700
20
68.419548
11
24.141659
21
66.040000
0
LINE
8
Layer 1
10
24.141659
20
66.040000
11
25.810260
21
63.852778
0
LINE
8
Layer 1
10
25.810260
20
63.852778
11
25.814195
21
63.549489
0
LINE
8
Layer 1
10
25.814195
20
63.549489
11
25.253787
21
63.573361
0
LINE
8
Layer 1
10
25.253787
20
63.573361
11
22.339578
21
64.624915
0
LINE
8
Layer 1
10
22.339578
20
64.624915
11
22.339578
21
64.624915
0
LINE
8
Layer 1
10
76.575068
20
84.703951
11
74.006298
21
86.096873
0
LINE
8
Layer 1
10
74.006298
20
86.096873
11
74.503669
21
87.568992
0
LINE
8
Layer 1
10
74.503669
20
87.568992
11
75.001041
21
89.041111
0
LINE
8
Layer 1
10
75.001041
20
89.041111
11
77.093795
21
89.423172
0
LINE
8
Layer 1
10
77.093795
20
89.423172
11
80.292254
21
90.228844
0
LINE
8
Layer 1
10
80.292254
20
90.228844
11
85.818768
21
92.226762
0
LINE
8
Layer 1
10
85.818768
20
92.226762
11
88.257401
21
93.126134
0
LINE
8
Layer 1
10
88.257401
20
93.126134
11
89.603945
21
93.514379
0
LINE
8
Layer 1
10
89.603945
20
93.514379
11
90.242257
21
93.455121
0
LINE
8
Layer 1
10
90.242257
20
93.455121
11
90.556190
21
93.011983
0
LINE
8
Layer 1
10
90.556190
20
93.011983
11
91.049864
21
91.344922
0
LINE
8
Layer 1
10
91.049864
20
91.344922
11
91.124402
21
90.776257
0
LINE
8
Layer 1
10
91.124402
20
90.776257
11
91.030035
21
90.383536
0
LINE
8
Layer 1
10
91.030035
20
90.383536
11
90.009035
21
89.571102
0
LINE
8
Layer 1
10
90.009035
20
89.571102
11
85.818768
21
87.241030
0
LINE
8
Layer 1
10
85.818768
20
87.241030
11
81.444324
21
84.656529
0
LINE
8
Layer 1
10
81.444324
20
84.656529
11
79.588527
21
83.465670
0
LINE
8
Layer 1
10
79.588527
20
83.465670
11
78.519889
21
83.765627
0
LINE
8
Layer 1
10
78.519889
20
83.765627
11
76.575068
21
84.703951
0
LINE
8
Layer 1
10
76.575068
20
84.703951
11
76.575068
21
84.703951
 0 
ENDSEC
 0 
EOF
