  0
SECTION
  2
HEADER
  9
$ACADVER
  1
AC1015
  9
$ACADMAINTVER
 70
     6
  9
$DWGCODEPAGE
  3
ANSI_1252
  9
$INSBASE
 10
0.0
 20
0.0
 30
0.0
  9
$EXTMIN
 10
0.003721561
 20
-11.9910047689
 30
0.0
  9
$EXTMAX
 10
11.9707498841
 20
-0.238185002
 30
0.0
  9
$LIMMIN
 10
0.0
 20
0.0
  9
$LIMMAX
 10
12.0
 20
9.0
  9
$ORTHOMODE
 70
     0
  9
$REGENMODE
 70
     1
  9
$FILLMODE
 70
     1
  9
$QTEXTMODE
 70
     0
  9
$MIRRTEXT
 70
     1
  9
$LTSCALE
 40
1.0
  9
$ATTMODE
 70
     1
  9
$TEXTSIZE
 40
0.125
  9
$TRACEWID
 40
0.05
  9
$TEXTSTYLE
  7
Standard
  9
$CLAYER
  8
0
  9
$CELTYPE
  6
ByLayer
  9
$CECOLOR
 62
   256
  9
$CELTSCALE
 40
1.0
  9
$DISPSILH
 70
     0
  9
$DIMSCALE
 40
1.0
  9
$DIMASZ
 40
0.13
  9
$DIMEXO
 40
0.05
  9
$DIMDLI
 40
0.38
  9
$DIMRND
 40
0.0
  9
$DIMDLE
 40
0.0
  9
$DIMEXE
 40
0.125
  9
$DIMTP
 40
0.0
  9
$DIMTM
 40
0.0
  9
$DIMTXT
 40
0.125
  9
$DIMCEN
 40
0.09
  9
$DIMTSZ
 40
0.0
  9
$DIMTOL
 70
     0
  9
$DIMLIM
 70
     0
  9
$DIMTIH
 70
     1
  9
$DIMTOH
 70
     1
  9
$DIMSE1
 70
     0
  9
$DIMSE2
 70
     0
  9
$DIMTAD
 70
     0
  9
$DIMZIN
 70
     0
  9
$DIMBLK
  1

  9
$DIMASO
 70
     1
  9
$DIMSHO
 70
     1
  9
$DIMPOST
  1

  9
$DIMAPOST
  1

  9
$DIMALT
 70
     0
  9
$DIMALTD
 70
     2
  9
$DIMALTF
 40
25.4
  9
$DIMLFAC
 40
1.0
  9
$DIMTOFL
 70
     0
  9
$DIMTVP
 40
0.0
  9
$DIMTIX
 70
     0
  9
$DIMSOXD
 70
     0
  9
$DIMSAH
 70
     0
  9
$DIMBLK1
  1

  9
$DIMBLK2
  1

  9
$DIMSTYLE
  2
Standard
  9
$DIMCLRD
 70
     0
  9
$DIMCLRE
 70
     0
  9
$DIMCLRT
 70
     0
  9
$DIMTFAC
 40
1.0
  9
$DIMGAP
 40
0.06
  9
$DIMJUST
 70
     0
  9
$DIMSD1
 70
     0
  9
$DIMSD2
 70
     0
  9
$DIMTOLJ
 70
     1
  9
$DIMTZIN
 70
     0
  9
$DIMALTZ
 70
     0
  9
$DIMALTTZ
 70
     0
  9
$DIMUPT
 70
     0
  9
$DIMDEC
 70
     2
  9
$DIMTDEC
 70
     2
  9
$DIMALTU
 70
     2
  9
$DIMALTTD
 70
     2
  9
$DIMTXSTY
  7
Standard
  9
$DIMAUNIT
 70
     0
  9
$DIMADEC
 70
     2
  9
$DIMALTRND
 40
0.0
  9
$DIMAZIN
 70
     0
  9
$DIMDSEP
 70
    46
  9
$DIMATFIT
 70
     3
  9
$DIMFRAC
 70
     0
  9
$DIMLDRBLK
  1

  9
$DIMLUNIT
 70
     2
  9
$DIMLWD
 70
    -2
  9
$DIMLWE
 70
    -2
  9
$DIMTMOVE
 70
     0
  9
$LUNITS
 70
     2
  9
$LUPREC
 70
     2
  9
$SKETCHINC
 40
0.1
  9
$FILLETRAD
 40
0.5
  9
$AUNITS
 70
     0
  9
$AUPREC
 70
     2
  9
$MENU
  1
.
  9
$ELEVATION
 40
0.0
  9
$PELEVATION
 40
0.0
  9
$THICKNESS
 40
0.0
  9
$LIMCHECK
 70
     0
  9
$CHAMFERA
 40
0.0
  9
$CHAMFERB
 40
0.0
  9
$CHAMFERC
 40
0.0
  9
$CHAMFERD
 40
0.0
  9
$SKPOLY
 70
     0
  9
$TDCREATE
 40
2457655.454330914
  9
$TDUCREATE
 40
2457655.620997581
  9
$TDUPDATE
 40
2457655.454370729
  9
$TDUUPDATE
 40
2457655.621037396
  9
$TDINDWG
 40
0.0000000116
  9
$TDUSRTIMER
 40
0.0000000116
  9
$USRTIMER
 70
     1
  9
$ANGBASE
 50
0.0
  9
$ANGDIR
 70
     0
  9
$PDMODE
 70
     0
  9
$PDSIZE
 40
-1.0
  9
$PLINEWID
 40
0.0
  9
$SPLFRAME
 70
     0
  9
$SPLINETYPE
 70
     6
  9
$SPLINESEGS
 70
     8
  9
$HANDSEED
  5
90
  9
$SURFTAB1
 70
     6
  9
$SURFTAB2
 70
     6
  9
$SURFTYPE
 70
     6
  9
$SURFU
 70
     6
  9
$SURFV
 70
     6
  9
$UCSBASE
  2

  9
$UCSNAME
  2

  9
$UCSORG
 10
0.0
 20
0.0
 30
0.0
  9
$UCSXDIR
 10
1.0
 20
0.0
 30
0.0
  9
$UCSYDIR
 10
0.0
 20
1.0
 30
0.0
  9
$UCSORTHOREF
  2

  9
$UCSORTHOVIEW
 70
     0
  9
$UCSORGTOP
 10
0.0
 20
0.0
 30
0.0
  9
$UCSORGBOTTOM
 10
0.0
 20
0.0
 30
0.0
  9
$UCSORGLEFT
 10
0.0
 20
0.0
 30
0.0
  9
$UCSORGRIGHT
 10
0.0
 20
0.0
 30
0.0
  9
$UCSORGFRONT
 10
0.0
 20
0.0
 30
0.0
  9
$UCSORGBACK
 10
0.0
 20
0.0
 30
0.0
  9
$PUCSBASE
  2

  9
$PUCSNAME
  2

  9
$PUCSORG
 10
0.0
 20
0.0
 30
0.0
  9
$PUCSXDIR
 10
1.0
 20
0.0
 30
0.0
  9
$PUCSYDIR
 10
0.0
 20
1.0
 30
0.0
  9
$PUCSORTHOREF
  2

  9
$PUCSORTHOVIEW
 70
     0
  9
$PUCSORGTOP
 10
0.0
 20
0.0
 30
0.0
  9
$PUCSORGBOTTOM
 10
0.0
 20
0.0
 30
0.0
  9
$PUCSORGLEFT
 10
0.0
 20
0.0
 30
0.0
  9
$PUCSORGRIGHT
 10
0.0
 20
0.0
 30
0.0
  9
$PUCSORGFRONT
 10
0.0
 20
0.0
 30
0.0
  9
$PUCSORGBACK
 10
0.0
 20
0.0
 30
0.0
  9
$USERI1
 70
     0
  9
$USERI2
 70
     0
  9
$USERI3
 70
     0
  9
$USERI4
 70
     0
  9
$USERI5
 70
     0
  9
$USERR1
 40
0.0
  9
$USERR2
 40
0.0
  9
$USERR3
 40
0.0
  9
$USERR4
 40
0.0
  9
$USERR5
 40
0.0
  9
$WORLDVIEW
 70
     1
  9
$SHADEDGE
 70
     3
  9
$SHADEDIF
 70
    70
  9
$TILEMODE
 70
     1
  9
$MAXACTVP
 70
    64
  9
$PINSBASE
 10
0.0
 20
0.0
 30
0.0
  9
$PLIMCHECK
 70
     0
  9
$PEXTMIN
 10
1.0000000000E 20
 20
1.0000000000E 20
 30
1.0000000000E 20
  9
$PEXTMAX
 10
-1.0000000000E 20
 20
-1.0000000000E 20
 30
-1.0000000000E 20
  9
$PLIMMIN
 10
0.0
 20
0.0
  9
$PLIMMAX
 10
12.0
 20
9.0
  9
$UNITMODE
 70
     0
  9
$VISRETAIN
 70
     1
  9
$PLINEGEN
 70
     0
  9
$PSLTSCALE
 70
     1
  9
$TREEDEPTH
 70
  3020
  9
$CMLSTYLE
  2
Standard
  9
$CMLJUST
 70
     0
  9
$CMLSCALE
 40
1.0
  9
$PROXYGRAPHICS
 70
     1
  9
$MEASUREMENT
 70
     0
  9
$CELWEIGHT
370
    -1
  9
$ENDCAPS
280
     0
  9
$JOINSTYLE
280
     0
  9
$LWDISPLAY
290
     1
  9
$INSUNITS
 70
     1
  9
$HYPERLINKBASE
  1

  9
$STYLESHEET
  1

  9
$XEDIT
290
     1
  9
$CEPSNTYPE
380
     0
  9
$PSTYLEMODE
290
     1
  9
$FINGERPRINTGUID
  2
{6737C0C0-4D3B-40CB-9C60-0FD2BA96F65A}
  9
$VERSIONGUID
  2
{FAEB1C32-E019-11D5-929B-00C0DF256EC4}
  9
$EXTNAMES
290
     1
  9
$PSVPSCALE
 40
0.0
  9
$OLESTARTUP
290
     0
  0
ENDSEC
  0
SECTION
  2
CLASSES
  0
CLASS
  1
ACDBDICTIONARYWDFLT
  2
AcDbDictionaryWithDefault
  3
ObjectDBX Classes
 90
        0
280
     0
281
     0
  0
CLASS
  1
VISUALSTYLE
  2
AcDbVisualStyle
  3
ObjectDBX Classes
 90
     4095
280
     0
281
     0
  0
CLASS
  1
MATERIAL
  2
AcDbMaterial
  3
ObjectDBX Classes
 90
     1153
280
     0
281
     0
  0
CLASS
  1
SCALE
  2
AcDbScale
  3
ObjectDBX Classes
 90
     1153
280
     0
281
     0
  0
CLASS
  1
TABLESTYLE
  2
AcDbTableStyle
  3
ObjectDBX Classes
 90
     4095
280
     0
281
     0
  0
CLASS
  1
MLEADERSTYLE
  2
AcDbMLeaderStyle
  3
ACDB_MLEADERSTYLE_CLASS
 90
     4095
280
     0
281
     0
  0
CLASS
  1
SUN
  2
AcDbSun
  3
SCENEOE
 90
     1153
280
     0
281
     0
  0
CLASS
  1
ACDBPLACEHOLDER
  2
AcDbPlaceHolder
  3
ObjectDBX Classes
 90
        0
280
     0
281
     0
  0
CLASS
  1
LAYOUT
  2
AcDbLayout
  3
ObjectDBX Classes
 90
        0
280
     0
281
     0
  0
ENDSEC
  0
SECTION
  2
TABLES
  0
TABLE
  2
VPORT
  5
8
330
0
100
AcDbSymbolTable
 70
     1
  0
VPORT
  5
29
330
8
100
AcDbSymbolTableRecord
100
AcDbViewportTableRecord
  2
*Active
 70
     0
 10
0.0
 20
0.0
 11
1.0
 21
1.0
 12
5.9872357226
 22
-6.1145948854
 13
0.0
 23
0.0
 14
0.5
 24
0.5
 15
0.5
 25
0.5
 16
0.0
 26
0.0
 36
1.0
 17
0.0
 27
0.0
 37
0.0
 40
11.9878761623
 41
1.0182261415
 42
50.0
 43
0.0
 44
0.0
 50
0.0
 51
0.0
 71
     0
 72
   100
 73
     1
 74
     3
 75
     0
 76
     0
 77
     0
 78
     0
281
     0
 65
     1
110
0.0
120
0.0
130
0.0
111
1.0
121
0.0
131
0.0
112
0.0
122
1.0
132
0.0
 79
     0
146
0.0
  0
ENDTAB
  0
TABLE
  2
LTYPE
  5
5
330
0
100
AcDbSymbolTable
 70
     6
  0
LTYPE
  5
14
330
5
100
AcDbSymbolTableRecord
100
AcDbLinetypeTableRecord
  2
ByBlock
 70
     0
  3

 72
    65
 73
     0
 40
0.0
  0
LTYPE
  5
15
330
5
100
AcDbSymbolTableRecord
100
AcDbLinetypeTableRecord
  2
ByLayer
 70
     0
  3

 72
    65
 73
     0
 40
0.0
  0
LTYPE
  5
16
330
5
100
AcDbSymbolTableRecord
100
AcDbLinetypeTableRecord
  2
Continuous
 70
     0
  3
Solid line
 72
    65
 73
     0
 40
0.0
  0
LTYPE
  5
6E
330
5
100
AcDbSymbolTableRecord
100
AcDbLinetypeTableRecord
  2
HIDDEN
 70
     0
  3
Hidden __ __ __ __ __ __ __ __ __ __ __ __ __ __
 72
    65
 73
     2
 40
0.075
 49
0.05
 74
     0
 49
-0.025
 74
     0
  0
LTYPE
  5
6F
330
5
100
AcDbSymbolTableRecord
100
AcDbLinetypeTableRecord
  2
PHANTOM
 70
     0
  3
Phantom ______  __  __  ______  __  __  ______
 72
    65
 73
     6
 40
0.5
 49
0.25
 74
     0
 49
-0.05
 74
     0
 49
0.05
 74
     0
 49
-0.05
 74
     0
 49
0.05
 74
     0
 49
-0.05
 74
     0
  0
LTYPE
  5
70
330
5
100
AcDbSymbolTableRecord
100
AcDbLinetypeTableRecord
  2
CENTER
 70
     0
  3
Center ____ _ ____ _ ____ _ ____ _ ____ _ ____
 72
    65
 73
     4
 40
0.4
 49
0.25
 74
     0
 49
-0.05
 74
     0
 49
0.05
 74
     0
 49
-0.05
 74
     0
  0
LTYPE
  5
71
330
5
100
AcDbSymbolTableRecord
100
AcDbLinetypeTableRecord
  2
CENTERX2
 70
     0
  3
Center (2x) ________  __  ________  __  _____
 72
    65
 73
     4
 40
0.8
 49
0.5
 74
     0
 49
-0.1
 74
     0
 49
0.1
 74
     0
 49
-0.1
 74
     0
  0
LTYPE
  5
72
330
5
100
AcDbSymbolTableRecord
100
AcDbLinetypeTableRecord
  2
DOT2
 70
     0
  3
Dot (.5x) ........................................
 72
    65
 73
     2
 40
0.025
 49
0.0
 74
     0
 49
-0.025
 74
     0
  0
ENDTAB
  0
TABLE
  2
LAYER
  5
2
330
0
100
AcDbSymbolTable
 70
     1
  0
LAYER
  5
10
330
2
100
AcDbSymbolTableRecord
100
AcDbLayerTableRecord
  2
0
 70
     0
 62
     7
  6
Continuous
370
    -3
390
F
  0
ENDTAB
  0
TABLE
  2
STYLE
  5
3
330
0
100
AcDbSymbolTable
 70
     1
  0
STYLE
  5
11
330
3
100
AcDbSymbolTableRecord
100
AcDbTextStyleTableRecord
  2
Standard
 70
     0
 40
0.0
 41
1.0
 50
0.0
 71
     0
 42
0.125
  3
txt
  4

  0
ENDTAB
  0
TABLE
  2
VIEW
  5
6
330
0
100
AcDbSymbolTable
 70
     0
  0
ENDTAB
  0
TABLE
  2
UCS
  5
7
330
0
100
AcDbSymbolTable
 70
     0
  0
ENDTAB
  0
TABLE
  2
APPID
  5
9
330
0
100
AcDbSymbolTable
 70
     1
  0
APPID
  5
12
330
9
100
AcDbSymbolTableRecord
100
AcDbRegAppTableRecord
  2
ACAD
 70
     0
  0
ENDTAB
  0
TABLE
  2
DIMSTYLE
  5
A
330
0
100
AcDbSymbolTable
 70
     1
100
AcDbDimStyleTable
  0
DIMSTYLE
105
27
330
A
100
AcDbSymbolTableRecord
100
AcDbDimStyleTableRecord
  2
Standard
 70
     0
178
     0
340
11
  0
ENDTAB
  0
TABLE
  2
BLOCK_RECORD
  5
1
330
0
100
AcDbSymbolTable
 70
     1
  0
BLOCK_RECORD
  5
1F
330
1
100
AcDbSymbolTableRecord
100
AcDbBlockTableRecord
  2
*Model_Space
340
22
  0
BLOCK_RECORD
  5
1B
330
1
100
AcDbSymbolTableRecord
100
AcDbBlockTableRecord
  2
*Paper_Space
340
1E
  0
BLOCK_RECORD
  5
23
330
1
100
AcDbSymbolTableRecord
100
AcDbBlockTableRecord
  2
*Paper_Space0
340
26
  0
ENDTAB
  0
ENDSEC
  0
SECTION
  2
BLOCKS
  0
BLOCK
  5
20
330
1F
100
AcDbEntity
  8
0
100
AcDbBlockBegin
  2
*Model_Space
 70
     0
 10
0.0
 20
0.0
 30
0.0
  3
*Model_Space
  1

  0
ENDBLK
  5
21
330
1F
100
AcDbEntity
  8
0
100
AcDbBlockEnd
  0
BLOCK
  5
1C
330
1B
100
AcDbEntity
 67
     1
  8
0
100
AcDbBlockBegin
  2
*Paper_Space
 70
     0
 10
0.0
 20
0.0
 30
0.0
  3
*Paper_Space
  1

  0
ENDBLK
  5
1D
330
1B
100
AcDbEntity
 67
     1
  8
0
100
AcDbBlockEnd
  0
BLOCK
  5
24
330
23
100
AcDbEntity
  8
0
100
AcDbBlockBegin
  2
*Paper_Space0
 70
     0
 10
0.0
 20
0.0
 30
0.0
  3
*Paper_Space0
  1

  0
ENDBLK
  5
25
330
23
100
AcDbEntity
  8
0
100
AcDbBlockEnd
  0
ENDSEC
  0
SECTION
  2
ENTITIES
  0
SPLINE
  5
73
330
1F
100
AcDbEntity
  8
0
  6
Continuous
 62
     7
370
    25
100
AcDbSpline
210
0.0
220
0.0
230
1.0
 70
    11
 71
     3
 72
    17
 73
    13
 74
     0
 42
0.000000001
 43
0.00000001
 40
0.0
 40
0.0
 40
0.0
 40
0.0
 40
0.0826483876923708
 40
0.1774020234152073
 40
0.3042349286849012
 40
0.3984886980792631
 40
0.4952919323900844
 40
0.5642979909374651
 40
0.6252050455472686
 40
0.7001097112396517
 40
0.8099612101602611
 40
1.0
 40
1.0
 40
1.0
 40
1.0
 10
0.6535617472946603
 20
-5.935867244479931
 30
0.0
 10
0.6674887504241708
 20
-5.92450006183893
 30
0.0
 10
0.788802120290442
 20
-5.890940370683097
 30
0.0
 10
0.9192778986463107
 20
-5.907579337849486
 30
0.0
 10
1.09209762617548
 20
-5.899872343137528
 30
0.0
 10
1.199885579460254
 20
-5.777079182486002
 30
0.0
 10
1.400752281189819
 20
-5.860817705803989
 30
0.0
 10
1.277056307730056
 20
-5.945767880547567
 30
0.0
 10
1.196870336749457
 20
-6.012450762858341
 30
0.0
 10
1.074119564805942
 20
-5.929458558719381
 30
0.0
 10
0.9263496039434811
 20
-5.967644166974078
 30
0.0
 10
0.6215384871352765
 20
-5.962004543625122
 30
0.0
 10
0.6535617472946603
 20
-5.935867244479931
 30
0.0
  0
SPLINE
  5
74
330
1F
100
AcDbEntity
  8
0
  6
Continuous
 62
     7
370
    25
100
AcDbSpline
210
0.0
220
0.0
230
1.0
 70
    11
 71
     3
 72
    18
 73
    14
 74
     0
 42
0.000000001
 43
0.00000001
 40
0.0
 40
0.0
 40
0.0
 40
0.0
 40
0.1105810971185655
 40
0.2213392826087281
 40
0.2956159298069942
 40
0.4373373660930353
 40
0.5290677591382145
 40
0.6418674219948804
 40
0.778575222636429
 40
0.8124223457357838
 40
0.8402054632519461
 40
0.921930292054552
 40
1.0
 40
1.0
 40
1.0
 40
1.0
 10
8.809694044593062
 20
-5.991174325885801
 30
0.0
 10
8.76129045675063
 20
-6.036130461395104
 30
0.0
 10
8.634532469174072
 20
-6.09733482211841
 30
0.0
 10
8.463476168206293
 20
-6.163339181387006
 30
0.0
 10
8.242968020552137
 20
-6.087745500642201
 30
0.0
 10
8.293240570306114
 20
-5.839018283187953
 30
0.0
 10
8.453155049597655
 20
-5.679015957699185
 30
0.0
 10
8.682195432069216
 20
-5.738276128779199
 30
0.0
 10
8.835578059274265
 20
-5.712555513715049
 30
0.0
 10
8.977899114817419
 20
-5.697035121956999
 30
0.0
 10
9.005367992448273
 20
-5.800786370396327
 30
0.0
 10
8.89858596161793
 20
-5.879803133316007
 30
0.0
 10
8.843866738343053
 20
-5.959435516441686
 30
0.0
 10
8.809694044593062
 20
-5.991174325885801
 30
0.0
  0
SPLINE
  5
75
330
1F
100
AcDbEntity
  8
0
  6
Continuous
 62
     7
370
    25
100
AcDbSpline
210
0.0
220
0.0
230
1.0
 70
    11
 71
     3
 72
    17
 73
    13
 74
     0
 42
0.000000001
 43
0.00000001
 40
0.0
 40
0.0
 40
0.0
 40
0.0
 40
0.2181449162029084
 40
0.2529389696996693
 40
0.3489979803491001
 40
0.4529904555267905
 40
0.4813425323313016
 40
0.5844546227634874
 40
0.7512807051481994
 40
0.8752867291817846
 40
0.8926027611682483
 40
1.0
 40
1.0
 40
1.0
 40
1.0
 10
8.158406055090122
 20
-9.766519029888507
 30
0.0
 10
8.121157013359902
 20
-9.711175336404438
 30
0.0
 10
8.089655319179633
 20
-9.638413441771284
 30
0.0
 10
8.090269149330299
 20
-9.519230984000298
 30
0.0
 10
8.191978397162803
 20
-9.521825919917777
 30
0.0
 10
8.247725315535709
 20
-9.507952377146706
 30
0.0
 10
8.328917741575705
 20
-9.480498995727821
 30
0.0
 10
8.285711176241003
 20
-9.636663382463578
 30
0.0
 10
8.2997070321999
 20
-9.698860836220433
 30
0.0
 10
8.270308778275602
 20
-9.868894585986945
 30
0.0
 10
8.200877077335008
 20
-9.823320443736007
 30
0.0
 10
8.176744526142244
 20
-9.79376587098111
 30
0.0
 10
8.158406055090122
 20
-9.766519029888507
 30
0.0
  0
SPLINE
  5
76
330
1F
100
AcDbEntity
  8
0
  6
Continuous
 62
     7
370
    25
100
AcDbSpline
210
0.0
220
0.0
230
1.0
 70
    11
 71
     3
 72
    57
 73
    53
 74
     0
 42
0.000000001
 43
0.00000001
 40
0.0
 40
0.0
 40
0.0
 40
0.0
 40
0.014274610022753
 40
0.0299042848497742
 40
0.0439848081132974
 40
0.0681377066343291
 40
0.0930266805027079
 40
0.1114325232961521
 40
0.1246271995873623
 40
0.1513852141248396
 40
0.1608242288043354
 40
0.1769929528958262
 40
0.1902300198589443
 40
0.2139410509687928
 40
0.2326270884030331
 40
0.25823203671902
 40
0.2733686820511069
 40
0.3056473047728209
 40
0.3307705415411148
 40
0.3474901209890301
 40
0.3618446823873947
 40
0.3863322140459121
 40
0.414334006535136
 40
0.4230557428546221
 40
0.4298974949217197
 40
0.4378200522168464
 40
0.4541305325410539
 40
0.4764967092394138
 40
0.4968313306763444
 40
0.5113887881880488
 40
0.5200779367703541
 40
0.5310125325527274
 40
0.5513289249074605
 40
0.5708468381441915
 40
0.5902348122832802
 40
0.6001656204988455
 40
0.6147267374436269
 40
0.627940490624205
 40
0.645343013672876
 40
0.6671178676556448
 40
0.6838837793740361
 40
0.7089139357575277
 40
0.7273297946912533
 40
0.7440196246804132
 40
0.7557651828321397
 40
0.7772917728977403
 40
0.8229979787818824
 40
0.8778465462146714
 40
0.9101521589906433
 40
0.9472034765501175
 40
0.9689997311775549
 40
1.0
 40
1.0
 40
1.0
 40
1.0
 10
3.056540702479784
 20
-7.050966873357994
 30
0.0
 10
3.044075191846628
 20
-7.072917794635668
 30
0.0
 10
3.004826160888665
 20
-7.115307913904627
 30
0.0
 10
2.933215669052326
 20
-7.065546661268557
 30
0.0
 10
2.886678407182695
 20
-6.995251336295161
 30
0.0
 10
2.783234134773139
 20
-6.957048866939098
 30
0.0
 10
2.672245867617779
 20
-6.963838560155912
 30
0.0
 10
2.591161413082923
 20
-7.008576205237828
 30
0.0
 10
2.514561425769781
 20
-7.060585026421922
 30
0.0
 10
2.444058086927388
 20
-7.108308903503135
 30
0.0
 10
2.359112066057396
 20
-7.105023636977149
 30
0.0
 10
2.295177081504308
 20
-7.094144139392074
 30
0.0
 10
2.230717712663389
 20
-7.035925068286746
 30
0.0
 10
2.176822587768919
 20
-6.956705320221068
 30
0.0
 10
2.063910781402981
 20
-6.94367218773109
 30
0.0
 10
1.962722491363102
 20
-6.932950298128851
 30
0.0
 10
1.869182297270406
 20
-7.010908453540598
 30
0.0
 10
1.768757741708731
 20
-7.067659672852787
 30
0.0
 10
1.667190975123641
 20
-7.131112364323535
 30
0.0
 10
1.597285460850187
 20
-7.188516966698157
 30
0.0
 10
1.521052736702763
 20
-7.235717395216126
 30
0.0
 10
1.40937101813989
 20
-7.256838310950282
 30
0.0
 10
1.32737800940117
 20
-7.266840103734424
 30
0.0
 10
1.233099259334885
 20
-7.237437607656903
 30
0.0
 10
1.268567071936892
 20
-7.201430807606018
 30
0.0
 10
1.29863404972774
 20
-7.167181540485113
 30
0.0
 10
1.346449017340237
 20
-7.10709958948985
 30
0.0
 10
1.414256635963987
 20
-7.036272901451098
 30
0.0
 10
1.419505472032163
 20
-6.939054371970731
 30
0.0
 10
1.419793536681834
 20
-6.871609447415698
 30
0.0
 10
1.450072838044399
 20
-6.814298657439934
 30
0.0
 10
1.522939383888273
 20
-6.838794086159369
 30
0.0
 10
1.597317503839575
 20
-6.788109750541871
 30
0.0
 10
1.653809830353313
 20
-6.71724675364789
 30
0.0
 10
1.716352307306812
 20
-6.654036368079153
 30
0.0
 10
1.698052692510965
 20
-6.580174166927413
 30
0.0
 10
1.745197872114354
 20
-6.525411059407636
 30
0.0
 10
1.819965068323878
 20
-6.519597241414341
 30
0.0
 10
1.90309947800216
 20
-6.52898438392129
 30
0.0
 10
1.993503019857466
 20
-6.536805452470064
 30
0.0
 10
2.095415359259943
 20
-6.496039315910269
 30
0.0
 10
2.128367495036013
 20
-6.39533260084432
 30
0.0
 10
2.211736725978415
 20
-6.340815721705294
 30
0.0
 10
2.212877061648948
 20
-6.239252532833551
 30
0.0
 10
2.309811873014491
 20
-6.254033374346187
 30
0.0
 10
2.417249974189644
 20
-6.306505444703044
 30
0.0
 10
2.58725275191009
 20
-6.413931951347504
 30
0.0
 10
2.766022967746323
 20
-6.528839241179703
 30
0.0
 10
2.910746965634893
 20
-6.669599705425007
 30
0.0
 10
2.987350137117728
 20
-6.794687280326841
 30
0.0
 10
3.079356671617699
 20
-6.908321770257332
 30
0.0
 10
3.083612137707851
 20
-7.003295906555848
 30
0.0
 10
3.056540702479784
 20
-7.050966873357994
 30
0.0
  0
SPLINE
  5
77
330
1F
100
AcDbEntity
  8
0
  6
Continuous
 62
     7
370
    25
100
AcDbSpline
210
0.0
220
0.0
230
1.0
 70
    11
 71
     3
 72
    23
 73
    19
 74
     0
 42
0.000000001
 43
0.00000001
 40
0.0
 40
0.0
 40
0.0
 40
0.0
 40
0.1074652728656958
 40
0.2290531650055285
 40
0.3186102643378773
 40
0.3964714648854604
 40
0.440917001041066
 40
0.4699987614979104
 40
0.5845855590570718
 40
0.6580434864216149
 40
0.7524332702349897
 40
0.814703341451081
 40
0.8786816686853318
 40
0.940092890075027
 40
0.9775576134894748
 40
0.9877783418982297
 40
0.998777834189823
 40
1.0
 40
1.0
 40
1.0
 40
1.0
 10
2.843301128981385
 20
-7.224278914723692
 30
0.0
 10
2.777656105313801
 20
-7.274043734451307
 30
0.0
 10
2.648496582541382
 20
-7.304825164598749
 30
0.0
 10
2.479647618229204
 20
-7.430142953439419
 30
0.0
 10
2.33055356079745
 20
-7.555655632250998
 30
0.0
 10
2.241024537891469
 20
-7.612933681359176
 30
0.0
 10
2.127328489091588
 20
-7.722701699721584
 30
0.0
 10
2.146655991049987
 20
-7.556871782052243
 30
0.0
 10
2.200557352963538
 20
-7.45846203193072
 30
0.0
 10
2.283498390119159
 20
-7.281492833468866
 30
0.0
 10
2.430381555146372
 20
-7.231310543581179
 30
0.0
 10
2.552825262672463
 20
-7.158702405091423
 30
0.0
 10
2.666413954505518
 20
-7.131195779842363
 30
0.0
 10
2.786631318880933
 20
-7.11983683058016
 30
0.0
 10
2.826612279044171
 20
-7.176969854489971
 30
0.0
 10
2.861486046742918
 20
-7.204011176352273
 30
0.0
 10
2.851519799210191
 20
-7.218007687731978
 30
0.0
 10
2.844047687394121
 20
-7.223712956441553
 30
0.0
 10
2.843301128981385
 20
-7.224278914723692
 30
0.0
  0
SPLINE
  5
78
330
1F
100
AcDbEntity
  8
0
  6
Continuous
 62
     7
370
    25
100
AcDbSpline
210
0.0
220
0.0
230
1.0
 70
    11
 71
     3
 72
    27
 73
    23
 74
     0
 42
0.000000001
 43
0.00000001
 40
0.0
 40
0.0
 40
0.0
 40
0.0
 40
0.0464118720670227
 40
0.0963160916768652
 40
0.13182963771638
 40
0.1944842145936936
 40
0.2723309094615252
 40
0.3269236906723039
 40
0.3935515046045752
 40
0.4475354184914102
 40
0.4968470893241639
 40
0.5530591383948773
 40
0.5803919276188201
 40
0.6169155126968192
 40
0.6605753495725575
 40
0.7214304030163191
 40
0.7927493490857083
 40
0.8279387996395843
 40
0.8574017674804332
 40
0.9111642454065751
 40
0.9638635948620047
 40
1.0
 40
1.0
 40
1.0
 40
1.0
 10
0.8282281179877626
 20
-4.479812265773689
 30
0.0
 10
0.8143968392128421
 20
-4.496026065389462
 30
0.0
 10
0.7460680745012007
 20
-4.483877971936635
 30
0.0
 10
0.6627332581195006
 20
-4.52286373408955
 30
0.0
 10
0.6285729665700358
 20
-4.428007937789949
 30
0.0
 10
0.5595616981849588
 20
-4.360920364027309
 30
0.0
 10
0.4746317491382686
 20
-4.285867138054816
 30
0.0
 10
0.3746532642863346
 20
-4.233877476717552
 30
0.0
 10
0.2727293201198149
 20
-4.207324355737893
 30
0.0
 10
0.2413615845754397
 20
-4.079932236422896
 30
0.0
 10
0.3377692007176666
 20
-4.053514020548879
 30
0.0
 10
0.3965447973160289
 20
-3.959418187564921
 30
0.0
 10
0.4455979730797996
 20
-4.025553979888594
 30
0.0
 10
0.5008805993228086
 20
-4.056021716746486
 30
0.0
 10
0.49968457903714
 20
-4.146975519393862
 30
0.0
 10
0.5821823929728818
 20
-4.220648704605511
 30
0.0
 10
0.6816943011435874
 20
-4.231539466906351
 30
0.0
 10
0.7580200371507896
 20
-4.203723333731672
 30
0.0
 10
0.8237470533476722
 20
-4.245039386396579
 30
0.0
 10
0.8149506094537478
 20
-4.333573365755204
 30
0.0
 10
0.8370149422201605
 20
-4.403266328646659
 30
0.0
 10
0.8389971878642226
 20
-4.46718815893103
 30
0.0
 10
0.8282281179877626
 20
-4.479812265773689
 30
0.0
  0
SPLINE
  5
79
330
1F
100
AcDbEntity
  8
0
  6
Continuous
 62
     7
370
    25
100
AcDbSpline
210
0.0
220
0.0
230
1.0
 70
    11
 71
     3
 72
    38
 73
    34
 74
     0
 42
0.000000001
 43
0.00000001
 40
0.0
 40
0.0
 40
0.0
 40
0.0
 40
0.0245108539455401
 40
0.0530804979091285
 40
0.0816163096945721
 40
0.1155820871364654
 40
0.1642331098641248
 40
0.2087103234931924
 40
0.241665484279731
 40
0.2719999902011919
 40
0.3045567298682785
 40
0.3379858770931543
 40
0.3767627052323624
 40
0.4187952035090497
 40
0.4531869219554827
 40
0.491491302836547
 40
0.5341020829831874
 40
0.5610767606358628
 40
0.5857376466592421
 40
0.5953614319378189
 40
0.6197811798551144
 40
0.6576426102634462
 40
0.6962628812957922
 40
0.7127113680503974
 40
0.7369608663588307
 40
0.7742587159157932
 40
0.8042807620581577
 40
0.83639003772819
 40
0.8796551735224212
 40
0.9129740626479521
 40
0.9477726042639999
 40
0.9798079043180378
 40
1.0
 40
1.0
 40
1.0
 40
1.0
 10
1.681357944539651
 20
-2.598267427052147
 30
0.0
 10
1.656938094977248
 20
-2.623507136931113
 30
0.0
 10
1.596789571809234
 20
-2.66268934406892
 30
0.0
 10
1.51641151640427
 20
-2.74240198926618
 30
0.0
 10
1.431181046392273
 20
-2.835830160065319
 30
0.0
 10
1.278056096327012
 20
-2.888392071947392
 30
0.0
 10
1.099380880880789
 20
-2.83209264773614
 30
0.0
 10
0.9809824525533346
 20
-2.682414999124109
 30
0.0
 10
1.006965414913587
 20
-2.520658607801271
 30
0.0
 10
1.101229087961189
 20
-2.429355705362539
 30
0.0
 10
1.237654676283931
 20
-2.355478690796509
 30
0.0
 10
1.176283937156062
 20
-2.190235606140782
 30
0.0
 10
1.049139975639926
 20
-2.087125237119525
 30
0.0
 10
1.079038910728507
 20
-1.913170192365395
 30
0.0
 10
1.095316687126815
 20
-1.757723902596727
 30
0.0
 10
1.186909247058868
 20
-1.621353849264586
 30
0.0
 10
1.199838748222408
 20
-1.467608125879659
 30
0.0
 10
1.288127994237352
 20
-1.364314283603298
 30
0.0
 10
1.286089027072238
 20
-1.273285728343365
 30
0.0
 10
1.357987651980635
 20
-1.214004989364427
 30
0.0
 10
1.442431945528571
 20
-1.317157323330848
 30
0.0
 10
1.521105416244499
 20
-1.406701086808048
 30
0.0
 10
1.744560679465436
 20
-1.371164818466682
 30
0.0
 10
1.670106113803186
 20
-1.489683702902472
 30
0.0
 10
1.642992027929918
 20
-1.585570041729902
 30
0.0
 10
1.619483725511352
 20
-1.710388454207683
 30
0.0
 10
1.600488123308654
 20
-1.853897274943392
 30
0.0
 10
1.711754874101953
 20
-1.969936984574062
 30
0.0
 10
1.678543971652533
 20
-2.131248513385005
 30
0.0
 10
1.59305602172664
 20
-2.272367008242667
 30
0.0
 10
1.668475200790085
 20
-2.400026261972221
 30
0.0
 10
1.747619737241713
 20
-2.51114964250042
 30
0.0
 10
1.701475070609545
 20
-2.577474898240486
 30
0.0
 10
1.681357944539651
 20
-2.598267427052147
 30
0.0
  0
SPLINE
  5
7A
330
1F
100
AcDbEntity
  8
0
  6
Continuous
 62
     7
370
    25
100
AcDbSpline
210
0.0
220
0.0
230
1.0
 70
     8
 71
     3
 72
   290
 73
   286
 74
     0
 42
0.000000001
 43
0.00000001
 40
0.0
 40
0.0
 40
0.0
 40
0.0
 40
0.0027270505115689
 40
0.0054092408881736
 40
0.0077560324208941
 40
0.0103165378552391
 40
0.0141457952454488
 40
0.0203233892142062
 40
0.0242023138522859
 40
0.028660974770836
 40
0.0335680998147872
 40
0.0371370360874463
 40
0.0389312393289965
 40
0.0414121468513694
 40
0.0465736035758762
 40
0.0503495968869961
 40
0.0560249598314723
 40
0.0620718131536188
 40
0.0686033390620709
 40
0.0737207779367129
 40
0.0788819875439319
 40
0.0839086346598503
 40
0.0881093517500064
 40
0.0905710734885976
 40
0.0936887635155325
 40
0.0990029377945514
 40
0.1022521845225067
 40
0.1056822988499628
 40
0.1098188408364824
 40
0.1155438361589414
 40
0.1169062943238838
 40
0.1205408189775907
 40
0.1245396336589312
 40
0.1280888302802249
 40
0.1308150842787148
 40
0.1343199903466701
 40
0.1388111343492263
 40
0.1435811148382702
 40
0.1485981140926392
 40
0.1532934500613262
 40
0.1558072831424049
 40
0.1580343803105636
 40
0.1593818272738337
 40
0.1628842549474165
 40
0.1682519671242944
 40
0.173857192810226
 40
0.1790574129515025
 40
0.1832904271839514
 40
0.1884203964420578
 40
0.1926765401888758
 40
0.1949228461753165
 40
0.1991775645294435
 40
0.2041698361226829
 40
0.2075709709661388
 40
0.210370323611546
 40
0.2124064495565812
 40
0.2140976022200016
 40
0.2174263712083694
 40
0.2226873618558633
 40
0.2275328930608907
 40
0.2322369576164686
 40
0.2388781084173461
 40
0.2419754569377701
 40
0.2451844928314517
 40
0.2469431285406319
 40
0.2491558155413148
 40
0.2502071631502833
 40
0.2520371151531078
 40
0.2537955022961917
 40
0.2559905648391181
 40
0.2610850475392572
 40
0.2628015449935658
 40
0.264600160797367
 40
0.2672532242105192
 40
0.2713036082696988
 40
0.2749602787035419
 40
0.2777886836740124
 40
0.2810135286493891
 40
0.2829147610145138
 40
0.2843486640765543
 40
0.2885514200969618
 40
0.2915697466433828
 40
0.2946679324297793
 40
0.2985568651303397
 40
0.3010830910153825
 40
0.303732705133784
 40
0.3065877605895104
 40
0.3096431310689689
 40
0.3112789556565537
 40
0.3137623472297377
 40
0.3170029753534798
 40
0.3196200734719302
 40
0.322034004180094
 40
0.3238650944032398
 40
0.3270293222131487
 40
0.3295611160114546
 40
0.3326818622201799
 40
0.3355662294517017
 40
0.3383938339060168
 40
0.3426086233436663
 40
0.3471403813375372
 40
0.3507901097928796
 40
0.3528788537519115
 40
0.3551253416325038
 40
0.358246171065865
 40
0.3613172039028488
 40
0.3647932467459487
 40
0.3678559556813323
 40
0.3710969590969498
 40
0.3737309042110589
 40
0.3804724613923009
 40
0.3839779776826956
 40
0.3876606037347243
 40
0.3917222691466509
 40
0.3976540011854837
 40
0.402556129928958
 40
0.4065377965463177
 40
0.4095084589583163
 40
0.414155214794829
 40
0.4161410548913578
 40
0.4207723155144272
 40
0.4232198346385077
 40
0.427511377089337
 40
0.4316437028990711
 40
0.4369152405851936
 40
0.4425909307040599
 40
0.4465145120182393
 40
0.4494414706760824
 40
0.4528304332698616
 40
0.4555765670044141
 40
0.4594524878064068
 40
0.4633120169732504
 40
0.46833496379621
 40
0.4721899426234086
 40
0.4749992998321358
 40
0.4785025318718526
 40
0.482344748757303
 40
0.4852623954389335
 40
0.4899131296112086
 40
0.4911658676031184
 40
0.4949669786990563
 40
0.4983302446950689
 40
0.5011428157905928
 40
0.5045225694039818
 40
0.5078034245175598
 40
0.5106175292337592
 40
0.5151683229442454
 40
0.5205460584534095
 40
0.5237649936631794
 40
0.5263005337099685
 40
0.5293997235908703
 40
0.5327060578008042
 40
0.5359575040188213
 40
0.5405977196238192
 40
0.5426027150795318
 40
0.5438217484655281
 40
0.5448378681762127
 40
0.5473543816301142
 40
0.5505462904578563
 40
0.5534638245997665
 40
0.5573382445109469
 40
0.5623687307692219
 40
0.566325828983734
 40
0.5705401886284771
 40
0.5748946136168068
 40
0.5784531232466997
 40
0.5813352880164881
 40
0.5844908300921106
 40
0.5869038784335072
 40
0.5902244949296256
 40
0.5936379792008732
 40
0.5968080562521272
 40
0.5996784449561834
 40
0.6033158090836571
 40
0.6066527890850288
 40
0.6101419994718639
 40
0.614455547278723
 40
0.6209543957513456
 40
0.6258419378224218
 40
0.6293458275026869
 40
0.6329330552542469
 40
0.6375068082431419
 40
0.6438394026554037
 40
0.6470019541169749
 40
0.6490362607385032
 40
0.6520048606805036
 40
0.6548444604188938
 40
0.6615562623773813
 40
0.6665537637360773
 40
0.6710036985021476
 40
0.6764025928197119
 40
0.6814796624649113
 40
0.6839235773850516
 40
0.6858735918928133
 40
0.688335611896487
 40
0.692340445322701
 40
0.6936029364840022
 40
0.6956048063696525
 40
0.697489260809851
 40
0.6989593186995507
 40
0.7014535712543777
 40
0.7037629012706522
 40
0.706349441281628
 40
0.7080321887796153
 40
0.7090500601771027
 40
0.7125867900147189
 40
0.7161782669207786
 40
0.7200878154539515
 40
0.7249589137494227
 40
0.7268719500735081
 40
0.7301724068574267
 40
0.7343760033808893
 40
0.7378294138675003
 40
0.7393267105036267
 40
0.7425802164472227
 40
0.7485898681056005
 40
0.7538638982652198
 40
0.7552279195783093
 40
0.7619716164695305
 40
0.763242452312736
 40
0.7668517270412647
 40
0.769267116164701
 40
0.7731899579864923
 40
0.7757988412570954
 40
0.777631656778324
 40
0.7807856861199911
 40
0.7840494554027292
 40
0.7893525693395583
 40
0.7965969731418334
 40
0.8026440762513917
 40
0.8085022340382492
 40
0.8139628901141301
 40
0.8155873066297179
 40
0.8170840599513364
 40
0.82090204019425
 40
0.8264196145678042
 40
0.8300626264928839
 40
0.8323339786698343
 40
0.8346360328832987
 40
0.8377712501549551
 40
0.8415023536848473
 40
0.8436773338327461
 40
0.8478643529694712
 40
0.8514625515855182
 40
0.8563161463515465
 40
0.8602083983375675
 40
0.8636289386260901
 40
0.8656213809263406
 40
0.8678125687841917
 40
0.870854370449558
 40
0.8731775146303881
 40
0.8754444738157504
 40
0.8773042084296114
 40
0.8791872965574625
 40
0.8826988514322924
 40
0.8849635767917561
 40
0.8870618152820181
 40
0.8880868893998258
 40
0.8910260383100818
 40
0.8953570307395629
 40
0.8983579690735394
 40
0.9003819862111635
 40
0.903735375052158
 40
0.9064308105200112
 40
0.9101678013226885
 40
0.913253170071187
 40
0.9157450258414847
 40
0.919891759161246
 40
0.9231202229652709
 40
0.9265785925903429
 40
0.9294361532327488
 40
0.9321165865480501
 40
0.9374991914107241
 40
0.9425038795734867
 40
0.9479985345952014
 40
0.9533969846579795
 40
0.9587867738246619
 40
0.9619978566778424
 40
0.9675578573477888
 40
0.9724389018493312
 40
0.9780801682836661
 40
0.9834553624894172
 40
0.9892356117154781
 40
0.9948780962942938
 40
1.0
 40
1.0
 40
1.0
 40
1.0
 10
3.183450033008031
 20
-3.644586089408367
 30
0.0
 10
3.216908688233753
 20
-3.670290483589372
 30
0.0
 10
3.204576298983822
 20
-3.746871351372661
 30
0.0
 10
3.191323659929056
 20
-3.858287651108157
 30
0.0
 10
3.087782398446502
 20
-3.906287807472665
 30
0.0
 10
2.967716711085678
 20
-3.903883815913527
 30
0.0
 10
2.817628279831165
 20
-3.814414758536787
 30
0.0
 10
2.672771627424377
 20
-3.695818871949493
 30
0.0
 10
2.548284233974733
 20
-3.544866644289225
 30
0.0
 10
2.462277920621844
 20
-3.380241458545622
 30
0.0
 10
2.369059774753717
 20
-3.262540936217464
 30
0.0
 10
2.421673256226398
 20
-3.011699164479215
 30
0.0
 10
2.327619034663381
 20
-3.131099011361542
 30
0.0
 10
2.315631932880809
 20
-3.247811820778864
 30
0.0
 10
2.328350857201563
 20
-3.410889716727635
 30
0.0
 10
2.419925704139033
 20
-3.58484626250245
 30
0.0
 10
2.529627773447291
 20
-3.769988415471047
 30
0.0
 10
2.75335001375677
 20
-3.885895659915489
 30
0.0
 10
2.921698263586754
 20
-4.063548297902435
 30
0.0
 10
3.002692507636832
 20
-4.281002711288535
 30
0.0
 10
3.015977754302972
 20
-4.485534254870633
 30
0.0
 10
3.044252233608599
 20
-4.684953833056448
 30
0.0
 10
3.085985127610216
 20
-4.817756042702239
 30
0.0
 10
3.124034517219194
 20
-4.989861478919289
 30
0.0
 10
2.922572770082572
 20
-4.93299157927988
 30
0.0
 10
2.787027031560263
 20
-4.914909246941431
 30
0.0
 10
2.662180702780108
 20
-4.785524038855415
 30
0.0
 10
2.66823437353431
 20
-4.627864775798729
 30
0.0
 10
2.679081770402091
 20
-4.478431869154086
 30
0.0
 10
2.442725966222493
 20
-4.236711917244744
 30
0.0
 10
2.507405267531136
 20
-4.40418002320264
 30
0.0
 10
2.577003409687348
 20
-4.494297343370499
 30
0.0
 10
2.580495443832314
 20
-4.650551009319961
 30
0.0
 10
2.590701268863285
 20
-4.799434322381584
 30
0.0
 10
2.468653104816036
 20
-4.887914221473748
 30
0.0
 10
2.318282677191958
 20
-4.860084109568273
 30
0.0
 10
2.164472394095879
 20
-4.773018779305162
 30
0.0
 10
2.064318941769976
 20
-4.601467265885044
 30
0.0
 10
1.999581973403435
 20
-4.417920191927467
 30
0.0
 10
2.000284396573562
 20
-4.243276009349878
 30
0.0
 10
1.961717681168338
 20
-4.135943372123607
 30
0.0
 10
1.838311778284102
 20
-4.062510621845491
 30
0.0
 10
1.884631241045794
 20
-4.186299211210508
 30
0.0
 10
1.887725627513817
 20
-4.304799866298499
 30
0.0
 10
1.943886391322702
 20
-4.502929991116527
 30
0.0
 10
2.009001443742354
 20
-4.708269180859446
 30
0.0
 10
2.129660064398842
 20
-4.879834299546423
 30
0.0
 10
2.313339239361419
 20
-4.972349213876314
 30
0.0
 10
2.498690079361031
 20
-4.9587238308856
 30
0.0
 10
2.660634530906921
 20
-4.934029250252836
 30
0.0
 10
2.791178067340541
 20
-5.003806671834713
 30
0.0
 10
2.925701768353769
 20
-5.083493766321074
 30
0.0
 10
3.1115756837989
 20
-5.071073316805419
 30
0.0
 10
3.223612280863859
 20
-5.182934556332514
 30
0.0
 10
3.319651675810353
 20
-5.236725248865845
 30
0.0
 10
3.348128608351532
 20
-5.346690494209776
 30
0.0
 10
3.244109448834168
 20
-5.386095780834144
 30
0.0
 10
3.114184719005441
 20
-5.403340190389614
 30
0.0
 10
2.925006909713109
 20
-5.399884663441398
 30
0.0
 10
2.744555552881775
 20
-5.309942841780098
 30
0.0
 10
2.534294654795435
 20
-5.249781445825868
 30
0.0
 10
2.353301633876931
 20
-5.178858819760646
 30
0.0
 10
2.191834908701843
 20
-5.109026207168986
 30
0.0
 10
2.083965134478777
 20
-5.095299427702483
 30
0.0
 10
1.990905264192012
 20
-5.05853700911833
 30
0.0
 10
1.981147183614578
 20
-4.947290522871799
 30
0.0
 10
1.910781247899719
 20
-4.998284865903652
 30
0.0
 10
1.89151965566887
 20
-5.071526294514928
 30
0.0
 10
1.799781920992675
 20
-5.031895064425512
 30
0.0
 10
1.698796736922317
 20
-5.010200024848991
 30
0.0
 10
1.564406366149673
 20
-4.804036008996983
 30
0.0
 10
1.54217597934719
 20
-4.961719803065968
 30
0.0
 10
1.606130538275676
 20
-5.019626355585218
 30
0.0
 10
1.698435910544533
 20
-5.085268562459878
 30
0.0
 10
1.82962643575224
 20
-5.145721361208829
 30
0.0
 10
1.973442545217186
 20
-5.141794037646396
 30
0.0
 10
2.102642462219263
 20
-5.169797432022023
 30
0.0
 10
2.206872960548803
 20
-5.175590273436247
 30
0.0
 10
2.28557674337801
 20
-5.267753331298182
 30
0.0
 10
2.182389706296349
 20
-5.332633121740491
 30
0.0
 10
2.091673698762111
 20
-5.401364729821496
 30
0.0
 10
1.947464032999009
 20
-5.383829582269866
 30
0.0
 10
1.808111249353598
 20
-5.366642166688107
 30
0.0
 10
1.706859046460393
 20
-5.398248789627072
 30
0.0
 10
1.536145302395923
 20
-5.496437864880827
 30
0.0
 10
1.716577021348017
 20
-5.479756016477308
 30
0.0
 10
1.805674586281522
 20
-5.457486919024776
 30
0.0
 10
1.918417075931211
 20
-5.431535679522089
 30
0.0
 10
2.003234242504769
 20
-5.506743350637534
 30
0.0
 10
1.950006299229393
 20
-5.614063453621464
 30
0.0
 10
1.863351441140406
 20
-5.687411815968043
 30
0.0
 10
1.789788222175386
 20
-5.745232924637687
 30
0.0
 10
1.637670455315217
 20
-5.789882485441383
 30
0.0
 10
1.789185517402903
 20
-5.823735503621895
 30
0.0
 10
1.864900066739081
 20
-5.768289930097748
 30
0.0
 10
1.970059861049957
 20
-5.70515103136796
 30
0.0
 10
2.031311320211205
 20
-5.604472180005325
 30
0.0
 10
2.070022724256046
 20
-5.488994474272461
 30
0.0
 10
2.181644728958331
 20
-5.405481804885938
 30
0.0
 10
2.320302981830987
 20
-5.340411983883492
 30
0.0
 10
2.491081361248995
 20
-5.291591384931613
 30
0.0
 10
2.620077360034026
 20
-5.344519408469985
 30
0.0
 10
2.718434252048768
 20
-5.414344127964447
 30
0.0
 10
2.690851814172248
 20
-5.525087369005271
 30
0.0
 10
2.646353643121534
 20
-5.628530142497525
 30
0.0
 10
2.535702674764488
 20
-5.70749713539752
 30
0.0
 10
2.418854480225701
 20
-5.759673934263292
 30
0.0
 10
2.303287945664134
 20
-5.828872970405264
 30
0.0
 10
2.234754880018521
 20
-5.930420407199226
 30
0.0
 10
2.243787044546238
 20
-6.142101979365806
 30
0.0
 10
1.983238147726446
 20
-5.98449397060321
 30
0.0
 10
1.81570079780215
 20
-6.058817731109453
 30
0.0
 10
1.654361481663369
 20
-6.025436782197471
 30
0.0
 10
1.521001186171565
 20
-5.88843128629048
 30
0.0
 10
1.44784612644557
 20
-5.698195844999918
 30
0.0
 10
1.410042043163655
 20
-5.499779351565263
 30
0.0
 10
1.312161994969994
 20
-5.367268534208433
 30
0.0
 10
1.295808252995969
 20
-5.206083742421481
 30
0.0
 10
1.379635338207837
 20
-5.077537479815638
 30
0.0
 10
1.291731719064373
 20
-4.941217707061896
 30
0.0
 10
1.179540340586097
 20
-4.874767304779017
 30
0.0
 10
1.167847415523314
 20
-4.700501994569493
 30
0.0
 10
1.312324222063931
 20
-4.617687412790087
 30
0.0
 10
1.400451163111197
 20
-4.456074354941735
 30
0.0
 10
1.505213149947623
 20
-4.277934847913964
 30
0.0
 10
1.522416906774182
 20
-4.074077235193406
 30
0.0
 10
1.627156132898068
 20
-3.926458305245708
 30
0.0
 10
1.774111553519493
 20
-3.891452736821555
 30
0.0
 10
1.885981616576765
 20
-3.965965816153606
 30
0.0
 10
2.021850678011996
 20
-3.922662855719396
 30
0.0
 10
2.159356140354449
 20
-3.906857811594429
 30
0.0
 10
2.340538010768063
 20
-3.921368749530704
 30
0.0
 10
2.469539496549785
 20
-3.980593823604559
 30
0.0
 10
2.740642508357179
 20
-3.901297222998038
 30
0.0
 10
2.527160235127123
 20
-3.876478557546475
 30
0.0
 10
2.419760666638353
 20
-3.885640934829439
 30
0.0
 10
2.248704699028785
 20
-3.838397394992627
 30
0.0
 10
2.249518275992089
 20
-3.690915288567944
 30
0.0
 10
2.339110736837937
 20
-3.459029548127852
 30
0.0
 10
2.230016163470651
 20
-3.584338466241692
 30
0.0
 10
2.211020063691616
 20
-3.684428495120396
 30
0.0
 10
2.165362484726365
 20
-3.826109054101253
 30
0.0
 10
2.030631978797351
 20
-3.870525500779785
 30
0.0
 10
1.909576836316704
 20
-3.856577654177744
 30
0.0
 10
1.76371095963686
 20
-3.81816969006559
 30
0.0
 10
1.761797183965333
 20
-3.654024040464712
 30
0.0
 10
1.83068337858387
 20
-3.488230358194025
 30
0.0
 10
1.952402286732584
 20
-3.396497405290039
 30
0.0
 10
2.203602147728187
 20
-3.359667890316712
 30
0.0
 10
2.018026563605814
 20
-3.306072770765611
 30
0.0
 10
1.925350573979358
 20
-3.370471519746105
 30
0.0
 10
1.805395358482341
 20
-3.435729613165134
 30
0.0
 10
1.734618046767738
 20
-3.571776392377919
 30
0.0
 10
1.666663714795549
 20
-3.692925831465942
 30
0.0
 10
1.672906650759656
 20
-3.799666355209759
 30
0.0
 10
1.608010690577267
 20
-3.849702359008172
 30
0.0
 10
1.578673546212894
 20
-3.770528147875119
 30
0.0
 10
1.621468650567323
 20
-3.690449187685542
 30
0.0
 10
1.595371810538605
 20
-3.57025850197208
 30
0.0
 10
1.612774831147083
 20
-3.435641697423499
 30
0.0
 10
1.557545182008457
 20
-3.282027862167363
 30
0.0
 10
1.535776782704416
 20
-3.109937078819967
 30
0.0
 10
1.54569258248726
 20
-2.929213338140188
 30
0.0
 10
1.635349689732212
 20
-2.775929708343254
 30
0.0
 10
1.768739995676105
 20
-2.684935327720598
 30
0.0
 10
1.837365729016089
 20
-2.529285114709688
 30
0.0
 10
1.757633718366274
 20
-2.423145189661795
 30
0.0
 10
1.709634551234707
 20
-2.294707117910261
 30
0.0
 10
1.821744790844854
 20
-2.218995639312562
 30
0.0
 10
1.921854951206106
 20
-2.150977014190893
 30
0.0
 10
1.969898134474552
 20
-2.011005932752821
 30
0.0
 10
1.927164135896922
 20
-1.888709826544652
 30
0.0
 10
1.829958226539912
 20
-1.77703907682903
 30
0.0
 10
1.926620490690069
 20
-1.650738000430138
 30
0.0
 10
1.953027200910376
 20
-1.516863911229345
 30
0.0
 10
1.984815430522164
 20
-1.363679383345279
 30
0.0
 10
2.134480664439605
 20
-1.23312309545434
 30
0.0
 10
2.259306388681993
 20
-1.054501642121769
 30
0.0
 10
2.356542016266487
 20
-0.9014595984337092
 30
0.0
 10
2.46537888720135
 20
-0.719847392465704
 30
0.0
 10
2.606139194729218
 20
-0.8717494006161454
 30
0.0
 10
2.781983235435977
 20
-0.92701211331853
 30
0.0
 10
2.967848574253513
 20
-0.9865416962121083
 30
0.0
 10
3.127090857741111
 20
-0.978209739351809
 30
0.0
 10
3.225555442472944
 20
-1.043787579206556
 30
0.0
 10
3.251112767735463
 20
-1.151690574660813
 30
0.0
 10
3.317942531954933
 20
-1.305652528015126
 30
0.0
 10
3.332461924216566
 20
-1.506885981715747
 30
0.0
 10
3.430544338454256
 20
-1.703223236205524
 30
0.0
 10
3.508331635579575
 20
-1.887991977687949
 30
0.0
 10
3.503777296475743
 20
-2.103550034138068
 30
0.0
 10
3.502720587977091
 20
-2.244060269431225
 30
0.0
 10
3.492036346381683
 20
-2.43245515652833
 30
0.0
 10
3.386852721639343
 20
-2.349418768153217
 30
0.0
 10
3.352543295864058
 20
-2.274114110172286
 30
0.0
 10
3.266619049272095
 20
-2.086158731964219
 30
0.0
 10
3.223788298902639
 20
-2.211899566958875
 30
0.0
 10
3.281184719986066
 20
-2.255816874400168
 30
0.0
 10
3.293503805451331
 20
-2.353962503666533
 30
0.0
 10
3.200514671727655
 20
-2.359340174754404
 30
0.0
 10
3.116095940895501
 20
-2.382289191041506
 30
0.0
 10
3.037726049280095
 20
-2.300047633056753
 30
0.0
 10
2.995765072277728
 20
-2.234007725653814
 30
0.0
 10
2.868586412120897
 20
-2.233641629106415
 30
0.0
 10
2.966918399114105
 20
-2.298565982188403
 30
0.0
 10
3.012369566534804
 20
-2.377939500218755
 30
0.0
 10
3.170470174543133
 20
-2.451522619986366
 30
0.0
 10
3.310970118110604
 20
-2.39133461347524
 30
0.0
 10
3.546674182001301
 20
-2.483443727899259
 30
0.0
 10
3.413141202265836
 20
-2.600640965501633
 30
0.0
 10
3.287128562281477
 20
-2.538543914357762
 30
0.0
 10
3.135400893087607
 20
-2.572940004705488
 30
0.0
 10
3.02245349652826
 20
-2.526627714722273
 30
0.0
 10
2.889148801889981
 20
-2.601010180939897
 30
0.0
 10
3.151052488828257
 20
-2.621837132095559
 30
0.0
 10
3.245369971910454
 20
-2.659647609310744
 30
0.0
 10
3.545327540004791
 20
-2.620678916400478
 30
0.0
 10
3.470741759209864
 20
-2.810193813781664
 30
0.0
 10
3.387146258444504
 20
-2.938114668915608
 30
0.0
 10
3.218068515403039
 20
-2.919237502657586
 30
0.0
 10
3.189897044008078
 20
-2.799631892424755
 30
0.0
 10
3.057616861283694
 20
-2.745530226438178
 30
0.0
 10
2.935917675587076
 20
-2.760270548553322
 30
0.0
 10
2.82826345003668
 20
-2.8321035018265
 30
0.0
 10
2.735924505381548
 20
-2.761328111068812
 30
0.0
 10
2.695953881010767
 20
-2.656650972716267
 30
0.0
 10
2.667153592733489
 20
-2.500621558843279
 30
0.0
 10
2.6739759757143
 20
-2.284396862106817
 30
0.0
 10
2.771769455172369
 20
-2.046626829778659
 30
0.0
 10
2.934712935402369
 20
-1.84420204506578
 30
0.0
 10
2.964390440545652
 20
-1.588814501852165
 30
0.0
 10
2.934487088590535
 20
-1.451905062560208
 30
0.0
 10
2.82086997733952
 20
-1.311675512088908
 30
0.0
 10
2.844519440692013
 20
-1.452084967806408
 30
0.0
 10
2.862522846077304
 20
-1.565633671982223
 30
0.0
 10
2.837213273391991
 20
-1.756297800876653
 30
0.0
 10
2.771540728463123
 20
-1.89430675314047
 30
0.0
 10
2.66521350863464
 20
-1.964387109293912
 30
0.0
 10
2.566470064541659
 20
-1.898515025916964
 30
0.0
 10
2.489914986618768
 20
-1.816252124812972
 30
0.0
 10
2.532367627838465
 20
-1.586733453247747
 30
0.0
 10
2.421210098745458
 20
-1.760106458198017
 30
0.0
 10
2.476501463599758
 20
-1.883228312810758
 30
0.0
 10
2.554037558937428
 20
-2.033450503976638
 30
0.0
 10
2.615150820831884
 20
-2.195660394756644
 30
0.0
 10
2.58067744988833
 20
-2.359238659790853
 30
0.0
 10
2.578295737592333
 20
-2.485906979755604
 30
0.0
 10
2.484088240578292
 20
-2.57173494481699
 30
0.0
 10
2.396684292321539
 20
-2.490812179522701
 30
0.0
 10
2.350563293530856
 20
-2.402505613372492
 30
0.0
 10
2.258345201670724
 20
-2.355275398060459
 30
0.0
 10
2.119145858615718
 20
-2.42269330580015
 30
0.0
 10
2.249530504015179
 20
-2.428179572629498
 30
0.0
 10
2.30662963598683
 20
-2.503478403402492
 30
0.0
 10
2.359654063683767
 20
-2.593949972008619
 30
0.0
 10
2.465339688124953
 20
-2.648563686482002
 30
0.0
 10
2.544364816107583
 20
-2.583432867970104
 30
0.0
 10
2.594945914926443
 20
-2.662967666564883
 30
0.0
 10
2.645768449257316
 20
-2.754313307980728
 30
0.0
 10
2.66834910029048
 20
-2.903305010357566
 30
0.0
 10
2.799119725059807
 20
-2.971964953514595
 30
0.0
 10
2.905814475455104
 20
-2.932007938596123
 30
0.0
 10
3.022570894926439
 20
-2.894766769646246
 30
0.0
 10
3.124458127844071
 20
-2.996667802893271
 30
0.0
 10
3.224773958698514
 20
-3.066811897213158
 30
0.0
 10
3.371193619282695
 20
-3.091940025991176
 30
0.0
 10
3.446746950797763
 20
-2.968786042538473
 30
0.0
 10
3.550095413658159
 20
-2.891488260788837
 30
0.0
 10
3.657190716184246
 20
-2.782187108188618
 30
0.0
 10
3.802415079011542
 20
-2.788143192810335
 30
0.0
 10
3.899221792006859
 20
-2.863811844642332
 30
0.0
 10
4.01269590227551
 20
-2.956657199286647
 30
0.0
 10
4.147165012598856
 20
-3.073543124228234
 30
0.0
 10
4.250783264536904
 20
-3.267174801148318
 30
0.0
 10
4.286953130212455
 20
-3.478004752602097
 30
0.0
 10
4.322778206462748
 20
-3.700846730531929
 30
0.0
 10
4.23943220959492
 20
-3.879219611601604
 30
0.0
 10
4.135664898404388
 20
-4.037367338784272
 30
0.0
 10
4.04022388448775
 20
-4.200032291006821
 30
0.0
 10
4.020751175318254
 20
-4.41897875417046
 30
0.0
 10
4.096809964679956
 20
-4.644006843882535
 30
0.0
 10
4.32315449671743
 20
-4.722877631456355
 30
0.0
 10
4.499268121011213
 20
-4.87219991308487
 30
0.0
 10
4.609288522148823
 20
-5.065804793622646
 30
0.0
 10
4.683035406646434
 20
-5.197246424381915
 30
0.0
 10
4.651909064387016
 20
-5.270511480465384
 30
0.0
  0
SPLINE
  5
7B
330
1F
100
AcDbEntity
  8
0
  6
Continuous
 62
     7
370
    25
100
AcDbSpline
210
0.0
220
0.0
230
1.0
 70
     8
 71
     3
 72
    45
 73
    41
 74
     0
 42
0.000000001
 43
0.00000001
 40
0.0
 40
0.0
 40
0.0
 40
0.0
 40
0.0376691127580896
 40
0.0698622195589989
 40
0.102447687087721
 40
0.1286266572218341
 40
0.1569101640678224
 40
0.1828616158285807
 40
0.2209663512701318
 40
0.2637463519517422
 40
0.3017677516345645
 40
0.3427731774701789
 40
0.3872340099770073
 40
0.4155731219929164
 40
0.4313519144455389
 40
0.4503655149366078
 40
0.4572747866770744
 40
0.4728567573308162
 40
0.4983941722452883
 40
0.5306252123909005
 40
0.5650648755837944
 40
0.6259962143712213
 40
0.6429196010527977
 40
0.6681171867896947
 40
0.6884031655707286
 40
0.7137657026454447
 40
0.7348615595626007
 40
0.7570334518412088
 40
0.7742000648897869
 40
0.7932580583410092
 40
0.8114724271171206
 40
0.8561462799666578
 40
0.8741622961221742
 40
0.8885829170318571
 40
0.9026915952891463
 40
0.9161967446561938
 40
0.9308843576286617
 40
0.9530273416150883
 40
0.965791727244701
 40
1.0
 40
1.0
 40
1.0
 40
1.0
 10
4.651909064387017
 20
-5.270511480465385
 30
0.0
 10
4.596962766933899
 20
-5.327111900696181
 30
0.0
 10
4.452040549146457
 20
-5.325807046810922
 30
0.0
 10
4.270030982980802
 20
-5.256399601084802
 30
0.0
 10
4.1148880882282
 20
-5.164098422763177
 30
0.0
 10
3.939255228460072
 20
-5.185321999836287
 30
0.0
 10
3.809905872275706
 20
-5.283911154521769
 30
0.0
 10
3.622931817766343
 20
-5.250833615726974
 30
0.0
 10
3.445612247286078
 20
-5.152160990292462
 30
0.0
 10
3.257578785837316
 20
-5.014240706979892
 30
0.0
 10
3.15100899493557
 20
-4.795086163413082
 30
0.0
 10
3.15724483622004
 20
-4.552561769810978
 30
0.0
 10
3.132044803847328
 20
-4.345982310888871
 30
0.0
 10
3.064759467793143
 20
-4.16097100611243
 30
0.0
 10
3.148887842234822
 20
-4.073543609787316
 30
0.0
 10
3.204833663992967
 20
-3.984641020034259
 30
0.0
 10
3.282153520060522
 20
-4.025350769144384
 30
0.0
 10
3.351508126177585
 20
-4.084190630557909
 30
0.0
 10
3.507247495801325
 20
-4.085376646123667
 30
0.0
 10
3.660934059160322
 20
-3.980593965096344
 30
0.0
 10
3.833393503255146
 20
-3.864093786054224
 30
0.0
 10
3.940140463484671
 20
-3.385472480540906
 30
0.0
 10
3.820402593157559
 20
-3.615203451902342
 30
0.0
 10
3.791375895668904
 20
-3.7199510042029
 30
0.0
 10
3.701137534089221
 20
-3.829392775740577
 30
0.0
 10
3.589448148032228
 20
-3.896911880195773
 30
0.0
 10
3.458632929234259
 20
-3.921438386650612
 30
0.0
 10
3.336806249648821
 20
-3.897044857114892
 30
0.0
 10
3.266599747343373
 20
-3.795040086846048
 30
0.0
 10
3.293600492648482
 20
-3.682065142928069
 30
0.0
 10
3.358191207187393
 20
-3.567760250644488
 30
0.0
 10
3.566988571434417
 20
-3.30369395809392
 30
0.0
 10
3.411519708321674
 20
-3.450013471438419
 30
0.0
 10
3.347262065074081
 20
-3.498763583216629
 30
0.0
 10
3.272055193825639
 20
-3.533990141238618
 30
0.0
 10
3.192536787813285
 20
-3.554483366593157
 30
0.0
 10
3.099762553476148
 20
-3.556305973013631
 30
0.0
 10
2.9907548061633
 20
-3.409616178094717
 30
0.0
 10
3.026073410853996
 20
-3.608547128592307
 30
0.0
 10
3.132566323101225
 20
-3.598820108803968
 30
0.0
 10
3.183450033008031
 20
-3.644586089408367
 30
0.0
  0
SPLINE
  5
7C
330
1F
100
AcDbEntity
  8
0
  6
Continuous
 62
     7
370
    25
100
AcDbSpline
210
0.0
220
0.0
230
1.0
 70
    11
 71
     3
 72
    40
 73
    36
 74
     0
 42
0.000000001
 43
0.00000001
 40
0.0
 40
0.0
 40
0.0
 40
0.0
 40
0.0265751070861151
 40
0.044095118699575
 40
0.0721069712398515
 40
0.1054678354131191
 40
0.1325058245954445
 40
0.1426855971378274
 40
0.1625540387798703
 40
0.1926543690567858
 40
0.2297067521154893
 40
0.2562458197283365
 40
0.2848835602787645
 40
0.3102958258359456
 40
0.3347653596780188
 40
0.4107530968354236
 40
0.4563088063026023
 40
0.4843080180647242
 40
0.4986521478506552
 40
0.5264188593374733
 40
0.5713922625894842
 40
0.6122639177868044
 40
0.6522620851376681
 40
0.696585817935792
 40
0.727000459242017
 40
0.7613363235785076
 40
0.7810229880517471
 40
0.8126923310033627
 40
0.855815463532872
 40
0.8675645591518175
 40
0.8948890464806047
 40
0.9224089315812708
 40
0.9647188569690548
 40
0.9845523125764136
 40
1.0
 40
1.0
 40
1.0
 40
1.0
 10
3.630895074639232
 20
-0.5932422119869686
 30
0.0
 10
3.668531262730467
 20
-0.5937921079773514
 30
0.0
 10
3.691028304109736
 20
-0.7253636062936843
 30
0.0
 10
3.712513432177478
 20
-0.844434189150808
 30
0.0
 10
3.71114858892358
 20
-1.000868414651712
 30
0.0
 10
3.733365794635746
 20
-1.161683199106746
 30
0.0
 10
3.645031629929241
 20
-1.306121547597766
 30
0.0
 10
3.729912925111373
 20
-1.386192298604554
 30
0.0
 10
3.804842144403618
 20
-1.466920863715811
 30
0.0
 10
3.918828349108169
 20
-1.591685157609697
 30
0.0
 10
3.978085146617343
 20
-1.757912470926739
 30
0.0
 10
4.039786857923958
 20
-1.930682330002499
 30
0.0
 10
3.980015390797615
 20
-2.072184462552728
 30
0.0
 10
3.957512497064459
 20
-2.240841249820092
 30
0.0
 10
4.186727219335846
 20
-2.367030392787937
 30
0.0
 10
4.309510848849096
 20
-2.668598361678409
 30
0.0
 10
4.295093411692871
 20
-2.884726866103008
 30
0.0
 10
4.338172055268005
 20
-3.166719327101765
 30
0.0
 10
4.205558659615291
 20
-3.043144511151208
 30
0.0
 10
4.156733368986983
 20
-2.898851595304432
 30
0.0
 10
3.952537969447714
 20
-2.782595390755728
 30
0.0
 10
3.755777373563273
 20
-2.655897548738296
 30
0.0
 10
3.607892757399058
 20
-2.459283895704524
 30
0.0
 10
3.580563417329641
 20
-2.231731390316644
 30
0.0
 10
3.631884912891525
 20
-2.036018828808658
 30
0.0
 10
3.676668543233149
 20
-1.866861470558799
 30
0.0
 10
3.578507038305016
 20
-1.728191568415322
 30
0.0
 10
3.5159296454
 20
-1.568083814227561
 30
0.0
 10
3.405746504300156
 20
-1.413796936367597
 30
0.0
 10
3.460860908036094
 20
-1.263424269836665
 30
0.0
 10
3.527414896033713
 20
-1.155121403417138
 30
0.0
 10
3.53962292527271
 20
-0.9672060891615156
 30
0.0
 10
3.531534687373691
 20
-0.7981699671079683
 30
0.0
 10
3.540470791963693
 20
-0.6529612539351138
 30
0.0
 10
3.609017756607559
 20
-0.5929225661865815
 30
0.0
 10
3.630895074639232
 20
-0.5932422119869686
 30
0.0
  0
SPLINE
  5
7D
330
1F
100
AcDbEntity
  8
0
  6
Continuous
 62
     7
370
    25
100
AcDbSpline
210
0.0
220
0.0
230
1.0
 70
    11
 71
     3
 72
    81
 73
    77
 74
     0
 42
0.000000001
 43
0.00000001
 40
0.0
 40
0.0
 40
0.0
 40
0.0
 40
0.0082540158217019
 40
0.021316834323923
 40
0.0257002703381159
 40
0.0520883759636306
 40
0.0641212553610711
 40
0.0656004581774778
 40
0.0668804041276983
 40
0.0855542001556469
 40
0.1094157934827636
 40
0.1258599030504978
 40
0.1416251354566261
 40
0.1536327878350474
 40
0.1687293928625945
 40
0.1762326486077825
 40
0.1876741581240718
 40
0.1968085259761515
 40
0.2032907095021463
 40
0.2081275594738063
 40
0.2138509128503125
 40
0.2246116924047538
 40
0.2367627518762121
 40
0.2567817864002458
 40
0.2693249450662996
 40
0.2860119039130602
 40
0.3027714260014956
 40
0.3247914151100071
 40
0.35675088286219
 40
0.3856983916290327
 40
0.4103223512346578
 40
0.4314974849346948
 40
0.4550533441765378
 40
0.4697502066364445
 40
0.4990664264686344
 40
0.5110086679255881
 40
0.5260984482718023
 40
0.5478274901746223
 40
0.5661618415040618
 40
0.584142224157645
 40
0.6108211697258576
 40
0.6267229815957026
 40
0.6326693821405336
 40
0.6399270313187774
 40
0.6487529193922952
 40
0.6681444938213148
 40
0.689467389178376
 40
0.7008640960636229
 40
0.7094369808790134
 40
0.7226468171042485
 40
0.7274772222389723
 40
0.7365401199614543
 40
0.7411865850165715
 40
0.749719170078107
 40
0.7592031449358387
 40
0.7677868947470854
 40
0.7783928901825727
 40
0.8052968058071933
 40
0.8217421068054444
 40
0.8290664212587683
 40
0.8423479174351
 40
0.8761279031348106
 40
0.8879114800455783
 40
0.8953857815572339
 40
0.9015272341019087
 40
0.908220661486619
 40
0.9174088743390065
 40
0.9246259260363311
 40
0.9329003796050249
 40
0.9386244719439405
 40
0.9489734134051142
 40
0.9604423781550657
 40
0.9684357629770217
 40
0.9746445665806458
 40
0.9907003994008947
 40
0.9999999999999998
 40
0.9999999999999998
 40
0.9999999999999998
 40
0.9999999999999998
 10
2.493216781985888
 20
-8.720916485001466
 30
0.0
 10
2.474907998697891
 20
-8.70217930737073
 30
0.0
 10
2.485292381617946
 20
-8.589511471351864
 30
0.0
 10
2.476501756193692
 20
-8.411184527700643
 30
0.0
 10
2.467566142069789
 20
-8.139118468649555
 30
0.0
 10
2.475640187339987
 20
-7.991014084736755
 30
0.0
 10
2.427374468317931
 20
-7.735456318119857
 30
0.0
 10
2.433338097323108
 20
-7.669887729473085
 30
0.0
 10
2.501290311033993
 20
-7.604155718170702
 30
0.0
 10
2.64006335507241
 20
-7.488332507290816
 30
0.0
 10
2.852229181294826
 20
-7.342803554149642
 30
0.0
 10
3.07958930098418
 20
-7.280176215242441
 30
0.0
 10
3.287209788037948
 20
-7.286700360011163
 30
0.0
 10
3.401558520069104
 20
-7.430644283579631
 30
0.0
 10
3.478711723962189
 20
-7.595278434625262
 30
0.0
 10
3.35796132368925
 20
-7.699116406881629
 30
0.0
 10
3.240936680611649
 20
-7.736105134863712
 30
0.0
 10
3.145593691950856
 20
-7.764301002945047
 30
0.0
 10
3.062103043669809
 20
-7.884574164566927
 30
0.0
 10
3.164681122543345
 20
-7.84989606528011
 30
0.0
 10
3.232878722401094
 20
-7.809698145710489
 30
0.0
 10
3.371471028624404
 20
-7.814371489694099
 30
0.0
 10
3.512954454037611
 20
-7.933019631288931
 30
0.0
 10
3.665678411744556
 20
-8.044970726992448
 30
0.0
 10
3.80817233564635
 20
-8.199315447206157
 30
0.0
 10
3.974100544827638
 20
-8.305925901143468
 30
0.0
 10
4.197893717036292
 20
-8.388140599903943
 30
0.0
 10
4.503003089169713
 20
-8.38635015000933
 30
0.0
 10
4.848648095117578
 20
-8.307063437437712
 30
0.0
 10
5.187761205576637
 20
-8.197821300643874
 30
0.0
 10
5.523245127610255
 20
-8.144889492645548
 30
0.0
 10
5.769646436199222
 20
-8.348043915735667
 30
0.0
 10
5.882638320682127
 20
-8.567310628785245
 30
0.0
 10
5.978247881892112
 20
-8.861198938734129
 30
0.0
 10
5.761605690533845
 20
-9.046129354875733
 30
0.0
 10
5.545127320502363
 20
-8.901064429608141
 30
0.0
 10
5.332322312523607
 20
-8.903913672650466
 30
0.0
 10
5.105601580411133
 20
-8.961214999851347
 30
0.0
 10
4.85964864060298
 20
-8.976902187885809
 30
0.0
 10
4.590302874063194
 20
-8.99632450469251
 30
0.0
 10
4.345980549326298
 20
-8.97896575046234
 30
0.0
 10
4.115573540419176
 20
-8.931914111392846
 30
0.0
 10
4.069051779145626
 20
-8.807977803576476
 30
0.0
 10
4.092484191029887
 20
-8.711986596943765
 30
0.0
 10
3.99438587413476
 20
-8.580121142158333
 30
0.0
 10
3.799479236505468
 20
-8.490213560232753
 30
0.0
 10
3.592448668228127
 20
-8.437031000066433
 30
0.0
 10
3.407545616388447
 20
-8.391192250214184
 30
0.0
 10
3.352740798969781
 20
-8.247376729813423
 30
0.0
 10
3.38519081425361
 20
-8.127318134471418
 30
0.0
 10
3.347288846954751
 20
-8.030886014390614
 30
0.0
 10
3.263617949042068
 20
-7.914376937651139
 30
0.0
 10
3.249548994174802
 20
-8.044303831580413
 30
0.0
 10
3.30766505690147
 20
-8.121515722841949
 30
0.0
 10
3.25395636654249
 20
-8.237654797139278
 30
0.0
 10
3.281287222688411
 20
-8.36084436353118
 30
0.0
 10
3.413384552843659
 20
-8.517297007382487
 30
0.0
 10
3.629359831973871
 20
-8.572399821183563
 30
0.0
 10
3.875854936458364
 20
-8.638965189310662
 30
0.0
 10
3.880586592774722
 20
-8.826495444013581
 30
0.0
 10
3.605593346989367
 20
-8.902729654199756
 30
0.0
 10
3.393369639401802
 20
-8.78929072257344
 30
0.0
 10
3.190131825054297
 20
-8.699730290458625
 30
0.0
 10
3.065989964222647
 20
-8.703622350663267
 30
0.0
 10
3.034405584920923
 20
-8.613744132842289
 30
0.0
 10
3.001567854102209
 20
-8.519061458993175
 30
0.0
 10
2.882269923572018
 20
-8.516622020589882
 30
0.0
 10
2.812132507553184
 20
-8.456527996507248
 30
0.0
 10
2.698594480536708
 20
-8.378109143213287
 30
0.0
 10
2.690859850598085
 20
-8.485024728278646
 30
0.0
 10
2.80415130005962
 20
-8.54896260611006
 30
0.0
 10
2.955141176914932
 20
-8.589351400130656
 30
0.0
 10
2.901101890478246
 20
-8.740308058245128
 30
0.0
 10
2.79717323418283
 20
-8.71723704082751
 30
0.0
 10
2.647371018783907
 20
-8.713445925706738
 30
0.0
 10
2.513844846640946
 20
-8.74202721123271
 30
0.0
 10
2.493216781985888
 20
-8.720916485001466
 30
0.0
  0
SPLINE
  5
7E
330
1F
100
AcDbEntity
  8
0
  6
Continuous
 62
     7
370
    25
100
AcDbSpline
210
0.0
220
0.0
230
1.0
 70
    11
 71
     3
 72
   181
 73
   177
 74
     0
 42
0.000000001
 43
0.00000001
 40
0.0
 40
0.0
 40
0.0
 40
0.0
 40
0.0022036966694034
 40
0.0069600198497358
 40
0.0113227795792492
 40
0.0203512253057988
 40
0.0310554023702439
 40
0.0464925576820888
 40
0.0613454683142721
 40
0.0760009202777749
 40
0.0836611579759374
 40
0.0885488343019043
 40
0.0951722416727343
 40
0.1000267602729678
 40
0.1049913263573745
 40
0.1178892855807963
 40
0.1269017670349385
 40
0.1314547362674514
 40
0.1338801254036916
 40
0.1367348767402219
 40
0.1393615019403995
 40
0.1443013894221481
 40
0.1497240369873234
 40
0.1570147400013053
 40
0.1627756678701781
 40
0.1689847462805994
 40
0.1746048215709428
 40
0.1783435431082982
 40
0.1847547253497858
 40
0.186644000982129
 40
0.1911791743308596
 40
0.1961725865800927
 40
0.2020928302386075
 40
0.2066881919012448
 40
0.2100671332339296
 40
0.2170763971019154
 40
0.2220463551244122
 40
0.2277455576452826
 40
0.2311297749298207
 40
0.2345113024784475
 40
0.2469588746471018
 40
0.2518976043172043
 40
0.2569952246126266
 40
0.2617987600660793
 40
0.2654251299712025
 40
0.2700534318363677
 40
0.2730826240197809
 40
0.2739885406111248
 40
0.2791125977498065
 40
0.2825313181981193
 40
0.2861669752010907
 40
0.2884626513615273
 40
0.2924616121443221
 40
0.2959771158962373
 40
0.2988874001855189
 40
0.3014768041544167
 40
0.3038188022606684
 40
0.3064629592030163
 40
0.309751238441349
 40
0.3166642306110778
 40
0.3202484994249561
 40
0.3240975420669905
 40
0.3287215825279171
 40
0.3321438899633157
 40
0.3354305115264609
 40
0.3415862175123942
 40
0.3490749647397376
 40
0.3631355960464436
 40
0.3679015322024408
 40
0.373596006034302
 40
0.3773076899859741
 40
0.3818160782542924
 40
0.3884003267526536
 40
0.3941559622552439
 40
0.4002304408093511
 40
0.4027598658158203
 40
0.404896521569201
 40
0.4070215895557344
 40
0.4122698142943013
 40
0.4218762554735506
 40
0.4295132965026623
 40
0.4359477253551693
 40
0.4431180198598053
 40
0.4499206055985435
 40
0.4562083584164055
 40
0.4589036530383647
 40
0.4616102465058198
 40
0.4686165805623401
 40
0.4744224601666455
 40
0.4812212276081106
 40
0.4954082812127921
 40
0.5074112383615605
 40
0.5166506094177925
 40
0.5185137884209586
 40
0.5252064461740816
 40
0.5266404626834709
 40
0.5320173712957101
 40
0.5345243124375103
 40
0.5374072554634328
 40
0.543065937700298
 40
0.5492960217931326
 40
0.5552632684436217
 40
0.5606129253814401
 40
0.565575358618533
 40
0.5714323290314814
 40
0.582309725328224
 40
0.5925370410889315
 40
0.5972078847957057
 40
0.60353825284805
 40
0.6080791638740883
 40
0.6128222231367596
 40
0.6219086262883042
 40
0.630103208384987
 40
0.6356903810081739
 40
0.6412108973058102
 40
0.6472054301169997
 40
0.653093780945562
 40
0.6590245395309963
 40
0.6647646566643494
 40
0.6745042028171362
 40
0.6804581023646576
 40
0.6884107933272082
 40
0.6938262223052023
 40
0.7033723619318833
 40
0.7124116548551896
 40
0.7240279198472303
 40
0.7318819328956835
 40
0.7387112572712612
 40
0.7462641690891185
 40
0.7515882414317847
 40
0.754720246641614
 40
0.7584332353681456
 40
0.7630832793715072
 40
0.7671768090176512
 40
0.7704569859552872
 40
0.7772972467256825
 40
0.784514491584475
 40
0.7901632774009598
 40
0.7956347166450598
 40
0.7990190654911614
 40
0.8009491642669462
 40
0.8148103630784475
 40
0.8257667463663868
 40
0.8302466922861965
 40
0.8355523529535452
 40
0.843098141899543
 40
0.8459556457127814
 40
0.8499521042149294
 40
0.8532876320998987
 40
0.856957339757497
 40
0.8604829082240483
 40
0.8636822332714824
 40
0.8672883927696623
 40
0.8711097842886141
 40
0.8754926627842025
 40
0.8793307944574393
 40
0.8818606577018715
 40
0.8870455590052756
 40
0.889312824473474
 40
0.8928161812182425
 40
0.8969181870106264
 40
0.9021808581503444
 40
0.906808396986019
 40
0.9097788093724608
 40
0.9146242437832983
 40
0.9188722190108961
 40
0.9236908207712716
 40
0.9304413757705963
 40
0.9354956522864473
 40
0.9423871076033742
 40
0.948163784745421
 40
0.9559914154999434
 40
0.9675775802495822
 40
0.980980777730465
 40
0.992608579628554
 40
0.9999999999999998
 40
0.9999999999999998
 40
0.9999999999999998
 40
0.9999999999999998
 10
6.75872055589008
 20
-8.981077979710577
 30
0.0
 10
6.749491119842637
 20
-9.00010010574345
 30
0.0
 10
6.707090507093839
 20
-9.060466152452454
 30
0.0
 10
6.590701608533171
 20
-9.050062141497351
 30
0.0
 10
6.370451855916062
 20
-8.866842634562929
 30
0.0
 10
6.30975945414816
 20
-8.778013912468555
 30
0.0
 10
6.107631137618244
 20
-8.44278259059092
 30
0.0
 10
5.962429281244493
 20
-8.091076511982894
 30
0.0
 10
5.63902693825115
 20
-7.777627860523945
 30
0.0
 10
5.32774321715732
 20
-7.601263138469597
 30
0.0
 10
5.126331937069006
 20
-7.429251488395542
 30
0.0
 10
5.0202003590567
 20
-7.273461245908168
 30
0.0
 10
5.005674794481886
 20
-7.106138975392993
 30
0.0
 10
5.061445362042566
 20
-6.956059920705446
 30
0.0
 10
5.082587622117681
 20
-6.738027530269461
 30
0.0
 10
5.050852031819833
 20
-6.459494350734082
 30
0.0
 10
4.868238737109624
 20
-6.278239479124989
 30
0.0
 10
4.730484256293108
 20
-6.181994455017918
 30
0.0
 10
4.648844133415162
 20
-6.180078880414134
 30
0.0
 10
4.517668963164749
 20
-6.17250608707778
 30
0.0
 10
4.671424774971715
 20
-6.226207619020109
 30
0.0
 10
4.748374991439814
 20
-6.289032628033337
 30
0.0
 10
4.881335955752276
 20
-6.413615645351448
 30
0.0
 10
4.944818670094102
 20
-6.585058487594297
 30
0.0
 10
4.960958199860375
 20
-6.769119288107823
 30
0.0
 10
4.961822960432805
 20
-6.946031199059822
 30
0.0
 10
4.853609142860759
 20
-7.069797260177723
 30
0.0
 10
4.743026058406501
 20
-7.147701968049778
 30
0.0
 10
4.549632811938174
 20
-7.19692748173743
 30
0.0
 10
4.568165221629269
 20
-7.056004181004121
 30
0.0
 10
4.552082390866595
 20
-6.951506208353948
 30
0.0
 10
4.471602787442832
 20
-6.811803266965194
 30
0.0
 10
4.409152442610283
 20
-6.716966663060577
 30
0.0
 10
4.265438050557631
 20
-6.532377606159207
 30
0.0
 10
4.323859936717906
 20
-6.744552857281605
 30
0.0
 10
4.379987032065478
 20
-6.847742239539653
 30
0.0
 10
4.424439306220099
 20
-7.022181981181467
 30
0.0
 10
4.436916131873579
 20
-7.153451312848449
 30
0.0
 10
4.377805969934682
 20
-7.283212573917597
 30
0.0
 10
4.168916339549175
 20
-7.246559189981861
 30
0.0
 10
3.999322161272756
 20
-7.164813976159789
 30
0.0
 10
3.877213553255381
 20
-6.977316601373379
 30
0.0
 10
3.816901930896685
 20
-6.849897502712532
 30
0.0
 10
3.773498325455932
 20
-6.719771201443724
 30
0.0
 10
3.826046280426315
 20
-6.594009813730579
 30
0.0
 10
3.915587836484302
 20
-6.535497779798848
 30
0.0
 10
3.97742521627439
 20
-6.46670043630638
 30
0.0
 10
3.978415721623432
 20
-6.378786970532019
 30
0.0
 10
3.969167589627736
 20
-6.251158855566698
 30
0.0
 10
3.938309724737321
 20
-6.148067621925247
 30
0.0
 10
3.840867872142103
 20
-5.97744793783867
 30
0.0
 10
3.875406401593709
 20
-6.142752265427654
 30
0.0
 10
3.872586768722572
 20
-6.233049234402856
 30
0.0
 10
3.874850949586556
 20
-6.358995224314963
 30
0.0
 10
3.836250232381065
 20
-6.450772112620849
 30
0.0
 10
3.768910367238433
 20
-6.529006422426407
 30
0.0
 10
3.678909479637916
 20
-6.494686820561991
 30
0.0
 10
3.59779858868122
 20
-6.444771345995252
 30
0.0
 10
3.528793725869121
 20
-6.337355046105468
 30
0.0
 10
3.425216597106385
 20
-6.045664437129814
 30
0.0
 10
3.434591385553769
 20
-6.285386175275447
 30
0.0
 10
3.463179627124395
 20
-6.404874593812044
 30
0.0
 10
3.558434558033933
 20
-6.509976405423512
 30
0.0
 10
3.65727361288549
 20
-6.595501778573396
 30
0.0
 10
3.691414474821471
 20
-6.741954457658805
 30
0.0
 10
3.750919399338695
 20
-6.921732415514743
 30
0.0
 10
3.890445923789517
 20
-7.206358665669382
 30
0.0
 10
4.160412492093776
 20
-7.419262532206865
 30
0.0
 10
4.442879520267273
 20
-7.389996360214501
 30
0.0
 10
4.594090171026155
 20
-7.34451070238029
 30
0.0
 10
4.741491058225553
 20
-7.267043918370957
 30
0.0
 10
4.909920226500809
 20
-7.348518600932788
 30
0.0
 10
5.021658502013227
 20
-7.500871687981135
 30
0.0
 10
5.17715585773942
 20
-7.641830843692214
 30
0.0
 10
5.316663514046152
 20
-7.728054694823696
 30
0.0
 10
5.397387736434271
 20
-7.819152841472738
 30
0.0
 10
5.421289714186326
 20
-7.900542101794436
 30
0.0
 10
5.349407898795518
 20
-7.993166735069325
 30
0.0
 10
5.166649629516443
 20
-8.062165997022989
 30
0.0
 10
4.918899158649496
 20
-8.116089502448242
 30
0.0
 10
4.659001607495555
 20
-8.178781494901406
 30
0.0
 10
4.423577370324874
 20
-8.234880742277653
 30
0.0
 10
4.188963987907204
 20
-8.203045680908744
 30
0.0
 10
3.979844510424702
 20
-8.106081166707598
 30
0.0
 10
3.829690706125003
 20
-8.008742388250209
 30
0.0
 10
3.730477863727556
 20
-7.91991200703495
 30
0.0
 10
3.656778116407294
 20
-7.798426410679234
 30
0.0
 10
3.61538747278212
 20
-7.626416258032656
 30
0.0
 10
3.548487681958714
 20
-7.414568405796915
 30
0.0
 10
3.398192343871999
 20
-7.149423952485589
 30
0.0
 10
3.179402152224519
 20
-6.848960725896905
 30
0.0
 10
2.949453809178843
 20
-6.516154799794398
 30
0.0
 10
2.720085455059288
 20
-6.372546169771016
 30
0.0
 10
2.561987365958621
 20
-6.259520554867215
 30
0.0
 10
2.464001627354879
 20
-6.199738145833481
 30
0.0
 10
2.312715824421551
 20
-6.134596265060487
 30
0.0
 10
2.307989449151188
 20
-6.127299027015803
 30
0.0
 10
2.328864768069641
 20
-6.025599914486572
 30
0.0
 10
2.3583794795556
 20
-5.936465714538885
 30
0.0
 10
2.479244554248177
 20
-5.872096408336321
 30
0.0
 10
2.620904590366381
 20
-5.821351246055743
 30
0.0
 10
2.731138998548137
 20
-5.718508624048903
 30
0.0
 10
2.834139143101428
 20
-5.618917385354112
 30
0.0
 10
2.975546517308334
 20
-5.603003731451912
 30
0.0
 10
3.15544037042392
 20
-5.567389975840677
 30
0.0
 10
3.384095287579274
 20
-5.560509522914757
 30
0.0
 10
3.60903924492071
 20
-5.543570439041315
 30
0.0
 10
3.765074169785011
 20
-5.445694123001406
 30
0.0
 10
3.895568699799141
 20
-5.425091046934327
 30
0.0
 10
4.021492786395251
 20
-5.361126630687435
 30
0.0
 10
4.173887631127497
 20
-5.429440265284547
 30
0.0
 10
4.341655614132883
 20
-5.500728100684596
 30
0.0
 10
4.535849569860242
 20
-5.543325395562436
 30
0.0
 10
4.699928798638815
 20
-5.531375753287541
 30
0.0
 10
4.84446026624666
 20
-5.500131168282076
 30
0.0
 10
4.990688327998053
 20
-5.541755180528804
 30
0.0
 10
5.124736158247457
 20
-5.621830238181563
 30
0.0
 10
5.197747010851619
 20
-5.755562599603604
 30
0.0
 10
5.32890035902428
 20
-5.886524510015736
 30
0.0
 10
5.509694577321616
 20
-5.944072152184005
 30
0.0
 10
5.719258719767848
 20
-5.935700083444486
 30
0.0
 10
5.840604079075995
 20
-6.066892168527348
 30
0.0
 10
5.967887079875257
 20
-6.211016220626161
 30
0.0
 10
6.056212248767191
 20
-6.400088973365158
 30
0.0
 10
6.124059352009652
 20
-6.647199514643807
 30
0.0
 10
6.148812905602816
 20
-6.89249918913018
 30
0.0
 10
6.236063113822392
 20
-7.095704909427308
 30
0.0
 10
6.333201218498253
 20
-7.273164765273664
 30
0.0
 10
6.346103367435445
 20
-7.400044896502122
 30
0.0
 10
6.469202780780534
 20
-7.614732955659245
 30
0.0
 10
6.35153084378531
 20
-7.515803268252649
 30
0.0
 10
6.273822022623553
 20
-7.479775912164667
 30
0.0
 10
6.194921023259194
 20
-7.402646841012049
 30
0.0
 10
6.130889478901494
 20
-7.317341336832652
 30
0.0
 10
6.136760431188616
 20
-7.19254587965614
 30
0.0
 10
6.112912451825959
 20
-7.048092224581857
 30
0.0
 10
6.082179319138581
 20
-6.882327206625726
 30
0.0
 10
5.967250714491956
 20
-6.75173459553047
 30
0.0
 10
5.872510051757818
 20
-6.728075919596649
 30
0.0
 10
5.711395625583852
 20
-6.728645552997663
 30
0.0
 10
5.91396791061779
 20
-6.828712357460805
 30
0.0
 10
6.003498122978257
 20
-6.94284353633424
 30
0.0
 10
6.065102801949986
 20
-7.222723010694035
 30
0.0
 10
5.930963287025221
 20
-7.361650322782348
 30
0.0
 10
5.77927760932952
 20
-7.371762133699559
 30
0.0
 10
5.63641186565129
 20
-7.349839354330414
 30
0.0
 10
5.607613229616124
 20
-7.2203674668188
 30
0.0
 10
5.599928822645549
 20
-7.140435275826507
 30
0.0
 10
5.594348844893086
 20
-7.030871633555898
 30
0.0
 10
5.576962077921314
 20
-7.003247933628071
 30
0.0
 10
5.539063688549606
 20
-6.982709289568306
 30
0.0
 10
5.536812800954326
 20
-7.097094374061161
 30
0.0
 10
5.524420456171113
 20
-7.177680622929081
 30
0.0
 10
5.521895937771587
 20
-7.286469279596852
 30
0.0
 10
5.428106354342581
 20
-7.353176993975263
 30
0.0
 10
5.328381348134002
 20
-7.354687860857099
 30
0.0
 10
5.252240338446619
 20
-7.299916416055895
 30
0.0
 10
5.216973371651614
 20
-7.138000055930044
 30
0.0
 10
5.171600207450058
 20
-7.260074399052965
 30
0.0
 10
5.202805395599058
 20
-7.335629091649009
 30
0.0
 10
5.27183939250858
 20
-7.425901550315594
 30
0.0
 10
5.398788396655867
 20
-7.461666493645957
 30
0.0
 10
5.50225890170065
 20
-7.413341382950034
 30
0.0
 10
5.609444591296051
 20
-7.428744925809078
 30
0.0
 10
5.707037457926859
 20
-7.457497231072102
 30
0.0
 10
5.825544043898209
 20
-7.476657356817593
 30
0.0
 10
5.960675588419613
 20
-7.43588009067568
 30
0.0
 10
6.077431379653793
 20
-7.41111000600071
 30
0.0
 10
6.193457118470448
 20
-7.545498991951586
 30
0.0
 10
6.308268295482637
 20
-7.634699277294628
 30
0.0
 10
6.477210523922908
 20
-7.707565182945378
 30
0.0
 10
6.551129729006762
 20
-7.923496449368693
 30
0.0
 10
6.675639720294673
 20
-8.170420803716567
 30
0.0
 10
6.693900528727838
 20
-8.489006770761794
 30
0.0
 10
6.747880557219494
 20
-8.755740764219064
 30
0.0
 10
6.789677013085478
 20
-8.91727585493555
 30
0.0
 10
6.75872055589008
 20
-8.981077979710577
 30
0.0
  0
SPLINE
  5
7F
330
1F
100
AcDbEntity
  8
0
  6
Continuous
 62
     7
370
    25
100
AcDbSpline
210
0.0
220
0.0
230
1.0
 70
    11
 71
     3
 72
    27
 73
    23
 74
     0
 42
0.000000001
 43
0.00000001
 40
0.0
 40
0.0
 40
0.0
 40
0.0
 40
0.0278291822401042
 40
0.0681203448587923
 40
0.1189190735435232
 40
0.2086013572374109
 40
0.2893389212973965
 40
0.3771834669346948
 40
0.4370878803924229
 40
0.5002993503099052
 40
0.5685719731639897
 40
0.6358417709428944
 40
0.7076125708419441
 40
0.7328683274957352
 40
0.7571652556069106
 40
0.7935278428371799
 40
0.8287668347673217
 40
0.8791433048912374
 40
0.9111202827472348
 40
0.9424290171224888
 40
0.9734350351216408
 40
1.0
 40
1.0
 40
1.0
 40
1.0
 10
7.648489874824596
 20
-9.514413406157901
 30
0.0
 10
7.620797705190999
 20
-9.517025183117486
 30
0.0
 10
7.542516764454679
 20
-9.503961280704827
 30
0.0
 10
7.572486301237021
 20
-9.364597331709493
 30
0.0
 10
7.559285860668542
 20
-9.2088496888342
 30
0.0
 10
7.5629256898712
 20
-8.988073280513678
 30
0.0
 10
7.707574811043555
 20
-8.786083491095901
 30
0.0
 10
7.883354562125609
 20
-8.65055163075696
 30
0.0
 10
8.089270982682137
 20
-8.63198774689408
 30
0.0
 10
8.25903608784432
 20
-8.727241787503585
 30
0.0
 10
8.324488334616525
 20
-8.90796965508496
 30
0.0
 10
8.372131961999772
 20
-9.100749189118666
 30
0.0
 10
8.367889857030807
 20
-9.23974962415502
 30
0.0
 10
8.378714974645305
 20
-9.378847560964633
 30
0.0
 10
8.2794366737586
 20
-9.379183733973456
 30
0.0
 10
8.20212014814506
 20
-9.412134979216153
 30
0.0
 10
8.084575655127544
 20
-9.43292517196438
 30
0.0
 10
7.979884372036185
 20
-9.386825148584382
 30
0.0
 10
7.870746651364967
 20
-9.400976558520114
 30
0.0
 10
7.792637660849178
 20
-9.443312117122707
 30
0.0
 10
7.72374402971214
 20
-9.490820395979593
 30
0.0
 10
7.674924051272005
 20
-9.51192027637051
 30
0.0
 10
7.648489874824596
 20
-9.514413406157901
 30
0.0
  0
SPLINE
  5
80
330
1F
100
AcDbEntity
  8
0
  6
Continuous
 62
     7
370
    25
100
AcDbSpline
210
0.0
220
0.0
230
1.0
 70
    11
 71
     3
 72
    36
 73
    32
 74
     0
 42
0.000000001
 43
0.00000001
 40
0.0
 40
0.0
 40
0.0
 40
0.0
 40
0.0128239878310008
 40
0.0261746155456097
 40
0.0369601936900259
 40
0.0540011464043141
 40
0.075204814020926
 40
0.0998879365773898
 40
0.1365806231157922
 40
0.2030630244614247
 40
0.2515099227924224
 40
0.289665938972097
 40
0.3483120919794933
 40
0.3828925540192489
 40
0.4099165640578672
 40
0.4378659708042678
 40
0.4890041741655781
 40
0.5654449827068443
 40
0.5882837112723198
 40
0.616183854298073
 40
0.6527148378215274
 40
0.6955220493650757
 40
0.7305472187560591
 40
0.7525172401029849
 40
0.7888208187891961
 40
0.8239089104670415
 40
0.8517659987663377
 40
0.8904402235671653
 40
0.9321794860900807
 40
0.9683624257690342
 40
1.0
 40
1.0
 40
1.0
 40
1.0
 10
8.389938616831138
 20
-5.574118541206966
 30
0.0
 10
8.38630229719791
 20
-5.606246238704493
 30
0.0
 10
8.380416314416808
 20
-5.686665274709435
 30
0.0
 10
8.246427429288092
 20
-5.719101181389731
 30
0.0
 10
8.199418853333162
 20
-5.600461170357555
 30
0.0
 10
8.205486454262171
 20
-5.474947508113373
 30
0.0
 10
8.18662926834543
 20
-5.307216139957454
 30
0.0
 10
8.147416673307143
 20
-5.091969654492319
 30
0.0
 10
8.012203864812953
 20
-4.778165650454612
 30
0.0
 10
7.764500528842318
 20
-4.452225709881374
 30
0.0
 10
7.435645853041226
 20
-4.211605869607798
 30
0.0
 10
7.161809460616001
 20
-3.942884458766458
 30
0.0
 10
6.940318872619643
 20
-3.6614304651687
 30
0.0
 10
6.900895388746007
 20
-3.324247349899613
 30
0.0
 10
7.023324846603561
 20
-3.111262829258135
 30
0.0
 10
7.212487010658889
 20
-2.906198752258541
 30
0.0
 10
7.600693521109036
 20
-3.179433230904879
 30
0.0
 10
7.52836361516112
 20
-3.570292807101762
 30
0.0
 10
7.651436368452325
 20
-3.891976852403056
 30
0.0
 10
7.803521752136414
 20
-4.071255934400281
 30
0.0
 10
8.07448345183227
 20
-4.200872869388839
 30
0.0
 10
8.310890043159201
 20
-4.28746335577462
 30
0.0
 10
8.302666979700943
 20
-4.472904411077516
 30
0.0
 10
8.385396400182094
 20
-4.608490391475716
 30
0.0
 10
8.506699883557227
 20
-4.708047710715981
 30
0.0
 10
8.641130379712807
 20
-4.807185705375262
 30
0.0
 10
8.730908664543081
 20
-4.955981231003321
 30
0.0
 10
8.727711894206147
 20
-5.156847189834473
 30
0.0
 10
8.581327356330467
 20
-5.292054814765045
 30
0.0
 10
8.427959144113398
 20
-5.419837818550866
 30
0.0
 10
8.39890964314837
 20
-5.494857516645563
 30
0.0
 10
8.389938616831138
 20
-5.574118541206966
 30
0.0
  0
SPLINE
  5
81
330
1F
100
AcDbEntity
  8
0
  6
Continuous
 62
     7
370
    25
100
AcDbSpline
210
0.0
220
0.0
230
1.0
 70
    11
 71
     3
 72
    33
 73
    29
 74
     0
 42
0.000000001
 43
0.00000001
 40
0.0
 40
0.0
 40
0.0
 40
0.0
 40
0.0432053644981805
 40
0.0967844958775448
 40
0.121410269562153
 40
0.1491434236438976
 40
0.2071137974847628
 40
0.244594956836607
 40
0.2781546388038597
 40
0.3021568371288938
 40
0.3314454608094493
 40
0.3616201445615728
 40
0.3882881816951267
 40
0.4224960471411889
 40
0.4618130683582155
 40
0.5152302572173619
 40
0.5841652774603366
 40
0.6290462771381158
 40
0.6678712591590725
 40
0.7046013042547591
 40
0.7425859284823971
 40
0.7662774808622993
 40
0.7766685357326343
 40
0.7989166403739096
 40
0.8223400533993394
 40
0.8520881895758073
 40
0.9525858776356064
 40
1.0
 40
1.0
 40
1.0
 40
1.0
 10
11.33013221799847
 20
-5.678932276629851
 30
0.0
 10
11.3390335715057
 20
-5.710367215941489
 30
0.0
 10
11.21102842202252
 20
-5.834944093445878
 30
0.0
 10
11.121869615211
 20
-5.924528357975039
 30
0.0
 10
11.00441104846935
 20
-6.002221168307367
 30
0.0
 10
10.86088486024135
 20
-5.986262639087978
 30
0.0
 10
10.71908983036693
 20
-5.956593109516824
 30
0.0
 10
10.53486349388234
 20
-5.965134301908563
 30
0.0
 10
10.48816943608799
 20
-6.088596896830577
 30
0.0
 10
10.41262640846916
 20
-6.167116783796872
 30
0.0
 10
10.32619439891216
 20
-6.22362696458772
 30
0.0
 10
10.22085670550728
 20
-6.272654645701344
 30
0.0
 10
10.10378504832958
 20
-6.199526736549911
 30
0.0
 10
10.12874403964427
 20
-6.058445052938103
 30
0.0
 10
10.19179072944411
 20
-5.915699526300471
 30
0.0
 10
10.34701923965358
 20
-5.775725300357377
 30
0.0
 10
10.54375646593844
 20
-5.687918585875058
 30
0.0
 10
10.63460793092096
 20
-5.504144092965523
 30
0.0
 10
10.62991435657318
 20
-5.356051497776578
 30
0.0
 10
10.62868240800567
 20
-5.200858695022813
 30
0.0
 10
10.73841068274339
 20
-5.12958622334157
 30
0.0
 10
10.7859627614327
 20
-5.041629372882597
 30
0.0
 10
10.86528721392169
 20
-5.040856550549627
 30
0.0
 10
10.90126646602814
 20
-5.112124268755464
 30
0.0
 10
10.95699210907541
 20
-5.18709239526686
 30
0.0
 10
10.97089950321416
 20
-5.38260654344339
 30
0.0
 10
11.04176694875372
 20
-5.627651288854162
 30
0.0
 10
11.32036375824115
 20
-5.644435170162852
 30
0.0
 10
11.33013221799847
 20
-5.678932276629851
 30
0.0
  0
SPLINE
  5
82
330
1F
100
AcDbEntity
  8
0
  6
Continuous
 62
     7
370
    25
100
AcDbSpline
210
0.0
220
0.0
230
1.0
 70
    11
 71
     3
 72
    31
 73
    27
 74
     0
 42
0.000000001
 43
0.00000001
 40
0.0
 40
0.0
 40
0.0
 40
0.0
 40
0.0297048920724556
 40
0.0937257535956248
 40
0.1641011089793016
 40
0.2165826812818457
 40
0.2580163577333507
 40
0.2887706235405436
 40
0.3206203765304927
 40
0.3579927606156288
 40
0.3883663854646289
 40
0.4082470059893981
 40
0.4363979803764081
 40
0.4735271892875625
 40
0.5044002500319412
 40
0.5541929849485699
 40
0.6188690302667335
 40
0.6491270970233665
 40
0.6870352492007858
 40
0.7370061136560806
 40
0.773629559686797
 40
0.7998907888428404
 40
0.8238191109952444
 40
0.9087986686790782
 40
0.9612364511573749
 40
0.9999999999999999
 40
0.9999999999999999
 40
0.9999999999999999
 40
0.9999999999999999
 10
11.75167726353019
 20
-4.3472259351602
 30
0.0
 10
11.74248546211478
 20
-4.37173940548479
 30
0.0
 10
11.61277320255823
 20
-4.423661085531272
 30
0.0
 10
11.54392465273188
 20
-4.605253864300507
 30
0.0
 10
11.34034186679161
 20
-4.704974170122353
 30
0.0
 10
11.16133087783058
 20
-4.792793165041167
 30
0.0
 10
11.02439561119096
 20
-4.766745894721376
 30
0.0
 10
10.87934796077221
 20
-4.729344304080126
 30
0.0
 10
10.92668454360863
 20
-4.592960533340427
 30
0.0
 10
10.92511271009828
 20
-4.480380099909454
 30
0.0
 10
10.85610661555454
 20
-4.387870610520935
 30
0.0
 10
10.91030844571545
 20
-4.292662537024754
 30
0.0
 10
11.01576093259488
 20
-4.302308515753237
 30
0.0
 10
11.14264690017777
 20
-4.275839527193034
 30
0.0
 10
11.16032078115202
 20
-4.117887269351811
 30
0.0
 10
11.07822989206029
 20
-3.972033031579311
 30
0.0
 10
11.09237363582646
 20
-3.784464800085705
 30
0.0
 10
11.1725304259465
 20
-3.66111057604369
 30
0.0
 10
11.21216823657379
 20
-3.491415641399471
 30
0.0
 10
11.38941431116364
 20
-3.585833030694197
 30
0.0
 10
11.50161215944444
 20
-3.613979281708472
 30
0.0
 10
11.60104629469456
 20
-3.677622844444842
 30
0.0
 10
11.56763283695334
 20
-3.846122316103669
 30
0.0
 10
11.58478352028222
 20
-4.038063091446548
 30
0.0
 10
11.66401093993839
 20
-4.207691059625443
 30
0.0
 10
11.76367215118201
 20
-4.315236958330671
 30
0.0
 10
11.75167726353019
 20
-4.3472259351602
 30
0.0
  0
SPLINE
  5
83
330
1F
100
AcDbEntity
  8
0
  6
Continuous
 62
     7
370
    25
100
AcDbSpline
210
0.0
220
0.0
230
1.0
 70
     8
 71
     3
 72
    25
 73
    21
 74
     0
 42
0.000000001
 43
0.00000001
 40
0.0
 40
0.0
 40
0.0
 40
0.0
 40
0.0312245249092839
 40
0.0968942503241982
 40
0.1688744675593614
 40
0.226253549607783
 40
0.2907700033490058
 40
0.3256802722394166
 40
0.3569117724236701
 40
0.4249468280272851
 40
0.4570500325133914
 40
0.4951853547271438
 40
0.539638134421197
 40
0.578534352810686
 40
0.6271945072669826
 40
0.6853937544790979
 40
0.7575927242325187
 40
0.8319859554390081
 40
0.9036334800406686
 40
1.0
 40
1.0
 40
1.0
 40
1.0
 10
11.25703838873952
 20
-3.32690995902725
 30
0.0
 10
11.23931619055719
 20
-3.35740958248164
 30
0.0
 10
11.14753658630458
 20
-3.313306098691483
 30
0.0
 10
11.04903806968433
 20
-3.219046119663906
 30
0.0
 10
10.91789512363791
 20
-3.093977584757392
 30
0.0
 10
10.88767593466216
 20
-2.925524377593136
 30
0.0
 10
10.78313303071594
 20
-2.809146511450788
 30
0.0
 10
10.66447746092642
 20
-2.808063114490567
 30
0.0
 10
10.55139092904074
 20
-2.809389069748876
 30
0.0
 10
10.41654144667034
 20
-2.755645902182033
 30
0.0
 10
10.41325701976873
 20
-2.625214338091399
 30
0.0
 10
10.42642012408298
 20
-2.532077322513888
 30
0.0
 10
10.44252194471974
 20
-2.407835559116499
 30
0.0
 10
10.58617489421512
 20
-2.395089528228309
 30
0.0
 10
10.67112111348767
 20
-2.498676805832936
 30
0.0
 10
10.81873907378823
 20
-2.558339381622615
 30
0.0
 10
10.98651292787952
 20
-2.614328407262414
 30
0.0
 10
11.1682096275369
 20
-2.685868356195307
 30
0.0
 10
11.30218659369238
 20
-2.862715848375812
 30
0.0
 10
11.47628875236791
 20
-2.866360699300879
 30
0.0
 10
11.50917387447974
 20
-2.957086701101468
 30
0.0
  0
LINE
  5
84
330
1F
100
AcDbEntity
  8
0
  6
Continuous
 62
     7
370
    25
100
AcDbLine
 10
11.5091738745
 20
-2.9570867011
 30
0.0
 11
11.2570383887
 21
-3.326909959
 31
0.0
  0
SPLINE
  5
85
330
1F
100
AcDbEntity
  8
0
  6
Continuous
 62
     7
370
    25
100
AcDbSpline
210
0.0
220
0.0
230
1.0
 70
    11
 71
     3
 72
   148
 73
   144
 74
     0
 42
0.000000001
 43
0.00000001
 40
0.0
 40
0.0
 40
0.0
 40
0.0
 40
0.0055526579977447
 40
0.0093353459548293
 40
0.0156094029547254
 40
0.0269952909416033
 40
0.0420972543722305
 40
0.0583296043730993
 40
0.0801186102288486
 40
0.1378856255119273
 40
0.1450521106682713
 40
0.1517834617922887
 40
0.1591626310123197
 40
0.1646111852424251
 40
0.170764068422909
 40
0.1776113385292832
 40
0.1809435255127826
 40
0.1860144567630541
 40
0.1958210445623754
 40
0.2009421274766384
 40
0.2064661497702426
 40
0.2105759882803628
 40
0.2139952590731855
 40
0.2161324869988244
 40
0.2302783140655973
 40
0.2347791324521639
 40
0.2393621803379335
 40
0.2427131987126214
 40
0.2445801920139417
 40
0.248375617179592
 40
0.252446550928069
 40
0.2554683425345728
 40
0.2588982120737485
 40
0.2633792202077496
 40
0.2686438246992442
 40
0.2736529061401418
 40
0.2790282198853034
 40
0.2843802911878437
 40
0.2889543316509391
 40
0.2939242833281068
 40
0.3006831790123823
 40
0.3063521024442638
 40
0.3114596769457461
 40
0.3155914870729412
 40
0.3211085455963045
 40
0.3250396597491892
 40
0.3278100328845621
 40
0.3366710091975962
 40
0.3427746699748229
 40
0.3488203186248399
 40
0.3536498047599551
 40
0.3575062718579009
 40
0.3622466289509702
 40
0.3639029056224377
 40
0.3661299205985258
 40
0.3694174973328587
 40
0.3765152394530097
 40
0.3848337316164135
 40
0.3899272568078134
 40
0.3943757266786841
 40
0.4010512784243604
 40
0.407321296050605
 40
0.4106410425597897
 40
0.4147359098508504
 40
0.4201414065557198
 40
0.4258242614637566
 40
0.4345690669143285
 40
0.4416547935688597
 40
0.4481728881542984
 40
0.4548889604715877
 40
0.4584391825174916
 40
0.4623885491606257
 40
0.4679505727948328
 40
0.4722106649828051
 40
0.4789065094422981
 40
0.4863901264112567
 40
0.4918959594006568
 40
0.4962486182621003
 40
0.5038634685905845
 40
0.5086770488432713
 40
0.5138871158041312
 40
0.520751429496654
 40
0.528890179081523
 40
0.5378058737760688
 40
0.5432794713256673
 40
0.5487870531007447
 40
0.5556104519766963
 40
0.563516471775003
 40
0.5697398770926141
 40
0.5778262151631344
 40
0.5872570582150867
 40
0.5971019297546677
 40
0.6081632183532547
 40
0.6216029616668954
 40
0.6321866059268696
 40
0.6474252103387294
 40
0.6599974845870171
 40
0.6637579915877156
 40
0.6914130712570923
 40
0.6955461822774702
 40
0.7040287774010477
 40
0.705823433342907
 40
0.712432417305615
 40
0.7151534417199069
 40
0.7170092570078032
 40
0.7246221935131559
 40
0.7293906676572869
 40
0.7325722822674966
 40
0.7368709193534919
 40
0.7442945660460865
 40
0.7519364839127358
 40
0.7784205091190483
 40
0.788227749229221
 40
0.7949046150961111
 40
0.7967895942987924
 40
0.7997124492682709
 40
0.8072914434813752
 40
0.813306599391018
 40
0.8203440075614701
 40
0.8288277008737654
 40
0.8335097812633916
 40
0.8359753033490901
 40
0.8388211252135577
 40
0.842999918995799
 40
0.8465054809838712
 40
0.8504237219501228
 40
0.8561059179237024
 40
0.8610778262403617
 40
0.8661777208972418
 40
0.8722594637625404
 40
0.8833031505193438
 40
0.9126945368695193
 40
0.9306522968617119
 40
0.9410060023296125
 40
0.9552046574026714
 40
0.9656398189096393
 40
0.9726753524309955
 40
0.9789608421040742
 40
0.9848041911233947
 40
0.9866024227456158
 40
0.9957941877062116
 40
0.9972488424936575
 40
0.9999999999999999
 40
0.9999999999999999
 40
0.9999999999999999
 40
0.9999999999999999
 10
8.449060562022268
 20
-6.664426490676806
 30
0.0
 10
8.402765549904933
 20
-6.676310935940454
 30
0.0
 10
8.305378970270782
 20
-6.697223279887375
 30
0.0
 10
8.280928219051178
 20
-6.529969946624696
 30
0.0
 10
8.487094476592231
 20
-6.487974056274735
 30
0.0
 10
8.701903045964919
 20
-6.371153632074
 30
0.0
 10
8.977189236307767
 20
-6.148669004795777
 30
0.0
 10
9.226947434133441
 20
-5.821467745379683
 30
0.0
 10
9.516881719982216
 20
-4.954012568510099
 30
0.0
 10
9.406076870640787
 20
-5.199132375720113
 30
0.0
 10
9.407916380016932
 20
-3.721777931224527
 30
0.0
 10
9.585058475203203
 20
-3.723987500845259
 30
0.0
 10
9.740499529245454
 20
-3.664994393658755
 30
0.0
 10
9.818677567254754
 20
-3.52771657007134
 30
0.0
 10
9.89624806340205
 20
-3.413445467605527
 30
0.0
 10
10.01338053863191
 20
-3.301161479113659
 30
0.0
 10
10.12684947329091
 20
-3.361587086088729
 30
0.0
 10
10.27088193584917
 20
-3.438032607676713
 30
0.0
 10
10.17995074715788
 20
-3.631667860437324
 30
0.0
 10
10.18283226048889
 20
-3.780034456367434
 30
0.0
 10
10.19916955084928
 20
-3.905827146628302
 30
0.0
 10
10.22846849214905
 20
-3.984764456349019
 30
0.0
 10
10.31781051808629
 20
-4.088104594339438
 30
0.0
 10
10.31252760467087
 20
-3.818744400621178
 30
0.0
 10
10.30110408043655
 20
-3.77816964595961
 30
0.0
 10
10.3225100319767
 20
-3.552937841441237
 30
0.0
 10
10.39564740214025
 20
-3.468221692544422
 30
0.0
 10
10.48613781578504
 20
-3.48794526183541
 30
0.0
 10
10.52846670729759
 20
-3.547410919312492
 30
0.0
 10
10.55699512705161
 20
-3.623958732369288
 30
0.0
 10
10.5745758962447
 20
-3.694066430893793
 30
0.0
 10
10.59457171353391
 20
-3.820724361049979
 30
0.0
 10
10.66411281452055
 20
-3.694784346501096
 30
0.0
 10
10.64099551884072
 20
-3.605102574079216
 30
0.0
 10
10.63650592324268
 20
-3.476974029302223
 30
0.0
 10
10.5322970517422
 20
-3.390016914966556
 30
0.0
 10
10.4105098138515
 20
-3.359124780698308
 30
0.0
 10
10.30024349624678
 20
-3.305966696467887
 30
0.0
 10
10.20206418478776
 20
-3.232612834554797
 30
0.0
 10
10.07508280667182
 20
-3.218133331256354
 30
0.0
 10
9.920818372008913
 20
-3.153695285921416
 30
0.0
 10
9.940447828876945
 20
-2.997832461292798
 30
0.0
 10
9.937362610450368
 20
-2.877298813264884
 30
0.0
 10
9.861480499780903
 20
-2.780361491613098
 30
0.0
 10
9.781719899667461
 20
-2.710870593220045
 30
0.0
 10
9.703036177719708
 20
-2.645455399569107
 30
0.0
 10
9.677879542515702
 20
-2.518869746460759
 30
0.0
 10
9.722376812824677
 20
-2.376696706873055
 30
0.0
 10
9.816322843630715
 20
-2.237972954904581
 30
0.0
 10
9.88899715797389
 20
-2.12461917468821
 30
0.0
 10
9.93551852703198
 20
-2.011578699848803
 30
0.0
 10
9.970565806948423
 20
-1.924541255303017
 30
0.0
 10
9.974127249824539
 20
-1.791504172597629
 30
0.0
 10
10.04605163839569
 20
-1.829084968572582
 30
0.0
 10
10.09099471507155
 20
-1.872599676216619
 30
0.0
 10
10.03425856411819
 20
-1.97771216081032
 30
0.0
 10
10.08881121147322
 20
-2.123529023504607
 30
0.0
 10
10.15801875151605
 20
-2.278006780456387
 30
0.0
 10
10.28733363322677
 20
-2.350066281825935
 30
0.0
 10
10.35021947255088
 20
-2.47121994304033
 30
0.0
 10
10.33858359913029
 20
-2.612724038563272
 30
0.0
 10
10.30494320299939
 20
-2.743345201113023
 30
0.0
 10
10.34974157077932
 20
-2.847458361278668
 30
0.0
 10
10.4405642199538
 20
-2.914650106867617
 30
0.0
 10
10.56871311946845
 20
-2.87258975181427
 30
0.0
 10
10.71185002332892
 20
-2.970306801854752
 30
0.0
 10
10.79346014267715
 20
-3.120693632341037
 30
0.0
 10
10.89508755037281
 20
-3.269095940448723
 30
0.0
 10
10.97401038520536
 20
-3.40663166483285
 30
0.0
 10
11.18936819222944
 20
-3.426040644956015
 30
0.0
 10
11.09797075116288
 20
-3.541068411304044
 30
0.0
 10
11.05525810481362
 20
-3.628334735908364
 30
0.0
 10
11.02079234158468
 20
-3.733957011903863
 30
0.0
 10
10.96154040612115
 20
-3.858777757234332
 30
0.0
 10
11.02055344445176
 20
-3.997111973430712
 30
0.0
 10
10.98351226803913
 20
-4.195564910016834
 30
0.0
 10
10.82523950209016
 20
-4.189258144272793
 30
0.0
 10
10.7051670162579
 20
-4.282400190731648
 30
0.0
 10
10.7217954436572
 20
-4.43767960135286
 30
0.0
 10
10.79772098095156
 20
-4.563154691010569
 30
0.0
 10
10.73735047228122
 20
-4.699518522511157
 30
0.0
 10
10.63602743791188
 20
-4.820811158015299
 30
0.0
 10
10.53854020369155
 20
-4.985383689972859
 30
0.0
 10
10.46071377767211
 20
-5.154806494581732
 30
0.0
 10
10.47689867043813
 20
-5.315189998070367
 30
0.0
 10
10.46220705759299
 20
-5.45785463477816
 30
0.0
 10
10.36447563726115
 20
-5.603778485321006
 30
0.0
 10
10.18993748195004
 20
-5.638864396319243
 30
0.0
 10
10.0697890387714
 20
-5.779763584139541
 30
0.0
 10
10.00176010630635
 20
-5.956615405246998
 30
0.0
 10
9.906235739699866
 20
-6.154050467412358
 30
0.0
 10
9.762769838944996
 20
-6.350391639208032
 30
0.0
 10
9.569696306026744
 20
-6.547699910888207
 30
0.0
 10
9.340037393007094
 20
-6.706116639665386
 30
0.0
 10
9.0337700584615
 20
-6.82806196508855
 30
0.0
 10
8.828888057995275
 20
-6.937934475273313
 30
0.0
 10
8.320764665713964
 20
-6.831026622858604
 30
0.0
 10
8.759066631980776
 20
-6.798825683294254
 30
0.0
 10
9.047641695670622
 20
-6.519726564441023
 30
0.0
 10
9.086399463464906
 20
-6.463893462089904
 30
0.0
 10
9.3334311842858
 20
-6.562630747310606
 30
0.0
 10
9.49682233789508
 20
-6.46730747888321
 30
0.0
 10
9.58191012748342
 20
-6.427630223548596
 30
0.0
 10
9.588146161803731
 20
-6.298381025389414
 30
0.0
 10
9.471789897905865
 20
-6.33578620273709
 30
0.0
 10
9.419840421713326
 20
-6.442784454955094
 30
0.0
 10
9.269541995706996
 20
-6.426950894838374
 30
0.0
 10
9.217278565968899
 20
-6.32985372234016
 30
0.0
 10
9.281195267497948
 20
-6.216542166781655
 30
0.0
 10
9.386860725918629
 20
-6.110112717925293
 30
0.0
 10
9.577425379558663
 20
-5.846030931077672
 30
0.0
 10
9.770967238281983
 20
-5.481587141017805
 30
0.0
 10
9.992342571171086
 20
-5.368073897491906
 30
0.0
 10
10.2464210297327
 20
-5.236947492800002
 30
0.0
 10
10.13209138897004
 20
-5.242409151607588
 30
0.0
 10
10.03655018837207
 20
-5.256186292201473
 30
0.0
 10
9.953855490633973
 20
-5.099507209697413
 30
0.0
 10
9.9930441719725
 20
-4.941365963147421
 30
0.0
 10
10.02416219157812
 20
-4.784548995841669
 30
0.0
 10
10.16577043165792
 20
-4.610229059027986
 30
0.0
 10
10.26512495414778
 20
-4.69769128203693
 30
0.0
 10
10.34052946582481
 20
-4.768159644976238
 30
0.0
 10
10.37760532671369
 20
-4.656697891319514
 30
0.0
 10
10.29307271181889
 20
-4.614102635049908
 30
0.0
 10
10.24457709487043
 20
-4.529084963754987
 30
0.0
 10
10.28544047962368
 20
-4.415249824791182
 30
0.0
 10
10.38450813196549
 20
-4.383212663731444
 30
0.0
 10
10.49912572133922
 20
-4.215874941258623
 30
0.0
 10
10.30854501273442
 20
-4.291413009130112
 30
0.0
 10
10.17404722919762
 20
-4.354758244182426
 30
0.0
 10
9.898216562543972
 20
-4.629698626342712
 30
0.0
 10
9.913767771200854
 20
-5.323479421157249
 30
0.0
 10
9.624057602735881
 20
-5.507639654192397
 30
0.0
 10
9.448876755551934
 20
-5.817092641348143
 30
0.0
 10
9.298420502424392
 20
-6.045370118168139
 30
0.0
 10
9.1134689114614
 20
-6.219015895987907
 30
0.0
 10
9.005422855259496
 20
-6.372009924994584
 30
0.0
 10
8.908888182539071
 20
-6.492989524348816
 30
0.0
 10
8.847944478786378
 20
-6.575018119203879
 30
0.0
 10
8.678253741346666
 20
-6.61506881235116
 30
0.0
 10
8.61333753309266
 20
-6.65260630567353
 30
0.0
 10
8.502699192418172
 20
-6.649744359292657
 30
0.0
 10
8.471998202003798
 20
-6.658538143004558
 30
0.0
 10
8.449060562022268
 20
-6.664426490676806
 30
0.0
  0
SPLINE
  5
86
330
1F
100
AcDbEntity
  8
0
  6
Continuous
 62
     7
370
    25
100
AcDbSpline
210
0.0
220
0.0
230
1.0
 70
    11
 71
     3
 72
    27
 73
    23
 74
     0
 42
0.000000001
 43
0.00000001
 40
0.0
 40
0.0
 40
0.0
 40
0.0
 40
0.0500164905758647
 40
0.0777407277902457
 40
0.1186623806699731
 40
0.1600986779701837
 40
0.2339896800699204
 40
0.2707712867738005
 40
0.3100929804001654
 40
0.366451320121691
 40
0.4214869118167517
 40
0.4786769755939214
 40
0.5348527218780158
 40
0.5712444286425896
 40
0.6003085123566945
 40
0.61542359648373
 40
0.65698512552859
 40
0.7244794279256477
 40
0.8030185040883898
 40
0.9073206269029794
 40
0.9691253685001884
 40
1.0
 40
1.0
 40
1.0
 40
1.0
 10
11.22993187713656
 20
-2.016693725478159
 30
0.0
 10
11.24253308934346
 20
-2.042763011654708
 30
0.0
 10
11.16030867070686
 20
-2.106915426282542
 30
0.0
 10
11.08017634045742
 20
-2.159986810934767
 30
0.0
 10
10.98397329557161
 20
-2.118286515397228
 30
0.0
 10
10.85330778341971
 20
-2.135249964503549
 30
0.0
 10
10.73246011152811
 20
-2.179234165669663
 30
0.0
 10
10.6199834453501
 20
-2.237395236543452
 30
0.0
 10
10.52857932895587
 20
-2.295867359979452
 30
0.0
 10
10.38222324405096
 20
-2.324215203678469
 30
0.0
 10
10.29840158077156
 20
-2.188994132013308
 30
0.0
 10
10.21845964512674
 20
-2.079542152070089
 30
0.0
 10
10.18166536105831
 20
-1.947889991872873
 30
0.0
 10
10.20783080989568
 20
-1.855480220126612
 30
0.0
 10
10.24967392638363
 20
-1.77835902813458
 30
0.0
 10
10.32338451924673
 20
-1.811046200725263
 30
0.0
 10
10.4126162563896
 20
-1.852898450852814
 30
0.0
 10
10.55299207867155
 20
-1.936981209910543
 30
0.0
 10
10.76486830158232
 20
-1.944926653355502
 30
0.0
 10
10.97653825032
 20
-1.962038919612978
 30
0.0
 10
11.12388045377842
 20
-1.969687271897345
 30
0.0
 10
11.22215328693841
 20
-2.000601440815697
 30
0.0
 10
11.22993187713656
 20
-2.016693725478159
 30
0.0
  0
SPLINE
  5
87
330
1F
100
AcDbEntity
  8
0
  6
Continuous
 62
     7
370
    25
100
AcDbSpline
210
0.0
220
0.0
230
1.0
 70
    11
 71
     3
 72
    39
 73
    35
 74
     0
 42
0.000000001
 43
0.00000001
 40
0.0
 40
0.0
 40
0.0
 40
0.0
 40
0.0367572715174509
 40
0.0588508592376826
 40
0.088134151334886
 40
0.1098367642757947
 40
0.1208281627877077
 40
0.1370934875557171
 40
0.1613209239886591
 40
0.197495719200986
 40
0.2406342738400695
 40
0.2687133353311076
 40
0.3102475754921209
 40
0.3440160626298267
 40
0.3848444408742076
 40
0.4286432157193689
 40
0.4657650575730685
 40
0.4918190735593025
 40
0.5312233844887786
 40
0.5786460585914694
 40
0.6033252513497348
 40
0.6275490887536557
 40
0.649723992621188
 40
0.6654571965338791
 40
0.6867914597093695
 40
0.705674500185533
 40
0.7456650078066884
 40
0.784239103021797
 40
0.8254312056249948
 40
0.8637958321161853
 40
0.890081110506067
 40
0.9359034811957081
 40
0.9752984025642494
 40
1.0
 40
1.0
 40
1.0
 40
1.0
 10
9.79384142971319
 20
-2.995238968541108
 30
0.0
 10
9.815342905347208
 20
-3.062673104854273
 30
0.0
 10
9.786264959008292
 20
-3.188951074844472
 30
0.0
 10
9.724400898164442
 20
-3.352638523487265
 30
0.0
 10
9.611906723404948
 20
-3.452893763078203
 30
0.0
 10
9.514877609456079
 20
-3.526415724808145
 30
0.0
 10
9.425506320539615
 20
-3.572076985030136
 30
0.0
 10
9.313418354169299
 20
-3.538855483075706
 30
0.0
 10
9.25112177042368
 20
-3.389346361991957
 30
0.0
 10
9.142134700908574
 20
-3.220660234760815
 30
0.0
 10
9.03258095745056
 20
-3.026423237850114
 30
0.0
 10
9.024693066288187
 20
-2.805462917616983
 30
0.0
 10
8.900974274875235
 20
-2.587734845267747
 30
0.0
 10
9.112839413043744
 20
-2.426074193595143
 30
0.0
 10
9.208627708506379
 20
-2.203519361814721
 30
0.0
 10
9.171621156731952
 20
-1.956161687721945
 30
0.0
 10
9.115956559988508
 20
-1.751464197471008
 30
0.0
 10
9.176175340454478
 20
-1.534298430571965
 30
0.0
 10
9.416197661396218
 20
-1.46936364810198
 30
0.0
 10
9.656658896208318
 20
-1.467618024812123
 30
0.0
 10
9.766086579217372
 20
-1.300121719866046
 30
0.0
 10
9.890458754992558
 20
-1.212699798428108
 30
0.0
 10
9.999443357410131
 20
-1.207860824357431
 30
0.0
 10
10.17105600087237
 20
-1.211883330688084
 30
0.0
 10
10.02622462969845
 20
-1.326667772218101
 30
0.0
 10
9.98672349200291
 20
-1.464838999363995
 30
0.0
 10
9.88067123444815
 20
-1.640465915631556
 30
0.0
 10
9.83840194234795
 20
-1.873889333919362
 30
0.0
 10
9.760593619973077
 20
-2.100440675229997
 30
0.0
 10
9.614097276051195
 20
-2.258949363311735
 30
0.0
 10
9.529873169694287
 20
-2.459395808678483
 30
0.0
 10
9.50156154866467
 20
-2.714078648745607
 30
0.0
 10
9.695418945257202
 20
-2.845734232855707
 30
0.0
 10
9.779392022195717
 20
-2.949921924596633
 30
0.0
 10
9.79384142971319
 20
-2.995238968541108
 30
0.0
  0
SPLINE
  5
88
330
1F
100
AcDbEntity
  8
0
  6
Continuous
 62
     7
370
    25
100
AcDbSpline
210
0.0
220
0.0
230
1.0
 70
    11
 71
     3
 72
    20
 73
    16
 74
     0
 42
0.000000001
 43
0.00000001
 40
0.0
 40
0.0
 40
0.0
 40
0.0
 40
0.0871152379817357
 40
0.2115415999331236
 40
0.3393135024926519
 40
0.4141118806733177
 40
0.451112933754738
 40
0.489194786744872
 40
0.571019589402519
 40
0.6385753914310167
 40
0.70175301531442
 40
0.7930508720133712
 40
0.9068576992986671
 40
0.9795461492373891
 40
1.0
 40
1.0
 40
1.0
 40
1.0
 10
9.6490090106212
 20
-0.6876623385026818
 30
0.0
 10
9.689359859598206
 20
-0.6892958044496827
 30
0.0
 10
9.568744386090838
 20
-0.9077343927007415
 30
0.0
 10
9.467761926767576
 20
-1.020133584128885
 30
0.0
 10
9.36431059181023
 20
-1.22593149580735
 30
0.0
 10
9.29172199227286
 20
-1.338104960361762
 30
0.0
 10
9.225441645909205
 20
-1.43642528188539
 30
0.0
 10
9.132294780155902
 20
-1.348302633840502
 30
0.0
 10
9.117096403491091
 20
-1.235650364352491
 30
0.0
 10
9.122532065676035
 20
-1.09688599801014
 30
0.0
 10
9.202679380809249
 20
-0.9794141935107503
 30
0.0
 10
9.303221995726663
 20
-0.843353634883679
 30
0.0
 10
9.467827110453596
 20
-0.7621615718284984
 30
0.0
 10
9.573793919531946
 20
-0.7077042346579546
 30
0.0
 10
9.639535005128689
 20
-0.6872788158322535
 30
0.0
 10
9.6490090106212
 20
-0.6876623385026818
 30
0.0
  0
SPLINE
  5
89
330
1F
100
AcDbEntity
  8
0
  6
Continuous
 62
     7
370
    25
100
AcDbSpline
210
0.0
220
0.0
230
1.0
 70
    11
 71
     3
 72
   132
 73
   128
 74
     0
 42
0.000000001
 43
0.00000001
 40
0.0
 40
0.0
 40
0.0
 40
0.0
 40
0.0068169016990459
 40
0.0111663633157695
 40
0.0157036097818479
 40
0.0193381834089399
 40
0.0235817916667095
 40
0.0269084711202942
 40
0.0321972247910405
 40
0.0378426474896295
 40
0.0428761171445899
 40
0.0481897114987821
 40
0.0574498880773429
 40
0.0639432218451461
 40
0.0713346021040969
 40
0.0809469300217376
 40
0.0839678027036096
 40
0.0876032790326919
 40
0.0924158516773409
 40
0.0961779999450791
 40
0.0990954432033015
 40
0.1015308843919511
 40
0.1060874394493688
 40
0.1113967502060737
 40
0.1157030487037261
 40
0.1195434028406123
 40
0.1227323122476555
 40
0.1242684969766676
 40
0.1349052501307335
 40
0.1437862497236989
 40
0.1510401813414889
 40
0.1617366776361356
 40
0.1842138657693317
 40
0.1870434987617352
 40
0.1900330075601714
 40
0.1957691135825498
 40
0.2066912606508889
 40
0.2177533875494034
 40
0.2244053951479318
 40
0.2352796828219478
 40
0.2411048896828968
 40
0.243898033920093
 40
0.2632111251939099
 40
0.271473956803494
 40
0.2790079406503889
 40
0.2852320588114231
 40
0.2890149373515632
 40
0.2957245254775476
 40
0.3025435443826839
 40
0.3097078690043351
 40
0.314077586413082
 40
0.3195754924892331
 40
0.3271840493984357
 40
0.3418811341476257
 40
0.3517676162274923
 40
0.3553631691903679
 40
0.3599494088840285
 40
0.3712034462400441
 40
0.3796185382176308
 40
0.3930969810266278
 40
0.4015832279356045
 40
0.4066244057527791
 40
0.4132496709813416
 40
0.4205592038884456
 40
0.4265829102876822
 40
0.4320475658088315
 40
0.4372193181292915
 40
0.453943266107964
 40
0.461935964151296
 40
0.4680184440145909
 40
0.4715306409378853
 40
0.473843555298151
 40
0.4771497153344855
 40
0.4805631442854677
 40
0.4840171585840944
 40
0.4883720335594485
 40
0.4909620133966764
 40
0.4959378189316062
 40
0.4996915370622151
 40
0.5031545289376772
 40
0.5127340750372389
 40
0.5221762831615921
 40
0.5303173316215762
 40
0.5533091516311907
 40
0.563239413828609
 40
0.5735355846371049
 40
0.5870839028888112
 40
0.5967534959923018
 40
0.6066766824104193
 40
0.6164997881687722
 40
0.6249829380115327
 40
0.6345697911793511
 40
0.6444268694970725
 40
0.6592025842859568
 40
0.6675041764693191
 40
0.6811199750662859
 40
0.7077589829208324
 40
0.7230290399291072
 40
0.7316640249255499
 40
0.7387230322076572
 40
0.7449553275567989
 40
0.7518145961273597
 40
0.756002129855705
 40
0.760666950184612
 40
0.7652909216710766
 40
0.7709023716710903
 40
0.777965106562834
 40
0.7850807158639528
 40
0.8018882729786696
 40
0.8107485650883741
 40
0.818690834166042
 40
0.8253714206326265
 40
0.8335378119839464
 40
0.8541444138348918
 40
0.8781518783955558
 40
0.9104400344798746
 40
0.9319824807602818
 40
0.9450593233320961
 40
0.9524059979619478
 40
0.9609170867026671
 40
0.9664718198297126
 40
0.9717441140028548
 40
0.9762774443141783
 40
0.981014239511245
 40
0.9874334994482976
 40
0.9970505323539374
 40
0.9999999999999999
 40
0.9999999999999999
 40
0.9999999999999999
 40
0.9999999999999999
 10
8.951968452931958
 20
-5.27702608644667
 30
0.0
 10
8.898025689246017
 20
-5.286816738985219
 30
0.0
 10
8.806492686899022
 20
-5.361377489253275
 30
0.0
 10
8.744020939566722
 20
-5.479889132910335
 30
0.0
 10
8.71432414807435
 20
-5.600204472430556
 30
0.0
 10
8.595218958495417
 20
-5.629659110304813
 30
0.0
 10
8.481267115392068
 20
-5.558105186655788
 30
0.0
 10
8.554379741400243
 20
-5.442460290135534
 30
0.0
 10
8.642717155020888
 20
-5.362746374091671
 30
0.0
 10
8.738203279512183
 20
-5.255089671914747
 30
0.0
 10
8.810818238950368
 20
-5.130029289198566
 30
0.0
 10
8.815821033507127
 20
-4.949854207908662
 30
0.0
 10
8.726346820622943
 20
-4.774035079184144
 30
0.0
 10
8.565566299545637
 20
-4.643203456589009
 30
0.0
 10
8.443124318407829
 20
-4.479261818310622
 30
0.0
 10
8.359673786845184
 20
-4.296576081418896
 30
0.0
 10
8.422552667347006
 20
-4.158820430637999
 30
0.0
 10
8.513549920586902
 20
-4.102015780341706
 30
0.0
 10
8.633892095435012
 20
-4.111411785919448
 30
0.0
 10
8.708559381146815
 20
-4.146466021977059
 30
0.0
 10
8.81928583673544
 20
-4.222516431625641
 30
0.0
 10
8.758002856359093
 20
-4.100873975325211
 30
0.0
 10
8.672093884525266
 20
-4.056249866894251
 30
0.0
 10
8.547811479143068
 20
-4.021465196618528
 30
0.0
 10
8.415683414786308
 20
-4.039483362923233
 30
0.0
 10
8.367856601417307
 20
-4.121604469084012
 30
0.0
 10
8.258777974528364
 20
-4.162169547507561
 30
0.0
 10
8.255067081291266
 20
-4.15039487632704
 30
0.0
 10
7.939313090251134
 20
-4.056225953575344
 30
0.0
 10
7.800653348654426
 20
-3.89905258467653
 30
0.0
 10
7.693150701382988
 20
-3.68057730545276
 30
0.0
 10
7.646657884130229
 20
-3.289431248493769
 30
0.0
 10
7.969775426602142
 20
-3.118573127087368
 30
0.0
 10
8.345478020190999
 20
-3.18411059752998
 30
0.0
 10
8.260004284669945
 20
-3.082955199915266
 30
0.0
 10
8.169306857022017
 20
-3.046618182593598
 30
0.0
 10
7.971873628405702
 20
-3.052947103785509
 30
0.0
 10
7.809289747840499
 20
-3.121609445560064
 30
0.0
 10
7.62136240977864
 20
-3.143341797959649
 30
0.0
 10
7.492319157781875
 20
-3.041169288078888
 30
0.0
 10
7.435287215494381
 20
-2.925438397492353
 30
0.0
 10
7.398462738849475
 20
-2.766205750610811
 30
0.0
 10
7.542745395419781
 20
-2.550747267799229
 30
0.0
 10
7.835543656148671
 20
-2.558581174465301
 30
0.0
 10
7.927115158131271
 20
-2.505459573004067
 30
0.0
 10
8.072143694840754
 20
-2.364917740382049
 30
0.0
 10
7.927093041214248
 20
-2.42176598549633
 30
0.0
 10
7.846751216606294
 20
-2.466238124455611
 30
0.0
 10
7.707210425622545
 20
-2.480849693236386
 30
0.0
 10
7.591986292197335
 20
-2.438571022026638
 30
0.0
 10
7.52818640644626
 20
-2.342943485507698
 30
0.0
 10
7.537403629170313
 20
-2.229604606647533
 30
0.0
 10
7.545028552970199
 20
-2.048110112720866
 30
0.0
 10
7.585097222080697
 20
-1.89393028608875
 30
0.0
 10
7.825959133995458
 20
-1.666041037266376
 30
0.0
 10
7.680959117295996
 20
-1.69542827757755
 30
0.0
 10
7.572064683739637
 20
-1.801394058166988
 30
0.0
 10
7.516773122669303
 20
-1.915633733885608
 30
0.0
 10
7.434358754940726
 20
-2.115790806719195
 30
0.0
 10
7.384198646087526
 20
-2.307781385096987
 30
0.0
 10
7.450155308111825
 20
-2.459019646839956
 30
0.0
 10
7.419765708055825
 20
-2.60634179465284
 30
0.0
 10
7.360014431253602
 20
-2.705323867335292
 30
0.0
 10
7.304099578070992
 20
-2.819535379579016
 30
0.0
 10
7.208316129594427
 20
-2.905192906916898
 30
0.0
 10
7.086724899243618
 20
-2.88394018931434
 30
0.0
 10
7.002158262974573
 20
-2.718784189007184
 30
0.0
 10
7.002158457580582
 20
-2.539092944820605
 30
0.0
 10
6.994571178105493
 20
-2.318117351124326
 30
0.0
 10
7.095214264961632
 20
-2.264253654084242
 30
0.0
 10
7.076182616726413
 20
-2.129450610976094
 30
0.0
 10
7.046033603844986
 20
-2.210699229210948
 30
0.0
 10
7.001516923517313
 20
-2.237620922211843
 30
0.0
 10
6.9216462882688
 20
-2.245305125373895
 30
0.0
 10
6.902580398899037
 20
-2.175779210518894
 30
0.0
 10
6.803144972668294
 20
-2.113298145986315
 30
0.0
 10
6.833292910063433
 20
-2.214330060665695
 30
0.0
 10
6.860685678315266
 20
-2.268633077845267
 30
0.0
 10
6.926895996960437
 20
-2.325162058433243
 30
0.0
 10
6.908275587157493
 20
-2.438103070880308
 30
0.0
 10
6.931116479676794
 20
-2.575389197094272
 30
0.0
 10
6.937459181524251
 20
-2.752418116166258
 30
0.0
 10
7.000507698225058
 20
-2.984921159454454
 30
0.0
 10
6.789381689935632
 20
-3.426811422477173
 30
0.0
 10
6.599271375644901
 20
-3.058715867818897
 30
0.0
 10
6.586266837317491
 20
-2.869327200877372
 30
0.0
 10
6.538970322189001
 20
-2.653864198330878
 30
0.0
 10
6.510291108260144
 20
-2.446725567660778
 30
0.0
 10
6.487049809410871
 20
-2.264073624054236
 30
0.0
 10
6.486943549994407
 20
-2.074481899331106
 30
0.0
 10
6.612301267690415
 20
-1.93874899213329
 30
0.0
 10
6.738397784915655
 20
-1.817672136545689
 30
0.0
 10
6.859028941312333
 20
-1.631917040855799
 30
0.0
 10
6.941245596232751
 20
-1.452703654189244
 30
0.0
 10
6.982302661603335
 20
-1.180407816155048
 30
0.0
 10
7.374928192255341
 20
-1.292224978458112
 30
0.0
 10
7.670746478245149
 20
-1.394828911627115
 30
0.0
 10
7.922208779804183
 20
-1.597880569870525
 30
0.0
 10
8.112497039878939
 20
-1.688704779892507
 30
0.0
 10
8.14123513084999
 20
-1.833458307461802
 30
0.0
 10
8.171007995135248
 20
-1.959545901102793
 30
0.0
 10
8.282879333623876
 20
-2.025725515197464
 30
0.0
 10
8.380887651351717
 20
-1.994741719940842
 30
0.0
 10
8.467242347231299
 20
-2.011714543487599
 30
0.0
 10
8.549698067443929
 20
-2.071159205792039
 30
0.0
 10
8.56311212556422
 20
-2.186606304356125
 30
0.0
 10
8.556645054525834
 20
-2.315668672946751
 30
0.0
 10
8.69170424193673
 20
-2.471606442431686
 30
0.0
 10
8.770638166330874
 20
-2.662196809269114
 30
0.0
 10
8.90060820334083
 20
-2.834266884870545
 30
0.0
 10
8.942400791857986
 20
-2.979930976579237
 30
0.0
 10
8.922622539013945
 20
-3.132805566724919
 30
0.0
 10
9.100385198304817
 20
-3.297764534494528
 30
0.0
 10
9.227052309164185
 20
-3.612027329563335
 30
0.0
 10
9.286284341096616
 20
-4.09702451311106
 30
0.0
 10
9.328518803802993
 20
-4.592847265314568
 30
0.0
 10
9.2698941795343
 20
-5.009564902501773
 30
0.0
 10
9.234677428237317
 20
-5.281674354901429
 30
0.0
 10
9.120383853778959
 20
-5.429008253426111
 30
0.0
 10
9.03199359491317
 20
-5.531494697513261
 30
0.0
 10
8.964444889833393
 20
-5.633594308241677
 30
0.0
 10
8.861194343731233
 20
-5.678068010683268
 30
0.0
 10
8.773627678147301
 20
-5.600837086330741
 30
0.0
 10
8.818615134681536
 20
-5.49580120667107
 30
0.0
 10
8.854473360106427
 20
-5.39127473801274
 30
0.0
 10
9.0732029365474
 20
-5.283237807046051
 30
0.0
 10
8.975307858904783
 20
-5.272789966553622
 30
0.0
 10
8.951968452931958
 20
-5.27702608644667
 30
0.0
  0
SPLINE
  5
8A
330
1F
100
AcDbEntity
  8
0
  6
Continuous
 62
     7
370
    25
100
AcDbSpline
210
0.0
220
0.0
230
1.0
 70
    11
 71
     3
 72
   166
 73
   162
 74
     0
 42
0.000000001
 43
0.00000001
 40
0.0
 40
0.0
 40
0.0
 40
0.0
 40
0.0020655819224475
 40
0.0045661266180634
 40
0.0072469649708149
 40
0.0132396133131889
 40
0.0189504060517509
 40
0.0251580534254826
 40
0.0310104622504259
 40
0.0398489616854365
 40
0.0489718719324143
 40
0.054904270099059
 40
0.0603508552520789
 40
0.0689788450782947
 40
0.0765955407566569
 40
0.0950546738460691
 40
0.1066214726764975
 40
0.1136371172369583
 40
0.1233217599301388
 40
0.1312469925988285
 40
0.1362761714548019
 40
0.1446143180618366
 40
0.1513085684434479
 40
0.1558589051546999
 40
0.1612015650934518
 40
0.1678778125924101
 40
0.1769535323962797
 40
0.1865305067936852
 40
0.1998628097078249
 40
0.204089553447041
 40
0.2069627461727445
 40
0.2102468239325645
 40
0.2165179313040068
 40
0.2205329847601867
 40
0.2257944640136269
 40
0.2358525604607956
 40
0.2413121329329972
 40
0.2448155885350423
 40
0.2486788020580838
 40
0.2522879270695097
 40
0.2548115899894617
 40
0.2583539242766772
 40
0.2615729659615584
 40
0.2647708361928137
 40
0.268614910766207
 40
0.271726275962123
 40
0.2754693586526638
 40
0.2793129715842549
 40
0.2835089797353932
 40
0.2868291782552424
 40
0.2899101103741186
 40
0.2939856552572046
 40
0.2996360777128979
 40
0.3054057887973095
 40
0.3109511592493697
 40
0.3151937866459473
 40
0.3195702219225962
 40
0.3232636047049708
 40
0.3259952036143657
 40
0.3301011563755227
 40
0.3379770292293106
 40
0.3487304174281703
 40
0.351337587813539
 40
0.3566255061821559
 40
0.3694659329233673
 40
0.3741984178611901
 40
0.3760449040522509
 40
0.3777626553436549
 40
0.3802220925891959
 40
0.3837953770775391
 40
0.3871171528053015
 40
0.3928670791773739
 40
0.4002981863248251
 40
0.4078169674981876
 40
0.4131843441690867
 40
0.4171736434943966
 40
0.4320029982732003
 40
0.4401207808928486
 40
0.4553825830918999
 40
0.4630379793198492
 40
0.4722284281046774
 40
0.487405240453176
 40
0.4944650913503628
 40
0.508711654841568
 40
0.5147829520941393
 40
0.5239558143398928
 40
0.5353948729476741
 40
0.5490565687737944
 40
0.5665739866332917
 40
0.5779809616227769
 40
0.586524464525132
 40
0.5933829659148668
 40
0.5973264109734944
 40
0.6087784521807647
 40
0.6131452296757933
 40
0.616105028285334
 40
0.6184832076917457
 40
0.623603588091418
 40
0.6293527951100973
 40
0.6345664538303439
 40
0.6451035206873189
 40
0.6550388907126464
 40
0.6734250380919942
 40
0.6782627954490111
 40
0.6971914830257798
 40
0.7000937915591221
 40
0.7072858807824333
 40
0.7089153459370092
 40
0.7186778721644012
 40
0.7299295921956286
 40
0.7382148805472608
 40
0.7420641677280087
 40
0.7448397795439199
 40
0.747482220168505
 40
0.750987047198056
 40
0.7562908887799464
 40
0.7583516181402399
 40
0.7661278393739794
 40
0.7733063476867522
 40
0.7746993877046916
 40
0.7785283686071359
 40
0.7859307970893648
 40
0.7890611004662775
 40
0.7992953738787467
 40
0.8047522939794973
 40
0.809559943001535
 40
0.8154959658501769
 40
0.8246620105094806
 40
0.8367627799968054
 40
0.8420827086838617
 40
0.8500391605795702
 40
0.8570820067912618
 40
0.8625384742901897
 40
0.8657693157957493
 40
0.8675526467359402
 40
0.8716382529856616
 40
0.879484616775996
 40
0.8856780204697595
 40
0.8914582854748875
 40
0.8946629329264361
 40
0.8978239444946811
 40
0.9139321330386648
 40
0.9220533681246897
 40
0.9238897543204551
 40
0.9262330036811691
 40
0.9344059486327034
 40
0.9473920620572468
 40
0.9518018112620276
 40
0.959576314850101
 40
0.9697160072483545
 40
0.9726192753609364
 40
0.9755285413121748
 40
0.9764054304112938
 40
0.9813881663521261
 40
0.9826852874173215
 40
0.983926947887394
 40
0.9879323651636788
 40
0.990982151187692
 40
0.9948712465808448
 40
0.9976108142606713
 40
0.9999999999999999
 40
0.9999999999999999
 40
0.9999999999999999
 40
0.9999999999999999
 10
6.663081117766929
 20
-6.77966310467527
 30
0.0
 10
6.655393696938988
 20
-6.811752206934575
 30
0.0
 10
6.63673883873954
 20
-6.840213401174907
 30
0.0
 10
6.547853997532918
 20
-6.837901784060071
 30
0.0
 10
6.476519046473167
 20
-6.749418830152777
 30
0.0
 10
6.409590127810063
 20
-6.626314924252186
 30
0.0
 10
6.338942572325859
 20
-6.463024229749691
 30
0.0
 10
6.322019061657098
 20
-6.286495797048465
 30
0.0
 10
6.228990132269446
 20
-6.100901228705314
 30
0.0
 10
6.114965116959353
 20
-5.896365547855758
 30
0.0
 10
5.921432081557651
 20
-5.741146924917943
 30
0.0
 10
5.721000354054742
 20
-5.7061663177285
 30
0.0
 10
5.521254343774414
 20
-5.692396720943115
 30
0.0
 10
5.346659979287042
 20
-5.551686199051534
 30
0.0
 10
5.11112633622024
 20
-5.308756087853958
 30
0.0
 10
4.874979735852952
 20
-5.025790015078861
 30
0.0
 10
4.679212153068689
 20
-4.703598259153966
 30
0.0
 10
4.438405660329347
 20
-4.569734400982525
 30
0.0
 10
4.231277497399094
 20
-4.392776527835523
 30
0.0
 10
4.277151470997882
 20
-4.150055858739933
 30
0.0
 10
4.365022188980398
 20
-3.963459464987328
 30
0.0
 10
4.489075048697759
 20
-3.801481420625787
 30
0.0
 10
4.491541970765038
 20
-3.595390151211669
 30
0.0
 10
4.607611953088505
 20
-3.472904542678673
 30
0.0
 10
4.701088411330592
 20
-3.341374196369019
 30
0.0
 10
4.796396994195685
 20
-3.151300500923787
 30
0.0
 10
4.979165453049051
 20
-2.996685149406562
 30
0.0
 10
5.2439592245078
 20
-2.728272825104248
 30
0.0
 10
5.45161883338669
 20
-2.94325203167137
 30
0.0
 10
5.587522969849872
 20
-3.108160855653184
 30
0.0
 10
5.56056059260413
 20
-3.21639803304174
 30
0.0
 10
5.486273216122099
 20
-3.309623668562859
 30
0.0
 10
5.489777195656076
 20
-3.486737060685531
 30
0.0
 10
5.650805855245483
 20
-3.532745038513231
 30
0.0
 10
5.821452513428238
 20
-3.599037857199057
 30
0.0
 10
6.017026002734868
 20
-3.701891018378452
 30
0.0
 10
6.096286220706107
 20
-3.873678908441729
 30
0.0
 10
6.140039932626884
 20
-3.99719594048609
 30
0.0
 10
6.094938845183692
 20
-4.103093692013125
 30
0.0
 10
6.028466981317405
 20
-4.178676142824937
 30
0.0
 10
5.934337686532119
 20
-4.210440680858065
 30
0.0
 10
5.840914696197166
 20
-4.184823581134705
 30
0.0
 10
5.763814323213681
 20
-4.124425515623871
 30
0.0
 10
5.666392339887621
 20
-4.088897385861897
 30
0.0
 10
5.555671476831375
 20
-4.12535020661775
 30
0.0
 10
5.486409199220176
 20
-4.029789187708671
 30
0.0
 10
5.429493315975873
 20
-3.942757766065992
 30
0.0
 10
5.322087452940576
 20
-3.890805938575463
 30
0.0
 10
5.217237578095563
 20
-3.84675472855472
 30
0.0
 10
5.110142791060672
 20
-3.862689478293405
 30
0.0
 10
5.015980019515339
 20
-3.894319512072052
 30
0.0
 10
4.883235725190182
 20
-3.952483347780875
 30
0.0
 10
4.837412474369551
 20
-3.972398586004458
 30
0.0
 10
4.89845627783524
 20
-4.017128415539376
 30
0.0
 10
5.072208410628328
 20
-3.961819909050633
 30
0.0
 10
5.208776237469518
 20
-3.95845472835247
 30
0.0
 10
5.325221347434467
 20
-4.009325586005675
 30
0.0
 10
5.397377316256496
 20
-4.08958846224089
 30
0.0
 10
5.436426228059546
 20
-4.190863982631178
 30
0.0
 10
5.378928683938177
 20
-4.334386243200655
 30
0.0
 10
5.251699869805571
 20
-4.446582957731199
 30
0.0
 10
4.845716560805832
 20
-4.453365340516609
 30
0.0
 10
5.032487003549647
 20
-4.582970962639026
 30
0.0
 10
5.236049614733514
 20
-4.549338753418909
 30
0.0
 10
5.45356827450489
 20
-4.443656631250144
 30
0.0
 10
5.545409693516175
 20
-4.275463027859153
 30
0.0
 10
5.619248418604204
 20
-4.225566083206772
 30
0.0
 10
5.679543445869149
 20
-4.248079215280086
 30
0.0
 10
5.73912797975808
 20
-4.294729082810203
 30
0.0
 10
5.788134830322584
 20
-4.378596502884548
 30
0.0
 10
5.791041748810341
 20
-4.504024316157722
 30
0.0
 10
5.772759924789733
 20
-4.671409047590935
 30
0.0
 10
5.690790765454128
 20
-4.860927614591505
 30
0.0
 10
5.581534186611682
 20
-4.977308892547929
 30
0.0
 10
5.368238847299495
 20
-5.163144238818466
 30
0.0
 10
5.706539170221972
 20
-5.058005824223299
 30
0.0
 10
5.82618131231238
 20
-4.842236219654952
 30
0.0
 10
5.904598150994153
 20
-4.467691774787174
 30
0.0
 10
6.11674304473371
 20
-4.215182525000432
 30
0.0
 10
6.423992408107569
 20
-4.103868019179634
 30
0.0
 10
6.74101376019767
 20
-4.170584889996642
 30
0.0
 10
7.030447249279732
 20
-4.278412616077888
 30
0.0
 10
7.337115834946145
 20
-4.466962236781313
 30
0.0
 10
7.540953946759084
 20
-4.645699788143821
 30
0.0
 10
7.729640893315504
 20
-4.86743383183487
 30
0.0
 10
7.846111341902193
 20
-5.105039220623883
 30
0.0
 10
7.952888554419202
 20
-5.4262866627107
 30
0.0
 10
8.017893838319308
 20
-5.837647115077389
 30
0.0
 10
7.979902303046974
 20
-6.284060612178304
 30
0.0
 10
7.709115267710782
 20
-6.556843154546146
 30
0.0
 10
7.486443043847402
 20
-6.693808750373886
 30
0.0
 10
7.321417743964194
 20
-6.794290271956204
 30
0.0
 10
7.186999224075625
 20
-6.970423047098494
 30
0.0
 10
7.141212082619576
 20
-7.169832272778571
 30
0.0
 10
7.023358813478703
 20
-7.308031429039461
 30
0.0
 10
6.97698610316667
 20
-7.401963329073484
 30
0.0
 10
6.851747363677702
 20
-7.399824504192975
 30
0.0
 10
6.827725656705308
 20
-7.23881271167133
 30
0.0
 10
6.764135428069808
 20
-7.112272616121078
 30
0.0
 10
6.674381323788761
 20
-6.879187261170544
 30
0.0
 10
6.950360919065428
 20
-6.800769012766454
 30
0.0
 10
7.237849032536232
 20
-6.544073503456573
 30
0.0
 10
7.394954410704917
 20
-6.276372190318567
 30
0.0
 10
7.581674162670126
 20
-5.89927169441028
 30
0.0
 10
7.595094989619243
 20
-5.656157883920782
 30
0.0
 10
7.561935178157744
 20
-5.33478782519248
 30
0.0
 10
7.431810955333367
 20
-5.134495560815645
 30
0.0
 10
7.444091640497351
 20
-5.35300435981515
 30
0.0
 10
7.489096759814616
 20
-5.547989871052229
 30
0.0
 10
7.452018795852804
 20
-5.849439287108236
 30
0.0
 10
7.389082768527353
 20
-6.065197433303181
 30
0.0
 10
7.290710913806843
 20
-6.193397230392185
 30
0.0
 10
7.191582319050145
 20
-6.189891610018434
 30
0.0
 10
7.111403698689649
 20
-6.140777783514844
 30
0.0
 10
7.077614044955619
 20
-6.042579895895131
 30
0.0
 10
7.121184930750792
 20
-5.841717398989918
 30
0.0
 10
6.986439710959597
 20
-5.98272137269646
 30
0.0
 10
6.990720255680418
 20
-6.171844323175395
 30
0.0
 10
7.106240000180297
 20
-6.266393026151295
 30
0.0
 10
7.186455261768267
 20
-6.367584498396567
 30
0.0
 10
7.110386587832529
 20
-6.497764510655896
 30
0.0
 10
7.036707785089421
 20
-6.597564571584513
 30
0.0
 10
6.834636675194059
 20
-6.72166578678052
 30
0.0
 10
6.760657888136469
 20
-6.41673045784695
 30
0.0
 10
6.796175342473148
 20
-6.23936322486232
 30
0.0
 10
6.804852705455065
 20
-6.074842243759437
 30
0.0
 10
6.770621679779131
 20
-5.885501746361599
 30
0.0
 10
6.679455478286066
 20
-5.609092915167633
 30
0.0
 10
6.882656505669502
 20
-5.395128632138046
 30
0.0
 10
6.949107101999108
 20
-5.1528987976815
 30
0.0
 10
6.96872137885698
 20
-4.959106784823807
 30
0.0
 10
6.956771210902317
 20
-4.736268310204821
 30
0.0
 10
6.879539983416588
 20
-4.641742110379208
 30
0.0
 10
6.799889831279759
 20
-4.487034945519201
 30
0.0
 10
6.776646253592258
 20
-4.608810186471868
 30
0.0
 10
6.831562967300584
 20
-4.720262233238627
 30
0.0
 10
6.862960290312706
 20
-4.904332198632515
 30
0.0
 10
6.868117953615166
 20
-5.097619438035868
 30
0.0
 10
6.830104884549622
 20
-5.247449936970771
 30
0.0
 10
6.765952915900106
 20
-5.345512643213739
 30
0.0
 10
6.586372979073539
 20
-5.516892866643457
 30
0.0
 10
6.456298716697806
 20
-5.131449620907232
 30
0.0
 10
6.505328804290359
 20
-4.662108621545131
 30
0.0
 10
6.43657354751593
 20
-4.79241256745743
 30
0.0
 10
6.383174179345542
 20
-4.894847676544639
 30
0.0
 10
6.375082498800732
 20
-5.132986989029632
 30
0.0
 10
6.403690648471547
 20
-5.412753017936307
 30
0.0
 10
6.629397225497915
 20
-5.552292160710702
 30
0.0
 10
6.626128726856098
 20
-5.803839378659208
 30
0.0
 10
6.70575291751263
 20
-5.965364281682231
 30
0.0
 10
6.695962621792652
 20
-6.164269888649349
 30
0.0
 10
6.613601175451255
 20
-6.145460805644801
 30
0.0
 10
6.528944662787497
 20
-6.095477727600353
 30
0.0
 10
6.379225964047772
 20
-5.945058161060598
 30
0.0
 10
6.390733817438792
 20
-5.687158899851768
 30
0.0
 10
6.307332627481741
 20
-5.898769352124878
 30
0.0
 10
6.386122719300912
 20
-6.054100083933849
 30
0.0
 10
6.563474643136328
 20
-6.223218334876119
 30
0.0
 10
6.688340669303036
 20
-6.413406079874575
 30
0.0
 10
6.688902186918726
 20
-6.607688962871269
 30
0.0
 10
6.671972886238918
 20
-6.742546772143202
 30
0.0
 10
6.663081117766929
 20
-6.77966310467527
 30
0.0
  0
SPLINE
  5
8B
330
1F
100
AcDbEntity
  8
0
  6
Continuous
 62
     7
370
    25
100
AcDbSpline
210
0.0
220
0.0
230
1.0
 70
     8
 71
     3
 72
    35
 73
    31
 74
     0
 42
0.000000001
 43
0.00000001
 40
0.0
 40
0.0
 40
0.0
 40
0.0
 40
0.0104419246793767
 40
0.0183388413761439
 40
0.0330564279862088
 40
0.0423059175728314
 40
0.0504971842814114
 40
0.0763355821492372
 40
0.0825186437874918
 40
0.1004434104758457
 40
0.1111905293188095
 40
0.1145120169616266
 40
0.133658286904016
 40
0.1578301492427642
 40
0.1671595728612413
 40
0.1821218205903596
 40
0.2040687987349743
 40
0.2133155567985192
 40
0.2218175916282036
 40
0.2313816728267391
 40
0.2447142826923441
 40
0.2548339150691216
 40
0.3325779965945137
 40
0.4067700460321315
 40
0.4805489706205257
 40
0.55947997392496
 40
0.6887810254317233
 40
0.8815268355019155
 40
0.9859126648134339
 40
1.0
 40
1.0
 40
1.0
 40
1.0
 10
8.465963134620974
 20
-9.807028129635867
 30
0.0
 10
8.472346197991245
 20
-9.91381741660386
 30
0.0
 10
8.432190635449771
 20
-9.821929304065812
 30
0.0
 10
8.363421141811369
 20
-9.746286596842973
 30
0.0
 10
8.27737083030461
 20
-9.880965849610584
 30
0.0
 10
8.391340076148394
 20
-9.982518825863183
 30
0.0
 10
8.200242106920026
 20
-9.941928044578926
 30
0.0
 10
8.16501241525568
 20
-10.18052776580785
 30
0.0
 10
8.104205950255258
 20
-10.07209309356272
 30
0.0
 10
8.211909487965936
 20
-9.954391903869514
 30
0.0
 10
8.160231353479778
 20
-9.908121047961995
 30
0.0
 10
8.096551294291432
 20
-9.81441179402999
 30
0.0
 10
8.03363825017504
 20
-9.709800924297118
 30
0.0
 10
8.003536330833604
 20
-9.51908384830678
 30
0.0
 10
7.843124211064512
 20
-9.485941768651601
 30
0.0
 10
7.739522983183721
 20
-9.55985035487994
 30
0.0
 10
7.55049461425403
 20
-9.681526226067454
 30
0.0
 10
7.686337405788078
 20
-9.706395210831646
 30
0.0
 10
7.791542450010141
 20
-9.778318744146091
 30
0.0
 10
7.626559121341967
 20
-9.768032048954275
 30
0.0
 10
7.614845957965804
 20
-9.808281162260279
 30
0.0
 10
7.602667440204264
 20
-10.01165664669735
 30
0.0
 10
7.605977656759086
 20
-10.14846764110752
 30
0.0
 10
7.529921150417327
 20
-10.47344741860363
 30
0.0
 10
7.437364684967203
 20
-10.76813927610239
 30
0.0
 10
7.12259976611834
 20
-11.00949289143159
 30
0.0
 10
6.683751181044135
 20
-11.3067243512653
 30
0.0
 10
6.198042498180852
 20
-11.66198433938368
 30
0.0
 10
5.88966668821732
 20
-11.88109559559644
 30
0.0
 10
5.747100699841909
 20
-12.00673620100888
 30
0.0
 10
5.761292186496843
 20
-11.95471611723219
 30
0.0
  0
SPLINE
  5
8C
330
1F
100
AcDbEntity
  8
0
  6
Continuous
 62
     7
370
    25
100
AcDbSpline
210
0.0
220
0.0
230
1.0
 70
     8
 71
     3
 72
   311
 73
   307
 74
     0
 42
0.000000001
 43
0.00000001
 40
0.0
 40
0.0
 40
0.0
 40
0.0
 40
0.0013361073507619
 40
0.0022103150061965
 40
0.0028810591934979
 40
0.0033030670129756
 40
0.0040827317866608
 40
0.004780823193793
 40
0.0055492779156013
 40
0.0064416647809714
 40
0.0096838225442754
 40
0.0104427296807608
 40
0.011856866665452
 40
0.014709576029809
 40
0.0154108240566604
 40
0.0160228114080815
 40
0.0168126559979415
 40
0.0173509526689371
 40
0.0180363357450129
 40
0.018483465647696
 40
0.0191718263850846
 40
0.0198106274059328
 40
0.020434689760237
 40
0.0207478958247304
 40
0.0215277879357169
 40
0.0223278436308859
 40
0.0236615378134126
 40
0.024472012721861
 40
0.0254229818968144
 40
0.0260169350047011
 40
0.0271239635980186
 40
0.028433195851205
 40
0.0296693543041791
 40
0.0308904188860925
 40
0.0316817245725387
 40
0.0322942534731923
 40
0.0333990836042079
 40
0.0339677880784224
 40
0.0349935700609284
 40
0.0363920937286108
 40
0.0379984571420462
 40
0.0390809391371606
 40
0.0400298065735164
 40
0.041039762133294
 40
0.0424079316453595
 40
0.0429288061293552
 40
0.0435426060521013
 40
0.0441159195905274
 40
0.044538517727806
 40
0.0450970360848185
 40
0.0463506314896759
 40
0.0473482651988851
 40
0.0487705482989146
 40
0.0492840363887528
 40
0.050098918143473
 40
0.0510660551857324
 40
0.0518775217952574
 40
0.0531213253276037
 40
0.054068831043392
 40
0.0567517129487058
 40
0.0573250758024788
 40
0.0598024595811214
 40
0.0617861444954145
 40
0.0656343841351824
 40
0.0687820705721903
 40
0.0729674516264649
 40
0.0764371986464357
 40
0.0820278088740465
 40
0.0841593383021025
 40
0.0859641819445329
 40
0.0886209276805649
 40
0.0905670908350126
 40
0.0930273140687005
 40
0.0943229719990207
 40
0.0971875898156597
 40
0.0985121568817215
 40
0.1008251994987673
 40
0.1032937464437045
 40
0.1065722840131952
 40
0.1088996708417837
 40
0.1129095106371935
 40
0.1159622229968258
 40
0.1195252806262229
 40
0.1223420536204022
 40
0.1252101918403693
 40
0.1283529042272641
 40
0.1336471994060205
 40
0.1361041208756799
 40
0.1396101600051868
 40
0.1461926906203086
 40
0.1532888440858812
 40
0.1605487961203969
 40
0.1639674743639663
 40
0.1664150611387238
 40
0.1688322075256785
 40
0.1743347253736331
 40
0.180367998590662
 40
0.1872260158756686
 40
0.1923823331256038
 40
0.1980928124734823
 40
0.2014667224056944
 40
0.2043833023734826
 40
0.2083266990297667
 40
0.2120848788315833
 40
0.2155867874566478
 40
0.2212323865652011
 40
0.2260825562755427
 40
0.2300740032928845
 40
0.2326851014834206
 40
0.2359769042421105
 40
0.2379482762924595
 40
0.2406025714927848
 40
0.2437930329662147
 40
0.246282341133445
 40
0.2490648798937616
 40
0.2511297294604557
 40
0.2531048162219374
 40
0.260383580575192
 40
0.2640899389666451
 40
0.268577624543356
 40
0.2750988640983932
 40
0.2824298677514496
 40
0.2846528915131665
 40
0.288577938878917
 40
0.2899476415131711
 40
0.2916123035732139
 40
0.2944160906910368
 40
0.2963285910123968
 40
0.2982124053219388
 40
0.3007941322717202
 40
0.3035313927956105
 40
0.3086167741767428
 40
0.3126303736861099
 40
0.3150273302622076
 40
0.3188064563058666
 40
0.3238360124129022
 40
0.3272402408119359
 40
0.3295918011974909
 40
0.332683608935424
 40
0.3364683976305799
 40
0.3408372154437581
 40
0.3441527807469899
 40
0.3458215254141541
 40
0.3470624705112445
 40
0.348785678015599
 40
0.3523125475956477
 40
0.3562269573823642
 40
0.3634601085745492
 40
0.3664373102958805
 40
0.3693673630004743
 40
0.3720668083706243
 40
0.3755155764206728
 40
0.378659805736149
 40
0.3814239474118188
 40
0.3825166889587578
 40
0.3852488097517089
 40
0.3871735705340777
 40
0.389807920426517
 40
0.3927317827356343
 40
0.3933881980208856
 40
0.3962620222779229
 40
0.3983580249111052
 40
0.401656798660952
 40
0.4022563189516378
 40
0.4043532278179629
 40
0.4069188290917109
 40
0.4089134128836223
 40
0.4120362137184837
 40
0.4141602881436021
 40
0.4164043942541334
 40
0.4189429958352858
 40
0.4218928345508963
 40
0.424586668137068
 40
0.4267544038883468
 40
0.4300907465971711
 40
0.4336722647141958
 40
0.4388602318475387
 40
0.4430372910084987
 40
0.4484750688017406
 40
0.4519839349021804
 40
0.4562460884753115
 40
0.4591342918228629
 40
0.4613475910590976
 40
0.4629676211516533
 40
0.4661065428540924
 40
0.4749182789134488
 40
0.4851895246917358
 40
0.495731773540377
 40
0.5015082090949559
 40
0.5078098085512082
 40
0.5129127898624045
 40
0.5220664057961055
 40
0.5268311374071761
 40
0.5303690595840214
 40
0.5387996142794211
 40
0.5470862528847829
 40
0.5514864386274114
 40
0.552898248264427
 40
0.5602814491448816
 40
0.5615197057344596
 40
0.5643579140501498
 40
0.5682308977543811
 40
0.5771392067050272
 40
0.5822116110396196
 40
0.5879831519384626
 40
0.5910067967468808
 40
0.5954865307384657
 40
0.5998976802268046
 40
0.6042548130944787
 40
0.6095852948601012
 40
0.6154032650940818
 40
0.6190808038738641
 40
0.622679837550837
 40
0.6256589661407304
 40
0.6281152196986388
 40
0.6307300054611247
 40
0.6339316199189334
 40
0.6401187323223168
 40
0.6425657683313047
 40
0.6460371504689886
 40
0.6496778612144408
 40
0.6548036430836832
 40
0.6582538648437039
 40
0.6620378565340121
 40
0.667088546566457
 40
0.669028085244271
 40
0.6744975848019218
 40
0.6845204983175236
 40
0.6895375123859135
 40
0.6962964909519934
 40
0.6992002199891463
 40
0.703731557940726
 40
0.7094592105869757
 40
0.710181857609166
 40
0.7109580281626288
 40
0.7129269976125042
 40
0.7154795562148492
 40
0.7188466735325982
 40
0.7208956080823314
 40
0.723046351336802
 40
0.7268294418808848
 40
0.7310526098526338
 40
0.7346759551075981
 40
0.738106302814638
 40
0.7424273834459574
 40
0.7492583290550194
 40
0.7524479063809781
 40
0.7545693632019311
 40
0.7577734261614127
 40
0.7634252328543745
 40
0.7703226092848968
 40
0.7733095758860052
 40
0.778502227465178
 40
0.7859132235153172
 40
0.79161164099696
 40
0.8002355766086707
 40
0.8077169694323239
 40
0.8132328200972042
 40
0.8204450554759707
 40
0.8234604834040862
 40
0.8270987762794567
 40
0.8306523613276621
 40
0.8346172103835513
 40
0.8374189976226651
 40
0.8392343365355042
 40
0.8412026064537818
 40
0.846322204575519
 40
0.8506248977750224
 40
0.8514065014537576
 40
0.854138241362871
 40
0.8567167084132841
 40
0.859602950386802
 40
0.8626122816036714
 40
0.8646950964833118
 40
0.8669306240155469
 40
0.8695199223519497
 40
0.8707171533031368
 40
0.8721695047924843
 40
0.87470205577233
 40
0.8787319727225219
 40
0.8809307567855654
 40
0.8828224577915966
 40
0.8867720377404172
 40
0.8919023586967421
 40
0.8985189538815271
 40
0.9046602857976186
 40
0.909333874639648
 40
0.9137621634931509
 40
0.9199969522625419
 40
0.9239509814359008
 40
0.9269166799859574
 40
0.9315389229503735
 40
0.9384358475979838
 40
0.9456324731922632
 40
0.9563362151092186
 40
0.9596740787590097
 40
0.9636039185312266
 40
0.9671521945700549
 40
0.9715993667114141
 40
0.974359620546642
 40
0.9801933433099488
 40
0.9828312287764446
 40
0.9849212357728332
 40
0.9880934755557773
 40
0.9938097133578753
 40
1.0
 40
1.0
 40
1.0
 40
1.0
 10
11.63317006051643
 20
-5.163377202748033
 30
0.0
 10
11.56956848291637
 20
-5.190730343350534
 30
0.0
 10
11.57063943730236
 20
-5.302820884301326
 30
0.0
 10
11.6086619426375
 20
-5.407615923656402
 30
0.0
 10
11.62093227602146
 20
-5.514881823259369
 30
0.0
 10
11.57179897028466
 20
-5.492256670630511
 30
0.0
 10
11.52126643426034
 20
-5.395537566794695
 30
0.0
 10
11.52044134475655
 20
-5.312132940909268
 30
0.0
 10
11.48446440872642
 20
-5.206675354537429
 30
0.0
 10
11.28193543173281
 20
-5.109273092461146
 30
0.0
 10
11.06241429724961
 20
-5.174290073838991
 30
0.0
 10
11.06297964336624
 20
-5.423839395976063
 30
0.0
 10
11.1817311226738
 20
-5.608455968157831
 30
0.0
 10
11.62534076028194
 20
-5.591038793444808
 30
0.0
 10
11.44802094556272
 20
-5.727665636624071
 30
0.0
 10
11.36991638068409
 20
-5.762672651798297
 30
0.0
 10
11.3108749350727
 20
-5.829507718107763
 30
0.0
 10
11.30643983086215
 20
-5.929060566867224
 30
0.0
 10
11.37131344777097
 20
-5.960447314386116
 30
0.0
 10
11.43213281835736
 20
-6.049854764640085
 30
0.0
 10
11.30033223184046
 20
-6.040664490120141
 30
0.0
 10
11.26375553201369
 20
-5.965222208658613
 30
0.0
 10
11.21838211413784
 20
-5.922732626927885
 30
0.0
 10
11.16383376326788
 20
-5.987102194788156
 30
0.0
 10
11.10065376706547
 20
-6.033314786801733
 30
0.0
 10
10.97825223209193
 20
-6.071364799000333
 30
0.0
 10
10.84865045914516
 20
-6.070747619284073
 30
0.0
 10
10.72254449819817
 20
-6.031958510389301
 30
0.0
 10
10.61212472474493
 20
-6.042512416961864
 30
0.0
 10
10.53240625495345
 20
-6.128256124170671
 30
0.0
 10
10.46033299215424
 20
-6.235600353362004
 30
0.0
 10
10.32373631892153
 20
-6.32187238933401
 30
0.0
 10
10.17415646815379
 20
-6.378457183900566
 30
0.0
 10
10.05161574600192
 20
-6.456259875610933
 30
0.0
 10
9.986823403954462
 20
-6.542197878626165
 30
0.0
 10
9.887673056545216
 20
-6.622834454276668
 30
0.0
 10
9.964112110965301
 20
-6.690412346804246
 30
0.0
 10
10.08097082130078
 20
-6.699214455775042
 30
0.0
 10
10.20215337777051
 20
-6.792624645795264
 30
0.0
 10
10.25144091698326
 20
-6.814402009400641
 30
0.0
 10
10.4029656691549
 20
-6.641663286071437
 30
0.0
 10
10.52733824134183
 20
-6.565555201036897
 30
0.0
 10
10.62162862633066
 20
-6.46088856950352
 30
0.0
 10
10.67367823780567
 20
-6.360602558468323
 30
0.0
 10
10.81423648231556
 20
-6.162561545432651
 30
0.0
 10
10.81505601336498
 20
-6.311472995595281
 30
0.0
 10
10.76255442490131
 20
-6.359197446009675
 30
0.0
 10
10.72544851179044
 20
-6.423586703339014
 30
0.0
 10
10.75364448235424
 20
-6.498818358902874
 30
0.0
 10
10.86392548116454
 20
-6.486953707303925
 30
0.0
 10
10.98156554159467
 20
-6.468245241330022
 30
0.0
 10
11.11237435051774
 20
-6.441467608356836
 30
0.0
 10
11.3039902129977
 20
-6.277509755122995
 30
0.0
 10
11.24476153394072
 20
-6.425410749638464
 30
0.0
 10
11.16340367397337
 20
-6.475713120419258
 30
0.0
 10
11.05274373259381
 20
-6.501138766616374
 30
0.0
 10
10.93319441463357
 20
-6.553145412785502
 30
0.0
 10
10.80109591607127
 20
-6.554791618148437
 30
0.0
 10
10.59553207767178
 20
-6.554586765290094
 30
0.0
 10
10.40664654728852
 20
-6.773698232688931
 30
0.0
 10
10.38836879553952
 20
-6.831136785156106
 30
0.0
 10
10.43119707057799
 20
-6.906699202651844
 30
0.0
 10
10.52601296592556
 20
-6.857306254561592
 30
0.0
 10
10.6223026004416
 20
-6.852742866769695
 30
0.0
 10
10.75008703747157
 20
-6.850397422908457
 30
0.0
 10
10.85228504821515
 20
-6.763359696027377
 30
0.0
 10
10.91403205058624
 20
-6.65426546849914
 30
0.0
 10
11.16636966483439
 20
-6.575087319032652
 30
0.0
 10
11.0613957697245
 20
-6.685771467756806
 30
0.0
 10
10.98847993613398
 20
-6.685628037224715
 30
0.0
 10
10.93234502274905
 20
-6.73959709683521
 30
0.0
 10
10.8787143951811
 20
-6.79198822613672
 30
0.0
 10
10.84356773709728
 20
-6.858160588070701
 30
0.0
 10
10.88855173860711
 20
-6.925964335215838
 30
0.0
 10
11.00676288261688
 20
-6.896558242217312
 30
0.0
 10
10.93899123085525
 20
-6.979360007321114
 30
0.0
 10
10.87002375277439
 20
-6.940947989221113
 30
0.0
 10
10.78082630854584
 20
-6.948664805020452
 30
0.0
 10
10.69295074981466
 20
-6.915084143178825
 30
0.0
 10
10.58609737003371
 20
-6.938383067993275
 30
0.0
 10
10.48658735117292
 20
-6.964331087041318
 30
0.0
 10
10.37202955649244
 20
-7.005636066861484
 30
0.0
 10
10.26497898007126
 20
-6.967147013112616
 30
0.0
 10
10.19153716344076
 20
-6.895024803727516
 30
0.0
 10
10.1109461648508
 20
-6.838985944706407
 30
0.0
 10
10.00971772117881
 20
-6.761301152582195
 30
0.0
 10
9.882325390565974
 20
-6.74875171660749
 30
0.0
 10
9.763491394122216
 20
-6.793179407986897
 30
0.0
 10
9.650352303077545
 20
-6.876592358976355
 30
0.0
 10
9.471388139036202
 20
-6.946865069004469
 30
0.0
 10
9.252731194615349
 20
-7.031086000246193
 30
0.0
 10
9.072901703425018
 20
-7.098533959251883
 30
0.0
 10
8.914276471079145
 20
-7.11897538165143
 30
0.0
 10
8.878501575305108
 20
-7.227685317791584
 30
0.0
 10
8.971743737716297
 20
-7.311287025281577
 30
0.0
 10
9.081678054876107
 20
-7.423740299408301
 30
0.0
 10
9.297524885725089
 20
-7.434577066914096
 30
0.0
 10
9.496984404993183
 20
-7.450923893598124
 30
0.0
 10
9.68855888259622
 20
-7.387832616462337
 30
0.0
 10
9.80654652930091
 20
-7.254636269893932
 30
0.0
 10
9.94726681741238
 20
-7.283381700769742
 30
0.0
 10
10.0540524281034
 20
-7.318786968225437
 30
0.0
 10
10.17963181166004
 20
-7.299396727809755
 30
0.0
 10
10.27314485322401
 20
-7.208716922111132
 30
0.0
 10
10.42781846202542
 20
-7.205169243970918
 30
0.0
 10
10.54951190516535
 20
-7.17189854430296
 30
0.0
 10
10.81682249864178
 20
-7.2645862694904
 30
0.0
 10
10.61017816478258
 20
-7.289148381137997
 30
0.0
 10
10.51350280723018
 20
-7.286972564496327
 30
0.0
 10
10.42239521849666
 20
-7.280338599286105
 30
0.0
 10
10.33493402431357
 20
-7.30126835096263
 30
0.0
 10
10.2682178642272
 20
-7.357263155083483
 30
0.0
 10
10.19474477792023
 20
-7.42587692889667
 30
0.0
 10
10.09658169939487
 20
-7.409256273095452
 30
0.0
 10
10.01458735104948
 20
-7.415433930411961
 30
0.0
 10
9.943808572634895
 20
-7.37991877625177
 30
0.0
 10
9.809535532085288
 20
-7.417061893636725
 30
0.0
 10
9.776520217214394
 20
-7.465680283433953
 30
0.0
 10
9.926356762729839
 20
-7.519196915461467
 30
0.0
 10
10.10642067471473
 20
-7.481023275069062
 30
0.0
 10
10.24219894968478
 20
-7.562385147827364
 30
0.0
 10
10.61860760759814
 20
-7.49101431178965
 30
0.0
 10
10.43547326102691
 20
-7.58262555186173
 30
0.0
 10
10.34837819318895
 20
-7.563472770727432
 30
0.0
 10
10.32350753723968
 20
-7.625097072873094
 30
0.0
 10
10.36121553801987
 20
-7.683244525129258
 30
0.0
 10
10.48292413442523
 20
-7.72046283884387
 30
0.0
 10
10.36912335304677
 20
-7.742457912182902
 30
0.0
 10
10.31279328613874
 20
-7.705146148359004
 30
0.0
 10
10.25359759735695
 20
-7.649866547034796
 30
0.0
 10
10.1706542906469
 20
-7.564180429343218
 30
0.0
 10
10.05133591975833
 20
-7.536198191768334
 30
0.0
 10
9.875766770229118
 20
-7.577465769219446
 30
0.0
 10
10.01207704960091
 20
-7.646195498262586
 30
0.0
 10
10.10944982453256
 20
-7.71363567512938
 30
0.0
 10
10.22986964855325
 20
-7.708381560225113
 30
0.0
 10
10.38544488166194
 20
-7.853168337154321
 30
0.0
 10
10.24144663067249
 20
-7.811078265647119
 30
0.0
 10
10.17210809166358
 20
-7.750595091539831
 30
0.0
 10
10.03038614395424
 20
-7.767300012333211
 30
0.0
 10
9.933619231297662
 20
-7.672087728850156
 30
0.0
 10
9.848444029665869
 20
-7.617018492004541
 30
0.0
 10
9.781528329858242
 20
-7.587149144241695
 30
0.0
 10
9.727822860405109
 20
-7.612525989481162
 30
0.0
 10
9.723143222440662
 20
-7.692390327540818
 30
0.0
 10
9.734311010831592
 20
-7.7912312554807
 30
0.0
 10
9.79803951183316
 20
-7.942783953994224
 30
0.0
 10
9.866472328657807
 20
-8.092280321325951
 30
0.0
 10
9.932255109083474
 20
-8.204739598892454
 30
0.0
 10
9.92130203191172
 20
-8.363038914571051
 30
0.0
 10
9.836034196553465
 20
-8.228507818562399
 30
0.0
 10
9.828625096468725
 20
-8.137284943225586
 30
0.0
 10
9.756447203033561
 20
-8.057642770159681
 30
0.0
 10
9.715055724797596
 20
-7.980056349059777
 30
0.0
 10
9.63438672645025
 20
-7.980251407279188
 30
0.0
 10
9.595297564498635
 20
-8.041991488412084
 30
0.0
 10
9.563945626304827
 20
-8.117762685868927
 30
0.0
 10
9.50785133133318
 20
-8.166401786478358
 30
0.0
 10
9.485236966975002
 20
-8.283161210512459
 30
0.0
 10
9.564062858714687
 20
-8.273863155083781
 30
0.0
 10
9.622074891055089
 20
-8.28431204797194
 30
0.0
 10
9.713280939434672
 20
-8.33923020244457
 30
0.0
 10
9.725069440816034
 20
-8.350430400777487
 30
0.0
 10
9.775698308115173
 20
-8.42270234190125
 30
0.0
 10
9.763080671324257
 20
-8.543380128923884
 30
0.0
 10
9.692941383917658
 20
-8.428204947607291
 30
0.0
 10
9.642373638801786
 20
-8.37617447315521
 30
0.0
 10
9.570492031892071
 20
-8.309337638318677
 30
0.0
 10
9.471147922896682
 20
-8.349966008751695
 30
0.0
 10
9.477415305770863
 20
-8.438163284639094
 30
0.0
 10
9.480748372577386
 20
-8.530449068273386
 30
0.0
 10
9.537448909389221
 20
-8.591434055431757
 30
0.0
 10
9.595209074407085
 20
-8.72308016038876
 30
0.0
 10
9.465253101776424
 20
-8.67166904078982
 30
0.0
 10
9.41568498471929
 20
-8.588113652280526
 30
0.0
 10
9.37379699397233
 20
-8.452464953615547
 30
0.0
 10
9.352129281508512
 20
-8.300948618830155
 30
0.0
 10
9.419070145264595
 20
-8.139475817528874
 30
0.0
 10
9.496404498113602
 20
-8.012685739806946
 30
0.0
 10
9.602482511132397
 20
-7.893970255959974
 30
0.0
 10
9.591508970689956
 20
-7.764339490810363
 30
0.0
 10
9.595576815201525
 20
-7.656390037433794
 30
0.0
 10
9.54180287576126
 20
-7.586086060859978
 30
0.0
 10
9.45800930153826
 20
-7.583921810657159
 30
0.0
 10
9.304336673262432
 20
-7.590750109999671
 30
0.0
 10
9.048934303044572
 20
-7.553316060540014
 30
0.0
 10
8.715811631723145
 20
-7.465635640838136
 30
0.0
 10
8.465817839301135
 20
-7.283192359439965
 30
0.0
 10
8.240084401364781
 20
-7.155459547292891
 30
0.0
 10
8.0700864025821
 20
-7.053064255352257
 30
0.0
 10
7.847494858594429
 20
-6.973857896391905
 30
0.0
 10
7.595091863459532
 20
-7.023879772858125
 30
0.0
 10
7.498334177618255
 20
-7.208768009991872
 30
0.0
 10
7.427039490006284
 20
-7.386561856461731
 30
0.0
 10
7.401705963409514
 20
-7.621854377267126
 30
0.0
 10
7.410929461203227
 20
-7.865386889399219
 30
0.0
 10
7.406859652692493
 20
-8.024472630092038
 30
0.0
 10
7.398746176263263
 20
-8.180875816791103
 30
0.0
 10
7.39233862945785
 20
-8.323960769390387
 30
0.0
 10
7.411128974231264
 20
-8.46595012944097
 30
0.0
 10
7.512958783494389
 20
-8.51978053241221
 30
0.0
 10
7.652353135945775
 20
-8.39019555661461
 30
0.0
 10
7.846324688695996
 20
-8.265701962319072
 30
0.0
 10
7.835612784240454
 20
-8.045824901523321
 30
0.0
 10
7.858076340930777
 20
-7.879262681382575
 30
0.0
 10
7.764290030867777
 20
-7.75880066814635
 30
0.0
 10
7.689196771306529
 20
-7.646408163026126
 30
0.0
 10
7.67966429464348
 20
-7.492487820762894
 30
0.0
 10
7.700679072848573
 20
-7.340917288140004
 30
0.0
 10
7.968799950232476
 20
-7.202134881826992
 30
0.0
 10
7.797739860603649
 20
-7.431241613604213
 30
0.0
 10
7.785234634601016
 20
-7.568731680043626
 30
0.0
 10
7.791838065561675
 20
-7.670499037776159
 30
0.0
 10
7.891418594479063
 20
-7.756271013435832
 30
0.0
 10
7.98383951127416
 20
-7.721234961186466
 30
0.0
 10
8.045245458169575
 20
-7.644413247644502
 30
0.0
 10
8.077632394482247
 20
-7.53799799086634
 30
0.0
 10
8.169969982360021
 20
-7.282609123018078
 30
0.0
 10
8.181918711465439
 20
-7.467771106450191
 30
0.0
 10
8.188341608910754
 20
-7.562566127115155
 30
0.0
 10
8.14139002017684
 20
-7.700151421798172
 30
0.0
 10
8.04134741673794
 20
-7.797655180789948
 30
0.0
 10
7.961871752381393
 20
-7.9033472655324
 30
0.0
 10
7.923486918969948
 20
-8.00736117331318
 30
0.0
 10
7.959669034530078
 20
-8.157174945662824
 30
0.0
 10
8.081018229661183
 20
-8.13770276809498
 30
0.0
 10
8.212862717534508
 20
-7.965676667868109
 30
0.0
 10
8.390981403352495
 20
-7.807281458898115
 30
0.0
 10
8.565006007525687
 20
-7.705182761207422
 30
0.0
 10
8.88712471814149
 20
-7.646913596887636
 30
0.0
 10
8.70250413154758
 20
-7.769595626851359
 30
0.0
 10
8.583819856507816
 20
-7.810358313524817
 30
0.0
 10
8.459939283297151
 20
-7.87794987587335
 30
0.0
 10
8.413259837553854
 20
-7.940066041842506
 30
0.0
 10
8.417096313525024
 20
-7.977898956469097
 30
0.0
 10
8.45436887914181
 20
-8.008785418271252
 30
0.0
 10
8.547410353549713
 20
-8.092657202660936
 30
0.0
 10
8.41183523107467
 20
-8.045663639480884
 30
0.0
 10
8.344681458621107
 20
-8.045199370046099
 30
0.0
 10
8.269637222773834
 20
-8.083845718628686
 30
0.0
 10
8.196380095555478
 20
-8.151986499376603
 30
0.0
 10
8.113795929623917
 20
-8.237078276821382
 30
0.0
 10
8.00877514104887
 20
-8.279628621043353
 30
0.0
 10
7.892539056006275
 20
-8.304845640728189
 30
0.0
 10
7.820127366071564
 20
-8.45357954080296
 30
0.0
 10
7.723594184206885
 20
-8.503983579059572
 30
0.0
 10
7.542654485948827
 20
-8.587790468270791
 30
0.0
 10
7.66750357455579
 20
-8.615744451747256
 30
0.0
 10
7.743790353143726
 20
-8.536406786708678
 30
0.0
 10
7.899661765474161
 20
-8.487222010918472
 30
0.0
 10
8.050666853704325
 20
-8.460544557320759
 30
0.0
 10
8.205416863359789
 20
-8.467530412919205
 30
0.0
 10
8.334151025832513
 20
-8.359073365034696
 30
0.0
 10
8.525797197936843
 20
-8.368887936355634
 30
0.0
 10
8.743204956624266
 20
-8.388330425959058
 30
0.0
 10
8.930932447682071
 20
-8.501376708754991
 30
0.0
 10
9.12833449442303
 20
-8.618437019211987
 30
0.0
 10
9.247157142679118
 20
-8.72598620446756
 30
0.0
 10
9.460914252737737
 20
-8.953011872790253
 30
0.0
 10
9.278588628895509
 20
-8.881519948879236
 30
0.0
 10
9.22711477905324
 20
-8.801032918006976
 30
0.0
 10
9.12771856206235
 20
-8.742076991419859
 30
0.0
 10
9.066513488908491
 20
-8.65348277017278
 30
0.0
 10
8.98382797348254
 20
-8.626417739096535
 30
0.0
 10
8.912869849150074
 20
-8.618859046538839
 30
0.0
 10
8.852665434607875
 20
-8.700408441392575
 30
0.0
 10
8.88079340985885
 20
-8.819462353749515
 30
0.0
 10
8.892089060105851
 20
-8.917429258052561
 30
0.0
 10
8.89657791707436
 20
-8.997314331936344
 30
0.0
 10
8.874497101868853
 20
-9.046866995718835
 30
0.0
 10
8.933102718543056
 20
-9.107839176114751
 30
0.0
 10
9.00295687531717
 20
-9.151474878757083
 30
0.0
 10
9.035591233552777
 20
-9.210272448152782
 30
0.0
 10
9.047172848300235
 20
-9.317264489905437
 30
0.0
 10
8.975480298310654
 20
-9.239269139821776
 30
0.0
 10
8.953626078148677
 20
-9.201889734264787
 30
0.0
 10
8.918628790780263
 20
-9.156777834552265
 30
0.0
 10
8.861785303334834
 20
-9.18133898319383
 30
0.0
 10
8.85543158724202
 20
-9.268321332100557
 30
0.0
 10
8.873137633421928
 20
-9.331660695882963
 30
0.0
 10
8.89634600632392
 20
-9.440837575323538
 30
0.0
 10
8.795499671329507
 20
-9.402605561400646
 30
0.0
 10
8.763047389239448
 20
-9.301392608015142
 30
0.0
 10
8.774903573628517
 20
-9.151048097671158
 30
0.0
 10
8.781534286149514
 20
-8.987000016526174
 30
0.0
 10
8.801762160901182
 20
-8.808247864505642
 30
0.0
 10
8.685934662381245
 20
-8.704191583524022
 30
0.0
 10
8.643837998236254
 20
-8.56698305840038
 30
0.0
 10
8.53585078708956
 20
-8.449106070110535
 30
0.0
 10
8.394170718273918
 20
-8.477171170411157
 30
0.0
 10
8.337711623071751
 20
-8.580505240343467
 30
0.0
 10
8.359714435226934
 20
-8.722052544460222
 30
0.0
 10
8.442254721913956
 20
-8.88078045956217
 30
0.0
 10
8.464581928459138
 20
-9.111384460870134
 30
0.0
 10
8.431727194277343
 20
-9.343672847681123
 30
0.0
 10
8.62279744464537
 20
-9.363289246554372
 30
0.0
 10
8.687518704722532
 20
-9.456571833372134
 30
0.0
 10
8.707754290324212
 20
-9.557960587296034
 30
0.0
 10
8.654215764088017
 20
-9.709651825206432
 30
0.0
 10
8.61587047900465
 20
-9.539589788044866
 30
0.0
 10
8.572995135875003
 20
-9.456673069691744
 30
0.0
 10
8.48265799903605
 20
-9.400096590675638
 30
0.0
 10
8.396195823638829
 20
-9.41917775438189
 30
0.0
 10
8.395572931254721
 20
-9.536837474079846
 30
0.0
 10
8.295419231516858
 20
-9.686424214686374
 30
0.0
 10
8.46151044861023
 20
-9.74211725731697
 30
0.0
 10
8.465963134620976
 20
-9.807028129635885
 30
0.0
  0
SPLINE
  5
8D
330
1F
100
AcDbEntity
  8
0
  6
Continuous
 62
     7
370
    25
100
AcDbSpline
210
0.0
220
0.0
230
1.0
 70
     8
 71
     3
 72
   388
 73
   384
 74
     0
 42
0.000000001
 43
0.00000001
 40
0.0
 40
0.0
 40
0.0
 40
0.0
 40
0.0046691363657399
 40
0.006433418561912
 40
0.0084310247766229
 40
0.0096324971023058
 40
0.0115267825507777
 40
0.0146302883534546
 40
0.0218687888008301
 40
0.0233042506622392
 40
0.0289849069675457
 40
0.0320162283052578
 40
0.0357922411069662
 40
0.0388780438098025
 40
0.0404507118992229
 40
0.0414245293616811
 40
0.0441187060218541
 40
0.0475218266083475
 40
0.0501908501968977
 40
0.0511576826753985
 40
0.0537635644177458
 40
0.0558562304948173
 40
0.057813309669874
 40
0.0589489542129075
 40
0.0601417009213023
 40
0.0607224368865588
 40
0.0620848035723569
 40
0.064178462140345
 40
0.0662897089076027
 40
0.0675652531944289
 40
0.0682100167112786
 40
0.0727373440761003
 40
0.0757168112650795
 40
0.0799248784883325
 40
0.083501380562845
 40
0.0841530749982303
 40
0.0850054745587508
 40
0.0857682169978389
 40
0.087169234739288
 40
0.0888156999587248
 40
0.090986218066816
 40
0.0961404723444479
 40
0.0983592623287678
 40
0.1006049320008738
 40
0.1029951043621866
 40
0.104950207076764
 40
0.1059935557320269
 40
0.1070846510100511
 40
0.1098301964929221
 40
0.1122772656074999
 40
0.1144337520442986
 40
0.1169970156007835
 40
0.1189895247561688
 40
0.1202246318610808
 40
0.121675402218091
 40
0.1236627335799658
 40
0.1258706736759494
 40
0.1271430421228922
 40
0.1286114224783343
 40
0.1309682109432689
 40
0.1328337122438353
 40
0.1344138635724044
 40
0.1356788318135079
 40
0.1370778328461089
 40
0.1381163876619605
 40
0.138901961541808
 40
0.1402358458219491
 40
0.1410938781387563
 40
0.1427521891429488
 40
0.1438688800080002
 40
0.14484149432204
 40
0.1464355555919421
 40
0.1477475881532062
 40
0.1486418308352163
 40
0.150558715096624
 40
0.1526666190524449
 40
0.1555434722699714
 40
0.1609644235467825
 40
0.1646313710106226
 40
0.1673221229301088
 40
0.1698507801567288
 40
0.1719771112998452
 40
0.1727412626870255
 40
0.1738259929114881
 40
0.1758525357561328
 40
0.1789041673623605
 40
0.1823420169117075
 40
0.1867978461393004
 40
0.1893204076513794
 40
0.1917562802006225
 40
0.1939231071206804
 40
0.1951809387081074
 40
0.1972134450005962
 40
0.199736273058946
 40
0.2023602145819462
 40
0.2046070133090331
 40
0.2060611463897529
 40
0.2078873395650039
 40
0.2103046543468657
 40
0.2117357228783493
 40
0.2143306887581203
 40
0.215956047756386
 40
0.2177649891569384
 40
0.2199922220589638
 40
0.2222970469795513
 40
0.2254039022982334
 40
0.227951606731695
 40
0.2295108612422506
 40
0.2313536673194698
 40
0.2329738881965285
 40
0.2344587387030041
 40
0.2362464130670872
 40
0.2389709075511594
 40
0.2421879946353202
 40
0.2449118566801611
 40
0.2488196912689206
 40
0.2509798837880333
 40
0.2553006628963783
 40
0.2581057479986938
 40
0.26012021437894
 40
0.2617600006283513
 40
0.2636220166221779
 40
0.2694045370974581
 40
0.2712539100329556
 40
0.2786646975919919
 40
0.2822058643171509
 40
0.28343333800371
 40
0.2850570061881773
 40
0.2870865112604077
 40
0.2899516234544284
 40
0.2930370087654203
 40
0.2970191984923307
 40
0.3002323003359191
 40
0.3034297212799715
 40
0.3085701122538234
 40
0.3173118376921007
 40
0.3186967715955053
 40
0.3229662436291876
 40
0.3272020064547746
 40
0.3306992818560704
 40
0.3353015411157534
 40
0.339616894231716
 40
0.3432361273363331
 40
0.3449338059735602
 40
0.3473643601599551
 40
0.3491559555593311
 40
0.3522624684040086
 40
0.353728386328331
 40
0.3548786849220534
 40
0.3566131230511934
 40
0.3593503283978983
 40
0.3624588438694331
 40
0.365282563919154
 40
0.3674321736329297
 40
0.36969861481737
 40
0.3714838458965257
 40
0.3744212895303214
 40
0.3770742140020614
 40
0.3804356931241653
 40
0.3831062672771544
 40
0.3847274665508625
 40
0.3865882370816379
 40
0.3882662876027604
 40
0.3903730612657664
 40
0.3999180614255753
 40
0.4032969834431286
 40
0.405070113935102
 40
0.4058174881567467
 40
0.4077392348313226
 40
0.4114142757053877
 40
0.4134634607643481
 40
0.4177440845177735
 40
0.4214833360624315
 40
0.4242438684464
 40
0.4281719582035049
 40
0.4331524048731794
 40
0.4364223013495335
 40
0.4394686825223446
 40
0.440487275873917
 40
0.4422677077728646
 40
0.4437981540568446
 40
0.4462550973061477
 40
0.4488540316127961
 40
0.4502771051362633
 40
0.4511686218952095
 40
0.4536113597061981
 40
0.4572432601291893
 40
0.4610955493452607
 40
0.46170858505866
 40
0.4633736172631823
 40
0.4650620898457304
 40
0.4680269730917743
 40
0.4689276674705457
 40
0.471319740142249
 40
0.4721349806725187
 40
0.4748763519806309
 40
0.4764378909629277
 40
0.4806026781429377
 40
0.4816330158063699
 40
0.4831136821729788
 40
0.4857494859221821
 40
0.4926007241581334
 40
0.4942876625776265
 40
0.4977195820335252
 40
0.5001052437341521
 40
0.5032058139943242
 40
0.5047873304981007
 40
0.5058068505405825
 40
0.5070836430991214
 40
0.5076247434465968
 40
0.5085169870174763
 40
0.514012598661645
 40
0.5163685133237869
 40
0.5185783340856326
 40
0.5210002042353712
 40
0.5236027703727135
 40
0.5260627225806616
 40
0.5284986681737703
 40
0.5315119389558403
 40
0.533754693930191
 40
0.5352829264303652
 40
0.5367986607536299
 40
0.5383316751211233
 40
0.5409617884567627
 40
0.5428012437896073
 40
0.5452967560039849
 40
0.5474641258551689
 40
0.5492409507459
 40
0.550300697384357
 40
0.5513441487084045
 40
0.5536165394104403
 40
0.5569859123453259
 40
0.5583904314095443
 40
0.5614926892570192
 40
0.5637863447546279
 40
0.5669171190636134
 40
0.5681744937751089
 40
0.5694599175921075
 40
0.5708890501573587
 40
0.5727527450258795
 40
0.5745849045656484
 40
0.576596859631846
 40
0.5782174479391025
 40
0.5805506456017915
 40
0.5837755061201954
 40
0.5874020389756269
 40
0.5916578391766116
 40
0.5946991696793454
 40
0.596598373526481
 40
0.5994368291186326
 40
0.6017418793894369
 40
0.6033542130176848
 40
0.6106643496304637
 40
0.6130671877584316
 40
0.6161911570006509
 40
0.6203212631463347
 40
0.6223971728808212
 40
0.62763557026007
 40
0.6330992689600147
 40
0.6353315253778006
 40
0.6385588010062785
 40
0.6414714298938663
 40
0.64292929302738
 40
0.645070937122855
 40
0.6462906750902216
 40
0.6483226680062484
 40
0.6511497346188561
 40
0.6529346643359546
 40
0.6550082094140433
 40
0.6562423511978427
 40
0.6591096903421785
 40
0.6628245432262859
 40
0.6669513932839229
 40
0.6720045592032703
 40
0.6765171596872276
 40
0.6798689830368106
 40
0.6827606799907725
 40
0.6853328668854671
 40
0.6870629700099125
 40
0.6889283831315641
 40
0.6902424402469269
 40
0.6915024344851748
 40
0.6931772994777206
 40
0.6954390804312166
 40
0.6980535107548633
 40
0.7036598664688145
 40
0.7050826271229699
 40
0.7065317622516205
 40
0.7112554022808671
 40
0.7135125021773459
 40
0.7153913873587262
 40
0.7169192524179376
 40
0.7181956363543439
 40
0.7204537533911796
 40
0.723122628134182
 40
0.7256163903550771
 40
0.7275574607947485
 40
0.7316160475569319
 40
0.7335564550800697
 40
0.7357034842654535
 40
0.7386190307524545
 40
0.7414797742615631
 40
0.7444427392590219
 40
0.7472719100295018
 40
0.7496945196342607
 40
0.7521850377577279
 40
0.7541471596973455
 40
0.7615710617063672
 40
0.7625754728283645
 40
0.7641912709173179
 40
0.7663905401174235
 40
0.7706789694032266
 40
0.778497637183929
 40
0.7853913190354439
 40
0.7891663912926294
 40
0.7916239946634936
 40
0.7931210053756046
 40
0.7950936687741169
 40
0.8018009001718088
 40
0.8031235649140814
 40
0.8054038230194474
 40
0.8085785903385432
 40
0.8112091782185019
 40
0.8130345306354049
 40
0.8154576941911583
 40
0.8195138455590681
 40
0.8218812592012431
 40
0.826186797062076
 40
0.8302140079131667
 40
0.8353328128760913
 40
0.8394305409118534
 40
0.8431262851363609
 40
0.8452054411991172
 40
0.8458882398067873
 40
0.8499542712130612
 40
0.8540624254537581
 40
0.8618419443647827
 40
0.8635549855144368
 40
0.8651117125790403
 40
0.8671529522647665
 40
0.8691795402315067
 40
0.8712071268004687
 40
0.8737666847977738
 40
0.8783634450390158
 40
0.88193397185146
 40
0.8845675840419744
 40
0.886732102759311
 40
0.8897587829473355
 40
0.8920137171032303
 40
0.8951039314421619
 40
0.896294783504218
 40
0.8985890370193257
 40
0.8993923495252703
 40
0.8995888235110897
 40
0.9005537768775198
 40
0.9015609227272756
 40
0.9027215645046525
 40
0.9048902045169918
 40
0.9072606937911777
 40
0.9092552057208136
 40
0.9130340154109513
 40
0.9160001370856123
 40
0.9187524965696571
 40
0.9200414794310967
 40
0.9222232113039763
 40
0.9249339796087108
 40
0.9267579514920603
 40
0.9277638760872846
 40
0.9298189123086972
 40
0.9317355301441727
 40
0.9344673260471725
 40
0.937741861611761
 40
0.9402680218300112
 40
0.9485899190338126
 40
0.9500064010986398
 40
0.9544328424782826
 40
0.9630585481546388
 40
0.9706205972269433
 40
0.9769736953299777
 40
0.9844674270977155
 40
0.9911129485957237
 40
0.9955300241991195
 40
1.0
 40
1.0
 40
1.0
 40
1.0
 10
6.513186041265318
 20
-1.451719390677134
 30
0.0
 10
6.512934019875283
 20
-1.459080901478105
 30
0.0
 10
6.513500906783981
 20
-1.585595448605333
 30
0.0
 10
6.513919110564184
 20
-1.671525189100662
 30
0.0
 10
6.503207315099539
 20
-1.742657458366388
 30
0.0
 10
6.56723165454825
 20
-1.767637530290274
 30
0.0
 10
6.633349498116735
 20
-1.75669738623131
 30
0.0
 10
6.786719369096638
 20
-1.473700762013646
 30
0.0
 10
6.784565226293718
 20
-1.482922801368986
 30
0.0
 10
6.835075157163048
 20
-1.343036626033214
 30
0.0
 10
6.92048643573972
 20
-1.213896168362936
 30
0.0
 10
6.856811367544327
 20
-1.137139961786499
 30
0.0
 10
6.729111484889528
 20
-1.130506405738015
 30
0.0
 10
6.63087983049568
 20
-1.170554046221241
 30
0.0
 10
6.580919637025171
 20
-1.075539238451281
 30
0.0
 10
6.657780871341296
 20
-1.090301360399859
 30
0.0
 10
6.728544809169686
 20
-1.085660527298624
 30
0.0
 10
6.822560908585639
 20
-1.068357860541118
 30
0.0
 10
6.923014128000019
 20
-1.119598143090841
 30
0.0
 10
6.946914222467103
 20
-1.042897634251246
 30
0.0
 10
6.936413249339196
 20
-0.9814579085661341
 30
0.0
 10
6.941066999789003
 20
-0.9071901622331756
 30
0.0
 10
6.935052276633745
 20
-0.8450618409839546
 30
0.0
 10
6.979167623013653
 20
-0.8080015104933377
 30
0.0
 10
7.016471765968541
 20
-0.8315834794548789
 30
0.0
 10
7.016276021950276
 20
-0.8679634461561835
 30
0.0
 10
7.017970896486627
 20
-0.9126684018327624
 30
0.0
 10
7.018113517667728
 20
-0.9765800953310744
 30
0.0
 10
7.026220067678541
 20
-1.034555293885422
 30
0.0
 10
7.014925401543381
 20
-1.087273421502313
 30
0.0
 10
7.058186965263281
 20
-1.131149332438364
 30
0.0
 10
7.176728333975177
 20
-1.135958442170404
 30
0.0
 10
7.320594806308723
 20
-1.195373278065776
 30
0.0
 10
7.473358975611254
 20
-1.215900431368769
 30
0.0
 10
7.55427014416761
 20
-1.279730081261583
 30
0.0
 10
7.639723885636552
 20
-1.294790992942649
 30
0.0
 10
7.631025599270632
 20
-1.251272651250154
 30
0.0
 10
7.611040986489034
 20
-1.219997637188228
 30
0.0
 10
7.575755524094015
 20
-1.179352194009332
 30
0.0
 10
7.50995785940305
 20
-1.150123370637144
 30
0.0
 10
7.387946690840739
 20
-1.144073866039131
 30
0.0
 10
7.272939316387724
 20
-1.066670011593021
 30
0.0
 10
7.195834325045529
 20
-0.9613367648830722
 30
0.0
 10
7.17991983792473
 20
-0.8642699500737779
 30
0.0
 10
7.159854535817557
 20
-0.7951127814485937
 30
0.0
 10
7.17622682770086
 20
-0.6733221020931246
 30
0.0
 10
7.229153247223342
 20
-0.7317654694205273
 30
0.0
 10
7.214215702700592
 20
-0.7965084378154401
 30
0.0
 10
7.233413602921621
 20
-0.8812735380385354
 30
0.0
 10
7.265074491729201
 20
-0.9764539387795421
 30
0.0
 10
7.343364318607174
 20
-1.042943909987639
 30
0.0
 10
7.428403747910891
 20
-1.060647969688063
 30
0.0
 10
7.517284661514341
 20
-1.080993671884567
 30
0.0
 10
7.555146770636416
 20
-1.020455693333913
 30
0.0
 10
7.55777604123345
 20
-0.9572890483623868
 30
0.0
 10
7.552918537453899
 20
-0.8833071654395176
 30
0.0
 10
7.57076268889883
 20
-0.8019084687830114
 30
0.0
 10
7.518076572359151
 20
-0.7543404361112092
 30
0.0
 10
7.457296966218734
 20
-0.7177234991575094
 30
0.0
 10
7.401013381524033
 20
-0.6994383392911575
 30
0.0
 10
7.291298308914528
 20
-0.6150950168537876
 30
0.0
 10
7.387213019991581
 20
-0.6622749072176201
 30
0.0
 10
7.43515568108802
 20
-0.6650463482201783
 30
0.0
 10
7.490914036656994
 20
-0.6776292135863881
 30
0.0
 10
7.523684697499635
 20
-0.6394242327782902
 30
0.0
 10
7.526802177039398
 20
-0.5983516024788328
 30
0.0
 10
7.538755703160634
 20
-0.5510660936028073
 30
0.0
 10
7.485390797819988
 20
-0.5243754460984846
 30
0.0
 10
7.453464249457777
 20
-0.5076899648819487
 30
0.0
 10
7.396485037715888
 20
-0.4453812525621159
 30
0.0
 10
7.463459450940176
 20
-0.4768634807387779
 30
0.0
 10
7.521301032182715
 20
-0.5141873267533414
 30
0.0
 10
7.518011129816704
 20
-0.448080283541935
 30
0.0
 10
7.53680336827026
 20
-0.3787391715553218
 30
0.0
 10
7.580638515783825
 20
-0.4876619437949873
 30
0.0
 10
7.616702215118293
 20
-0.5536716766835317
 30
0.0
 10
7.613714963852929
 20
-0.7052131776198778
 30
0.0
 10
7.64200349216709
 20
-0.8608084248240362
 30
0.0
 10
7.64261555448068
 20
-1.017261990371569
 30
0.0
 10
7.617361954963518
 20
-1.145377612536616
 30
0.0
 10
7.690552468427981
 20
-1.21732947353283
 30
0.0
 10
7.730324840889517
 20
-1.291183745862615
 30
0.0
 10
7.786677422538007
 20
-1.289932327298671
 30
0.0
 10
7.838558277742821
 20
-1.263004044233994
 30
0.0
 10
7.82353589059892
 20
-1.166676604432555
 30
0.0
 10
7.861288834588507
 20
-1.060257550917343
 30
0.0
 10
7.840255388915329
 20
-0.9107637933362022
 30
0.0
 10
7.833197839230661
 20
-0.768672744191703
 30
0.0
 10
7.7631078064009
 20
-0.6573529810079972
 30
0.0
 10
7.725999025376162
 20
-0.5780250179361236
 30
0.0
 10
7.607984981762563
 20
-0.5318035494542549
 30
0.0
 10
7.696724669932831
 20
-0.4761363411056953
 30
0.0
 10
7.763806616759134
 20
-0.5285297945894611
 30
0.0
 10
7.853156999398521
 20
-0.5722693743313789
 30
0.0
 10
7.891577780952595
 20
-0.6625223980846678
 30
0.0
 10
7.966374181653059
 20
-0.7374109939667572
 30
0.0
 10
8.037241172447144
 20
-0.6897083220559493
 30
0.0
 10
8.08145027934836
 20
-0.6301876551516893
 30
0.0
 10
8.128053769406424
 20
-0.5664404415062207
 30
0.0
 10
8.135048218255397
 20
-0.4745876708336738
 30
0.0
 10
8.113864408914102
 20
-0.4173315425556687
 30
0.0
 10
8.098395094068977
 20
-0.2909575861938159
 30
0.0
 10
8.173484993508938
 20
-0.391453469544725
 30
0.0
 10
8.205908198947013
 20
-0.4537172646289273
 30
0.0
 10
8.218225385965779
 20
-0.5640054322522761
 30
0.0
 10
8.171813728937284
 20
-0.6655181602479945
 30
0.0
 10
8.09922134573664
 20
-0.7319907783884836
 30
0.0
 10
8.029094593720426
 20
-0.7725656707098287
 30
0.0
 10
7.99359306823008
 20
-0.8348972930775856
 30
0.0
 10
7.993999686135408
 20
-0.9048247971073906
 30
0.0
 10
8.029681375806822
 20
-0.9626850733704063
 30
0.0
 10
8.027220075660166
 20
-1.046183051729799
 30
0.0
 10
8.007783797669441
 20
-1.148213936187554
 30
0.0
 10
7.984067949565889
 20
-1.259770297572978
 30
0.0
 10
7.902605976205032
 20
-1.387380184987224
 30
0.0
 10
7.971646593458692
 20
-1.467166414187155
 30
0.0
 10
8.105420748149749
 20
-1.520682459394264
 30
0.0
 10
8.20179977204229
 20
-1.609019679473153
 30
0.0
 10
8.240427673602726
 20
-1.732378012559044
 30
0.0
 10
8.235528151241716
 20
-1.81498368166387
 30
0.0
 10
8.258458514715146
 20
-1.902085459208866
 30
0.0
 10
8.40402104043698
 20
-1.874453346402025
 30
0.0
 10
8.528563870680152
 20
-1.921111101226589
 30
0.0
 10
8.665581174714951
 20
-2.07834572411016
 30
0.0
 10
8.64261224613134
 20
-2.263286821259035
 30
0.0
 10
8.73755653457864
 20
-2.405357456540053
 30
0.0
 10
8.807493504283132
 20
-2.45902418601453
 30
0.0
 10
8.880139810159172
 20
-2.457232018334544
 30
0.0
 10
8.947635257550594
 20
-2.397809087410227
 30
0.0
 10
9.028868726965644
 20
-2.323700331368429
 30
0.0
 10
9.059923771146002
 20
-2.188915427073888
 30
0.0
 10
9.081533801330044
 20
-2.051907671274314
 30
0.0
 10
9.050010336621115
 20
-1.912003957427332
 30
0.0
 10
8.980458257683472
 20
-1.774787091636031
 30
0.0
 10
8.892240789801653
 20
-1.547099935019179
 30
0.0
 10
8.725165546858038
 20
-1.467972141872478
 30
0.0
 10
8.598954162099188
 20
-1.313531224801251
 30
0.0
 10
8.609321719786449
 20
-1.170216620346115
 30
0.0
 10
8.57936044679364
 20
-1.01282026453905
 30
0.0
 10
8.519401596088613
 20
-0.8566118872555932
 30
0.0
 10
8.476691366734466
 20
-0.6969417506646955
 30
0.0
 10
8.430718010802659
 20
-0.5277703962953384
 30
0.0
 10
8.435349697288796
 20
-0.4104550722171211
 30
0.0
 10
8.526002145772019
 20
-0.2863668692315496
 30
0.0
 10
8.510376498053052
 20
-0.4160688211632055
 30
0.0
 10
8.526755085848244
 20
-0.5366305199895532
 30
0.0
 10
8.522908726833892
 20
-0.5833869621146255
 30
0.0
 10
8.56990733599658
 20
-0.6875355018330066
 30
0.0
 10
8.618005852615356
 20
-0.6254409800587871
 30
0.0
 10
8.655904940214763
 20
-0.5692988905913
 30
0.0
 10
8.727438125069305
 20
-0.4924967266608437
 30
0.0
 10
8.78621900776867
 20
-0.3844908869503333
 30
0.0
 10
8.86151175355506
 20
-0.3298848772597818
 30
0.0
 10
9.009191237686357
 20
-0.2775954880836592
 30
0.0
 10
8.916892174577423
 20
-0.3836401606669543
 30
0.0
 10
8.845153261335868
 20
-0.4244858286128386
 30
0.0
 10
8.792642046292102
 20
-0.5187170603042147
 30
0.0
 10
8.747033445209327
 20
-0.6279250010684886
 30
0.0
 10
8.682714013733872
 20
-0.7269267973355201
 30
0.0
 10
8.646012897603374
 20
-0.8244273266246294
 30
0.0
 10
8.640528546892954
 20
-0.908555882076784
 30
0.0
 10
8.664710854615318
 20
-0.9757457156791224
 30
0.0
 10
8.72025268531326
 20
-1.033757669669151
 30
0.0
 10
8.689438061500471
 20
-1.229414162381643
 30
0.0
 10
8.823500212120363
 20
-1.347623369142087
 30
0.0
 10
8.958118541645003
 20
-1.489685912185664
 30
0.0
 10
8.988640221027671
 20
-1.57690602568156
 30
0.0
 10
9.057986319674226
 20
-1.577699218331168
 30
0.0
 10
9.0812914678948
 20
-1.468569135683697
 30
0.0
 10
9.051800516735133
 20
-1.391865693126283
 30
0.0
 10
9.017544925462893
 20
-1.258174113544607
 30
0.0
 10
8.971235845303209
 20
-1.122805566554158
 30
0.0
 10
9.042915746701514
 20
-0.9878401473035564
 30
0.0
 10
9.09261523423844
 20
-0.8565684749641177
 30
0.0
 10
9.102083814646976
 20
-0.6998405386084215
 30
0.0
 10
9.162654570355299
 20
-0.5347621912978465
 30
0.0
 10
9.20532646374475
 20
-0.4187826591071764
 30
0.0
 10
9.351529554003513
 20
-0.3024556030205552
 30
0.0
 10
9.34450001205094
 20
-0.3911233325629866
 30
0.0
 10
9.308414666423545
 20
-0.438536159271558
 30
0.0
 10
9.262809556654469
 20
-0.5016383427630196
 30
0.0
 10
9.246523371220752
 20
-0.5936002047814171
 30
0.0
 10
9.223065933383069
 20
-0.667387254606346
 30
0.0
 10
9.227084661385856
 20
-0.7554424325778122
 30
0.0
 10
9.300978093941712
 20
-0.7455501354502951
 30
0.0
 10
9.395230155997405
 20
-0.6928851081050139
 30
0.0
 10
9.49832744200404
 20
-0.6594027369410199
 30
0.0
 10
9.588993307569142
 20
-0.6186257298994877
 30
0.0
 10
9.643571364490363
 20
-0.5748814432676665
 30
0.0
 10
9.669183897213536
 20
-0.5338064518018597
 30
0.0
 10
9.693549811402699
 20
-0.4890894740844521
 30
0.0
 10
9.818808015729747
 20
-0.4058545087985135
 30
0.0
 10
9.77167138961212
 20
-0.4946368312217013
 30
0.0
 10
9.754885432983636
 20
-0.5274239529550911
 30
0.0
 10
9.71267219873978
 20
-0.6107931862678719
 30
0.0
 10
9.853968112425823
 20
-0.556963848616276
 30
0.0
 10
9.91371567989713
 20
-0.5547265362575474
 30
0.0
 10
10.15228884297813
 20
-0.4792968881722024
 30
0.0
 10
10.04920536756446
 20
-0.5590434380732505
 30
0.0
 10
9.983238967207427
 20
-0.5853321896900128
 30
0.0
 10
9.813211165667205
 20
-0.6368780768921074
 30
0.0
 10
9.722376645559873
 20
-0.708894918269097
 30
0.0
 10
9.661700183663331
 20
-0.8864303281099176
 30
0.0
 10
9.589589356835189
 20
-0.9741726551816401
 30
0.0
 10
9.528941890291515
 20
-1.094985477515977
 30
0.0
 10
9.474573811136437
 20
-1.18566716128373
 30
0.0
 10
9.423277450023619
 20
-1.257141781225327
 30
0.0
 10
9.411666023408335
 20
-1.31413354316389
 30
0.0
 10
9.393766460957258
 20
-1.356796293617506
 30
0.0
 10
9.417969942954198
 20
-1.397057256162601
 30
0.0
 10
9.535431501099401
 20
-1.369663753744028
 30
0.0
 10
9.644904554857659
 20
-1.344604532931732
 30
0.0
 10
9.751951677166497
 20
-1.225174359318093
 30
0.0
 10
9.785237250868212
 20
-1.122754440501567
 30
0.0
 10
9.772525073247959
 20
-1.010757781500445
 30
0.0
 10
9.823307190129215
 20
-0.9077025435903086
 30
0.0
 10
9.86573800983186
 20
-0.7991215783894645
 30
0.0
 10
9.965313304192975
 20
-0.7321815874496191
 30
0.0
 10
10.03805602736304
 20
-0.621436107825202
 30
0.0
 10
10.13052653920796
 20
-0.6235164855945377
 30
0.0
 10
10.24454335067408
 20
-0.57295457384546
 30
0.0
 10
10.18727752152119
 20
-0.6737857255368709
 30
0.0
 10
10.10276508675771
 20
-0.6768844685774328
 30
0.0
 10
10.03695654960403
 20
-0.751178100817157
 30
0.0
 10
9.962310233471689
 20
-0.8225122836838628
 30
0.0
 10
9.907400175043039
 20
-0.905620254803184
 30
0.0
 10
9.872843543497254
 20
-0.9979377342869482
 30
0.0
 10
9.866359272199361
 20
-1.072377655255861
 30
0.0
 10
9.891492417977753
 20
-1.135370019139472
 30
0.0
 10
9.965757590660495
 20
-1.132068751406223
 30
0.0
 10
10.05872328025945
 20
-1.138317897010021
 30
0.0
 10
10.18162933129738
 20
-1.116097856399463
 30
0.0
 10
10.23674637782103
 20
-1.00732069316309
 30
0.0
 10
10.32820713071414
 20
-0.9422910473312547
 30
0.0
 10
10.38757007018836
 20
-0.8578654953781972
 30
0.0
 10
10.55352361806056
 20
-0.7410683116600097
 30
0.0
 10
10.4959948063188
 20
-0.8450021686589502
 30
0.0
 10
10.45935510188535
 20
-0.884927431493569
 30
0.0
 10
10.4136137691223
 20
-0.9387355923362681
 30
0.0
 10
10.36721327715993
 20
-1.001666016508127
 30
0.0
 10
10.34550611866376
 20
-1.084671525553114
 30
0.0
 10
10.35849846452998
 20
-1.179790289860587
 30
0.0
 10
10.45288927608344
 20
-1.209092621621841
 30
0.0
 10
10.55381994779469
 20
-1.233113756497109
 30
0.0
 10
10.69811621405869
 20
-1.262418859384645
 30
0.0
 10
10.83622423792233
 20
-1.244923156282977
 30
0.0
 10
11.10795791519211
 20
-1.123380266771598
 30
0.0
 10
10.95980051297435
 20
-1.300298145417292
 30
0.0
 10
10.84898982000863
 20
-1.307299935431591
 30
0.0
 10
10.74507726307047
 20
-1.35111574709705
 30
0.0
 10
10.64790435222146
 20
-1.344694081136716
 30
0.0
 10
10.44963477863108
 20
-1.327105113938457
 30
0.0
 10
10.6498120822858
 20
-1.588020879167551
 30
0.0
 10
10.83892332583939
 20
-1.615785347986423
 30
0.0
 10
10.96269044243913
 20
-1.603327852905264
 30
0.0
 10
11.19132025398734
 20
-1.46368728505649
 30
0.0
 10
11.05457445129655
 20
-1.668527888581376
 30
0.0
 10
10.87023721863497
 20
-1.691345716048647
 30
0.0
 10
10.66048650445482
 20
-1.681705475315831
 30
0.0
 10
10.53395964648818
 20
-1.566593275926011
 30
0.0
 10
10.48656701198553
 20
-1.448766758848562
 30
0.0
 10
10.41841342984102
 20
-1.352249995124487
 30
0.0
 10
10.33379786245769
 20
-1.301162643734625
 30
0.0
 10
10.25146396048411
 20
-1.295832100105594
 30
0.0
 10
10.18958224701386
 20
-1.351896808744151
 30
0.0
 10
10.11995147507689
 20
-1.411721444005399
 30
0.0
 10
10.08650778845622
 20
-1.515575198914632
 30
0.0
 10
10.05352928663116
 20
-1.594336638890775
 30
0.0
 10
9.976882455379066
 20
-1.6982040013624
 30
0.0
 10
10.10151639056233
 20
-1.677498470145585
 30
0.0
 10
10.20317088015883
 20
-1.682417964090921
 30
0.0
 10
10.37219189265172
 20
-1.711184748980115
 30
0.0
 10
10.53138491895602
 20
-1.82694210789342
 30
0.0
 10
10.73840854501959
 20
-1.869069072919822
 30
0.0
 10
10.93478497760583
 20
-1.873833324798958
 30
0.0
 10
11.09224290762866
 20
-1.833114110656993
 30
0.0
 10
11.21231122970428
 20
-1.759254623501946
 30
0.0
 10
11.29009462797784
 20
-1.72038063978266
 30
0.0
 10
11.41114180794792
 20
-1.632612874671982
 30
0.0
 10
11.35050585673579
 20
-1.745359994276156
 30
0.0
 10
11.30088288475444
 20
-1.77995071005418
 30
0.0
 10
11.28668940625266
 20
-1.848074587587737
 30
0.0
 10
11.30480499841004
 20
-1.929452337095883
 30
0.0
 10
11.40948444410076
 20
-1.977613692712161
 30
0.0
 10
11.54594657343765
 20
-1.951594460814696
 30
0.0
 10
11.80191514797968
 20
-2.151706479082671
 30
0.0
 10
11.63320517639869
 20
-2.158439716488662
 30
0.0
 10
11.55952783637576
 20
-2.066011242993752
 30
0.0
 10
11.43633782990599
 20
-2.027681102024285
 30
0.0
 10
11.30601910749528
 20
-2.084033348544586
 30
0.0
 10
11.25005090966255
 20
-2.146564895636938
 30
0.0
 10
11.18941685645078
 20
-2.193033377820377
 30
0.0
 10
11.19591480582581
 20
-2.279045404017892
 30
0.0
 10
11.26689467870352
 20
-2.341121099220496
 30
0.0
 10
11.33708769934202
 20
-2.445767954637461
 30
0.0
 10
11.45356744624167
 20
-2.419860507660435
 30
0.0
 10
11.58384181903005
 20
-2.424646567795284
 30
0.0
 10
11.67534844414556
 20
-2.432860791282688
 30
0.0
 10
11.86664474339907
 20
-2.407755522027873
 30
0.0
 10
11.71633236166626
 20
-2.502921124303718
 30
0.0
 10
11.61195553179161
 20
-2.49188371914449
 30
0.0
 10
11.48589747932944
 20
-2.495425772517858
 30
0.0
 10
11.34103555906007
 20
-2.512945254215996
 30
0.0
 10
11.2420255869194
 20
-2.427890337221213
 30
0.0
 10
11.15923648957699
 20
-2.348074136446175
 30
0.0
 10
11.10316509530359
 20
-2.255261637064316
 30
0.0
 10
10.93053554105527
 20
-2.18886766762318
 30
0.0
 10
10.7493757714827
 20
-2.230556650417846
 30
0.0
 10
10.67815991372164
 20
-2.330514529703259
 30
0.0
 10
10.70137013232795
 20
-2.395728352575857
 30
0.0
 10
10.79275889421592
 20
-2.431660351153818
 30
0.0
 10
10.93431670822328
 20
-2.521048793123897
 30
0.0
 10
11.15492477684007
 20
-2.583010149740567
 30
0.0
 10
11.30939582984288
 20
-2.754259310518778
 30
0.0
 10
11.44420997370631
 20
-2.809429167923953
 30
0.0
 10
11.54493968567854
 20
-2.853379989657811
 30
0.0
 10
11.5912499254317
 20
-2.788132730020913
 30
0.0
 10
11.67317858226219
 20
-2.73086213390064
 30
0.0
 10
11.86783099847982
 20
-2.531779836671154
 30
0.0
 10
11.8077648997938
 20
-2.669525462169933
 30
0.0
 10
11.74553931645121
 20
-2.714957125634661
 30
0.0
 10
11.69021601468303
 20
-2.791171608299371
 30
0.0
 10
11.64224441461423
 20
-2.880282089759671
 30
0.0
 10
11.70067782673584
 20
-2.95732865902289
 30
0.0
 10
11.79546967626589
 20
-2.949881360315076
 30
0.0
 10
11.9607048446864
 20
-2.842377467758931
 30
0.0
 10
11.84468479864607
 20
-2.993028587110006
 30
0.0
 10
11.7300824080547
 20
-3.007304365246801
 30
0.0
 10
11.58713282683618
 20
-3.086421355296988
 30
0.0
 10
11.47044132493312
 20
-3.200380083383297
 30
0.0
 10
11.39923488485647
 20
-3.311163082287172
 30
0.0
 10
11.2700242382408
 20
-3.430693599823182
 30
0.0
 10
11.42696694062043
 20
-3.465061662288755
 30
0.0
 10
11.53449764743871
 20
-3.508842199386471
 30
0.0
 10
11.53498340991712
 20
-3.523326944269156
 30
0.0
 10
11.71510086220761
 20
-3.608675812221611
 30
0.0
 10
12.05068678704612
 20
-3.654645968155183
 30
0.0
 10
11.89276070187486
 20
-3.703327463816042
 30
0.0
 10
11.83928024691261
 20
-3.710237719770124
 30
0.0
 10
11.76495475226622
 20
-3.714186374500656
 30
0.0
 10
11.72567768355583
 20
-3.780128877153145
 30
0.0
 10
11.66707402857549
 20
-3.836380486950637
 30
0.0
 10
11.67289657012194
 20
-3.952689502633957
 30
0.0
 10
11.68957886881706
 20
-4.079847352275999
 30
0.0
 10
11.74630895638727
 20
-4.18667877895975
 30
0.0
 10
11.80472694213054
 20
-4.292685660598361
 30
0.0
 10
11.87266163286776
 20
-4.230144628013726
 30
0.0
 10
12.00023962852212
 20
-4.153983789801179
 30
0.0
 10
11.94138464000327
 20
-4.292584583533415
 30
0.0
 10
11.85160072404835
 20
-4.316744890489073
 30
0.0
 10
11.86796877689201
 20
-4.396357635210062
 30
0.0
 10
11.95149848920868
 20
-4.453735186512566
 30
0.0
 10
11.89971741022127
 20
-4.449805447560478
 30
0.0
 10
11.87650512284074
 20
-4.436895954714888
 30
0.0
 10
11.85047202709185
 20
-4.426361032423039
 30
0.0
 10
11.82034093393361
 20
-4.38097713642486
 30
0.0
 10
11.76880763617666
 20
-4.437557489993455
 30
0.0
 10
11.71389192980281
 20
-4.478318145608447
 30
0.0
 10
11.65838713531762
 20
-4.551743525611838
 30
0.0
 10
11.6180186155928
 20
-4.655214288559248
 30
0.0
 10
11.6451884459367
 20
-4.780339947350372
 30
0.0
 10
11.64306660425574
 20
-4.88989130354553
 30
0.0
 10
11.77124496153128
 20
-5.014051440729578
 30
0.0
 10
11.65448358254565
 20
-4.982639950500777
 30
0.0
 10
11.63204410349485
 20
-4.8982939480749
 30
0.0
 10
11.57150542014296
 20
-4.839555164884096
 30
0.0
 10
11.58487149319168
 20
-4.720763704444637
 30
0.0
 10
11.51083337353425
 20
-4.765797560988633
 30
0.0
 10
11.47352206552169
 20
-4.813346956922028
 30
0.0
 10
11.38917647592424
 20
-4.855696059941562
 30
0.0
 10
11.28650369777912
 20
-4.883860341545028
 30
0.0
 10
11.18116726511359
 20
-4.920356915568152
 30
0.0
 10
10.97237902737036
 20
-4.955477511063107
 30
0.0
 10
11.0099410822071
 20
-5.079849161516629
 30
0.0
 10
11.07268699546434
 20
-5.11461318852374
 30
0.0
 10
11.16701757964447
 20
-5.057694203886972
 30
0.0
 10
11.28767424653566
 20
-5.069982498146132
 30
0.0
 10
11.41722237734349
 20
-5.094860348463514
 30
0.0
 10
11.54947175534909
 20
-5.153568361439997
 30
0.0
 10
11.6333011229865
 20
-5.079611604526475
 30
0.0
 10
11.83286276468731
 20
-5.060990609444787
 30
0.0
 10
11.71115663168603
 20
-5.145259808585081
 30
0.0
 10
11.67176082180715
 20
-5.140666614921376
 30
0.0
 10
11.63317006051643
 20
-5.163377202748038
 30
0.0
  0
SPLINE
  5
8E
330
1F
100
AcDbEntity
  8
0
  6
Continuous
 62
     7
370
    25
100
AcDbSpline
210
0.0
220
0.0
230
1.0
 70
     8
 71
     3
 72
   611
 73
   607
 74
     0
 42
0.000000001
 43
0.00000001
 40
0.0
 40
0.0
 40
0.0
 40
0.0
 40
0.0001407746926475
 40
0.0002890902489487
 40
0.000377750191968
 40
0.000536759333403
 40
0.0005735828261267
 40
0.0006194458792171
 40
0.0006457722543232
 40
0.0006828161569679
 40
0.0007873927766441
 40
0.0008716855333021
 40
0.0009202694439099
 40
0.0009759053724402
 40
0.0010484003564168
 40
0.0011687636199256
 40
0.0012539708871761
 40
0.0013194079339481
 40
0.0013763134079885
 40
0.0014994669859647
 40
0.00168254529787
 40
0.0020131292979403
 40
0.0021290918060105
 40
0.0022741793060055
 40
0.0024007990434279
 40
0.0025217340357084
 40
0.0026195042467795
 40
0.0026938916347274
 40
0.0028045747161236
 40
0.0028647563478766
 40
0.002936886429447
 40
0.0030316262972948
 40
0.003144973568336
 40
0.0032291543497425
 40
0.0033912919789339
 40
0.00354735233086
 40
0.0037492142487398
 40
0.0039196060635716
 40
0.0041161904935424
 40
0.004322138423473
 40
0.0044678734047096
 40
0.0046535140483736
 40
0.0048545398316221
 40
0.0050175090252765
 40
0.0051371822858306
 40
0.0052423969650554
 40
0.0053951188440223
 40
0.0055386898951725
 40
0.0055643213824102
 40
0.0056417545681787
 40
0.0056644603450205
 40
0.0057817000026069
 40
0.0059173303739273
 40
0.006107512244752
 40
0.006232944496204
 40
0.006399096904538
 40
0.0065773599159898
 40
0.0068034755577828
 40
0.006950390639672
 40
0.0071608935562594
 40
0.0074601208088748
 40
0.0079405033290067
 40
0.0081357520374202
 40
0.0084253078057085
 40
0.008629402622023
 40
0.0088812904535709
 40
0.0090638005340934
 40
0.0091654894224135
 40
0.009374497574375
 40
0.009565206542896
 40
0.009720067573765
 40
0.0097975644030375
 40
0.0099195621106815
 40
0.0101053113434632
 40
0.0102592014421003
 40
0.0104826203735723
 40
0.0106460438999494
 40
0.0108239692637687
 40
0.0109864056950352
 40
0.0110701606895514
 40
0.0111792137715153
 40
0.0114550496769739
 40
0.0116395920654443
 40
0.0117527515754889
 40
0.0120686953316624
 40
0.0122219120148794
 40
0.0124090148290505
 40
0.012546786605557
 40
0.0126335149808615
 40
0.0126649276375696
 40
0.0128391370020752
 40
0.0128904914410009
 40
0.0131566958562642
 40
0.0134985640986968
 40
0.0137589433216917
 40
0.0139434195453051
 40
0.0141424830250519
 40
0.0142641355465435
 40
0.0144882638976102
 40
0.0146885268185102
 40
0.014872927602678
 40
0.0150798620688395
 40
0.0152019234204457
 40
0.015368291814
 40
0.0155711322063595
 40
0.0157696450637651
 40
0.0159853566788769
 40
0.0161439097674098
 40
0.016320625974647
 40
0.0164952161751649
 40
0.0166620469417393
 40
0.0167992981617927
 40
0.0168747987680731
 40
0.016952744956768
 40
0.0170889658534353
 40
0.0172773613377661
 40
0.0175191593399672
 40
0.0176958642341041
 40
0.0178437239926423
 40
0.0182260489289965
 40
0.018428813238751
 40
0.0186503437262922
 40
0.0188332116624176
 40
0.018930452705919
 40
0.0190262189900929
 40
0.0191338929415457
 40
0.0192484556779796
 40
0.0193894144515945
 40
0.0194387731106326
 40
0.0197420422683607
 40
0.0200797216197501
 40
0.020280165095315
 40
0.020415401099844
 40
0.0205849933804295
 40
0.0207504842098593
 40
0.0211656222773778
 40
0.0213282370425356
 40
0.0215942819400191
 40
0.0217694648769977
 40
0.0220097907784946
 40
0.0223605003554496
 40
0.0225462429253698
 40
0.0227269653584482
 40
0.0228984809273027
 40
0.0231881004537557
 40
0.0234467024420699
 40
0.0237170489965522
 40
0.0239337859160374
 40
0.0240619479538116
 40
0.0242381991248184
 40
0.0245083173984811
 40
0.0246958592707997
 40
0.0248575198098213
 40
0.0250026473418167
 40
0.0251247800497789
 40
0.0252874043573177
 40
0.0255180483377452
 40
0.0257592402859761
 40
0.025908526159338
 40
0.0259827866709067
 40
0.0261408282115328
 40
0.0262228091893439
 40
0.0264072041140509
 40
0.0265914620789953
 40
0.0267721854040076
 40
0.0269164743758416
 40
0.0271074523006478
 40
0.0273682610515274
 40
0.0275999919964716
 40
0.0278503841456418
 40
0.028138823757765
 40
0.0283405584128412
 40
0.0285633110786491
 40
0.0287154114200471
 40
0.0288342887764131
 40
0.029088562181277
 40
0.0293126191337593
 40
0.0296294454596482
 40
0.0299231804223023
 40
0.0303375075283559
 40
0.0305179380209841
 40
0.0306484988818266
 40
0.030993798144098
 40
0.0312603274243092
 40
0.0314255910599383
 40
0.0315676876358387
 40
0.0316923330721363
 40
0.0318903443214686
 40
0.032023608961575
 40
0.0322778850709772
 40
0.0324795464579579
 40
0.0326619283632323
 40
0.0328117357709144
 40
0.0330183153154503
 40
0.033185729724619
 40
0.0333189698965485
 40
0.0335034777094375
 40
0.0335715658141484
 40
0.0338524919284371
 40
0.0339869521735072
 40
0.0340719086753715
 40
0.0342125698781061
 40
0.0343145688157968
 40
0.0344108274511036
 40
0.0344981605641008
 40
0.0345864543099914
 40
0.0346827896133771
 40
0.0347892496310314
 40
0.0348920520091882
 40
0.034998130840572
 40
0.035162553212754
 40
0.0353115948416066
 40
0.03549343401034
 40
0.0358532152976451
 40
0.0360463438140773
 40
0.0361023779924183
 40
0.036183406327489
 40
0.0363171575058899
 40
0.0366631601735072
 40
0.0370088099429962
 40
0.0371373916377509
 40
0.0373025277222022
 40
0.0374579574679956
 40
0.0375766509408258
 40
0.0376845398425156
 40
0.0378963774613142
 40
0.0380698894456302
 40
0.0382854372325767
 40
0.0384597656520803
 40
0.0386094631651759
 40
0.0388022076687771
 40
0.0389467469081186
 40
0.0390983164256963
 40
0.0393842846789288
 40
0.0396386805202564
 40
0.0399955107079041
 40
0.0401952180429468
 40
0.0403804121270415
 40
0.0404956557023702
 40
0.0406810751401852
 40
0.0408492673532403
 40
0.0410853908321392
 40
0.0412885055808502
 40
0.041431411963698
 40
0.0415847116769741
 40
0.0417551327043644
 40
0.0418555497801096
 40
0.0419366658885059
 40
0.0420662358470753
 40
0.0422711850585074
 40
0.042597253476915
 40
0.042777356294208
 40
0.0430426315871494
 40
0.0431744048821393
 40
0.0433563050368408
 40
0.0436705193448931
 40
0.0438339740960431
 40
0.0439868353000686
 40
0.0441202498894947
 40
0.0442318866458441
 40
0.0444075065539023
 40
0.044560552432864
 40
0.0446974123945552
 40
0.0447744749737867
 40
0.0448631385949067
 40
0.0450384972661306
 40
0.0451886450620048
 40
0.0453638174905241
 40
0.0454489012415194
 40
0.0455886341960395
 40
0.0457563985008641
 40
0.0459146022824193
 40
0.0460892810095608
 40
0.0462512872259211
 40
0.0463932850292018
 40
0.0466037016469213
 40
0.0468168615020563
 40
0.0469247965681781
 40
0.0470108079082185
 40
0.0471503009927689
 40
0.0473067541867104
 40
0.0474590661789828
 40
0.047588469387409
 40
0.0477463416848986
 40
0.0478830609274601
 40
0.0481187514717067
 40
0.0481541700798224
 40
0.0482372470086176
 40
0.0483235501153618
 40
0.0484666444515214
 40
0.0486210182961369
 40
0.0487359304421335
 40
0.0488746083378756
 40
0.0490922522052976
 40
0.0492429828822762
 40
0.0493935247747694
 40
0.0495516096064116
 40
0.0497413457620108
 40
0.0499040857754638
 40
0.0501015123441011
 40
0.0502836319087609
 40
0.0504758190520819
 40
0.0506515694451231
 40
0.050863531297747
 40
0.0511161209903315
 40
0.0513746877775053
 40
0.0516966020256446
 40
0.0519515222472556
 40
0.0522544055910707
 40
0.0525620188274472
 40
0.0529429130022205
 40
0.0532535720174505
 40
0.0534915442349615
 40
0.0536487111054146
 40
0.0539691882340388
 40
0.0542996317943198
 40
0.0545166021043716
 40
0.0547947753718597
 40
0.0550121380560914
 40
0.0551582172495917
 40
0.0552741043898243
 40
0.0554452472826594
 40
0.0555576626831223
 40
0.0557297454704899
 40
0.0558683933195906
 40
0.0560201946080042
 40
0.0564673563099759
 40
0.0569243793561869
 40
0.057206215884348
 40
0.057531884767991
 40
0.0578378521588797
 40
0.0581003245553511
 40
0.0582609635137885
 40
0.0584327027041787
 40
0.0586138484601531
 40
0.0588808540009331
 40
0.0591217426053448
 40
0.0593349987913875
 40
0.0596968340541052
 40
0.0601408358683655
 40
0.0603440612075879
 40
0.0605693326970586
 40
0.0607018393335425
 40
0.0608956963872355
 40
0.0610500889913509
 40
0.0612483211501152
 40
0.0612854678709297
 40
0.0614215561994956
 40
0.061542016425821
 40
0.0616233515440122
 40
0.0617201564514721
 40
0.0619975500195904
 40
0.0620756015935953
 40
0.0622482817965071
 40
0.0623363652599936
 40
0.0624221181214211
 40
0.0625312705304783
 40
0.0626356133691439
 40
0.0626777679107429
 40
0.0627570596627799
 40
0.0628588843735795
 40
0.0629511268349989
 40
0.0630407224329133
 40
0.0630936904545095
 40
0.063227304584353
 40
0.0633430951063716
 40
0.0635498648826503
 40
0.0636937709683634
 40
0.0638287580514712
 40
0.0639833039121149
 40
0.0640932857704119
 40
0.0641887094506648
 40
0.0643353057876281
 40
0.0645014743163257
 40
0.0646541186058849
 40
0.0647206669572663
 40
0.064925267839669
 40
0.0650460884533718
 40
0.0651302172424828
 40
0.0651991978006573
 40
0.065272389464421
 40
0.0653716521114868
 40
0.0654802225220204
 40
0.0655832771351202
 40
0.0657294545897061
 40
0.0658972196340898
 40
0.0659741526869451
 40
0.0661047788910479
 40
0.0663146172162151
 40
0.0665462162636475
 40
0.066690024809653
 40
0.0668997338198247
 40
0.0671240383376475
 40
0.0673137200422784
 40
0.0676183451119886
 40
0.0678513746487549
 40
0.0678962211177089
 40
0.0680668098015281
 40
0.0682621421199883
 40
0.0683073721121518
 40
0.0685191097231632
 40
0.0688948495231191
 40
0.0693257300134023
 40
0.0697093210042117
 40
0.0701644567328435
 40
0.0707686717496289
 40
0.0713447572240593
 40
0.0718793703933991
 40
0.072768662984755
 40
0.0729241523388971
 40
0.0734342639348202
 40
0.0740745238655729
 40
0.0751719483739634
 40
0.0760720487974362
 40
0.0765220827122782
 40
0.0776976914049879
 40
0.0788927995860189
 40
0.0790920818464248
 40
0.0798436646195214
 40
0.08063226999359
 40
0.0808122839434151
 40
0.0810016493144017
 40
0.08141743561232
 40
0.0819519766526618
 40
0.0829900769884734
 40
0.083592044350806
 40
0.0842308358301199
 40
0.0844371517776969
 40
0.0848100591291152
 40
0.0849583930968404
 40
0.0858135916373818
 40
0.0860175077609448
 40
0.086890654514903
 40
0.0871533226853972
 40
0.0881388017637084
 40
0.0894170271266228
 40
0.0904748343637876
 40
0.0914739683727253
 40
0.0922271697881987
 40
0.0933147749026707
 40
0.0941669140475586
 40
0.0956808185440527
 40
0.0980535288422575
 40
0.0988404683714521
 40
0.1004009722563686
 40
0.1017013002162391
 40
0.1029353681155804
 40
0.1037921913942385
 40
0.1048098018587895
 40
0.1051965418902018
 40
0.1058764522155412
 40
0.106726202418345
 40
0.1080911385654997
 40
0.1091595534557717
 40
0.1103396743852027
 40
0.1116009564097444
 40
0.1132138782464107
 40
0.1135261548436875
 40
0.1143543567252044
 40
0.1157886013446228
 40
0.1167084466016197
 40
0.1172099585217769
 40
0.1179985011302498
 40
0.1187608389986231
 40
0.1192739524459513
 40
0.1202127839514542
 40
0.1208780166838499
 40
0.1214371684568616
 40
0.1227173316541651
 40
0.1229888198426556
 40
0.1236428541880203
 40
0.1246844778487821
 40
0.125487054364902
 40
0.1265873584167468
 40
0.1277210617281555
 40
0.128438011444879
 40
0.1292966082614308
 40
0.1310983208727293
 40
0.1321239120188879
 40
0.1328054141744696
 40
0.1342140087405064
 40
0.1358408734413848
 40
0.1370595986081221
 40
0.1382225977392831
 40
0.138980464963103
 40
0.1407190572551828
 40
0.1420555063247359
 40
0.1446599406985555
 40
0.1477052886176304
 40
0.1495185861222713
 40
0.1525067836724287
 40
0.1557977667830354
 40
0.1584224096403513
 40
0.1609353468535131
 40
0.1636933400166647
 40
0.1699056222711316
 40
0.1708813372617908
 40
0.1734504899232566
 40
0.1763538456705608
 40
0.1798841666820765
 40
0.1828314120815237
 40
0.1875630308395141
 40
0.1962409134365858
 40
0.19932724648107
 40
0.2022573124629072
 40
0.2109276058700419
 40
0.216030419052479
 40
0.2209642139869384
 40
0.2248794040048751
 40
0.2264482292032411
 40
0.229830680706472
 40
0.2382456559083092
 40
0.2435242197606135
 40
0.2475565389837021
 40
0.2518148810954179
 40
0.2592577180792205
 40
0.2605234309029131
 40
0.2618909007571398
 40
0.2649296226199371
 40
0.2715965232019156
 40
0.2805174342500501
 40
0.2963559704977982
 40
0.3031229838398948
 40
0.3125603929116463
 40
0.3193426949511777
 40
0.3252195491344145
 40
0.3359692954278208
 40
0.3579014219850088
 40
0.3623620291914699
 40
0.380575367492432
 40
0.3882500397510291
 40
0.3953596121217947
 40
0.4028087532390546
 40
0.4148955698975518
 40
0.4230033241234297
 40
0.4294636750885018
 40
0.4330958701663226
 40
0.4420706575325265
 40
0.4487547815912337
 40
0.4539909227794798
 40
0.4600463722729329
 40
0.4675468808729744
 40
0.4701641979273552
 40
0.4754061579758492
 40
0.47935855106751
 40
0.4926718245381355
 40
0.4968401601308135
 40
0.5015381580679552
 40
0.5050557239905482
 40
0.5113448811695056
 40
0.5150376120875524
 40
0.5196201821275548
 40
0.5283020541839996
 40
0.5350048190720207
 40
0.5474864553933
 40
0.561886630693492
 40
0.569980218700806
 40
0.5804106807473272
 40
0.5884782844692164
 40
0.596799927839057
 40
0.6045410875866226
 40
0.6122080938185247
 40
0.6244424207429499
 40
0.6438101070067476
 40
0.652166781968407
 40
0.6561593812344709
 40
0.6624132984506091
 40
0.6725645526319847
 40
0.6839137720788788
 40
0.6911725831618177
 40
0.6944989815745739
 40
0.6989501246684463
 40
0.7085666530286092
 40
0.7190185035161236
 40
0.7369431421390021
 40
0.7577848968820843
 40
0.7694113019562958
 40
0.7738439133158044
 40
0.7931741995193283
 40
0.808443850318406
 40
0.8206673805657764
 40
0.8306110855690477
 40
0.8362681856729787
 40
0.8415939082361349
 40
0.8451341061093114
 40
0.8494685319765028
 40
0.8581881460765388
 40
0.8682801335483662
 40
0.8793515284058975
 40
0.8878344642076993
 40
0.8934402999189018
 40
0.8983945970891957
 40
0.9080202782340783
 40
0.9202253094010248
 40
0.9326174456343114
 40
0.9464219955759989
 40
0.9503007348132072
 40
0.9545452699086274
 40
0.9623743038196616
 40
0.9662116482240779
 40
0.9696473238127256
 40
0.9768303171980925
 40
0.9834925339055272
 40
0.9879842853733933
 40
0.9926626666404911
 40
1.0
 40
1.0
 40
1.0
 40
1.0
 10
2.456557151344657
 20
-8.788172722710634
 30
0.0
 10
2.454825280136645
 20
-8.789112054403036
 30
0.0
 10
2.483849121387112
 20
-8.881600704943287
 30
0.0
 10
2.373088692144624
 20
-9.004188716770983
 30
0.0
 10
2.389903279204591
 20
-8.870430391181818
 30
0.0
 10
2.382556356657278
 20
-8.805247667438607
 30
0.0
 10
2.378308228630813
 20
-8.758979685159451
 30
0.0
 10
2.353355579384238
 20
-8.761073227622274
 30
0.0
 10
2.322856756425904
 20
-8.748520623211538
 30
0.0
 10
2.315489820153831
 20
-8.812679706071648
 30
0.0
 10
2.285775891624527
 20
-8.872660452066961
 30
0.0
 10
2.28275600772947
 20
-8.789010974682204
 30
0.0
 10
2.297195504164014
 20
-8.73894712938723
 30
0.0
 10
2.243737927525631
 20
-8.749431750900635
 30
0.0
 10
2.156791042894911
 20
-8.73668891945823
 30
0.0
 10
2.283176416255675
 20
-8.718046827241539
 30
0.0
 10
2.336829276714603
 20
-8.718830988646854
 30
0.0
 10
2.387065280579155
 20
-8.707936128810005
 30
0.0
 10
2.388526948075734
 20
-8.661664083436275
 30
0.0
 10
2.392412444531749
 20
-8.565052574122573
 30
0.0
 10
2.389678641938613
 20
-8.424807990860531
 30
0.0
 10
2.400136631388823
 20
-8.217362611061665
 30
0.0
 10
2.222591776476641
 20
-8.239737503826909
 30
0.0
 10
2.193884656363579
 20
-8.34032182673791
 30
0.0
 10
2.177412949212252
 20
-8.436529367101171
 30
0.0
 10
2.141666698427515
 20
-8.497179324203735
 30
0.0
 10
2.081312930848786
 20
-8.59283675292574
 30
0.0
 10
2.064594655969001
 20
-8.499193075838049
 30
0.0
 10
2.101672767813569
 20
-8.417465303305367
 30
0.0
 10
2.032878593024167
 20
-8.43885697378555
 30
0.0
 10
1.961138046724558
 20
-8.476127312740894
 30
0.0
 10
2.026390497027628
 20
-8.372779896727312
 30
0.0
 10
2.105470859546322
 20
-8.393068189073958
 30
0.0
 10
2.141092830519062
 20
-8.298870329329263
 30
0.0
 10
2.180594513181501
 20
-8.215435724858462
 30
0.0
 10
2.262712596014077
 20
-8.115655241352103
 30
0.0
 10
2.327593018136977
 20
-8.0098164805629
 30
0.0
 10
2.400755441906556
 20
-7.878579233157705
 30
0.0
 10
2.29820704455215
 20
-7.736639159556033
 30
0.0
 10
2.152397115433828
 20
-7.754541000131836
 30
0.0
 10
2.033768702507456
 20
-7.826102818231837
 30
0.0
 10
2.01980747361063
 20
-7.96867082195242
 30
0.0
 10
1.908773264629936
 20
-8.054326354476466
 30
0.0
 10
1.853637598705636
 20
-8.15797529961086
 30
0.0
 10
1.693717633091257
 20
-8.143402471788725
 30
0.0
 10
1.813590193794725
 20
-8.074790678889702
 30
0.0
 10
1.871072620454744
 20
-7.99268419124417
 30
0.0
 10
1.89893831399049
 20
-7.974038944706905
 30
0.0
 10
1.947569993918947
 20
-7.915909840716319
 30
0.0
 10
1.942835379995145
 20
-7.862271214337658
 30
0.0
 10
1.914377299839212
 20
-7.891378747119283
 30
0.0
 10
1.853575142646596
 20
-7.916663621207406
 30
0.0
 10
1.761951742574996
 20
-7.93593205992533
 30
0.0
 10
1.68368062884939
 20
-7.963783689211659
 30
0.0
 10
1.527967354749205
 20
-7.919976255116125
 30
0.0
 10
1.704917765714834
 20
-7.911038379915769
 30
0.0
 10
1.789960575335554
 20
-7.858299974918634
 30
0.0
 10
1.913677987175583
 20
-7.838422561216016
 30
0.0
 10
2.018653999364337
 20
-7.76213274007642
 30
0.0
 10
2.045415171508807
 20
-7.616830244575602
 30
0.0
 10
2.13350704363175
 20
-7.435848539459407
 30
0.0
 10
2.214426900770023
 20
-7.209610845889932
 30
0.0
 10
2.030685892951152
 20
-7.072545965899526
 30
0.0
 10
1.870191998944693
 20
-7.097838290617412
 30
0.0
 10
1.74900881259432
 20
-7.203047164037329
 30
0.0
 10
1.635875231323286
 20
-7.265052884646603
 30
0.0
 10
1.522787975929567
 20
-7.330379937262179
 30
0.0
 10
1.528370411645537
 20
-7.441084298355142
 30
0.0
 10
1.498929799831589
 20
-7.546106116375799
 30
0.0
 10
1.515574047771956
 20
-7.653358121331512
 30
0.0
 10
1.391439295137406
 20
-7.715656193609767
 30
0.0
 10
1.414512452538344
 20
-7.626836871446171
 30
0.0
 10
1.433756329749643
 20
-7.557419670107699
 30
0.0
 10
1.460441058101784
 20
-7.458201903902483
 30
0.0
 10
1.451507315669613
 20
-7.338689987634222
 30
0.0
 10
1.308090641859161
 20
-7.338855906639465
 30
0.0
 10
1.202874462834148
 20
-7.31011906987381
 30
0.0
 10
1.090572642925747
 20
-7.234177314834474
 30
0.0
 10
1.099834155631528
 20
-7.200577888780753
 30
0.0
 10
1.10850563151288
 20
-7.190373174772885
 30
0.0
 10
1.234375276502508
 20
-7.166840412301813
 30
0.0
 10
1.27329682952017
 20
-7.065057089473721
 30
0.0
 10
1.361905983308157
 20
-6.953969589997261
 30
0.0
 10
1.302494423601091
 20
-6.836431454570545
 30
0.0
 10
1.183773126379001
 20
-6.917376015888588
 30
0.0
 10
1.052389523715155
 20
-6.928695800435716
 30
0.0
 10
0.9778053393846758
 20
-6.928736208575146
 30
0.0
 10
0.8615760466993424
 20
-6.877811551277411
 30
0.0
 10
0.9254008718581359
 20
-6.84622613726904
 30
0.0
 10
0.9974973362984001
 20
-6.839684953488725
 30
0.0
 10
1.042823897567488
 20
-6.838256519964841
 30
0.0
 10
1.136053969818047
 20
-6.842744959057328
 30
0.0
 10
1.290640703698666
 20
-6.803426817245926
 30
0.0
 10
1.46006396633504
 20
-6.755200380502293
 30
0.0
 10
1.622783482658763
 20
-6.648605556327185
 30
0.0
 10
1.615303502462637
 20
-6.496992504805807
 30
0.0
 10
1.724547712086701
 20
-6.415765462743723
 30
0.0
 10
1.840268640925869
 20
-6.452371066655514
 30
0.0
 10
1.966778572683185
 20
-6.434548838894059
 30
0.0
 10
2.062372915849064
 20
-6.341400308372625
 30
0.0
 10
2.139530468891768
 20
-6.225214794739978
 30
0.0
 10
2.117440812661998
 20
-6.128190431104528
 30
0.0
 10
2.00284005870764
 20
-6.098692339742703
 30
0.0
 10
1.898885141284185
 20
-6.08978538713408
 30
0.0
 10
1.775063942057056
 20
-6.127710792215606
 30
0.0
 10
1.646374302408593
 20
-6.073955212596593
 30
0.0
 10
1.532426809186664
 20
-6.033706904806098
 30
0.0
 10
1.418943117446136
 20
-5.978904813466364
 30
0.0
 10
1.310167965340828
 20
-6.019493431052437
 30
0.0
 10
1.205336426466589
 20
-6.075847001042533
 30
0.0
 10
1.101697291474547
 20
-6.020749705018383
 30
0.0
 10
1.030267485245862
 20
-6.020929605051568
 30
0.0
 10
0.945741306407317
 20
-6.00151628671411
 30
0.0
 10
0.9707485782120409
 20
-6.084889617011472
 30
0.0
 10
0.9738721194439585
 20
-6.162990282982996
 30
0.0
 10
0.9075629141412592
 20
-6.284120295685154
 30
0.0
 10
0.8335951974928407
 20
-6.353681142791585
 30
0.0
 10
0.6537353688315929
 20
-6.461273751378227
 30
0.0
 10
0.8113940626670305
 20
-6.289587089897434
 30
0.0
 10
0.9175284511284437
 20
-6.162600650118714
 30
0.0
 10
0.7701878981710452
 20
-6.002609174398793
 30
0.0
 10
0.6605023349818095
 20
-6.011230643826557
 30
0.0
 10
0.4716803871307956
 20
-6.092206398891664
 30
0.0
 10
0.558111819992691
 20
-5.961030725192719
 30
0.0
 10
0.4635162187607978
 20
-6.006825224606993
 30
0.0
 10
0.3796825145065187
 20
-5.935579793711884
 30
0.0
 10
0.488086477580945
 20
-5.943303209543233
 30
0.0
 10
0.5952493434424715
 20
-5.881097333807818
 30
0.0
 10
0.7261961204684171
 20
-5.832997605153861
 30
0.0
 10
0.7637637365647284
 20
-5.837527989101144
 30
0.0
 10
0.9618125261707013
 20
-5.805633530768191
 30
0.0
 10
1.162221427538557
 20
-5.798755984744045
 30
0.0
 10
1.10266154042581
 20
-5.656336417036821
 30
0.0
 10
0.9911776496547322
 20
-5.65892782043836
 30
0.0
 10
0.8260576171817301
 20
-5.651551125747241
 30
0.0
 10
0.7034437364011846
 20
-5.795819355978176
 30
0.0
 10
0.5497610989387034
 20
-5.878114524188911
 30
0.0
 10
0.405597445052157
 20
-5.876607846931328
 30
0.0
 10
0.503057492062273
 20
-5.833216157086879
 30
0.0
 10
0.675051848605237
 20
-5.77401251215783
 30
0.0
 10
0.760809592126499
 20
-5.628024558893536
 30
0.0
 10
0.482984827473512
 20
-5.579713254713469
 30
0.0
 10
0.6847423469756104
 20
-5.534652025358402
 30
0.0
 10
0.788737316198941
 20
-5.61595489739386
 30
0.0
 10
0.956614996180283
 20
-5.593338984536221
 30
0.0
 10
1.145243288805652
 20
-5.596113287557611
 30
0.0
 10
1.243890039995274
 20
-5.775722791361446
 30
0.0
 10
1.380008514691426
 20
-5.729359682907267
 30
0.0
 10
1.34646278411669
 20
-5.628392887707662
 30
0.0
 10
1.227050701233848
 20
-5.565381015435099
 30
0.0
 10
1.118434581794741
 20
-5.478538941223723
 30
0.0
 10
0.9782369133034782
 20
-5.468646446872333
 30
0.0
 10
0.8887573083156503
 20
-5.396600884149091
 30
0.0
 10
0.8517839650570684
 20
-5.312081195098222
 30
0.0
 10
0.812145702777136
 20
-5.218923712491416
 30
0.0
 10
0.6865944999286283
 20
-5.205528206280525
 30
0.0
 10
0.5532415554814781
 20
-5.209632968322905
 30
0.0
 10
0.4180985603091735
 20
-5.193548799820553
 30
0.0
 10
0.3355344097158434
 20
-5.081047516894935
 30
0.0
 10
0.2750200550365295
 20
-5.141940898381269
 30
0.0
 10
0.1453319761374552
 20
-5.179161166199902
 30
0.0
 10
0.2505103981005323
 20
-5.094886813546644
 30
0.0
 10
0.2377772677088444
 20
-5.00142658216927
 30
0.0
 10
0.2617592401956135
 20
-4.863109072269731
 30
0.0
 10
0.0507453874976165
 20
-4.829241485413512
 30
0.0
 10
0.2376326267340451
 20
-4.792980289419399
 30
0.0
 10
0.3199561234598734
 20
-4.894766792665267
 30
0.0
 10
0.4043842965553344
 20
-5.011369994501582
 30
0.0
 10
0.5131961360762543
 20
-5.155233555210367
 30
0.0
 10
0.6901153088476908
 20
-5.121843319881099
 30
0.0
 10
0.8725482382213402
 20
-5.14344162113091
 30
0.0
 10
0.9309054863685745
 20
-5.302883954485806
 30
0.0
 10
1.019295611253101
 20
-5.38725816287966
 30
0.0
 10
1.161209005884965
 20
-5.409148339982234
 30
0.0
 10
1.168143394436948
 20
-5.271124102113124
 30
0.0
 10
1.236136796837972
 20
-5.167562473386324
 30
0.0
 10
1.224871419539374
 20
-4.970016480134165
 30
0.0
 10
1.039967155145056
 20
-4.88317640648474
 30
0.0
 10
0.9700188940756348
 20
-4.64918130151373
 30
0.0
 10
0.812595428461523
 20
-4.568273709079576
 30
0.0
 10
0.6394142378752256
 20
-4.565126381722798
 30
0.0
 10
0.5351139894482327
 20
-4.673336833106978
 30
0.0
 10
0.3792589967836741
 20
-4.70713155370549
 30
0.0
 10
0.1847475764675728
 20
-4.739095720186254
 30
0.0
 10
0.1149125908387596
 20
-4.644325382412894
 30
0.0
 10
-0.0455110880328494
 20
-4.621535556965333
 30
0.0
 10
0.1201736966890044
 20
-4.576816008094637
 30
0.0
 10
0.1744011511320535
 20
-4.678260333759688
 30
0.0
 10
0.3125466011660403
 20
-4.655801092784734
 30
0.0
 10
0.4399555870690632
 20
-4.654004398490325
 30
0.0
 10
0.5548041782179354
 20
-4.543027555417628
 30
0.0
 10
0.5275315422820052
 20
-4.406826337902845
 30
0.0
 10
0.423489480525035
 20
-4.352035771116473
 30
0.0
 10
0.3366074221554946
 20
-4.245672713139717
 30
0.0
 10
0.2202119559373472
 20
-4.321180640301031
 30
0.0
 10
0.169970400815669
 20
-4.387602856673674
 30
0.0
 10
0.0204228602362234
 20
-4.460670550190908
 30
0.0
 10
0.0917076801245527
 20
-4.326989861401552
 30
0.0
 10
0.2077930971953645
 20
-4.31157988431803
 30
0.0
 10
0.2191594851461766
 20
-4.189269536637183
 30
0.0
 10
0.164370782951704
 20
-4.107919003216175
 30
0.0
 10
0.1057177562990945
 20
-4.178975793440633
 30
0.0
 10
-0.0135624316143565
 20
-4.154056581450378
 30
0.0
 10
0.0769950318987323
 20
-4.110438036637236
 30
0.0
 10
0.1129482192849438
 20
-4.08757825335259
 30
0.0
 10
0.0608826130969357
 20
-4.055290142578206
 30
0.0
 10
0.0031202861427846
 20
-3.979676029588794
 30
0.0
 10
0.0931823213082404
 20
-4.001971843793843
 30
0.0
 10
0.1433783783401333
 20
-4.084630178208649
 30
0.0
 10
0.1828065935035108
 20
-3.972530829481646
 30
0.0
 10
0.2865087038150101
 20
-3.950939543205342
 30
0.0
 10
0.2685367887190191
 20
-3.823814601605418
 30
0.0
 10
0.2789619265060907
 20
-3.677700052451744
 30
0.0
 10
0.1716576765520383
 20
-3.536624174245905
 30
0.0
 10
0.0029261276595377
 20
-3.499229079967261
 30
0.0
 10
0.0261507634184009
 20
-3.405839048257752
 30
0.0
 10
0.0953273374298406
 20
-3.447760049723348
 30
0.0
 10
0.2118973135133063
 20
-3.435857354481758
 30
0.0
 10
0.3599962025413451
 20
-3.596027785400994
 30
0.0
 10
0.37879267807284
 20
-3.782560131068432
 30
0.0
 10
0.4921459395442154
 20
-3.870673737342113
 30
0.0
 10
0.5607657732022657
 20
-3.939920296312532
 30
0.0
 10
0.6248372202916045
 20
-4.010081772689412
 30
0.0
 10
0.6250657146172506
 20
-4.118519457206959
 30
0.0
 10
0.7412267699351361
 20
-4.095462641050592
 30
0.0
 10
0.8496781056962622
 20
-4.087749707375482
 30
0.0
 10
0.9410175951056612
 20
-4.208817250184174
 30
0.0
 10
0.9224156204503273
 20
-4.331809983422503
 30
0.0
 10
0.9225316518178409
 20
-4.457390626536275
 30
0.0
 10
1.012275723709766
 20
-4.536721485235017
 30
0.0
 10
1.118995382550124
 20
-4.574640273627311
 30
0.0
 10
1.225890631988976
 20
-4.521561467453427
 30
0.0
 10
1.262538768993344
 20
-4.391761156366611
 30
0.0
 10
1.247975514837207
 20
-4.241261767363953
 30
0.0
 10
1.234274455318719
 20
-4.049812489650905
 30
0.0
 10
1.267727105080553
 20
-3.854621077639586
 30
0.0
 10
1.166012756043182
 20
-3.736977848710662
 30
0.0
 10
1.100347929652614
 20
-3.608818411955794
 30
0.0
 10
0.9950282590381783
 20
-3.678744846974198
 30
0.0
 10
0.8865486444151467
 20
-3.648531813919719
 30
0.0
 10
0.7964200186383414
 20
-3.555177354881324
 30
0.0
 10
0.7044299612034763
 20
-3.463729508153836
 30
0.0
 10
0.6403991873069893
 20
-3.339253112924538
 30
0.0
 10
0.5141593122111668
 20
-3.336382879891611
 30
0.0
 10
0.442112506084071
 20
-3.384681320222664
 30
0.0
 10
0.2777319139937485
 20
-3.374734498433229
 30
0.0
 10
0.3624757864545814
 20
-3.306723773032388
 30
0.0
 10
0.4577030054719146
 20
-3.318339752450061
 30
0.0
 10
0.3253027589452667
 20
-3.234140789298614
 30
0.0
 10
0.2753366192011695
 20
-3.12297729929557
 30
0.0
 10
0.2095641481937293
 20
-2.994569018684061
 30
0.0
 10
0.1285687605721007
 20
-2.839195927664247
 30
0.0
 10
0.1612468232535687
 20
-2.709476198186795
 30
0.0
 10
0.1867706312995644
 20
-2.587742062061989
 30
0.0
 10
0.228604952590077
 20
-2.452948804991735
 30
0.0
 10
0.2284424403215515
 20
-2.630642592382171
 30
0.0
 10
0.2266119208042419
 20
-2.757737743292999
 30
0.0
 10
0.2042851380255279
 20
-2.870359224334239
 30
0.0
 10
0.2763152907093335
 20
-2.915072026508275
 30
0.0
 10
0.358523416089477
 20
-2.842000531643547
 30
0.0
 10
0.4145586337008957
 20
-2.801191921928135
 30
0.0
 10
0.4986360573670823
 20
-2.699672535830545
 30
0.0
 10
0.4956742537473825
 20
-2.683879406506805
 30
0.0
 10
0.5713536674899482
 20
-2.567651613009331
 30
0.0
 10
0.5739854929670098
 20
-2.694401794950961
 30
0.0
 10
0.548432377272572
 20
-2.762567128038496
 30
0.0
 10
0.4569307476042621
 20
-2.83566973958846
 30
0.0
 10
0.3999724190519026
 20
-2.900827987501179
 30
0.0
 10
0.3253850860957318
 20
-2.954260035787307
 30
0.0
 10
0.3265538323758115
 20
-3.051819971157352
 30
0.0
 10
0.3672235135395311
 20
-3.142994931782552
 30
0.0
 10
0.4298129832431332
 20
-3.235187674769574
 30
0.0
 10
0.5355439343415592
 20
-3.28479096776855
 30
0.0
 10
0.6472826105855721
 20
-3.244425445991366
 30
0.0
 10
0.7313166843423353
 20
-3.334390547274273
 30
0.0
 10
0.8312227111199242
 20
-3.40807708782768
 30
0.0
 10
0.8905623219700021
 20
-3.49434068100877
 30
0.0
 10
0.9593884499144844
 20
-3.586202665224142
 30
0.0
 10
1.022498042184824
 20
-3.521758628536775
 30
0.0
 10
1.057364826427892
 20
-3.447363652107916
 30
0.0
 10
1.023509175695876
 20
-3.342524276433682
 30
0.0
 10
0.9437236675357269
 20
-3.288440607678664
 30
0.0
 10
0.8902675896427324
 20
-3.202442577792219
 30
0.0
 10
0.8685825676221521
 20
-3.1273715388698
 30
0.0
 10
0.7259990309015685
 20
-3.125325529236227
 30
0.0
 10
0.7106556905513048
 20
-3.059569337248749
 30
0.0
 10
0.6331209938607606
 20
-3.008018674889578
 30
0.0
 10
0.630207276312392
 20
-2.921472524721767
 30
0.0
 10
0.7033582897539097
 20
-3.009845304053866
 30
0.0
 10
0.7598877535166809
 20
-3.024037162254898
 30
0.0
 10
0.8870911145343056
 20
-3.113669546005055
 30
0.0
 10
0.8575694615605487
 20
-2.984329724824274
 30
0.0
 10
0.8623440352890785
 20
-2.887776266842776
 30
0.0
 10
0.8467187378058931
 20
-2.78940037502461
 30
0.0
 10
0.731370733875285
 20
-2.636854490096961
 30
0.0
 10
0.8713720765791632
 20
-2.73335688475758
 30
0.0
 10
0.9097993791599431
 20
-2.82002445499717
 30
0.0
 10
0.9451415644536401
 20
-2.936080521668531
 30
0.0
 10
0.95340374781172
 20
-3.055313492892107
 30
0.0
 10
0.9428925682264988
 20
-3.190827321017629
 30
0.0
 10
1.063085418982404
 20
-3.263495948608367
 30
0.0
 10
1.127870733102885
 20
-3.373289261342905
 30
0.0
 10
1.1284888536464
 20
-3.509801428846416
 30
0.0
 10
1.23040720942727
 20
-3.618934486815057
 30
0.0
 10
1.319318036549137
 20
-3.760680099402514
 30
0.0
 10
1.374255116383218
 20
-3.913195678847529
 30
0.0
 10
1.322425028050622
 20
-4.244203287102837
 30
0.0
 10
1.478449112033359
 20
-3.964986304890672
 30
0.0
 10
1.468779225169113
 20
-3.797651710047936
 30
0.0
 10
1.495246853611438
 20
-3.567356840840228
 30
0.0
 10
1.477252314060225
 20
-3.348768231124776
 30
0.0
 10
1.463984208156567
 20
-3.131695634473957
 30
0.0
 10
1.336208262163943
 20
-3.01173405954386
 30
0.0
 10
1.176899648804398
 20
-2.988930899974998
 30
0.0
 10
1.000874355277016
 20
-2.907030850746628
 30
0.0
 10
0.924004480431811
 20
-2.714025050735147
 30
0.0
 10
0.7681858929729921
 20
-2.611336290038995
 30
0.0
 10
0.6673747360991154
 20
-2.472043695809937
 30
0.0
 10
0.6763455755212374
 20
-2.324805126536293
 30
0.0
 10
0.5643855112689422
 20
-2.234078411170785
 30
0.0
 10
0.4920814215623605
 20
-2.321319778768105
 30
0.0
 10
0.4071649292328915
 20
-2.359521090917068
 30
0.0
 10
0.3203883280502587
 20
-2.372295735903124
 30
0.0
 10
0.1517612353661552
 20
-2.389974860836646
 30
0.0
 10
0.299182038930407
 20
-2.309830802892684
 30
0.0
 10
0.4443944476662219
 20
-2.305809734061829
 30
0.0
 10
0.6518245703548492
 20
-2.084568347378544
 30
0.0
 10
0.367789292125509
 20
-1.672659208081055
 30
0.0
 10
0.6620928848586215
 20
-1.865211309168266
 30
0.0
 10
0.6591714322235762
 20
-2.07390390237845
 30
0.0
 10
0.733681458450284
 20
-2.255056001280685
 30
0.0
 10
0.7694584429418533
 20
-2.436415528300151
 30
0.0
 10
0.929593093654173
 20
-2.466541435601657
 30
0.0
 10
1.003224695669084
 20
-2.369323769869537
 30
0.0
 10
1.103536181978579
 20
-2.25057757115468
 30
0.0
 10
0.9848418856834731
 20
-2.1081857396098
 30
0.0
 10
0.9276169402355243
 20
-1.951736572130195
 30
0.0
 10
1.011948088687899
 20
-1.773920206129555
 30
0.0
 10
1.006618862263946
 20
-1.569650069692462
 30
0.0
 10
0.701945599906913
 20
-1.243106877312012
 30
0.0
 10
0.9718847059939343
 20
-1.358999654016602
 30
0.0
 10
0.9790418294992504
 20
-1.501181064556184
 30
0.0
 10
1.140220797467723
 20
-1.52229182145395
 30
0.0
 10
1.157245895082295
 20
-1.3933843376007
 30
0.0
 10
1.256198365414539
 20
-1.288200916823764
 30
0.0
 10
1.199191183538465
 20
-1.238156000563536
 30
0.0
 10
1.093724946138988
 20
-1.243476427245585
 30
0.0
 10
1.068556011181023
 20
-1.218606774311085
 30
0.0
 10
0.9888845213200118
 20
-1.202953644026035
 30
0.0
 10
0.9337048048245069
 20
-1.11371673170413
 30
0.0
 10
1.070368940237987
 20
-1.190936791005072
 30
0.0
 10
1.22104026551759
 20
-1.19959164706124
 30
0.0
 10
1.201600334036521
 20
-1.119897459941216
 30
0.0
 10
1.163867970009695
 20
-1.060036660133996
 30
0.0
 10
1.103667105975796
 20
-0.9582003345352043
 30
0.0
 10
1.200114092189149
 20
-0.9898180214208198
 30
0.0
 10
1.226498977172599
 20
-1.049636256477315
 30
0.0
 10
1.268438386819263
 20
-1.082807003967516
 30
0.0
 10
1.308787871643107
 20
-1.135008016530039
 30
0.0
 10
1.331062176647772
 20
-1.052614342819809
 30
0.0
 10
1.297381931727568
 20
-1.004206792091825
 30
0.0
 10
1.266555872774956
 20
-0.9548361447449961
 30
0.0
 10
1.228002880130789
 20
-0.8895716109480067
 30
0.0
 10
1.308100106962244
 20
-0.8685184367366732
 30
0.0
 10
1.339035433975195
 20
-0.9491094722155675
 30
0.0
 10
1.398287046330559
 20
-1.028371352797042
 30
0.0
 10
1.408312865683768
 20
-1.14298170019456
 30
0.0
 10
1.483711253826996
 20
-1.225188322418071
 30
0.0
 10
1.555278615702506
 20
-1.297608296634992
 30
0.0
 10
1.634085544194059
 20
-1.323717962830648
 30
0.0
 10
1.739470642307548
 20
-1.350154283160547
 30
0.0
 10
1.738101361492715
 20
-1.246736837618228
 30
0.0
 10
1.71070247055164
 20
-1.166452335553491
 30
0.0
 10
1.668699042196461
 20
-1.06639161728656
 30
0.0
 10
1.633203248904306
 20
-0.9884312916294749
 30
0.0
 10
1.58142623423041
 20
-0.903241580035193
 30
0.0
 10
1.485592918427809
 20
-0.8955339492332579
 30
0.0
 10
1.403866466758074
 20
-0.8477417974574026
 30
0.0
 10
1.388461226136033
 20
-0.7641879487242376
 30
0.0
 10
1.460641591602275
 20
-0.7602417279478698
 30
0.0
 10
1.482872492454921
 20
-0.8186271780368799
 30
0.0
 10
1.547511245362849
 20
-0.8312950543732204
 30
0.0
 10
1.629309842915904
 20
-0.8558578173002888
 30
0.0
 10
1.658524104054881
 20
-0.7584140049676884
 30
0.0
 10
1.674430752161728
 20
-0.6885904009409954
 30
0.0
 10
1.6151329547906
 20
-0.527221473451788
 30
0.0
 10
1.701362856094643
 20
-0.6096327817378661
 30
0.0
 10
1.730437742420167
 20
-0.6900475693806548
 30
0.0
 10
1.753805536601432
 20
-0.8242137565824239
 30
0.0
 10
1.709304723372819
 20
-0.9577641197511206
 30
0.0
 10
1.769453259587855
 20
-1.081624782307592
 30
0.0
 10
1.824245628821277
 20
-1.198531175679419
 30
0.0
 10
1.839602301084468
 20
-1.347717738220371
 30
0.0
 10
1.765074485369452
 20
-1.493509295813462
 30
0.0
 10
1.694531234008278
 20
-1.654854879530308
 30
0.0
 10
1.693149287405963
 20
-1.76549841217251
 30
0.0
 10
1.720883809774167
 20
-1.89358403911751
 30
0.0
 10
1.786451486459273
 20
-1.951042308412425
 30
0.0
 10
1.770002165079779
 20
-2.102424207822055
 30
0.0
 10
1.805700089708095
 20
-2.123884509769953
 30
0.0
 10
1.888193486321221
 20
-2.029082371078074
 30
0.0
 10
1.833675136596254
 20
-1.913867754056032
 30
0.0
 10
1.747569313745024
 20
-1.781740683639194
 30
0.0
 10
1.820537203186462
 20
-1.630648831273087
 30
0.0
 10
1.909045914106065
 20
-1.476593768860784
 30
0.0
 10
1.869470511428295
 20
-1.269336081212308
 30
0.0
 10
1.927614319244192
 20
-1.062978625314394
 30
0.0
 10
1.90435843599236
 20
-0.8298058129849722
 30
0.0
 10
1.770035508386105
 20
-0.5962134249871882
 30
0.0
 10
1.744676618479887
 20
-0.5122101613620578
 30
0.0
 10
1.905190305965182
 20
-0.5786391485794652
 30
0.0
 10
1.941177988632768
 20
-0.7080041105975616
 30
0.0
 10
1.994300342277661
 20
-0.8740286491115421
 30
0.0
 10
1.955138760834412
 20
-1.089315442097986
 30
0.0
 10
2.168694560870614
 20
-1.110848212704154
 30
0.0
 10
2.210796211954739
 20
-0.8855664980226301
 30
0.0
 10
2.394255488073274
 20
-0.7559514969339526
 30
0.0
 10
2.325555305073419
 20
-0.6180224816854624
 30
0.0
 10
2.219180329648643
 20
-0.5716622835925191
 30
0.0
 10
2.139677355900345
 20
-0.4440987638793737
 30
0.0
 10
2.15044034356804
 20
-0.3900927297078718
 30
0.0
 10
2.187768886992492
 20
-0.4123225776401214
 30
0.0
 10
2.249366059273647
 20
-0.4659060926669131
 30
0.0
 10
2.351486622394196
 20
-0.5626094286139337
 30
0.0
 10
2.425865395783497
 20
-0.6151866516570773
 30
0.0
 10
2.494058996792032
 20
-0.4364304755115387
 30
0.0
 10
2.510772211535448
 20
-0.3599706524281424
 30
0.0
 10
2.519507611494578
 20
-0.252255749331126
 30
0.0
 10
2.577750932814129
 20
-0.309984463274935
 30
0.0
 10
2.578390290590232
 20
-0.445104334512228
 30
0.0
 10
2.56367363740424
 20
-0.5196958854823964
 30
0.0
 10
2.50676908546051
 20
-0.583445770140038
 30
0.0
 10
2.465318441628522
 20
-0.6344879561907754
 30
0.0
 10
2.52976674533492
 20
-0.6921101669544103
 30
0.0
 10
2.60316478371885
 20
-0.7465359640617926
 30
0.0
 10
2.7082159324838
 20
-0.8176845749335121
 30
0.0
 10
2.824301003363071
 20
-0.8670442780423507
 30
0.0
 10
2.930642115841884
 20
-0.882349080868598
 30
0.0
 10
3.038765595362632
 20
-0.8563108768637014
 30
0.0
 10
3.102595239526529
 20
-0.7604037206024039
 30
0.0
 10
3.086182924695505
 20
-0.6250061842471029
 30
0.0
 10
3.093992099401392
 20
-0.4807321571421109
 30
0.0
 10
3.156649125720769
 20
-0.1487391431559982
 30
0.0
 10
3.214921933402286
 20
-0.3733672995200398
 30
0.0
 10
3.190951468804263
 20
-0.496159246326548
 30
0.0
 10
3.217632210489672
 20
-0.6538034167672706
 30
0.0
 10
3.265486552159511
 20
-0.7726130880222856
 30
0.0
 10
3.264702579225743
 20
-0.8919961369148746
 30
0.0
 10
3.294708993033205
 20
-0.9713164660218155
 30
0.0
 10
3.346158733590343
 20
-1.039341126286297
 30
0.0
 10
3.434972981450272
 20
-1.008212956215171
 30
0.0
 10
3.466485636058747
 20
-0.8961473575693306
 30
0.0
 10
3.439858868605238
 20
-0.7704723468632951
 30
0.0
 10
3.368173227268344
 20
-0.6570782659168976
 30
0.0
 10
3.317913304024124
 20
-0.5236471667868438
 30
0.0
 10
3.339806230219861
 20
-0.4004525542853493
 30
0.0
 10
3.432854014090663
 20
-0.1832618225058252
 30
0.0
 10
3.426944212823133
 20
-0.3058040116065144
 30
0.0
 10
3.434153972586992
 20
-0.3982026839727737
 30
0.0
 10
3.401263726280018
 20
-0.5033893468858988
 30
0.0
 10
3.427635995601821
 20
-0.6512640836330723
 30
0.0
 10
3.523601171539435
 20
-0.6177404246361355
 30
0.0
 10
3.564075292007295
 20
-0.547128651079164
 30
0.0
 10
3.604087184263834
 20
-0.4995204221045422
 30
0.0
 10
3.557633520349004
 20
-0.4077607515064283
 30
0.0
 10
3.475789039945161
 20
-0.3302471903009674
 30
0.0
 10
3.577540190106709
 20
-0.365877405313148
 30
0.0
 10
3.629711620082796
 20
-0.4349185007554318
 30
0.0
 10
3.595807174743801
 20
-0.3128457127718902
 30
0.0
 10
3.664389966489522
 20
-0.2360990025885379
 30
0.0
 10
3.687843469298563
 20
-0.3566620610807242
 30
0.0
 10
3.693906132324661
 20
-0.4273400115110416
 30
0.0
 10
3.705389646608372
 20
-0.5464814349079012
 30
0.0
 10
3.77228854197264
 20
-0.635017479009389
 30
0.0
 10
3.803864969769899
 20
-0.7641002707112193
 30
0.0
 10
3.92354153223555
 20
-0.7623248334514154
 30
0.0
 10
4.022940424271159
 20
-0.66879777307346
 30
0.0
 10
4.044225055880354
 20
-0.5497962197662428
 30
0.0
 10
3.987391325381449
 20
-0.3403649604685381
 30
0.0
 10
4.124254569790178
 20
-0.4465256771859649
 30
0.0
 10
4.104617014576553
 20
-0.5845232964135794
 30
0.0
 10
4.095759092060778
 20
-0.7606569476638801
 30
0.0
 10
3.956231166850079
 20
-0.8408755189077302
 30
0.0
 10
3.844364081290735
 20
-0.8904007562336456
 30
0.0
 10
3.788963529053572
 20
-1.026595890346292
 30
0.0
 10
3.831140023220004
 20
-1.170326959349483
 30
0.0
 10
3.869277657507808
 20
-1.382299764117173
 30
0.0
 10
4.049840274555424
 20
-1.58498509468206
 30
0.0
 10
4.149702187929637
 20
-1.860064814158712
 30
0.0
 10
4.086820417395677
 20
-2.167634350675728
 30
0.0
 10
4.332743725514042
 20
-2.402427418181655
 30
0.0
 10
4.416324817377958
 20
-2.733646864067108
 30
0.0
 10
4.401093093737317
 20
-3.057191208753817
 30
0.0
 10
4.51079074107885
 20
-3.450978844955913
 30
0.0
 10
4.788069605983653
 20
-2.906631504379948
 30
0.0
 10
5.163421153061687
 20
-2.660371363203755
 30
0.0
 10
5.10414416194235
 20
-2.552488984189851
 30
0.0
 10
4.980967438905449
 20
-2.53937780041449
 30
0.0
 10
4.905868538124198
 20
-2.411820658512076
 30
0.0
 10
4.905722228825841
 20
-2.269659845606272
 30
0.0
 10
5.000475235582408
 20
-2.090020328443448
 30
0.0
 10
4.788893833886494
 20
-1.930598540099476
 30
0.0
 10
4.819271320735522
 20
-1.662486070890755
 30
0.0
 10
4.735232787506444
 20
-1.427645029089772
 30
0.0
 10
4.482851894791655
 20
-1.416171516330739
 30
0.0
 10
4.375457464731331
 20
-1.135918079523784
 30
0.0
 10
4.31687443201547
 20
-0.8483022996206737
 30
0.0
 10
4.295028125423913
 20
-0.6975284766174366
 30
0.0
 10
4.263113784942078
 20
-0.3926493742126793
 30
0.0
 10
4.33789246130535
 20
-0.5583172730530649
 30
0.0
 10
4.391755874327184
 20
-0.7282572712656201
 30
0.0
 10
4.443746353069188
 20
-0.9864726809341772
 30
0.0
 10
4.560788622941996
 20
-1.250153494116397
 30
0.0
 10
4.743048015449437
 20
-1.327929978461
 30
0.0
 10
4.763241417212806
 20
-0.9994709254589282
 30
0.0
 10
4.723409202510163
 20
-0.8844475765728986
 30
0.0
 10
4.744784620659448
 20
-0.6648877367354948
 30
0.0
 10
4.821427090876693
 20
-0.7710411633911393
 30
0.0
 10
4.835833287298765
 20
-0.914387943824342
 30
0.0
 10
4.844280039268439
 20
-1.21204158752877
 30
0.0
 10
4.860419554866112
 20
-1.677393527899718
 30
0.0
 10
5.107014414770564
 20
-2.08787354331874
 30
0.0
 10
5.081790040201041
 20
-2.17653371714331
 30
0.0
 10
5.051831694989849
 20
-2.271202078516464
 30
0.0
 10
5.013684700791453
 20
-2.351816291579841
 30
0.0
 10
5.046992785554021
 20
-2.451350331303126
 30
0.0
 10
5.213025270632102
 20
-2.487558088543003
 30
0.0
 10
5.341841544747104
 20
-2.541111461311892
 30
0.0
 10
5.398955415483894
 20
-2.453884182803457
 30
0.0
 10
5.59410852046883
 20
-2.113350528968982
 30
0.0
 10
5.370386760431241
 20
-1.959408146829339
 30
0.0
 10
5.262060324539625
 20
-1.8282565485215
 30
0.0
 10
5.221758254024429
 20
-1.628175595849495
 30
0.0
 10
5.225424953556515
 20
-1.403402564412329
 30
0.0
 10
5.193008840819874
 20
-1.249123499763003
 30
0.0
 10
5.237703815864137
 20
-1.002463560290041
 30
0.0
 10
5.291803702444839
 20
-1.201822949561753
 30
0.0
 10
5.274397019855749
 20
-1.317613490868431
 30
0.0
 10
5.353601653114023
 20
-1.491116607114576
 30
0.0
 10
5.49399435320553
 20
-1.496553650286961
 30
0.0
 10
5.679501062954508
 20
-1.370511438807155
 30
0.0
 10
5.580213481462888
 20
-1.581254897094996
 30
0.0
 10
5.477850027326555
 20
-1.619357582052526
 30
0.0
 10
5.361989585914194
 20
-1.597257885756151
 30
0.0
 10
5.328102689045826
 20
-1.724669960800961
 30
0.0
 10
5.40810296921258
 20
-1.887470765505141
 30
0.0
 10
5.59308461513134
 20
-1.981592460645981
 30
0.0
 10
5.675515981389998
 20
-1.901001248970798
 30
0.0
 10
5.704998141074022
 20
-1.815873793869657
 30
0.0
 10
5.795162732236094
 20
-1.640013034865577
 30
0.0
 10
5.775354018423817
 20
-1.803380485237083
 30
0.0
 10
5.794326053091122
 20
-1.916420906620725
 30
0.0
 10
5.702013786826024
 20
-2.057174075588646
 30
0.0
 10
5.602768873726819
 20
-2.236816122533111
 30
0.0
 10
5.510833640029817
 20
-2.47985505449391
 30
0.0
 10
5.365165197890525
 20
-2.710009483406588
 30
0.0
 10
5.494432853593579
 20
-2.850689491512981
 30
0.0
 10
5.654054084975726
 20
-2.922467583490894
 30
0.0
 10
5.747594330399992
 20
-3.098394880950829
 30
0.0
 10
5.645657681862483
 20
-3.226545711909102
 30
0.0
 10
5.583509039873225
 20
-3.400410273905224
 30
0.0
 10
5.785556673915615
 20
-3.47233367425199
 30
0.0
 10
6.013630957278055
 20
-3.522692131052859
 30
0.0
 10
6.21436188228572
 20
-3.719265026813689
 30
0.0
 10
6.252112608146759
 20
-3.928193988546019
 30
0.0
 10
6.361946874954903
 20
-3.997201613360189
 30
0.0
 10
6.495041389224443
 20
-3.944834258250216
 30
0.0
 10
6.65903271923986
 20
-4.032709164783306
 30
0.0
 10
6.842121288650028
 20
-4.075519620635496
 30
0.0
 10
6.955394219304976
 20
-4.125044132549424
 30
0.0
 10
7.080255702668061
 20
-4.145322142292049
 30
0.0
 10
7.025836814427691
 20
-3.995000084901113
 30
0.0
 10
6.944428672236362
 20
-3.891254502070801
 30
0.0
 10
6.751910579056203
 20
-3.725925853134064
 30
0.0
 10
6.631547336533224
 20
-3.431411471853136
 30
0.0
 10
6.463706161761144
 20
-3.170043234836866
 30
0.0
 10
6.497546791895762
 20
-2.875449955874029
 30
0.0
 10
6.264103995119379
 20
-2.807232346667826
 30
0.0
 10
6.103263906070761
 20
-2.6090609748581
 30
0.0
 10
5.979106748526708
 20
-2.313052622909616
 30
0.0
 10
5.86860430591617
 20
-2.178897726413357
 30
0.0
 10
5.800730963574585
 20
-1.822107882738956
 30
0.0
 10
5.921922359061241
 20
-2.060305391424929
 30
0.0
 10
5.947883216296253
 20
-1.919268699115692
 30
0.0
 10
6.043315652567394
 20
-1.858666982588213
 30
0.0
 10
6.048714360373295
 20
-2.010335259113801
 30
0.0
 10
6.011604087786423
 20
-2.132610603522809
 30
0.0
 10
6.058188425259646
 20
-2.322688617979523
 30
0.0
 10
6.162008312390966
 20
-2.48863631220743
 30
0.0
 10
6.254473560222594
 20
-2.59466659416086
 30
0.0
 10
6.3949837535595
 20
-2.690481487580692
 30
0.0
 10
6.422098076318644
 20
-2.518952359924091
 30
0.0
 10
6.380145220404914
 20
-2.373180304366776
 30
0.0
 10
6.384332233266642
 20
-2.14169147076952
 30
0.0
 10
6.423520434282356
 20
-1.922041544128086
 30
0.0
 10
6.39698594379193
 20
-1.669061195812822
 30
0.0
 10
6.257424278061726
 20
-1.68581972991023
 30
0.0
 10
6.118139106564557
 20
-1.663958773645992
 30
0.0
 10
6.26446353507652
 20
-1.606243540166912
 30
0.0
 10
6.353880096673759
 20
-1.62006239058955
 30
0.0
 10
6.443607588233099
 20
-1.563236463635387
 30
0.0
 10
6.404380526569382
 20
-1.431340957461359
 30
0.0
 10
6.400776596220631
 20
-1.339374789372498
 30
0.0
 10
6.43974001243476
 20
-1.187597803184509
 30
0.0
 10
6.487563003587119
 20
-1.333894576081842
 30
0.0
 10
6.51188291796073
 20
-1.441545481274513
 30
0.0
 10
6.51318604126532
 20
-1.451719390677142
 30
0.0
  0
SPLINE
  5
8F
330
1F
100
AcDbEntity
  8
0
  6
Continuous
 62
     7
370
    25
100
AcDbSpline
210
0.0
220
0.0
230
1.0
 70
     8
 71
     3
 72
   155
 73
   151
 74
     0
 42
0.000000001
 43
0.00000001
 40
0.0
 40
0.0
 40
0.0
 40
0.0
 40
0.0407962147551869
 40
0.0663620083226018
 40
0.0863701700786574
 40
0.1017846134690546
 40
0.1059222609907404
 40
0.1083393621092099
 40
0.1107615731639549
 40
0.1144391111593657
 40
0.1182224681826972
 40
0.1249642972687551
 40
0.1311128750985038
 40
0.1422271528374768
 40
0.1521781270667625
 40
0.1610852856155491
 40
0.1697477864475913
 40
0.1808190516918517
 40
0.1866653262770145
 40
0.1904084463042057
 40
0.1919076392329026
 40
0.1943782156715951
 40
0.1999288700842288
 40
0.2050936439852767
 40
0.2106751260506008
 40
0.2152843079619159
 40
0.2170449718233047
 40
0.2199996812300876
 40
0.2251953299517079
 40
0.2300078329249138
 40
0.2350329433174443
 40
0.2389442893207333
 40
0.2414456437607247
 40
0.2442269198680591
 40
0.2489830505476937
 40
0.2563616608199683
 40
0.2647929121438726
 40
0.2727915835695878
 40
0.2790242391821781
 40
0.2826538023219241
 40
0.2862972968734173
 40
0.2915730467778366
 40
0.2962670382419814
 40
0.30162025810557
 40
0.3087550900915226
 40
0.3145337125663527
 40
0.3205841060771242
 40
0.3269463207020156
 40
0.333316814524412
 40
0.3379854696047919
 40
0.341490333724201
 40
0.344385350008817
 40
0.3482452271301297
 40
0.3527392423669816
 40
0.3565830726383056
 40
0.3601201325620156
 40
0.3637649859341453
 40
0.3696987834974209
 40
0.3744133279719582
 40
0.3790289280906049
 40
0.3848355743675478
 40
0.3905452625650165
 40
0.3935382032010009
 40
0.3977784989754973
 40
0.4028520523756118
 40
0.4090556844639625
 40
0.4140630617962729
 40
0.4207466998798991
 40
0.4251413269049731
 40
0.4284671532779863
 40
0.4307583048570778
 40
0.4334074522625333
 40
0.4364541929554818
 40
0.4403103757122496
 40
0.4430519650672124
 40
0.4457980452593941
 40
0.4499980826409632
 40
0.4555088473854545
 40
0.4621859696551205
 40
0.4691471908669513
 40
0.4776669071672326
 40
0.4885521550930985
 40
0.4907001752599065
 40
0.4991471088353131
 40
0.5060484240174977
 40
0.5075985439378603
 40
0.5146483080389392
 40
0.5213043647831787
 40
0.5276330596752223
 40
0.5325766835871285
 40
0.5395602068055857
 40
0.5441369379465232
 40
0.5493953328274392
 40
0.5526851463535648
 40
0.5556479979783521
 40
0.5619579848330924
 40
0.5654876437965546
 40
0.568818716561096
 40
0.5726034206822078
 40
0.576274182230116
 40
0.5787584844604337
 40
0.5825444727405854
 40
0.5895238273432218
 40
0.5987674426644783
 40
0.6043155773984857
 40
0.6091610936342159
 40
0.6126128513319143
 40
0.6159359356546112
 40
0.6270915122601923
 40
0.6377965193178289
 40
0.6445960742291595
 40
0.6475861062709448
 40
0.6524001745194775
 40
0.6598636424983397
 40
0.6662608656150315
 40
0.6695380230753363
 40
0.6739744288133274
 40
0.6779306601655574
 40
0.6796438959848716
 40
0.6831579797152016
 40
0.6879674393822937
 40
0.6923503790452374
 40
0.6967473547256017
 40
0.7015642043630389
 40
0.7065316644276626
 40
0.7119129524932624
 40
0.7162231173802364
 40
0.721295969402045
 40
0.7244492934539712
 40
0.7295786268689597
 40
0.736101062395181
 40
0.7463190876275311
 40
0.753113363061269
 40
0.7653043766167208
 40
0.7869788225098764
 40
0.8099279936654885
 40
0.8148810102602596
 40
0.8365089884575871
 40
0.8428634599425038
 40
0.8542138160557269
 40
0.8671371788479475
 40
0.8886296680471548
 40
0.9054210649838917
 40
0.9184050324606274
 40
0.9303289477013635
 40
0.9442519268737639
 40
0.9581216667858726
 40
0.9742277845067159
 40
0.9861516997474523
 40
1.0
 40
1.0
 40
1.0
 40
1.0
 10
5.761292186496841
 20
-11.9547161172322
 30
0.0
 10
6.019510533970043
 20
-11.63482581347594
 30
0.0
 10
6.415026668476528
 20
-11.04375050486522
 30
0.0
 10
6.603058132763831
 20
-10.1586976091015
 30
0.0
 10
6.565108820487488
 20
-9.507902954723287
 30
0.0
 10
6.355503392196868
 20
-9.146552659500715
 30
0.0
 10
6.217785450050056
 20
-8.96229055655545
 30
0.0
 10
6.127122977721701
 20
-8.920489564827644
 30
0.0
 10
6.038144672483113
 20
-8.952059748155248
 30
0.0
 10
5.964614024425123
 20
-9.025465994285055
 30
0.0
 10
5.883103250510101
 20
-9.148633034219475
 30
0.0
 10
5.731617543229171
 20
-9.249434315015728
 30
0.0
 10
5.529553421473938
 20
-9.350856629851592
 30
0.0
 10
5.413330394860439
 20
-9.610788174594497
 30
0.0
 10
5.484762533486337
 20
-9.922162429337252
 30
0.0
 10
5.557099543441764
 20
-10.21250434486335
 30
0.0
 10
5.807596005172756
 20
-10.37897362716156
 30
0.0
 10
5.991768929045674
 20
-10.62657990347803
 30
0.0
 10
5.951796219560263
 20
-10.8119475539517
 30
0.0
 10
6.066812682335281
 20
-10.97673066676476
 30
0.0
 10
5.963556232430619
 20
-10.95536868036116
 30
0.0
 10
5.904730412547767
 20
-10.87318508870734
 30
0.0
 10
5.908199238682355
 20
-10.72946803028139
 30
0.0
 10
5.843030679568374
 20
-10.56936700026992
 30
0.0
 10
5.767663749804571
 20
-10.43895728324375
 30
0.0
 10
5.649763043585668
 20
-10.33894186119456
 30
0.0
 10
5.558519147355516
 20
-10.39223173076354
 30
0.0
 10
5.514673005122521
 20
-10.49056924567519
 30
0.0
 10
5.5160914297299
 20
-10.62477726658181
 30
0.0
 10
5.540943150782583
 20
-10.78901894717475
 30
0.0
 10
5.599648752154993
 20
-10.88700493546768
 30
0.0
 10
5.716992398240594
 20
-11.05081650877649
 30
0.0
 10
5.578135360478006
 20
-11.01084295165217
 30
0.0
 10
5.540456061989656
 20
-10.91625198898345
 30
0.0
 10
5.457117214124463
 20
-10.78110612463784
 30
0.0
 10
5.453320585315865
 20
-10.56073191211755
 30
0.0
 10
5.464574537551139
 20
-10.31629683696605
 30
0.0
 10
5.445773989366443
 20
-10.07966755658432
 30
0.0
 10
5.419959609084029
 20
-9.899067225098086
 30
0.0
 10
5.29693540569436
 20
-9.776383981539562
 30
0.0
 10
5.178521760035763
 20
-9.879675327107613
 30
0.0
 10
5.086972500541819
 20
-9.972170124397602
 30
0.0
 10
4.98048732924556
 20
-10.10221092515175
 30
0.0
 10
4.980657851600975
 20
-10.28812125207504
 30
0.0
 10
4.981430115834401
 20
-10.47291374695979
 30
0.0
 10
4.993428322700913
 20
-10.67771470606143
 30
0.0
 10
4.8845906724004
 20
-10.83684710609991
 30
0.0
 10
4.835620087239559
 20
-11.04090604676488
 30
0.0
 10
4.957513246746176
 20
-11.20418625924701
 30
0.0
 10
5.028000351124356
 20
-11.30061593665025
 30
0.0
 10
5.03982340818017
 20
-11.51149961141885
 30
0.0
 10
4.935218163801241
 20
-11.31864538008437
 30
0.0
 10
4.93590325181054
 20
-11.29067673905291
 30
0.0
 10
4.815703253415997
 20
-11.06742580402165
 30
0.0
 10
4.866020824756141
 20
-11.35188501408549
 30
0.0
 10
4.759511494248081
 20
-11.16572569136655
 30
0.0
 10
4.814958047914867
 20
-11.05271539496092
 30
0.0
 10
4.75563029276647
 20
-10.89236219075992
 30
0.0
 10
4.833534078784428
 20
-10.74807135807771
 30
0.0
 10
4.876863650470697
 20
-10.59560179875367
 30
0.0
 10
4.905259929139732
 20
-10.4394136012096
 30
0.0
 10
4.87329402640048
 20
-10.25222359378042
 30
0.0
 10
4.716934135599172
 20
-10.24369273657517
 30
0.0
 10
4.622575232580205
 20
-10.34090304271694
 30
0.0
 10
4.53079774492514
 20
-10.46860807626837
 30
0.0
 10
4.486414004103995
 20
-10.653212309389
 30
0.0
 10
4.547982121004026
 20
-10.79597999985131
 30
0.0
 10
4.550677588005618
 20
-11.11511613311892
 30
0.0
 10
4.485742924579698
 20
-10.88495361607263
 30
0.0
 10
4.474390676459032
 20
-10.79818335775846
 30
0.0
 10
4.41040355279469
 20
-10.71647756713849
 30
0.0
 10
4.332648883928589
 20
-10.75113291137743
 30
0.0
 10
4.188828110590696
 20
-10.79833591675943
 30
0.0
 10
4.301662900356122
 20
-10.66394478858034
 30
0.0
 10
4.402014193776535
 20
-10.64667323481701
 30
0.0
 10
4.392197978460774
 20
-10.52475440918846
 30
0.0
 10
4.476116869582126
 20
-10.42519654884216
 30
0.0
 10
4.538218553646104
 20
-10.25915351239552
 30
0.0
 10
4.717060573684384
 20
-10.1588184340778
 30
0.0
 10
4.936066914473798
 20
-10.05091233316547
 30
0.0
 10
5.026977582103163
 20
-9.830301022432755
 30
0.0
 10
5.258172348543149
 20
-9.510057188751064
 30
0.0
 10
5.172834286223728
 20
-9.466255967572971
 30
0.0
 10
4.8698907752753
 20
-9.536449811954892
 30
0.0
 10
4.641888656017872
 20
-9.484335837435065
 30
0.0
 10
4.535035047740852
 20
-9.566446545556014
 30
0.0
 10
4.460152146128282
 20
-9.70892644206607
 30
0.0
 10
4.324945426503811
 20
-9.878328211808315
 30
0.0
 10
4.212580717769445
 20
-9.95478667965049
 30
0.0
 10
4.169818618357396
 20
-10.17535549723457
 30
0.0
 10
4.167546527617205
 20
-10.33875929294
 30
0.0
 10
4.193049904037117
 20
-10.48893872425355
 30
0.0
 10
4.062997985966464
 20
-10.69625456907054
 30
0.0
 10
4.056476119930101
 20
-10.52025719713349
 30
0.0
 10
4.108732545867651
 20
-10.41494788235093
 30
0.0
 10
4.099270301064008
 20
-10.27892193563052
 30
0.0
 10
4.037995090347525
 20
-10.13857048229319
 30
0.0
 10
3.908790589148678
 20
-10.15677333388222
 30
0.0
 10
3.833831828022862
 20
-10.15423250059314
 30
0.0
 10
3.642907939838315
 20
-10.26028920027815
 30
0.0
 10
3.719084596617083
 20
-10.13880641067198
 30
0.0
 10
3.837520400309246
 20
-10.09627916985799
 30
0.0
 10
4.029147694940915
 20
-10.01894508927565
 30
0.0
 10
4.217619354238029
 20
-9.891507280314409
 30
0.0
 10
4.324657752472305
 20
-9.726804716755154
 30
0.0
 10
4.393421560984484
 20
-9.590192881572886
 30
0.0
 10
4.328664194522884
 20
-9.472818857074744
 30
0.0
 10
4.151870625448209
 20
-9.414684064431011
 30
0.0
 10
3.907545295007576
 20
-9.333595396667203
 30
0.0
 10
3.676318793870587
 20
-9.174592575686994
 30
0.0
 10
3.462762288468784
 20
-9.07772879664814
 30
0.0
 10
3.327312699449621
 20
-9.163462142288186
 30
0.0
 10
3.276999266307376
 20
-9.315653150529503
 30
0.0
 10
3.25579582013626
 20
-9.512826534635717
 30
0.0
 10
3.311339345816155
 20
-9.661722807240913
 30
0.0
 10
3.217118415354049
 20
-9.857982818409596
 30
0.0
 10
3.200900475192256
 20
-9.657816469241025
 30
0.0
 10
3.232486985045813
 20
-9.552859308867557
 30
0.0
 10
3.131070321472998
 20
-9.510921930633257
 30
0.0
 10
3.018411632434387
 20
-9.6502611901142
 30
0.0
 10
3.10440239321522
 20
-9.422822143305101
 30
0.0
 10
3.195700256393845
 20
-9.350574308631884
 30
0.0
 10
3.237291668204539
 20
-9.215961855120815
 30
0.0
 10
3.274235813311439
 20
-9.04538733451689
 30
0.0
 10
3.087855834070348
 20
-9.004044450071822
 30
0.0
 10
2.948089461115145
 20
-9.068985329935717
 30
0.0
 10
2.818204822094304
 20
-9.097194276567219
 30
0.0
 10
2.673114524850306
 20
-9.248707002745244
 30
0.0
 10
2.691326982488941
 20
-9.086465007038848
 30
0.0
 10
2.828914053097049
 20
-9.001604462983634
 30
0.0
 10
3.043514394008775
 20
-8.95174220822069
 30
0.0
 10
3.277298512883775
 20
-8.91568707070317
 30
0.0
 10
3.56829148415439
 20
-9.007785549535116
 30
0.0
 10
3.926398796888382
 20
-9.216234367714527
 30
0.0
 10
4.446000218773375
 20
-9.395512741239143
 30
0.0
 10
5.075312558226772
 20
-9.406207964301588
 30
0.0
 10
5.406561316994106
 20
-9.256842792185338
 30
0.0
 10
5.627488264478098
 20
-9.098438517665805
 30
0.0
 10
5.332882927308122
 20
-9.086133095524843
 30
0.0
 10
5.155222742305836
 20
-9.095898683063877
 30
0.0
 10
4.868756690215688
 20
-9.142694121921354
 30
0.0
 10
4.544157268244449
 20
-9.157116042924718
 30
0.0
 10
4.241745248995207
 20
-9.046886318271042
 30
0.0
 10
3.997802787029158
 20
-8.940973378956791
 30
0.0
 10
3.753577174781384
 20
-8.965591999887907
 30
0.0
 10
3.498453175856259
 20
-8.95287840215988
 30
0.0
 10
3.269358799478868
 20
-8.788634609448383
 30
0.0
 10
2.978940766664457
 20
-8.793730702734637
 30
0.0
 10
2.778451745404277
 20
-8.798870999780949
 30
0.0
 10
2.463131113629939
 20
-8.778341208851643
 30
0.0
 10
2.456557151344656
 20
-8.788172722710636
 30
0.0
  0
ENDSEC
  0
SECTION
  2
OBJECTS
  0
DICTIONARY
  5
C
330
0
100
AcDbDictionary
281
     1
  3
ACAD_GROUP
350
D
  3
ACAD_LAYOUT
350
1A
  3
ACAD_MLINESTYLE
350
17
  3
ACAD_PLOTSETTINGS
350
19
  3
ACAD_PLOTSTYLENAME
350
E
  3
ACAD_SCALELIST
350
47
  0
DICTIONARY
  5
D
102
{ACAD_REACTORS
330
C
102
}
330
C
100
AcDbDictionary
281
     1
  0
DICTIONARY
  5
1A
102
{ACAD_REACTORS
330
C
102
}
330
C
100
AcDbDictionary
281
     1
  3
Layout1
350
1E
  3
Layout2
350
26
  3
Model
350
22
  0
DICTIONARY
  5
17
102
{ACAD_REACTORS
330
C
102
}
330
C
100
AcDbDictionary
281
     1
  3
Standard
350
18
  0
DICTIONARY
  5
19
102
{ACAD_REACTORS
330
C
102
}
330
C
100
AcDbDictionary
281
     1
  0
ACDBDICTIONARYWDFLT
  5
E
102
{ACAD_REACTORS
330
C
102
}
330
C
100
AcDbDictionary
281
     1
  3
Normal
350
F
100
AcDbDictionaryWithDefault
340
F
  0
DICTIONARY
  5
47
102
{ACAD_REACTORS
330
C
102
}
330
C
100
AcDbDictionary
281
     1
  3
A0
350
48
  3
A1
350
49
  3
A2
350
4A
  3
A3
350
4B
  3
A4
350
4C
  3
A5
350
4D
  3
A6
350
4E
  3
A7
350
4F
  3
A8
350
50
  3
A9
350
51
  3
B0
350
52
  3
B1
350
53
  3
B2
350
54
  3
B3
350
55
  3
B4
350
56
  3
B5
350
57
  3
B6
350
58
  3
B7
350
59
  3
B8
350
5A
  3
B9
350
5B
  3
C0
350
5C
  3
C1
350
5D
  3
C2
350
5E
  3
C3
350
5F
  3
C4
350
60
  3
C5
350
61
  3
C6
350
62
  3
C7
350
63
  3
C8
350
64
  3
C9
350
65
  3
D0
350
66
  3
D1
350
67
  3
D2
350
68
  0
LAYOUT
  5
1E
102
{ACAD_REACTORS
330
1A
102
}
330
1A
100
AcDbPlotSettings
  1

  2
none_device
  4

  6

 40
0.0
 41
0.0
 42
0.0
 43
0.0
 44
0.0
 45
0.0
 46
0.0
 47
0.0
 48
0.0
 49
0.0
140
0.0
141
0.0
142
1.0
143
1.0
 70
   688
 72
     0
 73
     0
 74
     5
  7

 75
    16
147
1.0
148
0.0
149
0.0
100
AcDbLayout
  1
Layout1
 70
     1
 71
     1
 10
0.0
 20
0.0
 11
12.0
 21
9.0
 12
0.0
 22
0.0
 32
0.0
 14
1.0000000000E 20
 24
1.0000000000E 20
 34
1.0000000000E 20
 15
-1.0000000000E 20
 25
-1.0000000000E 20
 35
-1.0000000000E 20
146
0.0
 13
0.0
 23
0.0
 33
0.0
 16
1.0
 26
0.0
 36
0.0
 17
0.0
 27
1.0
 37
0.0
 76
     0
330
1B
  0
LAYOUT
  5
26
102
{ACAD_REACTORS
330
1A
102
}
330
1A
100
AcDbPlotSettings
  1

  2
none_device
  4

  6

 40
0.0
 41
0.0
 42
0.0
 43
0.0
 44
0.0
 45
0.0
 46
0.0
 47
0.0
 48
0.0
 49
0.0
140
0.0
141
0.0
142
1.0
143
1.0
 70
   688
 72
     0
 73
     0
 74
     5
  7

 75
    16
147
1.0
148
0.0
149
0.0
100
AcDbLayout
  1
Layout2
 70
     1
 71
     2
 10
0.0
 20
0.0
 11
0.0
 21
0.0
 12
0.0
 22
0.0
 32
0.0
 14
0.0
 24
0.0
 34
0.0
 15
0.0
 25
0.0
 35
0.0
146
0.0
 13
0.0
 23
0.0
 33
0.0
 16
1.0
 26
0.0
 36
0.0
 17
0.0
 27
1.0
 37
0.0
 76
     0
330
23
  0
LAYOUT
  5
22
102
{ACAD_REACTORS
330
1A
102
}
330
1A
100
AcDbPlotSettings
  1

  2
none_device
  4
ANSI_A_(11.00_x_8.50_Inches)
  6

 40
6.35
 41
19.05
 42
6.35000508
 43
19.05000254
 44
279.4
 45
215.9
 46
24.4639789594
 47
200.1022166932
 48
0.0
 49
0.0
140
0.0
141
0.0
142
0.7159983874
143
1.0
 70
  1696
 72
     0
 73
     0
 74
     0
  7

 75
     0
147
0.5913241897
148
-39.4088153714
149
0.0
100
AcDbLayout
  1
Model
 70
     1
 71
     0
 10
0.0
 20
0.0
 11
12.0
 21
9.0
 12
0.0
 22
0.0
 32
0.0
 14
0.003721561
 24
-11.9910047689
 34
0.0
 15
11.9707498841
 25
-0.238185002
 35
0.0
146
0.0
 13
0.0
 23
0.0
 33
0.0
 16
1.0
 26
0.0
 36
0.0
 17
0.0
 27
1.0
 37
0.0
 76
     0
330
1F
331
29
  0
MLINESTYLE
  5
18
102
{ACAD_REACTORS
330
17
102
}
330
17
100
AcDbMlineStyle
  2
Standard
 70
     0
  3

 62
   256
 51
90.0
 52
90.0
 71
     2
 49
0.5
 62
   256
  6
BYLAYER
 49
-0.5
 62
   256
  6
BYLAYER
  0
ACDBPLACEHOLDER
  5
F
102
{ACAD_REACTORS
330
E
102
}
330
E
  0
SCALE
  5
48
102
{ACAD_REACTORS
330
47
102
}
330
47
100
AcDbScale
 70
     0
300
1:1
140
1.0
141
1.0
290
     1
  0
SCALE
  5
49
102
{ACAD_REACTORS
330
47
102
}
330
47
100
AcDbScale
 70
     0
300
1:2
140
1.0
141
2.0
290
     0
  0
SCALE
  5
4A
102
{ACAD_REACTORS
330
47
102
}
330
47
100
AcDbScale
 70
     0
300
1:4
140
1.0
141
4.0
290
     0
  0
SCALE
  5
4B
102
{ACAD_REACTORS
330
47
102
}
330
47
100
AcDbScale
 70
     0
300
1:5
140
1.0
141
5.0
290
     0
  0
SCALE
  5
4C
102
{ACAD_REACTORS
330
47
102
}
330
47
100
AcDbScale
 70
     0
300
1:8
140
1.0
141
8.0
290
     0
  0
SCALE
  5
4D
102
{ACAD_REACTORS
330
47
102
}
330
47
100
AcDbScale
 70
     0
300
1:10
140
1.0
141
10.0
290
     0
  0
SCALE
  5
4E
102
{ACAD_REACTORS
330
47
102
}
330
47
100
AcDbScale
 70
     0
300
1:16
140
1.0
141
16.0
290
     0
  0
SCALE
  5
4F
102
{ACAD_REACTORS
330
47
102
}
330
47
100
AcDbScale
 70
     0
300
1:20
140
1.0
141
20.0
290
     0
  0
SCALE
  5
50
102
{ACAD_REACTORS
330
47
102
}
330
47
100
AcDbScale
 70
     0
300
1:30
140
1.0
141
30.0
290
     0
  0
SCALE
  5
51
102
{ACAD_REACTORS
330
47
102
}
330
47
100
AcDbScale
 70
     0
300
1:40
140
1.0
141
40.0
290
     0
  0
SCALE
  5
52
102
{ACAD_REACTORS
330
47
102
}
330
47
100
AcDbScale
 70
     0
300
1:50
140
1.0
141
50.0
290
     0
  0
SCALE
  5
53
102
{ACAD_REACTORS
330
47
102
}
330
47
100
AcDbScale
 70
     0
300
1:100
140
1.0
141
100.0
290
     0
  0
SCALE
  5
54
102
{ACAD_REACTORS
330
47
102
}
330
47
100
AcDbScale
 70
     0
300
2:1
140
2.0
141
1.0
290
     0
  0
SCALE
  5
55
102
{ACAD_REACTORS
330
47
102
}
330
47
100
AcDbScale
 70
     0
300
4:1
140
4.0
141
1.0
290
     0
  0
SCALE
  5
56
102
{ACAD_REACTORS
330
47
102
}
330
47
100
AcDbScale
 70
     0
300
8:1
140
8.0
141
1.0
290
     0
  0
SCALE
  5
57
102
{ACAD_REACTORS
330
47
102
}
330
47
100
AcDbScale
 70
     0
300
10:1
140
10.0
141
1.0
290
     0
  0
SCALE
  5
58
102
{ACAD_REACTORS
330
47
102
}
330
47
100
AcDbScale
 70
     0
300
100:1
140
100.0
141
1.0
290
     0
  0
SCALE
  5
59
102
{ACAD_REACTORS
330
47
102
}
330
47
100
AcDbScale
 70
     0
300
1/128\" = 1\'-0\"
140
0.0078125
141
12.0
290
     0
  0
SCALE
  5
5A
102
{ACAD_REACTORS
330
47
102
}
330
47
100
AcDbScale
 70
     0
300
1/64\" = 1\'-0\"
140
0.015625
141
12.0
290
     0
  0
SCALE
  5
5B
102
{ACAD_REACTORS
330
47
102
}
330
47
100
AcDbScale
 70
     0
300
1/32\" = 1\'-0\"
140
0.03125
141
12.0
290
     0
  0
SCALE
  5
5C
102
{ACAD_REACTORS
330
47
102
}
330
47
100
AcDbScale
 70
     0
300
1/16\" = 1\'-0\"
140
0.0625
141
12.0
290
     0
  0
SCALE
  5
5D
102
{ACAD_REACTORS
330
47
102
}
330
47
100
AcDbScale
 70
     0
300
3/32\" = 1\'-0\"
140
0.09375
141
12.0
290
     0
  0
SCALE
  5
5E
102
{ACAD_REACTORS
330
47
102
}
330
47
100
AcDbScale
 70
     0
300
1/8\" = 1\'-0\"
140
0.125
141
12.0
290
     0
  0
SCALE
  5
5F
102
{ACAD_REACTORS
330
47
102
}
330
47
100
AcDbScale
 70
     0
300
3/16\" = 1\'-0\"
140
0.1875
141
12.0
290
     0
  0
SCALE
  5
60
102
{ACAD_REACTORS
330
47
102
}
330
47
100
AcDbScale
 70
     0
300
1/4\" = 1\'-0\"
140
0.25
141
12.0
290
     0
  0
SCALE
  5
61
102
{ACAD_REACTORS
330
47
102
}
330
47
100
AcDbScale
 70
     0
300
3/8\" = 1\'-0\"
140
0.375
141
12.0
290
     0
  0
SCALE
  5
62
102
{ACAD_REACTORS
330
47
102
}
330
47
100
AcDbScale
 70
     0
300
1/2\" = 1\'-0\"
140
0.5
141
12.0
290
     0
  0
SCALE
  5
63
102
{ACAD_REACTORS
330
47
102
}
330
47
100
AcDbScale
 70
     0
300
3/4\" = 1\'-0\"
140
0.75
141
12.0
290
     0
  0
SCALE
  5
64
102
{ACAD_REACTORS
330
47
102
}
330
47
100
AcDbScale
 70
     0
300
1\" = 1\'-0\"
140
1.0
141
12.0
290
     0
  0
SCALE
  5
65
102
{ACAD_REACTORS
330
47
102
}
330
47
100
AcDbScale
 70
     0
300
1-1/2\" = 1\'-0\"
140
1.5
141
12.0
290
     0
  0
SCALE
  5
66
102
{ACAD_REACTORS
330
47
102
}
330
47
100
AcDbScale
 70
     0
300
3\" = 1\'-0\"
140
3.0
141
12.0
290
     0
  0
SCALE
  5
67
102
{ACAD_REACTORS
330
47
102
}
330
47
100
AcDbScale
 70
     0
300
6\" = 1\'-0\"
140
6.0
141
12.0
290
     0
  0
SCALE
  5
68
102
{ACAD_REACTORS
330
47
102
}
330
47
100
AcDbScale
 70
     0
300
1\'-0\" = 1\'-0\"
140
12.0
141
12.0
290
     0
  0
ENDSEC
  0
EOF
