  0
SECTION
  2
HEADER
  9
$ACADVER
  1
AC1018
  9
$ACADMAINTVER
 70
    76
  9
$DWGCODEPAGE
  3
ANSI_1252
  9
$INSBASE
 10
0.0
 20
0.0
 30
0.0
  9
$EXTMIN
 10
0.0803907350086775
 20
0.0030906434869848
 30
0.0
  9
$EXTMAX
 10
1344.54
 20
1679.63
 30
0.0
  9
$LIMMIN
 10
0.0
 20
0.0
  9
$LIMMAX
 10
12.0
 20
9.0
  9
$ORTHOMODE
 70
     0
  9
$REGENMODE
 70
     1
  9
$FILLMODE
 70
     1
  9
$QTEXTMODE
 70
     0
  9
$MIRRTEXT
 70
     0
  9
$LTSCALE
 40
1.0
  9
$ATTMODE
 70
     1
  9
$TEXTSIZE
 40
0.2
  9
$TRACEWID
 40
0.05
  9
$TEXTSTYLE
  7
Standard
  9
$CLAYER
  8
0
  9
$CELTYPE
  6
ByLayer
  9
$CECOLOR
 62
   256
  9
$CELTSCALE
 40
1.0
  9
$DISPSILH
 70
     0
  9
$DIMSCALE
 40
1.0
  9
$DIMASZ
 40
0.18
  9
$DIMEXO
 40
0.0625
  9
$DIMDLI
 40
0.38
  9
$DIMRND
 40
0.0
  9
$DIMDLE
 40
0.0
  9
$DIMEXE
 40
0.18
  9
$DIMTP
 40
0.0
  9
$DIMTM
 40
0.0
  9
$DIMTXT
 40
0.18
  9
$DIMCEN
 40
0.09
  9
$DIMTSZ
 40
0.0
  9
$DIMTOL
 70
     0
  9
$DIMLIM
 70
     0
  9
$DIMTIH
 70
     1
  9
$DIMTOH
 70
     1
  9
$DIMSE1
 70
     0
  9
$DIMSE2
 70
     0
  9
$DIMTAD
 70
     0
  9
$DIMZIN
 70
     0
  9
$DIMBLK
  1

  9
$DIMASO
 70
     1
  9
$DIMSHO
 70
     1
  9
$DIMPOST
  1

  9
$DIMAPOST
  1

  9
$DIMALT
 70
     0
  9
$DIMALTD
 70
     2
  9
$DIMALTF
 40
25.4
  9
$DIMLFAC
 40
1.0
  9
$DIMTOFL
 70
     0
  9
$DIMTVP
 40
0.0
  9
$DIMTIX
 70
     0
  9
$DIMSOXD
 70
     0
  9
$DIMSAH
 70
     0
  9
$DIMBLK1
  1

  9
$DIMBLK2
  1

  9
$DIMSTYLE
  2
Standard
  9
$DIMCLRD
 70
     0
  9
$DIMCLRE
 70
     0
  9
$DIMCLRT
 70
     0
  9
$DIMTFAC
 40
1.0
  9
$DIMGAP
 40
0.09
  9
$DIMJUST
 70
     0
  9
$DIMSD1
 70
     0
  9
$DIMSD2
 70
     0
  9
$DIMTOLJ
 70
     1
  9
$DIMTZIN
 70
     0
  9
$DIMALTZ
 70
     0
  9
$DIMALTTZ
 70
     0
  9
$DIMUPT
 70
     0
  9
$DIMDEC
 70
     4
  9
$DIMTDEC
 70
     4
  9
$DIMALTU
 70
     2
  9
$DIMALTTD
 70
     2
  9
$DIMTXSTY
  7
Standard
  9
$DIMAUNIT
 70
     0
  9
$DIMADEC
 70
     0
  9
$DIMALTRND
 40
0.0
  9
$DIMAZIN
 70
     0
  9
$DIMDSEP
 70
    46
  9
$DIMATFIT
 70
     3
  9
$DIMFRAC
 70
     0
  9
$DIMLDRBLK
  1

  9
$DIMLUNIT
 70
     2
  9
$DIMLWD
 70
    -2
  9
$DIMLWE
 70
    -2
  9
$DIMTMOVE
 70
     0
  9
$LUNITS
 70
     2
  9
$LUPREC
 70
     4
  9
$SKETCHINC
 40
0.1
  9
$FILLETRAD
 40
0.0
  9
$AUNITS
 70
     0
  9
$AUPREC
 70
     0
  9
$MENU
  1
.
  9
$ELEVATION
 40
0.0
  9
$PELEVATION
 40
0.0
  9
$THICKNESS
 40
0.0
  9
$LIMCHECK
 70
     0
  9
$CHAMFERA
 40
0.0
  9
$CHAMFERB
 40
0.0
  9
$CHAMFERC
 40
0.0
  9
$CHAMFERD
 40
0.0
  9
$SKPOLY
 70
     0
  9
$TDCREATE
 40
2454772.472586979
  9
$TDUCREATE
 40
2454772.430920313
  9
$TDUPDATE
 40
2454772.472674144
  9
$TDUUPDATE
 40
2454772.431007477
  9
$TDINDWG
 40
0.0000875231
  9
$TDUSRTIMER
 40
0.0000875231
  9
$USRTIMER
 70
     1
  9
$ANGBASE
 50
0.0
  9
$ANGDIR
 70
     0
  9
$PDMODE
 70
     0
  9
$PDSIZE
 40
0.0
  9
$PLINEWID
 40
0.0
  9
$SPLFRAME
 70
     0
  9
$SPLINETYPE
 70
     6
  9
$SPLINESEGS
 70
     8
  9
$HANDSEED
  5
8F5
  9
$SURFTAB1
 70
     6
  9
$SURFTAB2
 70
     6
  9
$SURFTYPE
 70
     6
  9
$SURFU
 70
     6
  9
$SURFV
 70
     6
  9
$UCSBASE
  2

  9
$UCSNAME
  2

  9
$UCSORG
 10
0.0
 20
0.0
 30
0.0
  9
$UCSXDIR
 10
1.0
 20
0.0
 30
0.0
  9
$UCSYDIR
 10
0.0
 20
1.0
 30
0.0
  9
$UCSORTHOREF
  2

  9
$UCSORTHOVIEW
 70
     0
  9
$UCSORGTOP
 10
0.0
 20
0.0
 30
0.0
  9
$UCSORGBOTTOM
 10
0.0
 20
0.0
 30
0.0
  9
$UCSORGLEFT
 10
0.0
 20
0.0
 30
0.0
  9
$UCSORGRIGHT
 10
0.0
 20
0.0
 30
0.0
  9
$UCSORGFRONT
 10
0.0
 20
0.0
 30
0.0
  9
$UCSORGBACK
 10
0.0
 20
0.0
 30
0.0
  9
$PUCSBASE
  2

  9
$PUCSNAME
  2

  9
$PUCSORG
 10
0.0
 20
0.0
 30
0.0
  9
$PUCSXDIR
 10
1.0
 20
0.0
 30
0.0
  9
$PUCSYDIR
 10
0.0
 20
1.0
 30
0.0
  9
$PUCSORTHOREF
  2

  9
$PUCSORTHOVIEW
 70
     0
  9
$PUCSORGTOP
 10
0.0
 20
0.0
 30
0.0
  9
$PUCSORGBOTTOM
 10
0.0
 20
0.0
 30
0.0
  9
$PUCSORGLEFT
 10
0.0
 20
0.0
 30
0.0
  9
$PUCSORGRIGHT
 10
0.0
 20
0.0
 30
0.0
  9
$PUCSORGFRONT
 10
0.0
 20
0.0
 30
0.0
  9
$PUCSORGBACK
 10
0.0
 20
0.0
 30
0.0
  9
$USERI1
 70
     0
  9
$USERI2
 70
     0
  9
$USERI3
 70
     0
  9
$USERI4
 70
     0
  9
$USERI5
 70
     0
  9
$USERR1
 40
0.0
  9
$USERR2
 40
0.0
  9
$USERR3
 40
0.0
  9
$USERR4
 40
0.0
  9
$USERR5
 40
0.0
  9
$WORLDVIEW
 70
     1
  9
$SHADEDGE
 70
     3
  9
$SHADEDIF
 70
    70
  9
$TILEMODE
 70
     1
  9
$MAXACTVP
 70
    64
  9
$PINSBASE
 10
0.0
 20
0.0
 30
0.0
  9
$PLIMCHECK
 70
     0
  9
$PEXTMIN
 10
1.000000000000000E+20
 20
1.000000000000000E+20
 30
1.000000000000000E+20
  9
$PEXTMAX
 10
-1.000000000000000E+20
 20
-1.000000000000000E+20
 30
-1.000000000000000E+20
  9
$PLIMMIN
 10
0.0
 20
0.0
  9
$PLIMMAX
 10
12.0
 20
9.0
  9
$UNITMODE
 70
     0
  9
$VISRETAIN
 70
     1
  9
$PLINEGEN
 70
     0
  9
$PSLTSCALE
 70
     1
  9
$TREEDEPTH
 70
  3020
  9
$CMLSTYLE
  2
Standard
  9
$CMLJUST
 70
     0
  9
$CMLSCALE
 40
1.0
  9
$PROXYGRAPHICS
 70
     1
  9
$MEASUREMENT
 70
     0
  9
$CELWEIGHT
370
    -1
  9
$ENDCAPS
280
     0
  9
$JOINSTYLE
280
     0
  9
$LWDISPLAY
290
     0
  9
$INSUNITS
 70
     0
  9
$HYPERLINKBASE
  1

  9
$STYLESHEET
  1

  9
$XEDIT
290
     1
  9
$CEPSNTYPE
380
     0
  9
$PSTYLEMODE
290
     1
  9
$FINGERPRINTGUID
  2
{56662854-53F8-4344-BA20-3B5A3C9FA981}
  9
$VERSIONGUID
  2
{4CD309DC-402D-4C02-AE9B-DAB0C08D35BF}
  9
$EXTNAMES
290
     1
  9
$PSVPSCALE
 40
0.0
  9
$OLESTARTUP
290
     0
  9
$SORTENTS
280
   127
  9
$INDEXCTL
280
     0
  9
$HIDETEXT
280
     0
  9
$XCLIPFRAME
290
     0
  9
$HALOGAP
280
     0
  9
$OBSCOLOR
 70
   257
  9
$OBSLTYPE
280
     0
  9
$INTERSECTIONDISPLAY
280
     0
  9
$INTERSECTIONCOLOR
 70
   257
  9
$DIMASSOC
280
     1
  9
$PROJECTNAME
  1

  0
ENDSEC
  0
SECTION
  2
CLASSES
  0
CLASS
  1
ACDBDICTIONARYWDFLT
  2
AcDbDictionaryWithDefault
  3
ObjectDBX Classes
 90
        0
 91
        1
280
     0
281
     0
  0
CLASS
  1
TABLESTYLE
  2
AcDbTableStyle
  3
ObjectDBX Classes
 90
     2047
 91
        1
280
     0
281
     0
  0
CLASS
  1
DICTIONARYVAR
  2
AcDbDictionaryVar
  3
ObjectDBX Classes
 90
        0
 91
        1
280
     0
281
     0
  0
ENDSEC
  0
SECTION
  2
TABLES
  0
TABLE
  2
VPORT
  5
8
330
0
100
AcDbSymbolTable
 70
     2
  0
VPORT
  5
8F4
330
8
100
AcDbSymbolTableRecord
100
AcDbViewportTableRecord
  2
*Active
 70
     0
 10
0.0
 20
0.0
 11
1.0
 21
1.0
 12
672.3101953675043
 22
839.8165453217433
 13
0.0
 23
0.0
 14
1.0
 24
1.0
 15
0.0
 25
0.0
 16
0.0
 26
0.0
 36
1.0
 17
0.0
 27
0.0
 37
0.0
 40
1697.214625684853
 41
2.087412587412587
 42
50.0
 43
0.0
 44
0.0
 50
0.0
 51
0.0
 71
     0
 72
  1000
 73
     1
 74
     3
 75
     0
 76
     0
 77
     0
 78
     0
281
     0
 65
     1
110
0.0
120
0.0
130
0.0
111
1.0
121
0.0
131
0.0
112
0.0
122
1.0
132
0.0
 79
     0
146
0.0
  0
ENDTAB
  0
TABLE
  2
LTYPE
  5
5
330
0
100
AcDbSymbolTable
 70
     1
  0
LTYPE
  5
13
330
5
100
AcDbSymbolTableRecord
100
AcDbLinetypeTableRecord
  2
ByBlock
 70
     0
  3

 72
    65
 73
     0
 40
0.0
  0
LTYPE
  5
14
330
5
100
AcDbSymbolTableRecord
100
AcDbLinetypeTableRecord
  2
ByLayer
 70
     0
  3

 72
    65
 73
     0
 40
0.0
  0
LTYPE
  5
15
330
5
100
AcDbSymbolTableRecord
100
AcDbLinetypeTableRecord
  2
Continuous
 70
     0
  3
Solid line
 72
    65
 73
     0
 40
0.0
  0
ENDTAB
  0
TABLE
  2
LAYER
  5
2
330
0
100
AcDbSymbolTable
 70
     1
  0
LAYER
  5
10
330
2
100
AcDbSymbolTableRecord
100
AcDbLayerTableRecord
  2
0
 70
     0
 62
     7
  6
Continuous
370
    -3
390
F
  0
ENDTAB
  0
TABLE
  2
STYLE
  5
3
330
0
100
AcDbSymbolTable
 70
     1
  0
STYLE
  5
11
330
3
100
AcDbSymbolTableRecord
100
AcDbTextStyleTableRecord
  2
Standard
 70
     0
 40
0.0
 41
1.0
 50
0.0
 71
     0
 42
0.2
  3
txt
  4

  0
ENDTAB
  0
TABLE
  2
VIEW
  5
6
330
0
100
AcDbSymbolTable
 70
     0
  0
ENDTAB
  0
TABLE
  2
UCS
  5
7
330
0
100
AcDbSymbolTable
 70
     0
  0
ENDTAB
  0
TABLE
  2
APPID
  5
9
330
0
100
AcDbSymbolTable
 70
     1
  0
APPID
  5
12
330
9
100
AcDbSymbolTableRecord
100
AcDbRegAppTableRecord
  2
ACAD
 70
     0
  0
ENDTAB
  0
TABLE
  2
DIMSTYLE
  5
A
330
0
100
AcDbSymbolTable
 70
     1
100
AcDbDimStyleTable
 71
     0
  0
DIMSTYLE
105
8EE
330
A
100
AcDbSymbolTableRecord
100
AcDbDimStyleTableRecord
  2
Standard
 70
     0
340
11
  0
ENDTAB
  0
TABLE
  2
BLOCK_RECORD
  5
1
330
0
100
AcDbSymbolTable
 70
     0
  0
BLOCK_RECORD
  5
22
330
1
100
AcDbSymbolTableRecord
100
AcDbBlockTableRecord
  2
*Model_Space
340
25
  0
BLOCK_RECORD
  5
1E
330
1
100
AcDbSymbolTableRecord
100
AcDbBlockTableRecord
  2
*Paper_Space
340
21
  0
ENDTAB
  0
ENDSEC
  0
SECTION
  2
BLOCKS
  0
BLOCK
  5
23
330
22
100
AcDbEntity
  8
0
100
AcDbBlockBegin
  2
*Model_Space
 70
     0
 10
0.0
 20
0.0
 30
0.0
  3
*Model_Space
  1

  0
ENDBLK
  5
24
330
22
100
AcDbEntity
  8
0
100
AcDbBlockEnd
  0
BLOCK
  5
1F
330
1E
100
AcDbEntity
 67
     1
  8
0
100
AcDbBlockBegin
  2
*Paper_Space
 70
     0
 10
0.0
 20
0.0
 30
0.0
  3
*Paper_Space
  1

  0
ENDBLK
  5
20
330
1E
100
AcDbEntity
 67
     1
  8
0
100
AcDbBlockEnd
  0
ENDSEC
  0
SECTION
  2
ENTITIES
  0
LWPOLYLINE
  5
26
330
22
100
AcDbEntity
  8
0
100
AcDbPolyline
 90
      217
 70
     1
 43
0.0
 10
370.959
 20
10.439
 42
-0.0798732
 10
177.444
 20
5.426759999999999
 42
-0.0779918
 10
105.987
 20
26.4055
 42
0.00967503
 10
101.966
 20
28.2682
 42
0.102242
 10
96.68359999999999
 20
29.6292
 42
0.0237018
 10
89.2035
 20
29.1514
 42
-0.428007
 10
0.244915
 20
106.935
 42
-0.233969
 10
73.3904
 20
274.79
 42
-0.0371979
 10
77.8444
 20
277.984
 42
0.0878025
 10
87.4848
 20
286.49
 42
-0.127566
 10
167.164
 20
346.354
 10
127.533
 20
499.378
 42
0.0578939
 10
124.716
 20
506.6609999999999
 42
-0.0960204
 10
120.994
 20
518.9869999999999
 42
-0.0407715
 10
116.333
 20
748.27
 42
0.0703227
 10
125.8
 20
852.682
 42
0.204858
 10
95.53279999999999
 20
914.0499999999999
 42
-0.131903
 10
54.3054
 20
1053.19
 10
80.40699999999999
 20
1077.64
 42
-0.785755
 10
143.008
 20
1128.85
 42
-0.194259
 10
163.424
 20
1094.73
 42
0.7602979999999999
 10
185.213
 20
1088.02
 42
-0.165416
 10
224.231
 20
995.8610000000001
 42
0.234095
 10
222.544
 20
944.7389999999998
 10
264.543
 20
940.165
 10
363.9969999999999
 20
862.095
 42
0.721144
 10
386.588
 20
877.8780000000001
 42
0.316855
 10
411.666
 20
954.513
 10
429.188
 20
1042.74
 42
0.223482
 10
418.503
 20
1087.27
 42
-0.021787
 10
412.4469999999999
 20
1094.25
 42
-0.150445
 10
410.3609999999999
 20
1099.74
 42
0.462024
 10
392.407
 20
1114.75
 42
0.0526648
 10
389.275
 20
1113.87
 42
0.107101
 10
379.468
 20
1106.36
 42
-0.4485240000000001
 10
297.393
 20
1109.51
 42
0.658562
 10
280.388
 20
1133.53
 10
278.253
 20
1133.22
 42
-0.12443
 10
275.252
 20
1133.63
 42
-0.1796
 10
273.669
 20
1135.18
 42
-0.107354
 10
273.178
 20
1137.58
 42
-0.0619326
 10
274.164
 20
1143.81
 42
0.050936
 10
275.717
 20
1151.28
 42
0.126445
 10
275.39
 20
1153.24
 42
0.246981
 10
274.032
 20
1154.19
 10
256.712
 20
1157.22
 10
256.312
 20
1157.35
 42
-0.0464015
 10
254.495
 20
1158.45
 42
-0.0855607
 10
246.111
 20
1166.99
 42
-0.113634
 10
245.269
 20
1169.07
 42
-0.187244
 10
245.48
 20
1170.08
 42
0.710595
 10
226.411
 20
1196.91
 42
-0.153596
 10
222.01
 20
1197.02
 42
-0.221284
 10
214.352
 20
1205.26
 42
-0.180025
 10
214.203
 20
1211.32
 42
0.0579947
 10
226.331
 20
1253.39
 10
172.559
 20
1332.31
 42
-0.309616
 10
95.78329999999999
 20
1331.29
 42
-0.41774
 10
80.70350000000001
 20
1407.77
 42
0.290829
 10
98.8194
 20
1462.41
 42
-0.138692
 10
99.12030000000001
 20
1472.52
 42
0.0704197
 10
99.97520000000001
 20
1477.67
 42
-0.4299590000000001
 10
160.937
 20
1532.72
 42
0.121366
 10
196.104
 20
1561.01
 42
-0.0530763
 10
200.774
 20
1566.17
 42
-0.0802367
 10
210.772
 20
1571.64
 42
0.229089
 10
240.896
 20
1606.08
 10
341.596
 20
1644.56
 42
0.0881315
 10
347.264
 20
1647.96
 42
-0.187654
 10
360.159
 20
1652.61
 10
416.091
 20
1651.19
 42
0.140437
 10
426.018
 20
1653.76
 42
-0.161677
 10
437.4869999999999
 20
1656.23
 42
-0.0586831
 10
518.423
 20
1637.66
 42
0.11559
 10
545.463
 20
1658.24
 42
-0.303386
 10
577.6209999999999
 20
1679.63
 42
-0.0996179
 10
563.638
 20
1638.82
 10
596.485
 20
1634.55
 42
-0.838592
 10
596.961
 20
1609.7
 42
-0.29575
 10
631.306
 20
1576.86
 42
0.0944864
 10
638.9339999999999
 20
1560.01
 42
-0.0869737
 10
663.1269999999999
 20
1503.13
 10
663.9899999999999
 20
1499.4
 42
0.150208
 10
671.636
 20
1484.14
 42
-0.232246
 10
693.83
 20
1395.93
 42
0.098804
 10
693.1560000000001
 20
1372.49
 42
-0.27354
 10
667.138
 20
1310.18
 42
-0.3295619999999999
 10
639.748
 20
1268.79
 42
-0.0723768
 10
630.339
 20
1266.84
 42
0.0626017
 10
622.1589999999999
 20
1265.3
 42
0.4914310000000001
 10
611.468
 20
1235.7
 10
612.6509999999999
 20
1234.12
 42
0.196309
 10
616.3079999999999
 20
1232.02
 42
0.128891
 10
620.0219999999999
 20
1232.77
 42
0.0333399
 10
624.834
 20
1235.64
 42
-0.0779543
 10
628.1669999999999
 20
1237.3
 42
-0.335967
 10
631.993
 20
1236.07
 42
-0.0841388
 10
633.553
 20
1232.99
 42
-0.191981
 10
631.674
 20
1194.58
 42
-0.374961
 10
596.4059999999999
 20
1178.56
 42
-0.0577537
 10
590.298
 20
1181.17
 42
0.0982423
 10
579.6519999999999
 20
1184.73
 42
0.907681
 10
576.0689999999999
 20
1169.0
 42
-0.125878
 10
580.518
 20
1165.98
 42
-0.0222863
 10
585.1399999999999
 20
1159.82
 42
0.117183
 10
587.513
 20
1157.63
 42
-0.19642
 10
626.4
 20
1113.95
 42
0.295283
 10
696.828
 20
1179.38
 42
0.025812
 10
698.674
 20
1200.07
 42
-0.0158472
 10
700.365
 20
1208.99
 42
0.0223416
 10
702.586
 20
1221.59
 42
-0.371724
 10
803.176
 20
1311.48
 42
-0.0579755
 10
816.84
 20
1310.13
 42
-0.0880798
 10
825.2360000000001
 20
1306.68
 10
879.1809999999999
 20
1272.43
 42
-0.131021
 10
977.355
 20
1301.39
 42
0.0286286
 10
989.14
 20
1302.38
 42
0.0288242
 10
1000.66
 20
1304.69
 42
-0.280785
 10
1070.38
 20
1285.03
 42
-0.157402
 10
1146.7
 20
1118.63
 42
-0.00529491
 10
1148.36
 20
1102.09
 42
-0.0172391
 10
1148.64
 20
1096.99
 42
0.146302
 10
1179.06
 20
1002.36
 42
-0.0135588
 10
1186.04
 20
991.576
 42
-0.0347588
 10
1188.35
 20
987.1219999999999
 42
0.096242
 10
1234.23
 20
920.105
 42
-0.022691
 10
1242.24
 20
911.4460000000001
 42
-0.0502961
 10
1245.26
 20
907.047
 42
0.158556
 10
1276.94
 20
877.1799999999998
 42
-0.0175598
 10
1283.2
 20
873.952
 42
0.0301037
 10
1294.05
 20
868.6910000000001
 42
-0.163484
 10
1343.23
 20
825.956
 42
-0.0943505
 10
1344.54
 20
822.5509999999999
 42
-0.201041
 10
1343.65
 20
818.5419999999998
 42
-0.150121
 10
1338.5
 20
815.061
 42
-0.13112
 10
1317.28
 20
814.3019999999999
 10
1224.43
 20
838.986
 42
0.0184134
 10
1207.54
 20
842.8169999999999
 42
0.0761538
 10
1203.33
 20
842.961
 42
-0.240007
 10
1137.39
 20
867.2729999999999
 10
1076.91
 20
497.9619999999999
 42
0.198253
 10
1083.3
 20
464.224
 42
-0.0722632
 10
1085.37
 20
460.338
 42
-0.119702
 10
1085.72
 20
457.818
 42
-0.128468
 10
1085.35
 20
456.953
 42
-0.207113
 10
1084.04
 20
456.348
 42
-0.0772287
 10
1082.6
 20
456.5119999999999
 42
-0.0705468
 10
1078.19
 20
458.5239999999999
 42
-0.145809
 10
1055.16
 20
482.439
 42
-0.11405
 10
1027.89
 20
606.7029999999999
 42
0.0694107
 10
1027.28
 20
613.6739999999999
 42
0.135125
 10
1025.32
 20
617.2709999999999
 42
0.0639741
 10
1022.37
 20
619.3699999999999
 42
-0.142079
 10
1014.94
 20
626.5819999999999
 42
-0.053031
 10
985.031
 20
691.478
 42
0.0904888
 10
980.4010000000001
 20
699.825
 42
-0.0791756
 10
976.1789999999999
 20
707.05
 42
-0.0483142
 10
954.7919999999999
 20
783.067
 42
0.0197196
 10
951.2529999999999
 20
799.111
 42
0.0594395
 10
949.248
 20
804.198
 10
927.687
 20
844.2299999999999
 42
0.202804
 10
922.592
 20
932.59
 42
-0.360272
 10
723.0449999999999
 20
896.1589999999999
 42
0.0318483
 10
720.45
 20
897.432
 42
0.116799
 10
717.715
 20
898.038
 42
0.31931
 10
715.873
 20
896.7080000000001
 42
0.0881665
 10
715.545
 20
894.355
 42
0.0387801
 10
717.2119999999999
 20
883.9489999999999
 42
0.0298104
 10
728.496
 20
841.0019999999999
 42
-0.0101541
 10
729.605
 20
837.442
 42
-0.200143
 10
728.8499999999999
 20
823.8469999999999
 42
0.290332
 10
732.7389999999999
 20
795.1260000000001
 42
0.165562
 10
733.138
 20
794.885
 42
0.156455
 10
733.6269999999999
 20
794.932
 42
0.0666261
 10
734.342
 20
795.4060000000001
 42
-0.0248958
 10
736.103
 20
796.842
 42
-0.179599
 10
738.365
 20
797.5189999999998
 42
-0.147514
 10
740.4329999999999
 20
796.5049999999999
 42
-0.0929535
 10
743.7389999999999
 20
791.765
 42
-0.0150856
 10
758.173
 20
761.077
 42
0.0183975
 10
760.538
 20
756.135
 42
0.00975228
 10
765.5160000000001
 20
747.079
 42
-0.059319
 10
814.3019999999999
 20
625.333
 42
-0.062031
 10
851.365
 20
379.144
 42
-0.0754073
 10
842.008
 20
299.194
 42
-0.0386468
 10
839.788
 20
292.883
 42
-0.0218196
 10
834.5410000000001
 20
282.272
 42
-0.240214
 10
693.648
 20
186.602
 42
0.0859204
 10
685.321
 20
184.391
 42
0.127217
 10
683.3219999999999
 20
182.767
 42
0.229222
 10
682.968
 20
180.894
 42
0.111424
 10
683.723
 20
179.544
 42
0.0637179
 10
685.322
 20
178.138
 42
0.0617664
 10
691.2349999999999
 20
175.246
 42
0.132787
 10
765.9010000000001
 20
168.39
 10
815.1989999999999
 20
206.609
 42
-0.181847
 10
883.478
 20
160.563
 42
0.122832
 10
888.719
 20
156.071
 42
-0.171077
 10
895.303
 20
149.249
 42
0.4087480000000001
 10
932.6260000000001
 20
134.948
 42
-0.238424
 10
981.301
 20
148.328
 42
0.263796
 10
1015.87
 20
133.644
 42
-0.120655
 10
1026.28
 20
132.86
 42
-0.0435804
 10
1029.04
 20
131.521
 42
-0.0589072
 10
1035.32
 20
125.846
 42
0.15099
 10
1044.92
 20
120.156
 42
-0.4262240000000001
 10
1060.44
 20
93.61600000000001
 42
-0.13622
 10
854.7719999999999
 20
46.787
 10
832.7949999999999
 20
48.00229999999999
 42
-0.0253243
 10
829.1920000000001
 20
48.4155
 42
0.0401167
 10
674.0339999999999
 20
61.5825
 10
661.3539999999999
 20
38.8849
 42
-0.143216
 10
656.275
 20
33.6207
 42
-0.119433
 10
646.181
 20
31.5355
 42
-0.0821074
 10
565.619
 20
42.29
 42
0.0221096
 10
394.2530000000001
 20
14.129
 42
-0.0224666
 10
380.832
 20
11.9333
 42
0.016493
  0
LWPOLYLINE
  5
101
330
22
100
AcDbEntity
  8
0
100
AcDbPolyline
 90
      376
 70
     1
 43
0.0
 10
450.0719999999999
 20
34.488
 42
-0.0553524
 10
249.824
 20
13.4437
 42
-0.0683675
 10
117.758
 20
32.76400000000001
 10
100.624
 20
72.7685
 42
0.173678
 10
94.83929999999999
 20
78.96729999999999
 42
0.192282
 10
89.49290000000001
 20
79.8169
 42
0.295335
 10
87.1916
 20
77.27209999999999
 42
0.0992077
 10
87.26649999999999
 20
74.827
 42
0.076428
 10
89.49099999999999
 20
69.59399999999999
 42
-0.1299
 10
100.048
 20
32.5327
 42
-0.061352
 10
63.3286
 20
47.84329999999999
 42
0.0484508
 10
58.9334
 20
49.8101
 42
-0.113477
 10
49.4184
 20
55.6428
 42
-0.4260170000000001
 10
50.6237
 20
234.139
 10
133.885
 20
311.913
 42
-0.215202
 10
271.11
 20
357.935
 10
309.981
 20
387.771
 42
-0.170397
 10
519.3229999999999
 20
446.1339999999999
 42
0.0555944
 10
523.9339999999999
 20
446.194
 42
0.12635
 10
526.52
 20
447.128
 10
527.1369999999999
 20
447.855
 42
0.204445
 10
527.1869999999999
 20
449.694
 42
0.0924866
 10
525.8819999999999
 20
451.8659999999999
 42
0.082864
 10
520.2809999999999
 20
456.3369999999999
 42
0.152832
 10
506.4779999999999
 20
460.0469999999999
 42
0.0227984
 10
389.6219999999999
 20
442.829
 10
425.7969999999999
 20
484.1319999999999
 42
0.0163352
 10
487.0479999999999
 20
482.685
 42
0.0703932
 10
492.508
 20
483.29
 42
0.103297
 10
494.383
 20
484.1819999999999
 42
0.199471
 10
495.059
 20
485.3439999999999
 42
0.15933
 10
494.716
 20
486.671
 42
0.0777762
 10
493.5369999999999
 20
488.0569999999999
 42
0.153353
 10
482.7449999999999
 20
492.2279999999999
 10
435.8789999999999
 20
494.3209999999999
 42
0.027141
 10
504.4559999999999
 20
586.2689999999999
 42
-0.0628455
 10
506.3069999999999
 20
588.4949999999999
 42
-0.257102
 10
510.2749999999999
 20
589.6709999999999
 10
512.422
 20
589.1519999999998
 42
0.140669
 10
514.571
 20
589.186
 42
0.140979
 10
516.8680000000001
 20
590.98
 42
0.0754205
 10
520.4159999999999
 20
598.188
 10
574.443
 20
746.7739999999999
 42
-0.0144488
 10
575.613
 20
749.743
 42
-0.0774963
 10
578.15
 20
754.265
 42
-0.106217
 10
578.939
 20
754.905
 42
-0.262484
 10
579.49
 20
754.8439999999999
 42
-0.165986
 10
579.979
 20
754.158
 42
-0.0594861
 10
580.177
 20
752.765
 42
-0.049589
 10
579.5169999999999
 20
746.2769999999999
 42
0.0974755
 10
582.499
 20
608.315
 42
0.0437162
 10
584.349
 20
603.9119999999999
 42
0.182119
 10
585.8969999999999
 20
602.62
 42
0.362176
 10
586.9369999999999
 20
603.0119999999999
 42
0.0735247
 10
587.74
 20
605.5169999999999
 42
0.0402133
 10
588.579
 20
616.4049999999999
 42
0.0456493
 10
587.7419999999999
 20
630.533
 42
-0.151819
 10
599.591
 20
767.957
 10
608.305
 20
735.6410000000001
 10
608.388
 20
735.72
 42
0.105616
 10
613.283
 20
746.428
 42
0.279183
 10
609.946
 20
757.692
 42
-1.38192
 10
624.0549999999999
 20
765.9329999999999
 42
0.111009
 10
627.2409999999999
 20
758.63
 42
0.131831
 10
628.7659999999999
 20
757.426
 42
0.237256
 10
630.3709999999999
 20
757.5499999999999
 42
0.105167
 10
631.442
 20
758.582
 42
0.0687893
 10
632.981
 20
761.871
 42
-0.6371820000000001
 10
651.079
 20
763.9889999999999
 42
-0.0465555
 10
654.065
 20
757.956
 42
-0.0419257
 10
656.1499999999999
 20
750.781
 42
0.206878
 10
670.9869999999999
 20
729.413
 42
0.074829
 10
672.7339999999998
 20
728.6080000000001
 42
0.142916
 10
673.995
 20
728.596
 42
0.215479
 10
675.113
 20
729.745
 42
0.0821545
 10
675.4910000000001
 20
731.862
 42
0.0829715
 10
674.116
 20
739.621
 42
0.0477368
 10
653.8049999999999
 20
783.117
 42
0.721101
 10
633.7809999999999
 20
779.0239999999998
 42
0.447419
 10
600.6469999999999
 20
774.7939999999999
 10
600.2799999999999
 20
774.391
 42
-0.0915689
 10
598.4249999999999
 20
773.4469999999999
 42
-0.0903429
 10
590.749
 20
772.801
 42
-0.0881314
 10
586.706
 20
773.701
 42
-0.099105
 10
585.8099999999999
 20
774.326
 42
-0.162284
 10
585.509
 20
774.993
 42
-0.0668603
 10
585.5349999999999
 20
775.7660000000001
 42
-0.0500052
 10
586.123
 20
777.834
 42
-0.00576622
 10
589.3480000000001
 20
785.0319999999999
 42
0.0308777
 10
627.854
 20
905.797
 42
0.115238
 10
628.9149999999999
 20
929.0230000000001
 42
0.0495162
 10
628.1219999999999
 20
931.5789999999999
 42
0.109824
 10
627.192
 20
932.9500000000001
 42
0.208906
 10
626.1619999999999
 20
933.305
 42
0.141829
 10
625.067
 20
932.811
 42
0.0730305
 10
623.384
 20
930.8469999999999
 42
0.0573181
 10
619.1889999999999
 20
921.447
 42
-0.045425
 10
457.773
 20
550.1689999999999
 42
-0.167279
 10
269.155
 20
376.344
 42
-0.0304225
 10
253.803
 20
368.181
 42
0.335665
 10
195.829
 20
359.698
 42
0.0322233
 10
191.607
 20
354.566
 42
-0.0582646
 10
191.083
 20
354.026
 42
-0.279038
 10
190.731
 20
353.995
 42
-0.196423
 10
190.409
 20
354.357
 10
190.291
 20
354.788
 42
-0.0233555
 10
189.767
 20
359.491
 42
-0.0271188
 10
184.194
 20
555.089
 42
-0.0279192
 10
184.8829999999999
 20
562.1
 42
0.0770596
 10
185.527
 20
574.45
 10
202.996
 20
462.1999999999999
 42
0.0930424
 10
229.175
 20
387.619
 42
0.0674128
 10
232.315
 20
383.278
 42
0.108702
 10
233.421
 20
382.553
 42
0.2336489999999999
 10
234.247
 20
382.636
 42
0.151006
 10
234.813
 20
383.41
 42
0.0621068
 10
235.142
 20
384.759
 42
0.0716031
 10
234.512
 20
393.579
 10
194.025
 20
611.265
 42
-0.160353
 10
243.761
 20
916.844
 42
0.0786032
 10
245.771
 20
923.92
 42
0.118882
 10
245.527
 20
926.4939999999999
 42
0.141979
 10
244.827
 20
927.4739999999999
 42
0.202245
 10
243.05
 20
927.7929999999999
 42
0.0728301
 10
241.427
 20
927.2109999999999
 42
0.0778866
 10
236.068
 20
922.835
 42
0.119423
 10
204.494
 20
866.7480000000001
 42
0.0452683
 10
180.642
 20
742.327
 42
-0.0533538
 10
179.998
 20
738.51
 42
-0.19383
 10
179.464
 20
737.8680000000001
 42
-0.389803
 10
179.017
 20
737.9819999999999
 42
-0.062217
 10
178.522
 20
739.148
 42
-0.0507883
 10
176.775
 20
750.802
 10
175.225
 20
805.338
 10
175.064
 20
808.087
 42
0.0667653
 10
174.338
 20
811.7039999999999
 10
173.792
 20
812.6989999999999
 42
0.256896
 10
172.389
 20
813.3739999999999
 10
171.551
 20
813.1809999999999
 42
0.0653598
 10
169.656
 20
812.0460000000001
 42
-0.00566599
 10
165.271
 20
808.5510000000001
 42
-0.114368
 10
161.789
 20
806.8389999999999
 42
-0.158439
 10
159.528
 20
807.075
 42
-0.137857
 10
157.413
 20
809.0
 42
-0.0767357
 10
144.146
 20
836.5909999999999
 42
-0.0114804
 10
141.179
 20
847.225
 42
-0.0254498
 10
140.197
 20
852.1110000000001
 42
0.121646
 10
116.045
 20
910.9609999999999
 42
-0.135762
 10
78.6187
 20
972.446
 10
72.79959999999999
 20
992.8449999999999
 42
0.0128756
 10
72.5608
 20
993.604
 42
-0.144583
 10
70.0569
 20
1051.56
 42
-0.0414224
 10
71.2073
 20
1055.25
 42
-0.213162
 10
71.8905
 20
1055.85
 42
-0.390054
 10
72.3872
 20
1055.62
 42
-0.0572429
 10
72.89039999999999
 20
1053.21
 42
-0.0188625
 10
73.6464
 20
1039.29
 42
0.027032
 10
74.4294
 20
1026.76
 10
74.667
 20
1025.85
 10
98.68389999999999
 20
964.132
 42
0.020649
 10
104.415
 20
951.0329999999999
 42
0.0664872
 10
106.882
 20
947.32
 42
-0.0655498
 10
170.244
 20
852.35
 42
0.095618
 10
174.654
 20
845.7269999999999
 42
0.103709
 10
176.026
 20
844.87
 42
0.319525
 10
177.555
 20
845.2519999999999
 42
0.115692
 10
178.169
 20
846.5019999999999
 42
0.0592259
 10
178.419
 20
848.4529999999999
 42
0.0850534
 10
176.627
 20
857.708
 42
0.124596
 10
114.957
 20
951.7669999999998
 10
83.2094
 20
1040.41
 42
-0.0568242
 10
82.76200000000001
 20
1042.51
 42
-0.0916373
 10
83.914
 20
1053.3
 42
-0.088646
 10
85.1406
 20
1055.99
 42
-0.214726
 10
86.1311
 20
1056.53
 42
-0.248147
 10
87.0401
 20
1056.13
 10
87.52299999999999
 20
1055.34
 42
-0.0512426
 10
88.4576
 20
1052.52
 42
0.0984467
 10
104.598
 20
1017.83
 42
0.0671347
 10
107.119
 20
1015.0
 42
0.304338
 10
108.405
 20
1014.93
 42
0.235375
 10
109.282
 20
1016.28
 42
0.0477724
 10
109.248
 20
1019.42
 42
0.0470354
 10
103.639
 20
1043.52
 42
-0.102593
 10
92.331
 20
1108.27
 42
-0.0261398
 10
119.13
 20
1052.24
 42
0.0261248
 10
122.058
 20
1045.89
 42
0.0646627
 10
123.013
 20
1044.45
 42
0.291428
 10
123.419
 20
1044.35
 42
0.281975
 10
123.695
 20
1044.68
 10
123.729
 20
1045.21
 42
0.0377768
 10
122.833
 20
1051.49
 42
0.0130761
 10
109.614
 20
1110.39
 42
-0.109987
 10
109.01
 20
1116.8
 42
-0.102281
 10
109.517
 20
1118.12
 42
-0.334804
 10
111.423
 20
1118.81
 42
-0.107112
 10
113.354
 20
1117.74
 42
-0.103782
 10
117.47
 20
1111.95
 10
140.918
 20
1062.58
 10
141.986
 20
1060.51
 42
0.0987098
 10
144.93
 20
1056.67
 42
0.13646
 10
146.621
 20
1055.84
 42
0.256019
 10
148.648
 20
1056.69
 42
0.108005
 10
149.937
 20
1059.47
 42
0.156147
 10
148.704
 20
1071.1
 42
-0.0169694
 10
130.07
 20
1117.14
 10
129.787
 20
1118.12
 42
-0.283718
 10
130.105
 20
1118.93
 42
-0.262475
 10
131.029
 20
1119.05
 42
-0.0530529
 10
132.737
 20
1118.07
 42
-0.0432925
 10
139.905
 20
1111.7
 42
-0.0593095
 10
146.668
 20
1103.42
 42
-0.0410066
 10
182.211
 20
1023.89
 42
0.0572863
 10
183.891
 20
1020.27
 42
0.134847
 10
186.31
 20
1017.81
 42
0.352626
 10
188.973
 20
1018.22
 42
0.113305
 10
190.035
 20
1020.18
 42
0.0980191
 10
190.291
 20
1026.05
 10
184.205
 20
1074.39
 42
-0.249197
 10
204.269
 20
957.2739999999999
 42
0.629057
 10
249.756
 20
938.3259999999999
 10
306.176
 20
882.6019999999999
 42
0.0821532
 10
308.4
 20
881.0310000000001
 42
0.0142146
 10
322.658
 20
874.6139999999998
 42
-0.185356
 10
406.735
 20
794.5419999999999
 42
0.239774
 10
408.4529999999999
 20
747.625
 42
0.123605
 10
426.423
 20
804.541
 42
-0.0162863
 10
426.7749999999999
 20
809.0119999999998
 42
-0.0515488
 10
427.0319999999999
 20
810.3380000000001
 42
-0.430645
 10
427.303
 20
810.453
 42
-0.171558
 10
427.7709999999999
 20
810.0149999999999
 42
-0.0134763
 10
428.3319999999999
 20
808.8099999999998
 42
0.0945178
 10
431.9549999999999
 20
802.8999999999999
 42
0.55104
 10
443.4599999999999
 20
805.072
 42
0.253383
 10
441.948
 20
811.8389999999999
 10
431.202
 20
825.867
 42
-0.258242
 10
430.691
 20
828.3610000000001
 42
-0.133769
 10
432.3579999999999
 20
830.6499999999999
 42
-0.0938
 10
440.0109999999999
 20
834.642
 42
0.123486
 10
464.963
 20
847.986
 42
0.280246
 10
467.3219999999999
 20
855.963
 42
-0.203559
 10
468.212
 20
862.157
 10
493.019
 20
903.1419999999998
 42
0.0539244
 10
494.9069999999999
 20
907.187
 42
0.0149181
 10
499.647
 20
922.567
 42
-0.084487
 10
558.228
 20
1047.74
 10
529.859
 20
1031.33
 10
458.4969999999999
 20
860.4589999999999
 42
-0.261791
 10
438.084
 20
845.0369999999999
 42
-0.119387
 10
430.4739999999999
 20
970.1269999999999
 42
0.0259975
 10
432.1319999999999
 20
983.3289999999999
 42
0.0570778
 10
431.8819999999999
 20
989.4010000000001
 42
-0.208771
 10
442.236
 20
1028.88
 42
-0.0787639
 10
445.6339999999999
 20
1032.24
 10
447.0019999999999
 20
1032.88
 42
-0.232899
 10
449.2049999999999
 20
1032.48
 42
-0.111214
 10
450.8669999999999
 20
1030.42
 42
-0.0355326
 10
452.195
 20
1027.37
 42
0.0298731
 10
454.665
 20
1021.02
 42
0.117415
 10
456.218
 20
1019.08
 42
0.257863
 10
458.255
 20
1018.85
 10
459.52
 20
1019.6
 42
0.0714504
 10
462.67
 20
1023.22
 42
0.39767
 10
459.054
 20
1046.97
 42
-0.10804
 10
517.9429999999999
 20
1104.32
 10
520.106
 20
1105.58
 42
-0.0730852
 10
523.1409999999999
 20
1106.78
 10
524.104
 20
1106.81
 42
-0.282181
 10
525.153
 20
1105.94
 42
-0.10362
 10
525.339
 20
1104.11
 42
-0.0255192
 10
525.028
 20
1101.65
 42
0.0423261
 10
524.39
 20
1096.19
 42
0.0926847
 10
524.797
 20
1093.86
 42
0.171496
 10
526.1789999999999
 20
1092.25
 42
0.136608
 10
528.9039999999999
 20
1091.7
 42
0.755682
 10
535.9299999999999
 20
1118.8
 42
-0.347753
 10
568.52
 20
1141.31
 42
-0.0522529
 10
569.9469999999999
 20
1141.06
 42
-0.0936114
 10
570.6749999999999
 20
1140.7
 42
-0.259994
 10
571.2559999999999
 20
1139.42
 42
-0.101081
 10
570.723
 20
1137.67
 42
-0.0255608
 10
568.1589999999999
 20
1133.54
 42
0.0862363
 10
566.738
 20
1130.68
 10
566.6669999999998
 20
1129.91
 42
0.274536
 10
567.476
 20
1128.78
 42
0.0780645
 10
568.318
 20
1128.5
 42
0.0425251
 10
569.9339999999999
 20
1128.38
 42
0.0704872
 10
577.128
 20
1129.58
 42
0.246803
 10
583.8799999999999
 20
1136.27
 42
0.0751175
 10
584.719
 20
1143.92
 42
-0.04491
 10
584.838
 20
1145.89
 42
-0.366228
 10
585.4719999999999
 20
1146.38
 42
-0.166639
 10
586.967
 20
1145.8
 42
-0.028521
 10
591.838
 20
1140.69
 42
-0.0850841
 10
643.442
 20
1056.08
 10
692.49
 20
932.704
 42
0.0242255
 10
721.842
 20
818.814
 42
0.44555
 10
678.663
 20
801.2089999999998
 42
-0.0104996
 10
677.482
 20
798.091
 42
-0.0611558
 10
676.0919999999999
 20
795.321
 42
-0.122267
 10
675.273
 20
794.545
 42
-0.185491
 10
674.421
 20
794.468
 42
-0.0829735
 10
673.437
 20
794.952
 42
-0.00785254
 10
670.664
 20
797.0579999999999
 42
0.123996
 10
659.666
 20
801.7539999999998
 42
0.130143
 10
657.4069999999998
 20
801.518
 42
0.25336
 10
656.421
 20
800.4229999999999
 42
0.124752
 10
656.473
 20
799.3079999999999
 42
0.0719553
 10
657.093
 20
797.9479999999999
 42
0.099534
 10
667.9969999999999
 20
785.5539999999999
 42
-0.193223
 10
716.3219999999999
 20
677.678
 42
0.0317174
 10
716.7919999999999
 20
673.6749999999999
 42
0.0946601
 10
718.066
 20
669.9139999999999
 42
0.131148
 10
719.1589999999999
 20
668.78
 42
0.201226
 10
720.3369999999999
 20
668.643
 42
0.135082
 10
721.508
 20
669.421
 42
0.0906914
 10
723.0489999999999
 20
672.1139999999999
 42
0.102097
 10
724.2029999999999
 20
681.944
 42
0.0810705
 10
699.6189999999999
 20
789.968
 42
0.0377906
 10
697.018
 20
795.551
 42
0.0746525
 10
695.7669999999999
 20
797.2269999999999
 42
0.236372
 10
694.8789999999998
 20
797.4639999999999
 42
0.209979
 10
694.0439999999999
 20
796.8719999999999
 42
0.0509045
 10
693.4029999999999
 20
795.3769999999999
 42
-0.00745073
 10
691.7669999999999
 20
789.9429999999999
 42
-0.0971501
 10
689.725
 20
786.0599999999999
 42
-0.180314
 10
688.9249999999999
 20
785.6489999999999
 42
-0.264955
 10
688.341
 20
785.896
 10
688.1010000000001
 20
786.3179999999999
 42
-0.0568098
 10
687.743
 20
787.5869999999999
 42
-0.0765453
 10
687.898
 20
795.568
 42
-0.0882124
 10
689.208
 20
799.876
 10
697.1779999999999
 20
813.654
 42
-0.248797
 10
723.802
 20
792.97
 42
0.00558686
 10
724.651
 20
791.133
 42
0.149684
 10
733.248
 20
780.675
 42
-0.126307
 10
752.126
 20
759.056
 42
-0.117431
 10
833.5039999999999
 20
329.754
 42
-0.290375
 10
755.095
 20
220.39
 42
-0.0779176
 10
622.6509999999999
 20
190.2459999999999
 42
0.0557762
 10
612.7909999999999
 20
188.3779999999999
 42
-0.066091
 10
601.0779999999999
 20
186.408
 42
0.0812471
 10
384.407
 20
143.13
 42
0.722584
 10
386.0759999999999
 20
115.989
 42
0.0471745
 10
428.8859999999999
 20
109.775
 42
-0.0717303
 10
433.494
 20
108.932
 42
-0.127504
 10
434.897
 20
108.049
 42
-0.187658
 10
435.291
 20
106.904
 42
-0.0885101
 10
434.954
 20
105.492
 42
-0.00860585
 10
433.2089999999999
 20
101.849
 42
0.211451
 10
432.551
 20
92.74509999999999
 42
1.44816
 10
444.2
 20
102.849
 42
-0.194323
 10
564.393
 20
169.224
 42
-0.0103936
 10
652.259
 20
177.385
 42
0.281233
 10
799.3389999999999
 20
173.151
 42
-0.5442770000000001
 10
840.112
 20
182.465
 10
895.955
 20
128.401
 42
0.0625804
 10
994.992
 20
118.537
 42
-0.370884
 10
1029.01
 20
92.665
 42
-0.119314
 10
819.7510000000001
 20
60.49479999999999
 42
0.0681787
 10
687.4639999999999
 20
76.07779999999999
 10
643.273
 20
141.626
 42
0.240099
 10
604.283
 20
163.305
 42
0.0399238
 10
598.769
 20
163.107
 42
0.0767998
 10
597.5109999999999
 20
162.759
 42
0.246684
 10
597.1739999999999
 20
162.274
 42
0.207783
 10
597.368
 20
161.612
 42
0.0548502
 10
598.234
 20
160.834
 42
0.011704
 10
605.034
 20
156.592
 42
-0.0815828
 10
635.9149999999999
 20
128.753
 42
0.0218182
 10
642.463
 20
121.256
 42
0.0253156
 10
648.69
 20
115.355
 42
-0.438068
 10
652.883
 20
48.1897
 42
-0.185397
 10
641.884
 20
41.1791
 42
-0.0146332
 10
629.0639999999999
 20
41.7689
 42
-0.022015
 10
620.5919999999999
 20
42.7841
 42
0.106345
  0
LWPOLYLINE
  5
27B
330
22
100
AcDbEntity
  8
0
100
AcDbPolyline
 90
        8
 70
     1
 43
0.0
 10
529.954
 20
105.546
 42
-0.352696
 10
514.7459999999999
 20
64.08509999999999
 10
510.8349999999999
 20
61.6753
 42
-0.0660369
 10
509.9079999999999
 20
61.2166
 42
-0.284463
 10
509.6769999999999
 20
61.2836
 42
-0.236002
 10
509.602
 20
61.556
 10
509.808
 20
62.18569999999999
 42
-0.0184459
 10
511.2219999999999
 20
65.2898
  0
LWPOLYLINE
  5
285
330
22
100
AcDbEntity
  8
0
100
AcDbPolyline
 90
       18
 70
     1
 43
0.0
 10
1050.97
 20
101.562
 10
1050.7
 20
99.8526
 42
-0.0768344
 10
1050.06
 20
98.3589
 42
-0.0905072
 10
1049.13
 20
97.3376
 42
-0.147071
 10
1046.05
 20
96.226
 42
-0.0197585
 10
1044.05
 20
96.12149999999999
 42
-0.0193536
 10
1042.01
 20
96.17449999999999
 42
-0.142771
 10
1038.83
 20
97.2028
 42
-0.0346793
 10
1037.06
 20
98.72660000000001
 42
-0.0366054
 10
1035.61
 20
100.394
 42
-0.312077
 10
1035.72
 20
106.437
 10
1036.85
 20
107.455
 42
-0.0275023
 10
1039.52
 20
109.689
 42
-0.0975117
 10
1040.41
 20
110.117
 42
-0.116892
 10
1043.81
 20
110.296
 42
-0.077271
 10
1049.57
 20
108.385
 42
-0.16671
 10
1050.62
 20
107.29
 42
-0.107032
 10
1051.14
 20
105.015
 42
-0.00535396
  0
LWPOLYLINE
  5
299
330
22
100
AcDbEntity
  8
0
100
AcDbPolyline
 90
       13
 70
     1
 43
0.0
 10
583.999
 20
110.417
 42
-0.16324
 10
586.7399999999999
 20
109.356
 10
587.4259999999999
 20
108.827
 42
-0.153322
 10
588.0959999999999
 20
107.833
 42
-0.21355
 10
587.979
 20
106.961
 42
-0.222874
 10
584.905
 20
104.736
 42
-0.0237307
 10
581.177
 20
104.559
 10
579.951
 20
104.626
 42
-0.238382
 10
579.118
 20
105.47
 42
-0.0991178
 10
578.8089999999999
 20
108.177
 10
578.941
 20
109.368
 42
-0.270442
 10
580.324
 20
110.476
 10
581.598
 20
110.517
 42
0.00444695
  0
LWPOLYLINE
  5
2A8
330
22
100
AcDbEntity
  8
0
100
AcDbPolyline
 90
       16
 70
     1
 43
0.0
 10
384.076
 20
156.149
 10
321.725
 20
124.385
 42
-0.0516554
 10
319.13
 20
123.352
 42
-0.142237
 10
316.29
 20
123.226
 42
-0.295188
 10
314.523
 20
125.101
 42
-0.164041
 10
315.148
 20
128.449
 42
-0.153189
 10
322.267
 20
135.03
 42
-0.0740514
 10
461.48
 20
182.534
 42
-0.0593489
 10
469.408
 20
183.188
 42
-0.0900172
 10
471.24
 20
182.842
 42
-0.246767
 10
471.5989999999999
 20
182.387
 42
-0.251084
 10
471.4269999999999
 20
181.843
 42
-0.0708543
 10
470.3359999999999
 20
181.126
 42
-0.0435187
 10
465.3
 20
179.288
 10
405.134
 20
161.606
 42
-0.0469509
 10
397.959
 20
160.211
 42
0.0935165
  0
LWPOLYLINE
  5
2BA
330
22
100
AcDbEntity
  8
0
100
AcDbPolyline
 90
       18
 70
     1
 43
0.0
 10
755.796
 20
148.883
 42
-0.5255390000000001
 10
791.9069999999999
 20
127.15
 42
0.362187
 10
791.875
 20
127.184
 42
0.0741563
 10
791.672
 20
127.178
 42
0.020516
 10
790.616
 20
126.883
 42
-0.0205639
 10
787.076
 20
125.946
 42
-0.117423
 10
784.107
 20
125.932
 42
-0.261325
 10
782.728
 20
127.212
 42
0.0538503
 10
780.365
 20
132.593
 42
0.183596
 10
773.1849999999999
 20
139.02
 42
0.220618
 10
763.154
 20
137.392
 42
-0.205532
 10
730.3689999999999
 20
133.391
 42
-0.0388486
 10
728.3969999999999
 20
134.099
 42
-0.0873146
 10
727.595
 20
134.616
 42
-0.122395
 10
727.3660000000001
 20
134.962
 42
-0.22148
 10
727.4589999999999
 20
135.498
 42
-0.0735081
 10
727.7999999999999
 20
135.873
 42
-0.0651484
 10
730.0639999999999
 20
137.142
  0
LWPOLYLINE
  5
2CE
330
22
100
AcDbEntity
  8
0
100
AcDbPolyline
 90
        8
 70
     1
 43
0.0
 10
481.266
 20
155.337
 42
-0.0795801
 10
401.0530000000001
 20
130.408
 42
-0.0884428
 10
396.034
 20
130.617
 42
-0.125432
 10
392.439
 20
132.207
 42
-0.120133
 10
391.807
 20
133.06
 42
-0.277543
 10
392.086
 20
134.418
 42
-0.0965075
 10
393.259
 20
135.307
 42
-0.0603976
 10
396.791
 20
136.491
  0
LWPOLYLINE
  5
2D8
330
22
100
AcDbEntity
  8
0
100
AcDbPolyline
 90
       17
 70
     1
 43
0.0
 10
267.635
 20
279.164
 42
0.0820901
 10
153.654
 20
235.988
 42
-0.069852
 10
150.04
 20
234.402
 42
-0.137548
 10
147.598
 20
234.279
 42
-0.149539
 10
146.64
 20
234.843
 42
-0.207145
 10
146.235
 20
236.409
 42
-0.108876
 10
147.098
 20
238.537
 42
-0.129822
 10
152.782
 20
243.129
 42
-0.0164245
 10
266.138
 20
294.5
 42
0.146659
 10
406.47
 20
371.917
 42
-0.0855975
 10
411.583
 20
375.849
 42
-0.143343
 10
414.3609999999999
 20
376.487
 42
-0.319045
 10
416.3479999999999
 20
374.892
 42
-0.126535
 10
416.34
 20
372.294
 42
-0.132111
 10
411.7729999999999
 20
364.9430000000001
 42
-0.119181
 10
285.182
 20
285.513
 42
0.0326807
 10
279.328
 20
283.117
 42
-0.0639654
  0
LWPOLYLINE
  5
2EB
330
22
100
AcDbEntity
  8
0
100
AcDbPolyline
 90
       14
 70
     1
 43
0.0
 10
259.945
 20
384.265
 10
260.979
 20
383.809
 42
-0.181792
 10
261.371
 20
383.196
 42
-0.163758
 10
261.28
 20
382.399
 42
-0.027111
 10
258.731
 20
378.633
 42
-0.307277
 10
255.196
 20
377.268
 10
253.782
 20
377.819
 42
-0.0121891
 10
251.138
 20
378.543
 42
-0.220964
 10
250.696
 20
379.006
 42
-0.14936
 10
250.668
 20
379.927
 42
-0.0699883
 10
251.375
 20
381.8030000000001
 10
251.884
 20
382.961
 42
-0.200384
 10
254.03
 20
384.333
 10
255.575
 20
384.333
 42
-0.0445532
  0
LWPOLYLINE
  5
2FB
330
22
100
AcDbEntity
  8
0
100
AcDbPolyline
 90
       15
 70
     1
 43
0.0
 10
170.08
 20
459.921
 42
0.0214108
 10
169.892
 20
398.103
 42
-0.0278565
 10
169.998
 20
395.57
 42
-0.0690153
 10
169.805
 20
394.099
 42
-0.24849
 10
169.352
 20
393.664
 42
-0.248381
 10
168.737
 20
393.7940000000001
 42
-0.0637578
 10
167.971
 20
394.686
 42
-0.0710767
 10
163.989
 20
404.123
 10
144.335
 20
484.189
 42
-0.045704
 10
131.17
 20
579.0269999999999
 42
-0.0521462
 10
137.422
 20
807.24
 42
-0.23038
 10
162.871
 20
775.36
 42
-0.0209571
 10
164.941
 20
763.914
 42
-0.056636
 10
165.044
 20
759.5989999999999
 42
0.0948168
 10
172.539
 20
684.728
  0
LWPOLYLINE
  5
30C
330
22
100
AcDbEntity
  8
0
100
AcDbPolyline
 90
       17
 70
     1
 43
0.0
 10
588.469
 20
416.7609999999999
 42
0.135557
 10
424.777
 20
407.018
 10
423.004
 20
406.4779999999999
 42
-0.102108
 10
419.2
 20
406.049
 42
-0.143619
 10
417.8259999999999
 20
406.5809999999999
 42
-0.261938
 10
417.3019999999999
 20
408.2519999999999
 42
-0.107767
 10
418.3759999999999
 20
410.553
 42
-0.161061
 10
426.948
 20
416.1579999999999
 10
442.4909999999999
 20
421.463
 42
-0.11482
 10
586.115
 20
428.071
 42
1.05777
 10
612.548
 20
453.2189999999999
 42
0.0778072
 10
607.0429999999999
 20
456.976
 42
0.0406844
 10
595.177
 20
461.473
 42
-0.126201
 10
526.317
 20
502.0019999999999
 42
-0.0763016
 10
616.2219999999999
 20
468.179
 42
-0.646341
 10
611.6030000000001
 20
416.38
 42
-0.0880105
 10
603.398
 20
415.063
 42
-0.0484179
  0
LWPOLYLINE
  5
31F
330
22
100
AcDbEntity
  8
0
100
AcDbPolyline
 90
       20
 70
     1
 43
0.0
 10
248.159
 20
429.639
 42
-0.0386555
 10
244.649
 20
429.508
 10
243.167
 20
429.663
 42
-0.127528
 10
242.094
 20
430.16
 42
-0.124477
 10
241.375
 20
431.133
 42
0.0158852
 10
240.36
 20
433.7919999999999
 42
-0.129868
 10
240.069
 20
435.5369999999999
 42
-0.0590598
 10
240.874
 20
439.289
 42
-0.0504671
 10
243.295
 20
445.17
 42
-0.0818711
 10
244.595
 20
446.868
 42
-0.0746145
 10
246.523
 20
448.203
 10
247.867
 20
448.859
 42
-0.0992266
 10
251.34
 20
449.8299999999999
 10
252.088
 20
449.79
 42
-0.219974
 10
252.918
 20
449.162
 42
-0.0945327
 10
253.611
 20
446.938
 42
-0.0266604
 10
253.692
 20
436.924
 42
-0.0229853
 10
253.471
 20
434.168
 42
-0.0561444
 10
253.203
 20
433.0659999999999
 42
-0.245132
 10
249.927
 20
429.9129999999999
  0
LWPOLYLINE
  5
335
330
22
100
AcDbEntity
  8
0
100
AcDbPolyline
 90
       20
 70
     1
 43
0.0
 10
224.219
 20
475.198
 42
-0.122579
 10
223.831
 20
475.7769999999999
 42
-0.147155
 10
223.737
 20
476.466
 42
-0.073704
 10
224.146
 20
477.7709999999999
 42
-0.0470441
 10
227.102
 20
482.77
 42
0.0303971
 10
235.018
 20
493.798
 42
-0.166532
 10
237.675
 20
495.866
 10
238.633
 20
496.0749999999999
 42
-0.288021
 10
240.985
 20
494.604
 42
-0.0695786
 10
241.238
 20
493.825
 42
-0.0331532
 10
241.423
 20
492.124
 10
241.442
 20
486.383
 42
-0.0425663
 10
241.284
 20
481.158
 42
-0.0749581
 10
240.971
 20
480.255
 42
-0.0548124
 10
240.242
 20
479.173
 42
0.00699186
 10
236.798
 20
475.1109999999999
 42
-0.0394708
 10
235.487
 20
473.733
 42
-0.0757742
 10
234.655
 20
473.1869999999999
 42
-0.201862
 10
227.879
 20
473.261
 42
-0.0144283
 10
225.35
 20
474.401
 42
-0.0611394
  0
LWPOLYLINE
  5
34B
330
22
100
AcDbEntity
  8
0
100
AcDbPolyline
 90
       13
 70
     1
 43
0.0
 10
504.6269999999999
 20
552.863
 42
0.3381159999999999
 10
528.0169999999999
 20
480.949
 42
-0.202499
 10
528.378
 20
480.383
 42
-0.371799
 10
528.1709999999999
 20
480.041
 42
-0.0641509
 10
527.123
 20
479.898
 42
-0.0646836
 10
516.645
 20
481.491
 42
-0.0701424
 10
514.802
 20
482.2519999999999
 42
-0.4763250000000001
 10
505.83
 20
565.5969999999999
 42
-0.0506233
 10
507.5849999999999
 20
567.112
 42
-0.200316
 10
508.5619999999999
 20
567.2899999999999
 42
-0.316318
 10
509.0119999999999
 20
566.7989999999999
 10
509.022
 20
566.1799999999999
 42
-0.0405661
 10
508.7279999999999
 20
564.475
 42
-0.0213616
  0
LWPOLYLINE
  5
35A
330
22
100
AcDbEntity
  8
0
100
AcDbPolyline
 90
      196
 70
     1
 43
0.0
 10
1135.25
 20
963.142
 42
-0.0247863
 10
1065.0
 20
507.8119999999999
 42
-0.0936039
 10
1064.07
 20
505.1919999999999
 42
-0.234821
 10
1062.89
 20
504.516
 42
-0.186582
 10
1061.29
 20
505.029
 42
-0.061257
 10
1059.63
 20
506.848
 42
-0.07525
 10
1051.82
 20
524.2180000000001
 42
-0.17605
 10
1090.93
 20
811.4860000000001
 42
0.272015
 10
1096.94
 20
836.9559999999999
 10
1096.28
 20
838.813
 42
0.0810714
 10
1094.98
 20
841.1380000000001
 10
1094.33
 20
841.6869999999999
 42
0.247967
 10
1093.07
 20
841.7589999999998
 42
0.121425
 10
1091.87
 20
840.7329999999999
 42
0.0485538
 10
1090.76
 20
838.935
 42
0.0404732
 10
1087.61
 20
829.944
 10
1087.52
 20
829.663
 10
1064.52
 20
778.1569999999999
 42
-0.133667
 10
1059.19
 20
771.64
 42
0.192809
 10
1052.75
 20
761.61
 10
1027.92
 20
632.128
 42
0.0772829
 10
1000.84
 20
677.643
 42
-0.0814021
 10
1042.88
 20
795.9960000000001
 42
0.0258145
 10
1045.73
 20
801.871
 42
-0.0502504
 10
1051.82
 20
813.002
 42
0.126323
 10
1082.54
 20
897.151
 42
0.0419016
 10
1082.74
 20
903.5809999999999
 42
0.082947
 10
1082.18
 20
906.4289999999999
 42
0.130431
 10
1081.51
 20
907.3889999999998
 42
0.216654
 10
1080.65
 20
907.6019999999999
 42
0.126909
 10
1079.61
 20
907.0669999999999
 42
0.0582477
 10
1078.41
 20
905.7860000000001
 42
0.0551566
 10
1074.91
 20
899.332
 10
990.7630000000001
 20
704.1119999999999
 10
982.923
 20
727.1039999999999
 42
-0.0588824
 10
981.6399999999999
 20
733.096
 42
-0.0527402
 10
981.722
 20
739.9329999999999
 42
-0.104219
 10
1013.3
 20
833.6349999999999
 42
0.0366189
 10
1018.87
 20
844.8760000000001
 42
-0.0224747
 10
1022.09
 20
851.8739999999999
 42
0.0786062
 10
1054.15
 20
948.835
 42
0.0202321
 10
1054.83
 20
953.903
 42
0.0710772
 10
1054.84
 20
956.445
 42
0.253916
 10
1054.5
 20
956.8489999999998
 42
0.297247
 10
1054.05
 20
956.761
 42
0.0552994
 10
1053.42
 20
955.93
 42
0.0353628
 10
1050.35
 20
949.427
 10
974.8549999999999
 20
766.5729999999999
 42
-0.8052329999999999
 10
968.241
 20
767.753
 10
965.843
 20
830.2430000000001
 42
0.0704631
 10
1030.22
 20
990.552
 42
0.0892557
 10
1030.74
 20
996.1299999999999
 42
0.142021
 10
1029.88
 20
998.534
 42
0.292207
 10
1027.64
 20
999.403
 42
0.12561
 10
1025.55
 20
998.3259999999999
 42
0.135307
 10
1021.68
 20
991.807
 10
984.6709999999999
 20
877.2630000000001
 42
0.0921099
 10
956.924
 20
826.548
 10
956.3689999999999
 20
824.952
 42
-0.0779714
 10
954.273
 20
820.8149999999999
 42
-0.111059
 10
953.284
 20
819.9819999999998
 42
-0.180917
 10
952.322
 20
819.8860000000001
 42
-0.125568
 10
951.378
 20
820.4639999999999
 42
-0.0597801
 10
950.441
 20
821.6489999999998
 42
-0.0507666
 10
947.09
 20
829.6499999999999
 42
-0.190526
 10
952.3389999999999
 20
914.1160000000001
 10
993.312
 20
1008.18
 42
0.196787
 10
992.689
 20
1054.63
 10
992.5599999999999
 20
1054.99
 42
0.0366661
 10
992.0569999999999
 20
1056.29
 42
0.0970038
 10
991.8839999999999
 20
1056.52
 42
0.265789
 10
991.6999999999999
 20
1056.56
 42
0.0927073
 10
991.6139999999998
 20
1056.51
 42
0.0516526
 10
991.4889999999999
 20
1056.39
 42
0.0449699
 10
991.2339999999998
 20
1056.0
 42
0.0235312
 10
990.028
 20
1053.27
 10
984.2739999999999
 20
1039.28
 42
0.0245759
 10
982.2449999999999
 20
1033.57
 42
0.04478
 10
981.5750000000001
 20
1030.3
 42
-0.104851
 10
944.006
 20
917.6489999999999
 42
-0.0806496
 10
941.7419999999999
 20
914.704
 10
940.7619999999999
 20
914.103
 42
-0.280846
 10
939.0969999999999
 20
914.3919999999999
 10
938.41
 20
915.1839999999999
 42
-0.0732961
 10
937.3179999999999
 20
917.8139999999999
 42
-0.07391
 10
936.311
 20
932.7910000000001
 42
-0.0828424
 10
938.067
 20
942.032
 42
0.161324
 10
955.55
 20
1131.91
 42
0.292042
 10
936.3660000000001
 20
1150.48
 10
934.9899999999999
 20
1150.76
 42
0.125123
 10
932.057
 20
1150.69
 42
0.283528
 10
930.432
 20
1148.91
 42
0.114436
 10
930.635
 20
1145.97
 42
0.0424432
 10
933.0960000000001
 20
1139.84
 42
-0.0549958
 10
949.3539999999999
 20
1090.34
 42
-0.0235304
 10
952.214
 20
1072.67
 42
-0.0748008
 10
952.0099999999999
 20
1067.01
 10
936.475
 20
990.5129999999999
 42
-0.4395590000000001
 10
779.4999999999999
 20
892.999
 42
0.0125687
 10
771.3489999999999
 20
894.9939999999999
 42
0.00762233
 10
757.7860000000001
 20
897.738
 42
-0.268259
 10
706.289
 20
937.8610000000001
 10
640.004
 20
1103.31
 42
0.262579
 10
707.7029999999999
 20
1183.81
 42
-0.278965
 10
772.433
 20
1296.77
 42
-0.0607106
 10
784.251
 20
1301.56
 42
-0.0966713
 10
792.2839999999999
 20
1302.13
 42
-0.189894
 10
850.2489999999999
 20
1270.68
 42
-1.753779999999999
 10
842.6950000000001
 20
1251.4
 42
0.0894609
 10
838.2360000000002
 20
1255.72
 42
0.131552
 10
836.5069999999999
 20
1256.31
 42
0.295911
 10
834.9169999999999
 20
1255.38
 42
0.10015
 10
834.375
 20
1253.35
 42
0.0622506
 10
834.6860000000001
 20
1248.8
 42
-0.0391623
 10
836.0750000000001
 20
1237.77
 42
-0.137171
 10
834.5410000000001
 20
1230.61
 42
-0.187273
 10
826.758
 20
1225.17
 42
-0.120063
 10
824.707
 20
1224.94
 42
-0.191575
 10
823.4479999999999
 20
1225.69
 42
-0.116977
 10
822.8239999999999
 20
1227.23
 42
-0.0508888
 10
822.676
 20
1229.35
 42
-0.0208678
 10
823.52
 20
1237.21
 42
0.0683028
 10
823.5789999999999
 20
1241.72
 42
0.125172
 10
822.9839999999999
 20
1243.17
 42
0.111053
 10
822.4110000000001
 20
1243.57
 42
0.059835
 10
820.587
 20
1244.06
 42
-0.0428745
 10
818.2069999999999
 20
1244.57
 42
-0.0916311
 10
817.59
 20
1244.9
 42
-0.321318
 10
817.3789999999998
 20
1245.7
 42
-0.0985846
 10
817.881
 20
1246.51
 42
-0.042226
 10
819.03
 20
1247.59
 10
831.765
 20
1258.05
 42
0.206121
 10
832.5739999999999
 20
1259.66
 42
0.231806
 10
830.926
 20
1263.29
 42
0.373341
 10
826.8839999999999
 20
1263.4
 42
0.122479
 10
799.7460000000001
 20
1230.48
 42
0.104306
 10
798.571
 20
1223.57
 42
0.103712
 10
798.97
 20
1221.72
 42
0.178314
 10
799.565
 20
1221.09
 42
0.207062
 10
800.4659999999999
 20
1221.13
 10
801.0439999999999
 20
1221.46
 42
0.0673828
 10
803.3380000000001
 20
1223.9
 10
815.3439999999999
 20
1239.93
 42
-0.140612
 10
807.707
 20
1202.7
 10
807.135
 20
1201.91
 42
-0.201939
 10
805.653
 20
1201.35
 42
-0.0943635
 10
803.7919999999999
 20
1201.8
 42
-0.0243015
 10
800.4789999999999
 20
1203.53
 42
0.0637589
 10
795.536
 20
1205.77
 42
0.30126
 10
789.4789999999999
 20
1204.08
 42
0.0973149
 10
786.423
 20
1198.34
 10
781.143
 20
1182.58
 42
-0.141232
 10
780.4199999999999
 20
1181.43
 42
-0.219768
 10
778.7639999999998
 20
1181.09
 42
-0.0829485
 10
776.707
 20
1181.98
 42
-0.0684727
 10
771.698
 20
1186.47
 42
-0.0479308
 10
770.9119999999999
 20
1187.49
 10
770.8769999999999
 20
1187.6
 42
0.245713
 10
766.7360000000001
 20
1161.26
 42
-0.0275764
 10
768.7039999999999
 20
1154.17
 42
-0.0368909
 10
769.4819999999999
 20
1148.73
 42
-1.443999999999999
 10
754.429
 20
1153.24
 42
0.0756937
 10
756.4580000000001
 20
1156.86
 42
0.168773
 10
756.816
 20
1161.93
 42
0.222216
 10
754.922
 20
1164.18
 42
0.214906
 10
751.6089999999999
 20
1163.93
 42
0.110645
 10
747.3569999999999
 20
1160.34
 42
0.182893
 10
736.8389999999999
 20
1129.35
 42
0.0349233
 10
737.2209999999999
 20
1124.09
 42
0.2590590000000001
 10
737.658
 20
1123.55
 42
0.4051010000000001
 10
738.107
 20
1123.73
 10
738.4039999999999
 20
1124.51
 10
740.4049999999999
 20
1131.24
 42
-0.0706103
 10
743.378
 20
1138.29
 42
-0.103539
 10
744.873
 20
1139.86
 42
-0.147308
 10
746.32
 20
1140.31
 42
-0.208683
 10
748.126
 20
1139.32
 42
-0.0895234
 10
749.4229999999999
 20
1136.78
 42
-0.187232
 10
748.0019999999999
 20
1121.21
 42
-0.266714
 10
671.9960000000001
 20
1077.71
 42
0.093747
 10
663.461
 20
1075.85
 42
0.0960069
 10
660.069
 20
1073.73
 42
0.139552
 10
659.403
 20
1072.59
 42
0.221665
 10
659.6789999999999
 20
1071.47
 42
0.119603
 10
661.09
 20
1070.43
 42
0.0621854
 10
665.7519999999999
 20
1069.18
 42
0.134866
 10
698.284
 20
1072.77
 42
-0.0342347
 10
711.0529999999999
 20
1076.4
 42
0.174021
 10
727.9139999999999
 20
1086.17
 42
0.0144615
 10
806.77
 20
1186.38
 42
-0.0324944
 10
811.6319999999999
 20
1192.12
 42
0.0463077
 10
818.3239999999999
 20
1200.48
 42
-0.211131
 10
947.201
 20
1283.45
 42
-0.0329405
 10
954.4969999999999
 20
1284.11
 42
0.0727338
 10
970.373
 20
1286.83
 42
-0.402063
 10
1101.39
 20
1224.7
 42
-0.11586
  0
LWPOLYLINE
  5
420
330
22
100
AcDbEntity
  8
0
100
AcDbPolyline
 90
       16
 70
     1
 43
0.0
 10
231.658
 20
561.5359999999999
 42
-0.240655
 10
219.105
 20
538.0729999999999
 42
-0.051647
 10
216.209
 20
536.409
 42
-0.114484
 10
214.222
 20
535.975
 42
-0.22714
 10
213.062
 20
536.5639999999999
 42
-0.150778
 10
212.65
 20
537.9730000000001
 42
-0.0686384
 10
212.903
 20
539.995
 42
-0.158291
 10
221.319
 20
552.139
 10
221.892
 20
552.6359999999999
 42
0.219629
 10
222.751
 20
555.9059999999999
 42
0.0535604
 10
221.684
 20
559.7419999999999
 42
-0.0504105
 10
220.618
 20
563.13
 42
-0.0932992
 10
220.624
 20
564.1319999999999
 42
-0.179688
 10
221.063
 20
564.8340000000001
 42
-0.0652137
 10
221.861
 20
565.2669999999999
 42
-0.178119
 10
229.208
 20
565.2219999999999
 42
-0.327511
  0
LWPOLYLINE
  5
432
330
22
100
AcDbEntity
  8
0
100
AcDbPolyline
 90
       21
 70
     1
 43
0.0
 10
649.807
 20
632.08
 10
666.1119999999999
 20
561.3819999999999
 10
666.082
 20
561.3089999999999
 10
665.8039999999999
 20
560.978
 42
-0.0734566
 10
662.393
 20
558.3089999999999
 42
-0.113071
 10
660.6499999999999
 20
557.7519999999999
 42
-0.300086
 10
659.4019999999999
 20
558.4529999999999
 42
0.00597278
 10
656.3089999999999
 20
563.585
 42
-0.0798193
 10
653.3919999999999
 20
569.998
 42
-0.0435362
 10
640.1019999999999
 20
679.8049999999999
 42
0.0394405
 10
638.714
 20
692.1149999999999
 42
0.051545
 10
635.9630000000001
 20
701.198
 42
-0.100262
 10
628.2040000000001
 20
740.0239999999999
 42
-0.0803068
 10
628.763
 20
744.692
 42
-0.117864
 10
629.3809999999999
 20
745.732
 42
-0.206744
 10
630.1649999999999
 20
746.036
 42
-0.136079
 10
631.069
 20
745.6979999999999
 42
-0.0637325
 10
632.05
 20
744.812
 42
-0.0881156
 10
635.8290000000001
 20
737.6929999999999
 42
-0.081322
 10
650.4169999999999
 20
655.5139999999998
 42
-0.0550543
 10
649.6509999999999
 20
647.616
 42
0.108742
  0
LWPOLYLINE
  5
449
330
22
100
AcDbEntity
  8
0
100
AcDbPolyline
 90
       14
 70
     1
 43
0.0
 10
227.419
 20
649.7029999999999
 42
-0.308469
 10
211.984
 20
622.196
 42
-0.0952819
 10
208.664
 20
621.225
 42
-0.285005
 10
203.174
 20
623.5479999999999
 42
-0.28701
 10
203.308
 20
628.6030000000001
 42
-0.116589
 10
207.144
 20
632.4239999999999
 42
0.0549559
 10
209.423
 20
634.2819999999999
 42
0.215519
 10
211.329
 20
638.813
 42
0.0894076
 10
210.089
 20
643.163
 42
-0.0598709
 10
208.535
 20
647.303
 42
-0.193518
 10
208.994
 20
650.4269999999999
 42
-0.124796
 10
211.195
 20
652.2029999999999
 42
-0.133095
 10
221.098
 20
653.474
 42
-0.136661
 10
226.226
 20
651.708
 42
-0.2188
  0
LWPOLYLINE
  5
459
330
22
100
AcDbEntity
  8
0
100
AcDbPolyline
 90
       16
 70
     1
 43
0.0
 10
755.442
 20
718.506
 42
-0.196063
 10
765.495
 20
692.72
 42
-0.0639982
 10
765.192
 20
690.082
 42
-0.192309
 10
764.3939999999998
 20
689.0599999999999
 42
-0.25758
 10
763.4
 20
689.0369999999998
 10
762.7799999999999
 20
689.461
 42
-0.0496401
 10
761.427
 20
690.896
 42
-0.0480967
 10
756.848
 20
698.5549999999999
 42
-0.037547
 10
755.5769999999999
 20
701.57
 42
0.0873312
 10
730.3339999999999
 20
756.686
 10
729.429
 20
758.1569999999999
 42
-0.166324
 10
728.3369999999999
 20
762.966
 42
-0.372138
 10
732.9739999999999
 20
766.548
 42
-0.285253
 10
740.6019999999999
 20
761.3969999999999
 42
-0.0818105
 10
750.4269999999999
 20
730.9099999999999
 42
0.00721211
 10
750.8949999999999
 20
727.971
 42
0.165093
  0
LWPOLYLINE
  5
46B
330
22
100
AcDbEntity
  8
0
100
AcDbPolyline
 90
       16
 70
     1
 43
0.0
 10
216.01
 20
736.275
 42
-0.698171
 10
218.099
 20
706.5389999999999
 42
-0.0920272
 10
212.718
 20
704.938
 42
-0.120329
 10
210.512
 20
705.227
 42
-0.239411
 10
208.942
 20
707.1360000000001
 42
-0.0903579
 10
208.858
 20
709.067
 42
-0.128388
 10
211.758
 20
715.564
 42
-0.127583
 10
214.978
 20
718.251
 42
0.142608
 10
215.47
 20
718.6289999999999
 42
0.122865
 10
215.74
 20
719.293
 42
0.0979477
 10
215.517
 20
721.1849999999999
 42
0.0356984
 10
213.371
 20
726.4969999999999
 42
-0.057803
 10
210.751
 20
733.371
 42
-0.112722
 10
210.731
 20
735.373
 42
-0.242411
 10
211.772
 20
736.565
 10
212.788
 20
736.7769999999999
 42
-0.0818273
  0
LWPOLYLINE
  5
47D
330
22
100
AcDbEntity
  8
0
100
AcDbPolyline
 90
       19
 70
     1
 43
0.0
 10
242.339
 20
827.7489999999998
 42
-0.29007
 10
235.353
 20
800.2449999999999
 42
-0.14051
 10
232.924
 20
799.178
 42
-0.154202
 10
224.093
 20
800.562
 42
-0.126256
 10
222.8
 20
801.684
 42
-0.158744
 10
222.555
 20
802.5339999999999
 42
-0.117334
 10
222.871
 20
803.5249999999999
 42
-0.0956389
 10
224.784
 20
805.493
 42
-0.0047156
 10
231.73
 20
810.008
 42
0.0966708
 10
234.587
 20
812.6789999999999
 42
0.245096
 10
234.755
 20
815.0199999999999
 42
0.0768708
 10
233.162
 20
817.6449999999999
 42
-0.0284767
 10
229.273
 20
822.5989999999999
 42
-0.123708
 10
228.212
 20
825.4469999999999
 42
-0.294009
 10
229.284
 20
827.688
 42
-0.0887377
 10
231.504
 20
828.561
 42
-0.0732559
 10
238.376
 20
828.7519999999998
 42
-0.0629621
 10
241.883
 20
828.057
 42
-0.0535549
 10
242.255
 20
827.8589999999999
 42
-0.166456
  0
LWPOLYLINE
  5
492
330
22
100
AcDbEntity
  8
0
100
AcDbPolyline
 90
       19
 70
     1
 43
0.0
 10
1254.23
 20
869.1599999999999
 42
-0.108395
 10
1324.31
 20
821.2710000000001
 10
1247.08
 20
847.161
 42
-0.20263
 10
1180.71
 20
905.0959999999999
 42
0.252319
 10
1161.65
 20
934.3439999999999
 42
-0.224721
 10
1164.33
 20
964.587
 42
0.0593125
 10
1164.71
 20
965.54
 42
0.118337
 10
1164.86
 20
972.0549999999999
 42
0.129964
 10
1164.11
 20
973.5789999999999
 42
0.170768
 10
1163.33
 20
974.0089999999998
 42
0.154036
 10
1162.31
 20
973.8089999999999
 42
0.0789906
 10
1161.02
 20
972.84
 42
0.0153123
 10
1155.93
 20
967.462
 42
-0.0589527
 10
1154.67
 20
966.2599999999999
 42
-0.264186
 10
1154.23
 20
966.2269999999999
 42
-0.237615
 10
1153.94
 20
966.6060000000001
 10
1153.86
 20
967.7360000000001
 42
-0.0154724
 10
1154.08
 20
973.78
 42
0.0554039
 10
1150.32
 20
1026.78
 42
0.089087
  0
LWPOLYLINE
  5
4A7
330
22
100
AcDbEntity
  8
0
100
AcDbPolyline
 90
        6
 70
     1
 43
0.0
 10
414.915
 20
897.581
 42
-0.0669258
 10
422.229
 20
832.6519999999998
 42
-0.147429
 10
390.591
 20
855.065
 42
-0.0595651
 10
388.319
 20
858.582
 42
-0.21787
 10
388.091
 20
863.0969999999999
 42
-0.0630379
 10
390.908
 20
867.664
 42
-0.0176211
  0
LWPOLYLINE
  5
4AF
330
22
100
AcDbEntity
  8
0
100
AcDbPolyline
 90
       16
 70
     1
 43
0.0
 10
1149.77
 20
937.911
 42
0.113218
 10
1189.61
 20
857.2799999999999
 42
-0.0792202
 10
1190.37
 20
856.085
 10
1190.45
 20
855.6619999999998
 42
-0.295245
 10
1190.11
 20
855.126
 42
-0.0744161
 10
1189.77
 20
855.0119999999999
 42
-0.0433602
 10
1189.18
 20
854.953
 42
-0.0417108
 10
1187.79
 20
855.0779999999999
 42
-0.0412071
 10
1177.38
 20
858.331
 42
-0.136532
 10
1140.16
 20
885.9769999999999
 42
0.0235912
 10
1145.43
 20
935.7519999999999
 42
-0.0393984
 10
1146.33
 20
944.5349999999999
 42
-0.0720003
 10
1146.67
 20
945.4869999999999
 42
-0.32986
 10
1147.04
 20
945.6339999999999
 42
-0.19692
 10
1147.53
 20
945.265
 42
-0.0458437
 10
1148.36
 20
943.2109999999999
 42
-0.0299212
  0
LWPOLYLINE
  5
4C1
330
22
100
AcDbEntity
  8
0
100
AcDbPolyline
 90
       26
 70
     1
 43
0.0
 10
245.393
 20
886.9019999999999
 42
0.0176644
 10
248.783
 20
889.0629999999999
 42
-0.0255509
 10
253.296
 20
891.821
 42
0.0406912
 10
254.016
 20
892.347
 42
0.038054
 10
254.688
 20
893.0239999999999
 42
0.0250578
 10
256.498
 20
895.4680000000001
 42
-0.210501
 10
258.278
 20
896.522
 42
-0.149018
 10
261.094
 20
896.0210000000001
 42
-0.111342
 10
264.711
 20
893.054
 42
-0.0545255
 10
265.625
 20
891.6119999999999
 42
-0.0641114
 10
266.093
 20
890.235
 42
-0.143017
 10
265.352
 20
881.0310000000001
 42
-0.0154985
 10
263.949
 20
878.1739999999999
 42
-0.158841
 10
260.734
 20
874.951
 42
-0.0151145
 10
257.87
 20
873.5280000000001
 42
-0.0399871
 10
256.149
 20
872.902
 42
-0.0445091
 10
254.529
 20
872.6080000000001
 10
250.615
 20
872.465
 42
-0.0591333
 10
245.464
 20
872.705
 42
-0.164022
 10
244.29
 20
873.388
 42
-0.0842616
 10
242.932
 20
875.6
 42
-0.0707974
 10
242.192
 20
878.6089999999999
 42
-0.102383
 10
242.417
 20
880.751
 42
0.0141099
 10
243.596
 20
884.838
 10
243.84
 20
885.6889999999999
 42
-0.120547
 10
244.157
 20
886.091
 42
-0.0412115
  0
LWPOLYLINE
  5
4DD
330
22
100
AcDbEntity
  8
0
100
AcDbPolyline
 90
       24
 70
     1
 43
0.0
 10
863.4780000000001
 20
957.8549999999999
 42
-0.149432
 10
828.906
 20
931.442
 42
-0.0486756
 10
826.0429999999999
 20
930.695
 42
-0.164303
 10
809.276
 20
934.59
 10
794.822
 20
942.966
 42
-0.875136
 10
795.919
 20
945.6189999999999
 10
828.0330000000001
 20
937.1019999999999
 42
0.359626
 10
828.1649999999999
 20
937.1629999999999
 42
0.0589183
 10
828.4220000000001
 20
937.908
 42
0.00984479
 10
829.058
 20
942.1649999999999
 42
-0.065971
 10
830.823
 20
949.554
 42
-0.124983
 10
832.2130000000001
 20
951.557
 42
-0.216057
 10
833.983
 20
952.0369999999999
 42
-0.109666
 10
836.2199999999999
 20
951.0559999999999
 10
839.7019999999999
 20
948.5269999999999
 42
0.107318
 10
842.082
 20
947.527
 42
0.248412
 10
845.0969999999999
 20
948.7250000000001
 10
861.7789999999999
 20
965.911
 42
-0.0371138
 10
863.803
 20
967.7519999999999
 42
-0.0830442
 10
865.2489999999998
 20
968.5779999999999
 10
865.775
 20
968.659
 42
-0.258233
 10
866.472
 20
968.261
 10
866.6579999999999
 20
967.8209999999999
 42
-0.077879
 10
866.7439999999999
 20
966.561
 42
-0.116097
  0
LWPOLYLINE
  5
4F7
330
22
100
AcDbEntity
  8
0
100
AcDbPolyline
 90
        9
 70
     1
 43
0.0
 10
1094.41
 20
1005.7
 42
-0.154323
 10
1094.11
 20
955.194
 10
1094.08
 20
954.996
 42
-0.0262361
 10
1092.92
 20
946.2339999999999
 42
-0.064395
 10
1092.12
 20
943.603
 42
-0.223913
 10
1091.37
 20
943.0139999999999
 42
-0.296122
 10
1090.67
 20
943.2680000000001
 10
1090.24
 20
944.015
 42
-0.0413372
 10
1089.28
 20
946.78
 42
-0.179582
  0
LWPOLYLINE
  5
502
330
22
100
AcDbEntity
  8
0
100
AcDbPolyline
 90
       16
 70
     1
 43
0.0
 10
815.427
 20
963.734
 42
-0.230242
 10
779.5589999999999
 20
954.1169999999999
 10
776.836
 20
954.63
 42
-0.0840518
 10
756.2689999999999
 20
960.8069999999999
 42
-0.217012
 10
737.706
 20
983.7519999999999
 10
737.59
 20
984.5869999999999
 42
-0.23719
 10
738.0549999999999
 20
985.651
 42
-0.155746
 10
739.286
 20
986.021
 42
-0.0612186
 10
741.088
 20
985.828
 42
-0.0765155
 10
753.0249999999999
 20
980.37
 10
753.317
 20
980.1249999999999
 42
0.318285
 10
809.946
 20
969.2960000000001
 42
-0.125232
 10
816.4699999999999
 20
970.7549999999999
 42
-0.130825
 10
818.229
 20
970.2289999999999
 42
-0.314082
 10
818.9769999999999
 20
968.491
 42
-0.0900115
 10
818.4939999999999
 20
967.187
 42
-0.0834378
  0
LWPOLYLINE
  5
514
330
22
100
AcDbEntity
  8
0
100
AcDbPolyline
 90
        8
 70
     1
 43
0.0
 10
874.0949999999999
 20
1037.01
 10
839.572
 20
989.3069999999999
 10
838.2610000000001
 20
987.7310000000001
 42
-0.139707
 10
835.9149999999999
 20
986.2239999999999
 42
-0.270433
 10
833.046
 20
987.291
 42
-0.0843566
 10
830.891
 20
991.094
 42
-0.0572271
 10
827.888
 20
1005.33
 10
827.87
 20
1005.54
  0
LWPOLYLINE
  5
51E
330
22
100
AcDbEntity
  8
0
100
AcDbPolyline
 90
       21
 70
     1
 43
0.0
 10
1061.48
 20
1002.57
 42
-0.0549488
 10
1061.39
 20
1007.23
 10
1061.48
 20
1008.43
 10
1062.49
 20
1011.14
 42
-0.0130021
 10
1068.92
 20
1026.83
 10
1069.28
 20
1027.74
 42
-0.294278
 10
1070.02
 20
1028.21
 42
-0.285697
 10
1070.77
 20
1027.72
 42
-0.0919814
 10
1071.24
 20
1025.44
 42
-0.0119798
 10
1071.3
 20
1021.57
 42
-0.058167
 10
1070.46
 20
1007.37
 42
0.0113345
 10
1069.72
 20
1003.89
 42
0.0243371
 10
1069.49
 20
1002.24
 10
1069.33
 20
1000.54
 42
-0.0179578
 10
1069.16
 20
997.2989999999999
 10
1068.88
 20
996.263
 42
-0.248419
 10
1067.54
 20
995.2110000000001
 42
-0.187161
 10
1065.64
 20
995.663
 42
-0.0778509
 10
1064.6
 20
996.635
 42
-0.0420239
 10
1063.17
 20
998.83
 42
-0.0121301
 10
1061.86
 20
1001.37
  0
LWPOLYLINE
  5
535
330
22
100
AcDbEntity
  8
0
100
AcDbPolyline
 90
       15
 70
     1
 43
0.0
 10
809.288
 20
1020.7
 42
-0.0306607
 10
806.2469999999999
 20
1017.59
 42
-0.0290541
 10
803.8660000000001
 20
1015.74
 42
-0.0569945
 10
802.505
 20
1015.01
 10
800.928
 20
1014.52
 10
797.8769999999999
 20
1013.55
 42
-0.085195
 10
795.498
 20
1013.19
 42
-0.226738
 10
794.6539999999999
 20
1013.62
 42
-0.202987
 10
794.2919999999999
 20
1014.98
 42
-0.154179
 10
795.081
 20
1016.63
 42
-0.126346
 10
805.671
 20
1024.34
 42
-0.0624436
 10
807.938
 20
1024.83
 42
-0.107985
 10
809.28
 20
1024.67
 42
-0.256006
 10
810.336
 20
1023.6
 42
-0.188009
 10
810.0570000000001
 20
1021.75
  0
LWPOLYLINE
  5
546
330
22
100
AcDbEntity
  8
0
100
AcDbPolyline
 90
       11
 70
     1
 43
0.0
 10
771.3619999999999
 20
1023.68
 42
-0.269041
 10
770.4589999999999
 20
1020.91
 42
-0.205394
 10
759.1319999999999
 20
1016.64
 10
758.3029999999999
 20
1016.75
 42
-0.29275
 10
757.868
 20
1017.32
 42
-0.163763
 10
758.1649999999999
 20
1018.5
 42
0.0371932
 10
761.4149999999999
 20
1023.3
 10
761.9289999999999
 20
1024.18
 42
-0.197108
 10
763.4680000000001
 20
1024.87
 42
-0.0305734
 10
766.2439999999999
 20
1024.9
 42
-0.0829564
 10
770.27
 20
1024.61
 42
-0.256022
  0
LWPOLYLINE
  5
553
330
22
100
AcDbEntity
  8
0
100
AcDbPolyline
 90
        8
 70
     1
 43
0.0
 10
1090.11
 20
1077.66
 42
-0.4918790000000001
 10
1093.48
 20
1029.32
 42
0.0644541
 10
1090.83
 20
1026.07
 42
-0.0549686
 10
1090.32
 20
1025.41
 42
-0.301221
 10
1090.12
 20
1025.37
 42
-0.233638
 10
1089.95
 20
1025.57
 10
1089.9
 20
1025.85
 42
-0.0266107
 10
1089.84
 20
1028.19
  0
LWPOLYLINE
  5
55D
330
22
100
AcDbEntity
  8
0
100
AcDbPolyline
 90
       19
 70
     1
 43
0.0
 10
786.5389999999999
 20
1030.89
 10
785.253
 20
1030.06
 10
783.561
 20
1029.64
 10
779.988
 20
1029.19
 42
-0.0374208
 10
778.5
 20
1029.22
 42
-0.0591595
 10
777.576
 20
1029.41
 42
-0.333487
 10
777.0269999999999
 20
1030.21
 42
-0.168093
 10
777.682
 20
1031.87
 42
0.0109417
 10
780.9760000000001
 20
1036.36
 42
-0.0350759
 10
782.27
 20
1037.94
 42
-0.0719898
 10
783.053
 20
1038.56
 10
786.128
 20
1039.7
 42
-0.0619125
 10
793.123
 20
1041.32
 42
-0.187821
 10
794.467
 20
1040.86
 42
-0.236261
 10
794.923
 20
1039.81
 42
-0.0858205
 10
794.6399999999999
 20
1038.59
 42
-0.0467974
 10
793.5599999999999
 20
1036.58
 42
-0.030783
 10
792.5139999999998
 20
1035.2
 42
-0.0441272
 10
791.648
 20
1034.35
 42
-0.0189074
  0
LWPOLYLINE
  5
572
330
22
100
AcDbEntity
  8
0
100
AcDbPolyline
 90
        8
 70
     1
 43
0.0
 10
871.5439999999999
 20
1068.47
 42
-0.223352
 10
848.441
 20
1045.8
 42
-0.0424698
 10
842.829
 20
1044.39
 42
-0.096763
 10
841.187
 20
1044.4
 42
-0.248905
 10
840.7329999999999
 20
1044.82
 42
-0.208167
 10
840.784
 20
1045.54
 10
841.15
 20
1046.1
 42
-0.0422084
 10
842.5969999999999
 20
1047.6
 42
-0.0557499
  0
LWPOLYLINE
  5
57C
330
22
100
AcDbEntity
  8
0
100
AcDbPolyline
 90
       17
 70
     1
 43
0.0
 10
497.804
 20
1075.52
 42
-0.505603
 10
487.656
 20
1050.2
 42
-0.0707765
 10
482.3209999999999
 20
1049.37
 42
-0.111676
 10
480.37
 20
1049.75
 42
-0.203525
 10
479.4819999999999
 20
1050.73
 42
-0.136079
 10
479.469
 20
1052.18
 42
-0.0705241
 10
480.674
 20
1054.92
 42
-0.0411514
 10
486.5549999999999
 20
1062.49
 42
0.162983
 10
486.894
 20
1063.31
 42
0.09421
 10
486.7609999999999
 20
1064.3
 42
0.0495395
 10
485.653
 20
1066.64
 42
-0.0599127
 10
484.1639999999999
 20
1069.83
 42
-0.196687
 10
484.283
 20
1072.18
 42
-0.148422
 10
485.889
 20
1073.61
 42
0.0471641
 10
490.104
 20
1076.45
 42
-0.0720752
 10
492.926
 20
1078.25
 42
-0.255809
 10
495.558
 20
1078.05
 42
-0.112802
  0
LWPOLYLINE
  5
58F
330
22
100
AcDbEntity
  8
0
100
AcDbPolyline
 90
       12
 70
     1
 43
0.0
 10
1059.44
 20
1088.42
 42
-0.0648227
 10
1057.05
 20
1056.17
 42
-0.090553
 10
1055.89
 20
1052.89
 42
-0.103163
 10
1055.18
 20
1052.15
 42
-0.304017
 10
1053.67
 20
1052.16
 42
-0.095065
 10
1052.56
 20
1053.25
 42
-0.0977221
 10
1050.58
 20
1058.16
 42
-0.125148
 10
1051.99
 20
1092.5
 42
-0.121225
 10
1053.09
 20
1094.69
 42
-0.221475
 10
1054.46
 20
1095.34
 42
-0.143885
 10
1055.92
 20
1094.81
 42
-0.0903547
 10
1057.73
 20
1092.87
 42
-0.127084
  0
LWPOLYLINE
  5
59D
330
22
100
AcDbEntity
  8
0
100
AcDbPolyline
 90
      183
 70
     1
 43
0.0
 10
486.709
 20
1098.51
 42
0.0803282
 10
449.949
 20
1060.44
 10
420.8959999999999
 20
1108.42
 42
0.0212398
 10
420.088
 20
1109.62
 42
-0.029057
 10
415.193
 20
1116.22
 42
-0.181594
 10
413.87
 20
1122.55
 42
-0.190032
 10
428.8409999999999
 20
1146.53
 42
0.055735
 10
430.724
 20
1148.23
 42
0.100912
 10
431.597
 20
1149.69
 42
0.339275
 10
430.9009999999999
 20
1151.83
 42
0.109154
 10
428.8289999999999
 20
1152.68
 42
0.199266
 10
419.993
 20
1150.58
 10
381.26
 20
1120.62
 42
-0.281689
 10
311.279
 20
1113.1
 42
0.393524
 10
290.369
 20
1145.0
 42
-0.127701
 10
288.114
 20
1146.09
 42
-0.219104
 10
287.122
 20
1148.81
 42
-0.062869
 10
287.557
 20
1151.11
 42
-0.0066298
 10
290.007
 20
1157.4
 42
0.0992463
 10
290.71
 20
1160.75
 42
0.2649059999999999
 10
289.433
 20
1163.13
 42
0.113331
 10
286.916
 20
1163.92
 10
265.469
 20
1166.48
 10
265.402
 20
1166.57
 42
-0.0133862
 10
264.15
 20
1169.05
 42
-0.0130921
 10
260.3909999999999
 20
1177.33
 42
-0.0395434
 10
259.914
 20
1178.66
 10
259.9
 20
1178.83
 42
0.62057
 10
233.093
 20
1204.58
 42
-0.292042
 10
242.708
 20
1245.1
 42
0.237467
 10
284.665
 20
1261.36
 42
0.0322386
 10
287.305
 20
1264.62
 42
0.0759916
 10
288.4770000000001
 20
1266.84
 10
288.587
 20
1267.62
 42
0.268252
 10
288.01
 20
1268.59
 10
287.383
 20
1268.82
 42
0.0709939
 10
285.602
 20
1268.9
 42
0.0362449
 10
279.494
 20
1267.71
 42
-0.0354339
 10
274.051
 20
1266.52
 42
-0.533607
 10
259.668
 20
1284.28
 10
260.221
 20
1286.52
 42
0.0970983
 10
260.255
 20
1289.95
 42
0.152041
 10
259.11
 20
1292.09
 42
0.178124
 10
255.849
 20
1293.26
 42
0.150874
 10
247.537
 20
1290.33
 42
0.135488
 10
243.968
 20
1286.31
 42
0.144228
 10
243.689
 20
1284.18
 10
249.778
 20
1250.29
 42
-0.160936
 10
183.692
 20
1356.65
 42
-0.0838431
 10
179.778
 20
1383.1
 42
0.00715722
 10
180.247
 20
1387.88
 42
-0.0798358
 10
180.479
 20
1388.99
 42
-0.177059
 10
180.756
 20
1389.32
 42
-0.168016
 10
181.195
 20
1389.35
 42
-0.0566771
 10
181.849
 20
1389.12
 42
-0.00693911
 10
184.7809999999999
 20
1387.57
 10
205.078
 20
1376.58
 42
0.517149
 10
227.021
 20
1387.43
 42
0.063314
 10
227.057
 20
1390.58
 42
0.0794414
 10
222.625
 20
1404.11
 42
-0.4072510000000001
 10
243.866
 20
1468.34
 42
-0.0443516
 10
250.5
 20
1471.37
 42
-0.0736819
 10
251.402
 20
1471.52
 42
-0.25024
 10
251.8
 20
1471.29
 42
-0.207956
 10
251.879
 20
1470.76
 42
-0.0596543
 10
251.454
 20
1469.81
 42
-0.0329392
 10
248.452
 20
1465.65
 42
0.7473330000000001
 10
279.262
 20
1421.55
 10
252.202
 20
1446.06
 10
272.985
 20
1488.89
 42
0.440388
 10
203.025
 20
1404.35
 42
-0.0707912
 10
203.207
 20
1397.21
 42
-0.136328
 10
202.121
 20
1394.3
 42
-0.305816
 10
199.473
 20
1393.38
 42
-0.103983
 10
196.877
 20
1394.71
 42
-0.0928321
 10
191.093
 20
1401.89
 42
-0.277191
 10
192.122
 20
1469.21
 42
0.138699
 10
193.884
 20
1474.7
 42
0.126531
 10
193.553
 20
1476.26
 42
0.362609
 10
192.203
 20
1476.91
 42
0.100797
 10
191.167
 20
1476.43
 42
0.0859991
 10
188.436
 20
1473.4
 10
171.183
 20
1448.36
 10
168.783
 20
1404.61
 10
168.5959999999999
 20
1402.4
 42
-0.1055
 10
167.435
 20
1398.13
 42
-0.28779
 10
164.75
 20
1396.45
 42
-0.0633335
 10
162.13
 20
1396.88
 42
0.0440306
 10
158.189
 20
1397.76
 42
0.239076
 10
153.175
 20
1395.95
 42
0.208909
 10
152.406
 20
1394.14
 42
0.108396
 10
152.987
 20
1392.13
 42
0.0377634
 10
154.832
 20
1389.32
 42
-0.0751405
 10
156.867
 20
1385.96
 42
-0.110576
 10
157.03
 20
1384.78
 42
-0.219774
 10
156.022
 20
1383.28
 42
-0.28413
 10
149.051
 20
1382.9
 42
-0.195227
 10
141.961
 20
1391.82
 42
-0.3967449999999999
 10
155.386
 20
1418.09
 10
157.071
 20
1418.72
 42
0.0653504
 10
160.086
 20
1420.21
 42
0.209398
 10
160.472
 20
1420.87
 42
0.344443
 10
160.21
 20
1421.3
 42
0.0689662
 10
159.02
 20
1421.5
 42
0.0823662
 10
147.956
 20
1419.7
 42
0.472671
 10
121.808
 20
1348.2
 42
-0.00617433
 10
123.055
 20
1346.03
 42
-0.0598279
 10
124.913
 20
1342.0
 42
-0.0850816
 10
125.041
 20
1340.98
 42
-0.189749
 10
124.754
 20
1340.32
 42
-0.166648
 10
124.011
 20
1340.03
 42
-0.0713571
 10
122.769
 20
1340.13
 42
-0.0478792
 10
117.206
 20
1342.16
 42
-0.474795
 10
97.9732
 20
1413.78
 42
-0.045761
 10
141.486
 20
1463.77
 42
0.522611
 10
174.195
 20
1478.71
 10
114.77
 20
1462.82
 42
-0.380126
 10
147.588
 20
1522.7
 10
156.58
 20
1524.57
 42
-0.0251569
 10
159.795
 20
1525.61
 42
-0.089341
 10
161.619
 20
1525.88
 10
161.959
 20
1525.8
 42
-0.260889
 10
162.294
 20
1525.42
 42
-0.0818408
 10
162.31
 20
1525.17
 42
-0.0483361
 10
162.226
 20
1524.75
 42
-0.0416885
 10
161.827
 20
1523.81
 10
158.866
 20
1518.65
 42
0.225273
 10
157.192
 20
1489.38
 10
157.549
 20
1488.78
 42
0.284587
 10
158.511
 20
1488.47
 10
159.096
 20
1488.7
 42
0.0708744
 10
160.418
 20
1489.81
 42
0.053936
 10
165.53
 20
1497.49
 42
0.0340006
 10
168.602
 20
1503.86
 42
-0.141556
 10
203.309
 20
1554.78
 42
0.014955
 10
212.849
 20
1563.17
 42
0.0361316
 10
216.427
 20
1567.03
 42
-0.158756
 10
284.181
 20
1611.5
 10
303.838
 20
1616.91
 42
0.0483154
 10
304.397
 20
1617.12
 42
-0.0677789
 10
353.5019999999999
 20
1633.91
 42
-0.033577
 10
360.798
 20
1634.84
 42
0.0372915
 10
368.891
 20
1635.93
 42
-0.159586
 10
504.5709999999999
 20
1621.26
 42
0.0406713
 10
506.885
 20
1620.4
 42
0.0818489
 10
508.4969999999999
 20
1620.2
 42
0.289699
 10
510.213
 20
1621.36
 42
0.0569754
 10
510.766
 20
1623.18
 42
-0.0581729
 10
511.775
 20
1626.98
 42
-0.293613
 10
516.858
 20
1630.77
 42
-0.0999965
 10
520.9139999999999
 20
1629.85
 42
0.0428997
 10
525.6419999999999
 20
1628.14
 42
0.0819463
 10
582.038
 20
1625.91
 42
-0.0529677
 10
583.1259999999999
 20
1625.9
 42
-0.11263
 10
592.3219999999999
 20
1622.5
 42
-0.110472
 10
593.8279999999999
 20
1620.93
 42
-0.316632
 10
593.707
 20
1618.66
 42
-0.114801
 10
592.0980000000001
 20
1617.29
 42
-0.0705471
 10
588.584
 20
1616.18
 42
0.00998253
 10
581.88
 20
1615.16
 42
0.106023
 10
578.7259999999999
 20
1613.96
 42
0.229339
 10
577.2569999999999
 20
1611.5
 42
0.103453
 10
577.6319999999999
 20
1608.83
 42
0.053212
 10
579.3809999999999
 20
1605.1
 42
0.0679573
 10
580.6589999999999
 20
1603.4
 42
0.238405
 10
583.2130000000001
 20
1602.43
 42
0.107981
 10
585.793
 20
1603.5
 42
-0.0354299
 10
589.111
 20
1605.52
 42
-0.171113
 10
591.883
 20
1605.92
 42
-0.274617
 10
594.7230000000001
 20
1603.02
 42
-0.0273066
 10
595.403
 20
1599.46
 42
0.116406
 10
596.383
 20
1596.8
 42
-0.0823927
 10
648.638
 20
1497.64
 42
0.0150878
 10
654.1469999999999
 20
1482.59
 42
0.0779457
 10
655.743
 20
1479.91
 42
-0.11329
 10
673.896
 20
1444.73
 42
-0.239012
 10
640.172
 20
1285.49
 42
-0.0519871
 10
635.445
 20
1276.14
 42
0.72784
 10
601.223
 20
1226.99
 10
609.0589999999999
 20
1221.03
 42
-1.16636
 10
608.187
 20
1192.01
 10
558.5009999999999
 20
1198.94
 42
0.274918
 10
570.858
 20
1161.03
  0
LWPOLYLINE
  5
656
330
22
100
AcDbEntity
  8
0
100
AcDbPolyline
 90
       15
 70
     1
 43
0.0
 10
881.3039999999999
 20
1108.18
 42
-0.0172007
 10
869.4
 20
1079.78
 42
-0.0850551
 10
868.8259999999999
 20
1078.97
 42
-0.165664
 10
865.286
 20
1077.34
 42
-0.135908
 10
863.8869999999998
 20
1077.53
 42
-0.236251
 10
863.1119999999999
 20
1078.47
 42
-0.113094
 10
863.1299999999999
 20
1079.57
 42
-0.077338
 10
864.2410000000001
 20
1082.07
 42
0.0441493
 10
879.2089999999999
 20
1112.01
 10
879.6789999999999
 20
1113.14
 42
-0.0753918
 10
880.8200000000001
 20
1115.16
 42
-0.178396
 10
881.3889999999998
 20
1115.48
 42
-0.29998
 10
881.7619999999999
 20
1115.31
 10
881.901
 20
1115.0
 42
-0.0547394
 10
882.0729999999999
 20
1114.08
 42
-0.0972568
  0
LWPOLYLINE
  5
667
330
22
100
AcDbEntity
  8
0
100
AcDbPolyline
 90
       15
 70
     1
 43
0.0
 10
1002.08
 20
1138.03
 42
-0.178862
 10
1011.99
 20
1084.15
 42
-0.0159643
 10
1011.37
 20
1081.06
 42
-0.0720727
 10
1010.5
 20
1078.47
 42
-0.198211
 10
1009.92
 20
1078.02
 42
-0.296519
 10
1009.43
 20
1078.17
 10
1009.18
 20
1078.56
 42
-0.0435548
 10
1008.7
 20
1079.79
 42
-0.0322986
 10
1007.0
 20
1088.55
 42
0.0309314
 10
995.5160000000001
 20
1142.14
 42
-0.026916
 10
994.913
 20
1144.73
 42
-0.0756087
 10
994.836
 20
1146.18
 42
-0.312205
 10
995.1909999999999
 20
1146.55
 42
-0.211006
 10
995.893
 20
1146.39
 42
-0.0464659
 10
996.841
 20
1145.5
 42
-0.0408715
  0
LWPOLYLINE
  5
678
330
22
100
AcDbEntity
  8
0
100
AcDbPolyline
 90
       31
 70
     1
 43
0.0
 10
819.4730000000001
 20
1109.84
 42
-0.059494
 10
791.58
 20
1092.89
 10
789.839
 20
1092.12
 42
-0.0589483
 10
786.7180000000001
 20
1091.0
 42
-0.339614
 10
786.2960000000001
 20
1091.22
 42
-0.254053
 10
786.335
 20
1091.83
 42
-0.0269043
 10
787.22
 20
1093.01
 42
0.0365025
 10
791.273
 20
1098.41
 42
0.121336
 10
792.7260000000001
 20
1102.54
 42
-0.0105124
 10
792.835
 20
1105.71
 42
-0.188186
 10
794.208
 20
1109.04
 42
-0.0424728
 10
798.7239999999999
 20
1112.78
 10
831.939
 20
1137.34
 10
833.553
 20
1138.6
 42
0.0651352
 10
835.397
 20
1140.48
 10
835.7319999999999
 20
1141.16
 42
0.292764
 10
835.4960000000001
 20
1142.11
 42
0.0706181
 10
835.1419999999999
 20
1142.38
 42
0.0382608
 10
834.3999999999999
 20
1142.72
 42
0.0119801
 10
832.8660000000001
 20
1143.22
 42
-0.0963828
 10
830.671
 20
1144.22
 42
-0.2862659999999999
 10
829.8660000000001
 20
1146.2
 42
-0.105998
 10
830.807
 20
1148.43
 42
-0.0471441
 10
833.421
 20
1151.66
 42
-0.115014
 10
843.0
 20
1158.75
 42
-0.156388
 10
846.973
 20
1159.12
 42
-0.274805
 10
849.716
 20
1155.99
 42
-0.10491
 10
849.685
 20
1150.73
 42
-0.226511
 10
839.84
 20
1137.04
 42
-0.0344808
 10
834.173
 20
1134.42
 42
0.0390517
 10
827.7829999999999
 20
1131.39
 42
0.35506
  0
LWPOLYLINE
  5
699
330
22
100
AcDbEntity
  8
0
100
AcDbPolyline
 90
       16
 70
     1
 43
0.0
 10
713.7710000000001
 20
1133.79
 42
0.396929
 10
714.016
 20
1094.89
 42
0.212382
 10
713.673
 20
1095.03
 42
0.064007
 10
712.5060000000001
 20
1094.85
 42
0.0133678
 10
708.6160000000001
 20
1093.42
 42
-0.0840708
 10
702.77
 20
1092.02
 42
-0.164526
 10
699.8219999999999
 20
1092.77
 42
-0.182712
 10
698.0389999999999
 20
1095.65
 42
-0.070129
 10
697.7999999999999
 20
1099.15
 42
-0.120042
 10
708.878
 20
1136.27
 42
-0.0627016
 10
711.531
 20
1139.79
 42
-0.140842
 10
715.8669999999999
 20
1142.56
 42
-0.115839
 10
717.1569999999999
 20
1142.61
 42
-0.201111
 10
717.9810000000001
 20
1142.04
 42
-0.165329
 10
718.196
 20
1140.87
 42
-0.0839409
 10
717.6599999999999
 20
1139.11
 42
-0.0755688
  0
LWPOLYLINE
  5
6AB
330
22
100
AcDbEntity
  8
0
100
AcDbPolyline
 90
       15
 70
     1
 43
0.0
 10
1079.39
 20
1150.86
 42
-0.0365457
 10
1066.14
 20
1109.85
 10
1065.74
 20
1108.95
 42
-0.0902785
 10
1064.6
 20
1107.21
 42
-0.120122
 10
1063.89
 20
1106.75
 42
-0.247178
 10
1062.97
 20
1106.93
 42
-0.112214
 10
1062.25
 20
1107.92
 42
-0.133484
 10
1061.7
 20
1112.45
 42
-0.0725535
 10
1075.41
 20
1159.08
 10
1076.29
 20
1160.91
 42
-0.0849942
 10
1078.38
 20
1164.09
 42
-0.210038
 10
1079.31
 20
1164.44
 42
-0.269713
 10
1079.98
 20
1163.99
 10
1080.2
 20
1163.38
 42
-0.0460073
 10
1080.45
 20
1161.64
 42
-0.0646471
  0
LWPOLYLINE
  5
6BC
330
22
100
AcDbEntity
  8
0
100
AcDbPolyline
 90
       28
 70
     1
 43
0.0
 10
721.108
 20
1125.59
 10
720.7849999999999
 20
1127.19
 42
-0.0724246
 10
720.838
 20
1128.15
 42
-0.0287936
 10
721.4489999999999
 20
1130.47
 42
0.0753245
 10
722.406
 20
1137.76
 42
-0.0293245
 10
722.613
 20
1143.08
 42
-0.188205
 10
723.248
 20
1144.18
 42
-0.0818228
 10
725.723
 20
1145.56
 10
728.1449999999999
 20
1146.43
 42
-0.0598852
 10
728.23
 20
1146.45
 42
-0.191609
 10
730.575
 20
1145.76
 42
-0.202679
 10
732.5980000000001
 20
1141.95
 42
-0.0552535
 10
732.368
 20
1138.52
 42
0.0104676
 10
729.832
 20
1128.33
 10
729.296
 20
1126.73
 42
0.132822
 10
729.4730000000001
 20
1121.46
 42
0.0351197
 10
729.8939999999999
 20
1120.32
 42
-0.02984
 10
730.2619999999999
 20
1119.36
 42
-0.188325
 10
730.1779999999999
 20
1118.09
 42
-0.149629
 10
729.118
 20
1116.92
 42
-0.0296402
 10
728.452
 20
1116.58
 42
-0.0874088
 10
728.2039999999999
 20
1116.51
 10
727.6569999999999
 20
1116.59
 10
727.3279999999999
 20
1116.83
 42
0.030824
 10
724.9539999999999
 20
1118.09
 10
724.207
 20
1118.4
 42
-0.105809
 10
723.4860000000001
 20
1118.97
 42
-0.0854421
 10
722.9210000000001
 20
1119.94
 42
-0.00567866
  0
LWPOLYLINE
  5
6DA
330
22
100
AcDbEntity
  8
0
100
AcDbPolyline
 90
       15
 70
     1
 43
0.0
 10
901.0609999999999
 20
1178.75
 42
0.4971170000000001
 10
889.137
 20
1137.06
 42
-0.101647
 10
890.2269999999999
 20
1134.86
 42
-0.409057
 10
886.986
 20
1129.69
 42
-0.3321
 10
879.799
 20
1132.65
 42
-0.128135
 10
877.4680000000001
 20
1140.12
 42
-0.317088
 10
917.309
 20
1214.34
 42
-0.249708
 10
936.236
 20
1215.75
 10
937.625
 20
1214.9
 42
-0.0864211
 10
940.9739999999999
 20
1212.11
 42
-0.119128
 10
941.472
 20
1211.04
 42
-0.189669
 10
941.299
 20
1210.19
 42
-0.128203
 10
940.539
 20
1209.54
 42
-0.0636931
 10
939.2749999999999
 20
1209.1
 42
-0.07767
 10
932.103
 20
1209.04
 42
0.4801250000000001
  0
LWPOLYLINE
  5
6EB
330
22
100
AcDbEntity
  8
0
100
AcDbPolyline
 90
       19
 70
     1
 43
0.0
 10
966.1319999999999
 20
1183.34
 42
-0.379565
 10
984.1389999999998
 20
1140.61
 42
-0.073361
 10
982.6869999999999
 20
1137.92
 42
-0.103605
 10
981.8010000000001
 20
1137.12
 42
-0.191939
 10
981.01
 20
1137.0
 42
-0.158129
 10
980.339
 20
1137.47
 42
-0.0976272
 10
979.612
 20
1139.06
 42
-0.128406
 10
979.912
 20
1146.16
 42
0.444357
 10
962.2519999999999
 20
1175.07
 42
-0.0168914
 10
960.0019999999998
 20
1175.56
 42
-0.0921471
 10
950.0439999999999
 20
1180.57
 42
0.348238
 10
923.6289999999998
 20
1178.21
 10
922.8049999999999
 20
1177.53
 42
-0.261448
 10
922.17
 20
1177.49
 42
-0.313217
 10
921.8989999999999
 20
1177.96
 42
-0.0689571
 10
922.4429999999999
 20
1179.82
 42
-0.0655108
 10
926.8939999999998
 20
1187.08
 42
-0.119652
 10
934.1779999999999
 20
1193.23
 42
-0.236542
 10
940.714
 20
1193.24
  0
LWPOLYLINE
  5
700
330
22
100
AcDbEntity
  8
0
100
AcDbPolyline
 90
        6
 70
     1
 43
0.0
 10
1074.44
 20
1188.95
 42
-0.0221123
 10
1056.67
 20
1149.68
 42
-0.14872
 10
1068.49
 20
1195.11
 42
-0.140318
 10
1070.84
 20
1197.5
 42
-0.238969
 10
1073.01
 20
1197.55
 42
-0.170718
 10
1074.6
 20
1195.79
 42
-0.20221
  0
LWPOLYLINE
  5
708
330
22
100
AcDbEntity
  8
0
100
AcDbPolyline
 90
        9
 70
     1
 43
0.0
 10
1057.45
 20
1224.44
 42
-0.0665005
 10
1042.6
 20
1176.74
 10
1042.06
 20
1175.43
 42
-0.0549129
 10
1040.28
 20
1171.94
 42
-0.0883332
 10
1039.75
 20
1171.41
 42
-0.300108
 10
1039.34
 20
1171.42
 42
-0.168764
 10
1038.94
 20
1171.98
 10
1038.81
 20
1172.57
 42
-0.0332629
 10
1038.67
 20
1174.44
 42
-0.191757
  0
LWPOLYLINE
  5
713
330
22
100
AcDbEntity
  8
0
100
AcDbPolyline
 90
       15
 70
     1
 43
0.0
 10
1022.27
 20
1217.48
 42
0.063327
 10
1016.04
 20
1183.04
 10
1015.92
 20
1182.02
 42
-0.125162
 10
1015.42
 20
1180.74
 10
1015.05
 20
1180.45
 42
-0.20696
 10
1014.14
 20
1180.47
 42
-0.0895718
 10
1013.09
 20
1181.17
 42
-0.109093
 10
1009.58
 20
1186.87
 42
-0.130017
 10
1008.91
 20
1191.51
 10
1014.62
 20
1223.8
 10
1015.06
 20
1225.9
 42
-0.105529
 10
1016.73
 20
1229.92
 42
-0.151847
 10
1018.02
 20
1230.94
 42
-0.255262
 10
1019.95
 20
1230.45
 42
-0.0825886
 10
1021.11
 20
1229.04
 42
-0.196662
  0
LWPOLYLINE
  5
724
330
22
100
AcDbEntity
  8
0
100
AcDbPolyline
 90
       13
 70
     1
 43
0.0
 10
574.32
 20
1232.19
 42
-0.370908
 10
514.8649999999999
 20
1190.55
 42
-0.846836
 10
509.7739999999999
 20
1258.56
 10
500.113
 20
1232.44
 42
0.112272
 10
498.808
 20
1225.86
 42
0.11353
 10
501.17
 20
1219.81
 42
0.3403239999999999
 10
541.834
 20
1203.46
 42
0.0424815
 10
544.713
 20
1204.5
 42
0.11968
 10
547.304
 20
1206.4
 42
0.244622
 10
547.9619999999999
 20
1209.32
 42
0.132443
 10
546.0199999999999
 20
1212.4
 42
0.0894079
 10
538.311
 20
1217.29
 42
-0.789282
 10
542.053
 20
1238.68
 42
-1.05136
  0
LWPOLYLINE
  5
733
330
22
100
AcDbEntity
  8
0
100
AcDbPolyline
 90
       15
 70
     1
 43
0.0
 10
793.291
 20
1248.04
 42
0.0622606
 10
768.9810000000001
 20
1207.83
 42
-0.23765
 10
766.6089999999999
 20
1205.94
 42
-0.229254
 10
760.82
 20
1207.54
 42
-0.256415
 10
759.382
 20
1211.03
 42
-0.108363
 10
760.8439999999999
 20
1214.85
 42
-0.0245474
 10
764.9099999999999
 20
1219.99
 10
790.182
 20
1252.04
 42
-0.0745016
 10
795.3229999999999
 20
1257.32
 42
-0.0793531
 10
796.6469999999999
 20
1258.0
 10
797.141
 20
1258.07
 42
-0.270496
 10
797.78
 20
1257.7
 42
-0.0933337
 10
797.9099999999999
 20
1257.34
 42
-0.0578678
 10
797.9349999999999
 20
1256.72
 42
-0.0627161
 10
797.585
 20
1255.2
 42
-0.0794058
  0
LWPOLYLINE
  5
744
330
22
100
AcDbEntity
  8
0
100
AcDbPolyline
 90
       24
 70
     1
 43
0.0
 10
439.961
 20
1230.47
 42
0.186574
 10
465.6169999999999
 20
1216.79
 42
-0.179274
 10
465.7519999999999
 20
1216.72
 42
-0.115074
 10
465.866
 20
1216.52
 42
-0.0841692
 10
465.904
 20
1215.86
 42
-0.131761
 10
463.684
 20
1210.52
 42
-0.1208
 10
462.498
 20
1209.58
 42
-0.218901
 10
461.203
 20
1209.58
 42
0.095786
 10
454.41
 20
1211.1
 42
-0.00667794
 10
443.975
 20
1211.08
 42
-0.687636
 10
432.849
 20
1247.53
 42
-0.0356143
 10
440.1679999999999
 20
1252.44
 42
-0.0482433
 10
446.1059999999999
 20
1255.12
 42
0.329131
 10
464.806
 20
1282.0
 42
-0.0295512
 10
464.8749999999999
 20
1285.44
 42
-0.0768696
 10
465.274
 20
1287.33
 42
-0.272596
 10
465.9019999999999
 20
1287.78
 42
-0.224051
 10
466.7619999999999
 20
1287.46
 42
-0.0567351
 10
467.7019999999999
 20
1286.17
 42
-0.0803468
 10
471.3799999999999
 20
1275.74
 42
-0.360637
 10
450.748
 20
1243.52
 42
0.0409355
 10
444.383
 20
1240.96
 42
0.114373
 10
439.264
 20
1237.01
 42
0.206129
 10
438.369
 20
1233.52
 42
0.129436
  0
LWPOLYLINE
  5
75E
330
22
100
AcDbEntity
  8
0
100
AcDbPolyline
 90
       17
 70
     1
 43
0.0
 10
749.5379999999999
 20
1225.17
 42
-0.0324327
 10
752.2280000000001
 20
1230.79
 42
-0.0186621
 10
753.83
 20
1233.48
 42
0.0445152
 10
759.2039999999999
 20
1242.48
 42
-0.156175
 10
760.367
 20
1243.71
 42
-0.13168
 10
762.3029999999999
 20
1244.19
 10
763.1969999999999
 20
1244.18
 42
-0.176609
 10
764.546
 20
1243.53
 42
-0.295996
 10
764.73
 20
1242.6
 42
-0.0182239
 10
759.123
 20
1228.16
 42
0.0529911
 10
754.9389999999999
 20
1218.87
 10
754.654
 20
1217.76
 42
-0.228009
 10
753.4919999999999
 20
1216.65
 42
-0.193973
 10
752.0269999999999
 20
1216.83
 42
-0.150964
 10
750.7369999999999
 20
1218.19
 42
-0.0221154
 10
749.7180000000001
 20
1220.81
 10
749.206
 20
1222.19
 42
-0.147726
  0
LWPOLYLINE
  5
771
330
22
100
AcDbEntity
  8
0
100
AcDbPolyline
 90
       10
 70
     1
 43
0.0
 10
962.4739999999999
 20
1241.21
 10
920.8889999999998
 20
1228.0
 10
920.8919999999999
 20
1227.94
 10
920.4839999999999
 20
1227.38
 42
-0.0364799
 10
917.4750000000001
 20
1224.2
 42
-0.0753833
 10
916.005
 20
1223.12
 42
-0.332383
 10
915.525
 20
1223.22
 42
-0.231621
 10
915.3500000000001
 20
1223.87
 10
915.5599999999999
 20
1224.63
 42
-0.0316649
 10
917.4199999999999
 20
1228.72
 42
-0.436341
  0
LWPOLYLINE
  5
77D
330
22
100
AcDbEntity
  8
0
100
AcDbPolyline
 90
       92
 70
     1
 43
0.0
 10
418.726
 20
1298.96
 42
0.5334690000000001
 10
444.0159999999999
 20
1268.78
 10
443.695
 20
1268.68
 42
0.0499246
 10
442.8279999999999
 20
1268.1
 42
-0.0292974
 10
438.51
 20
1264.8
 42
-0.313067
 10
424.6579999999999
 20
1264.66
 10
416.028
 20
1269.96
 42
-0.260025
 10
412.503
 20
1276.31
 42
0.560001
 10
381.48
 20
1292.76
 42
-0.29456
 10
341.006
 20
1325.08
 42
-0.0643731
 10
340.308
 20
1328.24
 42
-0.134606
 10
340.63
 20
1330.25
 42
-0.24557
 10
342.614
 20
1331.5
 42
-0.0724341
 10
344.661
 20
1331.43
 42
-0.0528294
 10
349.645
 20
1329.91
 10
357.274
 20
1326.57
 42
0.6713100000000001
 10
385.3219999999999
 20
1357.45
 42
-0.241862
 10
338.494
 20
1426.13
 10
338.209
 20
1428.08
 42
0.0942649
 10
336.662
 20
1432.99
 42
0.194073
 10
334.48
 20
1434.69
 42
0.0336326
 10
332.435
 20
1435.05
 42
-0.21257
 10
325.321
 20
1438.96
 10
311.812
 20
1454.58
 42
-0.5489030000000001
 10
319.745
 20
1480.91
 42
-0.0769366
 10
323.075
 20
1481.43
 10
324.123
 20
1481.23
 42
-0.243344
 10
325.208
 20
1480.03
 42
-0.107983
 10
325.241
 20
1477.96
 42
-0.0339852
 10
323.572
 20
1472.05
 42
0.0851587
 10
321.892
 20
1463.54
 42
0.221358
 10
324.336
 20
1457.92
 10
328.345
 20
1454.28
 42
0.0828
 10
330.831
 20
1452.57
 42
0.113337
 10
331.9380000000001
 20
1452.38
 42
0.173918
 10
333.535
 20
1453.21
 42
0.0611474
 10
334.6119999999999
 20
1454.64
 42
0.048636
 10
336.966
 20
1460.05
 42
-0.0531977
 10
355.785
 20
1499.64
 42
-0.0400459
 10
363.1330000000001
 20
1509.72
 42
-0.0801172
 10
367.92
 20
1513.76
 10
436.544
 20
1556.23
 42
-0.3763780000000001
 10
472.494
 20
1550.67
 10
430.4149999999999
 20
1547.12
 10
436.852
 20
1509.18
 42
-0.8645839999999999
 10
427.582
 20
1506.18
 10
415.592
 20
1530.49
 42
0.389786
 10
413.844
 20
1483.51
 10
415.153
 20
1481.79
 42
-0.105829
 10
416.36
 20
1479.05
 42
-0.205946
 10
415.9819999999999
 20
1477.2
 42
-0.164285
 10
414.3799999999999
 20
1476.18
 42
-0.0827757
 10
411.911
 20
1475.95
 42
-0.144749
 10
402.902
 20
1479.42
 42
-0.228646
 10
398.905
 20
1486.31
 42
0.00831434
 10
397.172
 20
1516.33
 42
0.0580736
 10
397.028
 20
1517.08
 42
0.102125
 10
396.816
 20
1517.46
 42
0.265404
 10
396.048
 20
1517.72
 42
0.101651
 10
394.955
 20
1517.27
 42
0.0550345
 10
391.376
 20
1514.11
 10
385.571
 20
1507.65
 42
0.119312
 10
385.239
 20
1507.06
 42
0.0772059
 10
385.028
 20
1505.04
 42
0.0326535
 10
386.085
 20
1497.13
 42
0.0297486
 10
393.653
 20
1458.33
 42
-0.20037
 10
393.032
 20
1451.18
 42
-0.179581
 10
390.902
 20
1449.31
 42
-0.283641
 10
387.676
 20
1450.22
 42
-0.122216
 10
385.458
 20
1454.15
 10
377.549
 20
1484.22
 42
0.59772
 10
361.1219999999999
 20
1486.9
 42
0.531232
 10
397.6780000000001
 20
1370.47
 42
-0.274678
 10
377.932
 20
1318.32
 42
0.0514872
 10
374.347
 20
1314.95
 42
0.104332
 10
373.179
 20
1312.95
 42
0.259588
 10
373.545
 20
1310.85
 42
0.101966
 10
375.19
 20
1309.62
 42
0.0657843
 10
381.76
 20
1307.77
 42
0.169725
 10
419.563
 20
1313.71
 42
0.0597743
 10
419.671
 20
1313.78
 42
0.0252082
 10
419.892
 20
1314.0
 42
0.00857827
 10
420.938
 20
1315.27
 42
-0.0933867
 10
423.707
 20
1317.81
 42
-0.281911
 10
426.623
 20
1317.88
 42
-0.0246368
 10
427.6489999999999
 20
1317.1
 42
0.0271691
 10
432.1419999999999
 20
1314.45
 42
-0.108469
 10
434.0939999999999
 20
1312.87
 42
-0.283615
 10
434.2480000000001
 20
1310.85
 42
-0.0631159
 10
433.339
 20
1309.47
 42
-0.122026
 10
427.4259999999999
 20
1305.53
 42
0.0360328
 10
422.107
 20
1303.15
 42
0.197759
  0
LWPOLYLINE
  5
7DB
330
22
100
AcDbEntity
  8
0
100
AcDbPolyline
 90
       23
 70
     1
 43
0.0
 10
591.101
 20
1316.43
 42
-0.0563617
 10
564.446
 20
1294.67
 42
-0.036898
 10
561.1619999999999
 20
1292.79
 42
-0.26596
 10
560.1419999999999
 20
1292.9
 42
-0.370255
 10
559.96
 20
1293.67
 42
-0.0408041
 10
561.37
 20
1295.78
 42
-0.0361291
 10
576.8049999999999
 20
1312.01
 42
0.782916
 10
568.489
 20
1329.3
 42
-0.0462875
 10
566.214
 20
1329.0
 42
-0.103219
 10
564.8099999999999
 20
1329.21
 42
-0.310708
 10
564.052
 20
1330.29
 42
-0.0947265
 10
564.2549999999999
 20
1331.4
 42
-0.0480661
 10
565.294
 20
1333.45
 10
569.2619999999999
 20
1339.21
 42
0.127143
 10
582.6419999999999
 20
1383.05
 42
-0.0386497
 10
583.211
 20
1389.62
 42
-0.100019
 10
583.7939999999999
 20
1391.23
 42
-0.174495
 10
584.3719999999999
 20
1391.71
 42
-0.190253
 10
585.139
 20
1391.61
 42
-0.0840733
 10
586.125
 20
1390.87
 42
-0.0555996
 10
588.879
 20
1387.09
 42
-0.232922
 10
591.7489999999999
 20
1355.7
 42
0.4496330000000001
 10
590.8189999999999
 20
1328.93
 42
-0.400524
  0
LWPOLYLINE
  5
7F4
330
22
100
AcDbEntity
  8
0
100
AcDbPolyline
 90
       13
 70
     1
 43
0.0
 10
263.161
 20
1337.08
 42
0.160919
 10
233.662
 20
1319.31
 42
-0.143161
 10
231.796
 20
1318.25
 42
-0.205098
 10
224.859
 20
1319.57
 42
-0.342332
 10
223.2
 20
1324.15
 42
-0.105018
 10
225.251
 20
1327.48
 42
-0.204936
 10
265.541
 20
1345.97
 10
267.77
 20
1345.98
 42
-0.0799076
 10
272.232
 20
1345.37
 42
-0.135392
 10
273.585
 20
1344.56
 42
-0.232564
 10
273.857
 20
1343.51
 42
-0.123982
 10
273.232
 20
1342.32
 42
-0.055813
 10
271.898
 20
1341.07
 42
-0.0978717
  0
LWPOLYLINE
  5
803
330
22
100
AcDbEntity
  8
0
100
AcDbPolyline
 90
       16
 70
     1
 43
0.0
 10
477.275
 20
1365.99
 42
-0.823564
 10
476.227
 20
1332.22
 42
-0.0170107
 10
471.2559999999999
 20
1331.37
 42
-0.0700438
 10
470.495
 20
1331.39
 42
-0.242525
 10
470.168
 20
1331.67
 42
-0.19499
 10
470.161
 20
1332.19
 42
-0.0591953
 10
470.6809999999999
 20
1333.08
 42
-0.0304999
 10
474.3619999999999
 20
1337.2
 42
0.5048970000000001
 10
470.3159999999999
 20
1361.8
 10
469.3369999999999
 20
1362.35
 42
-0.0857232
 10
468.17
 20
1363.32
 42
-0.0862994
 10
467.933
 20
1363.78
 42
-0.123106
 10
467.91
 20
1364.14
 42
-0.188808
 10
468.383
 20
1364.8
 42
-0.0733825
 10
469.4139999999999
 20
1365.32
 42
-0.0667678
 10
474.114
 20
1366.1
 42
-0.0617461
  0
LWPOLYLINE
  5
815
330
22
100
AcDbEntity
  8
0
100
AcDbPolyline
 90
       14
 70
     1
 43
0.0
 10
138.168
 20
1374.1
 42
0.38718
 10
164.47
 20
1374.51
 42
-0.383583
 10
164.606
 20
1374.51
 42
-0.0967707
 10
164.9
 20
1374.14
 42
-0.0375126
 10
165.491
 20
1372.58
 42
-0.0196103
 10
170.758
 20
1348.8
 42
-0.670118
 10
151.472
 20
1336.67
 42
-0.23645
 10
131.277
 20
1376.56
 10
131.316
 20
1377.99
 42
-0.0642631
 10
131.647
 20
1380.68
 42
-0.176542
 10
132.094
 20
1381.28
 42
-0.296242
 10
132.563
 20
1381.28
 10
132.872
 20
1381.02
 42
-0.0435996
 10
134.412
 20
1378.93
 42
0.0660857
  0
LWPOLYLINE
  5
825
330
22
100
AcDbEntity
  8
0
100
AcDbPolyline
 90
       15
 70
     1
 43
0.0
 10
546.696
 20
1408.98
 42
-0.333143
 10
547.391
 20
1366.83
 42
-0.0651096
 10
544.973
 20
1364.1
 42
-0.224914
 10
543.423
 20
1363.74
 42
-0.252194
 10
542.333
 20
1364.67
 42
-0.0639504
 10
541.832
 20
1367.16
 42
-0.0208759
 10
542.0209999999999
 20
1382.21
 42
0.0598204
 10
541.748
 20
1386.3
 10
541.476
 20
1387.06
 42
-0.0660346
 10
540.856
 20
1388.91
 42
-0.0428442
 10
539.9209999999999
 20
1397.59
 42
-0.0738776
 10
540.89
 20
1408.64
 42
-0.0988881
 10
541.948
 20
1410.77
 42
-0.252062
 10
543.46
 20
1411.47
 10
544.403
 20
1411.16
 42
-0.0986393
  0
LWPOLYLINE
  5
836
330
22
100
AcDbEntity
  8
0
100
AcDbPolyline
 90
       10
 70
     1
 43
0.0
 10
647.723
 20
1412.97
 42
-0.214148
 10
639.748
 20
1369.09
 42
-0.25634
 10
635.981
 20
1367.11
 42
-0.317809
 10
629.7659999999999
 20
1371.96
 42
-0.242275
 10
631.3200000000001
 20
1378.65
 42
0.213545
 10
638.4759999999999
 20
1410.84
 42
-0.0463468
 10
638.143
 20
1413.73
 42
-0.173437
 10
639.477
 20
1418.72
 42
-0.300579
 10
642.6619999999999
 20
1420.05
 42
-0.181865
 10
645.4969999999999
 20
1418.04
 42
-0.101521
  0
LWPOLYLINE
  5
842
330
22
100
AcDbEntity
  8
0
100
AcDbPolyline
 90
       14
 70
     1
 43
0.0
 10
599.995
 20
1475.96
 42
-0.610948
 10
609.927
 20
1405.74
 42
-0.0726548
 10
606.0249999999999
 20
1403.57
 42
-0.102718
 10
604.815
 20
1403.41
 42
-0.1958
 10
604.063
 20
1403.78
 42
-0.150887
 10
603.738
 20
1404.63
 42
-0.0820526
 10
603.993
 20
1406.72
 42
-0.059885
 10
607.5459999999999
 20
1414.37
 42
0.4018130000000001
 10
594.3599999999999
 20
1470.13
 42
-0.0680625
 10
589.4199999999999
 20
1474.08
 42
-0.100312
 10
588.5880000000001
 20
1475.45
 42
-0.213524
 10
588.6559999999999
 20
1476.45
 42
-0.1646
 10
589.483
 20
1477.11
 42
-0.0724665
 10
590.9249999999999
 20
1477.43
 42
-0.09776
  0
LWPOLYLINE
  5
852
330
22
100
AcDbEntity
  8
0
100
AcDbPolyline
 90
        7
 70
     1
 43
0.0
 10
516.705
 20
1457.55
 10
520.1569999999999
 20
1412.93
 42
0.537923
 10
520.1109999999999
 20
1412.96
 42
0.0880528
 10
519.913
 20
1412.81
 42
-0.046661
 10
518.557
 20
1411.45
 42
-0.28793
 10
514.0489999999999
 20
1410.71
 42
-0.111514
 10
510.777
 20
1413.16
 42
-0.4689670000000001
  0
LWPOLYLINE
  5
85B
330
22
100
AcDbEntity
  8
0
100
AcDbPolyline
 90
       17
 70
     1
 43
0.0
 10
297.659
 20
1483.04
 42
0.264958
 10
289.014
 20
1436.9
 10
289.1
 20
1436.33
 42
-0.242572
 10
288.564
 20
1435.49
 42
-0.108708
 10
287.271
 20
1435.08
 42
-0.0700837
 10
284.402
 20
1435.2
 42
-0.15864
 10
277.282
 20
1438.71
 42
-0.279197
 10
276.029
 20
1443.71
 42
0.0239944
 10
277.084
 20
1448.03
 42
0.00731453
 10
278.676
 20
1462.86
 42
-0.222459
 10
298.112
 20
1491.65
 10
299.68
 20
1492.54
 42
-0.0881908
 10
302.815
 20
1493.81
 42
-0.208016
 10
303.698
 20
1493.58
 42
-0.256018
 10
303.995
 20
1492.88
 10
303.871
 20
1492.3
 42
-0.0453932
 10
303.245
 20
1490.85
 42
-0.0455764
  0
LWPOLYLINE
  5
86E
330
22
100
AcDbEntity
  8
0
100
AcDbPolyline
 90
       26
 70
     1
 43
0.0
 10
488.8469999999999
 20
1488.79
 42
0.220453
 10
482.1130000000001
 20
1447.63
 42
-0.0710503
 10
482.193
 20
1446.83
 42
-0.0961277
 10
481.3619999999999
 20
1443.57
 42
-0.131875
 10
479.7139999999999
 20
1441.36
 42
-0.337443
 10
477.5069999999999
 20
1441.32
 42
-0.0821613
 10
476.533
 20
1442.28
 10
467.8759999999999
 20
1453.54
 42
-0.0270077
 10
460.609
 20
1464.14
 42
-0.125231
 10
459.783
 20
1466.82
 42
-0.258645
 10
481.033
 20
1510.0
 42
-0.0297453
 10
482.86
 20
1511.13
 42
-0.144102
 10
487.294
 20
1512.29
 42
-0.371129
 10
490.1269999999999
 20
1509.57
 42
-0.248645
 10
487.915
 20
1503.61
 42
-0.04281
 10
482.7329999999999
 20
1499.55
 42
0.0695234
 10
479.2069999999999
 20
1496.6
 42
0.108038
 10
478.614
 20
1495.49
 42
0.180163
 10
478.73
 20
1494.41
 42
0.217273
 10
480.805
 20
1492.9
 42
0.092336
 10
482.9439999999999
 20
1492.88
 42
0.057153
 10
488.7369999999999
 20
1494.88
 42
-0.0440582
 10
491.3909999999999
 20
1495.91
 42
-0.266073
 10
492.2019999999999
 20
1495.68
 42
-0.274975
 10
492.3939999999999
 20
1494.89
 10
492.004
 20
1493.94
 42
-0.0290704
  0
LWPOLYLINE
  5
88A
330
22
100
AcDbEntity
  8
0
100
AcDbPolyline
 90
       22
 70
     1
 43
0.0
 10
297.563
 20
1550.44
 42
0.106092
 10
267.142
 20
1518.49
 42
-0.30863
 10
261.151
 20
1515.81
 42
-0.4006750000000001
 10
257.411
 20
1520.37
 42
-0.135435
 10
259.213
 20
1524.99
 42
-0.215558
 10
308.835
 20
1557.92
 42
-0.285244
 10
341.486
 20
1545.75
 42
-0.0375595
 10
343.2580000000001
 20
1542.77
 42
-0.115382
 10
344.204
 20
1539.46
 42
-0.253526
 10
342.957
 20
1536.83
 42
-0.117451
 10
339.81
 20
1535.66
 42
-0.0331102
 10
332.8959999999999
 20
1535.32
 42
0.137547
 10
330.821
 20
1534.6
 42
0.0703178
 10
327.78
 20
1531.54
 42
-0.0419003
 10
325.171
 20
1528.48
 42
-0.0900181
 10
324.223
 20
1527.86
 42
-0.190706
 10
323.321
 20
1527.84
 42
-0.147938
 10
322.455
 20
1528.6
 42
-0.0508251
 10
321.146
 20
1531.28
 10
316.1090000000001
 20
1545.92
 42
0.0980879
 10
312.456
 20
1552.17
 42
0.287096
 10
304.77
 20
1554.03
 42
0.0785966
  0
LWPOLYLINE
  5
8A2
330
22
100
AcDbEntity
  8
0
100
AcDbPolyline
 90
       20
 70
     1
 43
0.0
 10
498.491
 20
1543.79
 10
498.6219999999999
 20
1540.29
 42
-0.0356502
 10
498.5289999999999
 20
1537.0
 42
-0.168492
 10
497.853
 20
1535.62
 42
-0.179071
 10
496.537
 20
1535.03
 42
-0.0344023
 10
493.514
 20
1535.13
 10
491.8429999999999
 20
1535.25
 42
-0.14678
 10
489.39
 20
1536.98
 10
488.675
 20
1538.42
 42
-0.0167583
 10
487.255
 20
1541.22
 10
486.6019999999999
 20
1542.69
 42
-0.126452
 10
486.624
 20
1545.94
 10
487.2269999999999
 20
1547.35
 42
-0.013183
 10
488.355
 20
1549.99
 10
488.912
 20
1550.83
 42
-0.21254
 10
490.5339999999999
 20
1551.46
 42
-0.0776471
 10
492.513
 20
1551.15
 42
-0.0806365
 10
494.2319999999999
 20
1550.27
 42
-0.0667605
 10
497.303
 20
1547.12
 42
-0.150022
 10
498.467
 20
1544.1
 42
-0.017666
  0
LWPOLYLINE
  5
8B8
330
22
100
AcDbEntity
  8
0
100
AcDbPolyline
 90
       16
 70
     1
 43
0.0
 10
512.581
 20
1574.47
 42
-0.6390510000000001
 10
541.8079999999999
 20
1559.39
 10
541.6469999999999
 20
1558.54
 42
-0.201656
 10
540.686
 20
1557.49
 42
-0.118028
 10
539.0349999999999
 20
1557.22
 42
-0.0566806
 10
536.888
 20
1557.57
 42
-0.0996811
 10
526.355
 20
1563.35
 42
-0.0968606
 10
524.58
 20
1565.39
 42
0.0743965
 10
523.7219999999999
 20
1566.6
 42
0.119805
 10
522.94
 20
1567.09
 42
0.0381
 10
519.706
 20
1567.76
 42
-0.0333784
 10
512.187
 20
1569.0
 42
-0.0824235
 10
510.5339999999999
 20
1569.75
 10
510.0459999999999
 20
1570.25
 42
-0.249904
 10
509.9459999999999
 20
1571.56
 10
510.413
 20
1572.39
 42
-0.0665437
  0
LWPOLYLINE
  5
8CA
330
22
100
AcDbEntity
  8
0
100
AcDbPolyline
 90
       11
 70
     1
 43
0.0
 10
300.368
 20
1594.0
 10
238.744
 20
1572.23
 10
239.65
 20
1572.53
 42
-0.116356
 10
240.211
 20
1572.55
 42
-0.603266
 10
240.253
 20
1572.41
 10
239.314
 20
1571.74
 42
-0.0378803
 10
233.759
 20
1568.89
 42
-0.0672961
 10
231.526
 20
1568.16
 42
-0.292837
 10
231.165
 20
1568.33
 42
-0.295304
 10
231.172
 20
1568.73
 42
-0.0563318
 10
232.542
 20
1570.15
 42
-0.195542
  0
LWPOLYLINE
  5
8D7
330
22
100
AcDbEntity
  8
0
100
AcDbPolyline
 90
       21
 70
     1
 43
0.0
 10
448.2369999999999
 20
1598.34
 42
0.6097850000000001
 10
425.769
 20
1591.52
 10
425.5399999999999
 20
1590.72
 42
-0.251474
 10
424.22
 20
1589.48
 42
-0.109984
 10
422.9409999999999
 20
1589.46
 42
-0.0698332
 10
420.678
 20
1590.31
 42
-0.0636349
 10
414.064
 20
1595.38
 42
0.263557
 10
381.391
 20
1605.16
 10
380.479
 20
1605.0
 42
-0.18342
 10
379.566
 20
1605.24
 42
-0.345554
 10
379.414
 20
1605.76
 10
379.672
 20
1606.23
 42
-0.0421731
 10
380.647
 20
1607.38
 42
-0.0437286
 10
389.162
 20
1614.14
 42
-0.476978
 10
424.9169999999999
 20
1600.14
 42
-0.4842470000000001
 10
463.2069999999999
 20
1603.16
 10
464.161
 20
1601.98
 42
-0.110434
 10
465.0789999999999
 20
1599.88
 42
-0.15366
 10
464.853
 20
1598.15
 42
-0.157163
 10
462.8379999999999
 20
1596.25
 42
-0.118718
 10
456.782
 20
1595.15
 42
-0.189144
  0
ENDSEC
  0
SECTION
  2
OBJECTS
  0
DICTIONARY
  5
C
330
0
100
AcDbDictionary
281
     1
  3
ACAD_COLOR
350
1B
  3
ACAD_GROUP
350
D
  3
ACAD_LAYOUT
350
19
  3
ACAD_MATERIAL
350
1A
  3
ACAD_MLINESTYLE
350
16
  3
ACAD_PLOTSETTINGS
350
18
  3
ACAD_PLOTSTYLENAME
350
E
  3
ACAD_TABLESTYLE
350
1C
  3
AcDbVariableDictionary
350
8F2
  0
DICTIONARY
  5
1B
102
{ACAD_REACTORS
330
C
102
}
330
C
100
AcDbDictionary
281
     1
  0
DICTIONARY
  5
D
102
{ACAD_REACTORS
330
C
102
}
330
C
100
AcDbDictionary
281
     1
  0
DICTIONARY
  5
19
102
{ACAD_REACTORS
330
C
102
}
330
C
100
AcDbDictionary
281
     1
  3
Layout1
350
21
  3
Model
350
25
  0
DICTIONARY
  5
1A
102
{ACAD_REACTORS
330
C
102
}
330
C
100
AcDbDictionary
281
     1
  0
DICTIONARY
  5
16
102
{ACAD_REACTORS
330
C
102
}
330
C
100
AcDbDictionary
281
     1
  3
Standard
350
17
  0
DICTIONARY
  5
18
102
{ACAD_REACTORS
330
C
102
}
330
C
100
AcDbDictionary
281
     1
  0
ACDBDICTIONARYWDFLT
  5
E
102
{ACAD_REACTORS
330
C
102
}
330
C
100
AcDbDictionary
281
     1
  3
Normal
350
F
100
AcDbDictionaryWithDefault
340
F
  0
DICTIONARY
  5
1C
102
{ACAD_REACTORS
330
C
102
}
330
C
100
AcDbDictionary
281
     1
  3
Standard
350
1D
  0
DICTIONARY
  5
8F2
102
{ACAD_REACTORS
330
C
102
}
330
C
100
AcDbDictionary
281
     1
  3
CTABLESTYLE
350
8F3
  0
LAYOUT
  5
21
102
{ACAD_REACTORS
330
19
102
}
330
19
100
AcDbPlotSettings
  1

  2
Samsung ML-2010 Series
  4

  6

 40
0.0
 41
0.0
 42
0.0
 43
0.0
 44
0.0
 45
0.0
 46
0.0
 47
0.0
 48
0.0
 49
0.0
140
0.0
141
0.0
142
1.0
143
1.0
 70
   688
 72
     0
 73
     0
 74
     5
  7
Samsung ML-2010 Series
 75
    16
147
1.0
 76
     0
 77
     2
 78
   300
148
0.0
149
0.0
100
AcDbLayout
  1
Layout1
 70
     1
 71
     1
 10
0.0
 20
0.0
 11
12.0
 21
9.0
 12
0.0
 22
0.0
 32
0.0
 14
1.000000000000000E+20
 24
1.000000000000000E+20
 34
1.000000000000000E+20
 15
-1.000000000000000E+20
 25
-1.000000000000000E+20
 35
-1.000000000000000E+20
146
0.0
 13
0.0
 23
0.0
 33
0.0
 16
1.0
 26
0.0
 36
0.0
 17
0.0
 27
1.0
 37
0.0
 76
     0
330
1E
  0
LAYOUT
  5
25
102
{ACAD_REACTORS
330
19
102
}
330
19
100
AcDbPlotSettings
  1

  2
Samsung ML-2010 Series
  4

  6

 40
0.0
 41
0.0
 42
0.0
 43
0.0
 44
0.0
 45
0.0
 46
0.0
 47
0.0
 48
0.0
 49
0.0
140
0.0
141
0.0
142
1.0
143
1.0
 70
  1712
 72
     0
 73
     0
 74
     0
  7
Samsung ML-2010 Series
 75
     0
147
1.0
 76
     0
 77
     2
 78
   300
148
0.0
149
0.0
100
AcDbLayout
  1
Model
 70
     1
 71
     0
 10
0.0
 20
0.0
 11
12.0
 21
9.0
 12
0.0
 22
0.0
 32
0.0
 14
0.0
 24
0.0
 34
0.0
 15
0.0
 25
0.0
 35
0.0
146
0.0
 13
0.0
 23
0.0
 33
0.0
 16
1.0
 26
0.0
 36
0.0
 17
0.0
 27
1.0
 37
0.0
 76
     0
330
22
  0
MLINESTYLE
  5
17
102
{ACAD_REACTORS
330
16
102
}
330
16
100
AcDbMlineStyle
  2
STANDARD
 70
     0
  3

 62
   256
 51
90.0
 52
90.0
 71
     2
 49
0.5
 62
   256
  6
BYLAYER
 49
-0.5
 62
   256
  6
BYLAYER
  0
ACDBPLACEHOLDER
  5
F
102
{ACAD_REACTORS
330
E
102
}
330
E
  0
TABLESTYLE
  5
1D
102
{ACAD_REACTORS
330
1C
102
}
330
1C
100
AcDbTableStyle
  3
Standard
 70
     0
 71
     0
 40
0.06
 41
0.06
280
     0
281
     0
  7
Standard
140
0.18
170
     2
 62
     0
 63
     7
283
     0
274
    -2
284
     1
 64
     0
275
    -2
285
     1
 65
     0
276
    -2
286
     1
 66
     0
277
    -2
287
     1
 67
     0
278
    -2
288
     1
 68
     0
279
    -2
289
     1
 69
     0
  7
Standard
140
0.25
170
     5
 62
     0
 63
     7
283
     0
274
    -2
284
     1
 64
     0
275
    -2
285
     1
 65
     0
276
    -2
286
     1
 66
     0
277
    -2
287
     1
 67
     0
278
    -2
288
     1
 68
     0
279
    -2
289
     1
 69
     0
  7
Standard
140
0.18
170
     5
 62
     0
 63
     7
283
     0
274
    -2
284
     1
 64
     0
275
    -2
285
     1
 65
     0
276
    -2
286
     1
 66
     0
277
    -2
287
     1
 67
     0
278
    -2
288
     1
 68
     0
279
    -2
289
     1
 69
     0
  0
DICTIONARYVAR
  5
8F3
102
{ACAD_REACTORS
330
8F2
102
}
330
8F2
100
DictionaryVariables
280
     0
  1
STANDARD
  0
ENDSEC
  0
EOF
