  0
SECTION
  2
HEADER
  9
$ACADVER
  1
AC1006
  9
$EXTMIN
 10
0.000000
 20
0.000000
 30
0.000000
  9
$EXTMAX
 10
322.000000
 20
357.000000
 30
0.000000
  0
ENDSEC
  0
SECTION
  2
ENTITIES
  0
POLYLINE
  8
0
 66
1
 70
1
  0
VERTEX
  8
0
 10
0.000000
 20
178.500000
 42
0.000000
  0
VERTEX
  8
0
 10
0.000000
 20
0.000000
 42
0.000000
  0
VERTEX
  8
0
 10
161.000000
 20
0.000000
 42
0.000000
  0
VERTEX
  8
0
 10
322.000000
 20
0.000000
 42
0.000000
  0
VERTEX
  8
0
 10
322.000000
 20
178.500000
 42
0.000000
  0
VERTEX
  8
0
 10
322.000000
 20
357.000000
 42
0.000000
  0
VERTEX
  8
0
 10
161.000000
 20
357.000000
 42
0.000000
  0
VERTEX
  8
0
 10
0.000000
 20
357.000000
 42
0.000000
  0
SEQEND
  0
POLYLINE
  8
0
 66
1
 70
1
  0
VERTEX
  8
0
 10
318.000000
 20
177.500000
 42
0.000000
  0
VERTEX
  8
0
 10
318.000000
 20
1.000000
 42
0.000000
  0
VERTEX
  8
0
 10
160.500000
 20
1.000000
 42
0.000000
  0
VERTEX
  8
0
 10
3.000000
 20
1.000000
 42
0.000000
  0
VERTEX
  8
0
 10
3.000000
 20
177.500000
 42
0.000000
  0
VERTEX
  8
0
 10
3.000000
 20
354.000000
 42
0.000000
  0
VERTEX
  8
0
 10
160.500000
 20
354.000000
 42
0.000000
  0
VERTEX
  8
0
 10
318.000000
 20
354.000000
 42
0.000000
  0
SEQEND
  0
POLYLINE
  8
0
 66
1
 70
1
  0
VERTEX
  8
0
 10
147.000000
 20
349.953361
 42
0.031367
  0
VERTEX
  8
0
 10
137.682138
 20
345.932498
 42
0.038374
  0
VERTEX
  8
0
 10
129.579986
 20
341.000550
 42
0.039816
  0
VERTEX
  8
0
 10
122.573208
 20
335.061496
 42
0.038737
  0
VERTEX
  8
0
 10
116.526008
 20
328.035430
 42
0.040304
  0
VERTEX
  8
0
 10
113.589306
 20
323.274030
 42
0.020934
  0
VERTEX
  8
0
 10
110.675025
 20
316.923504
 42
0.012318
  0
VERTEX
  8
0
 10
108.294648
 20
310.670444
 42
0.291064
  0
VERTEX
  8
0
 10
108.701550
 20
308.911840
 42
0.289221
  0
VERTEX
  8
0
 10
110.464303
 20
308.528995
 42
0.031467
  0
VERTEX
  8
0
 10
114.450226
 20
310.271487
 42
0.033695
  0
VERTEX
  8
0
 10
118.245680
 20
312.559010
 42
0.180711
  0
VERTEX
  8
0
 10
119.592718
 20
314.513396
 42
-0.107749
  0
VERTEX
  8
0
 10
121.028327
 20
317.406811
 42
-0.051625
  0
VERTEX
  8
0
 10
123.954887
 20
320.374605
 42
-0.050497
  0
VERTEX
  8
0
 10
127.572296
 20
322.787900
 42
-0.076788
  0
VERTEX
  8
0
 10
131.134792
 20
324.024648
 42
-0.107770
  0
VERTEX
  8
0
 10
137.360364
 20
323.813848
 42
-0.120538
  0
VERTEX
  8
0
 10
142.650508
 20
321.002481
 42
-0.116236
  0
VERTEX
  8
0
 10
146.176912
 20
315.967334
 42
-0.095300
  0
VERTEX
  8
0
 10
147.417400
 20
309.500000
 42
-0.104793
  0
VERTEX
  8
0
 10
145.879296
 20
302.260385
 42
-0.047316
  0
VERTEX
  8
0
 10
141.095460
 20
293.762559
 42
-0.046019
  0
VERTEX
  8
0
 10
134.440746
 20
285.849995
 42
-0.065036
  0
VERTEX
  8
0
 10
127.116888
 20
280.286180
 42
0.000667
  0
VERTEX
  8
0
 10
125.324192
 20
279.257096
 42
0.000998
  0
VERTEX
  8
0
 10
123.761113
 20
278.352890
 42
0.000405
  0
VERTEX
  8
0
 10
122.423024
 20
277.573815
 42
0.021955
  0
VERTEX
  8
0
 10
122.176264
 20
277.414965
 42
0.385349
  0
VERTEX
  8
0
 10
121.954750
 20
276.421132
 42
0.029903
  0
VERTEX
  8
0
 10
123.570262
 20
273.934291
 42
0.031082
  0
VERTEX
  8
0
 10
125.537219
 20
271.589746
 42
0.205473
  0
VERTEX
  8
0
 10
126.911727
 20
271.000000
 42
0.140561
  0
VERTEX
  8
0
 10
130.168878
 20
271.934112
 42
0.023219
  0
VERTEX
  8
0
 10
135.599718
 20
275.689663
 42
0.026278
  0
VERTEX
  8
0
 10
141.138390
 20
280.392701
 42
0.038513
  0
VERTEX
  8
0
 10
145.433945
 20
285.122914
 42
0.027360
  0
VERTEX
  8
0
 10
149.692792
 20
291.274061
 42
0.030869
  0
VERTEX
  8
0
 10
153.069200
 20
297.617010
 42
0.030781
  0
VERTEX
  8
0
 10
155.646575
 20
304.343794
 42
0.026909
  0
VERTEX
  8
0
 10
157.514780
 20
311.643508
 42
0.016777
  0
VERTEX
  8
0
 10
158.351255
 20
316.723502
 42
0.030157
  0
VERTEX
  8
0
 10
158.643859
 20
320.935924
 42
0.020982
  0
VERTEX
  8
0
 10
158.475025
 20
326.065441
 42
0.004438
  0
VERTEX
  8
0
 10
157.726180
 20
334.987343
 42
0.004874
  0
VERTEX
  8
0
 10
156.996928
 20
342.086691
 42
0.015331
  0
VERTEX
  8
0
 10
156.315461
 20
346.827419
 42
0.016397
  0
VERTEX
  8
0
 10
155.639523
 20
350.058575
 42
0.194239
  0
VERTEX
  8
0
 10
154.907189
 20
351.078522
 42
0.049194
  0
VERTEX
  8
0
 10
153.673771
 20
351.698978
 42
0.127970
  0
VERTEX
  8
0
 10
152.693879
 20
351.810387
 42
0.048299
  0
VERTEX
  8
0
 10
151.302418
 20
351.473013
 42
0.002569
  0
SEQEND
  0
POLYLINE
  8
0
 66
1
 70
1
  0
VERTEX
  8
0
 10
164.616760
 20
349.443676
 42
0.072509
  0
VERTEX
  8
0
 10
164.357125
 20
348.291515
 42
0.002177
  0
VERTEX
  8
0
 10
163.999239
 20
343.365607
 42
0.004281
  0
VERTEX
  8
0
 10
163.651867
 20
337.545155
 42
0.002939
  0
VERTEX
  8
0
 10
163.353208
 20
330.937852
 42
0.003752
  0
VERTEX
  8
0
 10
163.046810
 20
321.302583
 42
0.018611
  0
VERTEX
  8
0
 10
163.116911
 20
315.882256
 42
0.031204
  0
VERTEX
  8
0
 10
163.564606
 20
311.920887
 42
0.029778
  0
VERTEX
  8
0
 10
164.505385
 20
307.982216
 42
0.017489
  0
VERTEX
  8
0
 10
166.154397
 20
303.151788
 42
0.117232
  0
VERTEX
  8
0
 10
167.570828
 20
301.069569
 42
0.249771
  0
VERTEX
  8
0
 10
169.221308
 20
300.647212
 42
0.097932
  0
VERTEX
  8
0
 10
171.420754
 20
301.667243
 42
0.054872
  0
VERTEX
  8
0
 10
172.740992
 20
302.870607
 42
0.095936
  0
VERTEX
  8
0
 10
173.487417
 20
304.142341
 42
0.067217
  0
VERTEX
  8
0
 10
173.854088
 20
305.903743
 42
0.016293
  0
VERTEX
  8
0
 10
173.968575
 20
308.881966
 42
-0.083236
  0
VERTEX
  8
0
 10
175.099619
 20
315.395596
 42
-0.115354
  0
VERTEX
  8
0
 10
178.275133
 20
320.374902
 42
-0.121985
  0
VERTEX
  8
0
 10
183.175003
 20
323.249924
 42
-0.100358
  0
VERTEX
  8
0
 10
189.231822
 20
323.783117
 42
-0.054471
  0
VERTEX
  8
0
 10
193.201137
 20
322.891015
 42
-0.080651
  0
VERTEX
  8
0
 10
196.340588
 20
321.212982
 42
-0.073649
  0
VERTEX
  8
0
 10
198.980028
 20
318.501559
 42
-0.038148
  0
VERTEX
  8
0
 10
201.451179
 20
314.458820
 42
-0.057052
  0
VERTEX
  8
0
 10
203.954005
 20
307.777415
 42
-0.049003
  0
VERTEX
  8
0
 10
205.050315
 20
300.348119
 42
-0.045351
  0
VERTEX
  8
0
 10
204.711660
 20
292.300933
 42
-0.036040
  0
VERTEX
  8
0
 10
202.942672
 20
283.782142
 42
0.010311
  0
VERTEX
  8
0
 10
202.461518
 20
281.945176
 42
0.015770
  0
VERTEX
  8
0
 10
202.127931
 20
280.332806
 42
0.010280
  0
VERTEX
  8
0
 10
201.924654
 20
279.005036
 42
0.248652
  0
VERTEX
  8
0
 10
202.051192
 20
278.664802
 42
0.111442
  0
VERTEX
  8
0
 10
202.388565
 20
278.478145
 42
0.007704
  0
VERTEX
  8
0
 10
203.444136
 20
278.188314
 42
0.010662
  0
VERTEX
  8
0
 10
204.727142
 20
277.886232
 42
0.007802
  0
VERTEX
  8
0
 10
206.162887
 20
277.603689
 42
0.022215
  0
VERTEX
  8
0
 10
208.446042
 20
277.295249
 42
0.165357
  0
VERTEX
  8
0
 10
209.495288
 20
277.549672
 42
0.154180
  0
VERTEX
  8
0
 10
210.209976
 20
278.399547
 42
0.018597
  0
VERTEX
  8
0
 10
211.073379
 20
280.721029
 42
0.051390
  0
VERTEX
  8
0
 10
212.201908
 20
285.859588
 42
0.013438
  0
VERTEX
  8
0
 10
212.933327
 20
294.282103
 42
0.014024
  0
VERTEX
  8
0
 10
213.205598
 20
302.866993
 42
0.039025
  0
VERTEX
  8
0
 10
212.757801
 20
308.878654
 42
0.077347
  0
VERTEX
  8
0
 10
208.857791
 20
321.191428
 42
0.066481
  0
VERTEX
  8
0
 10
201.249097
 20
332.459882
 42
0.063186
  0
VERTEX
  8
0
 10
190.529675
 20
341.822265
 42
0.057996
  0
VERTEX
  8
0
 10
177.507239
 20
348.533496
 42
0.020443
  0
VERTEX
  8
0
 10
172.394730
 20
350.222718
 42
0.051983
  0
VERTEX
  8
0
 10
168.550721
 20
350.899852
 42
0.084783
  0
VERTEX
  8
0
 10
165.938648
 20
350.641281
 42
0.238514
  0
SEQEND
  0
POLYLINE
  8
0
 66
1
 70
1
  0
VERTEX
  8
0
 10
78.149790
 20
311.523957
 42
0.015370
  0
VERTEX
  8
0
 10
72.063418
 20
308.795288
 42
0.034989
  0
VERTEX
  8
0
 10
67.699522
 20
306.284231
 42
0.034108
  0
VERTEX
  8
0
 10
63.662430
 20
303.149167
 42
0.013939
  0
VERTEX
  8
0
 10
58.608230
 20
298.380355
 42
0.026524
  0
VERTEX
  8
0
 10
55.338975
 20
294.753076
 42
0.040633
  0
VERTEX
  8
0
 10
52.953210
 20
291.260380
 42
0.048190
  0
VERTEX
  8
0
 10
51.485437
 20
287.988996
 42
0.081540
  0
VERTEX
  8
0
 10
51.000000
 20
285.032119
 42
0.091042
  0
VERTEX
  8
0
 10
51.191587
 20
283.988648
 42
0.185840
  0
VERTEX
  8
0
 10
51.738938
 20
283.377828
 42
0.101022
  0
VERTEX
  8
0
 10
52.827253
 20
283.075109
 42
0.017486
  0
VERTEX
  8
0
 10
54.974320
 20
283.000000
 42
0.026766
  0
VERTEX
  8
0
 10
57.158678
 20
283.117017
 42
0.094769
  0
VERTEX
  8
0
 10
58.495575
 20
283.524733
 42
0.109879
  0
VERTEX
  8
0
 10
59.479494
 20
284.359999
 42
0.042727
  0
VERTEX
  8
0
 10
60.437335
 20
285.878819
 42
-0.054533
  0
VERTEX
  8
0
 10
61.825030
 20
287.968474
 42
-0.106321
  0
VERTEX
  8
0
 10
63.393705
 20
289.195467
 42
-0.086121
  0
VERTEX
  8
0
 10
65.554985
 20
289.817233
 42
-0.027082
  0
VERTEX
  8
0
 10
68.926800
 20
290.000000
 42
-0.143614
  0
VERTEX
  8
0
 10
73.207701
 20
288.744509
 42
-0.131183
  0
VERTEX
  8
0
 10
76.312088
 20
285.340302
 42
-0.117657
  0
VERTEX
  8
0
 10
77.515549
 20
280.511577
 42
-0.101799
  0
VERTEX
  8
0
 10
76.512426
 20
275.375498
 42
-0.053945
  0
VERTEX
  8
0
 10
74.057194
 20
270.919062
 42
-0.016758
  0
VERTEX
  8
0
 10
69.454228
 20
264.799170
 42
-0.009935
  0
VERTEX
  8
0
 10
64.511374
 20
258.909881
 42
-0.216459
  0
VERTEX
  8
0
 10
62.508107
 20
258.000000
 42
-0.296970
  0
VERTEX
  8
0
 10
61.705505
 20
258.522805
 42
-0.007444
  0
VERTEX
  8
0
 10
59.922392
 20
262.726084
 42
-0.013578
  0
VERTEX
  8
0
 10
58.374171
 20
266.849696
 42
-0.083194
  0
VERTEX
  8
0
 10
58.000000
 20
269.082905
 42
0.105431
  0
VERTEX
  8
0
 10
57.794346
 20
270.047369
 42
0.178545
  0
VERTEX
  8
0
 10
57.224285
 20
270.631114
 42
0.093785
  0
VERTEX
  8
0
 10
56.103921
 20
270.925400
 42
0.017463
  0
VERTEX
  8
0
 10
53.968615
 20
271.000000
 42
0.063973
  0
VERTEX
  8
0
 10
50.850540
 20
270.599414
 42
0.254055
  0
VERTEX
  8
0
 10
49.490102
 20
269.324066
 42
0.143519
  0
VERTEX
  8
0
 10
49.404131
 20
266.868487
 42
0.018519
  0
VERTEX
  8
0
 10
50.909345
 20
261.771047
 42
0.040785
  0
VERTEX
  8
0
 10
53.196419
 20
256.446241
 42
0.016389
  0
VERTEX
  8
0
 10
57.135711
 20
249.565924
 42
0.008512
  0
VERTEX
  8
0
 10
61.395486
 20
242.916954
 42
0.251082
  0
VERTEX
  8
0
 10
63.106376
 20
242.000000
 42
-0.330168
  0
VERTEX
  8
0
 10
63.805683
 20
241.481725
 42
-0.161597
  0
VERTEX
  8
0
 10
63.776141
 20
240.310766
 42
-0.065844
  0
VERTEX
  8
0
 10
62.795108
 20
238.413169
 42
-0.024657
  0
VERTEX
  8
0
 10
60.959359
 20
236.037774
 42
0.010428
  0
VERTEX
  8
0
 10
59.825800
 20
234.654191
 42
0.014323
  0
VERTEX
  8
0
 10
58.869312
 20
233.361169
 42
0.010974
  0
VERTEX
  8
0
 10
58.136138
 20
232.257352
 42
0.142033
  0
VERTEX
  8
0
 10
58.000000
 20
231.787774
 42
0.336562
  0
VERTEX
  8
0
 10
58.234190
 20
231.479269
 42
0.025037
  0
VERTEX
  8
0
 10
59.331667
 20
231.231409
 42
0.026679
  0
VERTEX
  8
0
 10
60.795506
 20
231.056816
 42
0.016342
  0
VERTEX
  8
0
 10
62.533333
 20
231.000000
 42
0.029716
  0
VERTEX
  8
0
 10
65.096094
 20
231.152445
 42
0.074515
  0
VERTEX
  8
0
 10
66.897655
 20
231.646359
 42
0.069285
  0
VERTEX
  8
0
 10
68.551164
 20
232.670829
 42
0.023094
  0
VERTEX
  8
0
 10
70.660321
 20
234.593654
 42
-0.020445
  0
VERTEX
  8
0
 10
72.425508
 20
236.220102
 42
-0.009907
  0
VERTEX
  8
0
 10
74.805374
 20
238.159680
 42
-0.009808
  0
VERTEX
  8
0
 10
77.367523
 20
240.084844
 42
-0.013920
  0
VERTEX
  8
0
 10
79.724733
 20
241.686910
 42
0.000000
  0
VERTEX
  8
0
 10
85.195492
 20
245.186512
 42
0.000000
  0
VERTEX
  8
0
 10
82.410655
 20
248.093256
 42
0.015425
  0
VERTEX
  8
0
 10
81.276295
 20
249.206416
 42
0.020258
  0
VERTEX
  8
0
 10
80.170990
 20
250.146144
 42
0.018184
  0
VERTEX
  8
0
 10
79.209497
 20
250.843851
 42
0.148929
  0
VERTEX
  8
0
 10
78.696886
 20
251.000000
 42
0.131412
  0
VERTEX
  8
0
 10
78.118880
 20
250.845417
 42
0.007975
  0
VERTEX
  8
0
 10
76.567083
 20
249.918172
 42
0.011467
  0
VERTEX
  8
0
 10
74.740461
 20
248.727985
 42
0.008203
  0
VERTEX
  8
0
 10
72.750952
 20
247.317182
 42
-0.006343
  0
VERTEX
  8
0
 10
70.265112
 20
245.540488
 42
-0.054527
  0
VERTEX
  8
0
 10
69.067911
 20
244.888147
 42
-0.484852
  0
VERTEX
  8
0
 10
68.737609
 20
245.074184
 42
-0.163005
  0
VERTEX
  8
0
 10
68.845962
 20
245.712177
 42
0.036631
  0
VERTEX
  8
0
 10
69.327284
 20
246.795317
 42
0.108634
  0
VERTEX
  8
0
 10
69.430904
 20
247.597142
 42
0.131962
  0
VERTEX
  8
0
 10
69.183128
 20
248.275278
 42
0.066437
  0
VERTEX
  8
0
 10
68.560645
 20
248.949669
 42
-0.181968
  0
VERTEX
  8
0
 10
68.105886
 20
249.747480
 42
-0.172429
  0
VERTEX
  8
0
 10
68.276769
 20
250.668640
 42
-0.065204
  0
VERTEX
  8
0
 10
69.271298
 20
251.962998
 42
-0.010179
  0
VERTEX
  8
0
 10
71.601260
 20
254.200103
 42
0.042669
  0
VERTEX
  8
0
 10
75.542645
 20
258.509736
 42
0.018776
  0
VERTEX
  8
0
 10
80.023666
 20
264.813603
 42
0.017693
  0
VERTEX
  8
0
 10
83.903398
 20
271.212756
 42
0.069671
  0
VERTEX
  8
0
 10
85.568875
 20
275.500000
 42
-0.014000
  0
VERTEX
  8
0
 10
85.893145
 20
276.721863
 42
-0.014386
  0
VERTEX
  8
0
 10
86.282666
 20
277.912500
 42
-0.014257
  0
VERTEX
  8
0
 10
86.678870
 20
278.923610
 42
-0.057272
  0
VERTEX
  8
0
 10
87.006133
 20
279.500000
 42
0.130066
  0
VERTEX
  8
0
 10
88.751102
 20
283.970637
 42
0.010221
  0
VERTEX
  8
0
 10
89.947919
 20
296.801033
 42
0.009534
  0
VERTEX
  8
0
 10
90.640443
 20
309.732800
 42
0.148070
  0
VERTEX
  8
0
 10
89.512688
 20
313.979470
 42
0.201858
  0
VERTEX
  8
0
 10
88.466099
 20
314.724839
 42
0.108757
  0
VERTEX
  8
0
 10
86.855382
 20
314.731017
 42
0.039594
  0
VERTEX
  8
0
 10
84.059350
 20
313.890630
 42
0.004900
  0
SEQEND
  0
POLYLINE
  8
0
 66
1
 70
1
  0
VERTEX
  8
0
 10
229.858207
 20
312.377229
 42
0.024530
  0
VERTEX
  8
0
 10
229.717504
 20
307.036605
 42
0.011581
  0
VERTEX
  8
0
 10
230.033780
 20
300.146772
 42
0.011580
  0
VERTEX
  8
0
 10
230.668577
 20
293.280836
 42
0.024600
  0
VERTEX
  8
0
 10
231.542544
 20
288.017423
 42
0.020480
  0
VERTEX
  8
0
 10
232.859388
 20
282.959326
 42
0.014337
  0
VERTEX
  8
0
 10
234.736438
 20
277.375977
 42
0.013417
  0
VERTEX
  8
0
 10
236.742084
 20
272.351872
 42
0.056239
  0
VERTEX
  8
0
 10
238.352919
 20
269.532032
 42
0.031608
  0
VERTEX
  8
0
 10
239.247393
 20
268.458288
 42
0.210048
  0
VERTEX
  8
0
 10
239.874712
 20
268.193832
 42
0.142763
  0
VERTEX
  8
0
 10
240.634345
 20
268.427753
 42
0.012455
  0
VERTEX
  8
0
 10
242.309727
 20
269.591849
 42
0.036221
  0
VERTEX
  8
0
 10
244.442394
 20
271.404876
 42
0.136390
  0
VERTEX
  8
0
 10
245.310126
 20
272.910909
 42
0.120779
  0
VERTEX
  8
0
 10
245.330795
 20
274.754244
 42
0.025658
  0
VERTEX
  8
0
 10
244.435555
 20
277.861844
 42
-0.020395
  0
VERTEX
  8
0
 10
243.782063
 20
280.043709
 42
-0.054064
  0
VERTEX
  8
0
 10
243.551602
 20
281.653430
 42
-0.067280
  0
VERTEX
  8
0
 10
243.692916
 20
283.059336
 42
-0.048285
  0
VERTEX
  8
0
 10
244.206719
 20
284.554354
 42
-0.090346
  0
VERTEX
  8
0
 10
245.611575
 20
286.574148
 42
-0.057742
  0
VERTEX
  8
0
 10
247.863325
 20
288.348992
 42
-0.057080
  0
VERTEX
  8
0
 10
250.498561
 20
289.583552
 42
-0.081198
  0
VERTEX
  8
0
 10
253.046048
 20
290.000000
 42
-0.093079
  0
VERTEX
  8
0
 10
255.542186
 20
289.531264
 42
-0.054339
  0
VERTEX
  8
0
 10
258.251604
 20
288.121346
 42
-0.054445
  0
VERTEX
  8
0
 10
260.585505
 20
286.166793
 42
-0.095491
  0
VERTEX
  8
0
 10
261.949495
 20
284.059429
 42
-0.077320
  0
VERTEX
  8
0
 10
263.098531
 20
279.145419
 42
-0.033058
  0
VERTEX
  8
0
 10
263.161288
 20
272.380618
 42
-0.032956
  0
VERTEX
  8
0
 10
262.303573
 20
265.425593
 42
-0.055607
  0
VERTEX
  8
0
 10
260.570709
 20
259.817593
 42
0.118153
  0
VERTEX
  8
0
 10
260.413660
 20
258.932330
 42
0.144371
  0
VERTEX
  8
0
 10
260.698016
 20
258.144541
 42
0.089247
  0
VERTEX
  8
0
 10
261.512482
 20
257.371030
 42
0.026091
  0
VERTEX
  8
0
 10
263.009206
 20
256.495239
 42
0.027752
  0
VERTEX
  8
0
 10
264.322780
 20
255.905860
 42
0.030952
  0
VERTEX
  8
0
 10
265.647121
 20
255.489822
 42
0.032516
  0
VERTEX
  8
0
 10
266.804963
 20
255.282129
 42
0.120298
  0
VERTEX
  8
0
 10
267.536015
 20
255.375447
 42
0.255855
  0
VERTEX
  8
0
 10
270.122921
 20
258.425468
 42
0.026282
  0
VERTEX
  8
0
 10
271.584648
 20
268.103087
 42
0.032126
  0
VERTEX
  8
0
 10
271.927003
 20
278.433658
 42
0.077174
  0
VERTEX
  8
0
 10
270.521136
 20
285.940093
 42
0.093994
  0
VERTEX
  8
0
 10
265.296151
 20
294.927157
 42
0.048658
  0
VERTEX
  8
0
 10
255.841272
 20
303.904511
 42
0.048641
  0
VERTEX
  8
0
 10
244.820024
 20
310.892092
 42
0.093282
  0
VERTEX
  8
0
 10
234.799518
 20
313.793286
 42
0.011233
  0
VERTEX
  8
0
 10
232.097130
 20
313.991802
 42
0.082677
  0
VERTEX
  8
0
 10
230.815710
 20
313.844933
 42
0.192361
  0
VERTEX
  8
0
 10
230.158306
 20
313.335588
 42
0.114535
  0
SEQEND
  0
POLYLINE
  8
0
 66
1
 70
1
  0
VERTEX
  8
0
 10
115.000000
 20
308.812312
 42
0.064916
  0
VERTEX
  8
0
 10
105.242481
 20
303.585687
 42
0.083803
  0
VERTEX
  8
0
 10
98.090112
 20
296.387017
 42
0.076396
  0
VERTEX
  8
0
 10
93.257097
 20
286.692273
 42
0.044550
  0
VERTEX
  8
0
 10
90.404308
 20
273.990171
 42
0.013735
  0
VERTEX
  8
0
 10
90.141431
 20
271.481762
 42
0.068745
  0
VERTEX
  8
0
 10
90.226431
 20
270.074401
 42
0.133112
  0
VERTEX
  8
0
 10
90.654624
 20
269.215046
 42
0.119934
  0
VERTEX
  8
0
 10
91.473772
 20
268.648438
 42
0.072324
  0
VERTEX
  8
0
 10
94.760543
 20
267.906509
 42
0.006411
  0
VERTEX
  8
0
 10
103.262363
 20
267.354879
 42
0.002409
  0
VERTEX
  8
0
 10
112.370304
 20
266.925096
 42
0.426668
  0
VERTEX
  8
0
 10
113.000000
 20
267.528683
 42
0.062513
  0
VERTEX
  8
0
 10
112.937626
 20
268.025622
 42
0.007802
  0
VERTEX
  8
0
 10
112.651954
 20
269.076895
 42
0.009091
  0
VERTEX
  8
0
 10
112.268844
 20
270.319268
 42
0.007419
  0
VERTEX
  8
0
 10
111.815163
 20
271.634613
 42
0.039778
  0
VERTEX
  8
0
 10
110.942590
 20
273.554975
 42
0.145562
  0
VERTEX
  8
0
 10
109.998418
 20
274.481006
 42
0.096459
  0
VERTEX
  8
0
 10
108.482023
 20
274.940601
 42
0.012278
  0
VERTEX
  8
0
 10
105.065163
 20
275.205611
 42
-0.008262
  0
VERTEX
  8
0
 10
101.611068
 20
275.445620
 42
-0.100413
  0
VERTEX
  8
0
 10
100.343564
 20
275.818418
 42
-0.235203
  0
VERTEX
  8
0
 10
99.813997
 20
276.556169
 42
-0.067936
  0
VERTEX
  8
0
 10
99.778027
 20
278.000000
 42
-0.071722
  0
VERTEX
  8
0
 10
100.653261
 20
281.372024
 42
-0.016551
  0
VERTEX
  8
0
 10
103.108065
 20
286.721074
 42
-0.017529
  0
VERTEX
  8
0
 10
105.967952
 20
291.976002
 42
-0.051869
  0
VERTEX
  8
0
 10
108.408424
 20
295.273724
 42
-0.101334
  0
VERTEX
  8
0
 10
114.602153
 20
299.771387
 42
-0.091337
  0
VERTEX
  8
0
 10
122.300287
 20
301.687288
 42
-0.080279
  0
VERTEX
  8
0
 10
131.029143
 20
300.825064
 42
-0.057263
  0
VERTEX
  8
0
 10
140.191338
 20
297.238953
 42
0.384297
  0
VERTEX
  8
0
 10
140.884569
 20
297.413248
 42
0.015842
  0
VERTEX
  8
0
 10
142.360724
 20
299.772974
 42
0.022263
  0
VERTEX
  8
0
 10
143.659559
 20
302.250828
 42
0.110011
  0
VERTEX
  8
0
 10
144.000000
 20
303.779403
 42
0.284036
  0
VERTEX
  8
0
 10
143.329394
 20
304.864660
 42
0.011904
  0
VERTEX
  8
0
 10
139.041136
 20
306.883488
 42
0.020258
  0
VERTEX
  8
0
 10
134.299177
 20
308.753781
 42
0.030008
  0
VERTEX
  8
0
 10
130.000000
 20
309.967591
 42
0.021654
  0
VERTEX
  8
0
 10
125.695968
 20
310.714717
 42
0.051405
  0
VERTEX
  8
0
 10
122.450776
 20
310.798634
 42
0.050735
  0
VERTEX
  8
0
 10
119.231271
 20
310.218603
 42
0.020622
  0
SEQEND
  0
POLYLINE
  8
0
 66
1
 70
1
  0
VERTEX
  8
0
 10
188.024244
 20
309.420160
 42
0.031900
  0
VERTEX
  8
0
 10
183.023279
 20
307.705767
 42
0.035043
  0
VERTEX
  8
0
 10
178.442175
 20
305.412656
 42
0.028673
  0
VERTEX
  8
0
 10
173.534092
 20
302.115868
 42
0.012685
  0
VERTEX
  8
0
 10
167.431483
 20
297.239362
 42
0.000000
  0
VERTEX
  8
0
 10
160.362967
 20
291.291039
 42
0.000000
  0
VERTEX
  8
0
 10
157.625720
 20
293.645519
 42
0.020201
  0
VERTEX
  8
0
 10
155.274963
 20
295.507799
 42
0.201960
  0
VERTEX
  8
0
 10
154.079675
 20
295.788947
 42
0.218999
  0
VERTEX
  8
0
 10
153.099346
 20
295.120086
 42
0.023980
  0
VERTEX
  8
0
 10
151.775845
 20
292.656132
 42
0.000000
  0
VERTEX
  8
0
 10
150.181265
 20
289.312263
 42
0.000000
  0
VERTEX
  8
0
 10
156.186368
 20
282.406132
 42
-0.009006
  0
VERTEX
  8
0
 10
160.924061
 20
276.755173
 42
-0.016904
  0
VERTEX
  8
0
 10
164.511198
 20
271.996124
 42
-0.017209
  0
VERTEX
  8
0
 10
167.726964
 20
267.062866
 42
-0.009726
  0
VERTEX
  8
0
 10
171.297875
 20
260.880911
 42
0.015947
  0
VERTEX
  8
0
 10
172.872249
 20
258.231989
 42
0.016993
  0
VERTEX
  8
0
 10
174.580960
 20
255.745728
 42
0.016811
  0
VERTEX
  8
0
 10
176.189204
 20
253.714629
 42
0.071977
  0
VERTEX
  8
0
 10
177.343764
 20
252.694327
 42
0.027639
  0
VERTEX
  8
0
 10
178.774242
 20
251.866194
 42
0.115478
  0
VERTEX
  8
0
 10
179.734376
 20
251.631666
 42
0.116606
  0
VERTEX
  8
0
 10
180.693857
 20
251.848772
 42
0.028441
  0
VERTEX
  8
0
 10
182.118032
 20
252.648314
 42
-0.012239
  0
VERTEX
  8
0
 10
183.103298
 20
253.244213
 42
-0.750529
  0
VERTEX
  8
0
 10
183.199555
 20
253.151209
 42
-0.085008
  0
VERTEX
  8
0
 10
182.876551
 20
252.730437
 42
-0.003695
  0
VERTEX
  8
0
 10
181.500000
 20
251.475796
 42
0.001036
  0
VERTEX
  8
0
 10
179.810283
 20
249.952092
 42
0.000206
  0
VERTEX
  8
0
 10
176.794098
 20
247.218627
 42
0.000218
  0
VERTEX
  8
0
 10
173.284558
 20
244.032633
 42
0.000203
  0
VERTEX
  8
0
 10
169.692673
 20
240.766370
 42
0.000000
  0
VERTEX
  8
0
 10
160.885347
 20
232.750945
 42
0.000000
  0
VERTEX
  8
0
 10
163.192673
 20
230.170282
 42
-0.900286
  0
VERTEX
  8
0
 10
163.108684
 20
230.077632
 42
-0.019870
  0
VERTEX
  8
0
 10
161.917619
 20
231.023772
 42
-0.006059
  0
VERTEX
  8
0
 10
159.262115
 20
233.367666
 42
-0.002301
  0
VERTEX
  8
0
 10
155.611989
 20
236.699691
 42
0.005174
  0
VERTEX
  8
0
 10
147.914346
 20
243.645827
 42
0.039092
  0
VERTEX
  8
0
 10
144.005222
 20
246.590697
 42
0.104670
  0
VERTEX
  8
0
 10
141.478200
 20
247.538720
 42
0.213940
  0
VERTEX
  8
0
 10
139.479492
 20
246.982980
 42
0.091577
  0
VERTEX
  8
0
 10
137.437739
 20
244.536312
 42
0.250596
  0
VERTEX
  8
0
 10
137.390406
 20
242.355920
 42
0.086445
  0
VERTEX
  8
0
 10
139.513128
 20
239.515777
 42
0.006679
  0
VERTEX
  8
0
 10
146.542678
 20
233.056550
 42
-0.007798
  0
VERTEX
  8
0
 10
150.833529
 20
229.096083
 42
-0.007207
  0
VERTEX
  8
0
 10
155.114601
 20
224.899865
 42
-0.007214
  0
VERTEX
  8
0
 10
158.818726
 20
221.053525
 42
-0.023760
  0
VERTEX
  8
0
 10
161.099904
 20
218.370506
 42
0.014169
  0
VERTEX
  8
0
 10
162.782077
 20
216.313355
 42
0.019706
  0
VERTEX
  8
0
 10
164.409508
 20
214.577586
 42
0.016553
  0
VERTEX
  8
0
 10
165.830212
 20
213.267035
 42
0.179900
  0
VERTEX
  8
0
 10
166.548368
 20
213.000000
 42
0.168111
  0
VERTEX
  8
0
 10
167.157027
 20
213.210596
 42
0.041958
  0
VERTEX
  8
0
 10
167.938370
 20
213.938612
 42
0.038150
  0
VERTEX
  8
0
 10
168.741454
 20
214.972124
 42
0.030405
  0
VERTEX
  8
0
 10
169.447530
 20
216.195275
 42
0.024837
  0
VERTEX
  8
0
 10
170.329006
 20
218.206430
 42
0.123182
  0
VERTEX
  8
0
 10
170.473608
 20
219.423237
 42
0.106832
  0
VERTEX
  8
0
 10
170.039756
 20
220.650880
 42
0.016464
  0
VERTEX
  8
0
 10
168.602934
 20
222.817919
 42
0.000000
  0
VERTEX
  8
0
 10
166.164325
 20
226.245288
 42
0.000000
  0
VERTEX
  8
0
 10
177.832163
 20
236.239591
 42
0.010441
  0
VERTEX
  8
0
 10
186.233414
 20
243.745563
 42
0.016530
  0
VERTEX
  8
0
 10
193.075318
 20
250.556292
 42
0.019287
  0
VERTEX
  8
0
 10
198.289967
 20
256.549371
 42
0.045904
  0
VERTEX
  8
0
 10
201.551340
 20
261.465475
 42
0.044714
  0
VERTEX
  8
0
 10
202.664147
 20
264.063904
 42
0.203551
  0
VERTEX
  8
0
 10
202.525324
 20
265.667499
 42
0.186552
  0
VERTEX
  8
0
 10
201.254834
 20
266.768304
 42
0.036943
  0
VERTEX
  8
0
 10
198.300604
 20
267.589879
 42
0.033258
  0
VERTEX
  8
0
 10
196.526981
 20
267.823390
 42
0.129034
  0
VERTEX
  8
0
 10
195.448077
 20
267.613392
 42
0.128113
  0
VERTEX
  8
0
 10
194.607049
 20
266.899633
 42
0.032585
  0
VERTEX
  8
0
 10
193.668415
 20
265.358629
 42
-0.025551
  0
VERTEX
  8
0
 10
192.880166
 20
264.022612
 42
-0.011291
  0
VERTEX
  8
0
 10
191.711244
 20
262.338354
 42
-0.011142
  0
VERTEX
  8
0
 10
190.389515
 20
260.605362
 42
-0.014726
  0
VERTEX
  8
0
 10
189.105482
 20
259.091086
 42
0.000000
  0
VERTEX
  8
0
 10
186.037844
 20
255.682171
 42
0.000000
  0
VERTEX
  8
0
 10
183.768922
 20
258.546423
 42
-0.019895
  0
VERTEX
  8
0
 10
180.422703
 20
263.134378
 42
-0.002333
  0
VERTEX
  8
0
 10
173.421471
 20
273.688738
 42
-0.000640
  0
VERTEX
  8
0
 10
165.888489
 20
285.192609
 42
-0.801594
  0
VERTEX
  8
0
 10
166.117492
 20
285.427386
 42
0.275672
  0
VERTEX
  8
0
 10
166.591891
 20
285.419989
 42
0.019423
  0
VERTEX
  8
0
 10
167.762111
 20
286.155666
 42
0.023078
  0
VERTEX
  8
0
 10
169.160209
 20
287.210195
 42
0.015010
  0
VERTEX
  8
0
 10
170.678299
 20
288.548092
 42
-0.031852
  0
VERTEX
  8
0
 10
177.543739
 20
294.199685
 42
-0.040417
  0
VERTEX
  8
0
 10
184.567122
 20
298.450419
 42
-0.045236
  0
VERTEX
  8
0
 10
191.376085
 20
301.115306
 42
-0.070778
  0
VERTEX
  8
0
 10
197.594518
 20
302.000000
 42
0.000000
  0
VERTEX
  8
0
 10
202.114996
 20
302.000000
 42
0.000000
  0
VERTEX
  8
0
 10
201.807498
 20
306.250000
 42
0.016531
  0
VERTEX
  8
0
 10
201.522068
 20
308.950988
 42
0.158802
  0
VERTEX
  8
0
 10
201.022258
 20
309.976967
 42
0.169744
  0
VERTEX
  8
0
 10
200.028560
 20
310.477018
 42
0.019534
  0
VERTEX
  8
0
 10
197.500000
 20
310.707440
 42
0.032309
  0
VERTEX
  8
0
 10
195.580863
 20
310.682907
 42
0.014412
  0
VERTEX
  8
0
 10
193.066497
 20
310.414870
 42
0.014197
  0
VERTEX
  8
0
 10
190.413507
 20
309.977430
 42
0.018670
  0
SEQEND
  0
POLYLINE
  8
0
 66
1
 70
1
  0
VERTEX
  8
0
 10
215.000000
 20
297.828741
 42
0.022921
  0
VERTEX
  8
0
 10
215.098157
 20
295.688652
 42
0.027176
  0
VERTEX
  8
0
 10
215.392589
 20
293.686424
 42
0.028924
  0
VERTEX
  8
0
 10
215.828488
 20
292.035724
 42
0.100076
  0
VERTEX
  8
0
 10
216.370710
 20
291.078741
 42
-0.066657
  0
VERTEX
  8
0
 10
217.032852
 20
290.072198
 42
-0.010942
  0
VERTEX
  8
0
 10
217.999602
 20
287.946688
 42
-0.011870
  0
VERTEX
  8
0
 10
219.029246
 20
285.378072
 42
-0.010227
  0
VERTEX
  8
0
 10
219.991046
 20
282.633389
 42
-0.017293
  0
VERTEX
  8
0
 10
221.455030
 20
277.580608
 42
-0.172227
  0
VERTEX
  8
0
 10
221.252007
 20
275.419602
 42
-0.251599
  0
VERTEX
  8
0
 10
219.783492
 20
274.319250
 42
-0.038192
  0
VERTEX
  8
0
 10
216.000000
 20
274.039759
 42
-0.069279
  0
VERTEX
  8
0
 10
207.341134
 20
275.268343
 42
-0.046418
  0
VERTEX
  8
0
 10
198.009352
 20
278.909855
 42
-0.045793
  0
VERTEX
  8
0
 10
189.347045
 20
284.296678
 42
-0.060599
  0
VERTEX
  8
0
 10
182.677420
 20
290.750000
 42
0.076647
  0
VERTEX
  8
0
 10
180.943766
 20
292.323376
 42
0.138513
  0
VERTEX
  8
0
 10
179.130888
 20
292.901492
 42
0.139695
  0
VERTEX
  8
0
 10
177.294348
 20
292.443938
 42
0.078529
  0
VERTEX
  8
0
 10
175.491207
 20
290.990284
 42
0.033504
  0
VERTEX
  8
0
 10
174.528598
 20
289.771707
 42
0.129514
  0
VERTEX
  8
0
 10
174.206368
 20
288.872241
 42
0.118267
  0
VERTEX
  8
0
 10
174.354586
 20
287.885084
 42
0.025802
  0
VERTEX
  8
0
 10
175.086220
 20
286.315005
 42
0.082747
  0
VERTEX
  8
0
 10
177.479617
 20
283.184739
 42
0.015436
  0
VERTEX
  8
0
 10
182.924408
 20
278.389708
 42
0.017290
  0
VERTEX
  8
0
 10
188.833379
 20
273.836010
 42
0.045681
  0
VERTEX
  8
0
 10
193.434349
 20
271.135864
 42
0.030629
  0
VERTEX
  8
0
 10
195.621811
 20
270.266810
 42
0.009787
  0
VERTEX
  8
0
 10
198.970051
 20
269.240776
 42
0.009725
  0
VERTEX
  8
0
 10
202.752130
 20
268.241415
 42
0.010709
  0
VERTEX
  8
0
 10
206.451014
 20
267.424114
 42
0.010174
  0
VERTEX
  8
0
 10
211.581940
 20
266.513223
 42
0.031184
  0
VERTEX
  8
0
 10
215.096622
 20
266.185400
 42
0.034267
  0
VERTEX
  8
0
 10
218.443125
 20
266.312134
 42
0.014407
  0
VERTEX
  8
0
 10
222.908620
 20
266.919447
 42
0.006644
  0
VERTEX
  8
0
 10
225.863491
 20
267.448821
 42
0.009618
  0
VERTEX
  8
0
 10
228.457322
 20
268.001122
 42
0.005768
  0
VERTEX
  8
0
 10
230.607861
 20
268.528688
 42
0.138943
  0
VERTEX
  8
0
 10
231.137582
 20
268.837796
 42
0.246256
  0
VERTEX
  8
0
 10
231.607511
 20
270.450430
 42
0.004737
  0
VERTEX
  8
0
 10
229.749146
 20
279.219830
 42
0.010715
  0
VERTEX
  8
0
 10
227.722494
 20
287.511167
 42
0.052695
  0
VERTEX
  8
0
 10
225.998946
 20
292.002065
 42
0.040967
  0
VERTEX
  8
0
 10
223.895006
 20
295.405879
 42
0.023937
  0
VERTEX
  8
0
 10
220.865227
 20
299.126715
 42
0.017923
  0
VERTEX
  8
0
 10
217.768632
 20
302.338807
 42
0.194359
  0
VERTEX
  8
0
 10
216.131923
 20
303.000000
 42
0.297298
  0
VERTEX
  8
0
 10
215.657814
 20
302.690765
 42
0.049892
  0
VERTEX
  8
0
 10
215.304722
 20
301.607860
 42
0.037006
  0
VERTEX
  8
0
 10
215.072619
 20
299.978635
 42
0.016884
  0
SEQEND
  0
POLYLINE
  8
0
 66
1
 70
1
  0
VERTEX
  8
0
 10
111.158109
 20
295.343788
 42
0.023198
  0
VERTEX
  8
0
 10
109.212233
 20
293.658983
 42
0.112173
  0
VERTEX
  8
0
 10
108.406990
 20
292.449495
 42
0.107920
  0
VERTEX
  8
0
 10
108.187599
 20
290.987618
 42
0.020705
  0
VERTEX
  8
0
 10
108.476903
 20
288.305455
 42
0.043716
  0
VERTEX
  8
0
 10
110.383963
 20
280.383184
 42
0.029634
  0
VERTEX
  8
0
 10
113.853707
 20
271.767554
 42
0.027619
  0
VERTEX
  8
0
 10
118.650099
 20
262.931830
 42
0.024767
  0
VERTEX
  8
0
 10
124.555291
 20
254.338623
 42
0.000000
  0
VERTEX
  8
0
 10
127.133275
 20
250.958712
 42
0.000000
  0
VERTEX
  8
0
 10
130.066637
 20
253.047450
 42
-0.015097
  0
VERTEX
  8
0
 10
131.192606
 20
253.799042
 42
-0.029613
  0
VERTEX
  8
0
 10
132.138325
 20
254.314690
 42
-0.039806
  0
VERTEX
  8
0
 10
132.813059
 20
254.568975
 42
-0.499076
  0
VERTEX
  8
0
 10
133.000000
 20
254.428337
 42
-0.215049
  0
VERTEX
  8
0
 10
132.555537
 20
253.442727
 42
-0.028330
  0
VERTEX
  8
0
 10
130.708494
 20
251.988813
 42
-0.023680
  0
VERTEX
  8
0
 10
127.866226
 20
250.195491
 42
-0.009028
  0
VERTEX
  8
0
 10
123.750000
 20
247.960356
 42
0.006855
  0
VERTEX
  8
0
 10
121.546016
 20
246.775951
 42
0.010765
  0
VERTEX
  8
0
 10
119.689063
 20
245.692037
 42
0.005075
  0
VERTEX
  8
0
 10
118.163926
 20
244.735790
 42
0.255506
  0
VERTEX
  8
0
 10
118.000000
 20
244.435945
 42
0.096772
  0
VERTEX
  8
0
 10
118.066376
 20
244.096205
 42
0.006675
  0
VERTEX
  8
0
 10
118.448169
 20
243.191252
 42
0.009311
  0
VERTEX
  8
0
 10
118.941291
 20
242.119438
 42
0.006856
  0
VERTEX
  8
0
 10
119.525680
 20
240.950340
 42
0.083206
  0
VERTEX
  8
0
 10
121.033797
 20
238.938584
 42
0.173295
  0
VERTEX
  8
0
 10
122.800856
 20
238.153048
 42
0.115803
  0
VERTEX
  8
0
 10
125.186001
 20
238.526842
 42
0.027831
  0
VERTEX
  8
0
 10
128.830314
 20
240.250000
 42
0.042693
  0
VERTEX
  8
0
 10
134.500523
 20
243.986547
 42
0.032219
  0
VERTEX
  8
0
 10
140.050444
 20
248.977408
 42
0.027896
  0
VERTEX
  8
0
 10
145.643204
 20
255.377352
 42
0.017754
  0
VERTEX
  8
0
 10
151.447857
 20
263.390450
 42
0.000000
  0
VERTEX
  8
0
 10
159.192082
 20
274.921505
 42
0.000000
  0
VERTEX
  8
0
 10
157.027947
 20
277.960753
 42
0.026235
  0
VERTEX
  8
0
 10
156.103868
 20
279.124189
 42
0.031817
  0
VERTEX
  8
0
 10
155.117080
 20
280.107221
 42
0.033403
  0
VERTEX
  8
0
 10
154.203251
 20
280.806395
 42
0.147638
  0
VERTEX
  8
0
 10
153.561868
 20
281.000000
 42
0.223243
  0
VERTEX
  8
0
 10
152.826905
 20
280.654638
 42
0.008903
  0
VERTEX
  8
0
 10
150.930673
 20
278.282812
 42
0.014207
  0
VERTEX
  8
0
 10
148.760191
 20
275.294707
 42
0.009411
  0
VERTEX
  8
0
 10
146.432870
 20
271.750000
 42
-0.004128
  0
VERTEX
  8
0
 10
143.986052
 20
267.936058
 42
-0.004009
  0
VERTEX
  8
0
 10
141.452917
 20
264.125481
 42
-0.003959
  0
VERTEX
  8
0
 10
139.172307
 20
260.810601
 42
-0.014822
  0
VERTEX
  8
0
 10
137.662508
 20
258.783553
 42
0.000000
  0
VERTEX
  8
0
 10
134.719199
 20
255.067106
 42
0.000000
  0
VERTEX
  8
0
 10
128.733040
 20
264.245898
 42
-0.017102
  0
VERTEX
  8
0
 10
123.548300
 20
272.823223
 42
-0.031543
  0
VERTEX
  8
0
 10
120.030773
 20
280.171839
 42
-0.037147
  0
VERTEX
  8
0
 10
117.852153
 20
286.993931
 42
-0.039527
  0
VERTEX
  8
0
 10
116.763500
 20
293.922988
 42
0.044464
  0
VERTEX
  8
0
 10
116.321798
 20
296.564273
 42
0.273528
  0
VERTEX
  8
0
 10
115.382651
 20
297.497499
 42
0.205052
  0
VERTEX
  8
0
 10
113.877062
 20
297.260309
 42
0.026625
  0
SEQEND
  0
POLYLINE
  8
0
 66
1
 70
1
  0
VERTEX
  8
0
 10
42.882283
 20
280.619422
 42
0.070870
  0
VERTEX
  8
0
 10
34.204984
 20
276.049845
 42
0.062530
  0
VERTEX
  8
0
 10
26.726426
 20
269.067325
 42
0.059609
  0
VERTEX
  8
0
 10
20.911136
 20
260.107740
 42
0.053900
  0
VERTEX
  8
0
 10
17.133081
 20
249.723588
 42
0.078043
  0
VERTEX
  8
0
 10
16.682024
 20
244.459408
 42
0.249678
  0
VERTEX
  8
0
 10
18.492509
 20
241.569373
 42
0.114272
  0
VERTEX
  8
0
 10
23.232346
 20
240.133024
 42
0.012616
  0
VERTEX
  8
0
 10
34.636412
 20
239.660018
 42
0.010582
  0
VERTEX
  8
0
 10
39.662591
 20
239.684856
 42
0.021321
  0
VERTEX
  8
0
 10
43.615798
 20
239.957031
 42
0.025504
  0
VERTEX
  8
0
 10
47.026485
 20
240.515754
 42
0.025884
  0
VERTEX
  8
0
 10
50.345433
 20
241.416908
 42
0.020489
  0
VERTEX
  8
0
 10
54.538113
 20
242.984779
 42
0.134233
  0
VERTEX
  8
0
 10
56.287891
 20
244.358832
 42
0.235047
  0
VERTEX
  8
0
 10
56.582979
 20
246.013154
 42
0.073845
  0
VERTEX
  8
0
 10
55.497908
 20
248.362849
 42
0.046850
  0
VERTEX
  8
0
 10
54.399184
 20
249.739271
 42
0.127131
  0
VERTEX
  8
0
 10
53.343479
 20
250.387386
 42
0.088465
  0
VERTEX
  8
0
 10
51.874835
 20
250.566282
 42
0.015659
  0
VERTEX
  8
0
 10
49.100678
 20
250.325518
 42
-0.055636
  0
VERTEX
  8
0
 10
44.579320
 20
250.295095
 42
-0.100999
  0
VERTEX
  8
0
 10
41.067749
 20
251.403490
 42
-0.114550
  0
VERTEX
  8
0
 10
38.558166
 20
253.672809
 42
-0.086337
  0
VERTEX
  8
0
 10
36.984963
 20
257.055844
 42
-0.111217
  0
VERTEX
  8
0
 10
36.730176
 20
263.190473
 42
-0.134672
  0
VERTEX
  8
0
 10
39.215590
 20
268.365373
 42
-0.125351
  0
VERTEX
  8
0
 10
44.169734
 20
271.797851
 42
-0.089364
  0
VERTEX
  8
0
 10
50.842155
 20
273.000000
 42
-0.049766
  0
VERTEX
  8
0
 10
54.748959
 20
272.610184
 42
-0.034428
  0
VERTEX
  8
0
 10
59.035792
 20
271.434251
 42
-0.034987
  0
VERTEX
  8
0
 10
62.959472
 20
269.745197
 42
-0.069548
  0
VERTEX
  8
0
 10
65.717585
 20
267.795590
 42
0.016013
  0
VERTEX
  8
0
 10
66.613240
 20
267.006602
 42
0.026787
  0
VERTEX
  8
0
 10
67.420257
 20
266.410022
 42
0.025617
  0
VERTEX
  8
0
 10
68.073359
 20
266.025781
 42
0.362022
  0
VERTEX
  8
0
 10
68.319895
 20
266.079390
 42
0.012083
  0
VERTEX
  8
0
 10
68.535937
 20
266.370878
 42
0.000647
  0
VERTEX
  8
0
 10
69.197707
 20
267.312970
 42
0.001013
  0
VERTEX
  8
0
 10
69.981214
 20
268.436278
 42
0.000738
  0
VERTEX
  8
0
 10
70.847903
 20
269.688166
 42
0.000000
  0
VERTEX
  8
0
 10
73.048130
 20
272.876333
 42
0.000000
  0
VERTEX
  8
0
 10
69.655295
 20
275.583539
 42
0.065711
  0
VERTEX
  8
0
 10
63.650091
 20
279.201526
 42
0.056330
  0
VERTEX
  8
0
 10
56.591269
 20
281.373200
 42
0.057382
  0
VERTEX
  8
0
 10
49.368599
 20
281.888946
 42
0.075105
  0
SEQEND
  0
POLYLINE
  8
0
 66
1
 70
1
  0
VERTEX
  8
0
 10
273.189635
 20
277.250000
 42
0.035782
  0
VERTEX
  8
0
 10
273.514459
 20
275.158955
 42
0.102886
  0
VERTEX
  8
0
 10
274.124416
 20
273.831403
 42
0.093790
  0
VERTEX
  8
0
 10
275.248969
 20
272.787924
 42
0.026678
  0
VERTEX
  8
0
 10
277.341313
 20
271.624017
 42
-0.103118
  0
VERTEX
  8
0
 10
282.040094
 20
267.978703
 42
-0.114867
  0
VERTEX
  8
0
 10
284.668798
 20
262.889074
 42
-0.124595
  0
VERTEX
  8
0
 10
284.669355
 20
257.486732
 42
-0.135212
  0
VERTEX
  8
0
 10
282.076923
 20
252.923077
 42
-0.034430
  0
VERTEX
  8
0
 10
280.606256
 20
251.642112
 42
-0.048166
  0
VERTEX
  8
0
 10
279.122570
 20
250.729443
 42
-0.053368
  0
VERTEX
  8
0
 10
277.623097
 20
250.184499
 42
-0.060561
  0
VERTEX
  8
0
 10
276.105436
 20
250.000000
 42
-0.080026
  0
VERTEX
  8
0
 10
272.322271
 20
250.609410
 42
-0.029986
  0
VERTEX
  8
0
 10
267.316229
 20
252.605286
 42
-0.029875
  0
VERTEX
  8
0
 10
262.275322
 20
255.353038
 42
-0.044007
  0
VERTEX
  8
0
 10
258.253761
 20
258.389707
 42
0.025516
  0
VERTEX
  8
0
 10
255.087360
 20
260.969645
 42
0.127657
  0
VERTEX
  8
0
 10
252.978290
 20
261.808933
 42
0.202037
  0
VERTEX
  8
0
 10
251.262706
 20
261.326894
 42
0.079702
  0
VERTEX
  8
0
 10
249.577590
 20
259.478074
 42
0.081252
  0
VERTEX
  8
0
 10
248.652977
 20
257.395833
 42
0.179129
  0
VERTEX
  8
0
 10
248.822074
 20
255.689073
 42
0.092996
  0
VERTEX
  8
0
 10
250.240736
 20
253.778516
 42
0.013222
  0
VERTEX
  8
0
 10
253.930513
 20
250.541109
 42
0.044573
  0
VERTEX
  8
0
 10
261.387170
 20
245.388593
 42
0.046984
  0
VERTEX
  8
0
 10
269.512010
 20
241.743965
 42
0.045762
  0
VERTEX
  8
0
 10
278.368033
 20
239.611330
 42
0.038488
  0
VERTEX
  8
0
 10
288.000000
 20
238.956172
 42
0.009747
  0
VERTEX
  8
0
 10
296.328282
 20
239.193733
 42
0.046024
  0
VERTEX
  8
0
 10
301.055704
 20
239.859902
 42
0.096949
  0
VERTEX
  8
0
 10
303.693106
 20
241.054409
 42
0.205220
  0
VERTEX
  8
0
 10
304.838811
 20
242.934002
 42
0.105461
  0
VERTEX
  8
0
 10
304.514320
 20
247.730268
 42
0.024256
  0
VERTEX
  8
0
 10
301.900450
 20
255.457133
 42
0.025896
  0
VERTEX
  8
0
 10
298.255412
 20
263.479323
 42
0.041242
  0
VERTEX
  8
0
 10
294.250150
 20
269.857887
 42
0.062008
  0
VERTEX
  8
0
 10
290.718317
 20
273.522166
 42
0.031212
  0
VERTEX
  8
0
 10
285.473770
 20
277.246851
 42
0.030060
  0
VERTEX
  8
0
 10
280.071930
 20
280.163150
 42
0.109164
  0
VERTEX
  8
0
 10
276.284598
 20
281.000000
 42
0.021214
  0
VERTEX
  8
0
 10
274.164117
 20
280.909992
 42
0.201659
  0
VERTEX
  8
0
 10
273.377191
 20
280.497481
 42
0.178910
  0
VERTEX
  8
0
 10
273.070251
 20
279.618382
 42
0.016107
  0
SEQEND
  0
POLYLINE
  8
0
 66
1
 70
1
  0
VERTEX
  8
0
 10
254.558249
 20
277.603818
 42
0.049688
  0
VERTEX
  8
0
 10
250.139197
 20
274.288848
 42
0.008665
  0
VERTEX
  8
0
 10
242.579268
 20
267.100302
 42
0.003905
  0
VERTEX
  8
0
 10
234.802170
 20
259.323787
 42
0.196893
  0
VERTEX
  8
0
 10
234.000000
 20
257.365691
 42
0.246463
  0
VERTEX
  8
0
 10
234.397318
 20
256.608614
 42
0.049258
  0
VERTEX
  8
0
 10
235.776365
 20
255.844867
 42
0.036414
  0
VERTEX
  8
0
 10
237.906882
 20
255.104288
 42
0.015875
  0
VERTEX
  8
0
 10
240.824377
 20
254.421187
 42
0.213278
  0
VERTEX
  8
0
 10
241.615411
 20
254.599748
 42
0.013111
  0
VERTEX
  8
0
 10
243.555645
 20
256.132148
 42
0.017628
  0
VERTEX
  8
0
 10
245.823900
 20
258.161909
 42
0.012008
  0
VERTEX
  8
0
 10
248.262548
 20
260.619341
 42
-0.013072
  0
VERTEX
  8
0
 10
250.888739
 20
263.254520
 42
-0.012001
  0
VERTEX
  8
0
 10
253.723423
 20
265.827092
 42
-0.012099
  0
VERTEX
  8
0
 10
256.362180
 20
267.999475
 42
-0.038152
  0
VERTEX
  8
0
 10
258.267433
 20
269.270462
 42
0.018547
  0
VERTEX
  8
0
 10
260.446044
 20
270.603552
 42
0.102138
  0
VERTEX
  8
0
 10
261.410139
 20
271.576138
 42
0.144329
  0
VERTEX
  8
0
 10
261.741274
 20
272.682701
 42
0.050414
  0
VERTEX
  8
0
 10
261.579262
 20
274.353689
 42
-0.008051
  0
VERTEX
  8
0
 10
261.357513
 20
275.563409
 42
-0.007599
  0
VERTEX
  8
0
 10
261.170158
 20
276.803115
 42
-0.007581
  0
VERTEX
  8
0
 10
261.037596
 20
277.905911
 42
-0.026123
  0
VERTEX
  8
0
 10
261.000000
 20
278.625000
 42
0.228407
  0
VERTEX
  8
0
 10
260.532284
 20
279.595451
 42
0.210477
  0
VERTEX
  8
0
 10
259.456375
 20
279.878996
 42
0.078370
  0
VERTEX
  8
0
 10
257.525980
 20
279.252885
 42
0.018564
  0
SEQEND
  0
POLYLINE
  8
0
 66
1
 70
1
  0
VERTEX
  8
0
 10
79.114689
 20
261.161066
 42
0.012995
  0
VERTEX
  8
0
 10
78.304942
 20
259.958947
 42
0.016324
  0
VERTEX
  8
0
 10
77.621190
 20
258.802997
 42
0.014536
  0
VERTEX
  8
0
 10
77.114303
 20
257.811110
 42
0.111297
  0
VERTEX
  8
0
 10
77.000000
 20
257.303965
 42
0.197224
  0
VERTEX
  8
0
 10
77.547794
 20
255.969227
 42
0.002394
  0
VERTEX
  8
0
 10
84.276753
 20
249.217216
 42
0.007141
  0
VERTEX
  8
0
 10
90.701109
 20
243.012107
 42
0.030982
  0
VERTEX
  8
0
 10
94.779214
 20
239.633838
 42
0.049877
  0
VERTEX
  8
0
 10
98.282915
 20
237.580025
 42
0.036748
  0
VERTEX
  8
0
 10
102.500061
 20
236.006803
 42
0.033610
  0
VERTEX
  8
0
 10
106.368083
 20
235.156428
 42
0.237999
  0
VERTEX
  8
0
 10
108.139817
 20
235.739817
 42
0.275143
  0
VERTEX
  8
0
 10
108.583095
 20
237.487497
 42
0.071574
  0
VERTEX
  8
0
 10
107.319676
 20
240.231425
 42
0.057768
  0
VERTEX
  8
0
 10
104.872733
 20
243.197325
 42
0.051472
  0
VERTEX
  8
0
 10
101.721505
 20
245.656774
 42
-0.028955
  0
VERTEX
  8
0
 10
99.568224
 20
247.186751
 42
-0.007875
  0
VERTEX
  8
0
 10
96.350320
 20
249.850201
 42
-0.007939
  0
VERTEX
  8
0
 10
92.789017
 20
252.992849
 42
-0.008177
  0
VERTEX
  8
0
 10
89.364689
 20
256.216767
 42
0.000000
  0
VERTEX
  8
0
 10
81.229378
 20
264.130873
 42
0.000000
  0
SEQEND
  0
POLYLINE
  8
0
 66
1
 70
1
  0
VERTEX
  8
0
 10
104.000000
 20
260.067326
 42
0.007938
  0
VERTEX
  8
0
 10
98.867535
 20
258.592466
 42
0.019005
  0
VERTEX
  8
0
 10
95.125610
 20
257.295277
 42
0.017417
  0
VERTEX
  8
0
 10
92.488031
 20
256.159750
 42
0.290108
  0
VERTEX
  8
0
 10
92.000000
 20
255.389422
 42
0.163681
  0
VERTEX
  8
0
 10
92.126817
 20
255.012410
 42
0.013882
  0
VERTEX
  8
0
 10
92.776521
 20
254.203584
 42
0.017247
  0
VERTEX
  8
0
 10
93.630909
 20
253.265963
 42
0.012479
  0
VERTEX
  8
0
 10
94.643476
 20
252.279450
 42
0.029870
  0
VERTEX
  8
0
 10
96.276444
 20
250.938039
 42
0.104981
  0
VERTEX
  8
0
 10
97.512240
 20
250.387990
 42
0.093740
  0
VERTEX
  8
0
 10
98.941023
 20
250.355637
 42
0.021074
  0
VERTEX
  8
0
 10
101.333125
 20
250.856587
 42
-0.015187
  0
VERTEX
  8
0
 10
102.941864
 20
251.213304
 42
-0.019979
  0
VERTEX
  8
0
 10
104.428775
 20
251.434809
 42
-0.017835
  0
VERTEX
  8
0
 10
105.656722
 20
251.523698
 42
-0.148623
  0
VERTEX
  8
0
 10
106.189649
 20
251.382791
 42
-0.186738
  0
VERTEX
  8
0
 10
106.505533
 20
250.965534
 42
-0.024735
  0
VERTEX
  8
0
 10
106.761959
 20
249.866970
 42
-0.025914
  0
VERTEX
  8
0
 10
106.940836
 20
248.477539
 42
-0.019057
  0
VERTEX
  8
0
 10
107.000000
 20
246.925834
 42
0.084193
  0
VERTEX
  8
0
 10
107.671140
 20
242.968388
 42
0.037133
  0
VERTEX
  8
0
 10
109.794361
 20
238.086137
 42
0.036222
  0
VERTEX
  8
0
 10
112.797055
 20
233.263174
 42
0.048529
  0
VERTEX
  8
0
 10
116.216333
 20
229.413478
 42
0.031186
  0
VERTEX
  8
0
 10
118.035298
 20
227.926815
 42
0.008924
  0
VERTEX
  8
0
 10
121.032298
 20
225.854338
 42
0.008946
  0
VERTEX
  8
0
 10
124.504951
 20
223.632039
 42
0.009388
  0
VERTEX
  8
0
 10
128.000000
 20
221.571977
 42
-0.009595
  0
VERTEX
  8
0
 10
131.486228
 20
219.515167
 42
-0.009265
  0
VERTEX
  8
0
 10
134.932431
 20
217.302659
 42
-0.009221
  0
VERTEX
  8
0
 10
137.893657
 20
215.243076
 42
-0.033178
  0
VERTEX
  8
0
 10
139.663594
 20
213.774878
 42
0.035638
  0
VERTEX
  8
0
 10
142.082439
 20
211.788387
 42
0.228576
  0
VERTEX
  8
0
 10
143.601617
 20
211.532470
 42
0.214195
  0
VERTEX
  8
0
 10
144.812271
 20
212.561651
 42
0.031374
  0
VERTEX
  8
0
 10
146.041748
 20
215.626497
 42
0.021715
  0
VERTEX
  8
0
 10
146.648401
 20
217.773726
 42
0.107596
  0
VERTEX
  8
0
 10
146.670318
 20
219.021495
 42
0.120586
  0
VERTEX
  8
0
 10
146.169843
 20
220.093407
 42
0.030362
  0
VERTEX
  8
0
 10
144.864703
 20
221.529863
 42
0.039890
  0
VERTEX
  8
0
 10
143.506051
 20
222.657657
 42
0.010258
  0
VERTEX
  8
0
 10
141.138382
 20
224.251752
 42
0.010377
  0
VERTEX
  8
0
 10
138.353331
 20
225.964247
 42
0.010382
  0
VERTEX
  8
0
 10
135.500000
 20
227.559450
 42
-0.010690
  0
VERTEX
  8
0
 10
128.699305
 20
231.367002
 42
-0.025323
  0
VERTEX
  8
0
 10
123.854077
 20
234.558160
 42
-0.034113
  0
VERTEX
  8
0
 10
120.444817
 20
237.437009
 42
-0.065471
  0
VERTEX
  8
0
 10
118.224629
 20
240.235953
 42
-0.045831
  0
VERTEX
  8
0
 10
116.604631
 20
243.604712
 42
-0.028167
  0
VERTEX
  8
0
 10
115.301230
 20
247.813404
 42
-0.028287
  0
VERTEX
  8
0
 10
114.507743
 20
251.996847
 42
-0.062844
  0
VERTEX
  8
0
 10
114.490371
 20
255.235015
 42
0.039584
  0
VERTEX
  8
0
 10
114.602349
 20
257.962557
 42
0.075456
  0
VERTEX
  8
0
 10
114.191576
 20
260.113253
 42
0.114850
  0
VERTEX
  8
0
 10
113.331519
 20
261.460844
 42
0.209979
  0
VERTEX
  8
0
 10
112.133369
 20
261.911975
 42
0.037513
  0
VERTEX
  8
0
 10
111.150972
 20
261.784706
 42
0.004801
  0
VERTEX
  8
0
 10
109.070427
 20
261.333799
 42
0.005595
  0
VERTEX
  8
0
 10
106.608440
 20
260.746378
 42
0.004634
  0
SEQEND
  0
POLYLINE
  8
0
 66
1
 70
1
  0
VERTEX
  8
0
 10
206.606989
 20
259.418213
 42
0.061550
  0
VERTEX
  8
0
 10
206.370527
 20
258.466235
 42
0.009941
  0
VERTEX
  8
0
 10
206.178303
 20
256.562600
 42
0.010846
  0
VERTEX
  8
0
 10
206.044511
 20
254.300027
 42
0.009343
  0
VERTEX
  8
0
 10
206.000000
 20
251.918213
 42
0.000000
  0
VERTEX
  8
0
 10
206.000000
 20
246.000000
 42
0.000000
  0
VERTEX
  8
0
 10
210.000000
 20
246.000000
 42
0.016242
  0
VERTEX
  8
0
 10
212.304712
 20
246.074885
 42
0.121330
  0
VERTEX
  8
0
 10
213.340329
 20
246.402561
 42
0.200477
  0
VERTEX
  8
0
 10
213.843782
 20
247.097182
 42
0.057930
  0
VERTEX
  8
0
 10
214.000000
 20
248.440983
 42
-0.033734
  0
VERTEX
  8
0
 10
214.065847
 20
249.415854
 42
-0.038814
  0
VERTEX
  8
0
 10
214.262435
 20
250.327121
 42
-0.042450
  0
VERTEX
  8
0
 10
214.549329
 20
251.056156
 42
-0.140274
  0
VERTEX
  8
0
 10
214.893396
 20
251.434115
 42
-0.231293
  0
VERTEX
  8
0
 10
217.792787
 20
251.722045
 42
-0.006058
  0
VERTEX
  8
0
 10
230.242703
 20
246.925745
 42
-0.005354
  0
VERTEX
  8
0
 10
242.682325
 20
241.804396
 42
-0.301012
  0
VERTEX
  8
0
 10
244.000000
 20
239.813969
 42
-0.198851
  0
VERTEX
  8
0
 10
243.649845
 20
238.968337
 42
-0.004400
  0
VERTEX
  8
0
 10
240.431723
 20
235.804866
 42
-0.010773
  0
VERTEX
  8
0
 10
237.118686
 20
232.740105
 42
-0.021758
  0
VERTEX
  8
0
 10
234.357597
 20
230.500748
 42
0.019671
  0
VERTEX
  8
0
 10
233.239128
 20
229.601335
 42
0.229608
  0
VERTEX
  8
0
 10
233.025468
 20
229.099906
 42
0.203109
  0
VERTEX
  8
0
 10
233.274032
 20
228.584490
 42
0.015229
  0
VERTEX
  8
0
 10
234.500000
 20
227.572196
 42
0.057403
  0
VERTEX
  8
0
 10
240.144137
 20
224.149794
 42
0.032407
  0
VERTEX
  8
0
 10
247.628846
 20
221.284451
 42
0.028503
  0
VERTEX
  8
0
 10
254.421996
 20
219.594430
 42
0.470060
  0
VERTEX
  8
0
 10
256.000000
 20
220.902066
 42
0.086915
  0
VERTEX
  8
0
 10
255.568020
 20
223.368369
 42
0.049154
  0
VERTEX
  8
0
 10
254.257996
 20
226.115182
 42
0.049126
  0
VERTEX
  8
0
 10
252.592187
 20
228.345919
 42
0.210845
  0
VERTEX
  8
0
 10
251.110044
 20
229.000000
 42
-0.131810
  0
VERTEX
  8
0
 10
249.349801
 20
229.472238
 42
-0.366769
  0
VERTEX
  8
0
 10
248.950307
 20
230.589109
 42
-0.092496
  0
VERTEX
  8
0
 10
250.235254
 20
232.713276
 42
-0.010737
  0
VERTEX
  8
0
 10
254.041995
 20
236.799787
 42
0.006088
  0
VERTEX
  8
0
 10
256.324352
 20
239.204653
 42
0.009204
  0
VERTEX
  8
0
 10
258.246200
 20
241.357861
 42
0.004596
  0
VERTEX
  8
0
 10
259.811428
 20
243.212079
 42
0.178775
  0
VERTEX
  8
0
 10
259.987621
 20
243.713228
 42
0.192189
  0
VERTEX
  8
0
 10
259.812994
 20
244.131522
 42
0.018518
  0
VERTEX
  8
0
 10
258.997771
 20
244.904087
 42
0.021441
  0
VERTEX
  8
0
 10
257.915577
 20
245.776767
 42
0.015298
  0
VERTEX
  8
0
 10
256.635302
 20
246.662386
 42
0.000000
  0
VERTEX
  8
0
 10
253.295361
 20
248.824773
 42
0.000000
  0
VERTEX
  8
0
 10
248.941025
 20
244.662386
 42
-0.004650
  0
VERTEX
  8
0
 10
247.360892
 20
243.179784
 42
-0.019383
  0
VERTEX
  8
0
 10
246.367105
 20
242.333331
 42
-0.543125
  0
VERTEX
  8
0
 10
246.247565
 20
242.374057
 42
-0.238039
  0
VERTEX
  8
0
 10
246.293344
 20
242.578741
 42
0.023917
  0
VERTEX
  8
0
 10
246.946566
 20
243.456829
 42
0.025430
  0
VERTEX
  8
0
 10
247.498670
 20
244.375959
 42
0.026125
  0
VERTEX
  8
0
 10
247.889166
 20
245.210112
 42
0.096698
  0
VERTEX
  8
0
 10
248.000000
 20
245.777849
 42
0.264746
  0
VERTEX
  8
0
 10
246.319869
 20
248.728540
 42
0.023468
  0
VERTEX
  8
0
 10
238.468523
 20
252.902579
 42
0.028552
  0
VERTEX
  8
0
 10
228.826657
 20
256.805361
 42
0.030057
  0
VERTEX
  8
0
 10
218.965431
 20
259.507272
 42
0.009124
  0
VERTEX
  8
0
 10
213.068338
 20
260.635813
 42
0.044541
  0
VERTEX
  8
0
 10
209.684632
 20
260.913275
 42
0.095018
  0
VERTEX
  8
0
 10
207.681514
 20
260.514154
 42
0.207464
  0
SEQEND
  0
POLYLINE
  8
0
 66
1
 70
1
  0
VERTEX
  8
0
 10
190.952003
 20
246.444524
 42
0.000000
  0
VERTEX
  8
0
 10
188.500000
 20
243.830101
 42
0.000000
  0
VERTEX
  8
0
 10
190.790997
 20
241.971561
 42
0.063191
  0
VERTEX
  8
0
 10
194.042031
 20
239.954362
 42
0.021803
  0
VERTEX
  8
0
 10
199.175586
 20
237.870965
 42
0.022182
  0
VERTEX
  8
0
 10
204.730771
 20
236.167303
 42
0.037984
  0
VERTEX
  8
0
 10
209.500000
 20
235.312822
 42
0.062563
  0
VERTEX
  8
0
 10
214.065431
 20
235.420635
 42
0.039855
  0
VERTEX
  8
0
 10
219.247643
 20
236.624410
 42
0.039299
  0
VERTEX
  8
0
 10
224.281484
 20
238.672846
 42
0.053150
  0
VERTEX
  8
0
 10
228.411309
 20
241.327085
 42
0.050023
  0
VERTEX
  8
0
 10
230.323312
 20
243.208703
 42
0.272204
  0
VERTEX
  8
0
 10
230.548273
 20
244.585917
 42
0.221790
  0
VERTEX
  8
0
 10
229.429400
 20
245.659334
 42
0.035692
  0
VERTEX
  8
0
 10
226.427508
 20
246.447622
 42
0.045602
  0
VERTEX
  8
0
 10
224.443048
 20
246.635324
 42
0.043739
  0
VERTEX
  8
0
 10
222.428807
 20
246.465209
 42
0.036535
  0
VERTEX
  8
0
 10
220.177173
 20
245.902930
 42
0.018795
  0
VERTEX
  8
0
 10
217.450756
 20
244.891185
 42
0.000000
  0
VERTEX
  8
0
 10
212.068587
 20
242.660400
 42
0.000000
  0
VERTEX
  8
0
 10
204.284293
 20
245.245000
 42
-0.001071
  0
VERTEX
  8
0
 10
201.190161
 20
246.279698
 42
-0.001351
  0
VERTEX
  8
0
 10
198.331912
 20
247.250933
 42
-0.001070
  0
VERTEX
  8
0
 10
195.938190
 20
248.077271
 42
-0.010861
  0
VERTEX
  8
0
 10
194.952003
 20
248.444273
 42
0.142504
  0
VERTEX
  8
0
 10
194.147797
 20
248.520807
 42
0.068953
  0
VERTEX
  8
0
 10
193.159879
 20
248.186930
 42
0.054539
  0
VERTEX
  8
0
 10
192.067936
 20
247.483066
 42
0.033990
  0
SEQEND
  0
POLYLINE
  8
0
 66
1
 70
1
  0
VERTEX
  8
0
 10
74.621722
 20
235.686882
 42
0.028768
  0
VERTEX
  8
0
 10
73.272499
 20
234.473641
 42
0.078105
  0
VERTEX
  8
0
 10
72.522245
 20
233.433769
 42
0.106520
  0
VERTEX
  8
0
 10
72.255553
 20
232.418466
 42
0.088218
  0
VERTEX
  8
0
 10
72.402269
 20
231.307924
 42
-0.059557
  0
VERTEX
  8
0
 10
72.607866
 20
230.229340
 42
-0.175490
  0
VERTEX
  8
0
 10
72.403758
 20
229.514307
 42
-0.141485
  0
VERTEX
  8
0
 10
71.747836
 20
229.000823
 42
-0.034309
  0
VERTEX
  8
0
 10
70.425243
 20
228.570593
 42
-0.068104
  0
VERTEX
  8
0
 10
67.445780
 20
228.241807
 42
-0.025101
  0
VERTEX
  8
0
 10
63.220364
 20
228.564767
 42
-0.022738
  0
VERTEX
  8
0
 10
58.282550
 20
229.422268
 42
-0.017642
  0
VERTEX
  8
0
 10
53.000000
 20
230.786299
 42
0.031379
  0
VERTEX
  8
0
 10
49.847986
 20
231.508505
 42
0.016821
  0
VERTEX
  8
0
 10
45.887271
 20
232.021727
 42
0.014228
  0
VERTEX
  8
0
 10
41.127729
 20
232.339984
 42
0.008698
  0
VERTEX
  8
0
 10
35.500000
 20
232.457725
 42
0.005225
  0
VERTEX
  8
0
 10
28.043606
 20
232.406078
 42
0.037208
  0
VERTEX
  8
0
 10
24.449314
 20
232.075344
 42
0.059593
  0
VERTEX
  8
0
 10
21.669052
 20
231.260235
 42
0.025416
  0
VERTEX
  8
0
 10
18.181148
 20
229.553597
 42
0.020617
  0
VERTEX
  8
0
 10
15.932032
 20
228.183601
 42
0.015476
  0
VERTEX
  8
0
 10
13.571510
 20
226.500960
 42
0.015713
  0
VERTEX
  8
0
 10
11.446065
 20
224.776366
 42
0.034310
  0
VERTEX
  8
0
 10
9.957788
 20
223.299142
 42
0.068391
  0
VERTEX
  8
0
 10
7.460833
 20
219.520740
 42
0.039333
  0
VERTEX
  8
0
 10
5.490305
 20
214.421678
 42
0.039091
  0
VERTEX
  8
0
 10
4.325222
 20
209.008617
 42
0.061602
  0
VERTEX
  8
0
 10
4.273917
 20
204.262172
 42
0.104275
  0
VERTEX
  8
0
 10
6.474288
 20
197.623230
 42
0.083336
  0
VERTEX
  8
0
 10
11.307071
 20
191.816671
 42
0.087608
  0
VERTEX
  8
0
 10
17.511519
 20
188.134440
 42
0.136863
  0
VERTEX
  8
0
 10
23.659223
 20
187.587036
 42
0.092081
  0
VERTEX
  8
0
 10
26.966347
 20
188.857862
 42
0.038390
  0
VERTEX
  8
0
 10
30.851054
 20
191.673980
 42
0.035962
  0
VERTEX
  8
0
 10
34.114957
 20
194.876424
 42
0.182747
  0
VERTEX
  8
0
 10
35.000000
 20
197.217055
 42
0.128127
  0
VERTEX
  8
0
 10
34.809390
 20
197.948680
 42
0.029765
  0
VERTEX
  8
0
 10
34.118750
 20
199.027974
 42
0.028815
  0
VERTEX
  8
0
 10
33.148353
 20
200.212471
 42
0.024753
  0
VERTEX
  8
0
 10
32.000000
 20
201.342416
 42
-0.057794
  0
VERTEX
  8
0
 10
29.449834
 20
204.206324
 42
-0.231416
  0
VERTEX
  8
0
 10
29.092591
 20
206.459701
 42
-0.300998
  0
VERTEX
  8
0
 10
30.609759
 20
207.707941
 42
-0.080150
  0
VERTEX
  8
0
 10
33.895597
 20
207.522931
 42
-0.066168
  0
VERTEX
  8
0
 10
35.315244
 20
207.007375
 42
-0.073938
  0
VERTEX
  8
0
 10
36.492205
 20
206.152655
 42
-0.061924
  0
VERTEX
  8
0
 10
37.518995
 20
204.860335
 42
-0.031029
  0
VERTEX
  8
0
 10
38.494412
 20
203.012391
 42
-0.072104
  0
VERTEX
  8
0
 10
39.645151
 20
199.005651
 42
-0.096306
  0
VERTEX
  8
0
 10
39.432678
 20
195.236133
 42
-0.079811
  0
VERTEX
  8
0
 10
37.738319
 20
191.312129
 42
-0.035762
  0
VERTEX
  8
0
 10
34.380200
 20
186.786616
 42
0.016544
  0
VERTEX
  8
0
 10
30.160637
 20
181.534344
 42
0.063174
  0
VERTEX
  8
0
 10
28.086624
 20
177.891188
 42
0.078725
  0
VERTEX
  8
0
 10
27.222923
 20
174.271409
 42
0.035187
  0
VERTEX
  8
0
 10
27.189749
 20
169.360984
 42
0.015905
  0
VERTEX
  8
0
 10
27.521429
 20
165.894675
 42
0.052303
  0
VERTEX
  8
0
 10
28.048542
 20
163.660693
 42
0.067089
  0
VERTEX
  8
0
 10
28.946228
 20
161.894354
 42
0.039973
  0
VERTEX
  8
0
 10
30.439179
 20
160.063483
 42
0.046325
  0
VERTEX
  8
0
 10
33.563142
 20
157.355283
 42
0.056357
  0
VERTEX
  8
0
 10
36.942730
 20
155.469081
 42
0.055655
  0
VERTEX
  8
0
 10
40.693739
 20
154.369059
 42
0.043544
  0
VERTEX
  8
0
 10
44.923472
 20
154.000000
 42
0.025058
  0
VERTEX
  8
0
 10
47.934901
 20
154.151014
 42
0.075454
  0
VERTEX
  8
0
 10
49.921954
 20
154.660154
 42
0.068104
  0
VERTEX
  8
0
 10
51.778572
 20
155.766646
 42
0.017818
  0
VERTEX
  8
0
 10
54.416672
 20
158.029956
 42
0.045384
  0
VERTEX
  8
0
 10
57.433910
 20
161.365211
 42
0.084299
  0
VERTEX
  8
0
 10
59.102529
 20
164.598123
 42
0.085766
  0
VERTEX
  8
0
 10
59.594406
 20
168.161813
 42
0.048396
  0
VERTEX
  8
0
 10
59.024273
 20
172.500000
 42
0.063270
  0
VERTEX
  8
0
 10
57.840803
 20
175.704654
 42
0.092366
  0
VERTEX
  8
0
 10
55.990089
 20
178.068010
 42
0.098782
  0
VERTEX
  8
0
 10
53.515726
 20
179.502263
 42
0.082283
  0
VERTEX
  8
0
 10
50.511661
 20
180.000000
 42
0.057584
  0
VERTEX
  8
0
 10
48.140461
 20
179.726005
 42
0.127757
  0
VERTEX
  8
0
 10
46.541995
 20
178.885234
 42
0.118416
  0
VERTEX
  8
0
 10
45.481067
 20
177.323459
 42
0.045737
  0
VERTEX
  8
0
 10
44.779166
 20
174.782953
 42
0.106270
  0
VERTEX
  8
0
 10
44.848329
 20
172.725140
 42
0.078654
  0
VERTEX
  8
0
 10
45.742493
 20
170.623894
 42
0.076418
  0
VERTEX
  8
0
 10
47.275319
 20
168.847234
 42
0.089900
  0
VERTEX
  8
0
 10
49.193895
 20
167.730605
 42
-0.319038
  0
VERTEX
  8
0
 10
49.840503
 20
166.796263
 42
-0.147568
  0
VERTEX
  8
0
 10
49.373055
 20
165.313087
 42
-0.085950
  0
VERTEX
  8
0
 10
47.798839
 20
163.689024
 42
-0.071909
  0
VERTEX
  8
0
 10
45.673547
 20
162.566500
 42
-0.108151
  0
VERTEX
  8
0
 10
43.261055
 20
162.258711
 42
-0.081653
  0
VERTEX
  8
0
 10
40.666066
 20
162.925505
 42
-0.075039
  0
VERTEX
  8
0
 10
38.227857
 20
164.468627
 42
-0.069287
  0
VERTEX
  8
0
 10
36.276608
 20
166.700595
 42
-0.124923
  0
VERTEX
  8
0
 10
35.366826
 20
169.343921
 42
-0.095320
  0
VERTEX
  8
0
 10
35.695279
 20
172.397764
 42
-0.067378
  0
VERTEX
  8
0
 10
37.348778
 20
175.986464
 42
-0.029223
  0
VERTEX
  8
0
 10
40.428965
 20
180.258039
 42
0.018170
  0
VERTEX
  8
0
 10
44.376253
 20
185.484715
 42
0.050909
  0
VERTEX
  8
0
 10
46.608671
 20
189.487336
 42
0.061971
  0
VERTEX
  8
0
 10
47.743055
 20
193.384522
 42
0.038690
  0
VERTEX
  8
0
 10
48.133635
 20
198.129741
 42
0.056884
  0
VERTEX
  8
0
 10
47.571667
 20
203.271530
 42
0.074744
  0
VERTEX
  8
0
 10
45.859101
 20
207.664528
 42
0.077559
  0
VERTEX
  8
0
 10
42.992729
 20
211.240200
 42
0.067228
  0
VERTEX
  8
0
 10
39.038723
 20
213.980245
 42
0.049041
  0
VERTEX
  8
0
 10
34.865631
 20
215.616821
 42
0.092923
  0
VERTEX
  8
0
 10
31.281703
 20
215.941784
 42
0.099446
  0
VERTEX
  8
0
 10
27.986646
 20
214.947259
 42
0.062631
  0
VERTEX
  8
0
 10
24.695417
 20
212.615130
 42
0.023095
  0
VERTEX
  8
0
 10
22.772879
 20
210.683537
 42
0.066852
  0
VERTEX
  8
0
 10
21.704725
 20
209.133430
 42
0.077828
  0
VERTEX
  8
0
 10
21.172169
 20
207.496372
 42
0.039814
  0
VERTEX
  8
0
 10
21.000000
 20
205.337636
 42
0.034555
  0
VERTEX
  8
0
 10
21.114408
 20
203.684148
 42
0.027814
  0
VERTEX
  8
0
 10
21.457643
 20
201.935094
 42
0.028619
  0
VERTEX
  8
0
 10
21.959693
 20
200.349328
 42
0.061873
  0
VERTEX
  8
0
 10
22.557933
 20
199.220752
 42
-0.134046
  0
VERTEX
  8
0
 10
23.499809
 20
196.595823
 42
-0.364392
  0
VERTEX
  8
0
 10
22.433305
 20
195.104670
 42
-0.191969
  0
VERTEX
  8
0
 10
19.754508
 20
195.450180
 42
-0.078994
  0
VERTEX
  8
0
 10
16.823156
 20
197.750000
 42
-0.118489
  0
VERTEX
  8
0
 10
13.071762
 20
204.425192
 42
-0.141109
  0
VERTEX
  8
0
 10
13.102314
 20
211.623910
 42
-0.128537
  0
VERTEX
  8
0
 10
17.045010
 20
218.197107
 42
-0.090195
  0
VERTEX
  8
0
 10
24.226920
 20
223.057351
 42
-0.054733
  0
VERTEX
  8
0
 10
29.557797
 20
224.739628
 42
-0.052598
  0
VERTEX
  8
0
 10
35.199594
 20
225.255735
 42
-0.040457
  0
VERTEX
  8
0
 10
42.007267
 20
224.608806
 42
-0.016628
  0
VERTEX
  8
0
 10
51.085104
 20
222.684673
 42
0.022979
  0
VERTEX
  8
0
 10
60.082570
 20
220.896632
 42
0.047665
  0
VERTEX
  8
0
 10
67.224931
 20
220.503665
 42
0.054754
  0
VERTEX
  8
0
 10
73.651275
 20
221.472891
 42
0.041675
  0
VERTEX
  8
0
 10
80.362549
 20
223.865006
 42
0.010490
  0
VERTEX
  8
0
 10
82.855121
 20
225.058848
 42
0.013720
  0
VERTEX
  8
0
 10
85.078190
 20
226.259187
 42
0.011272
  0
VERTEX
  8
0
 10
86.866717
 20
227.343655
 42
0.112877
  0
VERTEX
  8
0
 10
87.476640
 20
227.962203
 42
0.257009
  0
VERTEX
  8
0
 10
87.515465
 20
228.731193
 42
0.044839
  0
VERTEX
  8
0
 10
86.738746
 20
230.020222
 42
0.034723
  0
VERTEX
  8
0
 10
85.363799
 20
231.648198
 42
0.015876
  0
VERTEX
  8
0
 10
83.362485
 20
233.582194
 42
0.004785
  0
VERTEX
  8
0
 10
81.462745
 20
235.271979
 42
0.007332
  0
VERTEX
  8
0
 10
79.781480
 20
236.695979
 42
0.003118
  0
VERTEX
  8
0
 10
78.328082
 20
237.875710
 42
0.170858
  0
VERTEX
  8
0
 10
78.000000
 20
237.990714
 42
0.142896
  0
VERTEX
  8
0
 10
77.687655
 20
237.899148
 42
0.007369
  0
VERTEX
  8
0
 10
76.801381
 20
237.313696
 42
0.011219
  0
VERTEX
  8
0
 10
75.760771
 20
236.569304
 42
0.007869
  0
SEQEND
  0
POLYLINE
  8
0
 66
1
 70
1
  0
VERTEX
  8
0
 10
254.597260
 20
235.327974
 42
0.023673
  0
VERTEX
  8
0
 10
253.595488
 20
233.808085
 42
0.106588
  0
VERTEX
  8
0
 10
253.259646
 20
232.804878
 42
0.130305
  0
VERTEX
  8
0
 10
253.401096
 20
231.859243
 42
0.042819
  0
VERTEX
  8
0
 10
254.072920
 20
230.609399
 42
-0.021238
  0
VERTEX
  8
0
 10
257.465196
 20
224.902859
 42
-0.042904
  0
VERTEX
  8
0
 10
259.539235
 20
220.106097
 42
-0.047574
  0
VERTEX
  8
0
 10
260.636435
 20
215.361926
 42
-0.033063
  0
VERTEX
  8
0
 10
261.000000
 20
209.869805
 42
-0.031415
  0
VERTEX
  8
0
 10
260.595272
 20
203.434450
 42
-0.047928
  0
VERTEX
  8
0
 10
259.367307
 20
197.979019
 42
-0.047248
  0
VERTEX
  8
0
 10
257.107141
 20
192.801630
 42
-0.029480
  0
VERTEX
  8
0
 10
253.560393
 20
187.206539
 42
-0.045606
  0
VERTEX
  8
0
 10
249.603270
 20
182.649624
 42
-0.077081
  0
VERTEX
  8
0
 10
245.468659
 20
179.755408
 42
-0.073449
  0
VERTEX
  8
0
 10
240.508176
 20
178.165154
 42
-0.037865
  0
VERTEX
  8
0
 10
234.000000
 20
177.591578
 42
-0.012295
  0
VERTEX
  8
0
 10
229.872855
 20
177.642670
 42
-0.040829
  0
VERTEX
  8
0
 10
227.179771
 20
177.963522
 42
-0.053731
  0
VERTEX
  8
0
 10
224.989008
 20
178.659376
 42
-0.035333
  0
VERTEX
  8
0
 10
222.646984
 20
179.895227
 42
-0.068833
  0
VERTEX
  8
0
 10
218.501444
 20
183.342106
 42
-0.088448
  0
VERTEX
  8
0
 10
215.858643
 20
187.526933
 42
-0.107195
  0
VERTEX
  8
0
 10
215.124602
 20
191.721055
 42
-0.153435
  0
VERTEX
  8
0
 10
216.392046
 20
195.250000
 42
-0.160023
  0
VERTEX
  8
0
 10
218.756153
 20
196.881769
 42
-0.212794
  0
VERTEX
  8
0
 10
221.313705
 20
196.540757
 42
-0.160365
  0
VERTEX
  8
0
 10
223.297696
 20
194.189510
 42
-0.096009
  0
VERTEX
  8
0
 10
224.000000
 20
190.565741
 42
0.047767
  0
VERTEX
  8
0
 10
224.135308
 20
189.152631
 42
0.190155
  0
VERTEX
  8
0
 10
224.594162
 20
188.431601
 42
0.136948
  0
VERTEX
  8
0
 10
225.528875
 20
188.084008
 42
0.020959
  0
VERTEX
  8
0
 10
227.532119
 20
188.000000
 42
0.157490
  0
VERTEX
  8
0
 10
236.510680
 20
190.900004
 42
0.158480
  0
VERTEX
  8
0
 10
242.069129
 20
198.497653
 42
0.142373
  0
VERTEX
  8
0
 10
242.416941
 20
208.595283
 42
0.122177
  0
VERTEX
  8
0
 10
237.382619
 20
217.998247
 42
0.057060
  0
VERTEX
  8
0
 10
233.469505
 20
221.444786
 42
0.070090
  0
VERTEX
  8
0
 10
229.128862
 20
223.639530
 42
0.061280
  0
VERTEX
  8
0
 10
223.892424
 20
224.732560
 42
0.032200
  0
VERTEX
  8
0
 10
217.233434
 20
224.859070
 42
0.012806
  0
VERTEX
  8
0
 10
212.576459
 20
224.527907
 42
0.048570
  0
VERTEX
  8
0
 10
209.715898
 20
223.966882
 42
0.054656
  0
VERTEX
  8
0
 10
207.189139
 20
222.898784
 42
0.019250
  0
VERTEX
  8
0
 10
203.825029
 20
220.847173
 42
0.068765
  0
VERTEX
  8
0
 10
196.707636
 20
214.561247
 42
0.065822
  0
VERTEX
  8
0
 10
191.437507
 20
206.492416
 42
0.057505
  0
VERTEX
  8
0
 10
187.941935
 20
196.361425
 42
0.035765
  0
VERTEX
  8
0
 10
186.112640
 20
183.909406
 42
-0.007189
  0
VERTEX
  8
0
 10
185.533004
 20
177.394864
 42
-0.024859
  0
VERTEX
  8
0
 10
184.888380
 20
173.209788
 42
-0.035773
  0
VERTEX
  8
0
 10
183.982052
 20
169.985854
 42
-0.033268
  0
VERTEX
  8
0
 10
182.607777
 20
166.841803
 42
0.040202
  0
VERTEX
  8
0
 10
181.006252
 20
163.035051
 42
0.046507
  0
VERTEX
  8
0
 10
180.129116
 20
159.201297
 42
0.052474
  0
VERTEX
  8
0
 10
180.043358
 20
156.040325
 42
0.239290
  0
VERTEX
  8
0
 10
180.971754
 20
154.517457
 42
0.257451
  0
VERTEX
  8
0
 10
182.533312
 20
154.439914
 42
0.057626
  0
VERTEX
  8
0
 10
184.860854
 20
155.930042
 42
0.051336
  0
VERTEX
  8
0
 10
187.238403
 20
158.316045
 42
0.052372
  0
VERTEX
  8
0
 10
189.061869
 20
161.121273
 42
0.040515
  0
VERTEX
  8
0
 10
190.864208
 20
165.496510
 42
0.020077
  0
VERTEX
  8
0
 10
192.464634
 20
171.287778
 42
0.020071
  0
VERTEX
  8
0
 10
193.607802
 20
177.253225
 42
0.036530
  0
VERTEX
  8
0
 10
193.985219
 20
182.198378
 42
-0.055681
  0
VERTEX
  8
0
 10
194.639862
 20
187.896168
 42
-0.024017
  0
VERTEX
  8
0
 10
196.708464
 20
195.265416
 42
-0.023956
  0
VERTEX
  8
0
 10
199.460940
 20
202.370501
 42
-0.058592
  0
VERTEX
  8
0
 10
202.313826
 20
207.189238
 42
-0.023684
  0
VERTEX
  8
0
 10
203.869658
 20
209.040313
 42
-0.014328
  0
VERTEX
  8
0
 10
205.873607
 20
211.086514
 42
-0.014341
  0
VERTEX
  8
0
 10
207.984751
 20
213.008365
 42
-0.024358
  0
VERTEX
  8
0
 10
209.869615
 20
214.474571
 42
-0.124058
  0
VERTEX
  8
0
 10
217.302946
 20
217.319672
 42
-0.124840
  0
VERTEX
  8
0
 10
225.177908
 20
216.292495
 42
-0.127374
  0
VERTEX
  8
0
 10
231.497490
 20
211.670433
 42
-0.132023
  0
VERTEX
  8
0
 10
234.673903
 20
204.622075
 42
-0.035742
  0
VERTEX
  8
0
 10
234.834658
 20
202.829146
 42
-0.077603
  0
VERTEX
  8
0
 10
234.646428
 20
201.463100
 42
-0.081270
  0
VERTEX
  8
0
 10
234.058831
 20
200.259029
 42
-0.042327
  0
VERTEX
  8
0
 10
232.978590
 20
198.978590
 42
0.000000
  0
VERTEX
  8
0
 10
230.732031
 20
196.732031
 42
0.000000
  0
VERTEX
  8
0
 10
229.398550
 20
199.903448
 42
0.100417
  0
VERTEX
  8
0
 10
227.837674
 20
202.193868
 42
0.061660
  0
VERTEX
  8
0
 10
225.227391
 20
204.175260
 42
0.059236
  0
VERTEX
  8
0
 10
222.074309
 20
205.537386
 42
0.072489
  0
VERTEX
  8
0
 10
218.900153
 20
206.000000
 42
0.104852
  0
VERTEX
  8
0
 10
216.239998
 20
205.435952
 42
0.046383
  0
VERTEX
  8
0
 10
213.091041
 20
203.672147
 42
0.045845
  0
VERTEX
  8
0
 10
210.217178
 20
201.276437
 42
0.076905
  0
VERTEX
  8
0
 10
208.367162
 20
198.743120
 42
0.049116
  0
VERTEX
  8
0
 10
207.676718
 20
197.009929
 42
0.037840
  0
VERTEX
  8
0
 10
207.261522
 20
195.016034
 42
0.031908
  0
VERTEX
  8
0
 10
207.106343
 20
192.663279
 42
0.018571
  0
VERTEX
  8
0
 10
207.205592
 20
189.834482
 42
0.059916
  0
VERTEX
  8
0
 10
208.263348
 20
184.390178
 42
0.077324
  0
VERTEX
  8
0
 10
210.548317
 20
179.846141
 42
0.072413
  0
VERTEX
  8
0
 10
214.240807
 20
175.998619
 42
0.045402
  0
VERTEX
  8
0
 10
219.500000
 20
172.622889
 42
0.019070
  0
VERTEX
  8
0
 10
223.189541
 20
170.877974
 42
0.050110
  0
VERTEX
  8
0
 10
225.979756
 20
170.004174
 42
0.041657
  0
VERTEX
  8
0
 10
229.170768
 20
169.619113
 42
0.010034
  0
VERTEX
  8
0
 10
234.500000
 20
169.529806
 42
0.010946
  0
VERTEX
  8
0
 10
239.187165
 20
169.647963
 42
0.027313
  0
VERTEX
  8
0
 10
242.594762
 20
169.995744
 42
0.034835
  0
VERTEX
  8
0
 10
245.408028
 20
170.642485
 42
0.033035
  0
VERTEX
  8
0
 10
248.156331
 20
171.682141
 42
0.134736
  0
VERTEX
  8
0
 10
260.121862
 20
181.670003
 42
0.090569
  0
VERTEX
  8
0
 10
267.534136
 20
197.972239
 42
0.087778
  0
VERTEX
  8
0
 10
268.840273
 20
216.341534
 42
0.114755
  0
VERTEX
  8
0
 10
263.359218
 20
232.207004
 42
0.035833
  0
VERTEX
  8
0
 10
261.768702
 20
234.375747
 42
0.036126
  0
VERTEX
  8
0
 10
259.888842
 20
236.288845
 42
0.036759
  0
VERTEX
  8
0
 10
258.075169
 20
237.663193
 42
0.170157
  0
VERTEX
  8
0
 10
256.815741
 20
237.968575
 42
0.189991
  0
VERTEX
  8
0
 10
256.628617
 20
237.872412
 42
0.005460
  0
VERTEX
  8
0
 10
256.033819
 20
237.179936
 42
0.010326
  0
VERTEX
  8
0
 10
255.349297
 20
236.330138
 42
0.006839
  0
SEQEND
  0
POLYLINE
  8
0
 66
1
 70
1
  0
VERTEX
  8
0
 10
198.160048
 20
234.692846
 42
-0.076969
  0
VERTEX
  8
0
 10
197.313073
 20
233.943317
 42
-0.005691
  0
VERTEX
  8
0
 10
194.682301
 20
232.296079
 42
-0.007802
  0
VERTEX
  8
0
 10
191.476849
 20
230.407451
 42
-0.005837
  0
VERTEX
  8
0
 10
187.889364
 20
228.423513
 42
0.023375
  0
VERTEX
  8
0
 10
179.954950
 20
223.664993
 42
0.050813
  0
VERTEX
  8
0
 10
174.476275
 20
219.157025
 42
0.053286
  0
VERTEX
  8
0
 10
170.177520
 20
213.778555
 42
0.028172
  0
VERTEX
  8
0
 10
165.992027
 20
206.321896
 42
-0.005351
  0
VERTEX
  8
0
 10
164.220638
 20
202.798598
 42
-0.008442
  0
VERTEX
  8
0
 10
162.618016
 20
199.818741
 42
-0.003309
  0
VERTEX
  8
0
 10
161.198220
 20
197.321351
 42
-0.240167
  0
VERTEX
  8
0
 10
160.813985
 20
197.071896
 42
-0.248781
  0
VERTEX
  8
0
 10
160.443342
 20
197.221330
 42
-0.014725
  0
VERTEX
  8
0
 10
159.666047
 20
198.201551
 42
-0.019398
  0
VERTEX
  8
0
 10
158.784637
 20
199.483824
 42
-0.012846
  0
VERTEX
  8
0
 10
157.869452
 20
201.018489
 42
0.022176
  0
VERTEX
  8
0
 10
156.927463
 20
202.533148
 42
0.033261
  0
VERTEX
  8
0
 10
155.964331
 20
203.755799
 42
0.035216
  0
VERTEX
  8
0
 10
155.099558
 20
204.588778
 42
0.258128
  0
VERTEX
  8
0
 10
154.555468
 20
204.694005
 42
0.197885
  0
VERTEX
  8
0
 10
154.092860
 20
204.300459
 42
0.025050
  0
VERTEX
  8
0
 10
153.541104
 20
203.081587
 42
0.026295
  0
VERTEX
  8
0
 10
153.012115
 20
201.498112
 42
0.019007
  0
VERTEX
  8
0
 10
152.584460
 20
199.686544
 42
0.031760
  0
VERTEX
  8
0
 10
152.181501
 20
196.611915
 42
0.071886
  0
VERTEX
  8
0
 10
152.360922
 20
194.277430
 42
0.066707
  0
VERTEX
  8
0
 10
153.207130
 20
191.983809
 42
0.024332
  0
VERTEX
  8
0
 10
154.976769
 20
189.000000
 42
-0.011607
  0
VERTEX
  8
0
 10
155.554416
 20
188.080184
 42
-0.001542
  0
VERTEX
  8
0
 10
156.723753
 20
186.104688
 42
-0.001786
  0
VERTEX
  8
0
 10
158.094753
 20
183.752926
 42
-0.001499
  0
VERTEX
  8
0
 10
159.531931
 20
181.250000
 42
0.009210
  0
VERTEX
  8
0
 10
160.956821
 20
178.854790
 42
0.014051
  0
VERTEX
  8
0
 10
162.288689
 20
176.835938
 42
0.008544
  0
VERTEX
  8
0
 10
163.458224
 20
175.226359
 42
0.235554
  0
VERTEX
  8
0
 10
163.912046
 20
175.000000
 42
0.251082
  0
VERTEX
  8
0
 10
164.315475
 20
175.216218
 42
0.018481
  0
VERTEX
  8
0
 10
164.993688
 20
176.322778
 42
0.022226
  0
VERTEX
  8
0
 10
165.729853
 20
177.777599
 42
0.014800
  0
VERTEX
  8
0
 10
166.448024
 20
179.503075
 42
0.000000
  0
VERTEX
  8
0
 10
168.167764
 20
184.006150
 42
0.000000
  0
VERTEX
  8
0
 10
165.083882
 20
189.018098
 42
-0.004950
  0
VERTEX
  8
0
 10
162.656135
 20
193.052639
 42
-0.091997
  0
VERTEX
  8
0
 10
162.150693
 20
194.444549
 42
-0.681863
  0
VERTEX
  8
0
 10
162.541715
 20
194.678271
 42
-0.024012
  0
VERTEX
  8
0
 10
164.406931
 20
193.087434
 42
0.000000
  0
VERTEX
  8
0
 10
166.813862
 20
190.826240
 42
0.000000
  0
VERTEX
  8
0
 10
169.528425
 20
195.458292
 42
-0.019066
  0
VERTEX
  8
0
 10
171.281452
 20
198.204017
 42
-0.088864
  0
VERTEX
  8
0
 10
172.601906
 20
199.529211
 42
-0.711332
  0
VERTEX
  8
0
 10
172.988900
 20
199.249026
 42
-0.046006
  0
VERTEX
  8
0
 10
172.214921
 20
197.335646
 42
0.062038
  0
VERTEX
  8
0
 10
171.814563
 20
196.247036
 42
0.011885
  0
VERTEX
  8
0
 10
171.385702
 20
194.181631
 42
0.012499
  0
VERTEX
  8
0
 10
171.000499
 20
191.731911
 42
0.011220
  0
VERTEX
  8
0
 10
170.722045
 20
189.176288
 42
-0.027622
  0
VERTEX
  8
0
 10
170.229418
 20
185.713653
 42
-0.028965
  0
VERTEX
  8
0
 10
169.362856
 20
182.382060
 42
-0.024853
  0
VERTEX
  8
0
 10
167.993056
 20
178.765655
 42
-0.012970
  0
VERTEX
  8
0
 10
165.949947
 20
174.399894
 42
-0.004834
  0
VERTEX
  8
0
 10
164.272962
 20
171.125453
 42
-0.007124
  0
VERTEX
  8
0
 10
162.732038
 20
168.286152
 42
-0.003682
  0
VERTEX
  8
0
 10
161.380994
 20
165.920155
 42
-0.123374
  0
VERTEX
  8
0
 10
160.930225
 20
165.456877
 42
-0.239474
  0
VERTEX
  8
0
 10
160.517528
 20
165.422345
 42
-0.061676
  0
VERTEX
  8
0
 10
159.915932
 20
165.758706
 42
-0.048988
  0
VERTEX
  8
0
 10
159.241210
 20
166.363630
 42
-0.032756
  0
VERTEX
  8
0
 10
158.591423
 20
167.172938
 42
0.019026
  0
VERTEX
  8
0
 10
157.973302
 20
167.987624
 42
0.033669
  0
VERTEX
  8
0
 10
157.395807
 20
168.602054
 42
0.040260
  0
VERTEX
  8
0
 10
156.923433
 20
168.975209
 42
0.387924
  0
VERTEX
  8
0
 10
156.691407
 20
168.939668
 42
0.046227
  0
VERTEX
  8
0
 10
154.151825
 20
165.116268
 42
0.104459
  0
VERTEX
  8
0
 10
153.176860
 20
161.797759
 42
0.102287
  0
VERTEX
  8
0
 10
153.617906
 20
158.323558
 42
0.043140
  0
VERTEX
  8
0
 10
155.529874
 20
154.000000
 42
-0.004263
  0
VERTEX
  8
0
 10
156.696248
 20
151.834524
 42
-0.001943
  0
VERTEX
  8
0
 10
158.185244
 20
148.985938
 42
-0.001924
  0
VERTEX
  8
0
 10
159.731197
 20
145.971830
 42
-0.002646
  0
VERTEX
  8
0
 10
161.095960
 20
143.250000
 42
0.007548
  0
VERTEX
  8
0
 10
163.284749
 20
138.989520
 42
0.089353
  0
VERTEX
  8
0
 10
164.431364
 20
137.536003
 42
0.280127
  0
VERTEX
  8
0
 10
165.486483
 20
137.345746
 42
0.104767
  0
VERTEX
  8
0
 10
166.800000
 20
138.200000
 42
-0.189579
  0
VERTEX
  8
0
 10
167.548770
 20
138.526051
 42
-0.501111
  0
VERTEX
  8
0
 10
167.857058
 20
138.143020
 42
-0.052008
  0
VERTEX
  8
0
 10
167.136009
 20
136.199700
 42
-0.011080
  0
VERTEX
  8
0
 10
165.464619
 20
133.000000
 42
0.005428
  0
VERTEX
  8
0
 10
164.470854
 20
131.148828
 42
0.005715
  0
VERTEX
  8
0
 10
163.534779
 20
129.307813
 42
0.005487
  0
VERTEX
  8
0
 10
162.763292
 20
127.702465
 42
0.025482
  0
VERTEX
  8
0
 10
162.376157
 20
126.750000
 42
-0.064071
  0
VERTEX
  8
0
 10
161.710605
 20
125.416984
 42
-0.308885
  0
VERTEX
  8
0
 10
160.964447
 20
125.118458
 42
-0.188673
  0
VERTEX
  8
0
 10
160.102026
 20
125.697846
 42
-0.028727
  0
VERTEX
  8
0
 10
159.000000
 20
127.500000
 42
0.063247
  0
VERTEX
  8
0
 10
157.786733
 20
129.207679
 42
0.171091
  0
VERTEX
  8
0
 10
156.492145
 20
129.894620
 42
0.202346
  0
VERTEX
  8
0
 10
155.204475
 20
129.565337
 42
0.090502
  0
VERTEX
  8
0
 10
154.001941
 20
128.250000
 42
-0.622952
  0
VERTEX
  8
0
 10
153.634064
 20
128.288237
 42
-0.163776
  0
VERTEX
  8
0
 10
153.610712
 20
129.112906
 42
-0.020716
  0
VERTEX
  8
0
 10
154.791248
 20
132.473862
 42
-0.008816
  0
VERTEX
  8
0
 10
156.635440
 20
136.874430
 42
0.007603
  0
VERTEX
  8
0
 10
157.538586
 20
139.014918
 42
0.009924
  0
VERTEX
  8
0
 10
158.295638
 20
141.000758
 42
0.007795
  0
VERTEX
  8
0
 10
158.866898
 20
142.675219
 42
0.085895
  0
VERTEX
  8
0
 10
158.966731
 20
143.374430
 42
0.138033
  0
VERTEX
  8
0
 10
158.574841
 20
144.624098
 42
0.023219
  0
VERTEX
  8
0
 10
157.094065
 20
146.678036
 42
0.020466
  0
VERTEX
  8
0
 10
155.442777
 20
148.591433
 42
0.207365
  0
VERTEX
  8
0
 10
154.500000
 20
149.000000
 42
0.209327
  0
VERTEX
  8
0
 10
153.482588
 20
148.554536
 42
0.024692
  0
VERTEX
  8
0
 10
151.861339
 20
146.614141
 42
0.027835
  0
VERTEX
  8
0
 10
150.437495
 20
144.492185
 42
0.128669
  0
VERTEX
  8
0
 10
150.033269
 20
143.083333
 42
-0.027118
  0
VERTEX
  8
0
 10
149.993091
 20
142.567292
 42
-0.068596
  0
VERTEX
  8
0
 10
149.893309
 20
142.205208
 42
-0.174502
  0
VERTEX
  8
0
 10
149.755366
 20
142.057553
 42
-0.332526
  0
VERTEX
  8
0
 10
149.603527
 20
142.083333
 42
-0.202258
  0
VERTEX
  8
0
 10
149.462670
 20
142.455928
 42
-0.002511
  0
VERTEX
  8
0
 10
149.573935
 20
145.059014
 42
-0.006925
  0
VERTEX
  8
0
 10
149.761415
 20
148.099255
 42
-0.004421
  0
VERTEX
  8
0
 10
150.059536
 20
151.628204
 42
-0.013959
  0
VERTEX
  8
0
 10
150.683900
 20
156.761467
 42
-0.031336
  0
VERTEX
  8
0
 10
151.507896
 20
160.597189
 42
-0.031259
  0
VERTEX
  8
0
 10
152.806184
 20
164.305629
 42
-0.013824
  0
VERTEX
  8
0
 10
154.956009
 20
169.031833
 42
0.003507
  0
VERTEX
  8
0
 10
156.505663
 20
172.260172
 42
0.005223
  0
VERTEX
  8
0
 10
157.812078
 20
175.108182
 42
0.002401
  0
VERTEX
  8
0
 10
158.885442
 20
177.545530
 42
0.102867
  0
VERTEX
  8
0
 10
159.000000
 20
178.096469
 42
0.104497
  0
VERTEX
  8
0
 10
158.897773
 20
178.580266
 42
0.008950
  0
VERTEX
  8
0
 10
158.361887
 20
179.735369
 42
0.011518
  0
VERTEX
  8
0
 10
157.659689
 20
181.099743
 42
0.008674
  0
VERTEX
  8
0
 10
156.827702
 20
182.567451
 42
0.010273
  0
VERTEX
  8
0
 10
155.516598
 20
184.688782
 42
0.117039
  0
VERTEX
  8
0
 10
154.810410
 20
185.364893
 42
0.301165
  0
VERTEX
  8
0
 10
154.183488
 20
185.330738
 42
0.075128
  0
VERTEX
  8
0
 10
153.423703
 20
184.564770
 42
-0.214017
  0
VERTEX
  8
0
 10
152.274834
 20
183.910396
 42
-0.348693
  0
VERTEX
  8
0
 10
151.382278
 20
184.488736
 42
-0.066806
  0
VERTEX
  8
0
 10
150.852328
 20
187.223325
 42
-0.009979
  0
VERTEX
  8
0
 10
150.638712
 20
192.834576
 42
-0.016046
  0
VERTEX
  8
0
 10
150.704011
 20
197.499896
 42
-0.048604
  0
VERTEX
  8
0
 10
151.156790
 20
200.639735
 42
-0.042095
  0
VERTEX
  8
0
 10
152.242596
 20
203.867648
 42
-0.009816
  0
VERTEX
  8
0
 10
154.618060
 20
209.071067
 42
0.000000
  0
VERTEX
  8
0
 10
158.736120
 20
217.642135
 42
0.000000
  0
VERTEX
  8
0
 10
156.784654
 20
220.321067
 42
0.082546
  0
VERTEX
  8
0
 10
154.521740
 20
222.544119
 42
0.324063
  0
VERTEX
  8
0
 10
152.677137
 20
222.516497
 42
0.108555
  0
VERTEX
  8
0
 10
150.653194
 20
220.175042
 42
0.008815
  0
VERTEX
  8
0
 10
146.890090
 20
212.927321
 42
0.055711
  0
VERTEX
  8
0
 10
143.934751
 20
204.830165
 42
0.038568
  0
VERTEX
  8
0
 10
142.365072
 20
195.198794
 42
0.039253
  0
VERTEX
  8
0
 10
142.308789
 20
185.803681
 42
0.076091
  0
VERTEX
  8
0
 10
143.975537
 20
178.500000
 42
0.000000
  0
VERTEX
  8
0
 10
145.160763
 20
175.500000
 42
0.000000
  0
VERTEX
  8
0
 10
147.367946
 20
178.250000
 42
-0.012722
  0
VERTEX
  8
0
 10
148.258455
 20
179.303453
 42
-0.017925
  0
VERTEX
  8
0
 10
149.108348
 20
180.192188
 42
-0.014254
  0
VERTEX
  8
0
 10
149.845965
 20
180.870288
 42
-0.180647
  0
VERTEX
  8
0
 10
150.193270
 20
181.000000
 42
-0.517798
  0
VERTEX
  8
0
 10
150.346489
 20
180.783200
 42
-0.003895
  0
VERTEX
  8
0
 10
149.477459
 20
178.388588
 42
-0.009454
  0
VERTEX
  8
0
 10
148.348764
 20
175.519711
 42
-0.005462
  0
VERTEX
  8
0
 10
146.888437
 20
172.110087
 42
0.032361
  0
VERTEX
  8
0
 10
144.141844
 20
164.606320
 42
0.039768
  0
VERTEX
  8
0
 10
142.611505
 20
157.307964
 42
0.041124
  0
VERTEX
  8
0
 10
142.285664
 20
150.070559
 42
0.039082
  0
VERTEX
  8
0
 10
143.133740
 20
142.750000
 42
0.029641
  0
VERTEX
  8
0
 10
143.989482
 20
139.436307
 42
0.094556
  0
VERTEX
  8
0
 10
145.081206
 20
137.440474
 42
0.266559
  0
VERTEX
  8
0
 10
146.204815
 20
137.016643
 42
0.229027
  0
VERTEX
  8
0
 10
147.252772
 20
137.750000
 42
-0.864784
  0
VERTEX
  8
0
 10
147.356330
 20
137.710410
 42
-0.025116
  0
VERTEX
  8
0
 10
147.086198
 20
136.736646
 42
-0.006382
  0
VERTEX
  8
0
 10
146.250853
 20
134.326124
 42
-0.001241
  0
VERTEX
  8
0
 10
144.677400
 20
130.000000
 42
0.045079
  0
VERTEX
  8
0
 10
143.297115
 20
124.836737
 42
0.030601
  0
VERTEX
  8
0
 10
142.629010
 20
118.784237
 42
0.026793
  0
VERTEX
  8
0
 10
142.655487
 20
113.286078
 42
0.183525
  0
VERTEX
  8
0
 10
143.743407
 20
110.859051
 42
0.322789
  0
VERTEX
  8
0
 10
145.616804
 20
110.553023
 42
0.090602
  0
VERTEX
  8
0
 10
148.130747
 20
112.437484
 42
0.072729
  0
VERTEX
  8
0
 10
150.269448
 20
115.552660
 42
0.114607
  0
VERTEX
  8
0
 10
151.000000
 20
118.698011
 42
0.000000
  0
VERTEX
  8
0
 10
151.000000
 20
122.021839
 42
0.000000
  0
VERTEX
  8
0
 10
156.250000
 20
115.859125
 42
0.009164
  0
VERTEX
  8
0
 10
160.515518
 20
111.034053
 42
0.054371
  0
VERTEX
  8
0
 10
163.043325
 20
108.817396
 42
0.156275
  0
VERTEX
  8
0
 10
164.739517
 20
108.290410
 42
0.250846
  0
VERTEX
  8
0
 10
166.037306
 20
109.000000
 42
0.054077
  0
VERTEX
  8
0
 10
167.288309
 20
111.457654
 42
0.090858
  0
VERTEX
  8
0
 10
167.705241
 20
113.728592
 42
0.095193
  0
VERTEX
  8
0
 10
167.283992
 20
115.925338
 42
0.064430
  0
VERTEX
  8
0
 10
166.040538
 20
118.159040
 42
-0.020734
  0
VERTEX
  8
0
 10
165.233801
 20
119.350538
 42
-0.031870
  0
VERTEX
  8
0
 10
164.647770
 20
120.449246
 42
-0.033087
  0
VERTEX
  8
0
 10
164.311128
 20
121.343267
 42
-0.276590
  0
VERTEX
  8
0
 10
164.411944
 20
121.745277
 42
-0.136972
  0
VERTEX
  8
0
 10
164.634704
 20
121.870802
 42
-0.260194
  0
VERTEX
  8
0
 10
164.827258
 20
121.817883
 42
-0.149591
  0
VERTEX
  8
0
 10
164.959189
 20
121.574374
 42
-0.049925
  0
VERTEX
  8
0
 10
165.000000
 20
121.166667
 42
0.214226
  0
VERTEX
  8
0
 10
165.391022
 20
120.295914
 42
0.251610
  0
VERTEX
  8
0
 10
166.261128
 20
120.088819
 42
0.112373
  0
VERTEX
  8
0
 10
167.569203
 20
120.775029
 42
0.045832
  0
VERTEX
  8
0
 10
168.978882
 20
122.222247
 42
-0.017374
  0
VERTEX
  8
0
 10
170.134763
 20
123.552426
 42
-0.516154
  0
VERTEX
  8
0
 10
170.511681
 20
123.502258
 42
-0.132654
  0
VERTEX
  8
0
 10
170.669178
 20
122.803623
 42
-0.002966
  0
VERTEX
  8
0
 10
170.502621
 20
119.334294
 42
-0.039006
  0
VERTEX
  8
0
 10
170.115667
 20
116.417118
 42
-0.034426
  0
VERTEX
  8
0
 10
169.271579
 20
113.467001
 42
-0.026665
  0
VERTEX
  8
0
 10
167.822721
 20
110.047925
 42
-0.011235
  0
VERTEX
  8
0
 10
165.532464
 20
105.612047
 42
-0.006145
  0
VERTEX
  8
0
 10
163.680050
 20
102.310945
 42
-0.009689
  0
VERTEX
  8
0
 10
162.001467
 20
99.529789
 42
-0.004182
  0
VERTEX
  8
0
 10
160.522439
 20
97.226210
 42
-0.253122
  0
VERTEX
  8
0
 10
160.104229
 20
97.000000
 42
-0.227588
  0
VERTEX
  8
0
 10
159.730849
 20
97.179237
 42
-0.019469
  0
VERTEX
  8
0
 10
159.082294
 20
98.056239
 42
-0.022686
  0
VERTEX
  8
0
 10
158.366008
 20
99.218114
 42
-0.015532
  0
VERTEX
  8
0
 10
157.655752
 20
100.595707
 42
0.000000
  0
VERTEX
  8
0
 10
155.941079
 20
104.191413
 42
0.000000
  0
VERTEX
  8
0
 10
153.220539
 20
102.465835
 42
-0.024513
  0
VERTEX
  8
0
 10
152.055234
 20
101.804450
 42
-0.727882
  0
VERTEX
  8
0
 10
151.895676
 20
101.965863
 42
-0.067730
  0
VERTEX
  8
0
 10
152.434025
 20
102.729559
 42
-0.003579
  0
VERTEX
  8
0
 10
154.486122
 20
104.904102
 42
0.009231
  0
VERTEX
  8
0
 10
156.959457
 20
107.585091
 42
0.095847
  0
VERTEX
  8
0
 10
157.721730
 20
108.869654
 42
0.170553
  0
VERTEX
  8
0
 10
157.729461
 20
110.041736
 42
0.045082
  0
VERTEX
  8
0
 10
156.951748
 20
111.776898
 42
0.035911
  0
VERTEX
  8
0
 10
156.252891
 20
112.836036
 42
0.036342
  0
VERTEX
  8
0
 10
155.412217
 20
113.779777
 42
0.038826
  0
VERTEX
  8
0
 10
154.560629
 20
114.486684
 42
0.106643
  0
VERTEX
  8
0
 10
153.845956
 20
114.791150
 42
0.204800
  0
VERTEX
  8
0
 10
152.260045
 20
114.446887
 42
0.014440
  0
VERTEX
  8
0
 10
148.558194
 20
111.652249
 42
0.016344
  0
VERTEX
  8
0
 10
143.828268
 20
107.601436
 42
0.007394
  0
VERTEX
  8
0
 10
137.888854
 20
102.004913
 42
0.000000
  0
VERTEX
  8
0
 10
134.277708
 20
98.500000
 42
0.000000
  0
VERTEX
  8
0
 10
129.388854
 20
100.343876
 42
0.030254
  0
VERTEX
  8
0
 10
126.551500
 20
101.222107
 42
0.033246
  0
VERTEX
  8
0
 10
123.716655
 20
101.718113
 42
0.026811
  0
VERTEX
  8
0
 10
120.370891
 20
101.896066
 42
0.011349
  0
VERTEX
  8
0
 10
115.875324
 20
101.791891
 42
0.011603
  0
VERTEX
  8
0
 10
110.863482
 20
101.445166
 42
0.041739
  0
VERTEX
  8
0
 10
107.710605
 20
100.885416
 42
0.048356
  0
VERTEX
  8
0
 10
104.936373
 20
99.854561
 42
0.019577
  0
VERTEX
  8
0
 10
101.375324
 20
97.948016
 42
0.042477
  0
VERTEX
  8
0
 10
94.483169
 20
93.073198
 42
0.026892
  0
VERTEX
  8
0
 10
87.305792
 20
86.329121
 42
0.026984
  0
VERTEX
  8
0
 10
80.948514
 20
78.914699
 42
0.045579
  0
VERTEX
  8
0
 10
76.577271
 20
72.000000
 42
-0.059540
  0
VERTEX
  8
0
 10
68.778295
 20
60.391721
 42
-0.122530
  0
VERTEX
  8
0
 10
59.904486
 20
54.104291
 42
-0.165229
  0
VERTEX
  8
0
 10
50.933757
 20
53.699537
 42
-0.134317
  0
VERTEX
  8
0
 10
42.682211
 20
58.752314
 42
-0.030618
  0
VERTEX
  8
0
 10
41.273774
 20
60.448087
 42
-0.069957
  0
VERTEX
  8
0
 10
40.489768
 20
61.910218
 42
-0.073115
  0
VERTEX
  8
0
 10
40.158620
 20
63.490701
 42
-0.036031
  0
VERTEX
  8
0
 10
40.182211
 20
65.548176
 42
-0.034382
  0
VERTEX
  8
0
 10
40.630116
 20
68.467659
 42
-0.241166
  0
VERTEX
  8
0
 10
41.523004
 20
69.540161
 42
-0.365398
  0
VERTEX
  8
0
 10
42.582398
 20
69.215453
 42
-0.053002
  0
VERTEX
  8
0
 10
43.678840
 20
67.039893
 42
0.151320
  0
VERTEX
  8
0
 10
46.643713
 20
63.229823
 42
0.124737
  0
VERTEX
  8
0
 10
51.481960
 20
61.403411
 42
0.115005
  0
VERTEX
  8
0
 10
56.930745
 20
62.039646
 42
0.115907
  0
VERTEX
  8
0
 10
61.518798
 20
65.019621
 42
0.037604
  0
VERTEX
  8
0
 10
63.101494
 20
66.941911
 42
0.081983
  0
VERTEX
  8
0
 10
63.929751
 20
68.656365
 42
0.057956
  0
VERTEX
  8
0
 10
64.316406
 20
70.900036
 42
0.011699
  0
VERTEX
  8
0
 10
64.443959
 20
74.951012
 42
0.011373
  0
VERTEX
  8
0
 10
64.381543
 20
79.206285
 42
0.067943
  0
VERTEX
  8
0
 10
64.000324
 20
81.386673
 42
0.088853
  0
VERTEX
  8
0
 10
63.085549
 20
83.118305
 42
0.026616
  0
VERTEX
  8
0
 10
61.118259
 20
85.377373
 42
0.033939
  0
VERTEX
  8
0
 10
59.459507
 20
86.871568
 42
0.018556
  0
VERTEX
  8
0
 10
57.243861
 20
88.481242
 42
0.018418
  0
VERTEX
  8
0
 10
54.861422
 20
89.956235
 42
0.027823
  0
VERTEX
  8
0
 10
52.677646
 20
91.043327
 42
0.052736
  0
VERTEX
  8
0
 10
48.234510
 20
92.422048
 42
0.068607
  0
VERTEX
  8
0
 10
43.985810
 20
92.670922
 42
0.058039
  0
VERTEX
  8
0
 10
39.307809
 20
91.749710
 42
0.026507
  0
VERTEX
  8
0
 10
33.479574
 20
89.533386
 42
-0.029974
  0
VERTEX
  8
0
 10
28.680456
 20
87.746365
 42
-0.064688
  0
VERTEX
  8
0
 10
24.800949
 20
87.091073
 42
-0.089971
  0
VERTEX
  8
0
 10
21.763991
 20
87.523145
 42
-0.129326
  0
VERTEX
  8
0
 10
19.500000
 20
89.000000
 42
-0.008952
  0
VERTEX
  8
0
 10
18.348967
 20
90.318576
 42
-0.275580
  0
VERTEX
  8
0
 10
18.281468
 20
90.731723
 42
-0.297030
  0
VERTEX
  8
0
 10
18.612010
 20
90.966440
 42
-0.010003
  0
VERTEX
  8
0
 10
20.289249
 20
91.000000
 42
0.068797
  0
VERTEX
  8
0
 10
21.477482
 20
91.164272
 42
0.034223
  0
VERTEX
  8
0
 10
22.911705
 20
91.676738
 42
0.033174
  0
VERTEX
  8
0
 10
24.350461
 20
92.421964
 42
0.041555
  0
VERTEX
  8
0
 10
25.566787
 20
93.303789
 42
0.031192
  0
VERTEX
  8
0
 10
26.955201
 20
94.657463
 42
0.097710
  0
VERTEX
  8
0
 10
27.623236
 20
95.769640
 42
0.103492
  0
VERTEX
  8
0
 10
27.798519
 20
97.014829
 42
0.037468
  0
VERTEX
  8
0
 10
27.545772
 20
98.791603
 42
0.105847
  0
VERTEX
  8
0
 10
25.755826
 20
102.724408
 42
0.156703
  0
VERTEX
  8
0
 10
22.700445
 20
104.914424
 42
0.136335
  0
VERTEX
  8
0
 10
18.596995
 20
105.078719
 42
0.072638
  0
VERTEX
  8
0
 10
13.835212
 20
103.198837
 42
0.162306
  0
VERTEX
  8
0
 10
10.142675
 20
99.055795
 42
0.112033
  0
VERTEX
  8
0
 10
8.989785
 20
92.827233
 42
0.102968
  0
VERTEX
  8
0
 10
10.632110
 20
86.267485
 42
0.117750
  0
VERTEX
  8
0
 10
14.715270
 20
81.269052
 42
0.099608
  0
VERTEX
  8
0
 10
19.144858
 20
79.113670
 42
0.065901
  0
VERTEX
  8
0
 10
24.778262
 20
78.419033
 42
0.060086
  0
VERTEX
  8
0
 10
30.942407
 20
79.218340
 42
0.055067
  0
VERTEX
  8
0
 10
36.935562
 20
81.467347
 42
-0.033464
  0
VERTEX
  8
0
 10
41.794293
 20
83.533738
 42
-0.081020
  0
VERTEX
  8
0
 10
45.624885
 20
84.205209
 42
-0.098467
  0
VERTEX
  8
0
 10
48.999274
 20
83.575610
 42
-0.067814
  0
VERTEX
  8
0
 10
52.391740
 20
81.650372
 42
-0.082981
  0
VERTEX
  8
0
 10
55.455580
 20
78.385282
 42
-0.113491
  0
VERTEX
  8
0
 10
56.878758
 20
74.627257
 42
-0.160263
  0
VERTEX
  8
0
 10
56.303405
 20
71.497861
 42
-0.206714
  0
VERTEX
  8
0
 10
54.024785
 20
69.716733
 42
-0.068443
  0
VERTEX
  8
0
 10
52.431008
 20
69.526001
 42
-0.240711
  0
VERTEX
  8
0
 10
51.547130
 20
69.997451
 42
-0.134615
  0
VERTEX
  8
0
 10
51.102738
 20
71.250781
 42
-0.018282
  0
VERTEX
  8
0
 10
51.000000
 20
74.059678
 42
0.059364
  0
VERTEX
  8
0
 10
50.685854
 20
76.696283
 42
0.188669
  0
VERTEX
  8
0
 10
49.686906
 20
78.125158
 42
0.126368
  0
VERTEX
  8
0
 10
47.682282
 20
78.825950
 42
0.021229
  0
VERTEX
  8
0
 10
43.584822
 20
79.000000
 42
0.035889
  0
VERTEX
  8
0
 10
41.265459
 20
78.833308
 42
0.062190
  0
VERTEX
  8
0
 10
39.404849
 20
78.322947
 42
0.056152
  0
VERTEX
  8
0
 10
37.602828
 20
77.328840
 42
0.024132
  0
VERTEX
  8
0
 10
35.437857
 20
75.632725
 42
0.021977
  0
VERTEX
  8
0
 10
33.095127
 20
73.420479
 42
0.098062
  0
VERTEX
  8
0
 10
32.072788
 20
71.841496
 42
0.081588
  0
VERTEX
  8
0
 10
31.636306
 20
69.854903
 42
0.012544
  0
VERTEX
  8
0
 10
31.521247
 20
65.800929
 42
0.016286
  0
VERTEX
  8
0
 10
31.628079
 20
62.153534
 42
0.050959
  0
VERTEX
  8
0
 10
32.027434
 20
59.735522
 42
0.058410
  0
VERTEX
  8
0
 10
32.873538
 20
57.630596
 42
0.026686
  0
VERTEX
  8
0
 10
34.429816
 20
55.104979
 42
0.056268
  0
VERTEX
  8
0
 10
38.013587
 20
51.002547
 42
0.065212
  0
VERTEX
  8
0
 10
42.261140
 20
48.033098
 42
0.061452
  0
VERTEX
  8
0
 10
47.343699
 20
46.136638
 42
0.042599
  0
VERTEX
  8
0
 10
53.415458
 20
45.223732
 42
0.076363
  0
VERTEX
  8
0
 10
62.577490
 20
46.035235
 42
0.096534
  0
VERTEX
  8
0
 10
70.281690
 20
49.598840
 42
0.075317
  0
VERTEX
  8
0
 10
77.406674
 20
56.592078
 42
0.030245
  0
VERTEX
  8
0
 10
84.952169
 20
68.011355
 42
-0.022667
  0
VERTEX
  8
0
 10
89.506989
 20
75.136879
 42
-0.031411
  0
VERTEX
  8
0
 10
94.255113
 20
81.045933
 42
-0.035084
  0
VERTEX
  8
0
 10
99.203212
 20
85.757959
 42
-0.045863
  0
VERTEX
  8
0
 10
104.359973
 20
89.279573
 42
-0.024167
  0
VERTEX
  8
0
 10
109.614592
 20
91.877595
 42
-0.058378
  0
VERTEX
  8
0
 10
113.756052
 20
93.132559
 42
-0.067007
  0
VERTEX
  8
0
 10
117.717111
 20
93.306128
 42
-0.041219
  0
VERTEX
  8
0
 10
122.323495
 20
92.503958
 42
-0.046508
  0
VERTEX
  8
0
 10
129.404206
 20
89.937298
 42
-0.074660
  0
VERTEX
  8
0
 10
134.732936
 20
86.371369
 42
-0.052013
  0
VERTEX
  8
0
 10
139.972736
 20
80.493562
 42
-0.012672
  0
VERTEX
  8
0
 10
147.303886
 20
69.750000
 42
0.002770
  0
VERTEX
  8
0
 10
149.496888
 20
66.395433
 42
0.004487
  0
VERTEX
  8
0
 10
151.402858
 20
63.570313
 42
0.000961
  0
VERTEX
  8
0
 10
153.096415
 20
61.118100
 42
0.245901
  0
VERTEX
  8
0
 10
153.322031
 20
61.000000
 42
0.158924
  0
VERTEX
  8
0
 10
153.558250
 20
61.077027
 42
0.004767
  0
VERTEX
  8
0
 10
154.400639
 20
61.704168
 42
0.009029
  0
VERTEX
  8
0
 10
155.383061
 20
62.478584
 42
0.006062
  0
VERTEX
  8
0
 10
156.478678
 20
63.397166
 42
0.092248
  0
VERTEX
  8
0
 10
158.279230
 20
65.637611
 42
0.163062
  0
VERTEX
  8
0
 10
158.675689
 20
67.951196
 42
0.101345
  0
VERTEX
  8
0
 10
157.609672
 20
70.821850
 42
0.023608
  0
VERTEX
  8
0
 10
154.671441
 20
75.072954
 42
-0.012440
  0
VERTEX
  8
0
 10
153.326904
 20
76.928288
 42
-0.012570
  0
VERTEX
  8
0
 10
152.081117
 20
78.841904
 42
-0.012452
  0
VERTEX
  8
0
 10
151.081179
 20
80.560143
 42
-0.048812
  0
VERTEX
  8
0
 10
150.598753
 20
81.686721
 42
0.071921
  0
VERTEX
  8
0
 10
150.036851
 20
82.848036
 42
0.013375
  0
VERTEX
  8
0
 10
148.654213
 20
84.780706
 42
0.014087
  0
VERTEX
  8
0
 10
146.899624
 20
86.968695
 42
0.012447
  0
VERTEX
  8
0
 10
144.952696
 20
89.148724
 42
-0.003096
  0
VERTEX
  8
0
 10
141.694062
 20
92.662955
 42
-0.028887
  0
VERTEX
  8
0
 10
140.389121
 20
94.264409
 42
-0.580657
  0
VERTEX
  8
0
 10
140.520752
 20
94.554344
 42
-0.162929
  0
VERTEX
  8
0
 10
141.151704
 20
94.406242
 42
0.130208
  0
VERTEX
  8
0
 10
141.675085
 20
94.247424
 42
0.091212
  0
VERTEX
  8
0
 10
142.287719
 20
94.337676
 42
0.080484
  0
VERTEX
  8
0
 10
142.895556
 20
94.660959
 42
0.070685
  0
VERTEX
  8
0
 10
143.401704
 20
95.172364
 42
-0.065796
  0
VERTEX
  8
0
 10
144.895341
 20
96.711186
 42
-0.022134
  0
VERTEX
  8
0
 10
147.438507
 20
98.544627
 42
-0.038190
  0
VERTEX
  8
0
 10
149.381682
 20
99.616382
 42
-0.740954
  0
VERTEX
  8
0
 10
149.674028
 20
99.285145
 42
0.213783
  0
VERTEX
  8
0
 10
149.564013
 20
98.450382
 42
0.020306
  0
VERTEX
  8
0
 10
150.249179
 20
96.455219
 42
0.022329
  0
VERTEX
  8
0
 10
151.340530
 20
93.985245
 42
0.013711
  0
VERTEX
  8
0
 10
152.832801
 20
91.174854
 42
-0.006621
  0
VERTEX
  8
0
 10
154.399332
 20
88.322981
 42
-0.006803
  0
VERTEX
  8
0
 10
155.875348
 20
85.456101
 42
-0.006615
  0
VERTEX
  8
0
 10
157.088212
 20
82.936425
 42
-0.028418
  0
VERTEX
  8
0
 10
157.703430
 20
81.389709
 42
0.063505
  0
VERTEX
  8
0
 10
158.760419
 20
79.193675
 42
0.310659
  0
VERTEX
  8
0
 10
159.966909
 20
78.693570
 42
0.187800
  0
VERTEX
  8
0
 10
161.385112
 20
79.624221
 42
0.027985
  0
VERTEX
  8
0
 10
163.241727
 20
82.567022
 42
-0.001416
  0
VERTEX
  8
0
 10
167.915053
 20
90.927554
 42
-0.006970
  0
VERTEX
  8
0
 10
170.629934
 20
95.598745
 42
-0.004859
  0
VERTEX
  8
0
 10
172.517773
 20
98.676950
 42
-0.258258
  0
VERTEX
  8
0
 10
173.101498
 20
99.000000
 42
-0.196351
  0
VERTEX
  8
0
 10
174.914831
 20
98.259347
 42
-0.002682
  0
VERTEX
  8
0
 10
183.588274
 20
89.663596
 42
-0.007247
  0
VERTEX
  8
0
 10
191.557144
 20
81.446117
 42
-0.038125
  0
VERTEX
  8
0
 10
195.503954
 20
76.558784
 42
0.013740
  0
VERTEX
  8
0
 10
197.058542
 20
74.429301
 42
0.019538
  0
VERTEX
  8
0
 10
198.562899
 20
72.632893
 42
0.015945
  0
VERTEX
  8
0
 10
199.881885
 20
71.267484
 42
0.195122
  0
VERTEX
  8
0
 10
200.541218
 20
71.000000
 42
0.041696
  0
VERTEX
  8
0
 10
202.837035
 20
71.191788
 42
0.029420
  0
VERTEX
  8
0
 10
205.361842
 20
71.771016
 42
0.022592
  0
VERTEX
  8
0
 10
207.549974
 20
72.519314
 42
0.308270
  0
VERTEX
  8
0
 10
208.000000
 20
73.179869
 42
0.179382
  0
VERTEX
  8
0
 10
206.451207
 20
77.357993
 42
0.005862
  0
VERTEX
  8
0
 10
194.464101
 20
90.978487
 42
0.005368
  0
VERTEX
  8
0
 10
182.092089
 20
104.415423
 42
0.206852
  0
VERTEX
  8
0
 10
178.425751
 20
106.000000
 42
0.130616
  0
VERTEX
  8
0
 10
177.859840
 20
105.849599
 42
0.037952
  0
VERTEX
  8
0
 10
177.106160
 20
105.339062
 42
0.035338
  0
VERTEX
  8
0
 10
176.311967
 20
104.611112
 42
0.031322
  0
VERTEX
  8
0
 10
175.593087
 20
103.750000
 42
0.000000
  0
VERTEX
  8
0
 10
173.942229
 20
101.500000
 42
0.000000
  0
VERTEX
  8
0
 10
175.048347
 20
103.828569
 42
0.047077
  0
VERTEX
  8
0
 10
177.453414
 20
110.429964
 42
0.047917
  0
VERTEX
  8
0
 10
178.562923
 20
117.325501
 42
0.051425
  0
VERTEX
  8
0
 10
178.311471
 20
123.771881
 42
0.081988
  0
VERTEX
  8
0
 10
176.657093
 20
129.020270
 42
-0.063040
  0
VERTEX
  8
0
 10
176.099304
 20
130.581925
 42
-0.072922
  0
VERTEX
  8
0
 10
175.986454
 20
132.156343
 42
-0.046390
  0
VERTEX
  8
0
 10
176.330861
 20
134.202653
 42
-0.011249
  0
VERTEX
  8
0
 10
177.286005
 20
137.500000
 42
0.062556
  0
VERTEX
  8
0
 10
178.834367
 20
146.033139
 42
0.031834
  0
VERTEX
  8
0
 10
178.735022
 20
156.952741
 42
0.025098
  0
VERTEX
  8
0
 10
177.507904
 20
166.884605
 42
0.364371
  0
VERTEX
  8
0
 10
174.990496
 20
169.000000
 42
0.284294
  0
VERTEX
  8
0
 10
173.332221
 20
167.974216
 42
0.045187
  0
VERTEX
  8
0
 10
171.878116
 20
164.253242
 42
0.035914
  0
VERTEX
  8
0
 10
170.708105
 20
158.775431
 42
0.017975
  0
VERTEX
  8
0
 10
169.981705
 20
151.726282
 42
-0.007234
  0
VERTEX
  8
0
 10
169.398340
 20
144.558312
 42
-0.040872
  0
VERTEX
  8
0
 10
168.722012
 20
140.785355
 42
-0.814039
  0
VERTEX
  8
0
 10
168.217446
 20
140.813014
 42
-0.034917
  0
VERTEX
  8
0
 10
167.956107
 20
144.083333
 42
0.025230
  0
VERTEX
  8
0
 10
167.836297
 20
146.064981
 42
0.015558
  0
VERTEX
  8
0
 10
167.505803
 20
148.377604
 42
0.015591
  0
VERTEX
  8
0
 10
167.035328
 20
150.649009
 42
0.026843
  0
VERTEX
  8
0
 10
166.484792
 20
152.500000
 42
-0.020590
  0
VERTEX
  8
0
 10
165.986670
 20
154.101243
 42
-0.037044
  0
VERTEX
  8
0
 10
165.731948
 20
155.452160
 42
-0.045219
  0
VERTEX
  8
0
 10
165.710090
 20
156.448398
 42
-0.301541
  0
VERTEX
  8
0
 10
165.997224
 20
156.822847
 42
0.180241
  0
VERTEX
  8
0
 10
166.525344
 20
157.256535
 42
0.003495
  0
VERTEX
  8
0
 10
168.302498
 20
160.363110
 42
0.007946
  0
VERTEX
  8
0
 10
170.315518
 20
164.076619
 42
0.005186
  0
VERTEX
  8
0
 10
172.525167
 20
168.421447
 42
0.018232
  0
VERTEX
  8
0
 10
176.335647
 20
176.871224
 42
0.045815
  0
VERTEX
  8
0
 10
178.302214
 20
183.328583
 42
0.050722
  0
VERTEX
  8
0
 10
178.952403
 20
189.637257
 42
0.027014
  0
VERTEX
  8
0
 10
178.538840
 20
197.481909
 42
0.007217
  0
VERTEX
  8
0
 10
178.067926
 20
201.350913
 42
0.066380
  0
VERTEX
  8
0
 10
177.620860
 20
202.978177
 42
0.203985
  0
VERTEX
  8
0
 10
176.945349
 20
203.630141
 42
0.156507
  0
VERTEX
  8
0
 10
175.910424
 20
203.686826
 42
-0.093290
  0
VERTEX
  8
0
 10
174.568484
 20
203.593092
 42
-0.419899
  0
VERTEX
  8
0
 10
174.135668
 20
204.151453
 42
-0.105435
  0
VERTEX
  8
0
 10
174.628141
 20
205.518511
 42
-0.010092
  0
VERTEX
  8
0
 10
176.568238
 20
208.505416
 42
-0.031200
  0
VERTEX
  8
0
 10
179.131915
 20
211.818168
 42
-0.045408
  0
VERTEX
  8
0
 10
181.810211
 20
214.358927
 42
-0.027384
  0
VERTEX
  8
0
 10
185.777127
 20
217.152451
 42
-0.004866
  0
VERTEX
  8
0
 10
193.525714
 20
221.893102
 42
0.011222
  0
VERTEX
  8
0
 10
200.488199
 20
226.275389
 42
0.031891
  0
VERTEX
  8
0
 10
205.057494
 20
229.734374
 42
0.049018
  0
VERTEX
  8
0
 10
207.560762
 20
232.362298
 42
0.390191
  0
VERTEX
  8
0
 10
207.436756
 20
233.891953
 42
0.121469
  0
VERTEX
  8
0
 10
205.565805
 20
234.924058
 42
0.044087
  0
VERTEX
  8
0
 10
202.559236
 20
235.453278
 42
0.042603
  0
VERTEX
  8
0
 10
199.622109
 20
235.456114
 42
0.201118
  0
SEQEND
  0
POLYLINE
  8
0
 66
1
 70
1
  0
VERTEX
  8
0
 10
281.500000
 20
233.275513
 42
0.019389
  0
VERTEX
  8
0
 10
278.186338
 20
232.652700
 42
0.006086
  0
VERTEX
  8
0
 10
273.278704
 20
231.468710
 42
0.002153
  0
VERTEX
  8
0
 10
268.153690
 20
230.142549
 42
0.132743
  0
VERTEX
  8
0
 10
267.344121
 20
229.677455
 42
0.239129
  0
VERTEX
  8
0
 10
267.253143
 20
229.399155
 42
0.014125
  0
VERTEX
  8
0
 10
267.418527
 20
228.499166
 42
0.018814
  0
VERTEX
  8
0
 10
267.696526
 20
227.399458
 42
0.012551
  0
VERTEX
  8
0
 10
268.093316
 20
226.162158
 42
0.072856
  0
VERTEX
  8
0
 10
269.136983
 20
224.161781
 42
0.162362
  0
VERTEX
  8
0
 10
270.515249
 20
223.172525
 42
0.128314
  0
VERTEX
  8
0
 10
272.450169
 20
223.084629
 42
0.038390
  0
VERTEX
  8
0
 10
275.305726
 20
223.926137
 42
-0.036882
  0
VERTEX
  8
0
 10
276.625073
 20
224.319260
 42
-0.010130
  0
VERTEX
  8
0
 10
278.753106
 20
224.740900
 42
-0.010180
  0
VERTEX
  8
0
 10
281.191315
 20
225.121838
 42
-0.010464
  0
VERTEX
  8
0
 10
283.620826
 20
225.399265
 42
-0.089913
  0
VERTEX
  8
0
 10
293.921460
 20
224.505283
 42
-0.107415
  0
VERTEX
  8
0
 10
302.547230
 20
220.015430
 42
-0.123013
  0
VERTEX
  8
0
 10
307.750839
 20
212.909423
 42
-0.144165
  0
VERTEX
  8
0
 10
308.589596
 20
204.625898
 42
-0.070767
  0
VERTEX
  8
0
 10
307.445380
 20
201.249546
 42
-0.058232
  0
VERTEX
  8
0
 10
305.344514
 20
198.073353
 42
-0.062806
  0
VERTEX
  8
0
 10
302.828311
 20
195.754341
 42
-0.156046
  0
VERTEX
  8
0
 10
300.470123
 20
195.000000
 42
-0.078734
  0
VERTEX
  8
0
 10
298.764312
 20
195.270287
 42
-0.128456
  0
VERTEX
  8
0
 10
297.537986
 20
196.055977
 42
-0.228221
  0
VERTEX
  8
0
 10
297.241814
 20
197.024628
 42
-0.219737
  0
VERTEX
  8
0
 10
297.809324
 20
197.882155
 42
0.138169
  0
VERTEX
  8
0
 10
299.046608
 20
199.230092
 42
0.049340
  0
VERTEX
  8
0
 10
299.998213
 20
201.687750
 42
0.047980
  0
VERTEX
  8
0
 10
300.495372
 20
204.500633
 42
0.069222
  0
VERTEX
  8
0
 10
300.346169
 20
207.019153
 42
0.102263
  0
VERTEX
  8
0
 10
299.165283
 20
209.802788
 42
0.065443
  0
VERTEX
  8
0
 10
296.799617
 20
212.415936
 42
0.061815
  0
VERTEX
  8
0
 10
293.668111
 20
214.471591
 42
0.068098
  0
VERTEX
  8
0
 10
290.228494
 20
215.616913
 42
0.039568
  0
VERTEX
  8
0
 10
288.156153
 20
215.838144
 42
0.060099
  0
VERTEX
  8
0
 10
286.354545
 20
215.670481
 42
0.051267
  0
VERTEX
  8
0
 10
284.448918
 20
215.048918
 42
0.021015
  0
VERTEX
  8
0
 10
282.007931
 20
213.840266
 42
0.070505
  0
VERTEX
  8
0
 10
278.125412
 20
210.934079
 42
0.074602
  0
VERTEX
  8
0
 10
275.289756
 20
207.113794
 42
0.070067
  0
VERTEX
  8
0
 10
273.577124
 20
202.417626
 42
0.052497
  0
VERTEX
  8
0
 10
273.000000
 20
196.935993
 42
0.020500
  0
VERTEX
  8
0
 10
273.118044
 20
194.058141
 42
0.041968
  0
VERTEX
  8
0
 10
273.490690
 20
191.832264
 42
0.049282
  0
VERTEX
  8
0
 10
274.177118
 20
189.941508
 42
0.042279
  0
VERTEX
  8
0
 10
275.250000
 20
188.115584
 42
0.000101
  0
VERTEX
  8
0
 10
276.370107
 20
186.533087
 42
0.000038
  0
VERTEX
  8
0
 10
277.936335
 20
184.321612
 42
0.000038
  0
VERTEX
  8
0
 10
279.640384
 20
181.916312
 42
0.000046
  0
VERTEX
  8
0
 10
281.235396
 20
179.665721
 42
-0.026139
  0
VERTEX
  8
0
 10
284.215650
 20
174.958002
 42
-0.080393
  0
VERTEX
  8
0
 10
285.510571
 20
171.428798
 42
-0.117727
  0
VERTEX
  8
0
 10
285.382924
 20
168.472574
 42
-0.097555
  0
VERTEX
  8
0
 10
283.946833
 20
165.659538
 42
-0.053215
  0
VERTEX
  8
0
 10
281.563934
 20
163.216056
 42
-0.097387
  0
VERTEX
  8
0
 10
279.127384
 20
161.892992
 42
-0.110995
  0
VERTEX
  8
0
 10
276.597866
 20
161.684564
 42
-0.084797
  0
VERTEX
  8
0
 10
273.943798
 20
162.529063
 42
-0.030214
  0
VERTEX
  8
0
 10
271.716735
 20
163.856954
 42
-0.250901
  0
VERTEX
  8
0
 10
271.190646
 20
164.864832
 42
-0.212069
  0
VERTEX
  8
0
 10
271.700236
 20
165.980310
 42
-0.021926
  0
VERTEX
  8
0
 10
274.000000
 20
167.841879
 42
0.036750
  0
VERTEX
  8
0
 10
275.392518
 20
169.039041
 42
0.065833
  0
VERTEX
  8
0
 10
276.310784
 20
170.232654
 42
0.073319
  0
VERTEX
  8
0
 10
276.825499
 20
171.529241
 42
0.057945
  0
VERTEX
  8
0
 10
277.000000
 20
173.029937
 42
0.158693
  0
VERTEX
  8
0
 10
275.693381
 20
177.043073
 42
0.152860
  0
VERTEX
  8
0
 10
272.256557
 20
179.590747
 42
0.146296
  0
VERTEX
  8
0
 10
267.857005
 20
179.784445
 42
0.143492
  0
VERTEX
  8
0
 10
264.034459
 20
177.536680
 42
0.048734
  0
VERTEX
  8
0
 10
262.789067
 20
175.921359
 42
0.091646
  0
VERTEX
  8
0
 10
262.185173
 20
174.394475
 42
0.058029
  0
VERTEX
  8
0
 10
262.023115
 20
172.318851
 42
0.010523
  0
VERTEX
  8
0
 10
262.251571
 20
168.454726
 42
0.045252
  0
VERTEX
  8
0
 10
263.102433
 20
163.513978
 42
0.084375
  0
VERTEX
  8
0
 10
264.788335
 20
159.831473
 42
0.085409
  0
VERTEX
  8
0
 10
267.580032
 20
156.941414
 42
0.047345
  0
VERTEX
  8
0
 10
271.803580
 20
154.422966
 42
0.097537
  0
VERTEX
  8
0
 10
276.118326
 20
153.327633
 42
0.078489
  0
VERTEX
  8
0
 10
280.888830
 20
153.818380
 42
0.073883
  0
VERTEX
  8
0
 10
285.534769
 20
155.819264
 42
0.070597
  0
VERTEX
  8
0
 10
289.479987
 20
159.109528
 42
0.027445
  0
VERTEX
  8
0
 10
292.317827
 20
162.620017
 42
0.064927
  0
VERTEX
  8
0
 10
293.913039
 20
165.573037
 42
0.075031
  0
VERTEX
  8
0
 10
294.568262
 20
168.561561
 42
0.047796
  0
VERTEX
  8
0
 10
294.463176
 20
172.126414
 42
0.038384
  0
VERTEX
  8
0
 10
293.737040
 20
175.677171
 42
0.046238
  0
VERTEX
  8
0
 10
292.503126
 20
178.850365
 42
0.045374
  0
VERTEX
  8
0
 10
290.684708
 20
181.790107
 42
0.034851
  0
VERTEX
  8
0
 10
288.210311
 20
184.643881
 42
-0.023999
  0
VERTEX
  8
0
 10
285.389610
 20
187.757989
 42
-0.045537
  0
VERTEX
  8
0
 10
283.489241
 20
190.553714
 42
-0.052608
  0
VERTEX
  8
0
 10
282.302750
 20
193.353244
 42
-0.046592
  0
VERTEX
  8
0
 10
281.665330
 20
196.455746
 42
-0.050577
  0
VERTEX
  8
0
 10
281.636497
 20
199.868293
 42
-0.080993
  0
VERTEX
  8
0
 10
282.367610
 20
202.681601
 42
-0.090394
  0
VERTEX
  8
0
 10
283.874488
 20
204.902340
 42
-0.079433
  0
VERTEX
  8
0
 10
286.131340
 20
206.567919
 42
-0.096709
  0
VERTEX
  8
0
 10
289.675608
 20
207.604118
 42
-0.269744
  0
VERTEX
  8
0
 10
291.938068
 20
206.551873
 42
-0.304440
  0
VERTEX
  8
0
 10
291.978611
 20
204.231321
 42
-0.105676
  0
VERTEX
  8
0
 10
289.494406
 20
201.740907
 42
0.024059
  0
VERTEX
  8
0
 10
287.841731
 20
200.550575
 42
0.076118
  0
VERTEX
  8
0
 10
286.918032
 20
199.552191
 42
0.115612
  0
VERTEX
  8
0
 10
286.546094
 20
198.577135
 42
0.104708
  0
VERTEX
  8
0
 10
286.626427
 20
197.500000
 42
0.120068
  0
VERTEX
  8
0
 10
290.276288
 20
191.156177
 42
0.140139
  0
VERTEX
  8
0
 10
296.251051
 20
187.645433
 42
0.132872
  0
VERTEX
  8
0
 10
303.434380
 20
187.727423
 42
0.103079
  0
VERTEX
  8
0
 10
310.394916
 20
191.360379
 42
0.022886
  0
VERTEX
  8
0
 10
312.830291
 20
193.549673
 42
0.061782
  0
VERTEX
  8
0
 10
314.270838
 20
195.370256
 42
0.062100
  0
VERTEX
  8
0
 10
315.218865
 20
197.482141
 42
0.023306
  0
VERTEX
  8
0
 10
316.026975
 20
200.629939
 42
0.054105
  0
VERTEX
  8
0
 10
316.683211
 20
207.402990
 42
0.059410
  0
VERTEX
  8
0
 10
315.827171
 20
213.940740
 42
0.061213
  0
VERTEX
  8
0
 10
313.497903
 20
219.925671
 42
0.063921
  0
VERTEX
  8
0
 10
309.814901
 20
225.072695
 42
0.088713
  0
VERTEX
  8
0
 10
304.692066
 20
228.927423
 42
0.046566
  0
VERTEX
  8
0
 10
297.249562
 20
231.857382
 42
0.045341
  0
VERTEX
  8
0
 10
289.030000
 20
233.449762
 42
0.062017
  0
SEQEND
  0
POLYLINE
  8
0
 66
1
 70
1
  0
VERTEX
  8
0
 10
92.000000
 20
223.883378
 42
0.075160
  0
VERTEX
  8
0
 10
89.076424
 20
222.182017
 42
0.027179
  0
VERTEX
  8
0
 10
85.490759
 20
218.963970
 42
0.027494
  0
VERTEX
  8
0
 10
82.148247
 20
215.229424
 42
0.049677
  0
VERTEX
  8
0
 10
79.915266
 20
211.789838
 42
0.066744
  0
VERTEX
  8
0
 10
78.556683
 20
207.988521
 42
0.049604
  0
VERTEX
  8
0
 10
78.063047
 20
203.552906
 42
0.050788
  0
VERTEX
  8
0
 10
78.449975
 20
199.254900
 42
0.085782
  0
VERTEX
  8
0
 10
79.729025
 20
195.881579
 42
0.067849
  0
VERTEX
  8
0
 10
82.071074
 20
192.919644
 42
0.050324
  0
VERTEX
  8
0
 10
85.356780
 20
190.339511
 42
0.050883
  0
VERTEX
  8
0
 10
89.040777
 20
188.498437
 42
0.075262
  0
VERTEX
  8
0
 10
92.566170
 20
187.741393
 42
0.016889
  0
VERTEX
  8
0
 10
94.933388
 20
187.676253
 42
0.139083
  0
VERTEX
  8
0
 10
95.958333
 20
187.973932
 42
0.189950
  0
VERTEX
  8
0
 10
96.512435
 20
188.723899
 42
0.036852
  0
VERTEX
  8
0
 10
96.831875
 20
190.410141
 42
-0.058787
  0
VERTEX
  8
0
 10
97.437554
 20
192.985440
 42
-0.049829
  0
VERTEX
  8
0
 10
98.649182
 20
195.506534
 42
-0.052983
  0
VERTEX
  8
0
 10
100.116386
 20
197.422803
 42
-0.205701
  0
VERTEX
  8
0
 10
101.460022
 20
198.000000
 42
-0.165035
  0
VERTEX
  8
0
 10
102.806902
 20
197.542989
 42
-0.059525
  0
VERTEX
  8
0
 10
104.273726
 20
196.111663
 42
-0.054089
  0
VERTEX
  8
0
 10
105.546862
 20
194.128294
 42
-0.057658
  0
VERTEX
  8
0
 10
106.332174
 20
191.959452
 42
-0.123830
  0
VERTEX
  8
0
 10
106.295602
 20
189.382495
 42
-0.066562
  0
VERTEX
  8
0
 10
105.069182
 20
186.428566
 42
-0.057209
  0
VERTEX
  8
0
 10
102.844525
 20
183.445289
 42
-0.045501
  0
VERTEX
  8
0
 10
99.835139
 20
180.780114
 42
-0.106717
  0
VERTEX
  8
0
 10
92.379857
 20
177.439653
 42
-0.093346
  0
VERTEX
  8
0
 10
83.826452
 20
177.247486
 42
-0.088283
  0
VERTEX
  8
0
 10
75.386737
 20
180.231021
 42
-0.082874
  0
VERTEX
  8
0
 10
68.281601
 20
185.991723
 42
-0.016106
  0
VERTEX
  8
0
 10
67.429909
 20
187.019593
 42
-0.019778
  0
VERTEX
  8
0
 10
66.705574
 20
188.033814
 42
-0.018590
  0
VERTEX
  8
0
 10
66.170717
 20
188.919148
 42
-0.118547
  0
VERTEX
  8
0
 10
66.031601
 20
189.421259
 42
0.092138
  0
VERTEX
  8
0
 10
65.929818
 20
189.880635
 42
0.026679
  0
VERTEX
  8
0
 10
65.609238
 20
190.535654
 42
0.025850
  0
VERTEX
  8
0
 10
65.161706
 20
191.249191
 42
0.024982
  0
VERTEX
  8
0
 10
64.638146
 20
191.921259
 42
-0.086544
  0
VERTEX
  8
0
 10
62.823559
 20
194.954516
 42
-0.032165
  0
VERTEX
  8
0
 10
61.339116
 20
199.717022
 42
-0.030240
  0
VERTEX
  8
0
 10
60.335934
 20
205.313158
 42
-0.029238
  0
VERTEX
  8
0
 10
60.000000
 20
211.053139
 42
0.000000
  0
VERTEX
  8
0
 10
60.000000
 20
218.750000
 42
0.000000
  0
VERTEX
  8
0
 10
56.812500
 20
219.387500
 42
0.031458
  0
VERTEX
  8
0
 10
55.523048
 20
219.561984
 42
0.036417
  0
VERTEX
  8
0
 10
54.284092
 20
219.560498
 42
0.039381
  0
VERTEX
  8
0
 10
53.257776
 20
219.402526
 42
0.139381
  0
VERTEX
  8
0
 10
52.681218
 20
219.081218
 42
0.179217
  0
VERTEX
  8
0
 10
52.315544
 20
218.285417
 42
0.008438
  0
VERTEX
  8
0
 10
52.138062
 20
215.290158
 42
0.012759
  0
VERTEX
  8
0
 10
52.076194
 20
211.606259
 42
0.008114
  0
VERTEX
  8
0
 10
52.183216
 20
207.317962
 42
0.007887
  0
VERTEX
  8
0
 10
52.560393
 20
200.702299
 42
0.039446
  0
VERTEX
  8
0
 10
53.120795
 20
197.033448
 42
0.048049
  0
VERTEX
  8
0
 10
54.204791
 20
193.831683
 42
0.015340
  0
VERTEX
  8
0
 10
56.408758
 20
189.305589
 42
0.023917
  0
VERTEX
  8
0
 10
59.825459
 20
183.496243
 42
0.042860
  0
VERTEX
  8
0
 10
63.239401
 20
179.143839
 42
0.046277
  0
VERTEX
  8
0
 10
67.150835
 20
175.661020
 42
0.033703
  0
VERTEX
  8
0
 10
72.063746
 20
172.528415
 42
0.023088
  0
VERTEX
  8
0
 10
75.491580
 20
170.855303
 42
0.054295
  0
VERTEX
  8
0
 10
78.208820
 20
170.016466
 42
0.039647
  0
VERTEX
  8
0
 10
81.518074
 20
169.645305
 42
0.007805
  0
VERTEX
  8
0
 10
87.500000
 20
169.544613
 42
0.007988
  0
VERTEX
  8
0
 10
93.126639
 20
169.627638
 42
0.032674
  0
VERTEX
  8
0
 10
96.525210
 20
169.955100
 42
0.047555
  0
VERTEX
  8
0
 10
99.178551
 20
170.650786
 42
0.033457
  0
VERTEX
  8
0
 10
102.000000
 20
171.905181
 42
0.049172
  0
VERTEX
  8
0
 10
107.322210
 20
175.418827
 42
0.075900
  0
VERTEX
  8
0
 10
111.022394
 20
179.491451
 42
0.079357
  0
VERTEX
  8
0
 10
113.232508
 20
184.340831
 42
0.059214
  0
VERTEX
  8
0
 10
114.117761
 20
190.160562
 42
0.063408
  0
VERTEX
  8
0
 10
113.573461
 20
195.935129
 42
0.095706
  0
VERTEX
  8
0
 10
111.558730
 20
200.552194
 42
0.105400
  0
VERTEX
  8
0
 10
108.145597
 20
203.786365
 42
0.091415
  0
VERTEX
  8
0
 10
103.534456
 20
205.554379
 42
0.089840
  0
VERTEX
  8
0
 10
100.374411
 20
205.568954
 42
0.057185
  0
VERTEX
  8
0
 10
96.839504
 20
204.518590
 42
0.056261
  0
VERTEX
  8
0
 10
93.563640
 20
202.662571
 42
0.077406
  0
VERTEX
  8
0
 10
91.167480
 20
200.280806
 42
-0.010152
  0
VERTEX
  8
0
 10
89.807063
 20
198.506820
 42
-0.171964
  0
VERTEX
  8
0
 10
89.190394
 20
198.123898
 42
-0.264266
  0
VERTEX
  8
0
 10
88.604522
 20
198.306179
 42
-0.024871
  0
VERTEX
  8
0
 10
87.593437
 20
199.500000
 42
-0.077333
  0
VERTEX
  8
0
 10
86.434633
 20
201.628157
 42
-0.108300
  0
VERTEX
  8
0
 10
86.158114
 20
203.768189
 42
-0.081841
  0
VERTEX
  8
0
 10
86.795417
 20
206.258088
 42
-0.029057
  0
VERTEX
  8
0
 10
88.471943
 20
209.542337
 42
-0.032418
  0
VERTEX
  8
0
 10
89.834612
 20
211.556087
 42
-0.045241
  0
VERTEX
  8
0
 10
91.316455
 20
213.146294
 42
-0.047225
  0
VERTEX
  8
0
 10
93.006736
 20
214.393928
 42
-0.040238
  0
VERTEX
  8
0
 10
94.992179
 20
215.380194
 42
-0.031334
  0
VERTEX
  8
0
 10
98.486486
 20
216.530275
 42
-0.062438
  0
VERTEX
  8
0
 10
101.369049
 20
216.908894
 42
-0.059782
  0
VERTEX
  8
0
 10
104.336351
 20
216.570546
 42
-0.026564
  0
VERTEX
  8
0
 10
108.120548
 20
215.457468
 42
-0.104914
  0
VERTEX
  8
0
 10
115.588948
 20
210.896528
 42
-0.080741
  0
VERTEX
  8
0
 10
121.401964
 20
203.287092
 42
-0.063480
  0
VERTEX
  8
0
 10
125.517230
 20
192.499147
 42
-0.034181
  0
VERTEX
  8
0
 10
127.919242
 20
178.447521
 42
0.020444
  0
VERTEX
  8
0
 10
128.941185
 20
171.291687
 42
0.036781
  0
VERTEX
  8
0
 10
130.443183
 20
165.559420
 42
0.043314
  0
VERTEX
  8
0
 10
132.547332
 20
160.801287
 42
0.047385
  0
VERTEX
  8
0
 10
135.387841
 20
156.628222
 42
0.031372
  0
VERTEX
  8
0
 10
136.393125
 20
155.560015
 42
0.040844
  0
VERTEX
  8
0
 10
137.444299
 20
154.724872
 42
0.046032
  0
VERTEX
  8
0
 10
138.394157
 20
154.208759
 42
0.183903
  0
VERTEX
  8
0
 10
139.044326
 20
154.181442
 42
0.261406
  0
VERTEX
  8
0
 10
140.346759
 20
155.614515
 42
0.057203
  0
VERTEX
  8
0
 10
140.733341
 20
159.050886
 42
0.053958
  0
VERTEX
  8
0
 10
140.296980
 20
162.999341
 42
0.078955
  0
VERTEX
  8
0
 10
139.017104
 20
166.246439
 42
-0.057499
  0
VERTEX
  8
0
 10
137.996237
 20
168.543706
 42
-0.017398
  0
VERTEX
  8
0
 10
136.982300
 20
172.228696
 42
-0.014556
  0
VERTEX
  8
0
 10
135.980830
 20
177.054807
 42
-0.007591
  0
VERTEX
  8
0
 10
135.000040
 20
183.120157
 42
0.009279
  0
VERTEX
  8
0
 10
133.013676
 20
195.146312
 42
0.039749
  0
VERTEX
  8
0
 10
131.135009
 20
202.160196
 42
0.051129
  0
VERTEX
  8
0
 10
128.405782
 20
207.907672
 42
0.022534
  0
VERTEX
  8
0
 10
123.714897
 20
214.905163
 42
0.025578
  0
VERTEX
  8
0
 10
120.705164
 20
218.575956
 42
0.048453
  0
VERTEX
  8
0
 10
117.873364
 20
221.141231
 42
0.055546
  0
VERTEX
  8
0
 10
114.884810
 20
222.885249
 42
0.047378
  0
VERTEX
  8
0
 10
111.422606
 20
224.042525
 42
0.040522
  0
VERTEX
  8
0
 10
106.921303
 20
224.708564
 42
0.018526
  0
VERTEX
  8
0
 10
100.979495
 20
224.880054
 42
0.017075
  0
VERTEX
  8
0
 10
95.271918
 20
224.638248
 42
0.075270
  0
SEQEND
  0
POLYLINE
  8
0
 66
1
 70
1
  0
VERTEX
  8
0
 10
298.500000
 20
105.277900
 42
0.187030
  0
VERTEX
  8
0
 10
294.359102
 20
102.399745
 42
0.177061
  0
VERTEX
  8
0
 10
293.120005
 20
97.403882
 42
0.179453
  0
VERTEX
  8
0
 10
295.397656
 20
92.835448
 42
0.190551
  0
VERTEX
  8
0
 10
300.038955
 20
91.000000
 42
-0.109288
  0
VERTEX
  8
0
 10
302.335933
 20
90.491867
 42
-0.422767
  0
VERTEX
  8
0
 10
302.766536
 20
89.256595
 42
-0.168852
  0
VERTEX
  8
0
 10
301.143183
 20
87.677081
 42
-0.047851
  0
VERTEX
  8
0
 10
297.773581
 20
86.479308
 42
-0.086568
  0
VERTEX
  8
0
 10
296.066958
 20
86.354163
 42
-0.047382
  0
VERTEX
  8
0
 10
294.002904
 20
86.760120
 42
-0.031831
  0
VERTEX
  8
0
 10
291.303816
 20
87.753123
 42
-0.010688
  0
VERTEX
  8
0
 10
287.498878
 20
89.533035
 42
0.009895
  0
VERTEX
  8
0
 10
282.937607
 20
91.675576
 42
0.047825
  0
VERTEX
  8
0
 10
280.225705
 20
92.585632
 42
0.061825
  0
VERTEX
  8
0
 10
277.721886
 20
92.848746
 42
0.023650
  0
VERTEX
  8
0
 10
274.219703
 20
92.616971
 42
0.054454
  0
VERTEX
  8
0
 10
269.106854
 20
91.461946
 42
0.063754
  0
VERTEX
  8
0
 10
264.649740
 20
89.263032
 42
0.065718
  0
VERTEX
  8
0
 10
260.996902
 20
86.079253
 42
0.063682
  0
VERTEX
  8
0
 10
258.250000
 20
82.024735
 42
0.045816
  0
VERTEX
  8
0
 10
256.643977
 20
77.964909
 42
0.070761
  0
VERTEX
  8
0
 10
256.103967
 20
74.236658
 42
0.078999
  0
VERTEX
  8
0
 10
256.639366
 20
70.812755
 42
0.074903
  0
VERTEX
  8
0
 10
258.213285
 20
67.654370
 42
0.026241
  0
VERTEX
  8
0
 10
260.519562
 20
64.709047
 42
0.081254
  0
VERTEX
  8
0
 10
262.458112
 20
63.103000
 42
0.091594
  0
VERTEX
  8
0
 10
264.671607
 20
62.302436
 42
0.039268
  0
VERTEX
  8
0
 10
267.815741
 20
62.031803
 42
0.034863
  0
VERTEX
  8
0
 10
271.399523
 20
62.255462
 42
0.090580
  0
VERTEX
  8
0
 10
273.850638
 20
63.047905
 42
0.108099
  0
VERTEX
  8
0
 10
275.605636
 20
64.552481
 42
0.063589
  0
VERTEX
  8
0
 10
276.984170
 20
66.961783
 42
-0.030949
  0
VERTEX
  8
0
 10
278.036061
 20
69.114149
 42
-0.196776
  0
VERTEX
  8
0
 10
278.973774
 20
69.850594
 42
-0.287823
  0
VERTEX
  8
0
 10
279.914676
 20
69.576637
 42
-0.058961
  0
VERTEX
  8
0
 10
280.951587
 20
68.090461
 42
-0.151807
  0
VERTEX
  8
0
 10
281.352410
 20
66.007241
 42
-0.057183
  0
VERTEX
  8
0
 10
280.681259
 20
63.081219
 42
-0.054368
  0
VERTEX
  8
0
 10
279.254972
 20
60.116049
 42
-0.073446
  0
VERTEX
  8
0
 10
277.332554
 20
57.850287
 42
-0.042705
  0
VERTEX
  8
0
 10
274.932346
 20
56.081041
 42
-0.029777
  0
VERTEX
  8
0
 10
271.962640
 20
54.495838
 42
-0.029979
  0
VERTEX
  8
0
 10
269.025253
 20
53.353706
 42
-0.078949
  0
VERTEX
  8
0
 10
266.799660
 20
53.009769
 42
-0.089828
  0
VERTEX
  8
0
 10
263.632561
 20
53.597294
 42
-0.025771
  0
VERTEX
  8
0
 10
259.047017
 20
55.612876
 42
-0.026670
  0
VERTEX
  8
0
 10
254.576016
 20
58.166809
 42
-0.062150
  0
VERTEX
  8
0
 10
251.622760
 20
60.636475
 42
-0.032856
  0
VERTEX
  8
0
 10
250.266098
 20
62.298749
 42
-0.007492
  0
VERTEX
  8
0
 10
248.202545
 20
65.290332
 42
-0.007721
  0
VERTEX
  8
0
 10
245.923984
 20
68.818651
 42
-0.007446
  0
VERTEX
  8
0
 10
243.727025
 20
72.458274
 42
0.026642
  0
VERTEX
  8
0
 10
238.619848
 20
80.228719
 42
0.026218
  0
VERTEX
  8
0
 10
232.689694
 20
87.455637
 42
0.027628
  0
VERTEX
  8
0
 10
226.461753
 20
93.567296
 42
0.044650
  0
VERTEX
  8
0
 10
220.472268
 20
97.948016
 42
0.020160
  0
VERTEX
  8
0
 10
216.987865
 20
99.860322
 42
0.049795
  0
VERTEX
  8
0
 10
214.264670
 20
100.891914
 42
0.042357
  0
VERTEX
  8
0
 10
211.141269
 20
101.453632
 42
0.011376
  0
VERTEX
  8
0
 10
206.108548
 20
101.809153
 42
0.027168
  0
VERTEX
  8
0
 10
200.051519
 20
101.769487
 42
0.040795
  0
VERTEX
  8
0
 10
194.822472
 20
101.019711
 42
0.048333
  0
VERTEX
  8
0
 10
191.061232
 20
99.770972
 42
0.296686
  0
VERTEX
  8
0
 10
190.000000
 20
98.139920
 42
0.159178
  0
VERTEX
  8
0
 10
190.169135
 20
97.622105
 42
0.020636
  0
VERTEX
  8
0
 10
190.903733
 20
96.699973
 42
0.022373
  0
VERTEX
  8
0
 10
191.898362
 20
95.650738
 42
0.016967
  0
VERTEX
  8
0
 10
193.076538
 20
94.589051
 42
0.041609
  0
VERTEX
  8
0
 10
195.189250
 20
93.092421
 42
0.110721
  0
VERTEX
  8
0
 10
196.937916
 20
92.527211
 42
0.076229
  0
VERTEX
  8
0
 10
199.135141
 20
92.659386
 42
0.012962
  0
VERTEX
  8
0
 10
203.223830
 20
93.652027
 42
-0.091063
  0
VERTEX
  8
0
 10
204.242172
 20
93.736196
 42
-0.014617
  0
VERTEX
  8
0
 10
206.228575
 20
93.479748
 42
-0.015746
  0
VERTEX
  8
0
 10
208.576186
 20
93.030415
 42
-0.013238
  0
VERTEX
  8
0
 10
211.032050
 20
92.410971
 42
-0.075720
  0
VERTEX
  8
0
 10
217.239500
 20
89.603799
 42
-0.049132
  0
VERTEX
  8
0
 10
223.405267
 20
84.678255
 42
-0.040964
  0
VERTEX
  8
0
 10
229.522173
 20
77.657187
 42
-0.025135
  0
VERTEX
  8
0
 10
235.581323
 20
68.500000
 42
0.028967
  0
VERTEX
  8
0
 10
243.356507
 20
56.942720
 42
0.080503
  0
VERTEX
  8
0
 10
250.429216
 20
50.220252
 42
0.100591
  0
VERTEX
  8
0
 10
258.272235
 20
46.914928
 42
0.063277
  0
VERTEX
  8
0
 10
268.225929
 20
46.197480
 42
0.049394
  0
VERTEX
  8
0
 10
276.984678
 20
47.549361
 42
0.108158
  0
VERTEX
  8
0
 10
283.012189
 20
50.590860
 42
0.116791
  0
VERTEX
  8
0
 10
286.936248
 20
55.694545
 42
0.063408
  0
VERTEX
  8
0
 10
289.259244
 20
63.303965
 42
0.011129
  0
VERTEX
  8
0
 10
289.817247
 20
67.062421
 42
0.053885
  0
VERTEX
  8
0
 10
289.854880
 20
69.216683
 42
0.075169
  0
VERTEX
  8
0
 10
289.423323
 20
70.978232
 42
0.034585
  0
VERTEX
  8
0
 10
288.373185
 20
73.100721
 42
0.058578
  0
VERTEX
  8
0
 10
286.313573
 20
75.834794
 42
0.084361
  0
VERTEX
  8
0
 10
283.888456
 20
77.639765
 42
0.076755
  0
VERTEX
  8
0
 10
280.827583
 20
78.648326
 42
0.040505
  0
VERTEX
  8
0
 10
276.831787
 20
78.985258
 42
0.016330
  0
VERTEX
  8
0
 10
272.312228
 20
78.851900
 42
0.140049
  0
VERTEX
  8
0
 10
270.425039
 20
78.183393
 42
0.225373
  0
VERTEX
  8
0
 10
269.639253
 20
76.774394
 42
0.049722
  0
VERTEX
  8
0
 10
269.735815
 20
73.932976
 42
-0.016344
  0
VERTEX
  8
0
 10
269.932712
 20
71.983301
 42
-0.073614
  0
VERTEX
  8
0
 10
269.842573
 20
70.844665
 42
-0.160975
  0
VERTEX
  8
0
 10
269.473890
 20
70.236765
 42
-0.178462
  0
VERTEX
  8
0
 10
268.831669
 20
70.000000
 42
-0.211335
  0
VERTEX
  8
0
 10
266.239766
 20
71.146737
 42
-0.168864
  0
VERTEX
  8
0
 10
265.029374
 20
73.984694
 42
-0.122767
  0
VERTEX
  8
0
 10
265.695703
 20
77.737070
 42
-0.100178
  0
VERTEX
  8
0
 10
268.071633
 20
81.066916
 42
-0.064249
  0
VERTEX
  8
0
 10
271.663800
 20
83.647904
 42
-0.107627
  0
VERTEX
  8
0
 10
275.221952
 20
84.672167
 42
-0.095239
  0
VERTEX
  8
0
 10
279.189901
 20
84.177411
 42
-0.042239
  0
VERTEX
  8
0
 10
284.072904
 20
82.122226
 42
0.045955
  0
VERTEX
  8
0
 10
289.013366
 20
80.085862
 42
0.049426
  0
VERTEX
  8
0
 10
294.123620
 20
79.048132
 42
0.051323
  0
VERTEX
  8
0
 10
299.156755
 20
79.053086
 42
0.058037
  0
VERTEX
  8
0
 10
303.869849
 20
80.104474
 42
0.113129
  0
VERTEX
  8
0
 10
306.998176
 20
82.068959
 42
0.069603
  0
VERTEX
  8
0
 10
309.627468
 20
85.558060
 42
0.063726
  0
VERTEX
  8
0
 10
311.397247
 20
89.995166
 42
0.063144
  0
VERTEX
  8
0
 10
312.000000
 20
94.748964
 42
0.020038
  0
VERTEX
  8
0
 10
311.884207
 20
97.637180
 42
0.075569
  0
VERTEX
  8
0
 10
311.470809
 20
99.394908
 42
0.088648
  0
VERTEX
  8
0
 10
310.591008
 20
100.802356
 42
0.033959
  0
VERTEX
  8
0
 10
308.923275
 20
102.411106
 42
0.019634
  0
VERTEX
  8
0
 10
307.646950
 20
103.402167
 42
0.022742
  0
VERTEX
  8
0
 10
306.356276
 20
104.239512
 42
0.022557
  0
VERTEX
  8
0
 10
305.213432
 20
104.841662
 42
0.110400
  0
VERTEX
  8
0
 10
304.505062
 20
105.000000
 42
-0.022403
  0
VERTEX
  8
0
 10
303.895054
 20
105.027346
 42
-0.013006
  0
VERTEX
  8
0
 10
303.166424
 20
105.111959
 42
-0.012985
  0
VERTEX
  8
0
 10
302.439010
 20
105.235019
 42
-0.021298
  0
VERTEX
  8
0
 10
301.831787
 20
105.381137
 42
0.053843
  0
VERTEX
  8
0
 10
301.180292
 20
105.493744
 42
0.023641
  0
VERTEX
  8
0
 10
300.303713
 20
105.508030
 42
0.023068
  0
VERTEX
  8
0
 10
299.363383
 20
105.435384
 42
0.028603
  0
SEQEND
  0
POLYLINE
  8
0
 66
1
 70
1
  0
VERTEX
  8
0
 10
176.500000
 20
89.711064
 42
0.010573
  0
VERTEX
  8
0
 10
174.420253
 20
87.077072
 42
0.007896
  0
VERTEX
  8
0
 10
172.235923
 20
84.090115
 42
0.003051
  0
VERTEX
  8
0
 10
170.205618
 20
81.182261
 42
0.152011
  0
VERTEX
  8
0
 10
170.000000
 20
80.521562
 42
-0.155045
  0
VERTEX
  8
0
 10
169.443381
 20
78.769690
 42
-0.003488
  0
VERTEX
  8
0
 10
164.244807
 20
71.522490
 42
-0.008632
  0
VERTEX
  8
0
 10
158.952504
 20
64.509930
 42
-0.020166
  0
VERTEX
  8
0
 10
154.697587
 20
59.500000
 42
0.000000
  0
VERTEX
  8
0
 10
149.170310
 20
53.500000
 42
0.000000
  0
VERTEX
  8
0
 10
144.335155
 20
58.197253
 42
0.045739
  0
VERTEX
  8
0
 10
139.346729
 20
62.227227
 42
0.032048
  0
VERTEX
  8
0
 10
133.088251
 20
65.844164
 42
0.031167
  0
VERTEX
  8
0
 10
127.007850
 20
68.398036
 42
0.120847
  0
VERTEX
  8
0
 10
122.968697
 20
68.782098
 42
-0.017926
  0
VERTEX
  8
0
 10
121.830476
 20
68.656525
 42
-0.030393
  0
VERTEX
  8
0
 10
120.872239
 20
68.643813
 42
-0.032276
  0
VERTEX
  8
0
 10
120.168048
 20
68.723037
 42
-0.363704
  0
VERTEX
  8
0
 10
120.000629
 20
68.923193
 42
-0.156319
  0
VERTEX
  8
0
 10
120.124667
 20
69.308798
 42
-0.002877
  0
VERTEX
  8
0
 10
121.396201
 20
71.063402
 42
-0.006796
  0
VERTEX
  8
0
 10
122.930404
 20
73.096506
 42
-0.004453
  0
VERTEX
  8
0
 10
124.750629
 20
75.399027
 42
0.001355
  0
VERTEX
  8
0
 10
131.240092
 20
83.504218
 42
0.072497
  0
VERTEX
  8
0
 10
132.234407
 20
85.210260
 42
0.317454
  0
VERTEX
  8
0
 10
131.955536
 20
86.391525
 42
0.044197
  0
VERTEX
  8
0
 10
129.815221
 20
87.971297
 42
0.008690
  0
VERTEX
  8
0
 10
128.493900
 20
88.745708
 42
0.011585
  0
VERTEX
  8
0
 10
127.266195
 20
89.399887
 42
0.008945
  0
VERTEX
  8
0
 10
126.226291
 20
89.900320
 42
0.106738
  0
VERTEX
  8
0
 10
125.793102
 20
89.996262
 42
0.230722
  0
VERTEX
  8
0
 10
124.608049
 20
89.426414
 42
0.003185
  0
VERTEX
  8
0
 10
119.551709
 20
82.947546
 42
0.009025
  0
VERTEX
  8
0
 10
114.912083
 20
76.693598
 42
0.033041
  0
VERTEX
  8
0
 10
112.316832
 20
72.500000
 42
0.030448
  0
VERTEX
  8
0
 10
110.433293
 20
68.362910
 42
0.018267
  0
VERTEX
  8
0
 10
108.684276
 20
63.253830
 42
0.017783
  0
VERTEX
  8
0
 10
107.380784
 20
58.308887
 42
0.055601
  0
VERTEX
  8
0
 10
107.000000
 20
54.895224
 42
0.073007
  0
VERTEX
  8
0
 10
107.188851
 20
53.608746
 42
0.031588
  0
VERTEX
  8
0
 10
107.791418
 20
51.981621
 42
0.030415
  0
VERTEX
  8
0
 10
108.663017
 20
50.301839
 42
0.035335
  0
VERTEX
  8
0
 10
109.694190
 20
48.826725
 42
0.000000
  0
VERTEX
  8
0
 10
112.388380
 20
45.500000
 42
0.000000
  0
VERTEX
  8
0
 10
109.075580
 20
48.500000
 42
-0.024325
  0
VERTEX
  8
0
 10
107.603803
 20
49.969221
 42
-0.012638
  0
VERTEX
  8
0
 10
105.906922
 20
51.934052
 42
-0.012537
  0
VERTEX
  8
0
 10
104.262378
 20
54.044273
 42
-0.018641
  0
VERTEX
  8
0
 10
102.940678
 20
55.977625
 42
-0.025968
  0
VERTEX
  8
0
 10
101.212164
 20
59.064503
 42
-0.185707
  0
VERTEX
  8
0
 10
101.059008
 20
60.737335
 42
-0.274913
  0
VERTEX
  8
0
 10
102.062971
 20
61.688302
 42
-0.053695
  0
VERTEX
  8
0
 10
104.641592
 20
61.984687
 42
0.079399
  0
VERTEX
  8
0
 10
105.610893
 20
62.146703
 42
0.100041
  0
VERTEX
  8
0
 10
106.397151
 20
62.600547
 42
0.092346
  0
VERTEX
  8
0
 10
106.988854
 20
63.357139
 42
0.058475
  0
VERTEX
  8
0
 10
107.387327
 20
64.407099
 42
-0.007550
  0
VERTEX
  8
0
 10
107.667642
 20
65.456587
 42
-0.005412
  0
VERTEX
  8
0
 10
108.011297
 20
66.621250
 42
-0.005466
  0
VERTEX
  8
0
 10
108.362763
 20
67.723458
 42
-0.011699
  0
VERTEX
  8
0
 10
108.663106
 20
68.564452
 42
0.137139
  0
VERTEX
  8
0
 10
108.747213
 20
69.458201
 42
0.311039
  0
VERTEX
  8
0
 10
108.291887
 20
69.916763
 42
0.073126
  0
VERTEX
  8
0
 10
106.971429
 20
69.969401
 42
0.005565
  0
VERTEX
  8
0
 10
103.417371
 20
69.550664
 42
-0.000673
  0
VERTEX
  8
0
 10
100.859733
 20
69.223924
 42
-0.000517
  0
VERTEX
  8
0
 10
98.065948
 20
68.873766
 42
-0.000522
  0
VERTEX
  8
0
 10
95.452508
 20
68.551728
 42
-0.001244
  0
VERTEX
  8
0
 10
93.509259
 20
68.319238
 42
0.008879
  0
VERTEX
  8
0
 10
91.948628
 20
68.108307
 42
0.012392
  0
VERTEX
  8
0
 10
90.562119
 20
67.860467
 42
0.008830
  0
VERTEX
  8
0
 10
89.424816
 20
67.606951
 42
0.137969
  0
VERTEX
  8
0
 10
89.080461
 20
67.413794
 42
0.245729
  0
VERTEX
  8
0
 10
88.966164
 20
67.048819
 42
0.008459
  0
VERTEX
  8
0
 10
89.265508
 20
65.535919
 42
0.014102
  0
VERTEX
  8
0
 10
89.712186
 20
63.714251
 42
0.009176
  0
VERTEX
  8
0
 10
90.325553
 20
61.636172
 42
0.058674
  0
VERTEX
  8
0
 10
94.162482
 20
53.103322
 42
0.045849
  0
VERTEX
  8
0
 10
100.163993
 20
44.896633
 42
0.047638
  0
VERTEX
  8
0
 10
107.123303
 20
38.380306
 42
0.096908
  0
VERTEX
  8
0
 10
113.796617
 20
35.039709
 42
0.058503
  0
VERTEX
  8
0
 10
120.670171
 20
33.972503
 42
0.040707
  0
VERTEX
  8
0
 10
128.524588
 20
34.319970
 42
0.041323
  0
VERTEX
  8
0
 10
136.012525
 20
35.901712
 42
0.072442
  0
VERTEX
  8
0
 10
141.743908
 20
38.567857
 42
0.029783
  0
VERTEX
  8
0
 10
143.050248
 20
39.539651
 42
0.176187
  0
VERTEX
  8
0
 10
143.468944
 20
40.266085
 42
0.145504
  0
VERTEX
  8
0
 10
143.364708
 20
41.169208
 42
0.018343
  0
VERTEX
  8
0
 10
142.517388
 20
42.966374
 42
0.036051
  0
VERTEX
  8
0
 10
140.973793
 20
45.487882
 42
0.189322
  0
VERTEX
  8
0
 10
139.635942
 20
46.355227
 42
0.146286
  0
VERTEX
  8
0
 10
137.857467
 20
46.195556
 42
0.019044
  0
VERTEX
  8
0
 10
134.339515
 20
44.632391
 42
-0.026782
  0
VERTEX
  8
0
 10
129.471210
 20
42.558766
 42
-0.057422
  0
VERTEX
  8
0
 10
125.506228
 20
41.611969
 42
-0.065242
  0
VERTEX
  8
0
 10
121.762981
 20
41.651713
 42
-0.044972
  0
VERTEX
  8
0
 10
117.629855
 20
42.622942
 42
-0.009337
  0
VERTEX
  8
0
 10
114.991081
 20
43.554459
 42
-0.079909
  0
VERTEX
  8
0
 10
113.905769
 20
44.172279
 42
-0.306998
  0
VERTEX
  8
0
 10
113.727763
 20
44.751658
 42
-0.161835
  0
VERTEX
  8
0
 10
114.183830
 20
45.392469
 42
0.129200
  0
VERTEX
  8
0
 10
114.883313
 20
46.253140
 42
0.052706
  0
VERTEX
  8
0
 10
115.361583
 20
47.695616
 42
0.036981
  0
VERTEX
  8
0
 10
115.654704
 20
49.761968
 42
0.014678
  0
VERTEX
  8
0
 10
115.762596
 20
52.627571
 42
-0.022203
  0
VERTEX
  8
0
 10
115.915106
 20
55.520049
 42
-0.024450
  0
VERTEX
  8
0
 10
116.323044
 20
58.294920
 42
-0.025833
  0
VERTEX
  8
0
 10
116.968525
 20
60.860132
 42
-0.033589
  0
VERTEX
  8
0
 10
117.833907
 20
63.122644
 42
-0.002342
  0
VERTEX
  8
0
 10
119.053512
 20
65.732490
 42
-0.106721
  0
VERTEX
  8
0
 10
119.412940
 20
66.200928
 42
-0.686274
  0
VERTEX
  8
0
 10
119.588205
 20
66.105357
 42
-0.008911
  0
VERTEX
  8
0
 10
119.330880
 20
64.392989
 42
0.035669
  0
VERTEX
  8
0
 10
119.150516
 20
62.513495
 42
0.193214
  0
VERTEX
  8
0
 10
119.501957
 20
61.572287
 42
0.133075
  0
VERTEX
  8
0
 10
120.492320
 20
60.941517
 42
0.013963
  0
VERTEX
  8
0
 10
123.162075
 20
60.189407
 42
-0.069263
  0
VERTEX
  8
0
 10
129.470658
 20
57.633174
 42
-0.043991
  0
VERTEX
  8
0
 10
135.973460
 20
53.076499
 42
-0.043678
  0
VERTEX
  8
0
 10
141.645190
 20
47.392961
 42
-0.063584
  0
VERTEX
  8
0
 10
145.461661
 20
41.439551
 42
-0.068148
  0
VERTEX
  8
0
 10
147.768787
 20
34.161562
 42
-0.039793
  0
VERTEX
  8
0
 10
148.605056
 20
25.032475
 42
-0.037258
  0
VERTEX
  8
0
 10
148.102810
 20
17.029610
 42
-0.374588
  0
VERTEX
  8
0
 10
145.773822
 20
15.000000
 42
-0.138625
  0
VERTEX
  8
0
 10
143.543213
 20
15.630554
 42
-0.009271
  0
VERTEX
  8
0
 10
137.896658
 20
19.246082
 42
-0.014433
  0
VERTEX
  8
0
 10
132.092153
 20
23.363187
 42
-0.023671
  0
VERTEX
  8
0
 10
127.457852
 20
27.212516
 42
0.015782
  0
VERTEX
  8
0
 10
125.171285
 20
29.173537
 42
0.018765
  0
VERTEX
  8
0
 10
122.890595
 20
30.870971
 42
0.017841
  0
VERTEX
  8
0
 10
120.884567
 20
32.147215
 42
0.103931
  0
VERTEX
  8
0
 10
119.703778
 20
32.543525
 42
-0.012800
  0
VERTEX
  8
0
 10
118.664040
 20
32.692482
 42
-0.006164
  0
VERTEX
  8
0
 10
117.339547
 20
32.933804
 42
-0.006108
  0
VERTEX
  8
0
 10
115.963758
 20
33.219524
 42
-0.008705
  0
VERTEX
  8
0
 10
114.750000
 20
33.509346
 42
0.022627
  0
VERTEX
  8
0
 10
113.281843
 20
33.816989
 42
0.140479
  0
VERTEX
  8
0
 10
112.525348
 20
33.727442
 42
0.228888
  0
VERTEX
  8
0
 10
112.130397
 20
33.280588
 42
0.069163
  0
VERTEX
  8
0
 10
112.004495
 20
32.358408
 42
0.171951
  0
VERTEX
  8
0
 10
112.967880
 20
29.660645
 42
0.015123
  0
VERTEX
  8
0
 10
117.787980
 20
24.095801
 42
0.020892
  0
VERTEX
  8
0
 10
123.301338
 20
18.587199
 42
0.039320
  0
VERTEX
  8
0
 10
128.252345
 20
14.708167
 42
0.020028
  0
VERTEX
  8
0
 10
135.099724
 20
10.548182
 42
0.012842
  0
VERTEX
  8
0
 10
143.350039
 20
6.250850
 42
0.004855
  0
VERTEX
  8
0
 10
151.534448
 20
2.349585
 42
0.321020
  0
VERTEX
  8
0
 10
152.984974
 20
2.622772
 42
0.145622
  0
VERTEX
  8
0
 10
154.136127
 20
4.865748
 42
0.007377
  0
VERTEX
  8
0
 10
155.541837
 20
13.044739
 42
0.012848
  0
VERTEX
  8
0
 10
156.641790
 20
21.474188
 42
0.026891
  0
VERTEX
  8
0
 10
156.974183
 20
28.077930
 42
0.018616
  0
VERTEX
  8
0
 10
156.824071
 20
31.763646
 42
0.020734
  0
VERTEX
  8
0
 10
156.400225
 20
35.296695
 42
0.021103
  0
VERTEX
  8
0
 10
155.694322
 20
38.725158
 42
0.020822
  0
VERTEX
  8
0
 10
154.699368
 20
42.097493
 42
-0.003426
  0
VERTEX
  8
0
 10
153.286544
 20
46.336945
 42
-0.065260
  0
VERTEX
  8
0
 10
153.031107
 20
47.705725
 42
-0.361786
  0
VERTEX
  8
0
 10
153.401176
 20
48.202651
 42
-0.123673
  0
VERTEX
  8
0
 10
154.368897
 20
48.193280
 42
0.256028
  0
VERTEX
  8
0
 10
156.907414
 20
48.829342
 42
0.019597
  0
VERTEX
  8
0
 10
162.066714
 20
53.994709
 42
0.024865
  0
VERTEX
  8
0
 10
167.620777
 20
60.643830
 42
0.022814
  0
VERTEX
  8
0
 10
172.659471
 20
68.000000
 42
-0.005747
  0
VERTEX
  8
0
 10
174.731037
 20
71.257435
 42
-0.004134
  0
VERTEX
  8
0
 10
177.115466
 20
74.848111
 42
-0.004175
  0
VERTEX
  8
0
 10
179.441181
 20
78.227149
 42
-0.009000
  0
VERTEX
  8
0
 10
181.299826
 20
80.780804
 42
0.000000
  0
VERTEX
  8
0
 10
185.290750
 20
86.061609
 42
0.000000
  0
VERTEX
  8
0
 10
182.971061
 20
88.530804
 42
0.052108
  0
VERTEX
  8
0
 10
181.134060
 20
90.117717
 42
0.107399
  0
VERTEX
  8
0
 10
179.389480
 20
90.843796
 42
0.142127
  0
VERTEX
  8
0
 10
177.826401
 20
90.683877
 42
0.124888
  0
SEQEND
  0
POLYLINE
  8
0
 66
1
 70
1
  0
VERTEX
  8
0
 10
193.500000
 20
68.138258
 42
0.037110
  0
VERTEX
  8
0
 10
188.733874
 20
66.090671
 42
0.018408
  0
VERTEX
  8
0
 10
183.009945
 20
62.837891
 42
0.017347
  0
VERTEX
  8
0
 10
177.764843
 20
59.339131
 42
0.066862
  0
VERTEX
  8
0
 10
174.922655
 20
56.656715
 42
0.034052
  0
VERTEX
  8
0
 10
173.951370
 20
55.274998
 42
0.210786
  0
VERTEX
  8
0
 10
173.842247
 20
54.434703
 42
0.136246
  0
VERTEX
  8
0
 10
174.376494
 20
53.577189
 42
0.011768
  0
VERTEX
  8
0
 10
176.334219
 20
51.862679
 42
0.000000
  0
VERTEX
  8
0
 10
179.492638
 20
49.225358
 42
0.000000
  0
VERTEX
  8
0
 10
182.642427
 20
51.990909
 42
-0.045454
  0
VERTEX
  8
0
 10
185.821083
 20
54.306995
 42
-0.015981
  0
VERTEX
  8
0
 10
190.761022
 20
57.050016
 42
-0.016304
  0
VERTEX
  8
0
 10
196.044125
 20
59.552189
 42
-0.030937
  0
VERTEX
  8
0
 10
200.467470
 20
61.156127
 42
-0.057300
  0
VERTEX
  8
0
 10
204.439665
 20
61.844248
 42
-0.012757
  0
VERTEX
  8
0
 10
211.337325
 20
62.061897
 42
-0.007216
  0
VERTEX
  8
0
 10
218.423755
 20
62.002354
 42
-0.192985
  0
VERTEX
  8
0
 10
220.125331
 20
61.274669
 42
-0.324901
  0
VERTEX
  8
0
 10
220.318632
 20
60.054485
 42
-0.021637
  0
VERTEX
  8
0
 10
218.470432
 20
56.784485
 42
-0.023014
  0
VERTEX
  8
0
 10
216.326856
 20
53.676142
 42
-0.234420
  0
VERTEX
  8
0
 10
214.963949
 20
53.000000
 42
-0.282839
  0
VERTEX
  8
0
 10
214.591797
 20
53.228824
 42
-0.049913
  0
VERTEX
  8
0
 10
214.283160
 20
54.028125
 42
-0.041182
  0
VERTEX
  8
0
 10
214.069883
 20
55.158824
 42
-0.026035
  0
VERTEX
  8
0
 10
214.000000
 20
56.500000
 42
0.023381
  0
VERTEX
  8
0
 10
213.897324
 20
58.694529
 42
0.200131
  0
VERTEX
  8
0
 10
213.445363
 20
59.544838
 42
0.159526
  0
VERTEX
  8
0
 10
212.465901
 20
59.925658
 42
0.013609
  0
VERTEX
  8
0
 10
209.735077
 20
60.000000
 42
0.000000
  0
VERTEX
  8
0
 10
205.470153
 20
60.000000
 42
0.000000
  0
VERTEX
  8
0
 10
205.485077
 20
51.713269
 42
-0.011046
  0
VERTEX
  8
0
 10
205.383231
 20
46.694455
 42
-0.049984
  0
VERTEX
  8
0
 10
204.968515
 20
43.799064
 42
-0.057337
  0
VERTEX
  8
0
 10
204.012396
 20
41.233266
 42
-0.017489
  0
VERTEX
  8
0
 10
202.000000
 20
37.603474
 42
-0.022646
  0
VERTEX
  8
0
 10
200.303868
 20
35.050871
 42
-0.013752
  0
VERTEX
  8
0
 10
198.083276
 20
32.185339
 42
-0.013769
  0
VERTEX
  8
0
 10
195.718846
 20
29.458335
 42
-0.023540
  0
VERTEX
  8
0
 10
193.581365
 20
27.335827
 42
-0.030155
  0
VERTEX
  8
0
 10
188.463773
 20
23.243600
 42
-0.019056
  0
VERTEX
  8
0
 10
182.051058
 20
19.077632
 42
-0.010799
  0
VERTEX
  8
0
 10
175.786687
 20
15.520620
 42
-0.268270
  0
VERTEX
  8
0
 10
173.875779
 20
15.576773
 42
-0.227270
  0
VERTEX
  8
0
 10
173.384448
 20
16.342857
 42
-0.015722
  0
VERTEX
  8
0
 10
173.142434
 20
18.969402
 42
-0.016614
  0
VERTEX
  8
0
 10
173.042342
 20
22.646423
 42
-0.006354
  0
VERTEX
  8
0
 10
173.138180
 20
27.765685
 42
0.000000
  0
VERTEX
  8
0
 10
173.500000
 20
39.275119
 42
0.000000
  0
VERTEX
  8
0
 10
170.747281
 20
41.334840
 42
0.027690
  0
VERTEX
  8
0
 10
169.491269
 20
42.170388
 42
0.062793
  0
VERTEX
  8
0
 10
168.445058
 20
42.620416
 42
0.094457
  0
VERTEX
  8
0
 10
167.616656
 20
42.697219
 42
0.174100
  0
VERTEX
  8
0
 10
167.012144
 20
42.412144
 42
0.139784
  0
VERTEX
  8
0
 10
165.952300
 20
40.506808
 42
0.015711
  0
VERTEX
  8
0
 10
164.966028
 20
35.602147
 42
0.019517
  0
VERTEX
  8
0
 10
164.241584
 20
29.973158
 42
0.022245
  0
VERTEX
  8
0
 10
164.000000
 20
24.545881
 42
0.037435
  0
VERTEX
  8
0
 10
164.369515
 20
19.617419
 42
0.012410
  0
VERTEX
  8
0
 10
165.628932
 20
12.473147
 42
0.007449
  0
VERTEX
  8
0
 10
167.174048
 20
5.370642
 42
0.139977
  0
VERTEX
  8
0
 10
168.272468
 20
3.394198
 42
0.314125
  0
VERTEX
  8
0
 10
169.448365
 20
3.184265
 42
0.003326
  0
VERTEX
  8
0
 10
177.339704
 20
6.886955
 42
0.010547
  0
VERTEX
  8
0
 10
185.164576
 20
10.826920
 42
0.017389
  0
VERTEX
  8
0
 10
191.581193
 20
14.520666
 42
0.030522
  0
VERTEX
  8
0
 10
197.884716
 20
19.002985
 42
0.034802
  0
VERTEX
  8
0
 10
203.307312
 20
24.041775
 42
0.036840
  0
VERTEX
  8
0
 10
207.701567
 20
29.488610
 42
0.044799
  0
VERTEX
  8
0
 10
210.933252
 20
35.190110
 42
-0.014163
  0
VERTEX
  8
0
 10
212.088661
 20
37.555084
 42
-0.032284
  0
VERTEX
  8
0
 10
213.122207
 20
39.251039
 42
-0.049951
  0
VERTEX
  8
0
 10
213.945406
 20
40.205526
 42
-0.475836
  0
VERTEX
  8
0
 10
214.410232
 20
40.145247
 42
0.176319
  0
VERTEX
  8
0
 10
215.415042
 20
39.352168
 42
0.235050
  0
VERTEX
  8
0
 10
216.548689
 20
39.514926
 42
0.067766
  0
VERTEX
  8
0
 10
218.187421
 20
41.010153
 42
0.007476
  0
VERTEX
  8
0
 10
221.392408
 20
44.966363
 42
0.024141
  0
VERTEX
  8
0
 10
224.680585
 20
49.595161
 42
0.020798
  0
VERTEX
  8
0
 10
227.686143
 20
54.750873
 42
0.021531
  0
VERTEX
  8
0
 10
230.087814
 20
59.810929
 42
0.040285
  0
VERTEX
  8
0
 10
231.510702
 20
64.110860
 42
0.063003
  0
VERTEX
  8
0
 10
231.684954
 20
65.643571
 42
0.199398
  0
VERTEX
  8
0
 10
231.284938
 20
66.573400
 42
0.102899
  0
VERTEX
  8
0
 10
230.129863
 20
67.306968
 42
0.011157
  0
VERTEX
  8
0
 10
227.135589
 20
68.360860
 42
0.061337
  0
VERTEX
  8
0
 10
220.456137
 20
69.670372
 42
0.019426
  0
VERTEX
  8
0
 10
210.286925
 20
69.998229
 42
0.019400
  0
VERTEX
  8
0
 10
200.128904
 20
69.536596
 42
0.061923
  0
SEQEND
  0
POLYLINE
  8
0
 66
1
 70
1
  0
VERTEX
  8
0
 10
214.683114
 20
43.812500
 42
-0.054073
  0
VERTEX
  8
0
 10
214.461564
 20
43.395823
 42
-0.470617
  0
VERTEX
  8
0
 10
214.279315
 20
43.378580
 42
-0.168741
  0
VERTEX
  8
0
 10
214.137993
 20
43.670344
 42
-0.018894
  0
VERTEX
  8
0
 10
214.078947
 20
44.416667
 42
-0.028489
  0
VERTEX
  8
0
 10
214.089945
 20
45.112848
 42
-0.077125
  0
VERTEX
  8
0
 10
214.200665
 20
45.592839
 42
-0.208169
  0
VERTEX
  8
0
 10
214.385309
 20
45.775380
 42
-0.296942
  0
VERTEX
  8
0
 10
214.604167
 20
45.729167
 42
-0.126455
  0
VERTEX
  8
0
 10
214.797407
 20
45.402231
 42
-0.060344
  0
VERTEX
  8
0
 10
214.876576
 20
44.916927
 42
-0.054150
  0
VERTEX
  8
0
 10
214.839148
 20
44.359369
 42
-0.051402
  0
SEQEND
  0
POLYLINE
  8
0
 66
1
 70
1
  0
VERTEX
  8
0
 10
164.500000
 20
54.572473
 42
0.000000
  0
VERTEX
  8
0
 10
161.500000
 20
52.154880
 42
0.000000
  0
VERTEX
  8
0
 10
165.000000
 20
48.446101
 42
0.045071
  0
VERTEX
  8
0
 10
170.891011
 20
43.234611
 42
0.036492
  0
VERTEX
  8
0
 10
178.038987
 20
38.740859
 42
0.036668
  0
VERTEX
  8
0
 10
185.719954
 20
35.356872
 42
0.047053
  0
VERTEX
  8
0
 10
193.203211
 20
33.464862
 42
0.031240
  0
VERTEX
  8
0
 10
195.445270
 20
33.259938
 42
0.134404
  0
VERTEX
  8
0
 10
196.735236
 20
33.573592
 42
0.108823
  0
VERTEX
  8
0
 10
197.828780
 20
34.537592
 42
0.017098
  0
VERTEX
  8
0
 10
199.453211
 20
36.925881
 42
0.003997
  0
VERTEX
  8
0
 10
200.429200
 20
38.499682
 42
0.006029
  0
VERTEX
  8
0
 10
201.251881
 20
39.887654
 42
0.002646
  0
VERTEX
  8
0
 10
201.931138
 20
41.080347
 42
0.128808
  0
VERTEX
  8
0
 10
202.000000
 20
41.343218
 42
0.369662
  0
VERTEX
  8
0
 10
201.857962
 20
41.509083
 42
0.003510
  0
VERTEX
  8
0
 10
200.158339
 20
41.761515
 42
0.009394
  0
VERTEX
  8
0
 10
198.134359
 20
42.008927
 42
0.005688
  0
VERTEX
  8
0
 10
195.730514
 20
42.229433
 42
-0.045988
  0
VERTEX
  8
0
 10
190.256015
 20
43.180504
 42
-0.042440
  0
VERTEX
  8
0
 10
184.891365
 20
45.131164
 42
-0.037842
  0
VERTEX
  8
0
 10
179.406652
 20
48.193526
 42
-0.024668
  0
VERTEX
  8
0
 10
173.562376
 20
52.492396
 42
0.002237
  0
VERTEX
  8
0
 10
171.421830
 20
54.220024
 42
0.003575
  0
VERTEX
  8
0
 10
169.576316
 20
55.674432
 42
0.000793
  0
VERTEX
  8
0
 10
167.949115
 20
56.933904
 42
0.170604
  0
VERTEX
  8
0
 10
167.764128
 20
56.995033
 42
0.153780
  0
VERTEX
  8
0
 10
167.585976
 20
56.935209
 42
0.002334
  0
VERTEX
  8
0
 10
166.696338
 20
56.281357
 42
0.006034
  0
VERTEX
  8
0
 10
165.668892
 20
55.499406
 42
0.003924
  0
SEQEND
  0
ENDSEC
  0
EOF
