0
SECTION
2
HEADER
9
$EXTMIN
10
1.408922
20
0.004646
9
$EXTMAX
10
46.275932
20
51.154202
0
ENDSEC
0
SECTION
2
TABLES
0
TABLE
2
LTYPE
70
1
0
LTYPE
2
0
70
0
3
Solid Line
72
65
73
0
40
0.0
0
ENDTAB
0
TABLE
2
LAYER
70
1
0
LAYER
2
1
70
0
62
7
6
0
0
ENDTAB
0
ENDSEC
0
SECTION
2
BLOCKS
0
ENDSEC
0
SECTION
2
ENTITIES
0
LINE
8
1
10
1.408922
20
51.153694
11
1.409568
21
51.154202
0
LINE
8
1
10
35.962917
20
47.984825
11
35.962864
21
47.984695
0
LINE
8
1
10
36.103695
20
48.374649
11
36.102917
21
48.375504
0
LINE
8
1
10
28.177227
20
47.965752
11
28.177174
21
47.965622
0
LINE
8
1
10
28.318001
20
48.355568
11
28.317226
21
48.356422
0
LINE
8
1
10
33.743313
20
47.165222
11
33.743435
21
47.164780
0
LINE
8
1
10
35.035694
20
47.750572
11
35.030849
21
47.750557
0
LINE
8
1
10
29.972183
20
46.669247
11
29.972130
21
46.669117
0
LINE
8
1
10
30.112961
20
47.059071
11
30.112179
21
47.059921
0
LINE
8
1
10
25.707623
20
47.145523
11
25.707741
21
47.145088
0
LINE
8
1
10
27.000004
20
47.730873
11
26.995159
21
47.730865
0
LINE
8
1
10
3.305358
20
12.279954
11
3.306272
21
12.280204
0
LINE
8
1
10
4.139845
20
19.048876
11
4.139996
21
19.048697
0
LINE
8
1
10
3.494659
20
14.810785
11
3.494659
21
14.801623
0
LINE
8
1
10
37.159485
20
12.199529
11
37.159199
21
12.200522
0
LINE
8
1
10
29.338387
20
3.211888
11
29.337765
21
3.212604
0
ARC
8
1
10
30.161243
20
7.031247
40
6.654067
50
88.353677
51
92.392906
0
ARC
8
1
10
30.406809
20
12.454105
40
1.229665
50
81.335836
51
92.535371
0
LINE
8
1
10
30.592049
20
13.669738
11
30.561558
21
13.675971
0
ARC
8
1
10
48.658833
20
5.340514
40
19.924638
50
155.269585
51
158.466301
0
ARC
8
1
10
30.179071
20
14.050453
40
1.397684
50
-162.953082
51
-92.221345
0
LINE
8
1
10
28.842794
20
13.640716
11
28.842794
21
13.632751
0
LINE
8
1
10
28.842794
20
13.632751
11
28.820824
21
13.626424
0
ARC
8
1
10
29.005659
20
12.859396
40
0.788984
50
91.122701
51
103.548603
0
ARC
8
1
10
29.803949
20
2.121541
40
11.555376
50
89.926419
51
94.038207
0
ARC
8
1
10
32.469574
20
-51.326942
40
65.057876
50
92.278194
51
92.335162
0
ARC
8
1
10
29.809034
20
13.848004
40
0.980492
50
34.065380
51
97.620603
0
ARC
8
1
10
27.523129
20
35.647041
40
21.474487
50
-86.476795
51
-81.704934
0
LINE
8
1
10
28.842794
20
14.213141
11
28.842794
21
14.239781
0
ARC
8
1
10
29.768097
20
13.798630
40
1.025085
50
94.985766
51
154.509835
0
ARC
8
1
10
34.294334
20
10.048096
40
4.051791
50
160.080907
51
-145.336074
0
ARC
8
1
10
60.882095
20
-1.133939
40
32.890759
50
156.987366
51
157.545802
0
ARC
8
1
10
30.330847
20
10.947731
40
0.824707
50
-8.218489
51
70.301904
0
ARC
8
1
10
30.930428
20
10.876131
40
0.221546
50
-28.853496
51
-12.060408
0
ARC
8
1
10
34.231861
20
9.084888
40
3.534523
50
151.540524
51
-157.698248
0
ARC
8
1
10
29.544298
20
11.173487
40
2.767987
50
-24.889637
51
37.175252
0
ARC
8
1
10
29.859884
20
10.437881
40
2.236904
50
-11.066282
51
62.139268
0
ARC
8
1
10
-8.465260
20
29.040768
40
42.736824
50
-22.893232
51
-21.567993
0
ARC
8
1
10
29.538286
20
11.168539
40
2.775767
50
37.181641
51
51.156967
0
LINE
8
1
10
28.846790
20
9.016816
11
28.842794
21
9.019114
0
ARC
8
1
10
34.251831
20
3.419167
40
2.295551
50
178.562594
51
-163.108254
0
LINE
8
1
10
32.055321
20
2.752162
11
32.104462
21
2.598153
0
LINE
8
1
10
32.104462
20
2.598153
11
32.149063
21
2.734809
0
ARC
8
1
10
33.352039
20
2.317136
40
1.273422
50
124.421172
51
160.852994
0
ARC
8
1
10
31.057961
20
3.050160
40
1.605933
50
-35.157079
51
11.400082
0
LINE
8
1
10
32.370934
20
2.125432
11
32.212791
21
1.908923
0
LINE
8
1
10
32.212791
20
1.908923
11
32.430901
21
2.076358
0
ARC
8
1
10
31.096886
20
3.758364
40
2.146798
50
-51.581737
51
-1.558487
0
ARC
8
1
10
32.672195
20
2.902106
40
0.980964
50
-2.866152
51
54.424954
0
LINE
8
1
10
33.651932
20
2.853055
11
33.641273
21
2.706603
0
LINE
8
1
10
33.641273
20
2.706603
11
33.729572
21
2.822932
0
ARC
8
1
10
32.958973
20
3.377573
40
0.949447
50
-35.744520
51
7.019969
0
LINE
8
1
10
33.901302
20
3.493609
11
33.877724
21
3.508014
0
ARC
8
1
10
33.476688
20
2.885175
40
0.740782
50
-7.287265
51
57.223200
0
LINE
8
1
10
34.211487
20
2.791211
11
34.188339
21
2.639932
0
LINE
8
1
10
34.188339
20
2.639932
11
34.284714
21
2.762828
0
ARC
8
1
10
33.640789
20
3.237242
40
0.799817
50
-36.381065
51
-3.610989
0
ARC
8
1
10
34.557392
20
3.158929
40
0.121626
50
92.952013
51
166.720072
0
ARC
8
1
10
34.964500
20
1.278848
40
2.043787
50
58.773798
51
101.669022
0
ARC
8
1
10
37.805527
20
4.932909
40
2.609201
50
-133.060657
51
-87.246843
0
ARC
8
1
10
35.959694
20
1.922836
40
2.012113
50
-57.958090
51
11.579454
0
LINE
8
1
10
37.027199
20
0.217248
11
36.675167
21
0.004646
0
LINE
8
1
10
36.675167
20
0.004646
11
37.064491
21
0.155766
0
ARC
8
1
10
36.157825
20
2.394055
40
2.414950
50
-67.948563
51
-5.224182
0
ARC
8
1
10
38.518940
20
0.915523
40
1.259405
50
78.270281
51
88.006755
0
ARC
8
1
10
39.737621
20
1.948910
40
0.983150
50
168.279256
51
-60.442893
0
LINE
8
1
10
40.222599
20
1.093705
11
40.409554
21
1.205625
0
LINE
8
1
10
40.409554
20
1.205625
11
40.201576
21
1.164752
0
ARC
8
1
10
40.073135
20
1.914812
40
0.760978
50
150.227142
51
-80.282870
0
ARC
8
1
10
39.824955
20
1.945214
40
0.539230
50
35.915825
51
139.880407
0
ARC
8
1
10
39.542606
20
1.584648
40
0.987525
50
-20.330404
51
43.269088
0
ARC
8
1
10
40.424633
20
1.630657
40
0.391585
50
-83.551404
51
-44.886850
0
ARC
8
1
10
38.849556
20
3.341450
40
2.716714
50
-47.008020
51
-39.920084
0
LINE
8
1
10
40.933113
20
1.598084
11
40.996628
21
1.688832
0
ARC
8
1
10
40.638222
20
1.920667
40
0.426852
50
-32.896786
51
8.529275
0
ARC
8
1
10
39.832947
20
1.879306
40
1.231860
50
4.874225
51
114.085637
0
ARC
8
1
10
43.851791
20
-4.138844
40
8.453613
50
122.334965
51
126.242654
0
ARC
8
1
10
38.695736
20
2.929877
40
0.296463
50
-91.223180
51
-57.743374
0
ARC
8
1
10
38.414036
20
2.429599
40
0.342633
50
36.515827
51
77.291771
0
ARC
8
1
10
37.988232
20
1.040780
40
1.794467
50
73.782097
51
90.128862
0
ARC
8
1
10
37.804043
20
3.286465
40
0.485857
50
108.805165
51
-68.235418
0
ARC
8
1
10
37.589966
20
4.127890
40
0.385807
50
-81.434682
51
-29.773875
0
LINE
8
1
10
37.924843
20
3.936307
11
37.912254
21
3.947381
0
ARC
8
1
10
38.062576
20
4.137189
40
0.242124
50
-128.378058
51
-7.638838
0
LINE
8
1
10
38.302551
20
4.105004
11
38.300850
21
4.084496
0
ARC
8
1
10
40.980766
20
9.706250
40
6.227846
50
-115.487354
51
-95.471684
0
LINE
8
1
10
40.386917
20
3.506782
11
40.277962
21
3.597121
0
ARC
8
1
10
40.713554
20
4.029299
40
0.613611
50
-177.974108
51
-135.225451
0
ARC
8
1
10
42.304810
20
8.685439
40
5.171253
50
-115.232704
51
-77.302440
0
LINE
8
1
10
43.441475
20
3.640655
11
43.672909
21
3.695355
0
ARC
8
1
10
44.700188
20
9.201610
40
5.601262
50
-112.582114
51
-100.567938
0
LINE
8
1
10
42.549263
20
4.029796
11
42.453621
21
4.070865
0
LINE
8
1
10
42.453621
20
4.070865
11
42.564568
21
4.020608
0
LINE
8
1
10
42.564568
20
4.020608
11
42.441692
21
4.040643
0
ARC
8
1
10
43.162636
20
8.805637
40
4.819225
50
-98.603592
51
-73.465626
0
LINE
8
1
10
44.534142
20
4.185691
11
44.430367
21
4.243640
0
ARC
8
1
10
44.913605
20
5.061979
40
0.950368
50
-139.054304
51
-120.562306
0
ARC
8
1
10
44.780731
20
1.314239
40
3.179203
50
86.949828
51
100.602744
0
ARC
8
1
10
45.053947
20
10.722335
40
6.234265
50
-90.956307
51
-84.425970
0
ARC
8
1
10
45.541908
20
5.348612
40
0.839341
50
-81.946876
51
-36.285414
0
LINE
8
1
10
46.218483
20
4.851884
11
46.275932
21
4.934337
0
ARC
8
1
10
46.036396
20
9.635595
40
4.707357
50
-132.665598
51
-87.083213
0
ARC
8
1
10
43.568336
20
7.572145
40
1.573499
50
-117.321218
51
-55.887585
0
ARC
8
1
10
44.233101
20
7.348607
40
1.100956
50
-137.339475
51
-78.596293
0
ARC
8
1
10
43.707577
20
6.836986
40
0.368344
50
105.502891
51
-140.469755
0
ARC
8
1
10
43.797039
20
6.704923
40
0.522002
50
18.903625
51
111.099619
0
ARC
8
1
10
44.057663
20
6.760401
40
0.259435
50
-59.189935
51
25.977855
0
LINE
8
1
10
44.190544
20
6.537580
11
44.051598
21
6.438424
0
LINE
8
1
10
44.051598
20
6.438424
11
44.220398
21
6.477595
0
ARC
8
1
10
44.107101
20
6.893814
40
0.431363
50
-74.772759
51
23.224180
0
ARC
8
1
10
44.573708
20
6.949074
40
0.134594
50
99.056761
51
121.436539
0
ARC
8
1
10
44.883060
20
7.151114
40
0.337690
50
-168.188302
51
-121.913558
0
LINE
8
1
10
44.704544
20
6.864467
11
44.757896
21
6.834235
0
LINE
8
1
10
44.757896
20
6.834235
11
44.780006
21
6.893018
0
ARC
8
1
10
44.416100
20
7.015095
40
0.383837
50
-18.544722
51
31.857986
0
ARC
8
1
10
44.839882
20
7.379442
40
0.189002
50
-121.149906
51
-21.556735
0
ARC
8
1
10
43.683884
20
6.466150
40
1.576615
50
32.359351
51
74.579062
0
ARC
8
1
10
42.812199
20
12.117759
40
4.328726
50
-72.649168
51
-39.190002
0
ARC
8
1
10
41.826942
20
24.147991
40
15.390213
50
-95.471619
51
-73.619554
0
ARC
8
1
10
38.900963
20
8.636356
40
1.471005
50
7.481996
51
32.857349
0
ARC
8
1
10
43.589485
20
3.266195
40
7.068909
50
95.166073
51
119.239067
0
LINE
8
1
10
42.952980
20
10.306390
11
43.001984
21
10.341716
0
ARC
8
1
10
43.697422
20
9.419183
40
1.155293
50
127.010290
51
153.542142
0
ARC
8
1
10
43.052544
20
9.839092
40
0.400790
50
166.315180
51
-128.254999
0
ARC
8
1
10
42.996655
20
10.635726
40
1.127867
50
-99.814994
51
-65.961422
0
ARC
8
1
10
46.188774
20
6.802501
40
3.914760
50
124.299267
51
134.270416
0
ARC
8
1
10
44.351696
20
10.841713
40
0.885710
50
-114.617479
51
-76.783089
0
LINE
8
1
10
44.554203
20
9.979465
11
44.661484
21
10.007401
0
ARC
8
1
10
28.501814
20
-14.999825
40
29.774088
50
57.129454
51
57.650207
0
ARC
8
1
10
44.371948
20
10.909162
40
0.758427
50
-85.342436
51
-66.739898
0
LINE
8
1
10
44.671455
20
10.212379
11
44.617790
21
10.269189
0
ARC
8
1
10
44.283642
20
9.931955
40
0.474744
50
45.263283
51
91.513928
0
ARC
8
1
10
44.436230
20
10.038688
40
0.403210
50
83.520988
51
114.175925
0
ARC
8
1
10
44.184521
20
6.986615
40
3.465475
50
74.163352
51
85.080140
0
LINE
8
1
10
45.130234
20
10.320554
11
45.045486
21
10.426778
0
ARC
8
1
10
44.233223
20
9.749004
40
1.057898
50
39.842485
51
92.521380
0
ARC
8
1
10
43.292259
20
10.745014
40
0.896493
50
3.892904
51
109.037179
0
ARC
8
1
10
42.581024
20
11.476003
40
0.434709
50
-4.858716
51
15.541201
0
ARC
8
1
10
42.683846
20
13.189283
40
1.781001
50
-151.723812
51
-79.311339
0
ARC
8
1
10
41.389549
20
11.975496
40
0.460589
50
126.533470
51
166.389711
0
ARC
8
1
10
41.162136
20
12.669910
40
0.626049
50
-162.887083
51
-110.597200
0
LINE
8
1
10
40.563805
20
12.485692
11
40.541954
21
12.564309
0
LINE
8
1
10
40.541954
20
12.564309
11
40.487194
21
12.521270
0
ARC
8
1
10
40.672916
20
12.307514
40
0.283168
50
130.985861
51
-153.710577
0
ARC
8
1
10
40.733143
20
12.827583
40
0.717854
50
-173.357924
51
-115.948453
0
LINE
8
1
10
40.020107
20
12.744552
11
40.011444
21
12.840371
0
LINE
8
1
10
40.011444
20
12.840371
11
39.943748
21
12.783433
0
ARC
8
1
10
40.243328
20
12.451084
40
0.447441
50
132.031532
51
-143.129024
0
ARC
8
1
10
40.217941
20
13.320275
40
1.185274
50
123.864413
51
-106.294688
0
LINE
8
1
10
39.557472
20
14.304477
11
39.643738
21
14.359929
0
LINE
8
1
10
39.643738
20
14.359929
11
39.562576
21
14.399940
0
ARC
8
1
10
39.272160
20
13.767324
40
0.696092
50
65.341405
51
122.055995
0
LINE
8
1
10
38.902710
20
14.357284
11
38.953781
21
14.391253
0
ARC
8
1
10
30.008410
20
18.070339
40
9.672401
50
-22.356567
51
-17.446485
0
LINE
8
1
10
39.235855
20
15.170409
11
39.091244
21
15.023034
0
ARC
8
1
10
41.147842
20
13.061423
40
2.842097
50
136.354179
51
-155.843032
0
ARC
8
1
10
38.483597
20
12.539794
40
0.645386
50
164.198760
51
-83.680674
0
ARC
8
1
10
36.805534
20
13.485122
40
1.307536
50
-36.056241
51
59.835717
0
LINE
8
1
10
37.462547
20
14.615603
11
37.348976
21
14.678672
0
LINE
8
1
10
37.348976
20
14.678672
11
37.397343
21
14.533164
0
ARC
8
1
10
34.826675
20
13.715434
40
2.697594
50
-32.755925
51
17.645881
0
ARC
8
1
10
38.471504
20
12.838609
40
1.494492
50
-179.202480
51
-157.050194
0
ARC
8
1
10
37.975243
20
12.814087
40
0.998092
50
148.541919
51
179.786430
0
LINE
8
1
10
37.123848
20
13.334966
11
37.144482
21
13.378320
0
ARC
8
1
10
36.304440
20
13.774106
40
0.928611
50
-25.227493
51
17.551651
0
ARC
8
1
10
35.869949
20
13.557990
40
1.410044
50
20.601763
51
45.438756
0
LINE
8
1
10
36.859337
20
14.562648
11
36.724335
21
14.691350
0
LINE
8
1
10
36.724335
20
14.691350
11
36.785782
21
14.524407
0
ARC
8
1
10
35.784161
20
14.182763
40
1.058284
50
-42.681454
51
18.834062
0
LINE
8
1
10
36.562141
20
13.465329
11
36.562691
21
13.435290
0
ARC
8
1
10
35.869850
20
13.402313
40
0.693625
50
2.725048
51
69.981005
0
LINE
8
1
10
36.107300
20
14.054029
11
36.006653
21
14.087487
0
ARC
8
1
10
34.361927
20
13.295832
40
1.825333
50
12.621556
51
25.702898
0
ARC
8
1
10
35.580154
20
13.624897
40
0.567305
50
-7.545067
51
7.066334
0
ARC
8
1
10
33.991489
20
13.742893
40
2.159653
50
-15.096822
51
-5.113475
0
ARC
8
1
10
37.911880
20
12.790161
40
1.876306
50
167.995550
51
-179.937645
0
ARC
8
1
10
39.461521
20
12.677234
40
3.427739
50
178.146182
51
-172.187011
0
ARC
8
1
10
36.714687
20
12.351912
40
0.664149
50
-167.773972
51
-152.196523
0
LINE
8
1
10
36.127213
20
12.042127
11
36.149654
21
11.994176
0
LINE
8
1
10
36.149654
20
11.994176
11
36.073593
21
12.146029
0
LINE
8
1
10
36.073593
20
12.146029
11
36.185310
21
12.021850
0
ARC
8
1
10
37.177547
20
12.913334
40
1.333896
50
-166.535591
51
-138.061604
0
ARC
8
1
10
36.983711
20
12.840800
40
1.128785
50
-179.526372
51
-167.825327
0
LINE
8
1
10
35.854965
20
12.831470
11
35.850235
21
12.867742
0
ARC
8
1
10
35.503590
20
12.825170
40
0.349250
50
7.001518
51
56.025795
0
ARC
8
1
10
35.301140
20
12.600777
40
0.649860
50
52.276553
51
61.742847
0
LINE
8
1
10
35.608803
20
13.173194
11
35.510731
21
13.222404
0
LINE
8
1
10
35.510731
20
13.222404
11
35.550049
21
13.112119
0
LINE
8
1
10
35.550049
20
13.112119
11
35.563015
21
13.072301
0
ARC
8
1
10
35.063099
20
12.883295
40
0.534452
50
-9.226036
51
20.710360
0
ARC
8
1
10
34.701416
20
12.908750
40
0.896140
50
-24.969853
51
-7.124411
0
ARC
8
1
10
36.608116
20
12.120574
40
1.168564
50
159.466586
51
-178.635141
0
ARC
8
1
10
37.718136
20
12.082681
40
2.278274
50
179.747014
51
-170.575209
0
ARC
8
1
10
35.937962
20
11.806890
40
0.477364
50
-168.241157
51
-137.964577
0
ARC
8
1
10
38.187992
20
13.786735
40
3.474403
50
-138.560005
51
-128.816633
0
ARC
8
1
10
37.614754
20
13.215874
40
2.671767
50
-126.911775
51
-113.197237
0
LINE
8
1
10
36.562351
20
10.760108
11
36.500599
21
10.785981
0
LINE
8
1
10
36.500599
20
10.785981
11
36.576672
21
10.787755
0
ARC
8
1
10
36.560390
20
12.931799
40
2.144106
50
-136.981775
51
-89.564922
0
LINE
8
1
10
34.992756
20
11.469024
11
34.785759
21
11.697255
0
LINE
8
1
10
34.785759
20
11.697255
11
34.934952
21
11.419593
0
ARC
8
1
10
36.965347
20
12.551263
40
2.324475
50
-150.866260
51
-97.708529
0
ARC
8
1
10
36.527672
20
13.765603
40
3.520061
50
-131.404136
51
-87.950539
0
LINE
8
1
10
34.199623
20
11.125335
11
34.032227
21
11.276567
0
LINE
8
1
10
34.032227
20
11.276567
11
34.111958
21
11.090888
0
ARC
8
1
10
35.974480
20
11.925261
40
2.040874
50
-155.868550
51
-100.848238
0
ARC
8
1
10
35.236851
20
12.858102
40
2.958440
50
-107.218274
51
-83.137027
0
LINE
8
1
10
34.361115
20
10.032247
11
34.137062
21
10.104945
0
LINE
8
1
10
34.137062
20
10.104945
11
34.297630
21
9.966245
0
ARC
8
1
10
35.649273
20
11.580166
40
2.105155
50
-129.945829
51
-82.923534
0
ARC
8
1
10
34.927326
20
11.515548
40
2.249786
50
-97.142763
51
-64.140235
0
LINE
8
1
10
34.647583
20
9.283221
11
34.465927
21
9.309098
0
LINE
8
1
10
34.465927
20
9.309098
11
34.588245
21
9.209352
0
ARC
8
1
10
35.351078
20
10.187502
40
1.240440
50
-127.949688
51
-86.959819
0
ARC
8
1
10
34.574863
20
10.185465
40
1.496091
50
-85.437858
51
-55.750220
0
LINE
8
1
10
34.693863
20
8.694114
11
34.742004
21
8.622647
0
ARC
8
1
10
35.253300
20
8.990711
40
0.629995
50
-144.251179
51
-93.699832
0
ARC
8
1
10
36.192970
20
6.160982
40
2.409491
50
114.007694
51
124.591388
0
ARC
8
1
10
35.260151
20
7.594078
40
0.701643
50
128.324246
51
144.841237
0
ARC
8
1
10
44.227673
20
1.214947
40
11.706623
50
144.589543
51
149.288743
0
ARC
8
1
10
52.201893
20
-2.783744
40
20.614425
50
151.052957
51
152.854353
0
ARC
8
1
10
32.275532
20
7.443631
40
1.783344
50
-41.515991
51
-27.445874
0
LINE
8
1
10
33.610847
20
6.261579
11
33.584335
21
6.235393
0
ARC
8
1
10
33.346188
20
6.451641
40
0.321679
50
-80.024918
51
-42.240752
0
ARC
8
1
10
33.218678
20
6.819108
40
0.708391
50
-164.382922
51
-75.009523
0
ARC
8
1
10
34.592781
20
7.282765
40
2.157947
50
179.897293
51
-162.348081
0
ARC
8
1
10
36.625660
20
7.426347
40
4.193151
50
175.305647
51
-178.090580
0
LINE
8
1
10
32.446575
20
7.769515
11
32.452911
21
7.815261
0
ARC
8
1
10
36.285965
20
7.050237
40
3.908652
50
158.421944
51
168.712875
0
ARC
8
1
10
23.742674
20
11.936487
40
9.552832
50
-21.162902
51
-14.512590
0
LINE
8
1
10
32.990700
20
9.542617
11
33.020878
21
9.653493
0
ARC
8
1
10
29.630163
20
10.687765
40
3.544949
50
-16.963317
51
-6.970534
0
ARC
8
1
10
25.234873
20
11.098598
40
7.958602
50
-6.066196
51
0.597157
0
ARC
8
1
10
26.612490
20
10.908686
40
6.586208
50
2.374374
51
10.666647
0
ARC
8
1
10
30.080259
20
11.544761
40
3.060671
50
10.980795
51
23.388390
0
LINE
8
1
10
32.889450
20
12.759730
11
32.860680
21
12.818521
0
ARC
8
1
10
30.095465
20
11.298348
40
3.155525
50
28.799718
51
41.794247
0
ARC
8
1
10
28.028482
20
9.681331
40
5.776784
50
40.088050
51
49.739579
0
ARC
8
1
10
31.442755
20
13.655038
40
0.539172
50
53.719606
51
73.697926
0
ARC
8
1
10
31.082281
20
12.703519
40
1.555622
50
70.791118
51
78.026319
0
ARC
8
1
10
29.069981
20
14.192579
40
2.335263
50
0.802710
51
8.144910
0
ARC
8
1
10
30.903490
20
14.424056
40
0.488414
50
11.739840
51
46.588688
0
LINE
8
1
10
31.239143
20
14.778859
11
31.200363
21
14.818759
0
ARC
8
1
10
30.427811
20
14.083502
40
1.066509
50
43.583089
51
76.116608
0
ARC
8
1
10
30.095512
20
13.855164
40
1.393878
50
65.039670
51
91.168427
0
ARC
8
1
10
29.989931
20
11.630719
40
3.618855
50
88.778296
51
108.480917
0
ARC
8
1
10
30.760611
20
10.111655
40
5.309737
50
111.173201
51
123.383463
0
ARC
8
1
10
33.436405
20
5.091313
40
10.986784
50
120.628450
51
144.156974
0
LINE
8
1
10
24.530251
20
11.524806
11
24.281895
21
11.175797
0
LINE
8
1
10
24.281895
20
11.175797
11
24.596457
21
11.461539
0
ARC
8
1
10
31.393314
20
3.870907
40
10.188964
50
113.995930
51
131.842122
0
ARC
8
1
10
23.750284
20
13.548394
40
3.518878
50
-35.375271
51
-6.021105
0
LINE
8
1
10
26.619499
20
11.511212
11
26.160069
21
10.879924
0
ARC
8
1
10
-45.465591
20
73.922012
40
95.417714
50
-41.352964
51
-39.953769
0
LINE
8
1
10
27.678082
20
12.647685
11
27.885334
21
12.897014
0
ARC
8
1
10
30.677805
20
16.864141
40
4.851391
50
-125.141804
51
-105.014969
0
ARC
8
1
10
30.125172
20
13.904850
40
1.864567
50
-112.190512
51
-96.080394
0
ARC
8
1
10
33.701096
20
10.333038
40
4.146005
50
155.524077
51
168.767099
0
ARC
8
1
10
45.665115
20
9.764136
40
16.089594
50
175.092097
51
178.135104
0
ARC
8
1
10
34.398998
20
10.276257
40
4.814968
50
179.863396
51
-172.380727
0
LINE
8
1
10
29.626541
20
9.637841
11
29.659119
21
9.591371
0
ARC
8
1
10
27.780663
20
8.261809
40
2.301376
50
35.290656
51
62.514736
0
ARC
8
1
10
27.147409
20
5.617546
40
4.983154
50
70.109519
51
81.418233
0
ARC
8
1
10
27.502632
20
9.708776
40
0.921925
50
65.086068
51
119.938279
0
ARC
8
1
10
27.774464
20
9.172402
40
1.522727
50
118.729352
51
142.434765
0
LINE
8
1
10
26.567459
20
10.100755
11
25.509121
21
8.723739
0
ARC
8
1
10
25.088301
20
9.189849
40
0.627972
50
-165.700631
51
-47.923197
0
LINE
8
1
10
24.479784
20
9.034747
11
24.458654
21
9.128682
0
LINE
8
1
10
24.458654
20
9.128682
11
24.394560
21
9.054553
0
ARC
8
1
10
24.940311
20
8.608093
40
0.705104
50
140.714630
51
-59.299641
0
ARC
8
1
10
22.617393
20
12.051632
40
4.857884
50
-56.476501
51
-44.736505
0
ARC
8
1
10
2.330407
20
29.206659
40
31.413085
50
-40.916429
51
-39.539067
0
LINE
8
1
10
26.555885
20
9.208957
11
26.591469
21
9.256680
0
ARC
8
1
10
33.799824
20
4.510408
40
8.630613
50
143.683004
51
146.637472
0
ARC
8
1
10
26.949982
20
9.527072
40
0.140967
50
69.097071
51
137.720519
0
ARC
8
1
10
25.863491
20
6.636499
40
3.228985
50
59.252889
51
69.386842
0
ARC
8
1
10
26.336706
20
2.990729
40
6.527959
50
67.386498
51
79.607305
0
ARC
8
1
10
27.183016
20
6.201688
40
3.270029
50
36.916804
51
59.416399
0
ARC
8
1
10
28.474663
20
6.430778
40
2.181785
50
52.679096
51
76.463591
0
LINE
8
1
10
28.985338
20
8.551955
11
28.679346
21
8.613008
0
ARC
8
1
10
28.445463
20
6.927996
40
1.701166
50
82.097721
51
110.117284
0
ARC
8
1
10
28.472870
20
6.425426
40
2.187453
50
106.260852
51
-170.713395
0
LINE
8
1
10
26.314087
20
6.072431
11
26.345562
21
5.897094
0
LINE
8
1
10
26.345562
20
5.897094
11
26.407330
21
6.066255
0
ARC
8
1
10
28.353500
20
5.326505
40
2.082021
50
135.927445
51
159.187943
0
ARC
8
1
10
27.513638
20
6.080536
40
0.955076
50
105.931774
51
133.380518
0
ARC
8
1
10
29.030281
20
0.774044
40
6.474049
50
100.061672
51
105.947663
0
ARC
8
1
10
28.361454
20
0.938120
40
6.227583
50
81.541917
51
94.256689
0
ARC
8
1
10
28.851091
20
4.779782
40
2.357069
50
67.013082
51
79.578853
0
ARC
8
1
10
28.079006
20
2.644348
40
4.626091
50
64.930437
51
68.538574
0
ARC
8
1
10
30.481079
20
5.424149
40
1.478092
50
107.396093
51
178.772706
0
ARC
8
1
10
30.088697
20
4.443491
40
1.484189
50
82.953978
51
136.994566
0
ARC
8
1
10
32.015965
20
3.438657
40
3.030727
50
125.158310
51
159.775897
0
ARC
8
1
10
29.040485
20
6.607920
40
2.125640
50
-86.450415
51
-42.596636
0
ARC
8
1
10
30.640776
20
5.121181
40
0.059747
50
92.464543
51
126.487154
0
ARC
8
1
10
31.148870
20
4.585999
40
0.783998
50
44.143758
51
130.644131
0
ARC
8
1
10
32.213402
20
3.646563
40
1.567972
50
108.670129
51
154.161563
0
ARC
8
1
10
30.339291
20
6.950697
40
2.661323
50
-91.995385
51
-79.983372
0
ARC
8
1
10
30.586002
20
2.798429
40
1.530656
50
102.810053
51
157.103964
0
LINE
8
1
10
29.175943
20
3.393947
11
29.120644
21
3.255864
0
ARC
8
1
10
31.030293
20
0.399454
40
3.435963
50
104.840509
51
123.764646
0
ARC
8
1
10
30.178013
20
3.567685
40
0.155615
50
82.128129
51
100.280080
0
ARC
8
1
10
30.481304
20
1.386459
40
2.352336
50
89.474559
51
96.884698
0
LINE
8
1
10
30.502876
20
3.738696
11
30.591581
21
3.740737
0
LINE
8
1
10
30.591581
20
3.740737
11
30.642830
21
3.741700
0
ARC
8
1
10
29.830673
20
3.925409
40
0.832675
50
-105.565800
51
-12.745762
0
LINE
8
1
10
29.607229
20
3.123275
11
29.246319
21
3.234105
0
LINE
8
1
10
29.246319
20
3.234105
11
29.587498
21
3.058215
0
ARC
8
1
10
30.066437
20
4.043232
40
1.095281
50
-115.930141
51
-13.115227
0
ARC
8
1
10
30.774132
20
4.965165
40
1.224287
50
-72.947644
51
-63.099422
0
ARC
8
1
10
31.740473
20
3.298775
40
0.707271
50
84.940986
51
125.669923
0
ARC
8
1
10
27.400723
20
4.841363
40
4.481184
50
-33.367183
51
-10.778935
0
LINE
8
1
10
31.143242
20
2.376700
11
30.952223
21
2.093436
0
LINE
8
1
10
30.952223
20
2.093436
11
31.192509
21
2.310853
0
ARC
8
1
10
29.212641
20
4.442671
40
2.909386
50
-47.116436
51
-19.390304
0
ENDSEC
0
EOF
