  0
SECTION
  2
HEADER
  9
$ACADVER
  1
AC1018
  9
$ACADMAINTVER
 70
     0
  9
$DWGCODEPAGE
  3
ANSI_1256
  9
$INSBASE
 10
0.0
 20
0.0
 30
0.0
  9
$EXTMIN
 10
0.0
 20
0.0
 30
0.0
  9
$EXTMAX
 10
47.7144
 20
68.103
 30
0.0
  9
$LIMMIN
 10
0.0
 20
0.0
  9
$LIMMAX
 10
12.0
 20
9.0
  9
$ORTHOMODE
 70
     0
  9
$REGENMODE
 70
     1
  9
$FILLMODE
 70
     1
  9
$QTEXTMODE
 70
     0
  9
$MIRRTEXT
 70
     1
  9
$LTSCALE
 40
1.0
  9
$ATTMODE
 70
     1
  9
$TEXTSIZE
 40
0.2
  9
$TRACEWID
 40
0.05
  9
$TEXTSTYLE
  7
Standard
  9
$CLAYER
  8
0
  9
$CELTYPE
  6
ByBlock
  9
$CECOLOR
 62
   256
  9
$CELTSCALE
 40
1.0
  9
$DISPSILH
 70
     0
  9
$DIMSCALE
 40
1.0
  9
$DIMASZ
 40
0.18
  9
$DIMEXO
 40
0.0625
  9
$DIMDLI
 40
0.38
  9
$DIMRND
 40
0.0
  9
$DIMDLE
 40
0.0
  9
$DIMEXE
 40
0.18
  9
$DIMTP
 40
0.0
  9
$DIMTM
 40
0.0
  9
$DIMTXT
 40
0.18
  9
$DIMCEN
 40
0.09
  9
$DIMTSZ
 40
0.0
  9
$DIMTOL
 70
     0
  9
$DIMLIM
 70
     0
  9
$DIMTIH
 70
     1
  9
$DIMTOH
 70
     1
  9
$DIMSE1
 70
     0
  9
$DIMSE2
 70
     0
  9
$DIMTAD
 70
     0
  9
$DIMZIN
 70
     0
  9
$DIMBLK
  1

  9
$DIMASO
 70
     1
  9
$DIMSHO
 70
     1
  9
$DIMPOST
  1

  9
$DIMAPOST
  1

  9
$DIMALT
 70
     0
  9
$DIMALTD
 70
     2
  9
$DIMALTF
 40
25.4
  9
$DIMLFAC
 40
1.0
  9
$DIMTOFL
 70
     0
  9
$DIMTVP
 40
0.0
  9
$DIMTIX
 70
     0
  9
$DIMSOXD
 70
     0
  9
$DIMSAH
 70
     0
  9
$DIMBLK1
  1

  9
$DIMBLK2
  1

  9
$DIMSTYLE
  2
Standard
  9
$DIMCLRD
 70
     0
  9
$DIMCLRE
 70
     0
  9
$DIMCLRT
 70
     0
  9
$DIMTFAC
 40
1.0
  9
$DIMGAP
 40
0.09
  9
$DIMJUST
 70
     0
  9
$DIMSD1
 70
     0
  9
$DIMSD2
 70
     0
  9
$DIMTOLJ
 70
     1
  9
$DIMTZIN
 70
     0
  9
$DIMALTZ
 70
     0
  9
$DIMALTTZ
 70
     0
  9
$DIMUPT
 70
     0
  9
$DIMDEC
 70
     4
  9
$DIMTDEC
 70
     4
  9
$DIMALTU
 70
     2
  9
$DIMALTTD
 70
     2
  9
$DIMTXSTY
  7
Standard
  9
$DIMAUNIT
 70
     0
  9
$DIMADEC
 70
     0
  9
$DIMALTRND
 40
0.0
  9
$DIMAZIN
 70
     0
  9
$DIMDSEP
 70
    46
  9
$DIMATFIT
 70
     3
  9
$DIMFRAC
 70
     0
  9
$DIMLDRBLK
  1

  9
$DIMLUNIT
 70
     2
  9
$DIMLWD
 70
    -2
  9
$DIMLWE
 70
    -2
  9
$DIMTMOVE
 70
     2
  9
$LUNITS
 70
     2
  9
$LUPREC
 70
     4
  9
$SKETCHINC
 40
0.1
  9
$FILLETRAD
 40
0.5
  9
$AUNITS
 70
     0
  9
$AUPREC
 70
     0
  9
$MENU
  1
.
  9
$ELEVATION
 40
0.0
  9
$PELEVATION
 40
0.0
  9
$THICKNESS
 40
0.0
  9
$LIMCHECK
 70
     0
  9
$CHAMFERA
 40
0.0
  9
$CHAMFERB
 40
0.0
  9
$CHAMFERC
 40
0.0
  9
$CHAMFERD
 40
0.0
  9
$SKPOLY
 70
     0
  9
$TDCREATE
 40
2457945.717537882
  9
$TDUCREATE
 40
2457945.592537882
  9
$TDUPDATE
 40
2457945.717538461
  9
$TDUUPDATE
 40
2457945.592538461
  9
$TDINDWG
 40
0.0000000116
  9
$TDUSRTIMER
 40
0.0000000116
  9
$USRTIMER
 70
     1
  9
$ANGBASE
 50
0.0
  9
$ANGDIR
 70
     0
  9
$PDMODE
 70
     0
  9
$PDSIZE
 40
0.0
  9
$PLINEWID
 40
0.0
  9
$SPLFRAME
 70
     0
  9
$SPLINETYPE
 70
     6
  9
$SPLINESEGS
 70
     8
  9
$HANDSEED
  5
FC6
  9
$SURFTAB1
 70
     6
  9
$SURFTAB2
 70
     6
  9
$SURFTYPE
 70
     6
  9
$SURFU
 70
     6
  9
$SURFV
 70
     6
  9
$UCSBASE
  2

  9
$UCSNAME
  2

  9
$UCSORG
 10
0.0
 20
0.0
 30
0.0
  9
$UCSXDIR
 10
1.0
 20
0.0
 30
0.0
  9
$UCSYDIR
 10
0.0
 20
1.0
 30
0.0
  9
$UCSORTHOREF
  2

  9
$UCSORTHOVIEW
 70
     0
  9
$UCSORGTOP
 10
0.0
 20
0.0
 30
0.0
  9
$UCSORGBOTTOM
 10
0.0
 20
0.0
 30
0.0
  9
$UCSORGLEFT
 10
0.0
 20
0.0
 30
0.0
  9
$UCSORGRIGHT
 10
0.0
 20
0.0
 30
0.0
  9
$UCSORGFRONT
 10
0.0
 20
0.0
 30
0.0
  9
$UCSORGBACK
 10
0.0
 20
0.0
 30
0.0
  9
$PUCSBASE
  2

  9
$PUCSNAME
  2

  9
$PUCSORG
 10
0.0
 20
0.0
 30
0.0
  9
$PUCSXDIR
 10
1.0
 20
0.0
 30
0.0
  9
$PUCSYDIR
 10
0.0
 20
1.0
 30
0.0
  9
$PUCSORTHOREF
  2

  9
$PUCSORTHOVIEW
 70
     0
  9
$PUCSORGTOP
 10
0.0
 20
0.0
 30
0.0
  9
$PUCSORGBOTTOM
 10
0.0
 20
0.0
 30
0.0
  9
$PUCSORGLEFT
 10
0.0
 20
0.0
 30
0.0
  9
$PUCSORGRIGHT
 10
0.0
 20
0.0
 30
0.0
  9
$PUCSORGFRONT
 10
0.0
 20
0.0
 30
0.0
  9
$PUCSORGBACK
 10
0.0
 20
0.0
 30
0.0
  9
$USERI1
 70
     0
  9
$USERI2
 70
     0
  9
$USERI3
 70
     0
  9
$USERI4
 70
     0
  9
$USERI5
 70
     0
  9
$USERR1
 40
0.0
  9
$USERR2
 40
0.0
  9
$USERR3
 40
0.0
  9
$USERR4
 40
0.0
  9
$USERR5
 40
0.0
  9
$WORLDVIEW
 70
     1
  9
$SHADEDGE
 70
     3
  9
$SHADEDIF
 70
    70
  9
$TILEMODE
 70
     1
  9
$MAXACTVP
 70
    64
  9
$PINSBASE
 10
0.0
 20
0.0
 30
0.0
  9
$PLIMCHECK
 70
     0
  9
$PEXTMIN
 10
1.000000000000000E+20
 20
1.000000000000000E+20
 30
1.000000000000000E+20
  9
$PEXTMAX
 10
-1.000000000000000E+20
 20
-1.000000000000000E+20
 30
-1.000000000000000E+20
  9
$PLIMMIN
 10
0.0
 20
0.0
  9
$PLIMMAX
 10
12.0
 20
9.0
  9
$UNITMODE
 70
     0
  9
$VISRETAIN
 70
     1
  9
$PLINEGEN
 70
     0
  9
$PSLTSCALE
 70
     1
  9
$TREEDEPTH
 70
  3020
  9
$CMLSTYLE
  2
Standard
  9
$CMLJUST
 70
     0
  9
$CMLSCALE
 40
1.0
  9
$PROXYGRAPHICS
 70
     1
  9
$MEASUREMENT
 70
     0
  9
$CELWEIGHT
370
    -1
  9
$ENDCAPS
280
     0
  9
$JOINSTYLE
280
     0
  9
$LWDISPLAY
290
     0
  9
$INSUNITS
 70
     0
  9
$HYPERLINKBASE
  1

  9
$STYLESHEET
  1

  9
$XEDIT
290
     1
  9
$CEPSNTYPE
380
     0
  9
$PSTYLEMODE
290
     1
  9
$FINGERPRINTGUID
  2
{DD9F832A-35A4-4E28-AB02-A105D92CF360}
  9
$VERSIONGUID
  2
{FAEB1C32-E019-11D5-929B-00C0DF256EC4}
  9
$EXTNAMES
290
     1
  9
$PSVPSCALE
 40
0.0
  9
$OLESTARTUP
290
     0
  9
$SORTENTS
280
   127
  9
$INDEXCTL
280
     0
  9
$HIDETEXT
280
     1
  9
$XCLIPFRAME
290
     0
  9
$HALOGAP
280
     0
  9
$OBSCOLOR
 70
   257
  9
$OBSLTYPE
280
     0
  9
$INTERSECTIONDISPLAY
280
     0
  9
$INTERSECTIONCOLOR
 70
   257
  9
$DIMASSOC
280
     2
  9
$PROJECTNAME
  1

  0
ENDSEC
  0
SECTION
  2
CLASSES
  0
CLASS
  1
ACDBDICTIONARYWDFLT
  2
AcDbDictionaryWithDefault
  3
ObjectDBX Classes
 90
        0
 91
        4
280
     0
281
     0
  0
CLASS
  1
SCALE
  2
AcDbScale
  3
ObjectDBX Classes
 90
     1153
 91
        4
280
     0
281
     0
  0
CLASS
  1
VISUALSTYLE
  2
AcDbVisualStyle
  3
ObjectDBX Classes
 90
     4095
 91
        4
280
     0
281
     0
  0
CLASS
  1
MATERIAL
  2
AcDbMaterial
  3
ObjectDBX Classes
 90
     1153
 91
        4
280
     0
281
     0
  0
CLASS
  1
TABLESTYLE
  2
AcDbTableStyle
  3
ObjectDBX Classes
 90
     4095
 91
        4
280
     0
281
     0
  0
CLASS
  1
MLEADERSTYLE
  2
AcDbMLeaderStyle
  3
ACDB_MLEADERSTYLE_CLASS
 90
     4095
 91
        4
280
     0
281
     0
  0
CLASS
  1
DICTIONARYVAR
  2
AcDbDictionaryVar
  3
ObjectDBX Classes
 90
        0
 91
        4
280
     0
281
     0
  0
CLASS
  1
CELLSTYLEMAP
  2
AcDbCellStyleMap
  3
ObjectDBX Classes
 90
     1152
 91
        4
280
     0
281
     0
  0
ENDSEC
  0
SECTION
  2
TABLES
  0
TABLE
  2
VPORT
  5
8
102
{ACAD_XDICTIONARY
360
F7F
102
}
330
0
100
AcDbSymbolTable
 70
     1
  0
VPORT
  5
21
330
8
100
AcDbSymbolTableRecord
100
AcDbViewportTableRecord
  2
*Active
 70
     0
 10
0.0
 20
0.0
 11
1.0
 21
1.0
 12
10.42990654205607
 22
4.5
 13
0.0
 23
0.0
 14
0.5
 24
0.5
 15
0.5
 25
0.5
 16
0.0
 26
0.0
 36
1.0
 17
0.0
 27
0.0
 37
0.0
 40
9.0
 41
1.972972972850329
 42
50.0
 43
0.0
 44
0.0
 50
0.0
 51
0.0
 71
     0
 72
   100
 73
     1
 74
     3
 75
     0
 76
     0
 77
     0
 78
     0
281
     0
 65
     1
110
0.0
120
0.0
130
0.0
111
1.0
121
0.0
131
0.0
112
0.0
122
1.0
132
0.0
 79
     0
146
0.0
  0
ENDTAB
  0
TABLE
  2
LTYPE
  5
5
330
0
100
AcDbSymbolTable
 70
     1
  0
LTYPE
  5
14
330
5
100
AcDbSymbolTableRecord
100
AcDbLinetypeTableRecord
  2
ByBlock
 70
     0
  3

 72
    65
 73
     0
 40
0.0
  0
LTYPE
  5
15
330
5
100
AcDbSymbolTableRecord
100
AcDbLinetypeTableRecord
  2
ByLayer
 70
     0
  3

 72
    65
 73
     0
 40
0.0
  0
LTYPE
  5
16
330
5
100
AcDbSymbolTableRecord
100
AcDbLinetypeTableRecord
  2
Continuous
 70
     0
  3
Solid line
 72
    65
 73
     0
 40
0.0
  0
ENDTAB
  0
TABLE
  2
LAYER
  5
2
330
0
100
AcDbSymbolTable
 70
     1
  0
LAYER
  5
10
330
2
100
AcDbSymbolTableRecord
100
AcDbLayerTableRecord
  2
0
 70
     0
 62
     7
  6
Continuous
370
    -3
390
F
  0
ENDTAB
  0
TABLE
  2
STYLE
  5
3
330
0
100
AcDbSymbolTable
 70
     1
  0
STYLE
  5
11
330
3
100
AcDbSymbolTableRecord
100
AcDbTextStyleTableRecord
  2
Standard
 70
     0
 40
0.0
 41
1.0
 50
0.0
 71
     0
 42
0.2
  3
txt
  4

  0
ENDTAB
  0
TABLE
  2
VIEW
  5
6
330
0
100
AcDbSymbolTable
 70
     0
  0
ENDTAB
  0
TABLE
  2
UCS
  5
7
330
0
100
AcDbSymbolTable
 70
     0
  0
ENDTAB
  0
TABLE
  2
APPID
  5
9
330
0
100
AcDbSymbolTable
 70
     2
  0
APPID
  5
12
330
9
100
AcDbSymbolTableRecord
100
AcDbRegAppTableRecord
  2
ACAD
 70
     0
  0
APPID
  5
FBD
330
9
100
AcDbSymbolTableRecord
100
AcDbRegAppTableRecord
  2
ACAD_MLEADERVER
 70
     0
  0
ENDTAB
  0
TABLE
  2
DIMSTYLE
  5
A
330
0
100
AcDbSymbolTable
 70
     1
100
AcDbDimStyleTable
  0
DIMSTYLE
105
20
330
A
100
AcDbSymbolTableRecord
100
AcDbDimStyleTableRecord
  2
Standard
 70
     0
178
     0
340
11
  0
ENDTAB
  0
TABLE
  2
BLOCK_RECORD
  5
1
330
0
100
AcDbSymbolTable
 70
     0
  0
BLOCK_RECORD
  5
1D
330
1
100
AcDbSymbolTableRecord
100
AcDbBlockTableRecord
  2
*Model_Space
340
1E
  0
BLOCK_RECORD
  5
1B
330
1
100
AcDbSymbolTableRecord
100
AcDbBlockTableRecord
  2
*Paper_Space
340
1C
  0
ENDTAB
  0
ENDSEC
  0
SECTION
  2
BLOCKS
  0
BLOCK
  5
F5A
330
1D
100
AcDbEntity
  8
0
100
AcDbBlockBegin
  2
*Model_Space
 70
     0
 10
0.0
 20
0.0
 30
0.0
  3
*Model_Space
  1

  0
ENDBLK
  5
F5B
330
1D
100
AcDbEntity
  8
0
100
AcDbBlockEnd
  0
BLOCK
  5
F5C
330
1B
100
AcDbEntity
 67
     1
  8
0
100
AcDbBlockBegin
  2
*Paper_Space
 70
     0
 10
0.0
 20
0.0
 30
0.0
  3
*Paper_Space
  1

  0
ENDBLK
  5
F5D
330
1B
100
AcDbEntity
 67
     1
  8
0
100
AcDbBlockEnd
  0
ENDSEC
  0
SECTION
  2
ENTITIES
  0
LWPOLYLINE
  5
22
330
1D
100
AcDbEntity
  8
0
100
AcDbPolyline
 90
       30
 70
     1
 43
0.0
 10
47.1222
 20
68.043313
 42
0.01144
 10
46.815193
 20
68.050302
 42
0.000012
 10
40.000598
 20
68.049335
 42
0.000116
 10
32.384398
 20
68.046314
 42
0.000071
 10
23.41305
 20
68.039399
 42
0.000091
 10
7.889157
 20
68.022401
 42
0.001721
 10
3.027083
 20
67.999461
 42
0.000919
 10
0.205333
 20
67.97125
 42
0.410568
 10
0.084494
 20
67.849049
 42
0.000156
 10
0.084451
 20
67.71057
 10
0.08442
 20
57.851286
 10
0.084396
 20
46.957908
 10
0.084388
 20
34.0515
 10
0.084396
 20
21.145082
 10
0.08442
 20
10.251669
 10
0.084451
 20
0.392402
 42
0.000155
 10
0.084494
 20
0.2538
 42
0.410905
 10
0.20561
 20
0.13146
 42
0.000891
 10
3.077325
 20
0.105901
 42
0.00169
 10
8.024872
 20
0.087414
 42
0.000089
 10
23.8572
 20
0.0846
 10
47.6298
 20
0.0846
 10
47.6298
 20
34.0515
 42
0.000175
 10
47.625241
 20
47.076395
 42
0.000292
 10
47.611162
 20
58.041729
 42
0.000003
 10
47.592503
 20
67.994465
 42
0.396422
 10
47.56635
 20
68.022163
 42
0.002717
 10
47.524629
 20
68.024411
 42
0.000198
 10
47.409708
 20
68.029929
 42
0.000277
 10
47.272639
 20
68.03638
 42
0.000209
  0
LWPOLYLINE
  5
42
330
1D
100
AcDbEntity
  8
0
100
AcDbPolyline
 90
       40
 70
     1
 43
0.0
 10
12.229724
 20
54.495421
 42
0.020382
 10
12.371875
 20
54.238055
 42
0.014626
 10
12.550471
 20
53.962243
 42
0.014809
 10
12.736267
 20
53.709284
 42
0.03058
 10
12.898774
 20
53.525584
 42
0.023938
 10
13.073353
 20
53.366966
 42
0.014162
 10
13.295526
 20
53.194058
 42
0.014154
 10
13.527586
 20
53.033685
 42
0.023526
 10
13.732757
 20
52.913646
 42
-0.004906
 10
14.035581
 20
52.751292
 42
-0.104652
 10
14.112295
 20
52.685289
 42
-0.361471
 10
14.109797
 20
52.625794
 42
-0.057861
 10
14.015457
 20
52.543129
 42
0.00852
 10
13.938309
 20
52.487939
 42
0.007081
 10
13.85812
 20
52.426702
 42
0.007159
 10
13.78626
 20
52.368513
 42
0.019157
 10
13.73732
 20
52.324426
 42
0.043373
 10
13.691986
 20
52.271949
 42
0.012248
 10
13.6308
 20
52.182767
 42
0.012247
 10
13.566338
 20
52.078175
 42
0.012648
 10
13.507793
 20
51.971654
 42
0.103216
 10
13.429158
 20
51.689222
 42
0.008625
 10
13.392084
 20
50.926856
 42
0.005818
 10
13.366754
 20
49.64169
 42
0.000756
 10
13.348773
 20
46.89979
 42
-0.001063
 10
13.332127
 20
44.578669
 42
-0.003955
 10
13.306975
 20
43.117
 42
-0.002688
 10
13.275648
 20
42.089936
 42
-0.096319
 10
13.222149
 20
41.859283
 10
13.119799
 20
41.630067
 10
12.684898
 20
41.922733
 42
0.015635
 10
12.50661
 20
42.034777
 42
0.018271
 10
12.330544
 20
42.129429
 42
0.017482
 10
12.177396
 20
42.198146
 42
0.097005
 10
12.089299
 20
42.2154
 42
-0.396724
 10
11.982979
 20
42.315517
 42
-0.008784
 10
11.950278
 20
43.084264
 42
-0.005869
 10
11.931658
 20
44.494033
 42
-0.000367
 10
11.9286
 20
48.656367
 10
11.9286
 20
55.097333
  0
LWPOLYLINE
  5
6C
330
1D
100
AcDbEntity
  8
0
100
AcDbPolyline
 90
      182
 70
     1
 43
0.0
 10
22.886402
 20
54.983534
 10
23.142304
 20
54.99
 10
23.28809
 20
54.135661
 42
0.013982
 10
23.373872
 20
53.705814
 42
0.018477
 10
23.47725
 20
53.320139
 42
0.019242
 10
23.604919
 20
52.956119
 42
0.017588
 10
23.763722
 20
52.591711
 42
0.014958
 10
23.91758
 20
52.29331
 42
0.01049
 10
24.107734
 20
51.966487
 42
0.010595
 10
24.303212
 20
51.660922
 42
0.021673
 10
24.471639
 20
51.43168
 42
0.024121
 10
24.661737
 20
51.217206
 42
0.011344
 10
24.926517
 20
50.958056
 42
0.011212
 10
25.216731
 20
50.698575
 42
0.015488
 10
25.489249
 20
50.47993
 42
0.006013
 10
25.740533
 20
50.2955
 42
0.008831
 10
25.96616
 20
50.139991
 42
0.004901
 10
26.158843
 20
50.01485
 42
0.142503
 10
26.214701
 20
49.9986
 42
-0.079998
 10
26.251212
 20
49.992721
 42
-0.053418
 10
26.289848
 20
49.975186
 42
-0.052522
 10
26.324666
 20
49.949385
 42
-0.068745
 10
26.349876
 20
49.918893
 42
-0.281093
 10
26.350147
 20
49.869984
 42
-0.025102
 10
26.278471
 20
49.763559
 42
-0.026904
 10
26.17259
 20
49.637005
 42
-0.017442
 10
26.037619
 20
49.502027
 10
25.6761
 20
49.164868
 10
25.62377
 20
47.143551
 42
-0.003377
 10
25.595392
 20
46.274384
 42
-0.007243
 10
25.559266
 20
45.604523
 42
-0.005315
 10
25.518645
 20
45.09135
 42
-0.100783
 10
25.472744
 20
44.937816
 42
-0.01681
 10
25.431824
 20
44.867172
 42
-0.023918
 10
25.390482
 20
44.807572
 42
-0.021483
 10
25.353194
 20
44.763055
 42
-0.210685
 10
25.331298
 20
44.7534
 42
-0.132775
 10
25.304629
 20
44.760609
 42
-0.00777
 10
25.231971
 20
44.804514
 42
-0.011321
 10
25.146465
 20
44.860747
 42
-0.008066
 10
25.053193
 20
44.927406
 42
0.027528
 10
24.939287
 20
45.002294
 42
0.014189
 10
24.789369
 20
45.08384
 42
0.01406
 10
24.629968
 20
45.159212
 42
0.02064
 10
24.485569
 20
45.215601
 10
24.1533
 20
45.329789
 10
24.13073
 20
47.545292
 10
24.108159
 20
49.760795
 10
23.790673
 20
50.070047
 42
-0.015279
 10
23.64686
 20
50.218959
 42
-0.007848
 10
23.475454
 20
50.413711
 42
-0.007792
 10
23.305135
 20
50.619885
 42
-0.011649
 10
23.163421
 20
50.805695
 42
-0.019963
 10
23.017892
 20
51.023822
 42
-0.007503
 10
22.831107
 20
51.340122
 42
-0.007418
 10
22.637814
 20
51.690945
 42
-0.008948
 10
22.467128
 20
52.026255
 42
-0.00684
 10
22.319081
 20
52.341315
 42
-0.009183
 10
22.194143
 20
52.63096
 42
-0.006749
 10
22.09785
 20
52.875323
 42
-0.090716
 10
22.0806
 20
52.969617
 42
0.052638
 10
22.074155
 20
53.030672
 42
0.048624
 10
22.055068
 20
53.090767
 42
0.051993
 10
22.026989
 20
53.141132
 42
0.101531
 10
21.993683
 20
53.172532
 42
0.185694
 10
21.938134
 20
53.183006
 42
0.023787
 10
21.817764
 20
53.155026
 42
0.025211
 10
21.672537
 20
53.105869
 42
0.018516
 10
21.516864
 20
53.037502
 42
0.041461
 10
21.326293
 20
52.92489
 42
0.013359
 10
21.063507
 20
52.727882
 42
0.013221
 10
20.781631
 20
52.492162
 42
0.014446
 10
20.521042
 20
52.248527
 42
0.01556
 10
20.24635
 20
51.958936
 42
0.017961
 10
20.00359
 20
51.665975
 42
0.019358
 10
19.801328
 20
51.381055
 42
0.028852
 10
19.649244
 20
51.116009
 42
0.02079
 10
19.537003
 20
50.865794
 42
0.011359
 10
19.419324
 20
50.550651
 42
0.011303
 10
19.314108
 20
50.2245
 42
0.017636
 10
19.239898
 20
49.938858
 42
0.016557
 10
19.176533
 20
49.601757
 42
0.020612
 10
19.141071
 20
49.284954
 42
0.020346
 10
19.131546
 20
48.962927
 42
0.015445
 10
19.146381
 20
48.609949
 42
0.013847
 10
19.175835
 20
48.318115
 42
0.011201
 10
19.223097
 20
48.006831
 42
0.011362
 10
19.279694
 20
47.721487
 42
0.028495
 10
19.337398
 20
47.517362
 42
-0.014373
 10
19.400309
 20
47.316642
 42
-0.045901
 10
19.425864
 20
47.178753
 42
-0.074809
 10
19.420241
 20
47.081633
 42
-0.145573
 10
19.383595
 20
47.013955
 42
-0.166648
 10
19.297308
 20
46.971726
 42
-0.011178
 10
19.020015
 20
46.943197
 42
-0.013309
 10
18.650376
 20
46.923384
 42
-0.006108
 10
18.167813
 20
46.916282
 42
-0.007298
 10
17.623998
 20
46.922859
 42
-0.014537
 10
17.194139
 20
46.946854
 42
-0.018187
 10
16.845438
 20
46.989326
 42
-0.029966
 10
16.555559
 20
47.053385
 10
16.064218
 20
47.193292
 10
15.968205
 20
46.967396
 42
-0.03013
 10
15.90859
 20
46.847717
 42
-0.007121
 10
15.794436
 20
46.655812
 42
-0.007304
 10
15.656614
 20
46.438634
 42
-0.00714
 10
15.511478
 20
46.223901
 42
-0.017255
 10
15.341229
 20
45.996734
 42
-0.010664
 10
15.126472
 20
45.741238
 42
-0.010692
 10
14.903246
 20
45.497593
 42
-0.018855
 10
14.707352
 20
45.307635
 42
-0.013297
 10
14.514255
 20
45.143095
 42
-0.01107
 10
14.300691
 20
44.978376
 42
-0.011223
 10
14.098373
 20
44.836248
 42
-0.029562
 10
13.945639
 20
44.746584
 42
-0.010265
 10
13.817321
 20
44.684407
 42
-0.012611
 10
13.695
 20
44.6319
 42
-0.011085
 10
13.590858
 20
44.59293
 42
-0.084175
 10
13.53937
 20
44.5842
 42
-0.357907
 10
13.501467
 20
44.615318
 42
-0.019018
 10
13.475099
 20
44.780861
 42
-0.020725
 10
13.457021
 20
45.010734
 42
-0.00926
 10
13.4514
 20
45.314214
 10
13.4514
 20
46.044228
 10
13.92023
 20
46.494698
 42
0.021921
 10
14.142902
 20
46.728261
 42
0.024307
 10
14.336273
 20
46.972793
 42
0.024667
 10
14.50253
 20
47.231515
 42
0.02404
 10
14.644052
 20
47.507541
 42
0.020275
 10
14.768447
 20
47.814387
 42
0.027255
 10
14.854224
 20
48.101714
 42
0.025769
 10
14.911434
 20
48.408975
 42
0.015528
 10
14.948998
 20
48.777764
 10
14.998952
 20
49.485614
 10
15.313955
 20
49.236127
 42
0.023822
 10
15.47213
 20
49.122674
 42
0.01017
 10
15.693586
 20
48.985601
 42
0.010036
 10
15.936065
 20
48.848745
 42
0.013003
 10
16.163971
 20
48.733618
 42
0.014191
 10
16.401625
 20
48.629372
 42
0.01004
 10
16.673843
 20
48.525378
 42
0.010144
 10
16.938165
 20
48.436448
 42
0.021027
 10
17.148412
 20
48.38002
 42
0.008903
 10
17.323306
 20
48.344138
 42
0.013506
 10
17.476618
 20
48.319783
 42
0.008122
 10
17.603821
 20
48.305181
 42
0.224524
 10
17.634594
 20
48.316194
 42
0.174141
 10
17.649833
 20
48.348515
 42
0.003645
 10
17.665746
 20
48.52794
 42
0.008033
 10
17.679597
 20
48.740371
 42
0.005269
 10
17.689036
 20
48.985423
 42
-0.01206
 10
17.703632
 20
49.265427
 42
-0.008089
 10
17.733204
 20
49.584635
 42
-0.008149
 10
17.771909
 20
49.893028
 42
-0.015903
 10
17.814554
 20
50.137136
 42
-0.018385
 10
17.874867
 20
50.38198
 42
-0.008632
 10
17.969862
 20
50.693983
 42
-0.00854
 10
18.080771
 20
51.017893
 42
-0.011877
 10
18.191843
 20
51.303648
 42
-0.017065
 10
18.321688
 20
51.587812
 42
-0.011084
 10
18.490021
 20
51.907318
 42
-0.011148
 10
18.668429
 20
52.212256
 42
-0.020734
 10
18.828523
 20
52.449754
 42
-0.003308
 10
18.983386
 20
52.657231
 42
-0.00306
 10
19.145028
 20
52.868132
 42
-0.003053
 10
19.291239
 20
53.054144
 42
-0.010215
 10
19.39032
 20
53.173535
 42
-0.027963
 10
19.498436
 20
53.285246
 42
-0.00818
 10
19.676684
 20
53.444599
 42
-0.00819
 10
19.883548
 20
53.61769
 42
-0.008695
 10
20.091938
 20
53.780418
 42
-0.012797
 10
20.322999
 20
53.945372
 42
-0.008183
 10
20.599306
 20
54.125624
 42
-0.008222
 10
20.876038
 20
54.293476
 42
-0.015174
 10
21.107138
 20
54.419257
 42
-0.013352
 10
21.338547
 20
54.528591
 42
-0.00832
 10
21.615135
 20
54.644892
 42
-0.008347
 10
21.891875
 20
54.750548
 42
-0.014967
 10
22.1229
 20
54.826616
 42
-0.01106
 10
22.336009
 20
54.884685
 42
-0.010302
 10
22.556564
 20
54.934772
 42
-0.010339
 10
22.754355
 20
54.971177
 42
-0.034034
  0
LWPOLYLINE
  5
124
330
1D
100
AcDbEntity
  8
0
100
AcDbPolyline
 90
      174
 70
     1
 43
0.0
 10
24.731596
 20
54.99
 42
-0.038536
 10
24.882399
 20
54.97836
 42
-0.011691
 10
25.108313
 20
54.937846
 42
-0.011634
 10
25.360264
 20
54.880419
 42
-0.012428
 10
25.603739
 20
54.812453
 42
-0.015235
 10
25.868483
 20
54.722497
 42
-0.008351
 10
26.187295
 20
54.597109
 42
-0.008316
 10
26.507027
 20
54.458885
 42
-0.013136
 10
26.7759
 20
54.32869
 42
-0.026344
 10
27.090929
 20
54.144153
 42
-0.021319
 10
27.408687
 20
53.914798
 42
-0.018343
 10
27.748844
 20
53.625653
 42
-0.010936
 10
28.132889
 20
53.258387
 42
-0.010727
 10
28.524503
 20
52.849975
 42
-0.021671
 10
28.811477
 20
52.509003
 42
-0.024814
 10
29.042042
 20
52.17676
 42
-0.020091
 10
29.256506
 20
51.799456
 42
-0.015395
 10
29.405764
 20
51.487211
 42
-0.010373
 10
29.557567
 20
51.122454
 42
-0.010455
 10
29.689833
 20
50.763146
 42
-0.020357
 10
29.77751
 20
50.470507
 42
-0.020203
 10
29.841217
 20
50.171597
 42
-0.01082
 10
29.896864
 20
49.798221
 42
-0.010728
 10
29.937501
 20
49.412087
 42
-0.015793
 10
29.955164
 20
49.0715
 42
0.005565
 10
29.968429
 20
48.64865
 42
0.039627
 10
29.993289
 20
48.445386
 42
0.107091
 10
30.037949
 20
48.343824
 42
0.240255
 10
30.110946
 20
48.3066
 42
0.043792
 10
30.193505
 20
48.313845
 42
0.006482
 10
30.358041
 20
48.34515
 42
0.007264
 10
30.551906
 20
48.387589
 42
0.006192
 10
30.755098
 20
48.437835
 42
0.021883
 10
30.984778
 20
48.508523
 42
0.011861
 10
31.260801
 20
48.614328
 42
0.011796
 10
31.537135
 20
48.735535
 42
0.018241
 10
31.769111
 20
48.854372
 42
0.011578
 10
31.976082
 20
48.976492
 42
0.011755
 10
32.176115
 20
49.107467
 42
0.011604
 10
32.344551
 20
49.22936
 42
0.04643
 10
32.438251
 20
49.315337
 42
-0.020617
 10
32.504357
 20
49.382591
 42
-0.02538
 10
32.571525
 20
49.439399
 42
-0.025146
 10
32.631422
 20
49.480464
 42
-0.138556
 10
32.668712
 20
49.491
 42
-0.360656
 10
32.696987
 20
49.467556
 42
-0.01471
 10
32.7192
 20
49.327079
 42
-0.019829
 10
32.735053
 20
49.146915
 42
-0.012028
 10
32.7402
 20
48.932971
 42
0.019475
 10
32.749821
 20
48.686051
 42
0.013036
 10
32.779163
 20
48.404836
 42
0.013138
 10
32.821934
 20
48.133428
 42
0.025087
 10
32.872838
 20
47.918681
 42
0.025534
 10
32.94358
 20
47.714794
 42
0.014935
 10
33.047818
 20
47.478137
 42
0.014913
 10
33.166589
 20
47.246951
 42
0.024425
 10
33.282257
 20
47.059661
 42
0.02445
 10
33.419
 20
46.880148
 42
0.013189
 10
33.60365
 20
46.67225
 42
0.013108
 10
33.803378
 20
46.469883
 42
0.020082
 10
33.987694
 20
46.306393
 42
0.024511
 10
34.187687
 20
46.158599
 42
0.015189
 10
34.435655
 20
46.004159
 42
0.015228
 10
34.690381
 20
45.866256
 42
0.026403
 10
34.910725
 20
45.769712
 42
0.023103
 10
35.204891
 20
45.674196
 42
0.03775
 10
35.462144
 20
45.624107
 42
0.030136
 10
35.761797
 20
45.607134
 42
0.009595
 10
36.2088
 20
45.617356
 42
0.011273
 10
36.606942
 20
45.64311
 42
0.022274
 10
36.920892
 20
45.684693
 42
0.027322
 10
37.181676
 20
45.745989
 42
0.034368
 10
37.41435
 20
45.83203
 10
37.8162
 20
46.012886
 10
37.8162
 20
44.193905
 42
-0.004375
 10
37.809624
 20
43.442253
 42
-0.006399
 10
37.789579
 20
42.780838
 42
-0.005736
 10
37.760303
 20
42.244848
 42
-0.04519
 10
37.721557
 20
41.999063
 42
-0.008722
 10
37.682592
 20
41.85498
 42
-0.013962
 10
37.643782
 20
41.73361
 42
-0.007733
 10
37.607657
 20
41.63552
 42
-0.31001
 10
37.589696
 20
41.6232
 42
-0.152888
 10
37.565292
 20
41.630841
 42
-0.004019
 10
37.471324
 20
41.697203
 42
-0.008098
 10
37.361819
 20
41.778585
 42
-0.005407
 10
37.238992
 20
41.875124
 42
0.02739
 10
37.098908
 20
41.975593
 42
0.021538
 10
36.937178
 20
42.069129
 42
0.022008
 10
36.778877
 20
42.143126
 42
0.049004
 10
36.651753
 20
42.181799
 10
36.378
 20
42.23655
 10
36.378
 20
43.18695
 10
36.378
 20
44.13735
 10
35.68005
 20
44.182746
 42
-0.017111
 10
35.363196
 20
44.214271
 42
-0.014993
 10
35.03485
 20
44.268395
 42
-0.015496
 10
34.727174
 20
44.338603
 42
-0.025995
 10
34.4745
 20
44.418793
 42
-0.016372
 10
34.246756
 20
44.51295
 42
-0.009626
 10
33.980608
 20
44.639558
 42
-0.009623
 10
33.719186
 20
44.776495
 42
-0.016182
 10
33.505964
 20
44.902609
 42
-0.019822
 10
33.298654
 20
45.046309
 42
-0.01074
 10
33.05489
 20
45.23834
 42
-0.010684
 10
32.814793
 20
45.444747
 42
-0.016581
 10
32.617664
 20
45.633846
 42
-0.024203
 10
32.433481
 20
45.841895
 42
-0.014205
 10
32.2328
 20
46.107072
 42
-0.014189
 10
32.046775
 20
46.384279
 42
-0.023396
 10
31.907615
 20
46.629662
 10
31.62493
 20
47.187404
 10
31.188515
 20
47.067059
 42
-0.02342
 10
30.968768
 20
47.017402
 42
-0.008769
 10
30.656636
 20
46.967712
 42
-0.008665
 10
30.3142
 20
46.925377
 42
-0.010398
 10
29.9907
 20
46.897852
 42
-0.013564
 10
29.657674
 20
46.885538
 42
-0.011395
 10
29.304492
 20
46.890114
 42
-0.011696
 10
28.977178
 20
46.909493
 42
-0.025801
 10
28.729076
 20
46.942969
 42
-0.003882
 10
28.535449
 20
46.980905
 42
-0.005914
 10
28.368003
 20
47.017131
 42
-0.002422
 10
28.225656
 20
47.050421
 42
-0.138582
 10
28.202334
 20
47.063466
 42
-0.274371
 10
28.196474
 20
47.086428
 42
-0.00456
 10
28.236249
 20
47.217396
 42
-0.010333
 10
28.288245
 20
47.3719
 42
-0.006505
 10
28.35503
 20
47.550243
 42
0.028253
 10
28.442662
 20
47.819337
 42
0.030032
 10
28.497285
 20
48.091189
 42
0.023911
 10
28.526721
 20
48.415807
 42
0.009908
 10
28.536772
 20
48.8565
 42
0.011538
 10
28.528681
 20
49.259261
 42
0.01615
 10
28.501547
 20
49.618163
 42
0.018143
 10
28.45559
 20
49.935015
 42
0.026285
 10
28.390346
 20
50.2101
 42
0.016769
 10
28.314229
 20
50.440581
 42
0.0094
 10
28.207157
 20
50.715573
 42
0.009371
 10
28.088414
 20
50.989642
 42
0.015063
 10
27.975894
 20
51.21806
 42
0.028941
 10
27.837202
 20
51.446472
 42
0.013985
 10
27.635169
 20
51.722674
 42
0.013817
 10
27.407941
 20
51.999603
 42
0.019289
 10
27.188804
 20
52.23326
 42
0.01577
 10
26.955168
 20
52.449759
 42
0.011677
 10
26.684075
 20
52.674623
 42
0.011828
 10
26.41785
 20
52.875103
 42
0.025887
 10
26.20303
 20
53.012805
 10
25.738849
 20
53.277511
 10
25.424681
 20
52.483742
 42
-0.008613
 10
25.292509
 20
52.165909
 42
-0.009893
 10
25.155168
 20
51.867319
 42
-0.009102
 10
25.029444
 20
51.619261
 42
-0.054827
 10
24.948361
 20
51.499936
 10
24.786208
 20
51.3099
 10
24.526862
 20
51.606
 42
-0.017722
 10
24.415387
 20
51.742762
 42
-0.011163
 10
24.294616
 20
51.909761
 42
-0.011206
 10
24.183053
 20
52.07953
 42
-0.020135
 10
24.100424
 20
52.224279
 10
23.933332
 20
52.546459
 10
24.11532
 20
53.027979
 42
0.019487
 10
24.192951
 20
53.260383
 42
0.009095
 10
24.276197
 20
53.566863
 42
0.008995
 10
24.351992
 20
53.891977
 42
0.01244
 10
24.407429
 20
54.1863
 42
0.006626
 10
24.446791
 20
54.450236
 42
0.009775
 10
24.473726
 20
54.682928
 42
0.00551
 10
24.490292
 20
54.878109
 42
0.157676
 10
24.478482
 20
54.92655
 42
-0.427333
 10
24.484838
 20
54.950852
 42
-0.06552
 10
24.536719
 20
54.971362
 42
-0.040877
 10
24.622214
 20
54.985502
 42
-0.020553
  0
LWPOLYLINE
  5
1D4
330
1D
100
AcDbEntity
  8
0
100
AcDbPolyline
 90
       34
 70
     1
 43
0.0
 10
35.746108
 20
54.99
 42
-0.411616
 10
35.762425
 20
54.973827
 42
-0.000073
 10
35.77414
 20
53.632229
 42
-0.001342
 10
35.782948
 20
52.140186
 42
-0.000805
 10
35.7858
 20
50.367801
 10
35.7858
 20
45.745602
 10
35.404829
 20
45.797819
 42
-0.025969
 10
35.234415
 20
45.830265
 42
-0.015705
 10
35.036443
 20
45.88537
 42
-0.015717
 10
34.842777
 20
45.952641
 42
-0.026506
 10
34.685729
 20
46.022538
 10
34.3476
 20
46.195039
 10
34.347128
 20
48.837069
 42
0.002765
 10
34.340974
 20
49.914912
 42
0.00457
 10
34.322424
 20
50.824977
 42
0.003088
 10
34.296111
 20
51.561766
 42
0.057322
 10
34.259882
 20
51.791532
 42
0.052101
 10
34.200488
 20
51.942412
 42
0.036674
 10
34.104709
 20
52.09778
 42
0.033885
 10
33.977907
 20
52.250326
 42
0.029107
 10
33.825383
 20
52.392803
 10
33.477659
 20
52.681642
 10
33.955987
 20
52.915666
 42
0.030339
 10
34.173904
 20
53.039189
 42
0.019244
 10
34.412399
 20
53.207593
 42
0.019004
 10
34.642411
 20
53.397935
 42
0.02536
 10
34.835107
 20
53.588569
 42
0.02058
 10
35.005732
 20
53.791588
 42
0.013235
 10
35.187274
 20
54.039902
 42
0.013304
 10
35.352294
 20
54.292757
 42
0.024241
 10
35.471158
 20
54.508724
 42
-0.006229
 10
35.564202
 20
54.693208
 42
-0.009867
 10
35.648968
 20
54.848625
 42
-0.004243
 10
35.724005
 20
54.977422
 42
-0.264625
  0
LWPOLYLINE
  5
1F8
330
1D
100
AcDbEntity
  8
0
100
AcDbPolyline
 90
       92
 70
     1
 43
0.0
 10
22.791118
 20
50.9292
 42
-0.186862
 10
22.85216
 20
50.905562
 42
-0.013376
 10
22.985603
 20
50.77728
 42
-0.017354
 10
23.139332
 20
50.610154
 42
-0.012168
 10
23.301071
 20
50.412026
 42
-0.010572
 10
23.485801
 20
50.163473
 42
-0.036932
 10
23.58916
 20
49.992666
 42
-0.06349
 10
23.631562
 20
49.87413
 42
-0.255907
 10
23.610746
 20
49.802906
 42
0.183683
 10
23.567083
 20
49.705677
 42
0.004448
 10
23.542082
 20
49.204763
 42
0.007591
 10
23.524813
 20
48.535381
 42
0.002805
 10
23.520095
 20
47.59173
 42
0.002746
 10
23.525097
 20
46.77237
 42
0.004275
 10
23.539325
 20
46.066241
 42
0.001352
 10
23.558493
 20
45.456015
 42
0.133938
 10
23.583739
 20
45.374515
 42
0.12959
 10
23.628915
 20
45.332735
 42
0.027431
 10
23.727121
 20
45.287246
 42
0.026997
 10
23.850246
 20
45.245767
 42
0.022774
 10
23.984294
 20
45.215027
 42
-0.024174
 10
24.138188
 20
45.179281
 42
-0.01335
 10
24.322473
 20
45.121616
 42
-0.013286
 10
24.506569
 20
45.053049
 42
-0.02077
 10
24.660614
 20
44.983399
 42
-0.017074
 10
24.797973
 20
44.908303
 42
-0.016634
 10
24.931114
 20
44.82339
 42
-0.016788
 10
25.042932
 20
44.741078
 42
-0.057728
 10
25.106669
 20
44.677587
 42
-0.023499
 10
25.159297
 20
44.604646
 42
-0.007167
 10
25.232046
 20
44.489556
 42
-0.007158
 10
25.309937
 20
44.358142
 42
-0.007761
 10
25.381905
 20
44.22802
 42
-0.038637
 10
25.446772
 20
44.079771
 42
-0.023952
 10
25.500652
 20
43.897435
 42
-0.023858
 10
25.53719
 20
43.709199
 42
-0.036019
 10
25.5492
 20
43.542695
 42
-0.0207
 10
25.542513
 20
43.381244
 42
-0.01518
 10
25.522272
 20
43.203115
 42
-0.015391
 10
25.49274
 20
43.035386
 42
-0.032603
 10
25.45753
 20
42.908285
 10
25.36586
 20
42.64532
 10
24.955976
 20
42.927272
 42
0.013973
 10
24.783088
 20
43.039213
 42
0.01358
 10
24.60259
 20
43.142439
 42
0.013611
 10
24.439138
 20
43.224466
 42
0.048036
 10
24.328545
 20
43.263823
 42
-0.052606
 10
24.237624
 20
43.297117
 42
-0.079153
 10
24.168758
 20
43.345672
 42
-0.093158
 10
24.126007
 20
43.406459
 42
-0.107195
 10
24.111
 20
43.475653
 42
0.058624
 10
24.103196
 20
43.541984
 42
0.044938
 10
24.079936
 20
43.611234
 42
0.046036
 10
24.045751
 20
43.672946
 42
0.076237
 10
24.00525
 20
43.716416
 42
0.080479
 10
23.942078
 20
43.751582
 42
0.018803
 10
23.826234
 20
43.788656
 42
0.018911
 10
23.68806
 20
43.821638
 42
0.017559
 10
23.544335
 20
43.845036
 42
-0.042982
 10
23.383916
 20
43.879594
 42
-0.023423
 10
23.194201
 20
43.947757
 42
-0.023176
 10
23.006481
 20
44.035699
 42
-0.033881
 10
22.851134
 20
44.131412
 42
-0.031707
 10
22.707469
 20
44.248379
 42
-0.020144
 10
22.555108
 20
44.401227
 42
-0.020225
 10
22.417146
 20
44.564002
 42
-0.034967
 10
22.318074
 20
44.7111
 42
-0.060785
 10
22.205755
 20
44.975729
 42
-0.044602
 10
22.14522
 20
45.289084
 42
-0.01825
 10
22.111478
 20
45.805917
 42
-0.001846
 10
22.080675
 20
47.0376
 42
0.003088
 10
22.055493
 20
47.953517
 42
0.008714
 10
22.022799
 20
48.592894
 42
0.008297
 10
21.983869
 20
49.049186
 42
0.104822
 10
21.931414
 20
49.212611
 42
0.046878
 10
21.869784
 20
49.3002
 42
0.017089
 10
21.767283
 20
49.412228
 42
0.016769
 10
21.646135
 20
49.527852
 42
0.019236
 10
21.522768
 20
49.629686
 10
21.221007
 20
49.85985
 10
21.460454
 20
49.984934
 42
0.019667
 10
21.581649
 20
50.054443
 42
0.006108
 10
21.758224
 20
50.16819
 42
0.006096
 10
21.952645
 20
50.300255
 42
0.006679
 10
22.137897
 20
50.433133
 42
0.006419
 10
22.309545
 20
50.563194
 42
0.008386
 10
22.462933
 20
50.686735
 42
0.006466
 10
22.587742
 20
50.793521
 42
0.074275
 10
22.62934
 20
50.842723
 42
-0.078423
 10
22.657789
 20
50.875814
 42
-0.053369
 10
22.698909
 20
50.903798
 42
-0.05271
 10
22.745716
 20
50.922796
 42
-0.070177
  0
LWPOLYLINE
  5
256
330
1D
100
AcDbEntity
  8
0
100
AcDbPolyline
 90
       94
 70
     1
 43
0.0
 10
10.139221
 20
45.902109
 42
0.025679
 10
10.257799
 20
45.848313
 42
0.011457
 10
10.418813
 20
45.789238
 42
0.011306
 10
10.592378
 20
45.734382
 42
0.015034
 10
10.752571
 20
45.69289
 42
0.004475
 10
10.918234
 20
45.656813
 42
0.002979
 10
11.10872
 20
45.618294
 42
0.002998
 10
11.294013
 20
45.583126
 42
0.005861
 10
11.44215
 20
45.557721
 10
11.7594
 20
45.507133
 10
11.7594
 20
44.834167
 42
-0.008764
 10
11.753901
 20
44.520477
 42
-0.029649
 10
11.734611
 20
44.316598
 42
-0.045338
 10
11.703045
 20
44.189927
 42
-0.29337
 10
11.65365
 20
44.151176
 42
-0.017614
 10
11.605503
 20
44.148319
 42
-0.010398
 10
11.5479
 20
44.148131
 42
-0.010396
 10
11.490299
 20
44.15034
 42
-0.017506
 10
11.44215
 20
44.154885
 42
0.319407
 10
11.393074
 20
44.128759
 42
0.065818
 10
11.35927
 20
44.030653
 42
0.036332
 10
11.337471
 20
43.86094
 42
0.010214
 10
11.328203
 20
43.593859
 42
0.002773
 10
11.326069
 20
43.349005
 42
0.002304
 10
11.326443
 20
43.08853
 42
0.002325
 10
11.328995
 20
42.84994
 42
0.006292
 10
11.333723
 20
42.6807
 42
0.032406
 10
11.348842
 20
42.537651
 42
0.039561
 10
11.38202
 20
42.407267
 42
0.044524
 10
11.428723
 20
42.301906
 42
0.102641
 10
11.484989
 20
42.23655
 42
0.057279
 10
11.552478
 20
42.196003
 42
0.031801
 10
11.642362
 20
42.161864
 42
0.031288
 10
11.738995
 20
42.138539
 42
0.043601
 10
11.827571
 20
42.1308
 42
-0.068594
 10
11.933651
 20
42.116178
 42
-0.01888
 10
12.094405
 20
42.064383
 42
-0.018704
 10
12.273936
 20
41.991244
 42
-0.018544
 10
12.448026
 20
41.904698
 42
-0.0279
 10
12.618756
 20
41.799029
 42
-0.023096
 10
12.788223
 20
41.668537
 42
-0.023708
 10
12.932654
 20
41.534045
 42
-0.056159
 10
13.022785
 20
41.418248
 42
-0.026062
 10
13.090614
 20
41.293227
 42
-0.01342
 10
13.162945
 20
41.130445
 42
-0.013302
 10
13.22857
 20
40.958554
 42
-0.019572
 10
13.276176
 20
40.804089
 42
-0.028923
 10
13.312519
 20
40.626622
 42
-0.030956
 10
13.327072
 20
40.45014
 42
-0.031028
 10
13.319713
 20
40.273589
 42
-0.029339
 10
13.290611
 20
40.095914
 42
-0.015276
 10
13.254228
 20
39.954351
 42
-0.017648
 10
13.210757
 20
39.822022
 42
-0.01692
 10
13.166537
 20
39.713378
 42
-0.091511
 10
13.130574
 20
39.661134
 42
-0.204832
 10
13.081663
 20
39.641523
 42
-0.092902
 10
13.012842
 20
39.656049
 42
-0.060786
 10
12.927056
 20
39.704567
 42
-0.027825
 10
12.82786
 20
39.786733
 42
0.036649
 10
12.716355
 20
39.875828
 42
0.017686
 10
12.561927
 20
39.973836
 42
0.017433
 10
12.392971
 20
40.065104
 42
0.023906
 10
12.234716
 20
40.134378
 42
-0.023975
 10
12.078679
 20
40.202708
 42
-0.047967
 10
11.964458
 20
40.273772
 42
-0.066033
 10
11.894239
 20
40.343835
 42
-0.186797
 10
11.875084
 20
40.409145
 42
0.088131
 10
11.869925
 20
40.465204
 42
0.063076
 10
11.845728
 20
40.52348
 42
0.06186
 10
11.807084
 20
40.575048
 42
0.07649
 10
11.7594
 20
40.611407
 42
0.034078
 10
11.683381
 20
40.64633
 42
0.005749
 10
11.533095
 20
40.70136
 42
0.006264
 10
11.354647
 20
40.761882
 42
0.005531
 10
11.1672
 20
40.820564
 42
-0.025863
 10
10.971432
 20
40.890707
 42
-0.020558
 10
10.767965
 20
40.985718
 42
-0.021004
 10
10.586349
 20
41.0897
 42
-0.047927
 10
10.461502
 20
41.186149
 42
-0.028579
 10
10.35755
 20
41.295496
 42
-0.016034
 10
10.243525
 20
41.439155
 42
-0.015959
 10
10.137304
 20
41.592135
 42
-0.025
 10
10.057032
 20
41.730716
 42
-0.065209
 10
9.966623
 20
41.982451
 42
-0.035461
 10
9.9195
 20
42.308193
 42
-0.016168
 10
9.897995
 20
42.839614
 42
-0.002109
 10
9.893584
 20
43.972616
 42
-0.000096
 10
9.893967
 20
44.714453
 42
-0.000152
 10
9.894611
 20
45.34993
 42
-0.000031
 10
9.895383
 20
45.909571
 42
-0.00724
 10
9.896204
 20
45.961123
 42
-0.409035
 10
9.913586
 20
45.977771
 42
-0.056444
 10
9.968414
 20
45.970856
 42
-0.039125
 10
10.0466
 20
45.945255
 42
-0.020653
  0
LWPOLYLINE
  5
2B6
330
1D
100
AcDbEntity
  8
0
100
AcDbPolyline
 90
      140
 70
     1
 43
0.0
 10
22.487252
 20
44.230112
 42
-0.005682
 10
22.552757
 20
44.177247
 42
-0.002883
 10
22.63404
 20
44.109316
 42
-0.002863
 10
22.717127
 20
44.03824
 42
-0.004272
 10
22.788884
 20
43.975061
 42
0.045478
 10
22.86833
 20
43.915964
 42
0.024425
 10
22.975635
 20
43.857366
 42
0.02412
 10
23.091798
 20
43.807875
 42
0.034595
 10
23.199136
 20
43.776385
 42
-0.053042
 10
23.316235
 20
43.737295
 42
-0.073863
 10
23.408792
 20
43.677231
 42
-0.074191
 10
23.479609
 20
43.593085
 42
-0.054066
 10
23.532143
 20
43.48249
 42
0.055324
 10
23.591045
 20
43.359286
 42
0.102202
 10
23.667207
 20
43.279186
 42
0.08289
 10
23.780212
 20
43.225778
 42
0.027189
 10
23.960373
 20
43.185162
 42
-0.015347
 10
24.111575
 20
43.154817
 42
-0.010545
 10
24.281039
 20
43.111574
 42
-0.01064
 10
24.442558
 20
43.062986
 42
-0.021202
 10
24.567683
 20
43.016476
 42
-0.036797
 10
24.684234
 20
42.957001
 42
-0.019994
 10
24.81832
 20
42.868117
 42
-0.019821
 10
24.948173
 20
42.766291
 42
-0.029538
 10
25.052413
 20
42.666479
 42
-0.015056
 10
25.146028
 20
42.559294
 42
-0.011047
 10
25.243522
 20
42.435148
 42
-0.011183
 10
25.330653
 20
42.313427
 42
-0.024235
 10
25.390813
 20
42.2154
 42
-0.098768
 10
25.450523
 20
42.025793
 42
-0.010647
 10
25.490626
 20
41.565413
 42
-0.009088
 10
25.523093
 20
40.881273
 42
-0.002504
 10
25.5492
 20
39.8043
 42
0.00202
 10
25.577806
 20
38.575172
 42
0.012478
 10
25.610832
 20
37.943856
 42
0.023918
 10
25.659471
 20
37.556909
 42
0.074682
 10
25.742298
 20
37.3086
 42
0.045285
 10
25.826127
 20
37.175351
 42
0.020937
 10
25.957155
 20
37.017858
 42
0.020539
 10
26.109686
 20
36.862703
 42
0.026822
 10
26.261969
 20
36.734639
 42
0.027783
 10
26.453936
 20
36.606096
 42
0.035599
 10
26.64413
 20
36.511077
 42
0.036549
 10
26.841631
 20
36.445828
 42
0.032044
 10
27.055409
 20
36.406495
 42
0.024411
 10
27.23712
 20
36.393923
 42
0.019926
 10
27.432021
 20
36.397741
 42
0.020372
 10
27.611387
 20
36.415768
 42
0.048669
 10
27.741289
 20
36.447305
 42
-0.012946
 10
27.84152
 20
36.47936
 42
-0.02293
 10
27.92584
 20
36.499798
 42
-0.020877
 10
27.989887
 20
36.509491
 42
-0.446346
 10
28.0026
 20
36.498087
 42
-0.108236
 10
27.996317
 20
36.469402
 42
-0.00171
 10
27.925522
 20
36.316926
 42
-0.004432
 10
27.840768
 20
36.140105
 42
-0.002912
 10
27.740208
 20
35.937979
 42
-0.028409
 10
27.601682
 20
35.698424
 42
-0.016634
 10
27.410604
 20
35.427551
 42
-0.016333
 10
27.194519
 20
35.160489
 42
-0.021222
 10
26.978762
 20
34.931374
 42
-0.015923
 10
26.753997
 20
34.725675
 42
-0.011449
 10
26.490793
 20
34.510033
 42
-0.011582
 10
26.230638
 20
34.3162
 42
-0.024378
 10
26.018388
 20
34.180625
 10
25.557068
 20
33.916684
 10
25.531984
 20
33.391892
 10
25.5069
 20
32.8671
 10
25.073951
 20
33.27005
 42
-0.024646
 10
24.889147
 20
33.459877
 42
-0.015475
 10
24.691509
 20
33.698483
 42
-0.015529
 10
24.511125
 20
33.946009
 42
-0.02726
 10
24.379993
 20
34.162701
 42
-0.016364
 10
24.281105
 20
34.363825
 42
-0.01845
 10
24.199772
 20
34.56319
 42
-0.017992
 10
24.143386
 20
34.736544
 42
-0.088651
 10
24.132996
 20
34.838402
 42
-0.033736
 10
24.143225
 20
34.909635
 42
-0.049758
 10
24.162454
 20
34.969763
 42
-0.062467
 10
24.187037
 20
35.011365
 42
-0.232116
 10
24.213603
 20
35.0244
 42
0.004282
 10
24.242113
 20
35.024644
 42
0.003461
 10
24.272717
 20
35.02538
 42
0.003497
 10
24.300949
 20
35.026453
 42
0.009005
 10
24.321323
 20
35.027737
 42
0.054669
 10
24.349782
 20
35.033217
 42
0.001944
 10
24.456329
 20
35.066564
 42
0.003573
 10
24.581979
 20
35.107419
 42
0.002492
 10
24.723173
 20
35.155228
 42
0.007001
 10
24.875176
 20
35.209936
 42
0.006006
 10
25.033608
 20
35.271659
 42
0.006058
 10
25.176158
 20
35.331193
 42
0.017231
 10
25.273421
 20
35.377243
 42
0.076498
 10
25.371591
 20
35.448722
 42
0.302983
 10
25.385714
 20
35.518259
 42
0.087568
 10
25.321495
 20
35.620075
 42
0.004554
 10
25.057542
 20
35.905402
 42
-0.018936
 10
24.888269
 20
36.09928
 42
-0.013857
 10
24.714847
 20
36.326382
 42
-0.014041
 10
24.56239
 20
36.550971
 42
-0.029889
 10
24.460207
 20
36.734279
 42
-0.027737
 10
24.381081
 20
36.924974
 42
-0.014149
 10
24.302054
 20
37.172056
 42
-0.014014
 10
24.234761
 20
37.432085
 42
-0.020401
 10
24.191338
 20
37.664879
 42
-0.023249
 10
24.161298
 20
37.973198
 42
-0.004068
 10
24.136502
 20
38.556282
 42
-0.004406
 10
24.118997
 20
39.241259
 42
-0.003942
 10
24.112701
 20
39.95235
 42
0.002132
 10
24.107589
 20
40.9291
 42
0.0158
 10
24.088477
 20
41.393906
 42
0.028089
 10
24.054695
 20
41.654629
 42
0.337682
 10
23.9841
 20
41.718375
 42
-0.007032
 10
23.930862
 20
41.723566
 42
-0.006313
 10
23.875838
 20
41.730418
 42
-0.00634
 10
23.826621
 20
41.737817
 42
-0.019706
 10
23.79375
 20
41.744524
 42
0.011467
 10
23.752666
 20
41.753615
 42
0.00098
 10
23.646807
 20
41.774288
 42
0.001296
 10
23.520405
 20
41.798377
 42
0.001004
 10
23.382617
 20
41.82398
 42
-0.04364
 10
23.216641
 20
41.869725
 42
-0.03432
 10
23.046599
 20
41.946636
 42
-0.033035
 10
22.88179
 20
42.049833
 42
-0.032691
 10
22.731395
 20
42.174169
 42
-0.020827
 10
22.60456
 20
42.304201
 42
-0.015215
 10
22.47443
 20
42.458421
 42
-0.015424
 10
22.359894
 20
42.612381
 42
-0.032499
 10
22.282865
 20
42.739788
 42
-0.046912
 10
22.224566
 20
42.883633
 42
-0.024633
 10
22.178266
 20
43.071172
 42
-0.02341
 10
22.147762
 20
43.278652
 42
-0.024562
 10
22.137437
 20
43.484766
 42
-0.019997
 10
22.144962
 20
43.677382
 42
-0.019311
 10
22.167855
 20
43.871054
 42
-0.019649
 10
22.201271
 20
44.039744
 42
-0.064223
 10
22.2416
 20
44.145878
 42
-0.025846
 10
22.30426
 20
44.249686
 42
-0.162842
 10
22.352688
 20
44.286745
 42
-0.207321
 10
22.406885
 20
44.282481
 42
-0.045104
  0
LWPOLYLINE
  5
344
330
1D
100
AcDbEntity
  8
0
100
AcDbPolyline
 90
       78
 70
     1
 43
0.0
 10
34.696636
 20
44.199747
 42
0.018209
 10
34.847583
 20
44.152595
 42
0.014745
 10
35.01254
 20
44.112775
 42
0.014998
 10
35.166999
 20
44.085084
 42
0.036865
 10
35.281917
 20
44.0766
 42
-0.018772
 10
35.382178
 20
44.072834
 42
-0.015702
 10
35.488074
 20
44.061516
 42
-0.015989
 10
35.58431
 20
44.04501
 42
-0.041166
 10
35.651981
 20
44.025249
 42
-0.200865
 10
35.720424
 20
43.959823
 42
-0.065459
 10
35.759954
 20
43.822741
 42
-0.031737
 10
35.780667
 20
43.584061
 42
-0.005778
 10
35.7858
 20
43.139925
 42
0.005119
 10
35.790786
 20
42.6529
 42
0.040155
 10
35.813537
 20
42.427824
 42
0.096899
 10
35.863748
 20
42.299967
 42
0.128703
 10
35.955
 20
42.2154
 42
0.016675
 10
36.019926
 20
42.18339
 42
0.031515
 10
36.074497
 20
42.162744
 42
0.04037
 10
36.113613
 20
42.154079
 42
0.455022
 10
36.1242
 20
42.163304
 42
-0.443484
 10
36.137086
 20
42.174975
 42
-0.013543
 10
36.216914
 20
42.164865
 42
-0.018447
 10
36.318773
 20
42.145281
 42
-0.01064
 10
36.439821
 20
42.114614
 42
-0.031679
 10
36.585611
 20
42.064231
 42
-0.015364
 10
36.765207
 20
41.982559
 42
-0.01517
 10
36.947678
 20
41.885732
 42
-0.021113
 10
37.104307
 20
41.787442
 42
-0.035172
 10
37.27082
 20
41.654718
 42
-0.038029
 10
37.412448
 20
41.503149
 42
-0.037034
 10
37.532528
 20
41.328172
 42
-0.030298
 10
37.634686
 20
41.125475
 42
-0.018093
 10
37.704134
 20
40.946461
 42
-0.01655
 10
37.762742
 20
40.757532
 42
-0.01682
 10
37.803784
 20
40.585396
 42
-0.050645
 10
37.815728
 20
40.465417
 42
-0.02686
 10
37.809392
 20
40.351756
 42
-0.012192
 10
37.789514
 20
40.204055
 42
-0.012032
 10
37.76093
 20
40.048932
 42
-0.016152
 10
37.727152
 20
39.91005
 42
-0.014811
 10
37.689476
 20
39.788472
 42
-0.022768
 10
37.649059
 20
39.685992
 42
-0.018986
 10
37.610473
 20
39.607945
 42
-0.275058
 10
37.585026
 20
39.5928
 42
-0.14688
 10
37.553854
 20
39.602159
 42
-0.013697
 10
37.487376
 20
39.648695
 42
-0.016676
 10
37.409977
 20
39.710202
 42
-0.01234
 10
37.328459
 20
39.783082
 42
0.037505
 10
37.225978
 20
39.865822
 42
0.017524
 10
37.08217
 20
39.957834
 42
0.01725
 10
36.923847
 20
40.044255
 42
0.023116
 10
36.774455
 20
40.110779
 42
-0.028814
 10
36.616675
 20
40.183201
 42
-0.052117
 10
36.498859
 20
40.26244
 42
-0.065447
 10
36.419317
 20
40.348878
 42
-0.095625
 10
36.377015
 20
40.442975
 42
0.07893
 10
36.343859
 20
40.523782
 42
0.05851
 10
36.284285
 20
40.599945
 42
0.057273
 10
36.20708
 20
40.661832
 42
0.067512
 10
36.121866
 20
40.70055
 42
0.013139
 10
36.01958
 20
40.72835
 42
0.005597
 10
35.881345
 20
40.760411
 42
0.005533
 10
35.733052
 20
40.791343
 42
0.007235
 10
35.596793
 20
40.816153
 42
-0.054416
 10
35.432802
 20
40.86231
 42
-0.0416
 10
35.266217
 20
40.946144
 42
-0.035493
 10
35.091947
 20
41.070648
 42
-0.021744
 10
34.90449
 20
41.24003
 42
-0.024949
 10
34.746658
 20
41.411972
 42
-0.025382
 10
34.6077
 20
41.59783
 42
-0.027045
 10
34.499932
 20
41.778774
 42
-0.053107
 10
34.438319
 20
41.934398
 42
-0.042971
 10
34.403402
 20
42.121013
 42
-0.008156
 10
34.374777
 20
42.466056
 42
-0.008652
 10
34.354842
 20
42.87126
 42
-0.007849
 10
34.348072
 20
43.290297
 10
34.3476
 20
44.322894
  0
LWPOLYLINE
  5
394
330
1D
100
AcDbEntity
  8
0
100
AcDbPolyline
 90
      112
 70
     1
 43
0.0
 10
22.671455
 20
42.047265
 42
0.01878
 10
22.816265
 20
41.941172
 42
0.014745
 10
22.980626
 20
41.836918
 42
0.014989
 10
23.139406
 20
41.748978
 42
0.035111
 10
23.264017
 20
41.695466
 10
23.529048
 20
41.603075
 10
23.502774
 20
39.432523
 10
23.4765
 20
37.261971
 10
23.200731
 20
36.702189
 42
-0.023246
 10
23.068871
 20
36.463227
 42
-0.01749
 10
22.902929
 20
36.213059
 42
-0.017803
 10
22.728853
 20
35.987025
 42
-0.036071
 10
22.573613
 20
35.824986
 42
0.008099
 10
22.367034
 20
35.632186
 42
0.089015
 10
22.30087
 20
35.540698
 42
0.251293
 10
22.303885
 20
35.47195
 42
0.101145
 10
22.36915
 20
35.400159
 42
0.052446
 10
22.45647
 20
35.349398
 42
0.010889
 10
22.620169
 20
35.280186
 42
0.011325
 10
22.814695
 20
35.207947
 42
0.010471
 10
23.017418
 20
35.142566
 10
23.5188
 20
34.992378
 10
23.5188
 20
31.248682
 42
-0.001477
 10
23.513821
 20
29.56326
 42
-0.004412
 10
23.496832
 20
28.410196
 42
-0.001367
 10
23.473593
 20
27.526487
 42
-0.252201
 10
23.429288
 20
27.449664
 42
-0.11096
 10
23.359131
 20
27.425433
 42
-0.00286
 10
23.025809
 20
27.390028
 42
-0.005933
 10
22.631792
 20
27.355171
 42
-0.004001
 10
22.181438
 20
27.324332
 42
0.002713
 10
21.719316
 20
27.293884
 42
0.003345
 10
21.288808
 20
27.260276
 42
0.002765
 10
20.927617
 20
27.227633
 42
0.024473
 10
20.7693
 20
27.20458
 42
0.001804
 10
20.658223
 20
27.182394
 42
0.001291
 10
20.534138
 20
27.15681
 42
0.001304
 10
20.416045
 20
27.131822
 42
0.002799
 10
20.32515
 20
27.111808
 42
-0.02233
 10
20.252162
 20
27.098701
 42
-0.038767
 10
20.190715
 20
27.095286
 42
-0.049269
 10
20.147179
 20
27.100554
 42
-0.351463
 10
20.1348
 20
27.11599
 42
-0.174531
 10
20.145462
 20
27.145606
 42
-0.005485
 10
20.229724
 20
27.245212
 42
-0.010079
 10
20.334115
 20
27.361099
 42
-0.006746
 10
20.457944
 20
27.489594
 42
-0.01992
 10
20.61455
 20
27.635651
 42
-0.010288
 10
20.821115
 20
27.806188
 42
-0.010211
 10
21.041024
 20
27.97307
 42
-0.015232
 10
21.240494
 20
28.109029
 42
-0.008455
 10
21.430139
 20
28.225535
 42
-0.008953
 10
21.620065
 20
28.333294
 42
-0.008633
 10
21.786747
 20
28.420263
 42
-0.039888
 10
21.887528
 20
28.460974
 42
0.224137
 10
21.999479
 20
28.56426
 42
0.072676
 10
22.054329
 20
28.788833
 42
0.019743
 10
22.079987
 20
29.255106
 42
0.001127
 10
22.099028
 20
30.693487
 42
0.001305
 10
22.106343
 20
31.567229
 42
0.001535
 10
22.10857
 20
32.395023
 42
0.001346
 10
22.106421
 20
33.094381
 42
0.009546
 10
22.097987
 20
33.433643
 42
0.009095
 10
22.077903
 20
33.756467
 42
0.061066
 10
22.045693
 20
33.913506
 42
0.13005
 10
21.987114
 20
34.002348
 42
0.105864
 10
21.887774
 20
34.058999
 42
-0.050179
 10
21.789875
 20
34.10127
 42
-0.01114
 10
21.632271
 20
34.193646
 42
-0.011466
 10
21.454217
 20
34.309125
 42
-0.010833
 10
21.278186
 20
34.434785
 42
-0.01049
 10
21.096031
 20
34.576918
 42
-0.007642
 10
20.899373
 20
34.742182
 42
-0.007727
 10
20.717623
 20
34.904704
 42
-0.016804
 10
20.584416
 20
35.036129
 42
-0.023029
 10
20.459943
 20
35.180222
 42
-0.00968
 10
20.305508
 20
35.384612
 42
-0.009554
 10
20.148548
 20
35.609857
 42
-0.012272
 10
20.013366
 20
35.823123
 42
-0.008817
 10
19.897867
 20
36.023555
 42
-0.011707
 10
19.800385
 20
36.210012
 42
-0.009122
 10
19.726027
 20
36.367927
 42
-0.10585
 10
19.7118
 20
36.434379
 42
-0.143273
 10
19.725138
 20
36.47997
 42
-0.224081
 10
19.759136
 20
36.501319
 42
-0.10077
 10
19.821993
 20
36.496213
 42
-0.020357
 10
19.928807
 20
36.460506
 42
0.03603
 10
20.034067
 20
36.428947
 42
0.016977
 10
20.173643
 20
36.402782
 42
0.016725
 10
20.322322
 20
36.385169
 42
0.02261
 10
20.457557
 20
36.379858
 42
0.039694
 10
20.601272
 20
36.392147
 42
0.020779
 10
20.777131
 20
36.428933
 42
0.020535
 10
20.95537
 20
36.481893
 42
0.029517
 10
21.1077
 20
36.544313
 42
0.014558
 10
21.250301
 20
36.618015
 42
0.011784
 10
21.398962
 20
36.705059
 42
0.011958
 10
21.532341
 20
36.79191
 42
0.029925
 10
21.624029
 20
36.863207
 42
0.026278
 10
21.700751
 20
36.938097
 42
0.015612
 10
21.784404
 20
37.034692
 42
0.015603
 10
21.862009
 20
37.136503
 42
0.025863
 10
21.920129
 20
37.227503
 42
0.101779
 10
21.981669
 20
37.417135
 42
0.011195
 10
22.022311
 20
37.874889
 42
0.009233
 10
22.055228
 20
38.564461
 42
0.002384
 10
22.08246
 20
39.6774
 42
-0.002597
 10
22.108746
 20
40.733321
 42
-0.008145
 10
22.141642
 20
41.442226
 42
-0.007943
 10
22.180683
 20
41.938266
 42
-0.104578
 10
22.235273
 20
42.112987
 10
22.343925
 20
42.306674
  0
LWPOLYLINE
  5
406
330
1D
100
AcDbEntity
  8
0
100
AcDbPolyline
 90
      116
 70
     1
 43
0.0
 10
10.502127
 20
40.972198
 42
0.020041
 10
10.676296
 20
40.857362
 42
0.020823
 10
10.856934
 20
40.758399
 42
0.021061
 10
11.019675
 20
40.686224
 42
0.079714
 10
11.128111
 20
40.662404
 42
-0.042606
 10
11.221008
 20
40.649095
 42
-0.109078
 10
11.282005
 20
40.620024
 42
-0.15359
 10
11.312967
 20
40.575148
 42
-0.117151
 10
11.316921
 20
40.515247
 42
0.080878
 10
11.316555
 20
40.453382
 42
0.042936
 10
11.334916
 20
40.37877
 42
0.041288
 10
11.36747
 20
40.303799
 42
0.050179
 10
11.410214
 20
40.240297
 42
0.080239
 10
11.471593
 20
40.186686
 42
0.044222
 10
11.560688
 20
40.141495
 42
0.042655
 10
11.661655
 20
40.110729
 42
0.052677
 10
11.759427
 20
40.1004
 42
-0.039425
 10
11.869848
 20
40.09168
 42
-0.018141
 10
12.011505
 20
40.063864
 42
-0.017838
 10
12.159182
 20
40.023652
 42
-0.023569
 10
12.290218
 20
39.976021
 42
-0.046515
 10
12.425024
 20
39.904334
 42
-0.021571
 10
12.586016
 20
39.78822
 42
-0.02115
 10
12.745851
 20
39.650762
 42
-0.027579
 10
12.879167
 20
39.511362
 42
-0.02599
 10
12.997886
 20
39.357116
 42
-0.019044
 10
13.113715
 20
39.174775
 42
-0.019339
 10
13.21036
 20
38.993221
 42
-0.03987
 10
13.268617
 20
38.843376
 42
-0.040885
 10
13.30678
 20
38.66377
 42
-0.010302
 10
13.338744
 20
38.366304
 42
-0.010445
 10
13.361237
 20
38.023652
 42
-0.010366
 10
13.369474
 20
37.679485
 10
13.372148
 20
36.8433
 10
13.740365
 20
36.620012
 42
-0.037112
 10
13.905494
 20
36.502298
 42
-0.017898
 10
14.099313
 20
36.329096
 42
-0.017639
 10
14.289434
 20
36.133201
 42
-0.024151
 10
14.445244
 20
35.943212
 42
-0.014564
 10
14.581185
 20
35.748486
 42
-0.012937
 10
14.711255
 20
35.538444
 42
-0.013102
 10
14.818445
 20
35.343341
 42
-0.038401
 10
14.878053
 20
35.202126
 42
-0.013451
 10
14.914858
 20
35.08133
 42
-0.012635
 10
14.945957
 20
34.956194
 42
-0.012713
 10
14.967893
 20
34.843884
 42
-0.041891
 10
14.9742
 20
34.768739
 42
-0.160332
 10
14.950392
 20
34.696402
 42
-0.130039
 10
14.886365
 20
34.645022
 42
-0.06539
 10
14.765493
 20
34.609343
 42
-0.015162
 10
14.554766
 20
34.582625
 42
0.030138
 10
14.355313
 20
34.551245
 42
0.033887
 10
14.168953
 20
34.496837
 42
0.035342
 10
13.998888
 20
34.420388
 42
0.039643
 10
13.848063
 20
34.323212
 42
0.035652
 10
13.729768
 20
34.218855
 42
0.025102
 10
13.611885
 20
34.086185
 42
0.025447
 10
13.511465
 20
33.947111
 42
0.047531
 10
13.44745
 20
33.824
 42
-0.011959
 10
13.399695
 20
33.71365
 42
-0.014945
 10
13.349923
 20
33.613754
 42
-0.013184
 10
13.303943
 20
33.533165
 42
-0.102335
 10
13.274606
 20
33.5016
 42
-0.145213
 10
13.2282
 20
33.485725
 42
-0.005348
 10
13.040712
 20
33.480004
 42
-0.009345
 10
12.816517
 20
33.479753
 42
-0.006386
 10
12.561925
 20
33.487481
 10
11.908743
 20
33.515662
 10
11.953077
 20
33.788858
 42
-0.03091
 10
11.98315
 20
33.921671
 42
-0.012145
 10
12.040207
 20
34.100553
 42
-0.011966
 10
12.111429
 20
34.291515
 42
-0.014624
 10
12.187435
 20
34.466312
 42
-0.023342
 10
12.280812
 20
34.643041
 42
-0.014754
 10
12.405143
 20
34.84036
 42
-0.014813
 10
12.539091
 20
35.027436
 42
-0.026287
 10
12.661729
 20
35.171985
 42
0.01394
 10
12.767571
 20
35.290671
 42
0.022741
 10
12.849718
 20
35.397637
 42
0.01884
 10
12.906433
 20
35.48578
 42
0.342379
 10
12.902502
 20
35.516898
 42
0.150114
 10
12.867106
 20
35.535659
 42
0.007357
 10
12.735129
 20
35.558951
 42
0.011383
 10
12.575193
 20
35.581033
 42
0.007925
 10
12.393802
 20
35.598974
 10
11.9286
 20
35.637552
 10
11.9286
 20
37.054917
 42
0.003885
 10
11.923325
 20
37.733779
 42
0.013682
 10
11.904601
 20
38.169955
 42
0.014658
 10
11.875222
 20
38.464014
 42
0.193298
 10
11.82285
 20
38.557472
 42
0.063504
 10
11.762742
 20
38.594432
 42
0.018125
 10
11.661185
 20
38.635966
 42
0.017938
 10
11.542115
 20
38.674909
 42
0.018138
 10
11.421
 20
38.705055
 42
-0.024299
 10
11.283442
 20
38.741099
 42
-0.012026
 10
11.112558
 20
38.799422
 42
-0.011905
 10
10.93785
 20
38.868548
 42
-0.017058
 10
10.786786
 20
38.938688
 42
-0.016954
 10
10.649427
 20
39.01421
 42
-0.016522
 10
10.516286
 20
39.099483
 42
-0.016669
 10
10.40446
 20
39.182053
 42
-0.057422
 10
10.340731
 20
39.245613
 42
-0.023499
 10
10.288103
 20
39.318554
 42
-0.007167
 10
10.215354
 20
39.433644
 42
-0.007158
 10
10.137463
 20
39.565058
 42
-0.007761
 10
10.065495
 20
39.69518
 42
-0.038865
 10
9.996538
 20
39.852971
 42
-0.027727
 10
9.943443
 20
40.038405
 42
-0.026851
 10
9.909541
 20
40.236222
 42
-0.02902
 10
9.8982
 20
40.431449
 42
-0.019666
 10
9.905163
 20
40.608423
 42
-0.017646
 10
9.926042
 20
40.790869
 42
-0.017989
 10
9.956466
 20
40.953258
 42
-0.051632
 10
9.992982
 20
41.061863
 10
10.087765
 20
41.269888
  0
LWPOLYLINE
  5
47C
330
1D
100
AcDbEntity
  8
0
100
AcDbPolyline
 90
       76
 70
     1
 43
0.0
 10
34.83197
 20
41.077679
 42
0.034437
 10
34.947607
 20
40.984317
 42
0.017899
 10
35.103366
 20
40.883472
 42
0.017713
 10
35.271435
 20
40.79092
 42
0.025724
 10
35.42625
 20
40.722432
 42
-0.026017
 10
35.576585
 20
40.655821
 42
-0.047392
 10
35.689991
 20
40.584116
 42
-0.062262
 10
35.762443
 20
40.512025
 42
-0.167422
 10
35.7858
 20
40.444226
 42
0.060219
 10
35.793214
 20
40.382895
 42
0.039062
 10
35.815621
 20
40.314975
 42
0.038964
 10
35.848445
 20
40.251093
 42
0.058283
 10
35.88732
 20
40.20192
 42
0.101649
 10
35.946693
 20
40.162783
 42
0.032943
 10
36.04724
 20
40.130094
 42
0.031286
 10
36.16675
 20
40.107616
 42
0.03049
 10
36.28917
 20
40.099967
 42
-0.049123
 10
36.426588
 20
40.086233
 42
-0.026045
 10
36.592584
 20
40.043872
 42
-0.025657
 10
36.759357
 20
39.982383
 42
-0.035998
 10
36.900328
 20
39.909617
 42
-0.022011
 10
37.03132
 20
39.821438
 42
-0.016418
 10
37.167926
 20
39.71336
 42
-0.016672
 10
37.290141
 20
39.60277
 42
-0.035862
 10
37.374816
 20
39.5082
 42
-0.01603
 10
37.447496
 20
39.407783
 42
-0.008547
 10
37.531192
 20
39.279296
 42
-0.008499
 10
37.612279
 20
39.145017
 42
-0.013092
 10
37.677338
 20
39.025951
 42
-0.077921
 10
37.75075
 20
38.803211
 42
-0.024697
 10
37.790474
 20
38.454597
 42
-0.013557
 10
37.8111
 20
37.896886
 42
-0.002464
 10
37.8162
 20
36.861843
 10
37.8162
 20
34.968483
 10
38.205636
 20
34.688811
 10
38.595072
 20
34.409139
 10
38.099886
 20
33.959255
 42
-0.009026
 10
37.902845
 20
33.786629
 42
-0.012687
 10
37.720517
 20
33.640383
 42
-0.008956
 10
37.564708
 20
33.526126
 42
-0.145091
 10
37.503786
 20
33.505486
 42
-0.093461
 10
37.447887
 20
33.513814
 42
-0.016863
 10
37.349371
 20
33.551798
 42
-0.01766
 10
37.235592
 20
33.604952
 42
-0.015174
 10
37.119827
 20
33.6686
 42
0.020518
 10
36.996196
 20
33.734864
 42
0.016665
 10
36.858756
 20
33.795856
 42
0.016982
 10
36.72817
 20
33.843578
 42
0.041363
 10
36.628541
 20
33.867298
 10
36.4203
 20
33.898995
 10
36.374632
 20
36.259448
 42
0.000695
 10
36.355843
 20
37.165465
 42
0.00115
 10
36.337156
 20
37.930398
 42
0.000067
 10
36.318663
 20
38.61872
 42
0.230146
 10
36.311182
 20
38.633111
 42
0.119028
 10
36.29603
 20
38.639554
 42
0.001103
 10
36.174996
 20
38.659445
 42
0.003655
 10
36.035138
 20
38.681065
 42
0.002346
 10
35.872541
 20
38.704206
 42
-0.032785
 10
35.67782
 20
38.744128
 42
-0.027082
 10
35.476802
 20
38.811172
 42
-0.027306
 10
35.286254
 20
38.898715
 42
-0.035427
 10
35.12304
 20
39.000155
 42
-0.027045
 10
34.983732
 20
39.113036
 42
-0.018155
 10
34.836771
 20
39.255932
 42
-0.018311
 10
34.70419
 20
39.405129
 42
-0.034089
 10
34.610004
 20
39.536578
 42
-0.038401
 10
34.535804
 20
39.680221
 42
-0.020515
 10
34.465547
 20
39.867429
 42
-0.020306
 10
34.409141
 20
40.065532
 42
-0.029733
 10
34.377173
 20
40.24391
 42
-0.025973
 10
34.363884
 20
40.445108
 42
-0.032759
 10
34.373483
 20
40.631413
 42
-0.034503
 10
34.406426
 20
40.806528
 42
-0.035227
 10
34.462987
 20
40.974195
 10
34.597239
 20
41.295505
  0
LWPOLYLINE
  5
4CA
330
1D
100
AcDbEntity
  8
0
100
AcDbPolyline
 90
       50
 70
     1
 43
0.0
 10
10.328799
 20
39.03562
 42
0.029168
 10
10.433883
 20
38.946087
 42
0.054787
 10
10.529573
 20
38.889003
 42
0.074435
 10
10.611197
 20
38.865547
 42
0.165323
 10
10.673875
 20
38.878022
 42
-0.016526
 10
10.71456
 20
38.89978
 42
-0.137936
 10
10.734888
 20
38.903561
 42
-0.545423
 10
10.739195
 20
38.895326
 42
-0.054956
 10
10.723425
 20
38.873538
 42
0.368464
 10
10.722299
 20
38.836365
 42
0.055403
 10
10.7794
 20
38.779386
 42
0.040638
 10
10.875824
 20
38.714488
 42
0.02256
 10
11.002551
 20
38.650741
 10
11.344753
 20
38.497533
 10
11.330064
 20
36.219118
 10
11.315376
 20
33.940703
 10
10.957979
 20
33.840638
 42
0.037546
 10
10.791719
 20
33.780316
 42
0.017083
 10
10.584077
 20
33.678144
 42
0.016805
 10
10.371501
 20
33.555005
 42
0.022143
 10
10.186996
 20
33.427984
 42
0.032271
 10
9.981044
 20
33.250345
 42
0.027108
 10
9.786558
 20
33.037496
 42
0.024567
 10
9.598963
 20
32.783965
 42
0.017574
 10
9.413697
 20
32.483647
 42
0.002062
 10
9.273827
 20
32.235626
 42
0.002904
 10
9.151312
 20
32.013247
 42
0.001697
 10
9.049783
 20
31.82488
 42
0.039897
 10
9.025599
 20
31.769419
 42
-0.501769
 10
8.992417
 20
31.758819
 42
-0.013739
 10
8.851957
 20
31.865239
 42
-0.017831
 10
8.67695
 20
32.016124
 42
-0.009945
 10
8.474338
 20
32.211439
 10
7.951463
 20
32.73594
 10
8.218484
 20
33.24534
 42
-0.014006
 10
8.341252
 20
33.4644
 42
-0.010136
 10
8.489677
 20
33.701615
 42
-0.010252
 10
8.639976
 20
33.921365
 42
-0.021895
 10
8.76673
 20
34.083289
 42
-0.025809
 10
8.904875
 20
34.228767
 42
-0.013591
 10
9.090225
 20
34.395462
 42
-0.013487
 10
9.289782
 20
34.556277
 42
-0.020206
 10
9.473078
 20
34.684638
 10
9.8982
 20
34.957438
 10
9.8982
 20
36.890438
 42
-0.003303
 10
9.903948
 20
37.760629
 42
-0.008207
 10
9.922813
 20
38.397236
 42
-0.007707
 10
9.951483
 20
38.863181
 42
-0.08789
 10
9.997273
 20
39.040881
 10
10.096347
 20
39.258323
  0
LWPOLYLINE
  5
4FE
330
1D
100
AcDbEntity
  8
0
100
AcDbPolyline
 90
       74
 70
     1
 43
0.0
 10
34.638864
 20
39.1698
 42
-0.109229
 10
34.68967
 20
39.158567
 42
-0.035197
 10
34.757554
 20
39.120991
 42
-0.033182
 10
34.829422
 20
39.067228
 42
-0.031669
 10
34.894748
 20
39.00364
 42
0.055225
 10
34.977831
 20
38.930049
 42
0.02025
 10
35.109736
 20
38.844744
 42
0.019785
 10
35.262647
 20
38.762396
 42
0.02241
 10
35.41546
 20
38.696047
 10
35.7858
 20
38.554613
 10
35.7858
 20
37.085606
 10
35.7858
 20
35.6166
 10
35.38395
 20
35.615305
 42
0.017814
 10
35.220887
 20
35.608967
 42
0.01937
 10
35.063215
 20
35.59104
 42
0.019245
 10
34.930134
 20
35.565388
 42
0.083922
 10
34.856385
 20
35.534522
 42
0.13631
 10
34.80763
 20
35.4807
 42
0.219582
 10
34.805638
 20
35.419963
 42
0.086863
 10
34.859779
 20
35.336017
 42
0.012644
 10
35.001922
 20
35.189836
 42
-0.034409
 10
35.122489
 20
35.054539
 42
-0.015537
 10
35.262174
 20
34.862163
 42
-0.015298
 10
35.397621
 20
34.649145
 42
-0.020192
 10
35.506978
 20
34.44676
 42
-0.027657
 10
35.64193
 20
34.127313
 42
-0.052718
 10
35.707877
 20
33.856751
 42
-0.029432
 10
35.735368
 20
33.490359
 42
-0.003743
 10
35.742141
 20
32.698891
 10
35.7435
 20
31.4289
 10
35.0667
 20
31.4289
 10
34.3899
 20
31.4289
 10
34.3476
 20
32.575304
 42
0.005002
 10
34.318718
 20
33.190874
 42
0.022388
 10
34.282085
 20
33.550002
 42
0.038817
 10
34.227543
 20
33.789383
 42
0.069782
 10
34.141734
 20
33.971204
 42
0.008081
 10
34.072492
 20
34.073189
 42
0.007981
 10
33.999709
 20
34.173311
 42
0.007881
 10
33.933227
 20
34.258919
 42
0.030231
 10
33.887934
 20
34.308873
 42
0.05325
 10
33.836524
 20
34.349389
 42
0.015618
 10
33.749652
 20
34.400267
 42
0.015496
 10
33.647684
 20
34.451754
 42
0.016053
 10
33.5439
 20
34.496184
 42
0.024374
 10
33.425375
 20
34.535942
 42
0.013574
 10
33.277674
 20
34.573306
 42
0.013514
 10
33.125834
 20
34.603074
 42
0.021267
 10
32.994
 20
34.619511
 42
-0.020665
 10
32.82704
 20
34.640123
 42
-0.139312
 10
32.752381
 20
34.675362
 42
-0.197673
 10
32.721119
 20
34.738045
 42
-0.048937
 10
32.724104
 20
34.8552
 42
-0.044498
 10
32.747844
 20
34.965386
 42
-0.012025
 10
32.804964
 20
35.134799
 42
-0.012075
 10
32.879394
 20
35.324783
 42
-0.012251
 10
32.962574
 20
35.510027
 42
-0.024593
 10
33.067128
 20
35.703375
 42
-0.015571
 10
33.20675
 20
35.918337
 42
-0.015635
 10
33.357455
 20
36.12141
 42
-0.02768
 10
33.495736
 20
36.277474
 42
-0.021014
 10
33.638058
 20
36.409629
 42
-0.017277
 10
33.800355
 20
36.538686
 42
-0.01762
 10
33.957885
 20
36.646925
 42
-0.043548
 10
34.082116
 20
36.71156
 10
34.3476
 20
36.821527
 10
34.3476
 20
37.729239
 42
-0.009283
 10
34.354415
 20
38.096294
 42
-0.010452
 10
34.374882
 20
38.448573
 42
-0.009782
 10
34.404355
 20
38.746813
 42
-0.054394
 10
34.440476
 20
38.903376
 42
-0.03305
 10
34.483778
 20
39.005367
 42
-0.043146
 10
34.537064
 20
39.091538
 42
-0.049422
 10
34.591944
 20
39.151785
 42
-0.185384
  0
LWPOLYLINE
  5
54A
330
1D
100
AcDbEntity
  8
0
100
AcDbPolyline
 90
      104
 70
     1
 43
0.0
 10
8.318937
 20
36.005011
 42
-0.011282
 10
8.4464
 20
35.988024
 42
-0.015066
 10
8.561136
 20
35.966532
 42
-0.012248
 10
8.654615
 20
35.943675
 42
-0.131017
 10
8.688132
 20
35.924268
 42
-0.284741
 10
8.695317
 20
35.893662
 42
-0.033199
 10
8.667348
 20
35.825729
 42
-0.031882
 10
8.619521
 20
35.742331
 42
-0.020525
 10
8.554245
 20
35.651946
 42
0.045932
 10
8.485756
 20
35.546196
 42
0.032071
 10
8.427936
 20
35.416301
 42
0.032474
 10
8.388312
 20
35.283399
 42
0.056267
 10
8.3754
 20
35.169026
 42
0.062996
 10
8.390425
 20
35.050243
 42
0.03185
 10
8.437288
 20
34.906587
 42
0.030795
 10
8.506019
 20
34.760813
 42
0.037381
 10
8.588392
 20
34.634223
 10
8.801385
 20
34.354976
 10
8.461856
 20
33.907138
 42
0.009878
 10
8.331782
 20
33.72834
 42
0.013397
 10
8.221958
 20
33.561584
 42
0.010321
 10
8.137864
 20
33.419677
 42
0.128364
 10
8.121964
 20
33.359663
 42
-0.289392
 10
8.095025
 20
33.31736
 42
-0.077154
 10
8.014805
 20
33.293739
 42
-0.042648
 10
7.880177
 20
33.287392
 42
-0.013177
 10
7.67745
 20
33.300485
 42
0.019683
 10
7.490266
 20
33.31013
 42
0.026978
 10
7.321776
 20
33.30308
 42
0.029543
 10
7.185474
 20
33.281805
 42
0.10799
 10
7.1064
 20
33.245631
 42
0.032775
 10
7.052193
 20
33.199065
 42
0.15102
 10
7.032733
 20
33.163083
 42
0.255345
 10
7.041924
 20
33.133786
 42
0.094693
 10
7.079347
 20
33.109377
 42
-0.05269
 10
7.142206
 20
33.075491
 42
-0.00343
 10
7.312557
 20
32.957301
 42
-0.004961
 10
7.513622
 20
32.812742
 42
-0.003679
 10
7.73304
 20
32.649163
 42
-0.017413
 10
7.976154
 20
32.451437
 42
-0.010622
 10
8.249727
 20
32.202209
 42
-0.010641
 10
8.510645
 20
31.943373
 42
-0.018514
 10
8.714231
 20
31.716384
 10
9.141576
 20
31.202877
 10
8.876924
 20
30.901454
 42
-0.01034
 10
8.756758
 20
30.770171
 42
-0.006897
 10
8.614007
 20
30.62462
 42
-0.006945
 10
8.471594
 20
30.487236
 42
-0.013509
 10
8.353526
 20
30.382312
 42
-0.009744
 10
8.190885
 20
30.250785
 42
-0.12149
 10
8.118978
 20
30.218783
 42
-0.254158
 10
8.064628
 20
30.236844
 42
-0.053736
 10
8.00244
 20
30.319534
 42
0.019861
 10
7.947025
 20
30.404642
 42
0.003965
 10
7.840964
 20
30.551704
 42
0.004188
 10
7.714631
 20
30.720987
 42
0.003893
 10
7.582401
 20
30.892322
 42
0.026269
 10
7.42549
 20
31.072098
 42
0.016198
 10
7.223564
 20
31.267228
 42
0.016232
 10
7.010847
 20
31.447649
 42
0.02785
 10
6.821001
 20
31.581835
 42
0.003598
 10
6.639341
 20
31.693814
 42
0.003374
 10
6.452159
 20
31.805624
 42
0.003358
 10
6.284756
 20
31.902586
 42
0.011577
 10
6.174395
 20
31.962179
 42
0.026746
 10
6.064065
 20
32.011251
 42
0.009278
 10
5.900188
 20
32.070414
 42
0.009186
 10
5.716919
 20
32.129026
 42
0.010558
 10
5.539895
 20
32.178027
 42
-0.01789
 10
5.326664
 20
32.240431
 42
-0.065068
 10
5.199869
 20
32.301749
 42
-0.105985
 10
5.127108
 20
32.375413
 42
-0.10621
 10
5.091007
 20
32.472374
 42
-0.064439
 10
5.089409
 20
32.571659
 42
-0.017448
 10
5.112564
 20
32.727504
 42
-0.017359
 10
5.151518
 20
32.904101
 42
-0.017217
 10
5.20272
 20
33.078058
 42
-0.038071
 10
5.284907
 20
33.274203
 42
-0.020778
 10
5.413368
 20
33.501485
 42
-0.020143
 10
5.568629
 20
33.730255
 42
-0.023944
 10
5.733617
 20
33.932442
 42
-0.024098
 10
5.910784
 20
34.111354
 42
-0.019417
 10
6.117215
 20
34.286391
 42
-0.019864
 10
6.32155
 20
34.433733
 42
-0.045044
 10
6.489054
 20
34.524153
 42
0.021388
 10
6.671152
 20
34.611607
 42
0.072115
 10
6.777257
 20
34.6897
 42
0.108321
 10
6.833057
 20
34.775515
 42
0.090429
 10
6.8526
 20
34.882688
 42
-0.073892
 10
6.867496
 20
34.982936
 42
-0.024837
 10
6.917606
 20
35.122505
 42
-0.024088
 10
6.989196
 20
35.27358
 42
-0.025343
 10
7.073897
 20
35.414444
 42
-0.001311
 10
7.16059
 20
35.542624
 42
-0.001899
 10
7.237887
 20
35.655345
 42
-0.000962
 10
7.304018
 20
35.750611
 42
-0.031737
 10
7.321402
 20
35.772455
 42
-0.104705
 10
7.34309
 20
35.788152
 42
-0.003995
 10
7.434953
 20
35.828064
 42
-0.007017
 10
7.54529
 20
35.873141
 42
-0.004871
 10
7.671155
 20
35.921103
 42
-0.03446
 10
7.818629
 20
35.964379
 42
-0.021936
 10
7.994903
 20
35.995124
 42
-0.022021
 10
8.171339
 20
36.010118
 42
-0.037684
  0
LWPOLYLINE
  5
5B4
330
1D
100
AcDbEntity
  8
0
100
AcDbPolyline
 90
      104
 70
     1
 43
0.0
 10
39.610384
 20
36.013805
 42
-0.032754
 10
39.803373
 20
35.984863
 42
-0.036279
 10
39.98425
 20
35.931504
 42
-0.036881
 10
40.152869
 20
35.853534
 42
-0.036204
 10
40.309308
 20
35.751213
 42
-0.035898
 10
40.433642
 20
35.64142
 42
-0.024658
 10
40.558626
 20
35.500732
 42
-0.024933
 10
40.666039
 20
35.35254
 42
-0.045421
 10
40.735874
 20
35.22052
 42
-0.014925
 10
40.784077
 20
35.094727
 42
-0.014822
 10
40.824809
 20
34.965993
 42
-0.014835
 10
40.853698
 20
34.851488
 42
-0.054419
 10
40.8618
 20
34.777263
 42
0.153847
 10
40.88249
 20
34.711613
 42
0.067585
 10
40.94499
 20
34.643924
 42
0.053078
 10
41.042034
 20
34.579758
 42
0.032807
 10
41.167441
 20
34.524869
 42
-0.049411
 10
41.31251
 20
34.455558
 42
-0.018417
 10
41.501496
 20
34.331392
 42
-0.018038
 10
41.698976
 20
34.179957
 42
-0.020818
 10
41.875451
 20
34.021424
 42
-0.024821
 10
42.06629
 20
33.815601
 42
-0.029237
 10
42.224883
 20
33.602394
 42
-0.029723
 10
42.355394
 20
33.37533
 42
-0.027334
 10
42.462159
 20
33.128053
 42
-0.013948
 10
42.53088
 20
32.924125
 42
-0.015868
 10
42.584947
 20
32.725218
 42
-0.015172
 10
42.620148
 20
32.554488
 42
-0.080611
 10
42.6213
 20
32.459458
 42
-0.142009
 10
42.580923
 20
32.371626
 42
-0.083323
 10
42.49114
 20
32.297297
 42
-0.049383
 10
42.337326
 20
32.227394
 42
-0.014399
 10
42.0885
 20
32.150674
 42
0.011183
 10
41.873164
 20
32.085794
 42
0.009143
 10
41.645857
 20
32.007096
 42
0.00926
 10
41.439353
 20
31.926976
 42
0.023882
 10
41.294429
 20
31.859388
 42
-0.02126
 10
41.131888
 20
31.782545
 42
-0.079457
 10
41.02246
 20
31.755705
 42
-0.099326
 10
40.92337
 20
31.767257
 42
-0.044364
 10
40.802033
 20
31.818948
 42
-0.04175
 10
40.703203
 20
31.882973
 42
-0.014362
 10
40.571366
 20
31.991125
 42
-0.014158
 10
40.43215
 20
32.119282
 42
-0.015929
 10
40.305954
 20
32.250322
 42
-0.01143
 10
40.194817
 20
32.379137
 42
-0.015576
 10
40.101033
 20
32.500516
 42
-0.012388
 10
40.029633
 20
32.604452
 42
-0.145297
 10
40.0158
 20
32.651049
 42
-0.203703
 10
40.033553
 20
32.692816
 42
-0.019362
 10
40.118196
 20
32.7683
 42
-0.022267
 10
40.230851
 20
32.853058
 42
-0.015695
 10
40.364382
 20
32.938479
 42
0.006763
 10
40.580168
 20
33.071147
 42
0.120539
 10
40.636308
 20
33.129497
 42
0.361702
 10
40.627986
 20
33.178585
 42
0.054389
 10
40.539144
 20
33.239374
 42
0.044253
 10
40.455467
 20
33.275043
 42
0.023299
 10
40.346408
 20
33.304981
 42
0.022993
 10
40.231026
 20
33.325422
 42
0.032685
 10
40.127112
 20
33.332084
 42
0.056046
 10
40.014834
 20
33.319308
 42
0.025221
 10
39.871895
 20
33.278869
 42
0.024588
 10
39.723636
 20
33.220457
 42
0.030689
 10
39.5928
 20
33.15137
 42
0.033117
 10
39.444068
 20
33.046664
 42
0.009462
 10
39.227882
 20
32.865115
 42
0.009482
 10
38.991105
 20
32.650468
 42
0.00993
 10
38.766325
 20
32.43021
 10
38.235951
 20
31.889446
 10
37.074325
 20
31.912973
 10
35.9127
 20
31.9365
 10
35.88606
 20
32.359274
 42
-0.01382
 10
35.879634
 20
32.541293
 42
-0.010859
 10
35.88241
 20
32.738691
 42
-0.011012
 10
35.893029
 20
32.922203
 42
-0.026411
 10
35.911044
 20
33.057224
 10
35.962667
 20
33.3324
 10
36.79774
 20
33.3324
 10
37.632812
 20
33.3324
 10
37.999456
 20
33.675839
 42
-0.007081
 10
38.16546
 20
33.826981
 42
-0.004559
 10
38.361944
 20
33.997679
 42
-0.004581
 10
38.557258
 20
34.161194
 42
-0.008591
 10
38.718595
 20
34.289189
 42
0.020072
 10
38.864041
 20
34.410119
 42
0.016472
 10
39.00957
 20
34.550306
 42
0.016786
 10
39.134851
 20
34.68818
 42
0.041629
 10
39.214155
 20
34.799075
 42
0.041906
 10
39.273322
 20
34.920371
 42
0.047895
 10
39.308281
 20
35.044583
 42
0.048601
 10
39.318655
 20
35.171573
 42
0.045477
 10
39.304805
 20
35.301124
 42
0.034591
 10
39.274233
 20
35.413089
 42
0.025092
 10
39.225581
 20
35.532851
 42
0.025514
 10
39.167574
 20
35.642376
 42
0.04941
 10
39.108709
 20
35.721964
 42
-0.021033
 10
39.032792
 20
35.813293
 42
-0.143057
 10
39.011955
 20
35.867455
 42
-0.214003
 10
39.027856
 20
35.91261
 42
-0.05455
 10
39.088564
 20
35.963909
 42
-0.100943
 10
39.161485
 20
35.994002
 42
-0.023718
 10
39.292807
 20
36.012877
 42
-0.023487
 10
39.448847
 20
36.02043
 42
-0.021195
  0
LWPOLYLINE
  5
61E
330
1D
100
AcDbEntity
  8
0
100
AcDbPolyline
 90
      132
 70
     1
 43
0.0
 10
23.909486
 20
35.2782
 42
-0.249871
 10
23.921507
 20
35.271792
 42
-0.162122
 10
23.925803
 20
35.256264
 42
-0.08599
 10
23.92034
 20
35.232184
 42
-0.039754
 10
23.905635
 20
35.203526
 42
0.180846
 10
23.895286
 20
35.15134
 42
0.013195
 10
23.923195
 20
35.005008
 42
0.017083
 10
23.968174
 20
34.828131
 42
0.012048
 10
24.030225
 20
34.632584
 42
0.015557
 10
24.111664
 20
34.417835
 42
0.01111
 10
24.215508
 20
34.182658
 42
0.011234
 10
24.324616
 20
33.96271
 42
0.023469
 10
24.421211
 20
33.797808
 42
0.021469
 10
24.529535
 20
33.645994
 42
0.01161
 10
24.674949
 20
33.468328
 42
0.011546
 10
24.831678
 20
33.293973
 42
0.017836
 10
24.975721
 20
33.151526
 42
0.020911
 10
25.135153
 20
33.016597
 42
0.011576
 10
25.340122
 20
32.864822
 42
0.011527
 10
25.555249
 20
32.720416
 42
0.018186
 10
25.746843
 20
32.607706
 42
-0.016678
 10
25.943452
 20
32.492842
 42
-0.009376
 10
26.174656
 20
32.341085
 42
-0.009349
 10
26.402603
 20
32.178939
 42
-0.015069
 10
26.589769
 20
32.031529
 42
-0.024583
 10
26.769332
 20
31.865447
 42
-0.013259
 10
26.974491
 20
31.644653
 42
-0.013177
 10
27.172062
 20
31.408096
 42
-0.020181
 10
27.329235
 20
31.192134
 42
-0.02239
 10
27.469519
 20
30.960211
 42
-0.013541
 10
27.615539
 20
30.674269
 42
-0.013555
 10
27.745397
 20
30.381875
 42
-0.023099
 10
27.835714
 20
30.130284
 42
0.024979
 10
27.954769
 20
29.802519
 42
0.047265
 10
28.087626
 20
29.55512
 42
0.037146
 10
28.285297
 20
29.301231
 42
0.01026
 10
28.632521
 20
28.9332
 42
-0.012466
 10
28.896462
 20
28.650958
 42
-0.009288
 10
29.173892
 20
28.327141
 42
-0.009401
 10
29.424178
 20
28.011887
 42
-0.020975
 10
29.599617
 20
27.761019
 42
-0.017092
 10
29.749573
 20
27.507504
 42
-0.009287
 10
29.917177
 20
27.186663
 42
-0.009243
 10
30.075745
 20
26.853602
 42
-0.014448
 10
30.19849
 20
26.560805
 42
-0.018543
 10
30.3061
 20
26.247645
 42
-0.00958
 10
30.418461
 20
25.849023
 42
-0.00951
 10
30.518458
 20
25.434238
 42
-0.01422
 10
30.588539
 20
25.068086
 42
-0.011436
 10
30.643088
 20
24.674753
 42
-0.014682
 10
30.674306
 20
24.310816
 42
-0.016181
 10
30.682155
 20
23.98179
 42
-0.024118
 10
30.665832
 20
23.694407
 42
-0.005127
 10
30.640814
 20
23.478227
 42
-0.006412
 10
30.612973
 20
23.278196
 42
-0.005256
 10
30.58575
 20
23.111233
 42
-0.048605
 10
30.56629
 20
23.040722
 42
-0.468422
 10
30.525785
 20
23.026927
 42
-0.051977
 10
30.43691
 20
23.094734
 42
-0.032201
 10
30.314303
 20
23.226129
 42
-0.012963
 10
30.163604
 20
23.420099
 42
0.019048
 10
29.986915
 20
23.641899
 42
0.009822
 10
29.750129
 20
23.906269
 42
0.009749
 10
29.495591
 20
24.169004
 42
0.014544
 10
29.262123
 20
24.387664
 42
-0.01219
 10
28.963707
 20
24.664528
 42
-0.046056
 10
28.798458
 20
24.858182
 42
-0.061144
 10
28.695991
 20
25.049258
 42
-0.034234
 10
28.617538
 20
25.30139
 42
0.017171
 10
28.562565
 20
25.501924
 42
0.009074
 10
28.481389
 20
25.746841
 42
0.009019
 10
28.389147
 20
25.99473
 42
0.013767
 10
28.299399
 20
26.205943
 42
-0.006313
 10
28.219012
 20
26.387556
 42
-0.010109
 10
28.155519
 20
26.544754
 42
-0.00428
 10
28.105959
 20
26.678411
 42
-0.290785
 10
28.110996
 20
26.700996
 42
-0.278063
 10
28.131545
 20
26.706089
 42
-0.013719
 10
28.200425
 20
26.682736
 42
-0.01889
 10
28.284195
 20
26.648096
 42
-0.012177
 10
28.3786
 20
26.602
 42
0.012314
 10
28.473026
 20
26.555926
 42
0.019086
 10
28.556862
 20
26.521351
 42
0.013976
 10
28.62576
 20
26.498133
 42
0.277428
 10
28.6465
 20
26.5033
 42
0.277175
 10
28.651673
 20
26.524024
 42
0.014079
 10
28.628612
 20
26.592624
 42
0.019164
 10
28.594216
 20
26.676115
 42
0.012369
 10
28.548354
 20
26.770132
 42
0.029441
 10
28.473017
 20
26.896544
 42
0.007039
 10
28.332797
 20
27.097004
 42
0.00721
 10
28.164935
 20
27.322985
 42
0.007079
 10
27.989613
 20
27.545437
 42
0.018547
 10
27.787417
 20
27.776573
 42
0.012013
 10
27.537564
 20
28.029228
 42
0.01208
 10
27.281234
 20
28.264593
 42
0.022307
 10
27.060266
 20
28.441107
 42
-0.012143
 10
26.822579
 20
28.623189
 42
-0.04356
 10
26.684777
 20
28.755493
 42
-0.076562
 10
26.617692
 20
28.861116
 42
-0.182064
 10
26.612853
 20
28.952586
 42
0.091977
 10
26.623511
 20
29.038175
 42
0.019175
 10
26.608659
 20
29.189417
 42
0.01952
 10
26.577364
 20
29.366136
 42
0.017351
 10
26.531362
 20
29.547047
 42
0.022271
 10
26.463802
 20
29.745426
 42
0.013175
 10
26.366601
 20
29.975894
 42
0.013169
 10
26.257237
 20
30.201253
 42
0.021985
 10
26.152121
 20
30.383949
 42
0.040424
 10
26.00812
 20
30.574608
 42
0.017281
 10
25.787371
 20
30.805827
 42
0.016364
 10
25.523729
 20
31.047173
 42
0.01604
 10
25.243142
 20
31.272441
 42
-0.016411
 10
24.924162
 20
31.528921
 42
-0.021393
 10
24.65082
 20
31.785007
 42
-0.022646
 10
24.413326
 20
32.050431
 42
-0.02302
 10
24.202183
 20
32.334847
 42
0.010406
 10
24.027061
 20
32.583611
 42
0.034161
 10
23.897308
 20
32.736883
 42
0.06246
 10
23.804237
 20
32.811418
 42
0.399734
 10
23.750472
 20
32.799955
 42
-0.709678
 10
23.723795
 20
32.80716
 42
-0.007771
 10
23.708438
 20
33.075796
 42
-0.010266
 10
23.700884
 20
33.434941
 42
-0.005367
 10
23.705462
 20
33.8823
 42
-0.005204
 10
23.719947
 20
34.343789
 42
-0.007598
 10
23.743109
 20
34.749847
 42
-0.004155
 10
23.770605
 20
35.090729
 42
-0.122005
 10
23.798743
 20
35.17245
 42
-0.026095
 10
23.828049
 20
35.212934
 42
-0.032433
 10
23.859506
 20
35.247136
 42
-0.034142
 10
23.888785
 20
35.271503
 42
-0.157745
  0
LWPOLYLINE
  5
6A4
330
1D
100
AcDbEntity
  8
0
100
AcDbPolyline
 90
       68
 70
     1
 43
0.0
 10
12.112966
 20
33.3324
 42
-0.001905
 10
13.303067
 20
33.327867
 42
-0.021497
 10
13.774192
 20
33.304005
 42
-0.051609
 10
14.078306
 20
33.243396
 42
-0.042319
 10
14.385605
 20
33.119073
 42
-0.032085
 10
14.571224
 20
33.009524
 42
-0.024565
 10
14.759379
 20
32.867542
 42
-0.024865
 10
14.929329
 20
32.710709
 42
-0.037239
 10
15.059593
 20
32.55648
 42
-0.014738
 10
15.156463
 20
32.414103
 42
-0.017938
 10
15.238279
 20
32.275133
 42
-0.016675
 10
15.298247
 20
32.154965
 42
-0.107796
 10
15.3126
 20
32.089161
 42
0.115437
 10
15.326539
 20
32.029591
 42
0.02876
 10
15.376342
 20
31.942045
 42
0.027856
 10
15.446536
 20
31.845857
 42
0.024825
 10
15.529592
 20
31.754117
 10
15.746585
 20
31.537124
 10
15.570664
 20
31.413904
 42
0.054988
 10
15.495144
 20
31.347551
 42
0.026447
 10
15.41327
 20
31.247776
 42
0.025847
 10
15.337991
 20
31.133527
 42
0.033535
 10
15.281892
 20
31.021392
 42
-0.028768
 10
15.221503
 20
30.897756
 42
-0.013978
 10
15.131112
 20
30.746902
 42
-0.013814
 10
15.027978
 20
30.594656
 42
-0.019367
 10
14.92707
 20
30.465112
 42
-0.034525
 10
14.809642
 20
30.343894
 42
-0.020994
 10
14.655745
 20
30.216806
 42
-0.020993
 10
14.491722
 20
30.103064
 42
-0.034505
 10
14.3432
 20
30.02282
 42
-0.025504
 10
14.191925
 20
29.963208
 42
-0.019059
 10
14.019961
 20
29.912591
 42
-0.01938
 10
13.853897
 20
29.8773
 42
-0.041015
 10
13.722929
 20
29.865658
 10
13.444557
 20
29.8638
 10
13.469129
 20
30.56175
 42
-0.005557
 10
13.488707
 20
30.984275
 42
-0.056533
 10
13.518431
 20
31.157056
 42
-0.159216
 10
13.576977
 20
31.242799
 42
-0.129368
 10
13.68005
 20
31.28621
 42
0.075636
 10
13.755279
 20
31.308847
 42
0.059643
 10
13.827314
 20
31.354253
 42
0.060578
 10
13.885462
 20
31.414434
 42
0.085175
 10
13.91969
 20
31.48062
 42
0.066412
 10
13.932614
 20
31.553844
 42
0.051234
 10
13.927722
 20
31.634869
 42
0.052307
 10
13.90685
 20
31.711114
 42
0.080423
 10
13.872201
 20
31.76995
 42
0.191529
 10
13.750046
 20
31.83662
 42
0.014446
 10
13.367005
 20
31.87205
 42
0.011205
 10
12.7494
 20
31.897347
 42
0.002032
 10
11.602161
 20
31.91394
 42
-0.00113
 10
10.196827
 20
31.931733
 42
-0.01859
 10
9.727795
 20
31.95619
 42
-0.071925
 10
9.516531
 20
32.006297
 42
-0.351581
 10
9.45986
 20
32.1057
 42
-0.041209
 10
9.481041
 20
32.192108
 42
-0.012269
 10
9.527322
 20
32.31997
 42
-0.012217
 10
9.586577
 20
32.461596
 42
-0.012913
 10
9.651657
 20
32.59753
 42
-0.023742
 10
9.730971
 20
32.736116
 42
-0.01621
 10
9.833404
 20
32.885935
 42
-0.016367
 10
9.941833
 20
33.024253
 42
-0.031461
 10
10.0389
 20
33.12628
 42
-0.090646
 10
10.229601
 20
33.247604
 42
-0.071813
 10
10.467174
 20
33.306355
 42
-0.023234
 10
10.890702
 20
33.328651
 42
-0.001534
  0
LWPOLYLINE
  5
6EA
330
1D
100
AcDbEntity
  8
0
100
AcDbPolyline
 90
       68
 70
     1
 43
0.0
 10
33.98805
 20
33.322586
 42
-0.054406
 10
34.076144
 20
33.317542
 42
-0.130362
 10
34.135285
 20
33.290765
 42
-0.143582
 10
34.169941
 20
33.240235
 42
-0.071759
 10
34.183376
 20
33.1632
 42
-0.003124
 10
34.185604
 20
33.067019
 42
-0.000596
 10
34.188353
 20
32.892131
 42
-0.000636
 10
34.191059
 20
32.687967
 42
-0.000585
 10
34.193329
 20
32.478013
 42
-0.010631
 10
34.189857
 20
32.179106
 42
-0.06867
 10
34.164393
 20
32.030771
 42
-0.126903
 10
34.106221
 20
31.937901
 42
-0.074201
 10
33.998003
 20
31.862165
 42
0.059711
 10
33.912345
 20
31.805828
 42
0.073737
 10
33.849225
 20
31.734228
 42
0.075868
 10
33.810839
 20
31.649161
 42
0.068216
 10
33.7977
 20
31.553302
 10
33.7977
 20
31.3443
 10
36.01845
 20
31.321745
 42
-0.001613
 10
37.269579
 20
31.305001
 42
-0.012795
 10
37.847994
 20
31.280578
 42
-0.020433
 10
38.17563
 20
31.244841
 42
-0.371072
 10
38.2392
 20
31.170978
 42
-0.058609
 10
38.231063
 20
31.101795
 42
-0.013475
 10
38.200664
 20
30.988034
 42
-0.013745
 10
38.158231
 20
30.858055
 42
-0.013028
 10
38.108012
 20
30.728233
 42
-0.031941
 10
38.038671
 20
30.587926
 42
-0.017546
 10
37.937192
 20
30.425327
 42
-0.017429
 10
37.822198
 20
30.266912
 42
-0.026583
 10
37.710717
 20
30.13875
 10
37.444609
 20
29.8638
 10
35.63097
 20
29.8638
 42
-0.004052
 10
34.849093
 20
29.870137
 42
-0.007418
 10
34.211927
 20
29.889925
 42
-0.007193
 10
33.718636
 20
29.91969
 42
-0.054163
 10
33.489093
 20
29.962142
 42
-0.043771
 10
33.341573
 20
30.020821
 42
-0.022599
 10
33.168249
 20
30.118058
 42
-0.022281
 10
32.997808
 20
30.234914
 42
-0.031316
 10
32.857786
 20
30.354822
 42
-0.029048
 10
32.730439
 20
30.49375
 42
-0.018519
 10
32.598291
 20
30.668734
 42
-0.018602
 10
32.481064
 20
30.850587
 42
-0.032619
 10
32.399985
 20
31.010135
 42
0.0241
 10
32.329398
 20
31.155093
 42
0.024288
 10
32.245357
 20
31.292198
 42
0.024981
 10
32.160652
 20
31.403986
 42
0.083545
 10
32.090876
 20
31.463444
 42
-0.025521
 10
32.000466
 20
31.523984
 42
-0.252812
 10
31.981877
 20
31.564043
 42
-0.183928
 10
32.002575
 20
31.609828
 42
-0.013221
 10
32.1057
 20
31.707062
 42
0.051322
 10
32.186057
 20
31.795302
 42
0.014129
 10
32.293441
 20
31.949643
 42
0.01412
 10
32.405853
 20
32.132428
 42
0.01432
 10
32.507217
 20
32.320424
 42
-0.02531
 10
32.63395
 20
32.543592
 42
-0.036204
 10
32.76975
 20
32.726193
 42
-0.038804
 10
32.922369
 20
32.877595
 42
-0.036607
 10
33.099417
 20
33.006858
 42
-0.01156
 10
33.249611
 20
33.095738
 42
-0.01167
 10
33.403287
 20
33.17729
 42
-0.011537
 10
33.540266
 20
33.242024
 42
-0.045508
 10
33.6285
 20
33.271995
 42
-0.015599
 10
33.706994
 20
33.28834
 42
-0.008578
 10
33.803913
 20
33.303677
 42
-0.008544
 10
33.902871
 20
33.315881
 42
-0.013527
  0
LWPOLYLINE
  5
730
330
1D
100
AcDbEntity
  8
0
100
AcDbPolyline
 90
       94
 70
     1
 43
0.0
 10
39.7197
 20
32.768025
 42
0.015524
 10
39.811442
 20
32.649316
 42
0.004695
 10
39.957907
 20
32.474856
 42
0.004698
 10
40.125891
 20
32.282231
 42
0.005097
 10
40.293017
 20
32.098003
 42
0.024613
 10
40.482917
 20
31.912151
 42
0.015668
 10
40.720653
 20
31.714306
 42
0.015738
 10
40.966675
 20
31.534451
 42
0.028011
 10
41.181317
 20
31.404683
 42
0.015485
 10
41.402679
 20
31.295889
 42
0.009579
 10
41.668932
 20
31.181217
 42
0.009605
 10
41.936528
 20
31.077945
 42
0.017019
 10
42.161365
 20
31.004664
 10
42.65723
 20
30.86152
 10
42.601249
 20
30.511435
 42
-0.026913
 10
42.566592
 20
30.350709
 42
-0.014174
 10
42.507285
 20
30.155206
 42
-0.014062
 10
42.43504
 20
29.957905
 42
-0.021018
 10
42.359982
 20
29.79035
 42
-0.033865
 10
42.263058
 20
29.625264
 42
-0.018085
 10
42.12266
 20
29.434618
 42
-0.017926
 10
41.964584
 20
29.249505
 42
-0.026603
 10
41.812266
 20
29.100327
 42
-0.015245
 10
41.65276
 20
28.968332
 42
-0.012141
 10
41.473106
 20
28.835538
 42
-0.012323
 10
41.30054
 20
28.720594
 42
-0.029982
 10
41.166624
 20
28.64691
 42
0.040238
 10
41.039303
 20
28.573418
 42
0.057958
 10
40.941567
 20
28.487746
 42
0.064198
 10
40.873332
 20
28.389503
 42
0.067325
 10
40.83359
 20
28.278709
 42
-0.03417
 10
40.802406
 20
28.169552
 42
-0.015887
 10
40.747962
 20
28.032588
 42
-0.015655
 10
40.681457
 20
27.891844
 42
-0.021066
 10
40.612057
 20
27.769177
 42
-0.036033
 10
40.526322
 20
27.651349
 42
-0.022098
 10
40.409793
 20
27.525065
 42
-0.022107
 10
40.282708
 20
27.409687
 42
-0.036371
 10
40.164623
 20
27.325343
 42
-0.043653
 10
40.023384
 20
27.255318
 42
-0.031924
 10
39.856562
 20
27.202027
 42
-0.030565
 10
39.67565
 20
27.16831
 42
-0.030598
 10
39.492043
 20
27.156916
 42
-0.019415
 10
39.336319
 20
27.162841
 42
-0.026303
 10
39.196733
 20
27.181012
 42
-0.025298
 10
39.086409
 20
27.207149
 42
-0.185591
 10
39.04402
 20
27.239388
 42
-0.196436
 10
39.036006
 20
27.287329
 42
-0.039918
 10
39.062165
 20
27.371274
 42
-0.036551
 10
39.110628
 20
27.470347
 42
-0.027162
 10
39.177638
 20
27.572108
 42
0.033789
 10
39.264536
 20
27.707953
 42
0.065395
 10
39.311199
 20
27.827932
 42
0.068637
 10
39.324052
 20
27.951957
 42
0.040923
 10
39.306908
 20
28.09961
 42
0.046807
 10
39.270234
 20
28.222087
 42
0.027213
 10
39.204962
 20
28.361128
 42
0.027016
 10
39.123673
 20
28.494511
 42
0.04068
 10
39.037815
 20
28.600108
 10
38.824235
 20
28.823037
 10
39.061538
 20
29.07707
 42
0.020014
 10
39.164252
 20
29.196248
 42
0.011983
 10
39.277028
 20
29.345416
 42
0.01199
 10
39.38232
 20
29.499519
 42
0.020359
 10
39.461887
 20
29.633862
 42
-0.023406
 10
39.572166
 20
29.817502
 42
-0.139333
 10
39.656392
 20
29.889358
 42
-0.121418
 10
39.771412
 20
29.911213
 42
-0.016003
 10
40.020688
 20
29.889751
 42
0.021877
 10
40.182719
 20
29.877716
 42
0.023069
 10
40.342324
 20
29.880228
 42
0.023485
 10
40.478933
 20
29.895154
 42
0.088836
 10
40.559879
 20
29.923152
 42
0.133773
 10
40.614036
 20
29.976318
 42
0.291314
 10
40.611898
 20
30.032122
 42
0.086985
 10
40.538851
 20
30.106146
 42
0.009256
 10
40.338408
 20
30.243276
 42
-0.008561
 10
40.171768
 20
30.356941
 42
-0.004661
 10
39.970901
 20
30.50188
 42
-0.004643
 10
39.76935
 20
30.653093
 42
-0.007346
 10
39.599743
 20
30.786814
 42
-0.018295
 10
39.433205
 20
30.93256
 42
-0.010164
 10
39.240545
 20
31.121567
 42
-0.010127
 10
39.053042
 20
31.321077
 42
-0.016107
 10
38.901793
 20
31.499947
 42
-0.008712
 10
38.777602
 20
31.662539
 42
-0.012203
 10
38.672832
 20
31.812296
 42
-0.008587
 10
38.591344
 20
31.939742
 42
-0.138808
 10
38.5776
 20
31.988293
 42
-0.176748
 10
38.595234
 20
32.03662
 42
-0.006981
 10
38.720495
 20
32.181258
 42
-0.011607
 10
38.877656
 20
32.349654
 42
-0.007866
 10
39.06405
 20
32.534398
 10
39.5505
 20
33.001602
  0
LWPOLYLINE
  5
790
330
1D
100
AcDbEntity
  8
0
100
AcDbPolyline
 90
      122
 70
     1
 43
0.0
 10
21.862846
 20
32.545091
 42
-0.269209
 10
21.901742
 20
32.501201
 42
-0.014049
 10
21.935072
 20
32.308313
 42
-0.018095
 10
21.962043
 20
32.056784
 42
-0.009784
 10
21.977939
 20
31.745769
 42
-0.006304
 10
21.987207
 20
31.255247
 42
-0.055668
 10
21.964544
 20
31.040073
 42
-0.093724
 10
21.896801
 20
30.881204
 42
-0.032654
 10
21.7446
 20
30.683159
 42
0.025816
 10
21.633269
 20
30.54232
 42
0.014193
 10
21.511198
 20
30.359572
 42
0.014117
 10
21.397558
 20
30.166636
 42
0.021901
 10
21.311743
 20
29.993546
 42
0.025697
 10
21.241139
 20
29.808827
 42
0.014668
 10
21.174099
 20
29.57947
 42
0.014623
 10
21.120036
 20
29.344119
 42
0.023431
 10
21.089304
 20
29.14036
 42
-0.016767
 10
21.059644
 20
28.924228
 42
-0.048285
 10
21.019856
 20
28.778424
 42
-0.075942
 10
20.967362
 20
28.685558
 42
-0.150466
 10
20.898483
 20
28.637825
 42
0.088386
 10
20.81393
 20
28.593413
 42
0.007379
 10
20.619971
 20
28.438254
 42
0.009652
 10
20.393421
 20
28.244009
 42
0.007303
 10
20.152094
 20
28.022464
 42
0.01522
 10
19.898582
 20
27.767768
 42
0.011462
 10
19.635178
 20
27.473261
 42
0.011616
 10
19.400138
 20
27.184711
 42
0.026068
 10
19.238764
 20
26.952932
 42
0.006469
 10
19.08564
 20
26.699288
 42
0.048538
 10
19.026784
 20
26.572031
 42
0.310845
 10
19.039067
 20
26.527045
 42
0.281313
 10
19.087331
 20
26.519601
 42
-0.003049
 10
19.17449
 20
26.555359
 42
-0.000721
 10
19.3204
 20
26.613938
 42
-0.000742
 10
19.488316
 20
26.680783
 42
-0.000731
 10
19.657242
 20
26.747453
 42
-0.015764
 10
19.857183
 20
26.818837
 42
-0.007004
 10
20.124888
 20
26.900881
 42
-0.006925
 10
20.410969
 20
26.97991
 42
-0.009292
 10
20.672442
 20
27.043093
 42
-0.022409
 10
20.982819
 20
27.097555
 42
-0.011026
 10
21.38146
 20
27.14031
 42
-0.010468
 10
21.820512
 20
27.168384
 42
-0.010575
 10
22.258858
 20
27.17793
 42
-0.007265
 10
22.645003
 20
27.172559
 42
-0.009905
 10
22.992737
 20
27.155769
 42
-0.007104
 10
23.28129
 20
27.131978
 42
-0.103804
 10
23.378248
 20
27.101631
 42
-0.338616
 10
23.399539
 20
27.052321
 42
-0.197356
 10
23.35928
 20
26.997692
 42
-0.046961
 10
23.213484
 20
26.92688
 42
-0.007536
 10
22.91522
 20
26.820294
 42
0.02087
 10
22.598356
 20
26.69744
 42
0.033607
 10
22.341452
 20
26.564085
 42
0.033177
 10
22.102441
 20
26.396211
 42
0.019708
 10
21.84023
 20
26.167134
 42
-0.009679
 10
21.651244
 20
25.995228
 42
-0.013695
 10
21.47603
 20
25.850216
 42
-0.009764
 10
21.326152
 20
25.737586
 42
-0.157514
 10
21.266762
 20
25.7184
 42
0.059216
 10
21.202471
 20
25.710759
 42
0.004174
 10
21.026522
 20
25.66678
 42
0.005854
 10
20.817212
 20
25.609979
 42
0.004377
 10
20.587861
 20
25.542672
 42
0.008621
 10
20.337954
 20
25.462221
 42
0.006524
 10
20.066433
 20
25.365643
 42
0.0066
 10
19.813794
 20
25.268239
 42
0.015206
 10
19.6272
 20
25.186785
 42
0.012285
 10
19.45398
 20
25.09954
 42
0.006782
 10
19.2465
 20
24.984922
 42
0.006758
 10
19.0392
 20
24.862963
 42
0.010785
 10
18.8658
 20
24.752583
 42
0.020644
 10
18.688253
 20
24.623205
 42
0.009241
 10
18.465273
 20
24.439363
 42
0.00913
 10
18.236339
 20
24.236035
 42
0.012248
 10
18.036905
 20
24.043044
 42
0.010555
 10
17.848582
 20
23.843393
 42
0.008361
 10
17.653316
 20
23.620028
 42
0.008467
 10
17.479085
 20
23.406641
 42
0.020799
 10
17.360451
 20
23.242624
 10
17.132192
 20
22.897702
 10
17.073271
 20
23.229401
 42
-0.018367
 10
17.050263
 20
23.393776
 42
-0.00725
 10
17.030227
 20
23.621293
 42
-0.007164
 10
17.015654
 20
23.867961
 42
-0.0089
 10
17.009475
 20
24.097711
 42
-0.02311
 10
17.019273
 20
24.361481
 42
-0.009163
 10
17.056078
 20
24.722273
 42
-0.009046
 10
17.11009
 20
25.110945
 42
-0.011216
 10
17.17497
 20
25.470341
 42
-0.014907
 10
17.260766
 20
25.835375
 42
-0.010416
 10
17.378225
 20
26.241574
 42
-0.010519
 10
17.507237
 20
26.62655
 42
-0.021422
 10
17.627659
 20
26.92183
 42
-0.019612
 10
17.771705
 20
27.205906
 42
-0.009701
 10
17.975448
 20
27.555316
 42
-0.009611
 10
18.201107
 20
27.910079
 42
-0.01387
 10
18.415176
 20
28.2141
 42
-0.012317
 10
18.636808
 20
28.496242
 42
-0.010347
 10
18.885023
 20
28.784333
 42
-0.010481
 10
19.122745
 20
29.038062
 42
-0.028161
 10
19.30523
 20
29.204917
 42
0.023405
 10
19.500518
 20
29.380101
 42
0.048938
 10
19.63115
 20
29.536773
 42
0.05362
 10
19.721522
 20
29.706172
 42
0.034079
 10
19.790811
 20
29.918952
 42
-0.018717
 10
19.844767
 20
30.103732
 42
-0.009635
 10
19.925342
 20
30.330931
 42
-0.009563
 10
20.017346
 20
30.561817
 42
-0.014254
 10
20.107345
 20
30.759709
 42
-0.02162
 10
20.214926
 20
30.957306
 42
-0.012119
 10
20.361629
 20
31.188192
 42
-0.012075
 10
20.521431
 20
31.414695
 42
-0.01923
 10
20.66994
 20
31.599464
 42
-0.014662
 10
20.83015
 20
31.77324
 42
-0.00938
 10
21.025787
 20
31.965971
 42
-0.009424
 10
21.224751
 20
32.147755
 42
-0.017336
 10
21.394359
 20
32.286825
 42
-0.015485
 10
21.545629
 20
32.395082
 42
-0.021594
 10
21.687751
 20
32.481633
 42
-0.018793
 10
21.807894
 20
32.542095
 42
-0.189305
  0
LWPOLYLINE
  5
80C
330
1D
100
AcDbEntity
  8
0
100
AcDbPolyline
 90
      118
 70
     1
 43
0.0
 10
24.517755
 20
31.708449
 42
0.007749
 10
24.692925
 20
31.545357
 42
0.005749
 10
24.891289
 20
31.370425
 42
0.005812
 10
25.08238
 20
31.209606
 42
0.013037
 10
25.23195
 20
31.09307
 10
25.5492
 20
30.858918
 10
25.5492
 20
29.735401
 10
25.5492
 20
28.611884
 10
25.884905
 20
28.436905
 42
-0.006527
 10
26.03671
 20
28.355242
 42
-0.003822
 10
26.216446
 20
28.253702
 42
-0.003821
 10
26.394746
 20
28.149347
 42
-0.006483
 10
26.54214
 20
28.058952
 42
-0.031671
 10
26.698191
 20
27.946027
 42
-0.01078
 10
26.91024
 20
27.763285
 42
-0.010669
 10
27.136355
 20
27.550857
 42
-0.012091
 10
27.343735
 20
27.337453
 42
-0.022063
 10
27.549715
 20
27.094281
 42
-0.013421
 10
27.77222
 20
26.790274
 42
-0.013441
 10
27.977054
 20
26.476331
 42
-0.023055
 10
28.128275
 20
26.202859
 42
-0.020222
 10
28.264357
 20
25.896969
 42
-0.016566
 10
28.385391
 20
25.56019
 42
-0.016381
 10
28.485308
 20
25.211573
 42
-0.018349
 10
28.557984
 20
24.870046
 42
-0.013678
 10
28.602325
 20
24.567711
 42
-0.012242
 10
28.632021
 20
24.252014
 42
-0.012378
 10
28.644718
 20
23.967203
 42
-0.037
 10
28.634165
 20
23.7726
 42
-0.007219
 10
28.609128
 20
23.598182
 42
-0.004057
 10
28.573948
 20
23.387072
 42
-0.004047
 10
28.534962
 20
23.174434
 42
-0.006598
 10
28.49805
 20
22.994764
 42
0.021045
 10
28.455469
 20
22.75214
 42
0.085051
 10
28.461162
 20
22.602557
 42
0.080068
 10
28.516477
 20
22.458891
 42
0.017395
 10
28.658535
 20
22.233364
 42
-0.011125
 10
28.773497
 20
22.055829
 42
-0.004996
 10
28.916932
 20
21.817843
 42
-0.004943
 10
29.063555
 20
21.563255
 42
-0.006706
 10
29.190563
 20
21.330343
 42
0.024695
 10
29.333288
 20
21.089627
 42
0.013671
 10
29.5296
 20
20.809891
 42
0.013606
 10
29.744464
 20
20.536708
 42
0.021288
 10
29.945252
 20
20.315143
 42
0.017382
 10
30.154635
 20
20.117239
 42
0.013539
 10
30.395123
 20
19.91657
 42
0.01375
 10
30.629658
 20
19.741653
 42
0.032064
 10
30.816432
 20
19.627345
 42
-0.011915
 10
30.970076
 20
19.541619
 42
-0.017822
 10
31.099616
 20
19.45888
 42
-0.012985
 10
31.200235
 20
19.385516
 42
-0.232778
 10
31.2174
 20
19.350644
 42
-0.405309
 10
31.191965
 20
19.324421
 42
-0.001427
 10
30.714519
 20
19.31122
 42
-0.005965
 10
30.161901
 20
19.304113
 42
-0.003577
 10
29.505463
 20
19.308198
 10
27.793527
 20
19.3311
 10
27.647893
 20
19.881
 42
0.007669
 10
27.585613
 20
20.102386
 42
0.008667
 10
27.518911
 20
20.312857
 42
0.008032
 10
27.456335
 20
20.489586
 42
0.046191
 10
27.413313
 20
20.57895
 42
-0.048074
 10
27.374815
 20
20.659691
 42
-0.311211
 10
27.385576
 20
20.701046
 42
-0.16483
 10
27.438777
 20
20.722671
 42
-0.014841
 10
27.584584
 20
20.727
 42
0.019357
 10
27.732649
 20
20.732734
 42
0.171781
 10
27.791427
 20
20.758818
 42
0.242784
 10
27.809591
 20
20.810736
 42
0.040331
 10
27.785702
 20
20.91735
 42
0.031401
 10
27.751158
 20
21.008069
 42
0.012956
 10
27.693659
 20
21.126338
 42
0.012759
 10
27.625254
 20
21.250386
 42
0.016025
 10
27.555357
 20
21.3615
 42
0.018165
 10
27.466912
 20
21.482834
 42
0.007335
 10
27.337913
 20
21.642068
 42
0.007247
 10
27.193919
 20
21.80958
 42
0.009126
 10
27.055594
 20
21.960226
 10
26.727076
 20
22.305152
 10
26.898388
 20
22.704807
 42
0.021744
 10
26.969892
 20
22.893926
 42
0.011364
 10
27.043185
 20
23.134899
 42
0.011282
 10
27.107272
 20
23.385909
 42
0.016937
 10
27.150749
 20
23.607731
 42
0.021264
 10
27.180072
 20
23.856881
 42
0.019359
 10
27.189367
 20
24.115574
 42
0.019204
 10
27.178614
 20
24.376427
 42
0.020021
 10
27.147885
 20
24.632053
 42
0.018167
 10
27.103247
 20
24.856871
 42
0.013476
 10
27.038301
 20
25.101712
 42
0.013661
 10
26.964357
 20
25.329755
 42
0.029692
 10
26.892667
 20
25.499203
 42
0.001988
 10
26.817773
 20
25.649012
 42
0.001498
 10
26.734308
 20
25.813098
 42
0.001514
 10
26.654922
 20
25.966867
 42
0.003499
 10
26.594131
 20
26.081775
 42
0.056037
 10
26.513978
 20
26.197548
 42
0.01551
 10
26.363275
 20
26.359792
 42
0.015459
 10
26.179989
 20
26.534109
 42
0.01562
 10
25.9869
 20
26.696143
 42
0.01969
 10
25.770458
 20
26.853147
 42
0.013998
 10
25.516499
 20
27.012434
 42
0.014162
 10
25.265194
 20
27.150989
 42
0.02899
 10
25.059576
 20
27.242218
 42
0.013102
 10
24.8737
 20
27.306597
 42
0.01319
 10
24.685117
 20
27.360997
 42
0.013101
 10
24.51851
 20
27.399702
 42
0.050559
 10
24.412978
 20
27.4104
 42
-0.064364
 10
24.33281
 20
27.420763
 42
-0.06151
 10
24.256581
 20
27.451207
 42
-0.066302
 10
24.195572
 20
27.496181
 42
-0.10962
 10
24.160395
 20
27.549317
 42
-0.085543
 10
24.139072
 20
27.656862
 42
-0.001305
 10
24.124762
 20
28.293889
 42
-0.003463
 10
24.115178
 20
29.035495
 42
-0.002279
 10
24.113949
 20
29.888955
 10
24.120809
 20
32.089678
  0
LWPOLYLINE
  5
884
330
1D
100
AcDbEntity
  8
0
100
AcDbPolyline
 90
       74
 70
     1
 43
0.0
 10
12.650471
 20
31.725
 10
13.3668
 20
31.725
 10
13.3668
 20
30.595411
 42
0.004125
 10
13.372344
 20
29.923394
 42
0.029423
 10
13.396816
 20
29.599136
 42
0.059192
 10
13.452305
 20
29.38398
 42
0.055644
 10
13.557437
 20
29.182935
 42
0.033623
 10
13.65084
 20
29.06264
 42
0.021206
 10
13.774643
 20
28.934924
 42
0.021273
 10
13.907668
 20
28.819187
 42
0.036236
 10
14.029156
 20
28.735888
 42
0.042407
 10
14.161505
 20
28.67296
 42
0.025266
 10
14.327824
 20
28.619949
 42
0.025174
 10
14.500155
 20
28.583634
 42
0.039358
 10
14.651187
 20
28.571727
 10
14.992136
 20
28.571727
 10
14.938627
 20
28.2371
 42
-0.02513
 10
14.906695
 20
28.086409
 42
-0.014648
 10
14.854144
 20
27.909246
 42
-0.014624
 10
14.790959
 20
27.734469
 42
-0.023905
 10
14.726167
 20
27.590904
 42
-0.038715
 10
14.636475
 20
27.444329
 42
-0.015171
 10
14.491621
 20
27.256473
 42
-0.014911
 10
14.321957
 20
27.061864
 42
-0.017984
 10
14.150919
 20
26.889937
 42
-0.012455
 10
13.978838
 20
26.736831
 42
-0.014066
 10
13.806039
 20
26.59878
 42
-0.01337
 10
13.653363
 20
26.489966
 42
-0.071405
 10
13.561448
 20
26.445577
 42
0.131801
 10
13.468953
 20
26.386366
 42
0.1115
 10
13.411369
 20
26.285137
 42
0.049979
 10
13.375446
 20
26.103487
 42
0.007735
 10
13.346123
 20
25.737257
 42
-0.010985
 10
13.322938
 20
25.469564
 42
-0.011279
 10
13.288167
 20
25.205503
 42
-0.01108
 10
13.247809
 20
24.978094
 42
-0.045888
 10
13.208018
 20
24.844512
 10
13.112064
 20
24.605123
 10
12.795282
 20
24.854366
 42
0.017444
 10
12.658483
 20
24.954476
 42
0.015432
 10
12.509427
 20
25.049179
 42
0.015687
 10
12.369826
 20
25.126129
 42
0.044725
 10
12.267
 20
25.167559
 42
-0.015763
 10
12.179822
 20
25.196947
 42
-0.014793
 10
12.092777
 20
25.232347
 42
-0.014946
 10
12.017486
 20
25.26832
 42
-0.048233
 10
11.9709
 20
25.298312
 42
-0.208023
 10
11.935313
 20
25.364679
 42
-0.008003
 10
11.916488
 20
25.649477
 42
-0.012152
 10
11.907121
 20
26.013971
 42
-0.006184
 10
11.912153
 20
26.472358
 10
11.938006
 20
27.5796
 10
12.250553
 20
27.580755
 42
0.013685
 10
12.384054
 20
27.584904
 42
0.011116
 10
12.52676
 20
27.596439
 42
0.011275
 10
12.657852
 20
27.61297
 42
0.028482
 10
12.751936
 20
27.632526
 42
0.054239
 10
12.856205
 20
27.672999
 42
0.349802
 10
12.877645
 20
27.721118
 42
0.108825
 10
12.838561
 20
27.797944
 42
0.005131
 10
12.650974
 20
28.021705
 42
-0.020021
 10
12.527045
 20
28.178804
 42
-0.01248
 10
12.394034
 20
28.372016
 42
-0.012519
 10
12.272229
 20
28.569391
 42
-0.022122
 10
12.183234
 20
28.738825
 42
-0.018771
 10
12.110734
 20
28.909413
 42
-0.012529
 10
12.040084
 20
29.109599
 42
-0.012624
 10
11.98127
 20
29.307435
 42
-0.024083
 10
11.945795
 20
29.469441
 42
-0.028581
 10
11.924204
 20
29.664458
 42
-0.00646
 10
11.910803
 20
29.997659
 42
-0.006672
 10
11.905433
 20
30.383054
 42
-0.006429
 10
11.910221
 20
30.77325
 10
11.934141
 20
31.725
  0
LWPOLYLINE
  5
8D0
330
1D
100
AcDbEntity
  8
0
100
AcDbPolyline
 90
      106
 70
     1
 43
0.0
 10
6.709614
 20
31.463099
 42
-0.194997
 10
6.752861
 20
31.451248
 42
-0.006727
 10
6.893197
 20
31.340959
 42
-0.011697
 10
7.057035
 20
31.202139
 42
-0.007803
 10
7.238364
 20
31.035928
 42
-0.012213
 10
7.414656
 20
30.860847
 42
-0.01689
 10
7.563406
 20
30.694845
 42
-0.013483
 10
7.676686
 20
30.551831
 42
-0.162132
 10
7.6986
 20
30.486028
 42
-0.079394
 10
7.691603
 20
30.442242
 42
-0.091015
 10
7.671372
 20
30.405072
 42
-0.100769
 10
7.641261
 20
30.380222
 42
-0.122889
 10
7.60591
 20
30.3714
 42
0.10268
 10
7.555039
 20
30.360842
 42
0.017841
 10
7.465974
 20
30.31837
 42
0.018728
 10
7.363554
 20
30.259988
 42
0.015809
 10
7.259693
 20
30.190874
 42
0.017631
 10
7.138064
 20
30.097633
 42
0.09412
 10
7.084802
 20
30.033599
 42
0.228869
 10
7.081971
 20
29.983215
 42
0.154217
 10
7.119734
 20
29.938369
 42
0.070979
 10
7.181528
 20
29.910537
 42
0.023112
 10
7.279089
 20
29.887154
 42
0.022509
 10
7.391256
 20
29.870888
 42
0.023554
 10
7.502743
 20
29.865095
 42
0.025098
 10
7.621458
 20
29.870486
 42
0.017046
 10
7.755637
 20
29.887981
 42
0.017206
 10
7.884345
 20
29.913824
 42
0.032702
 10
7.985293
 20
29.944824
 42
0.074764
 10
8.10302
 20
30.011073
 42
0.010215
 10
8.322629
 20
30.189481
 42
0.011556
 10
8.57528
 20
30.413675
 42
0.00953
 10
8.834411
 20
30.663924
 10
9.47042
 20
31.302
 10
10.61491
 20
31.302
 10
11.7594
 20
31.302
 10
11.7594
 20
30.5829
 10
11.7594
 20
29.8638
 10
10.87724
 20
29.8638
 42
0.004493
 10
10.318131
 20
29.858776
 42
0.047673
 10
10.092004
 20
29.833058
 42
0.109264
 10
9.951132
 20
29.769101
 42
0.0652
 10
9.818935
 20
29.639868
 42
-0.033863
 10
9.717527
 20
29.527509
 42
-0.009071
 10
9.541469
 20
29.363252
 42
-0.009149
 10
9.334128
 20
29.183482
 42
-0.009336
 10
9.121722
 20
29.012655
 42
0.012242
 10
8.914199
 20
28.843761
 42
0.013402
 10
8.721514
 20
28.669783
 42
0.012914
 10
8.565049
 20
28.5128
 42
0.062953
 10
8.491025
 20
28.411738
 42
0.041279
 10
8.448771
 20
28.318111
 42
0.023518
 10
8.412719
 20
28.199204
 42
0.023358
 10
8.387509
 20
28.075259
 42
0.035485
 10
8.378398
 20
27.965753
 42
0.058903
 10
8.390068
 20
27.855651
 42
0.039285
 10
8.427806
 20
27.734426
 42
0.039022
 10
8.484553
 20
27.619409
 42
0.054517
 10
8.553463
 20
27.527865
 42
-0.040095
 10
8.617931
 20
27.447165
 42
-0.053257
 10
8.661902
 20
27.364227
 42
-0.064171
 10
8.680972
 20
27.290438
 42
-0.171222
 10
8.669569
 20
27.238075
 42
-0.183704
 10
8.614912
 20
27.196191
 42
-0.042962
 10
8.499889
 20
27.172319
 42
-0.032995
 10
8.337264
 20
27.163724
 42
-0.014762
 10
8.123132
 20
27.172869
 42
-0.021538
 10
7.88253
 20
27.200729
 42
-0.039312
 10
7.690492
 20
27.2471
 42
-0.045696
 10
7.528848
 20
27.316749
 42
-0.044991
 10
7.381641
 20
27.414907
 42
-0.032302
 10
7.273298
 20
27.514351
 42
-0.020603
 10
7.160172
 20
27.642705
 42
-0.020691
 10
7.059238
 20
27.778316
 42
-0.035813
 10
6.988615
 20
27.89972
 42
-0.020312
 10
6.93655
 20
28.018001
 42
-0.018591
 10
6.892554
 20
28.143627
 42
-0.018966
 10
6.861727
 20
28.258695
 42
-0.056015
 10
6.8526
 20
28.339911
 42
0.135959
 10
6.830017
 20
28.421426
 42
0.074546
 10
6.76363
 20
28.50197
 42
0.053352
 10
6.652487
 20
28.582334
 42
0.024548
 10
6.49305
 20
28.663393
 42
-0.029057
 10
6.3323
 20
28.746951
 42
-0.015921
 10
6.145268
 20
28.866647
 42
-0.015822
 10
5.962492
 20
29.000691
 42
-0.024278
 10
5.814012
 20
29.129081
 42
-0.031827
 10
5.676556
 20
29.277922
 42
-0.017532
 10
5.527146
 20
29.475707
 42
-0.017419
 10
5.389119
 20
29.687736
 42
-0.026636
 10
5.286089
 20
29.881379
 42
-0.020301
 10
5.206238
 20
30.072848
 42
-0.018017
 10
5.138638
 20
30.277875
 42
-0.018386
 10
5.091247
 20
30.466871
 42
-0.05152
 10
5.076826
 20
30.602438
 42
-0.032003
 10
5.085839
 20
30.750106
 42
-0.125424
 10
5.118976
 20
30.834415
 42
-0.141313
 10
5.185942
 20
30.887034
 42
-0.044821
 10
5.30865
 20
30.924408
 42
0.029894
 10
5.433084
 20
30.958289
 42
0.007212
 10
5.634492
 20
31.029541
 42
0.007377
 10
5.863606
 20
31.118198
 42
0.007264
 10
6.0912
 20
31.214018
 42
-0.003108
 10
6.306856
 20
31.30693
 42
-0.004423
 10
6.499693
 20
31.386589
 42
-0.002518
 10
6.663137
 20
31.451466
 42
-0.063868
  0
LWPOLYLINE
  5
93C
330
1D
100
AcDbEntity
  8
0
100
AcDbPolyline
 90
       52
 70
     1
 43
0.0
 10
38.988598
 20
31.193963
 42
0.012178
 10
39.093561
 20
31.073948
 42
0.00703
 10
39.225338
 20
30.934468
 42
0.007022
 10
39.361621
 20
30.798107
 42
0.011679
 10
39.480669
 20
30.687582
 10
39.749238
 20
30.449677
 10
39.454054
 20
29.924088
 42
-0.021095
 10
39.309401
 20
29.690211
 42
-0.012127
 10
39.116716
 20
29.420508
 42
-0.012102
 10
38.909635
 20
29.158481
 42
-0.019733
 10
38.720185
 20
28.947833
 42
-0.011514
 10
38.535163
 20
28.766314
 42
-0.011522
 10
38.342023
 20
28.593548
 42
-0.011416
 10
38.166715
 20
28.45065
 42
-0.044085
 10
38.04885
 20
28.37461
 10
37.8162
 20
28.252055
 10
37.8162
 20
26.72871
 42
-0.003924
 10
37.810202
 20
25.964512
 42
-0.013358
 10
37.789094
 20
25.467114
 42
-0.019773
 10
37.751781
 20
25.125103
 42
-0.061972
 10
37.689779
 20
24.902798
 10
37.563358
 20
24.600231
 10
37.274035
 20
24.85426
 42
0.02689
 10
37.141127
 20
24.958859
 42
0.018601
 10
36.98059
 20
25.063077
 42
0.018806
 10
36.818342
 20
25.151923
 42
0.036169
 10
36.681356
 20
25.208405
 10
36.378
 20
25.308522
 10
36.378
 20
27.290061
 42
-0.001504
 10
36.381618
 20
28.492932
 42
-0.017134
 10
36.400739
 20
28.967382
 42
-0.045667
 10
36.440713
 20
29.206245
 42
-0.339212
 10
36.52605
 20
29.272426
 42
0.069257
 10
36.608575
 20
29.284382
 42
0.012852
 10
36.755047
 20
29.330958
 42
0.013559
 10
36.924677
 20
29.39494
 42
0.012003
 10
37.097716
 20
29.470521
 42
0.029383
 10
37.279949
 20
29.568792
 42
0.019384
 10
37.477526
 20
29.701676
 42
0.019525
 10
37.660228
 20
29.846387
 42
0.035349
 10
37.795823
 20
29.980417
 42
0.022884
 10
37.916856
 20
30.131699
 42
0.011858
 10
38.054598
 20
30.330763
 42
0.011765
 10
38.186713
 20
30.542404
 42
0.017507
 10
38.291302
 20
30.734073
 42
-0.008826
 10
38.385182
 20
30.913454
 42
-0.009072
 10
38.484505
 20
31.087751
 42
-0.00886
 10
38.575984
 20
31.235687
 42
-0.037521
 10
38.638692
 20
31.31877
 42
-0.056664
 10
38.718592
 20
31.391146
 42
-0.246161
 10
38.779856
 20
31.399786
 42
-0.122892
 10
38.8499
 20
31.353174
 42
-0.011207
  0
LWPOLYLINE
  5
972
330
1D
100
AcDbEntity
  8
0
100
AcDbPolyline
 90
       82
 70
     1
 43
0.0
 10
10.1097
 20
29.680499
 42
-0.113554
 10
10.160597
 20
29.677667
 42
-0.013534
 10
10.268854
 20
29.643135
 42
-0.015586
 10
10.396927
 20
29.593898
 42
-0.012212
 10
10.5327
 20
29.53284
 42
0.004382
 10
10.679292
 20
29.464137
 42
0.003398
 10
10.840036
 20
29.39183
 42
0.003436
 10
10.990941
 20
29.326414
 42
0.008272
 10
11.10375
 20
29.280619
 10
11.3364
 20
29.190627
 10
11.3364
 20
27.259934
 42
0.002824
 10
11.341567
 20
26.345121
 42
0.009655
 10
11.359774
 20
25.750394
 42
0.008262
 10
11.387285
 20
25.33692
 42
0.177437
 10
11.43792
 20
25.22772
 42
0.087818
 10
11.4937
 20
25.188717
 42
0.036457
 10
11.58
 20
25.156021
 42
0.034641
 10
11.679859
 20
25.13369
 42
0.037707
 10
11.779037
 20
25.1262
 42
-0.03668
 10
11.890629
 20
25.118003
 42
-0.018435
 10
12.029611
 20
25.092206
 42
-0.018201
 10
12.172051
 20
25.054804
 42
-0.025655
 10
12.295598
 20
25.010477
 42
-0.027408
 10
12.417329
 20
24.951587
 42
-0.016663
 10
12.554591
 20
24.869549
 42
-0.016679
 10
12.685687
 20
24.778821
 42
-0.028134
 10
12.788347
 20
24.693227
 42
-0.029526
 10
12.882016
 20
24.594777
 42
-0.016095
 10
12.985538
 20
24.463919
 42
-0.015989
 10
13.082546
 20
24.323672
 42
-0.024403
 10
13.156617
 20
24.1956
 42
-0.043738
 10
13.218343
 20
24.044639
 42
-0.024485
 10
13.26779
 20
23.852399
 42
-0.023384
 10
13.300909
 20
23.641875
 42
-0.025134
 10
13.31318
 20
23.4342
 42
-0.020578
 10
13.306953
 20
23.241992
 42
-0.020045
 10
13.284958
 20
23.049242
 42
-0.020416
 10
13.251964
 20
22.881779
 42
-0.067364
 10
13.211379
 20
22.777105
 10
13.1055
 20
22.58531
 10
12.8343
 20
22.789937
 42
0.019602
 10
12.708308
 20
22.877469
 42
0.011876
 10
12.552938
 20
22.9715
 42
0.011891
 10
12.394034
 20
23.057633
 42
0.020444
 10
12.257306
 20
23.120678
 42
-0.036368
 10
12.119386
 20
23.189677
 42
-0.056814
 10
12.013811
 20
23.269948
 42
-0.065589
 10
11.939936
 20
23.362012
 42
-0.074972
 10
11.896468
 20
23.466108
 42
0.06009
 10
11.860845
 20
23.559068
 42
0.06803
 10
11.805238
 20
23.63666
 42
0.071984
 10
11.733945
 20
23.693072
 42
0.081102
 10
11.652362
 20
23.724137
 42
0.004822
 10
11.558853
 20
23.742347
 42
0.001896
 10
11.429689
 20
23.765704
 42
0.001877
 10
11.289858
 20
23.789902
 42
0.002342
 10
11.159817
 20
23.811277
 42
-0.055548
 10
11.017552
 20
23.850529
 42
-0.026533
 10
10.845156
 20
23.930272
 42
-0.025593
 10
10.669223
 20
24.035129
 42
-0.029833
 10
10.514125
 20
24.152619
 42
-0.032213
 10
10.37288
 20
24.290225
 42
-0.022505
 10
10.231464
 20
24.461905
 42
-0.022789
 10
10.110348
 20
24.639523
 42
-0.043098
 10
10.032419
 20
24.794177
 42
-0.052787
 10
9.962081
 20
25.043344
 42
-0.023359
 10
9.920098
 20
25.383096
 42
-0.014543
 10
9.896656
 20
25.879849
 42
-0.003745
 10
9.888161
 20
26.68271
 10
9.883402
 20
28.222601
 10
9.510101
 20
28.458769
 42
-0.007764
 10
9.367033
 20
28.552422
 42
-0.011927
 10
9.246457
 20
28.638318
 42
-0.006435
 10
9.148913
 20
28.713354
 42
-0.229459
 10
9.1368
 20
28.738359
 42
-0.184491
 10
9.147577
 20
28.766572
 42
-0.002799
 10
9.267269
 20
28.898886
 42
-0.007108
 10
9.410717
 20
29.051279
 42
-0.004589
 10
9.58095
 20
29.223855
 42
-0.007319
 10
9.757256
 20
29.394272
 42
-0.010356
 10
9.919482
 20
29.540349
 42
-0.006802
 10
10.058513
 20
29.657156
 42
-0.12936
  0
LWPOLYLINE
  5
9C6
330
1D
100
AcDbEntity
  8
0
100
AcDbPolyline
 90
      130
 70
     1
 43
0.0
 10
35.087522
 20
29.6946
 10
35.799244
 20
29.6946
 10
35.741023
 20
29.41965
 42
-0.020435
 10
35.707205
 20
29.286948
 42
-0.008501
 10
35.651253
 20
29.110697
 42
-0.008395
 10
35.58486
 20
28.923713
 42
-0.010744
 10
35.517178
 20
28.753995
 42
-0.030011
 10
35.4327
 20
28.583895
 42
-0.018796
 10
35.314878
 20
28.395357
 42
-0.018851
 10
35.184362
 20
28.217784
 42
-0.032384
 10
35.061077
 20
28.08175
 42
0.008437
 10
34.94978
 20
27.970173
 42
0.012326
 10
34.855927
 20
27.867927
 42
0.00782
 10
34.781681
 20
27.780194
 42
0.173379
 10
34.7706
 20
27.749199
 42
0.256683
 10
34.78436
 20
27.724162
 42
0.01812
 10
34.855726
 20
27.682392
 42
0.022016
 10
34.949346
 20
27.637253
 42
0.014568
 10
35.060392
 20
27.5934
 42
0.034914
 10
35.187314
 20
27.557291
 42
0.027244
 10
35.329039
 20
27.53545
 42
0.027934
 10
35.463869
 20
27.529707
 42
0.058222
 10
35.567992
 20
27.543276
 10
35.7858
 20
27.597943
 10
35.7858
 20
26.451664
 42
0.006017
 10
35.791505
 20
25.977611
 42
0.012071
 10
35.809547
 20
25.603672
 42
0.007542
 10
35.835143
 20
25.311675
 42
0.232747
 10
35.872776
 20
25.251632
 42
0.059895
 10
35.921847
 20
25.228893
 42
0.015756
 10
36.00515
 20
25.204689
 42
0.015767
 10
36.10243
 20
25.182963
 42
0.015579
 10
36.201275
 20
25.167311
 42
-0.026779
 10
36.314101
 20
25.146846
 42
-0.013073
 10
36.455526
 20
25.109357
 42
-0.012928
 10
36.60095
 20
25.062594
 42
-0.018255
 10
36.727649
 20
25.012945
 42
-0.02941
 10
36.854261
 20
24.948823
 42
-0.016616
 10
37.000013
 20
24.857278
 42
-0.016543
 10
37.141359
 20
24.754841
 42
-0.026005
 10
37.254843
 20
24.656861
 42
-0.032764
 10
37.359071
 20
24.54296
 42
-0.017845
 10
37.472307
 20
24.390838
 42
-0.017714
 10
37.576847
 20
24.227304
 42
-0.026774
 10
37.654835
 20
24.077438
 42
-0.023294
 10
37.715298
 20
23.925931
 42
-0.018606
 10
37.766582
 20
23.757718
 42
-0.018983
 10
37.802383
 20
23.598185
 42
-0.044361
 10
37.81387
 20
23.4765
 42
-0.026371
 10
37.808203
 20
23.356705
 42
-0.012678
 10
37.788968
 20
23.204062
 42
-0.012532
 10
37.7608
 20
23.045458
 42
-0.017516
 10
37.727152
 20
22.90545
 42
-0.011865
 10
37.690254
 20
22.783855
 42
-0.018577
 10
37.652213
 20
22.681392
 42
-0.013223
 10
37.616532
 20
22.601298
 42
-0.288979
 10
37.595763
 20
22.5882
 42
-0.146321
 10
37.567824
 20
22.596555
 42
-0.005178
 10
37.473458
 20
22.659945
 42
-0.009198
 10
37.362989
 20
22.738855
 42
-0.006266
 10
37.240189
 20
22.832439
 42
0.020141
 10
37.102034
 20
22.93179
 42
0.015875
 10
36.945081
 20
23.028326
 42
0.016154
 10
36.793346
 20
23.108748
 42
0.037772
 10
36.6741
 20
23.156316
 42
-0.045488
 10
36.564052
 20
23.202191
 42
-0.067033
 10
36.47894
 20
23.26292
 42
-0.077297
 10
36.421592
 20
23.336371
 42
-0.090882
 10
36.393242
 20
23.419862
 42
0.071401
 10
36.370346
 20
23.496969
 42
0.047924
 10
36.324036
 20
23.576558
 42
0.047604
 10
36.262906
 20
23.646555
 42
0.066694
 10
36.195646
 20
23.69504
 42
0.029546
 10
36.12705
 20
23.726692
 42
0.040499
 10
36.061979
 20
23.746273
 42
0.046017
 10
36.008664
 20
23.752668
 42
0.206043
 10
35.980087
 20
23.741287
 42
-0.249106
 10
35.944282
 20
23.730324
 42
-0.013026
 10
35.823049
 20
23.757078
 42
-0.018063
 10
35.675357
 20
23.799447
 42
-0.011907
 10
35.508712
 20
23.858266
 42
-0.023752
 10
35.32814
 20
23.93688
 42
-0.018051
 10
35.138076
 20
24.039288
 42
-0.018364
 10
34.966484
 20
24.148556
 42
-0.040078
 10
34.84568
 20
24.247021
 42
-0.043747
 10
34.745559
 20
24.36132
 42
-0.022528
 10
34.640132
 20
24.519843
 42
-0.022209
 10
34.545625
 20
24.6939
 42
-0.031164
 10
34.4783
 20
24.857358
 42
-0.03134
 10
34.428108
 20
25.041769
 42
-0.015122
 10
34.385993
 20
25.283008
 42
-0.014931
 10
34.357125
 20
25.537996
 42
-0.020722
 10
34.3476
 20
25.767732
 10
34.3476
 20
26.294522
 10
33.974896
 20
26.512942
 42
-0.027727
 10
33.813933
 20
26.619676
 42
-0.017511
 10
33.638078
 20
26.760721
 42
-0.017577
 10
33.474471
 20
26.911967
 42
-0.030699
 10
33.351654
 20
27.049731
 42
-0.015266
 10
33.243477
 20
27.196183
 42
-0.009507
 10
33.125289
 20
27.373984
 42
-0.009537
 10
33.015317
 20
27.553933
 42
-0.017027
 10
32.93287
 20
27.7065
 42
-0.016701
 10
32.864618
 20
27.856113
 42
-0.012278
 10
32.798696
 20
28.026057
 42
-0.012436
 10
32.744227
 20
28.190088
 42
-0.026869
 10
32.712367
 20
28.319153
 42
-0.019125
 10
32.685981
 20
28.493685
 42
-0.226902
 10
32.70784
 20
28.556588
 42
-0.193468
 10
32.772841
 20
28.584676
 42
-0.013586
 10
32.975104
 20
28.584373
 42
0.027828
 10
33.114226
 20
28.588126
 42
0.018703
 10
33.272124
 20
28.607168
 42
0.018866
 10
33.424053
 20
28.637198
 42
0.035047
 10
33.5439
 20
28.674657
 42
0.046382
 10
33.657783
 20
28.731891
 42
0.022784
 10
33.791429
 20
28.824101
 42
0.022386
 10
33.922583
 20
28.933295
 42
0.030229
 10
34.030152
 20
29.043937
 42
0.022291
 10
34.119143
 20
29.157122
 42
0.024792
 10
34.194379
 20
29.273946
 42
0.025196
 10
34.24799
 20
29.378915
 42
0.105472
 10
34.262802
 20
29.44785
 42
-0.037428
 10
34.267039
 20
29.50327
 42
-0.034486
 10
34.279509
 20
29.55902
 42
-0.036298
 10
34.297716
 20
29.60716
 42
-0.088041
 10
34.3194
 20
29.6382
 42
-0.173375
 10
34.366863
 20
29.660664
 42
-0.006357
 10
34.568301
 20
29.678032
 42
-0.010936
 10
34.810714
 20
29.690509
 42
-0.007389
  0
LWPOLYLINE
  5
A4A
330
1D
100
AcDbEntity
  8
0
100
AcDbPolyline
 90
       94
 70
     1
 43
0.0
 10
24.68542
 20
27.14935
 42
-0.049423
 10
24.816481
 20
27.139802
 42
-0.023092
 10
24.98287
 20
27.103002
 42
-0.022614
 10
25.155299
 20
27.047947
 42
-0.029374
 10
25.307181
 20
26.98139
 42
-0.026609
 10
25.465678
 20
26.889596
 42
-0.012459
 10
25.661003
 20
26.755085
 42
-0.012305
 10
25.859284
 20
26.603536
 42
-0.016878
 10
26.029406
 20
26.457028
 42
-0.014719
 10
26.182895
 20
26.306955
 42
-0.013763
 10
26.330869
 20
26.144795
 42
-0.013884
 10
26.45421
 20
25.993635
 42
-0.044876
 10
26.523752
 20
25.884405
 10
26.639314
 20
25.660934
 10
26.157707
 20
25.73844
 42
0.019424
 10
25.939543
 20
25.764906
 42
0.011909
 10
25.68089
 20
25.77994
 42
0.011934
 10
25.423771
 20
25.782609
 42
0.02077
 10
25.2108
 20
25.770878
 42
0.004858
 10
25.010969
 20
25.749561
 42
0.003838
 10
24.795203
 20
25.722742
 42
0.00388
 10
24.595261
 20
25.69475
 42
0.009617
 10
24.4494
 20
25.670298
 42
0.012112
 10
24.309935
 20
25.640638
 42
0.00584
 10
24.132729
 20
25.596247
 42
0.005787
 10
23.948962
 20
25.545644
 42
0.00826
 10
23.78717
 20
25.496163
 42
0.009775
 10
23.629145
 20
25.441528
 42
0.007283
 10
23.456936
 20
25.375331
 42
0.007368
 10
23.296352
 20
25.308139
 42
0.016558
 10
23.17711
 20
25.251398
 42
0.06033
 10
23.068392
 20
25.177377
 42
0.025698
 10
22.94174
 20
25.054649
 42
0.024972
 10
22.818531
 20
24.908314
 42
0.029956
 10
22.71839
 20
24.758746
 42
0.026013
 10
22.636309
 20
24.600341
 42
0.022924
 10
22.56724
 20
24.427527
 42
0.023583
 10
22.519463
 20
24.265786
 42
0.061981
 10
22.505458
 20
24.145867
 42
0.045722
 10
22.517293
 20
24.026619
 42
0.018607
 10
22.554109
 20
23.867598
 42
0.018227
 10
22.606635
 20
23.698499
 42
0.022141
 10
22.668471
 20
23.544531
 42
0.02599
 10
22.74306
 20
23.400606
 42
0.024227
 10
22.833806
 20
23.261659
 42
0.024996
 10
22.926552
 20
23.146257
 42
0.071519
 10
23.005013
 20
23.080031
 42
-0.020903
 10
23.072176
 20
23.034077
 42
-0.027788
 10
23.12888
 20
22.986567
 42
-0.027488
 10
23.170156
 20
22.943387
 42
-0.178847
 10
23.1804
 20
22.915665
 42
-0.280126
 10
23.16566
 20
22.89142
 42
-0.026546
 10
23.099633
 20
22.861521
 42
-0.027827
 10
23.010813
 20
22.832431
 42
-0.018061
 10
22.90545
 20
22.808346
 42
0.028646
 10
22.769936
 20
22.774335
 42
0.010518
 10
22.582782
 20
22.711439
 42
0.010387
 10
22.380725
 20
22.633993
 42
0.012268
 10
22.193107
 20
22.552153
 42
-0.008099
 10
21.926518
 20
22.43321
 42
-0.073171
 10
21.803392
 20
22.400801
 42
-0.160895
 10
21.718016
 20
22.418798
 42
-0.081412
 10
21.632259
 20
22.489472
 42
-0.027001
 10
21.57598
 20
22.561233
 42
-0.011247
 10
21.507631
 20
22.663627
 42
-0.011089
 10
21.43919
 20
22.776797
 42
-0.014094
 10
21.381357
 20
22.8843
 42
-0.030087
 10
21.325856
 20
23.01369
 42
-0.011406
 10
21.263574
 20
23.200228
 42
-0.011248
 10
21.2049
 20
23.406649
 42
-0.013492
 10
21.159359
 20
23.6034
 42
-0.022548
 10
21.121942
 20
23.842256
 42
-0.02449
 10
21.107527
 20
24.077004
 42
-0.024006
 10
21.116056
 20
24.316201
 42
-0.020054
 10
21.147431
 20
24.568439
 42
-0.028473
 10
21.199634
 20
24.801032
 42
-0.020212
 10
21.283279
 20
25.055029
 42
-0.020089
 10
21.388065
 20
25.303757
 42
-0.026499
 10
21.504245
 20
25.52059
 42
-0.02202
 10
21.632426
 20
25.712487
 42
-0.015892
 10
21.791207
 20
25.915096
 42
-0.016103
 10
21.954791
 20
26.098366
 42
-0.033249
 10
22.096104
 20
26.228287
 42
-0.022419
 10
22.246879
 20
26.338709
 42
-0.012541
 10
22.439268
 20
26.459919
 42
-0.012493
 10
22.640261
 20
26.57291
 42
-0.019827
 10
22.818236
 20
26.658335
 42
-0.015326
 10
23.014945
 20
26.736267
 42
-0.00687
 10
23.277847
 20
26.827146
 42
-0.006794
 10
23.558583
 20
26.91568
 42
-0.009175
 10
23.8149
 20
26.987599
 42
-0.009136
 10
24.062041
 20
27.047276
 42
-0.008737
 10
24.314898
 20
27.098846
 42
-0.008706
 10
24.539613
 20
27.136565
 42
-0.030722
  0
LWPOLYLINE
  5
AAA
330
1D
100
AcDbEntity
  8
0
100
AcDbPolyline
 90
       98
 70
     1
 43
0.0
 10
25.498881
 20
25.60556
 10
26.167662
 20
25.5915
 10
26.344881
 20
25.2531
 42
-0.040285
 10
26.434275
 20
25.042777
 42
-0.041882
 10
26.487381
 20
24.823543
 42
-0.029471
 10
26.514346
 20
24.540603
 42
-0.009023
 10
26.5221
 20
24.111
 42
-0.008571
 10
26.513919
 20
23.633782
 42
-0.040724
 10
26.482423
 20
23.362737
 42
-0.054177
 10
26.411499
 20
23.137718
 42
-0.023064
 10
26.271151
 20
22.854233
 42
-0.025479
 10
26.148627
 20
22.657393
 42
-0.016029
 10
25.986851
 20
22.44001
 42
-0.016087
 10
25.813495
 20
22.235856
 42
-0.028217
 10
25.655719
 20
22.080334
 42
-0.016309
 10
25.493643
 20
21.946793
 42
-0.012391
 10
25.307859
 20
21.810829
 42
-0.012566
 10
25.127061
 20
21.691893
 42
-0.028425
 10
24.983344
 20
21.613399
 42
-0.041643
 10
24.819413
 20
21.551727
 42
-0.01304
 10
24.564948
 20
21.486612
 42
-0.01293
 10
24.275861
 20
21.42844
 42
-0.013952
 10
23.991376
 20
21.386953
 42
0.018061
 10
23.69336
 20
21.340989
 42
0.014152
 10
23.373903
 20
21.270407
 42
0.014444
 10
23.077151
 20
21.186795
 42
0.030179
 10
22.852927
 20
21.101406
 42
-0.027116
 10
22.574923
 20
20.993583
 42
-0.040763
 10
22.32208
 20
20.933237
 42
-0.029963
 10
22.011474
 20
20.904299
 42
-0.008247
 10
21.520477
 20
20.8962
 42
-0.006776
 10
21.183954
 20
20.900761
 42
-0.011307
 10
20.901026
 20
20.914838
 42
-0.005044
 10
20.667139
 20
20.934158
 42
-0.39807
 10
20.644754
 20
20.95965
 42
-0.125937
 10
20.65634
 20
20.998815
 42
-0.007957
 10
20.720033
 20
21.101751
 42
-0.011301
 10
20.801546
 20
21.222808
 42
-0.008137
 10
20.897717
 20
21.354299
 42
-0.029037
 10
21.027872
 20
21.507012
 42
-0.012494
 10
21.217851
 20
21.69568
 42
-0.012314
 10
21.430689
 20
21.887044
 42
-0.015919
 10
21.635614
 20
22.05136
 42
-0.011824
 10
21.831807
 20
22.191535
 42
-0.01536
 10
22.018279
 20
22.310011
 42
-0.013023
 10
22.1777
 20
22.399027
 42
-0.119672
 10
22.25403
 20
22.418111
 42
0.047325
 10
22.310129
 20
22.423817
 42
0.035158
 10
22.370249
 20
22.440211
 42
0.035908
 10
22.425265
 20
22.464012
 42
0.06458
 10
22.46553
 20
22.492098
 42
-0.086801
 10
22.518944
 20
22.52595
 42
-0.012774
 10
22.638914
 20
22.571953
 42
-0.014093
 10
22.785016
 20
22.619146
 42
-0.01169
 10
22.942913
 20
22.661298
 42
-0.016308
 10
23.120128
 20
22.698123
 42
-0.010909
 10
23.324927
 20
22.72917
 42
-0.010992
 10
23.524929
 20
22.750582
 42
-0.021171
 10
23.68588
 20
22.7574
 42
0.028236
 10
23.839181
 20
22.766064
 42
0.018493
 10
24.014213
 20
22.792499
 42
0.018616
 10
24.183362
 20
22.831053
 42
0.033625
 10
24.317802
 20
22.876885
 42
0.024689
 10
24.439746
 20
22.935062
 42
0.017821
 10
24.569766
 20
23.011271
 42
0.01807
 10
24.68843
 20
23.09279
 42
0.03685
 10
24.773981
 20
23.166581
 42
0.019232
 10
24.845808
 20
23.244157
 42
0.013436
 10
24.920925
 20
23.336743
 42
0.013578
 10
24.988229
 20
23.429522
 42
0.027265
 10
25.035196
 20
23.506835
 42
0.066704
 10
25.070344
 20
23.600729
 42
0.01887
 10
25.099468
 20
23.75445
 42
0.018659
 10
25.119508
 20
23.932325
 42
0.018721
 10
25.1262
 20
24.111
 42
0.019867
 10
25.119065
 20
24.290502
 42
0.019229
 10
25.0977
 20
24.470852
 42
0.019556
 10
25.066615
 20
24.627846
 42
0.064292
 10
25.029179
 20
24.726409
 42
0.031631
 10
24.979264
 20
24.806981
 42
0.017065
 10
24.908391
 20
24.899823
 42
0.016934
 10
24.829445
 20
24.989836
 42
0.025488
 10
24.754229
 20
25.062185
 42
0.023673
 10
24.671427
 20
25.127471
 42
0.014956
 10
24.569205
 20
25.195977
 42
0.015015
 10
24.464466
 20
25.257413
 42
0.026604
 10
24.374217
 20
25.300704
 42
-0.028325
 10
24.300258
 20
25.336495
 42
-0.05336
 10
24.246107
 20
25.374661
 42
-0.085755
 10
24.218329
 20
25.409073
 42
-0.335122
 10
24.221874
 20
25.434474
 42
-0.098077
 10
24.256359
 20
25.457557
 42
-0.012864
 10
24.33903
 20
25.489491
 42
-0.014545
 10
24.440291
 20
25.522352
 42
-0.011712
 10
24.550857
 20
25.551917
 42
-0.03582
 10
24.701528
 20
25.5772
 42
-0.009531
 10
24.944527
 20
25.595602
 42
-0.009615
 10
25.222356
 20
25.605969
 42
-0.009772
  0
LWPOLYLINE
  5
B0E
330
1D
100
AcDbEntity
  8
0
100
AcDbPolyline
 90
       78
 70
     1
 43
0.0
 10
20.672601
 20
25.461126
 42
-0.251337
 10
20.695416
 20
25.450257
 42
-0.132009
 10
20.707138
 20
25.420145
 42
-0.078283
 10
20.704905
 20
25.373183
 42
-0.040684
 10
20.688363
 20
25.316739
 42
0.023156
 10
20.660876
 20
25.233824
 42
0.005156
 10
20.621985
 20
25.089656
 42
0.005343
 10
20.580521
 20
24.922028
 42
0.005136
 10
20.542074
 20
24.751325
 42
0.026787
 10
20.510677
 20
24.553887
 42
0.013473
 10
20.49121
 20
24.302207
 42
0.013339
 10
20.485033
 20
24.040256
 42
0.019252
 10
20.494668
 20
23.808763
 42
0.025652
 10
20.526368
 20
23.568892
 42
0.017476
 10
20.585793
 20
23.300162
 42
0.017519
 10
20.66349
 20
23.037509
 42
0.026678
 10
20.750812
 20
22.816314
 10
20.964813
 20
22.348875
 10
20.754307
 20
22.151287
 42
0.02952
 10
20.651344
 20
22.042526
 42
0.008955
 10
20.508289
 20
21.866015
 42
0.008935
 10
20.354724
 20
21.66203
 42
0.009624
 10
20.212401
 20
21.45761
 42
0.010091
 10
20.08548
 20
21.259053
 42
0.013301
 10
19.978349
 20
21.072801
 42
0.010738
 10
19.897172
 20
20.914524
 42
0.113591
 10
19.881
 20
20.84426
 42
0.3731
 10
19.936737
 20
20.779962
 42
0.019503
 10
20.230223
 20
20.749513
 42
0.01388
 10
20.727094
 20
20.73131
 42
0.002215
 10
21.6999
 20
20.727
 10
23.5188
 20
20.727
 10
23.5188
 20
19.7964
 10
23.5188
 20
18.8658
 10
22.7997
 20
18.8658
 42
-0.004059
 10
22.328238
 20
18.869627
 42
-0.067556
 10
22.17366
 20
18.893171
 42
-0.226266
 10
22.105124
 20
18.954639
 42
-0.098988
 10
22.0806
 20
19.0773
 10
22.0806
 20
19.2888
 10
19.241507
 20
19.2888
 42
-0.001926
 10
17.983195
 20
19.293646
 42
-0.005772
 10
17.123489
 20
19.310194
 42
-0.002288
 10
16.477543
 20
19.333048
 42
-0.574033
 10
16.455447
 20
19.374609
 42
-0.092822
 10
16.494375
 20
19.417354
 42
-0.014685
 10
16.587338
 20
19.483389
 42
-0.015858
 10
16.702993
 20
19.555344
 42
-0.013273
 10
16.829967
 20
19.624428
 42
0.031979
 10
16.986084
 20
19.717095
 42
0.011264
 10
17.197794
 20
19.868923
 42
0.011129
 10
17.423636
 20
20.046721
 42
0.012821
 10
17.630695
 20
20.226438
 42
0.024842
 10
17.841914
 20
20.439669
 42
0.014929
 10
18.071757
 20
20.711925
 42
0.014851
 10
18.28776
 20
21.00109
 42
0.02227
 10
18.457055
 20
21.266769
 42
-0.000768
 10
18.607496
 20
21.526894
 42
-0.00059
 10
18.772616
 20
21.810619
 42
-0.000596
 10
18.927715
 20
22.075679
 42
-0.001416
 10
19.043861
 20
22.272348
 42
0.014529
 10
19.16977
 20
22.498913
 42
0.061342
 10
19.223781
 20
22.644324
 42
0.091559
 10
19.230017
 20
22.76769
 42
0.058925
 10
19.194511
 20
22.906848
 42
-0.048926
 10
19.157148
 20
23.041978
 42
-0.009207
 10
19.117892
 20
23.295591
 42
-0.009766
 10
19.083148
 20
23.59474
 42
-0.008808
 10
19.058711
 20
23.905493
 10
19.011949
 20
24.672887
 10
19.329382
 20
24.860177
 42
-0.012844
 10
19.484544
 20
24.94643
 42
-0.005681
 10
19.693583
 20
25.052696
 42
-0.005618
 10
19.917745
 20
25.160346
 42
-0.007534
 10
20.123457
 20
25.252559
 42
-0.00455
 10
20.311322
 20
25.331376
 42
-0.006291
 10
20.481383
 20
25.398426
 42
-0.004101
 10
20.624915
 20
25.451597
 42
-0.074811
  0
LWPOLYLINE
  5
B5E
330
1D
100
AcDbEntity
  8
0
100
AcDbPolyline
 90
      242
 70
     1
 43
0.0
 10
10.108331
 20
24.2802
 42
-0.160221
 10
10.122428
 20
24.275564
 42
-0.001386
 10
10.214834
 20
24.207014
 42
-0.004655
 10
10.320599
 20
24.126555
 42
-0.002964
 10
10.442243
 20
24.031055
 42
0.022082
 10
10.583494
 20
23.92864
 42
0.016039
 10
10.748941
 20
23.82695
 42
0.016258
 10
10.912502
 20
23.740437
 42
0.033822
 10
11.046076
 20
23.686094
 42
-0.03456
 10
11.167547
 20
23.636465
 42
-0.059309
 10
11.259205
 20
23.577009
 42
-0.077175
 10
11.316754
 20
23.511767
 42
-0.143163
 10
11.3364
 20
23.444559
 42
0.058514
 10
11.343825
 20
23.381334
 42
0.038978
 10
11.366221
 20
23.311823
 42
0.039052
 10
11.399041
 20
23.246843
 42
0.059983
 10
11.43792
 20
23.19732
 42
0.087818
 10
11.4937
 20
23.158317
 42
0.036457
 10
11.58
 20
23.125622
 42
0.034641
 10
11.679859
 20
23.10329
 42
0.037707
 10
11.779037
 20
23.0958
 42
-0.037187
 10
11.890313
 20
23.087513
 42
-0.018929
 10
12.028221
 20
23.061486
 42
-0.018696
 10
12.169135
 20
23.023732
 42
-0.02655
 10
12.290867
 20
22.978986
 42
-0.036311
 10
12.414837
 20
22.914772
 42
-0.017465
 10
12.564126
 20
22.815797
 42
-0.017215
 10
12.713359
 20
22.701217
 42
-0.023575
 10
12.838825
 20
22.587489
 42
-0.040644
 10
12.960945
 20
22.444271
 42
-0.028384
 10
13.075194
 20
22.265261
 42
-0.027436
 10
13.172869
 20
22.066341
 42
-0.029678
 10
13.245314
 20
21.862997
 42
-0.049932
 10
13.314002
 20
21.492122
 42
-0.013732
 10
13.347204
 20
20.898633
 42
-0.007726
 10
13.359522
 20
19.949151
 42
-0.001374
 10
13.350239
 20
18.172544
 42
-0.001091
 10
13.330442
 20
16.222911
 42
-0.009974
 10
13.303065
 20
15.375209
 42
-0.023062
 10
13.254476
 20
14.882742
 42
-0.065381
 10
13.160919
 20
14.5512
 42
-0.012802
 10
13.083122
 20
14.382111
 42
-0.008002
 10
12.983856
 20
14.188049
 42
-0.008029
 10
12.879849
 20
13.999854
 42
-0.014457
 10
12.787722
 20
13.849541
 42
-0.031964
 10
12.678043
 20
13.703049
 42
-0.014537
 10
12.517362
 20
13.525528
 42
-0.014327
 10
12.336538
 20
13.347565
 42
-0.019088
 10
12.16184
 20
13.197226
 10
11.745673
 20
12.865869
 10
11.985187
 20
12.803943
 42
0.007269
 10
12.086193
 20
12.779389
 42
0.006515
 10
12.19162
 20
12.756819
 42
0.006546
 10
12.286793
 20
12.73903
 42
0.020257
 10
12.3516
 20
12.73048
 42
-0.001112
 10
12.410186
 20
12.725021
 42
-0.000607
 10
12.482019
 20
12.71808
 42
-0.000605
 10
12.554988
 20
12.71085
 42
-0.000964
 10
12.617379
 20
12.704471
 42
-0.116614
 10
12.674088
 20
12.684665
 42
-0.066989
 10
12.729663
 20
12.637669
 42
-0.06117
 10
12.775764
 20
12.57211
 42
-0.061271
 10
12.804602
 20
12.497381
 42
0.06294
 10
12.842111
 20
12.401135
 42
0.017895
 10
12.92386
 20
12.262606
 42
0.017723
 10
13.028234
 20
12.111457
 42
0.017912
 10
13.1427
 20
11.968631
 42
0.019066
 10
13.27291
 20
11.828738
 42
0.014779
 10
13.424675
 20
11.686344
 42
0.015019
 10
13.574379
 20
11.561788
 42
0.034503
 10
13.695727
 20
11.479667
 10
13.959
 20
11.326834
 10
13.959
 20
15.011717
 10
13.959
 20
18.6966
 10
16.9059
 20
18.6966
 42
-0.001108
 10
18.038298
 20
18.694091
 42
-0.001815
 10
18.997503
 20
18.686358
 42
-0.000189
 10
19.853893
 20
18.676021
 42
-0.194261
 10
19.88805
 20
18.661733
 42
-0.194268
 10
19.901536
 20
18.630458
 42
-0.003176
 10
19.90484
 20
18.436115
 42
-0.00774
 10
19.903735
 20
18.207404
 42
-0.004998
 10
19.895708
 20
17.942633
 10
19.868116
 20
17.2584
 10
17.632658
 20
17.2584
 10
15.3972
 20
17.2584
 10
15.392745
 20
12.71115
 10
15.38829
 20
8.1639
 10
15.179517
 20
8.585103
 42
0.022878
 10
15.077728
 20
8.768834
 42
0.014578
 10
14.943624
 20
8.973155
 42
0.014645
 10
14.800075
 20
9.166253
 42
0.026243
 10
14.669648
 20
9.314656
 42
0.013987
 10
14.540897
 20
9.439333
 42
0.013243
 10
14.403059
 20
9.558981
 42
0.013323
 10
14.275524
 20
9.658318
 42
0.044441
 10
14.184926
 20
9.713401
 42
0.005722
 10
14.076313
 20
9.765333
 42
0.000896
 10
13.860811
 20
9.864891
 42
0.000996
 10
13.606285
 20
9.98131
 42
0.000869
 10
13.339412
 20
10.102176
 42
-0.01855
 10
12.999876
 20
10.270658
 42
-0.02718
 10
12.715989
 20
10.445515
 42
-0.027574
 10
12.455759
 20
10.648122
 42
-0.019901
 10
12.188199
 20
10.900632
 42
0.019522
 10
11.942169
 20
11.133175
 42
0.022626
 10
11.690171
 20
11.33403
 42
0.023817
 10
11.433878
 20
11.501972
 42
0.02766
 10
11.174966
 20
11.635824
 42
-0.025264
 10
10.925575
 20
11.763245
 42
-0.025558
 10
10.691304
 20
11.914722
 42
-0.025872
 10
10.476458
 20
12.08733
 42
-0.027492
 10
10.285141
 20
12.277929
 42
-0.018419
 10
10.13201
 20
12.46141
 42
-0.013273
 10
9.974431
 20
12.676584
 42
-0.013436
 10
9.835338
 20
12.889499
 42
-0.028108
 10
9.74125
 20
13.063538
 42
-0.019035
 10
9.669052
 20
13.233665
 42
-0.012907
 10
9.599343
 20
13.432332
 42
-0.013018
 10
9.54189
 20
13.627989
 42
-0.025259
 10
9.508083
 20
13.787327
 10
9.452888
 20
14.132495
 10
9.681051
 20
14.045748
 42
0.037976
 10
9.793407
 20
14.012537
 42
0.016678
 10
9.946192
 20
13.985028
 42
0.016394
 10
10.110994
 20
13.966492
 42
0.02112
 10
10.263257
 20
13.960858
 42
0.034346
 10
10.423583
 20
13.97273
 42
0.019884
 10
10.613733
 20
14.007791
 42
0.019809
 10
10.802547
 20
14.058366
 42
0.031272
 10
10.9592
 20
14.11802
 42
0.032748
 10
11.106586
 20
14.196983
 42
0.020962
 10
11.267025
 20
14.306564
 42
0.021057
 10
11.415809
 20
14.427686
 42
0.036496
 10
11.526999
 20
14.541789
 42
0.031479
 10
11.619897
 20
14.667458
 42
0.020156
 10
11.712208
 20
14.823813
 42
0.020249
 10
11.790549
 20
14.984951
 42
0.035298
 10
11.840277
 20
15.124877
 42
0.041013
 10
11.874199
 20
15.302292
 42
0.008824
 10
11.902127
 20
15.61423
 42
0.009157
 10
11.921531
 20
15.977696
 42
0.008626
 10
11.928128
 20
16.34895
 10
11.9286
 20
17.2584
 10
9.0522
 20
17.2584
 42
-0.00167
 10
7.949245
 20
17.262085
 42
-0.002786
 10
7.020742
 20
17.273462
 42
-0.000313
 10
6.196405
 20
17.288672
 42
-0.408638
 10
6.1758
 20
17.309674
 42
-0.177617
 10
6.186172
 20
17.33795
 42
-0.016512
 10
6.236933
 20
17.393974
 42
-0.019626
 10
6.304196
 20
17.458208
 42
-0.014153
 10
6.383911
 20
17.524649
 42
0.046689
 10
6.478814
 20
17.614818
 42
0.01753
 10
6.594635
 20
17.757285
 42
0.017188
 10
6.710678
 20
17.9222
 42
0.020005
 10
6.80903
 20
18.086724
 42
-0.027792
 10
6.90967
 20
18.249279
 42
-0.023949
 10
7.032522
 20
18.408287
 42
-0.024659
 10
7.158187
 20
18.54183
 42
-0.0617
 10
7.265121
 20
18.621985
 42
0.052326
 10
7.382209
 20
18.70638
 42
0.074097
 10
7.464228
 20
18.804996
 42
0.06533
 10
7.520563
 20
18.932727
 42
0.031596
 10
7.559925
 20
19.107326
 42
-0.02787
 10
7.593982
 20
19.263818
 42
-0.016319
 10
7.651161
 20
19.446941
 42
-0.016291
 10
7.720544
 20
19.626966
 42
-0.026526
 10
7.792272
 20
19.774141
 42
-0.01423
 10
7.873197
 20
19.910695
 42
-0.010375
 10
7.970506
 20
20.057871
 42
-0.010498
 10
8.068669
 20
20.193659
 42
-0.022624
 10
8.150999
 20
20.292972
 42
-0.027578
 10
8.24445
 20
20.385095
 42
-0.011718
 10
8.379013
 20
20.498358
 42
-0.011553
 10
8.528598
 20
20.612812
 42
-0.014851
 10
8.6715
 20
20.710642
 42
-0.028813
 10
8.831591
 20
20.800823
 42
-0.01629
 10
9.034751
 20
20.892237
 42
-0.016221
 10
9.246307
 20
20.971338
 42
-0.025557
 10
9.4329
 20
21.023837
 10
9.8559
 20
21.119833
 10
9.90573
 20
21.536766
 42
-0.010018
 10
9.929578
 20
21.707246
 42
-0.010362
 10
9.960008
 20
21.874715
 42
-0.010127
 10
9.992266
 20
22.018485
 42
-0.043169
 10
10.020531
 20
22.10175
 42
-0.014839
 10
10.04746
 20
22.158476
 42
-0.021997
 10
10.07465
 20
22.20631
 42
-0.018345
 10
10.099374
 20
22.24264
 42
-0.238514
 10
10.11353
 20
22.2498
 42
-0.170991
 10
10.131859
 20
22.243343
 42
-0.00326
 10
10.211265
 20
22.178612
 42
-0.007512
 10
10.303171
 20
22.100336
 42
-0.004912
 10
10.406886
 20
22.007459
 42
0.032143
 10
10.532615
 20
21.90664
 42
0.019861
 10
10.691991
 20
21.804057
 42
0.019893
 10
10.858224
 20
21.714876
 42
0.033475
 10
11.004865
 20
21.655334
 42
-0.024336
 10
11.131525
 20
21.606581
 42
-0.035929
 10
11.23669
 20
21.550767
 42
-0.03947
 10
11.310502
 20
21.495965
 42
-0.246763
 10
11.326933
 20
21.453525
 42
0.028071
 10
11.32291
 20
21.384648
 42
0.000456
 10
11.322405
 20
20.997125
 42
0.001189
 10
11.323301
 20
20.546343
 42
0.000789
 10
11.326376
 20
20.02905
 10
11.3364
 20
18.6966
 10
11.6325
 20
18.6966
 10
11.9286
 20
18.6966
 10
11.9286
 20
20.043281
 42
0.003547
 10
11.924871
 20
20.568968
 42
0.005121
 10
11.913516
 20
21.033683
 42
0.002768
 10
11.897743
 20
21.425742
 42
0.080338
 10
11.877249
 20
21.523781
 42
0.085482
 10
11.846795
 20
21.574938
 42
0.066241
 10
11.798449
 20
21.618291
 42
0.06606
 10
11.740294
 20
21.647596
 42
0.08391
 10
11.681104
 20
21.6576
 42
-0.045854
 10
11.59962
 20
21.665088
 42
-0.008725
 10
11.453527
 20
21.694815
 42
-0.009244
 10
11.283648
 20
21.735789
 42
-0.008378
 10
11.109703
 20
21.784289
 42
-0.029818
 10
10.929388
 20
21.84976
 42
-0.022668
 10
10.740334
 20
21.94184
 42
-0.023125
 10
10.570422
 20
22.044805
 42
-0.048625
 10
10.451343
 20
22.14273
 42
-0.027326
 10
10.350232
 20
22.25554
 42
-0.014624
 10
10.237412
 20
22.404915
 42
-0.014519
 10
10.130866
 20
22.564528
 42
-0.021957
 10
10.048507
 20
22.709833
 42
-0.034965
 10
9.979362
 20
22.872539
 42
-0.026989
 10
9.926451
 20
23.057956
 42
-0.026922
 10
9.893688
 20
23.248614
 42
-0.034118
 10
9.88509
 20
23.427099
 42
-0.020756
 10
9.895169
 20
23.590583
 42
-0.016437
 10
9.919169
 20
23.766031
 42
-0.016735
 10
9.952293
 20
23.927532
 42
-0.039255
 10
9.990341
 20
24.044607
 42
-0.006918
 10
10.029221
 20
24.134915
 42
-0.010983
 10
10.065255
 20
24.210994
 42
-0.005089
 10
10.097416
 20
24.273612
 42
-0.278411
  0
LWPOLYLINE
  5
C52
330
1D
100
AcDbEntity
  8
0
100
AcDbPolyline
 90
      124
 70
     1
 43
0.0
 10
34.84151
 20
24.064233
 42
0.035516
 10
34.953414
 20
23.97428
 42
0.017818
 10
35.106168
 20
23.876273
 42
0.017597
 10
35.27212
 20
23.785695
 42
0.024847
 10
35.42625
 20
23.717832
 42
-0.02412
 10
35.588423
 20
23.64671
 42
-0.057259
 10
35.698759
 20
23.575063
 42
-0.08325
 10
35.763413
 20
23.500503
 42
-0.137927
 10
35.7858
 20
23.420893
 42
0.104628
 10
35.799925
 20
23.354132
 42
0.065051
 10
35.841715
 20
23.285495
 42
0.061037
 10
35.903371
 20
23.225465
 42
0.066075
 10
35.97615
 20
23.183972
 42
0.024059
 10
36.070562
 20
23.150778
 42
0.010003
 10
36.200843
 20
23.114725
 42
0.00987
 10
36.342181
 20
23.081597
 42
0.012577
 10
36.473762
 20
23.056926
 42
-0.045005
 10
36.615366
 20
23.020748
 42
-0.02173
 10
36.789066
 20
22.950656
 42
-0.021349
 10
36.965054
 20
22.86133
 42
-0.028642
 10
37.115663
 20
22.764869
 42
-0.038273
 10
37.261216
 20
22.641418
 42
-0.026098
 10
37.407378
 20
22.480919
 42
-0.025963
 10
37.537158
 20
22.304626
 42
-0.03583
 10
37.633251
 20
22.133251
 42
-0.04437
 10
37.733928
 20
21.858065
 42
-0.041698
 10
37.787108
 20
21.563638
 42
-0.020843
 10
37.81079
 20
21.12279
 42
-0.002997
 10
37.8162
 20
20.220322
 10
37.8162
 20
18.6966
 10
38.074201
 20
18.6966
 42
0.039209
 10
38.190842
 20
18.705761
 42
0.022668
 10
38.32878
 20
18.734022
 42
0.022553
 10
38.465445
 20
18.775178
 42
0.034925
 10
38.578553
 20
18.823993
 42
0.056004
 10
38.692028
 20
18.89983
 42
0.054263
 10
38.787194
 20
18.999688
 42
0.050914
 10
38.863462
 20
19.123754
 42
0.039608
 10
38.920808
 20
19.271485
 42
0.030279
 10
38.960878
 20
19.442194
 42
0.042079
 10
38.974348
 20
19.598602
 42
0.040598
 10
38.961572
 20
19.759271
 42
0.025638
 10
38.922017
 20
19.943256
 42
0.038777
 10
38.869338
 20
20.091916
 42
0.030711
 10
38.790664
 20
20.243233
 42
0.031579
 10
38.698776
 20
20.376397
 42
0.059354
 10
38.606452
 20
20.468664
 42
0.026249
 10
38.511856
 20
20.535348
 42
0.025853
 10
38.410324
 20
20.592121
 42
0.026758
 10
38.316393
 20
20.63235
 42
0.083273
 10
38.248941
 20
20.644973
 42
-0.016791
 10
38.175112
 20
20.648845
 42
-0.437263
 10
38.164152
 20
20.662956
 42
-0.21545
 10
38.178304
 20
20.684163
 42
-0.007733
 10
38.263976
 20
20.735805
 42
-0.086561
 10
38.357467
 20
20.77039
 42
-0.046462
 10
38.48036
 20
20.781328
 42
-0.035256
 10
38.637494
 20
20.769588
 42
-0.016553
 10
38.83815
 20
20.733456
 42
-0.0254
 10
39.018404
 20
20.685108
 42
-0.019239
 10
39.210712
 20
20.614624
 42
-0.019583
 10
39.386491
 20
20.534233
 42
-0.042158
 10
39.513152
 20
20.456162
 42
-0.033874
 10
39.622686
 20
20.363083
 42
-0.018859
 10
39.743529
 20
20.236194
 42
-0.01874
 10
39.856634
 20
20.097976
 42
-0.028718
 10
39.942834
 20
19.969489
 42
-0.042853
 10
40.013925
 20
19.821502
 42
-0.020417
 10
40.080691
 20
19.62094
 42
-0.020068
 10
40.133793
 20
19.404313
 42
-0.026864
 10
40.163331
 20
19.2042
 42
0.01714
 10
40.196962
 20
18.941044
 42
0.072514
 10
40.244739
 20
18.7899
 42
0.095291
 10
40.326732
 20
18.679991
 42
0.042255
 10
40.470776
 20
18.569259
 42
-0.041991
 10
40.582329
 20
18.483598
 42
-0.02564
 10
40.69925
 20
18.365582
 42
-0.025606
 10
40.803821
 20
18.235808
 42
-0.040872
 10
40.877664
 20
18.114107
 42
0.023176
 10
40.948009
 20
17.98835
 42
0.014018
 10
41.042171
 20
17.845995
 42
0.014032
 10
41.143829
 20
17.709597
 42
0.023863
 10
41.237214
 20
17.602318
 42
-0.012047
 10
41.320248
 20
17.51136
 42
-0.01642
 10
41.390319
 20
17.425232
 42
-0.013265
 10
41.443521
 20
17.351272
 42
-0.150385
 10
41.454
 20
17.317221
 42
-0.406827
 10
41.430556
 20
17.293177
 42
-0.000528
 10
40.708462
 20
17.275679
 42
-0.003621
 10
39.889193
 20
17.262627
 42
-0.002172
 10
38.916
 20
17.2584
 10
36.378
 20
17.2584
 10
36.378
 20
19.412723
 42
0.001406
 10
36.374272
 20
20.738761
 42
0.016217
 10
36.354468
 20
21.258932
 42
0.041836
 10
36.311933
 20
21.532742
 42
0.213578
 10
36.219923
 20
21.651647
 42
0.026209
 10
36.156679
 20
21.681343
 42
0.036876
 10
36.097404
 20
21.700518
 42
0.040621
 10
36.049122
 20
21.708208
 42
0.218938
 10
36.024816
 20
21.699216
 42
-0.223094
 10
35.995523
 20
21.688643
 42
-0.013596
 10
35.900656
 20
21.700062
 42
-0.018172
 10
35.78467
 20
21.721566
 42
-0.012285
 10
35.654143
 20
21.754094
 42
-0.023718
 10
35.509072
 20
21.801562
 42
-0.016131
 10
35.348792
 20
21.868557
 42
-0.016282
 10
35.197966
 20
21.943422
 42
-0.031169
 10
35.083172
 20
22.014693
 42
-0.038826
 10
34.976204
 20
22.103979
 42
-0.017281
 10
34.849204
 20
22.236778
 42
-0.016984
 10
34.723813
 20
22.387302
 42
-0.022018
 10
34.619955
 20
22.533842
 42
-0.030009
 10
34.504172
 20
22.739608
 42
-0.051716
 10
34.436991
 20
22.924114
 42
-0.044216
 10
34.403086
 20
23.137628
 42
-0.016344
 10
34.391984
 20
23.442347
 42
-0.015586
 10
34.398589
 20
23.683058
 42
-0.025022
 10
34.420854
 20
23.887192
 42
-0.028458
 10
34.455697
 20
24.046308
 42
-0.105451
 10
34.50311
 20
24.136804
 42
-0.058781
 10
34.574712
 20
24.204947
 42
-0.216928
 10
34.634219
 20
24.218003
 42
-0.120859
 10
34.705916
 20
24.18321
 42
-0.013932
  0
LWPOLYLINE
  5
CD0
330
1D
100
AcDbEntity
  8
0
100
AcDbPolyline
 90
       38
 70
     1
 43
0.0
 10
26.14719
 20
21.991877
 42
-0.024289
 10
26.252964
 20
21.908534
 42
-0.009408
 10
26.39143
 20
21.783434
 42
-0.009288
 10
26.536654
 20
21.642016
 42
-0.011348
 10
26.666907
 20
21.50426
 42
-0.027508
 10
26.800096
 20
21.339459
 42
-0.0126
 10
26.956114
 20
21.111169
 42
-0.012435
 10
27.108716
 20
20.861957
 42
-0.016778
 10
27.233364
 20
20.62884
 42
-0.020296
 10
27.360726
 20
20.341233
 42
-0.026529
 10
27.452072
 20
20.068556
 42
-0.026494
 10
27.514116
 20
19.787443
 42
-0.020155
 10
27.553119
 20
19.474382
 10
27.60414
 20
18.8658
 10
26.89392
 20
18.865868
 10
26.1837
 20
18.865936
 10
26.158426
 20
19.257519
 42
0.034414
 10
26.134536
 20
19.435735
 42
0.019044
 10
26.082292
 20
19.649092
 42
0.018914
 10
26.012599
 20
19.862216
 42
0.028797
 10
25.934738
 20
20.040652
 42
0.020099
 10
25.841216
 20
20.208156
 42
0.014393
 10
25.723961
 20
20.387833
 42
0.01457
 10
25.602159
 20
20.552758
 42
0.030045
 10
25.495821
 20
20.672706
 42
0.026619
 10
25.379543
 20
20.777221
 42
0.014651
 10
25.227198
 20
20.892949
 42
0.014572
 10
25.065351
 20
21.001597
 42
0.022583
 10
24.919087
 20
21.084742
 10
24.582857
 20
21.256273
 10
25.079874
 20
21.507594
 42
0.015244
 10
25.282926
 20
21.618166
 42
0.014561
 10
25.48205
 20
21.742523
 42
0.014669
 10
25.651295
 20
21.86251
 42
0.04931
 10
25.751044
 20
21.954433
 42
-0.0189
 10
25.866197
 20
22.074272
 42
-0.169933
 10
25.931381
 20
22.104237
 42
-0.162708
 10
26.002434
 20
22.087724
 42
-0.016962
  0
LWPOLYLINE
  5
CF8
330
1D
100
AcDbEntity
  8
0
100
AcDbPolyline
 90
      118
 70
     1
 43
0.0
 10
34.593387
 20
22.1652
 42
-0.121241
 10
34.633084
 20
22.155431
 42
-0.015265
 10
34.710699
 20
22.111696
 42
-0.01721
 10
34.800963
 20
22.052806
 42
-0.013507
 10
34.894737
 20
21.983058
 42
0.028416
 10
35.00562
 20
21.90561
 42
0.015706
 10
35.148926
 20
21.823278
 42
0.015619
 10
35.299865
 20
21.748715
 42
0.024177
 10
35.434897
 20
21.694899
 10
35.7435
 20
21.588881
 10
35.7858
 20
18.302691
 10
35.8281
 20
15.0165
 10
36.035123
 20
14.710611
 42
0.02774
 10
36.135071
 20
14.579258
 42
0.017561
 10
36.265017
 20
14.437237
 42
0.01763
 10
36.402925
 20
14.30632
 42
0.030861
 10
36.527027
 20
14.209519
 42
0.043203
 10
36.676719
 20
14.124925
 42
0.030747
 10
36.856688
 20
14.055835
 42
0.028925
 10
37.056685
 20
14.005354
 42
0.026674
 10
37.266655
 20
13.976605
 42
0.021149
 10
37.459747
 20
13.96879
 42
0.017914
 10
37.663873
 20
13.976483
 42
0.018289
 10
37.849525
 20
13.996999
 42
0.047233
 10
37.980302
 20
14.029146
 42
-0.013767
 10
38.130721
 20
14.076981
 42
-0.138211
 10
38.195981
 20
14.077352
 42
-0.273104
 10
38.229112
 20
14.043088
 42
-0.058915
 10
38.2392
 20
13.957773
 42
-0.05709
 10
38.22883
 20
13.867251
 42
-0.010807
 10
38.187693
 20
13.705959
 42
-0.011416
 10
38.130982
 20
13.518773
 42
-0.010255
 10
38.063856
 20
13.327497
 42
-0.025737
 10
37.972733
 20
13.117548
 42
-0.014533
 10
37.842089
 20
12.872623
 42
-0.014479
 10
37.695584
 20
12.632609
 42
-0.02298
 10
37.555135
 20
12.437095
 42
-0.028186
 10
37.395347
 20
12.256828
 42
-0.01759
 10
37.189549
 20
12.063558
 42
-0.017639
 10
36.97256
 20
11.886804
 42
-0.030408
 10
36.77873
 20
11.757727
 42
-0.011752
 10
36.593368
 20
11.655694
 42
-0.011632
 10
36.402789
 20
11.562118
 42
-0.01156
 10
36.232368
 20
11.488038
 42
-0.043391
 10
36.121058
 20
11.453582
 42
0.08277
 10
36.024544
 20
11.415186
 42
0.035286
 10
35.910598
 20
11.334808
 42
0.033684
 10
35.798532
 20
11.229941
 42
0.037642
 10
35.706013
 20
11.114585
 42
-0.02531
 10
35.607301
 20
10.985097
 42
-0.014015
 10
35.474715
 20
10.836935
 42
-0.013946
 10
35.331643
 20
10.694005
 42
-0.021793
 10
35.200032
 20
10.580094
 42
-0.022567
 10
35.05284
 20
10.473959
 42
-0.011718
 10
34.860409
 20
10.35434
 42
-0.011627
 10
34.656642
 20
10.240501
 42
-0.017339
 10
34.472977
 20
10.151429
 42
0.00214
 10
34.284941
 20
10.067196
 42
0.001377
 10
34.067629
 20
9.968008
 42
0.001384
 10
33.855556
 20
9.869792
 42
0.002604
 10
33.684929
 20
9.789112
 42
0.02741
 10
33.522637
 20
9.700092
 42
0.015793
 10
33.337133
 20
9.576398
 42
0.015749
 10
33.158178
 20
9.440025
 42
0.02532
 10
33.015699
 20
9.311669
 42
0.027124
 10
32.886929
 20
9.16854
 42
0.016503
 10
32.750019
 20
8.986714
 42
0.01652
 10
32.625816
 20
8.796874
 42
0.027912
 10
32.53627
 20
8.6292
 10
32.3595
 20
8.2485
 10
32.337609
 20
12.75345
 10
32.315717
 20
17.2584
 10
29.017059
 20
17.2584
 10
25.7184
 20
17.2584
 10
25.7184
 20
17.978328
 10
25.7184
 20
18.698257
 10
29.71575
 20
18.676278
 10
33.7131
 20
18.6543
 10
33.7554
 20
14.989183
 10
33.7977
 20
11.324065
 10
34.146133
 20
11.57651
 42
0.019534
 10
34.291502
 20
11.690749
 42
0.015316
 10
34.44018
 20
11.82535
 42
0.015576
 10
34.570892
 20
11.95927
 42
0.036271
 10
34.657857
 20
12.069127
 42
0.013043
 10
34.727297
 20
12.17722
 42
0.008822
 10
34.801002
 20
12.303798
 42
0.008891
 10
34.867944
 20
12.428739
 42
0.01749
 10
34.915855
 20
12.530744
 42
-0.050026
 10
34.973928
 20
12.636017
 42
-0.096523
 10
35.042476
 20
12.703057
 42
-0.096836
 10
35.131022
 20
12.739326
 42
-0.050597
 10
35.250131
 20
12.750625
 42
0.021757
 10
35.358714
 20
12.754643
 42
0.012869
 10
35.487675
 20
12.768394
 42
0.012864
 10
35.615929
 20
12.788788
 42
0.021501
 10
35.722374
 20
12.813309
 10
35.955048
 20
12.877555
 10
35.632315
 20
13.111341
 42
-0.023073
 10
35.48913
 20
13.225493
 42
-0.01277
 10
35.324699
 20
13.377066
 42
-0.012712
 10
35.165611
 20
13.539462
 42
-0.01996
 10
35.038309
 20
13.687638
 42
-0.019072
 10
34.920751
 20
13.848294
 42
-0.011052
 10
34.791331
 20
14.049555
 42
-0.011036
 10
34.670293
 20
14.25742
 42
-0.018209
 10
34.578468
 20
14.438724
 42
-0.062087
 10
34.467309
 20
14.787683
 42
-0.031753
 10
34.411798
 20
15.244659
 42
-0.011439
 10
34.384066
 20
16.047659
 42
-0.000896
 10
34.362971
 20
18.189
 42
-0.001793
 10
34.356179
 20
19.707608
 42
-0.004788
 10
34.365589
 20
20.790348
 42
-0.004065
 10
34.386463
 20
21.580945
 42
-0.063304
 10
34.429817
 20
21.84795
 42
-0.018958
 10
34.470815
 20
21.969499
 42
-0.02821
 10
34.516548
 20
22.072008
 42
-0.027205
 10
34.561001
 20
22.147802
 42
-0.251607
  0
LWPOLYLINE
  5
D70
330
1D
100
AcDbEntity
  8
0
100
AcDbPolyline
 90
       56
 70
     1
 43
0.0
 10
24.735746
 20
20.727
 42
-0.013404
 10
25.023853
 20
20.719275
 42
-0.052459
 10
25.199375
 20
20.69123
 42
-0.079019
 10
25.326312
 20
20.634396
 42
-0.061465
 10
25.442019
 20
20.53665
 42
-0.028883
 10
25.521608
 20
20.439985
 42
-0.012464
 10
25.616695
 20
20.30281
 42
-0.012285
 10
25.710913
 20
20.151404
 42
-0.015914
 10
25.789355
 20
20.0079
 42
-0.012231
 10
25.85688
 20
19.865929
 42
-0.011817
 10
25.918202
 20
19.719203
 42
-0.011813
 10
25.966047
 20
19.587562
 42
-0.041767
 10
25.98754
 20
19.5003
 42
-0.077016
 10
25.9879
 20
19.416263
 42
-0.171979
 10
25.958224
 20
19.360636
 42
-0.124672
 10
25.89185
 20
19.325059
 42
-0.032552
 10
25.77191
 20
19.303371
 10
25.529319
 20
19.275643
 10
25.568889
 20
17.949771
 42
0.005622
 10
25.595094
 20
17.312188
 42
0.013279
 10
25.632569
 20
16.838078
 42
0.017532
 10
25.683157
 20
16.48038
 42
0.041551
 10
25.751882
 20
16.220582
 42
0.020444
 10
25.824801
 20
16.039357
 42
0.011739
 10
25.926598
 20
15.826948
 42
0.011715
 10
26.039096
 20
15.617957
 42
0.019111
 10
26.145253
 20
15.446913
 42
-0.005206
 10
26.241028
 20
15.301766
 42
-0.007682
 10
26.321778
 20
15.172245
 42
-0.004019
 10
26.387212
 20
15.061607
 42
-0.132276
 10
26.3952
 20
15.031942
 42
-0.278496
 10
26.381992
 20
15.010068
 42
-0.013291
 10
26.302008
 20
14.970663
 42
-0.018557
 10
26.199539
 20
14.928054
 42
-0.01195
 10
26.07795
 20
14.88599
 42
0.017712
 10
25.928605
 20
14.83239
 42
0.00824
 10
25.738688
 20
14.75288
 42
0.008151
 10
25.541851
 20
14.662781
 42
0.011271
 10
25.368517
 20
14.575145
 10
24.976334
 20
14.365632
 10
24.504693
 20
14.852575
 42
-0.00969
 10
24.326646
 20
15.043673
 42
-0.015428
 10
24.182766
 20
15.214553
 42
-0.009339
 10
24.072711
 20
15.359236
 42
-0.305285
 10
24.071078
 20
15.401048
 42
0.13454
 10
24.086672
 20
15.454059
 42
0.000379
 10
24.099967
 20
16.198075
 42
0.002222
 10
24.110631
 20
17.04003
 42
0.001381
 10
24.116024
 20
18.02793
 42
-0.0015
 10
24.121656
 20
19.016196
 42
-0.002406
 10
24.133049
 20
19.85935
 42
-0.000445
 10
24.147335
 20
20.602746
 42
-0.134164
 10
24.164265
 20
20.660141
 42
-0.215731
 10
24.203516
 20
20.686552
 42
-0.012715
 10
24.349182
 20
20.70736
 42
-0.017348
 10
24.529612
 20
20.722147
 42
-0.01177
  0
LWPOLYLINE
  5
DAA
330
1D
100
AcDbEntity
  8
0
100
AcDbPolyline
 90
      308
 70
     1
 43
0.0
 10
20.833293
 20
19.2042
 10
21.503586
 20
19.2042
 10
21.474843
 20
17.91405
 42
-0.003916
 10
21.451076
 20
17.124891
 42
-0.027712
 10
21.415345
 20
16.743233
 42
-0.048687
 10
21.344765
 20
16.462202
 42
-0.028288
 10
21.209189
 20
16.141459
 42
-0.029547
 10
21.085525
 20
15.92323
 42
-0.019594
 10
20.919665
 20
15.687836
 42
-0.019464
 10
20.733792
 20
15.463503
 42
-0.026918
 10
20.54914
 20
15.27858
 42
-0.024458
 10
20.355912
 20
15.121233
 42
-0.017245
 10
20.124685
 20
14.963038
 42
-0.017455
 10
19.892499
 20
14.826803
 42
-0.034681
 10
19.698379
 20
14.738625
 10
19.270756
 20
14.579108
 10
19.630259
 20
14.314726
 42
0.031067
 10
19.799716
 20
14.205634
 42
0.02472
 10
19.994621
 20
14.108962
 42
0.025234
 10
20.191539
 20
14.034717
 42
0.040334
 10
20.366497
 20
13.993849
 42
0.02142
 10
20.539209
 20
13.97547
 42
0.012344
 10
20.748225
 20
13.967419
 42
0.01232
 10
20.958872
 20
13.969701
 42
0.02012
 10
21.136966
 20
13.983209
 10
21.5307
 20
14.029063
 10
21.544401
 20
13.453192
 42
0.017459
 10
21.558329
 20
13.216188
 42
0.017357
 10
21.588772
 20
12.980266
 42
0.017493
 10
21.629698
 20
12.776299
 42
0.062487
 10
21.676212
 20
12.6519
 10
21.794322
 20
12.426478
 10
22.148493
 20
13.129289
 42
-0.004646
 10
22.293503
 20
13.410511
 42
-0.005452
 10
22.436332
 20
13.674286
 42
-0.004831
 10
22.561497
 20
13.894501
 42
-0.03325
 10
22.631022
 20
13.997673
 42
-0.112173
 10
22.722254
 20
14.072653
 42
-0.241275
 10
22.810799
 20
14.071857
 42
-0.069854
 10
22.937713
 20
13.980875
 42
-0.004677
 10
23.259177
 20
13.668663
 10
23.758975
 20
13.17408
 10
23.512326
 20
12.69939
 42
0.012169
 10
23.41429
 20
12.498936
 42
0.011336
 10
23.323663
 20
12.289194
 42
0.011395
 10
23.251629
 20
12.099202
 42
0.037246
 10
23.216427
 20
11.969565
 42
0.047733
 10
23.203791
 20
11.837379
 42
0.066654
 10
23.219543
 20
11.719825
 42
0.062891
 10
23.266751
 20
11.605608
 42
0.037259
 10
23.349128
 20
11.483115
 42
0.041872
 10
23.450018
 20
11.374863
 42
0.068397
 10
23.553382
 20
11.304101
 42
0.069995
 10
23.670233
 20
11.264863
 42
0.046083
 10
23.811668
 20
11.2518
 42
0.04567
 10
23.932799
 20
11.262887
 42
0.032677
 10
24.064774
 20
11.296288
 42
0.033196
 10
24.187359
 20
11.345191
 42
0.058745
 10
24.279288
 20
11.40325
 42
0.059421
 10
24.363098
 20
11.489434
 42
0.065077
 10
24.421304
 20
11.590445
 42
0.059451
 10
24.455126
 20
11.710763
 42
0.038836
 10
24.46632
 20
11.854667
 42
0.051504
 10
24.451432
 20
11.998814
 42
0.021436
 10
24.403224
 20
12.188641
 42
0.020936
 10
24.333758
 20
12.3892
 42
0.025404
 10
24.251526
 20
12.570367
 42
0.018855
 10
24.142133
 20
12.763844
 42
0.008898
 10
23.987258
 20
13.005419
 42
0.008804
 10
23.815951
 20
13.252887
 42
0.012281
 10
23.653515
 20
13.467599
 42
0.022987
 10
23.471339
 20
13.676068
 42
0.014144
 10
23.239195
 20
13.904963
 42
0.014175
 10
22.996259
 20
14.118773
 42
0.02452
 10
22.781199
 20
14.28035
 42
0.016586
 10
22.556614
 20
14.421824
 42
0.010329
 10
22.284716
 20
14.573312
 42
0.010361
 10
22.010093
 20
14.711754
 42
0.018445
 10
21.777864
 20
14.812502
 10
21.263627
 20
15.013401
 10
21.581232
 20
15.504798
 42
0.022106
 10
21.709505
 20
15.723933
 42
0.016393
 10
21.832237
 20
15.976328
 42
0.01664
 10
21.932505
 20
16.222679
 42
0.035515
 10
21.989718
 20
16.419961
 42
0.007149
 10
22.024509
 20
16.594304
 42
0.007381
 10
22.053903
 20
16.767726
 42
0.007171
 10
22.074983
 20
16.918619
 42
0.031125
 10
22.0806
 20
17.008764
 42
-0.173899
 10
22.112382
 20
17.097382
 42
-0.165612
 10
22.193905
 20
17.147796
 42
-0.05145
 10
22.369826
 20
17.169506
 42
-0.004994
 10
22.7997
 20
17.1738
 10
23.5188
 20
17.1738
 10
23.5188
 20
16.337841
 10
23.5188
 20
15.501882
 10
23.83605
 20
15.267611
 42
-0.015858
 10
23.981185
 20
15.153152
 42
-0.008006
 10
24.157074
 20
15.000279
 42
-0.007943
 10
24.333896
 20
14.836409
 42
-0.011704
 10
24.483398
 20
14.68652
 42
-0.018472
 10
24.6357
 20
14.514182
 42
-0.008252
 10
24.823781
 20
14.276937
 42
-0.008155
 10
25.014689
 20
14.019187
 42
-0.010954
 10
25.178609
 20
13.779219
 42
-0.011054
 10
25.330468
 20
13.534437
 42
-0.008628
 10
25.484848
 20
13.262231
 42
-0.008738
 10
25.619873
 20
13.003617
 42
-0.02095
 10
25.708409
 20
12.806319
 10
25.873094
 20
12.3939
 10
26.015707
 20
12.72868
 42
0.038926
 10
26.070474
 20
12.891274
 42
0.018613
 10
26.116427
 20
13.107025
 42
0.018326
 10
26.147908
 20
13.337088
 42
0.02484
 10
26.15832
 20
13.546545
 10
26.15832
 20
14.029629
 10
26.606836
 20
13.983338
 42
0.015817
 10
26.799723
 20
13.969578
 42
0.012578
 10
27.00847
 20
13.966566
 42
0.01277
 10
27.202204
 20
13.973595
 42
0.03092
 10
27.344267
 20
13.991247
 42
0.03984
 10
27.479995
 20
14.028094
 42
0.017721
 10
27.652274
 20
14.096936
 42
0.017409
 10
27.830434
 20
14.183088
 42
0.022511
 10
27.987091
 20
14.274927
 42
0.009048
 10
28.122714
 20
14.366395
 42
0.013678
 10
28.237039
 20
14.451303
 42
0.008358
 10
28.328087
 20
14.525364
 42
0.221312
 10
28.341
 20
14.553108
 42
0.265838
 10
28.327164
 20
14.577292
 42
0.014669
 10
28.247808
 20
14.620866
 42
0.019526
 10
28.145329
 20
14.668333
 42
0.012736
 10
28.02375
 20
14.715384
 42
-0.023644
 10
27.877575
 20
14.775651
 42
-0.011797
 10
27.698365
 20
14.864873
 42
-0.011684
 10
27.516768
 20
14.966186
 42
-0.016861
 10
27.361556
 20
15.064794
 42
-0.022923
 10
27.212896
 20
15.176763
 42
-0.014843
 10
27.051127
 20
15.318949
 42
-0.014928
 10
26.901054
 20
15.467588
 42
-0.027192
 10
26.789166
 20
15.598827
 42
-0.021354
 10
26.68994
 20
15.74113
 42
-0.011454
 10
26.579224
 20
15.924462
 42
-0.011386
 10
26.474655
 20
16.116964
 42
-0.017473
 10
26.39386
 20
16.288626
 42
-0.019844
 10
26.329599
 20
16.456656
 42
-0.017119
 10
26.275309
 20
16.637688
 42
-0.017458
 10
26.237428
 20
16.805347
 42
-0.046859
 10
26.226
 20
16.927014
 10
26.226
 20
17.1738
 10
26.893824
 20
17.1738
 10
27.561649
 20
17.1738
 10
27.760974
 20
16.772072
 42
0.032623
 10
27.858327
 20
16.604306
 42
0.024251
 10
27.98619
 20
16.432401
 42
0.024711
 10
28.123288
 20
16.281474
 42
0.049736
 10
28.247761
 20
16.179872
 42
0.038874
 10
28.399862
 20
16.095297
 42
0.039683
 10
28.562193
 20
16.035961
 42
0.037889
 10
28.738654
 20
16.00104
 42
0.029916
 10
28.933018
 20
15.9894
 42
0.03099
 10
29.14634
 20
16.002635
 42
0.051365
 10
29.321889
 20
16.043102
 42
0.048996
 10
29.491116
 20
16.120123
 42
0.025476
 10
29.685866
 20
16.246599
 42
0.015049
 10
29.825272
 20
16.354126
 42
0.017636
 10
29.950543
 20
16.464524
 42
0.01677
 10
30.04909
 20
16.564216
 42
0.095205
 10
30.088311
 20
16.627299
 42
-0.042637
 10
30.111232
 20
16.674553
 42
-0.050176
 10
30.140812
 20
16.714522
 42
-0.057548
 10
30.172255
 20
16.742013
 42
-0.152023
 10
30.200488
 20
16.7508
 42
-0.321894
 10
30.227861
 20
16.73114
 42
-0.019564
 10
30.25797
 20
16.628751
 42
-0.02327
 10
30.285216
 20
16.494576
 42
-0.014505
 10
30.305196
 20
16.335313
 42
-0.020458
 10
30.315848
 20
16.141427
 42
-0.010678
 10
30.314061
 20
15.899431
 42
-0.010602
 10
30.301637
 20
15.650844
 42
-0.015936
 10
30.279314
 20
15.434909
 42
-0.029051
 10
30.235776
 20
15.212088
 42
-0.015234
 10
30.157283
 20
14.940671
 42
-0.015104
 10
30.059626
 20
14.666504
 42
-0.022388
 10
29.956297
 20
14.433346
 42
-0.019185
 10
29.835229
 20
14.211884
 42
-0.013706
 10
29.683723
 20
13.973454
 42
-0.013869
 10
29.526553
 20
13.753864
 42
-0.028619
 10
29.389574
 20
13.593259
 42
-0.01551
 10
29.247688
 20
13.453908
 42
-0.010247
 10
29.076598
 20
13.302369
 42
-0.010316
 10
28.904052
 20
13.161765
 42
-0.019631
 10
28.758755
 20
13.057187
 42
-0.027373
 10
28.601394
 20
12.965014
 42
-0.013038
 10
28.389944
 20
12.863115
 42
-0.012881
 10
28.162857
 20
12.767844
 42
-0.017854
 10
27.954428
 20
12.695107
 42
0.016185
 10
27.664833
 20
12.595126
 42
0.085894
 10
27.521242
 20
12.5098
 42
0.09978
 10
27.425081
 20
12.387007
 42
0.025673
 10
27.323221
 20
12.155268
 42
-0.025366
 10
27.244246
 20
11.975295
 42
-0.012444
 10
27.126629
 20
11.754317
 42
-0.012313
 10
26.992742
 20
11.530265
 42
-0.017494
 10
26.862068
 20
11.338536
 42
-0.017636
 10
26.716634
 20
11.154397
 42
-0.011709
 10
26.537666
 20
10.953276
 42
-0.011793
 10
26.35449
 20
10.765945
 42
-0.022439
 10
26.197202
 20
10.625706
 42
-0.019366
 10
26.032686
 20
10.502047
 42
-0.011479
 10
25.827756
 20
10.366939
 42
-0.011478
 10
25.616801
 20
10.241355
 42
-0.019333
 10
25.433673
 20
10.147097
 42
0.030012
 10
25.250616
 20
10.047877
 42
0.016683
 10
25.039617
 20
9.906583
 42
0.016591
 10
24.834865
 20
9.748785
 42
0.02569
 10
24.670234
 20
9.598114
 42
0.025984
 10
24.522253
 20
9.431527
 42
0.016909
 10
24.3684
 20
9.225122
 42
0.017012
 10
24.231588
 20
9.012946
 42
0.030806
 10
24.136748
 20
8.829477
 42
0.002457
 10
24.062715
 20
8.659418
 42
0.002471
 10
23.990496
 20
8.488957
 42
0.00241
 10
23.92899
 20
8.339741
 42
0.009922
 10
23.893987
 20
8.2485
 42
-0.039421
 10
23.856909
 20
8.166634
 42
-0.46724
 10
23.826908
 20
8.160786
 42
-0.137938
 10
23.794807
 20
8.206232
 42
-0.00736
 10
23.737596
 20
8.3754
 42
0.016493
 10
23.68806
 20
8.51351
 42
0.008066
 10
23.616337
 20
8.686279
 42
0.007992
 10
23.535921
 20
8.863675
 42
0.011479
 10
23.45863
 20
9.01791
 42
0.029263
 10
23.366149
 20
9.170108
 42
0.017035
 10
23.238732
 20
9.341747
 42
0.016995
 10
23.098894
 20
9.505547
 42
0.027415
 10
22.967949
 20
9.633886
 42
0.019995
 10
22.81709
 20
9.756018
 42
0.009417
 10
22.613244
 20
9.902078
 42
0.009316
 10
22.393723
 20
10.047243
 42
0.012958
 10
22.191574
 20
10.16834
 42
-0.021357
 10
21.977125
 20
10.30175
 42
-0.010745
 10
21.717766
 20
10.487186
 42
-0.01065
 10
21.457429
 20
10.690697
 42
-0.015527
 10
21.237706
 20
10.881801
 42
-0.02191
 10
21.013247
 20
11.10866
 42
-0.021849
 10
20.809284
 20
11.354492
 42
-0.022306
 10
20.631712
 20
11.611679
 42
-0.025558
 10
20.486297
 20
11.872519
 42
-0.005025
 10
20.384037
 20
12.085616
 42
-0.007141
 10
20.297767
 20
12.27721
 42
-0.004299
 10
20.229123
 20
12.439473
 42
-0.097817
 10
20.219283
 20
12.488882
 42
0.279356
 10
20.197599
 20
12.524536
 42
0.015325
 10
20.074605
 20
12.583785
 42
0.020132
 10
19.915587
 20
12.646934
 42
0.012993
 10
19.726929
 20
12.707736
 42
-0.030521
 10
19.504432
 20
12.788152
 42
-0.01646
 10
19.240722
 20
12.912544
 42
-0.016338
 10
18.979436
 20
13.057445
 42
-0.024659
 10
18.762985
 20
13.201847
 42
-0.019323
 10
18.563428
 20
13.361996
 42
-0.014049
 10
18.353767
 20
13.554597
 42
-0.014232
 10
18.164921
 20
13.748874
 42
-0.03
 10
18.032299
 20
13.911946
 42
-0.019947
 10
17.919606
 20
14.082864
 42
-0.010882
 10
17.794486
 20
14.300753
 42
-0.010829
 10
17.676762
 20
14.528074
 42
-0.016901
 10
17.586398
 20
14.729135
 42
-0.02698
 10
17.498397
 20
14.982214
 42
-0.028405
 10
17.43992
 20
15.239012
 42
-0.025027
 10
17.405976
 20
15.52766
 42
-0.0142
 10
17.392389
 20
15.879319
 42
-0.011279
 10
17.395974
 20
16.169863
 42
-0.01968
 10
17.413839
 20
16.410024
 42
-0.019469
 10
17.442138
 20
16.594104
 42
-0.14945
 10
17.482646
 20
16.670385
 42
-0.060161
 10
17.53229
 20
16.709373
 42
-0.238894
 10
17.569784
 20
16.712249
 42
-0.184043
 10
17.601082
 20
16.682713
 42
-0.035767
 10
17.63032
 20
16.609263
 42
0.100019
 10
17.672541
 20
16.533196
 42
0.025122
 10
17.770354
 20
16.429521
 42
0.024637
 10
17.896503
 20
16.319994
 42
0.02262
 10
18.036358
 20
16.220047
 42
0.028555
 10
18.20966
 20
16.121243
 42
0.033588
 10
18.384127
 20
16.048728
 42
0.035988
 10
18.554839
 20
16.00426
 42
0.04575
 10
18.716905
 20
15.9894
 42
0.040258
 10
18.864884
 20
16.001334
 42
0.022359
 10
19.042231
 20
16.03833
 42
0.022173
 10
19.219547
 20
16.092154
 42
0.033187
 10
19.368245
 20
16.15597
 42
0.039427
 10
19.506253
 20
16.240689
 42
0.025957
 10
19.651046
 20
16.358083
 42
0.026127
 10
19.780818
 20
16.48786
 42
0.044921
 10
19.872475
 20
16.610106
 42
0.055595
 10
19.967881
 20
16.811453
 42
0.050981
 10
20.020078
 20
17.034836
 42
0.027247
 10
20.044312
 20
17.365334
 42
0.004679
 10
20.0502
 20
17.994536
 42
-0.004804
 10
20.054278
 20
18.419008
 42
-0.007413
 10
20.066767
 20
18.785764
 42
-0.003042
 10
20.08391
 20
19.097427
 42
-0.183097
 10
20.1066
 20
19.1478
 42
-0.171641
 10
20.153581
 20
19.17023
 42
-0.007
 10
20.343331
 20
19.187632
 42
-0.011523
 10
20.572368
 20
19.200107
 42
-0.007842
  0
LWPOLYLINE
  5
EE0
330
1D
100
AcDbEntity
  8
0
100
AcDbPolyline
 90
        8
 70
     1
 43
0.0
 10
22.82085
 20
18.677837
 10
23.9841
 20
18.6543
 10
23.9841
 20
17.9775
 10
23.9841
 20
17.3007
 10
22.82085
 20
17.277163
 10
21.6576
 20
17.253625
 10
21.6576
 20
17.9775
 10
21.6576
 20
18.701375
  0
LWPOLYLINE
  5
EEA
330
1D
100
AcDbEntity
  8
0
100
AcDbPolyline
 90
       56
 70
     1
 43
0.0
 10
23.62455
 20
7.082974
 42
-0.143973
 10
23.663433
 20
7.054804
 42
-0.073994
 10
23.69306
 20
7.001852
 42
-0.063739
 10
23.709454
 20
6.933411
 42
-0.05515
 10
23.709277
 20
6.85951
 42
0.037431
 10
23.706632
 20
6.789505
 42
0.101835
 10
23.718368
 20
6.741552
 42
0.215033
 10
23.74192
 20
6.721547
 42
0.21161
 10
23.772727
 20
6.725778
 42
-0.072495
 10
23.805045
 20
6.73978
 42
-0.148448
 10
23.832386
 20
6.738942
 42
-0.188707
 10
23.850441
 20
6.723783
 42
-0.125491
 10
23.8572
 20
6.697279
 42
0.280055
 10
23.877406
 20
6.664034
 42
0.038411
 10
23.95534
 20
6.63092
 42
0.034953
 10
24.063275
 20
6.602772
 42
0.022542
 10
24.191295
 20
6.584711
 42
0.021195
 10
24.368045
 20
6.575388
 42
0.084257
 10
24.474957
 20
6.592401
 42
0.127375
 10
24.546454
 20
6.639173
 42
0.07977
 10
24.601463
 20
6.723337
 42
-0.032908
 10
24.650638
 20
6.816538
 42
-0.379941
 10
24.68711
 20
6.827554
 42
-0.158725
 10
24.728246
 20
6.789408
 42
-0.007758
 10
24.817268
 20
6.623613
 42
-0.006508
 10
24.870793
 20
6.516721
 42
-0.008928
 10
24.915954
 20
6.419117
 42
-0.006204
 10
24.951106
 20
6.336687
 42
-0.097985
 10
24.957
 20
6.306901
 42
-0.399212
 10
24.939084
 20
6.288038
 42
-0.001886
 10
24.646359
 20
6.27406
 42
-0.006865
 10
24.304992
 20
6.263742
 42
-0.004121
 10
23.8995
 20
6.2604
 42
-0.006171
 10
23.460691
 20
6.265816
 42
-0.013787
 10
23.127525
 20
6.283242
 42
-0.008841
 10
22.875017
 20
6.307943
 42
-0.380863
 10
22.842
 20
6.345
 42
-0.096013
 10
22.848416
 20
6.378106
 42
-0.086153
 10
22.866851
 20
6.407855
 42
-0.085885
 10
22.894295
 20
6.429723
 42
-0.094555
 10
22.9266
 20
6.440175
 42
0.005449
 10
22.963625
 20
6.445214
 42
0.003883
 10
23.004987
 20
6.451631
 42
0.00392
 10
23.044347
 20
6.458368
 42
0.008344
 10
23.07465
 20
6.464323
 42
0.048905
 10
23.110275
 20
6.475674
 42
0.008303
 10
23.175377
 20
6.504966
 42
0.008998
 10
23.250921
 20
6.542151
 42
0.007903
 10
23.32845
 20
6.583624
 42
0.063994
 10
23.408292
 20
6.642431
 42
0.068436
 10
23.468602
 20
6.718321
 42
0.068689
 10
23.506026
 20
6.807415
 42
0.065221
 10
23.5188
 20
6.904927
 42
-0.036783
 10
23.52536
 20
6.993981
 42
-0.097529
 10
23.546644
 20
7.05386
 42
-0.169737
 10
23.580754
 20
7.082508
 42
-0.177658
  0
LWPOLYLINE
  5
F24
330
1D
100
AcDbEntity
  8
0
100
AcDbPolyline
 90
       18
 70
     1
 43
0.0
 10
9.72054
 20
19.6272
 42
0.107509
 10
9.632961
 20
19.608149
 42
0.031333
 10
9.510573
 20
19.542706
 42
0.029917
 10
9.378413
 20
19.449646
 42
0.028029
 10
9.25524
 20
19.33956
 42
0.028029
 10
9.145154
 20
19.216387
 42
0.029917
 10
9.052094
 20
19.084227
 42
0.031333
 10
8.986651
 20
18.961839
 42
0.107509
 10
8.9676
 20
18.87426
 42
0.105553
 10
8.987944
 20
18.778967
 42
0.198915
 10
9.044143
 20
18.725825
 42
0.081874
 10
9.162139
 20
18.701741
 42
0.009492
 10
9.4329
 20
18.6966
 10
9.8982
 20
18.6966
 10
9.8982
 20
19.1619
 42
0.009492
 10
9.893059
 20
19.432661
 42
0.081874
 10
9.868975
 20
19.550657
 42
0.198915
 10
9.815833
 20
19.606856
 42
0.105553
  0
ENDSEC
  0
SECTION
  2
OBJECTS
  0
DICTIONARY
  5
C
330
0
100
AcDbDictionary
281
     1
  3
ACAD_DETAILVIEWSTYLE
350
FC4
  3
ACAD_GROUP
350
D
  3
ACAD_LAYOUT
350
1A
  3
ACAD_MATERIAL
350
F77
  3
ACAD_MLEADERSTYLE
350
F7D
  3
ACAD_MLINESTYLE
350
17
  3
ACAD_PLOTSETTINGS
350
19
  3
ACAD_PLOTSTYLENAME
350
E
  3
ACAD_SCALELIST
350
F38
  3
ACAD_SECTIONVIEWSTYLE
350
FC5
  3
ACAD_TABLESTYLE
350
F7B
  3
ACAD_VISUALSTYLE
350
F5E
  3
ACDB_RECOMPOSE_DATA
350
FC0
  3
AcDbVariableDictionary
350
F81
  0
DICTIONARY
  5
F7F
330
8
100
AcDbDictionary
280
     1
281
     1
  3
ACAD_XREC_ROUNDTRIP
360
F80
  0
DICTIONARY
  5
FC4
102
{ACAD_REACTORS
330
C
102
}
330
C
100
AcDbDictionary
281
     1
  0
DICTIONARY
  5
D
102
{ACAD_REACTORS
330
C
102
}
330
C
100
AcDbDictionary
281
     1
  0
DICTIONARY
  5
1A
102
{ACAD_REACTORS
330
C
102
}
330
C
100
AcDbDictionary
281
     1
  3
Layout1
350
1C
  3
Model
350
1E
  0
DICTIONARY
  5
F77
102
{ACAD_REACTORS
330
C
102
}
330
C
100
AcDbDictionary
281
     1
  3
ByBlock
350
F79
  3
ByLayer
350
F78
  3
Global
350
F7A
  0
DICTIONARY
  5
F7D
102
{ACAD_REACTORS
330
C
102
}
330
C
100
AcDbDictionary
281
     1
  3
Standard
350
F7E
  0
DICTIONARY
  5
17
102
{ACAD_REACTORS
330
C
102
}
330
C
100
AcDbDictionary
281
     1
  3
Standard
350
18
  0
DICTIONARY
  5
19
102
{ACAD_REACTORS
330
C
102
}
330
C
100
AcDbDictionary
281
     1
  0
ACDBDICTIONARYWDFLT
  5
E
102
{ACAD_REACTORS
330
C
102
}
330
C
100
AcDbDictionary
281
     1
  3
Normal
350
F
100
AcDbDictionaryWithDefault
340
F
  0
DICTIONARY
  5
F38
102
{ACAD_REACTORS
330
C
102
}
330
C
100
AcDbDictionary
281
     1
  3
A0
350
F39
  3
A1
350
F3A
  3
A2
350
F3B
  3
A3
350
F3C
  3
A4
350
F3D
  3
A5
350
F3E
  3
A6
350
F3F
  3
A7
350
F40
  3
A8
350
F41
  3
A9
350
F42
  3
B0
350
F43
  3
B1
350
F44
  3
B2
350
F45
  3
B3
350
F46
  3
B4
350
F47
  3
B5
350
F48
  3
B6
350
F49
  3
B7
350
F4A
  3
B8
350
F4B
  3
B9
350
F4C
  3
C0
350
F4D
  3
C1
350
F4E
  3
C2
350
F4F
  3
C3
350
F50
  3
C4
350
F51
  3
C5
350
F52
  3
C6
350
F53
  3
C7
350
F54
  3
C8
350
F55
  3
C9
350
F56
  3
D0
350
F57
  3
D1
350
F58
  3
D2
350
F59
  0
DICTIONARY
  5
FC5
102
{ACAD_REACTORS
330
C
102
}
330
C
100
AcDbDictionary
281
     1
  0
DICTIONARY
  5
F7B
102
{ACAD_REACTORS
330
C
102
}
330
C
100
AcDbDictionary
281
     1
  3
Standard
350
F7C
  0
DICTIONARY
  5
F5E
102
{ACAD_REACTORS
330
C
102
}
330
C
100
AcDbDictionary
281
     1
  3
2dWireframe
350
F63
  3
Basic
350
F66
  3
Brighten
350
F6A
  3
ColorChange
350
F6E
  3
Conceptual
350
F68
  3
Dim
350
F69
  3
EdgeColorOff
350
F71
  3
Facepattern
350
F6D
  3
Flat
350
F5F
  3
FlatWithEdges
350
F60
  3
Gouraud
350
F61
  3
GouraudWithEdges
350
F62
  3
Hidden
350
F65
  3
JitterOff
350
F6F
  3
Linepattern
350
F6C
  3
OverhangOff
350
F70
  3
Realistic
350
F67
  3
Shaded
350
F76
  3
Shaded with edges
350
F75
  3
Shades of Gray
350
F72
  3
Sketchy
350
F73
  3
Thicken
350
F6B
  3
Wireframe
350
F64
  3
X-Ray
350
F74
  0
XRECORD
  5
FC0
102
{ACAD_REACTORS
330
C
102
}
330
C
100
AcDbXrecord
280
     1
 90
        1
330
F7C
  0
DICTIONARY
  5
F81
102
{ACAD_REACTORS
330
C
102
}
330
C
100
AcDbDictionary
281
     1
  3
CANNOSCALE
350
F82
  3
CMLEADERSTYLE
350
FC2
  3
CTABLESTYLE
350
FC1
  3
MSLTSCALE
350
FC3
  3
XCLIPFRAME
350
F83
  0
XRECORD
  5
F80
102
{ACAD_REACTORS
330
F7F
102
}
330
F7F
100
AcDbXrecord
280
     1
102
VTR_0.000_0.000_1.000_1.000_VISUALSTYLE
340
F63
102
VTR_0.000_0.000_1.000_1.000_GRIDDISPLAY
 70
     3
102
VTR_0.000_0.000_1.000_1.000_GRIDMAJOR
 70
     5
102
VTR_0.000_0.000_1.000_1.000_DEFAULTLIGHTING
280
     1
102
VTR_0.000_0.000_1.000_1.000_DEFAULTLIGHTINGTYPE
 70
     1
102
VTR_0.000_0.000_1.000_1.000_BRIGHTNESS
141
0.0
102
VTR_0.000_0.000_1.000_1.000_CONTRAST
142
0.0
  0
LAYOUT
  5
1C
102
{ACAD_REACTORS
330
1A
102
}
330
1A
100
AcDbPlotSettings
  1

  2
none_device
  4

  6

 40
0.0
 41
0.0
 42
0.0
 43
0.0
 44
0.0
 45
0.0
 46
0.0
 47
0.0
 48
0.0
 49
0.0
140
0.0
141
0.0
142
1.0
143
1.0
 70
   688
 72
     0
 73
     0
 74
     5
  7

 75
    16
 76
     0
 77
     2
 78
   300
147
1.0
148
0.0
149
0.0
100
AcDbLayout
  1
Layout1
 70
     1
 71
     1
 10
0.0
 20
0.0
 11
12.0
 21
9.0
 12
0.0
 22
0.0
 32
0.0
 14
1.000000000000000E+20
 24
1.000000000000000E+20
 34
1.000000000000000E+20
 15
-1.000000000000000E+20
 25
-1.000000000000000E+20
 35
-1.000000000000000E+20
146
0.0
 13
0.0
 23
0.0
 33
0.0
 16
1.0
 26
0.0
 36
0.0
 17
0.0
 27
1.0
 37
0.0
 76
     0
330
1B
  0
LAYOUT
  5
1E
102
{ACAD_REACTORS
330
1A
102
}
330
1A
100
AcDbPlotSettings
  1

  2
none_device
  4
Letter_(8.50_x_11.00_Inches)
  6

 40
6.35
 41
6.35
 42
6.35000508
 43
6.35000508
 44
215.9
 45
279.4
 46
0.0
 47
0.0
 48
0.0
 49
0.0
140
0.0
141
0.0
142
1.0
143
1.0
 70
  1712
 72
     0
 73
     0
 74
     0
  7

 75
     0
 76
     0
 77
     2
 78
   300
147
1.0
148
0.0
149
0.0
100
AcDbLayout
  1
Model
 70
     1
 71
     0
 10
0.0
 20
0.0
 11
12.0
 21
9.0
 12
0.0
 22
0.0
 32
0.0
 14
0.0
 24
0.0
 34
0.0
 15
47.7144
 25
68.103
 35
0.0
146
0.0
 13
0.0
 23
0.0
 33
0.0
 16
1.0
 26
0.0
 36
0.0
 17
0.0
 27
1.0
 37
0.0
 76
     0
330
1D
331
21
  0
MATERIAL
  5
F79
102
{ACAD_REACTORS
330
F77
102
}
102
{ACAD_XDICTIONARY
360
FB6
102
}
330
F77
100
AcDbMaterial
  1
ByBlock
  0
MATERIAL
  5
F78
102
{ACAD_REACTORS
330
F77
102
}
102
{ACAD_XDICTIONARY
360
FB4
102
}
330
F77
100
AcDbMaterial
  1
ByLayer
  0
MATERIAL
  5
F7A
102
{ACAD_REACTORS
330
F77
102
}
102
{ACAD_XDICTIONARY
360
FB8
102
}
330
F77
100
AcDbMaterial
  1
Global
  0
MLEADERSTYLE
  5
F7E
102
{ACAD_REACTORS
330
F7D
102
}
102
{ACAD_XDICTIONARY
360
FBE
102
}
330
F7D
100
AcDbMLeaderStyle
170
     2
171
     1
172
     0
 90
        2
 40
0.0
 41
0.0
173
     1
 91
-1056964608
340
14
 92
       -2
290
     1
 42
0.09
291
     1
 43
0.36
  3
Standard
341
0
 44
0.18
300

342
11
174
     1
178
     6
175
     1
176
     0
 93
-1056964608
 45
0.18
292
     0
297
     0
 46
0.18
343
0
 94
-1056964608
 47
1.0
 49
1.0
140
1.0
293
     1
141
0.0
294
     1
177
     0
142
1.0
295
     0
296
     0
143
0.125
1001
ACAD_MLEADERVER
1070
     2
  0
MLINESTYLE
  5
18
102
{ACAD_REACTORS
330
17
102
}
330
17
100
AcDbMlineStyle
  2
Standard
 70
     0
  3

 62
   256
 51
90.0
 52
90.0
 71
     2
 49
0.5
 62
   256
  6
BYLAYER
 49
-0.5
 62
   256
  6
BYLAYER
  0
ACDBPLACEHOLDER
  5
F
102
{ACAD_REACTORS
330
E
102
}
330
E
  0
SCALE
  5
F39
102
{ACAD_REACTORS
330
F38
102
}
330
F38
100
AcDbScale
 70
     0
300
1:1
140
1.0
141
1.0
290
     1
  0
SCALE
  5
F3A
102
{ACAD_REACTORS
330
F38
102
}
330
F38
100
AcDbScale
 70
     0
300
1:2
140
1.0
141
2.0
290
     0
  0
SCALE
  5
F3B
102
{ACAD_REACTORS
330
F38
102
}
330
F38
100
AcDbScale
 70
     0
300
1:4
140
1.0
141
4.0
290
     0
  0
SCALE
  5
F3C
102
{ACAD_REACTORS
330
F38
102
}
330
F38
100
AcDbScale
 70
     0
300
1:5
140
1.0
141
5.0
290
     0
  0
SCALE
  5
F3D
102
{ACAD_REACTORS
330
F38
102
}
330
F38
100
AcDbScale
 70
     0
300
1:8
140
1.0
141
8.0
290
     0
  0
SCALE
  5
F3E
102
{ACAD_REACTORS
330
F38
102
}
330
F38
100
AcDbScale
 70
     0
300
1:10
140
1.0
141
10.0
290
     0
  0
SCALE
  5
F3F
102
{ACAD_REACTORS
330
F38
102
}
330
F38
100
AcDbScale
 70
     0
300
1:16
140
1.0
141
16.0
290
     0
  0
SCALE
  5
F40
102
{ACAD_REACTORS
330
F38
102
}
330
F38
100
AcDbScale
 70
     0
300
1:20
140
1.0
141
20.0
290
     0
  0
SCALE
  5
F41
102
{ACAD_REACTORS
330
F38
102
}
330
F38
100
AcDbScale
 70
     0
300
1:30
140
1.0
141
30.0
290
     0
  0
SCALE
  5
F42
102
{ACAD_REACTORS
330
F38
102
}
330
F38
100
AcDbScale
 70
     0
300
1:40
140
1.0
141
40.0
290
     0
  0
SCALE
  5
F43
102
{ACAD_REACTORS
330
F38
102
}
330
F38
100
AcDbScale
 70
     0
300
1:50
140
1.0
141
50.0
290
     0
  0
SCALE
  5
F44
102
{ACAD_REACTORS
330
F38
102
}
330
F38
100
AcDbScale
 70
     0
300
1:100
140
1.0
141
100.0
290
     0
  0
SCALE
  5
F45
102
{ACAD_REACTORS
330
F38
102
}
330
F38
100
AcDbScale
 70
     0
300
2:1
140
2.0
141
1.0
290
     0
  0
SCALE
  5
F46
102
{ACAD_REACTORS
330
F38
102
}
330
F38
100
AcDbScale
 70
     0
300
4:1
140
4.0
141
1.0
290
     0
  0
SCALE
  5
F47
102
{ACAD_REACTORS
330
F38
102
}
330
F38
100
AcDbScale
 70
     0
300
8:1
140
8.0
141
1.0
290
     0
  0
SCALE
  5
F48
102
{ACAD_REACTORS
330
F38
102
}
330
F38
100
AcDbScale
 70
     0
300
10:1
140
10.0
141
1.0
290
     0
  0
SCALE
  5
F49
102
{ACAD_REACTORS
330
F38
102
}
330
F38
100
AcDbScale
 70
     0
300
100:1
140
100.0
141
1.0
290
     0
  0
SCALE
  5
F4A
102
{ACAD_REACTORS
330
F38
102
}
330
F38
100
AcDbScale
 70
     0
300
1/128\" = 1\'-0\"
140
0.0078125
141
12.0
290
     0
  0
SCALE
  5
F4B
102
{ACAD_REACTORS
330
F38
102
}
330
F38
100
AcDbScale
 70
     0
300
1/64\" = 1\'-0\"
140
0.015625
141
12.0
290
     0
  0
SCALE
  5
F4C
102
{ACAD_REACTORS
330
F38
102
}
330
F38
100
AcDbScale
 70
     0
300
1/32\" = 1\'-0\"
140
0.03125
141
12.0
290
     0
  0
SCALE
  5
F4D
102
{ACAD_REACTORS
330
F38
102
}
330
F38
100
AcDbScale
 70
     0
300
1/16\" = 1\'-0\"
140
0.0625
141
12.0
290
     0
  0
SCALE
  5
F4E
102
{ACAD_REACTORS
330
F38
102
}
330
F38
100
AcDbScale
 70
     0
300
3/32\" = 1\'-0\"
140
0.09375
141
12.0
290
     0
  0
SCALE
  5
F4F
102
{ACAD_REACTORS
330
F38
102
}
330
F38
100
AcDbScale
 70
     0
300
1/8\" = 1\'-0\"
140
0.125
141
12.0
290
     0
  0
SCALE
  5
F50
102
{ACAD_REACTORS
330
F38
102
}
330
F38
100
AcDbScale
 70
     0
300
3/16\" = 1\'-0\"
140
0.1875
141
12.0
290
     0
  0
SCALE
  5
F51
102
{ACAD_REACTORS
330
F38
102
}
330
F38
100
AcDbScale
 70
     0
300
1/4\" = 1\'-0\"
140
0.25
141
12.0
290
     0
  0
SCALE
  5
F52
102
{ACAD_REACTORS
330
F38
102
}
330
F38
100
AcDbScale
 70
     0
300
3/8\" = 1\'-0\"
140
0.375
141
12.0
290
     0
  0
SCALE
  5
F53
102
{ACAD_REACTORS
330
F38
102
}
330
F38
100
AcDbScale
 70
     0
300
1/2\" = 1\'-0\"
140
0.5
141
12.0
290
     0
  0
SCALE
  5
F54
102
{ACAD_REACTORS
330
F38
102
}
330
F38
100
AcDbScale
 70
     0
300
3/4\" = 1\'-0\"
140
0.75
141
12.0
290
     0
  0
SCALE
  5
F55
102
{ACAD_REACTORS
330
F38
102
}
330
F38
100
AcDbScale
 70
     0
300
1\" = 1\'-0\"
140
1.0
141
12.0
290
     0
  0
SCALE
  5
F56
102
{ACAD_REACTORS
330
F38
102
}
330
F38
100
AcDbScale
 70
     0
300
1-1/2\" = 1\'-0\"
140
1.5
141
12.0
290
     0
  0
SCALE
  5
F57
102
{ACAD_REACTORS
330
F38
102
}
330
F38
100
AcDbScale
 70
     0
300
3\" = 1\'-0\"
140
3.0
141
12.0
290
     0
  0
SCALE
  5
F58
102
{ACAD_REACTORS
330
F38
102
}
330
F38
100
AcDbScale
 70
     0
300
6\" = 1\'-0\"
140
6.0
141
12.0
290
     0
  0
SCALE
  5
F59
102
{ACAD_REACTORS
330
F38
102
}
330
F38
100
AcDbScale
 70
     0
300
1\'-0\" = 1\'-0\"
140
12.0
141
12.0
290
     0
  0
TABLESTYLE
  5
F7C
102
{ACAD_REACTORS
330
F7B
102
}
102
{ACAD_XDICTIONARY
360
FBA
102
}
330
F7B
100
AcDbTableStyle
  3
Standard
 70
     0
 71
     0
 40
0.06
 41
0.06
280
     0
281
     0
  7
Standard
140
0.18
170
     2
 62
     0
 63
   257
283
     0
274
    -2
284
     1
 64
     0
275
    -2
285
     1
 65
     0
276
    -2
286
     1
 66
     0
277
    -2
287
     1
 67
     0
278
    -2
288
     1
 68
     0
279
    -2
289
     1
 69
     0
  7
Standard
140
0.25
170
     5
 62
     0
 63
   257
283
     0
274
    -2
284
     1
 64
     0
275
    -2
285
     1
 65
     0
276
    -2
286
     1
 66
     0
277
    -2
287
     1
 67
     0
278
    -2
288
     1
 68
     0
279
    -2
289
     1
 69
     0
  7
Standard
140
0.18
170
     5
 62
     0
 63
   257
283
     0
274
    -2
284
     1
 64
     0
275
    -2
285
     1
 65
     0
276
    -2
286
     1
 66
     0
277
    -2
287
     1
 67
     0
278
    -2
288
     1
 68
     0
279
    -2
289
     1
 69
     0
  0
VISUALSTYLE
  5
F63
102
{ACAD_REACTORS
330
F5E
102
}
102
{ACAD_XDICTIONARY
360
F8C
102
}
330
F5E
100
AcDbVisualStyle
  2
2dWireframe
 70
     4
 71
     0
 72
     2
 73
     0
 90
        0
 40
0.6
 41
30.0
 62
     5
 63
     7
421
 16777215
 74
     1
 91
        4
 64
     7
 65
   257
 75
     1
175
     1
 42
1.0
 92
        0
 66
   257
 43
1.0
 76
     1
 77
     6
 78
     2
 67
     7
 79
     5
170
     0
171
     0
290
     0
174
     0
 93
        1
 44
0.0
173
     0
291
     0
 45
0.0
1001
ACAD
1000
AcDbSavedByObjectVersion
1070
     0
  0
VISUALSTYLE
  5
F66
102
{ACAD_REACTORS
330
F5E
102
}
102
{ACAD_XDICTIONARY
360
F92
102
}
330
F5E
100
AcDbVisualStyle
  2
Basic
 70
     7
 71
     1
 72
     0
 73
     1
 90
        0
 40
0.6
 41
30.0
 62
     5
 63
     7
421
 16777215
 74
     0
 91
        4
 64
     7
 65
   257
 75
     1
175
     1
 42
1.0
 92
        8
 66
     7
 43
1.0
 76
     1
 77
     6
 78
     2
 67
     7
 79
     5
170
     0
171
     0
290
     0
174
     0
 93
        1
 44
0.0
173
     0
291
     1
 45
0.0
1001
ACAD
1000
AcDbSavedByObjectVersion
1070
     0
  0
VISUALSTYLE
  5
F6A
102
{ACAD_REACTORS
330
F5E
102
}
102
{ACAD_XDICTIONARY
360
F9A
102
}
330
F5E
100
AcDbVisualStyle
  2
Brighten
 70
    12
 71
     2
 72
     2
 73
     0
 90
        0
 40
0.6
 41
30.0
 62
     5
 63
     7
421
 16777215
 74
     1
 91
        4
 64
     7
 65
   257
 75
     1
175
     1
 42
1.0
 92
        8
 66
     7
 43
1.0
 76
     1
 77
     6
 78
     2
 67
     7
 79
     5
170
     0
171
     0
290
     0
174
     0
 93
        1
 44
50.0
173
     0
291
     1
 45
0.0
1001
ACAD
1000
AcDbSavedByObjectVersion
1070
     0
  0
VISUALSTYLE
  5
F6E
102
{ACAD_REACTORS
330
F5E
102
}
102
{ACAD_XDICTIONARY
360
FA2
102
}
330
F5E
100
AcDbVisualStyle
  2
ColorChange
 70
    16
 71
     2
 72
     2
 73
     3
 90
        0
 40
0.6
 41
30.0
 62
     5
 63
     8
421
  8421504
 74
     1
 91
        4
 64
     7
 65
   257
 75
     1
175
     1
 42
1.0
 92
        8
 66
     8
424
  8421504
 43
1.0
 76
     1
 77
     6
 78
     2
 67
     7
 79
     5
170
     0
171
     0
290
     0
174
     0
 93
        1
 44
0.0
173
     0
291
     1
 45
0.0
1001
ACAD
1000
AcDbSavedByObjectVersion
1070
     0
  0
VISUALSTYLE
  5
F68
102
{ACAD_REACTORS
330
F5E
102
}
102
{ACAD_XDICTIONARY
360
F96
102
}
330
F5E
100
AcDbVisualStyle
  2
Conceptual
 70
     9
 71
     3
 72
     2
 73
     0
 90
        0
 40
0.6
 41
30.0
 62
     5
 63
     7
421
 16777215
 74
     2
 91
        2
 64
     7
 65
   257
 75
     1
175
     1
 42
179.0
 92
        8
 66
     7
 43
1.0
 76
     1
 77
     6
 78
     2
 67
     7
 79
     3
170
     0
171
     0
290
     0
174
     0
 93
        1
 44
0.0
173
     0
291
     0
 45
0.0
1001
ACAD
1000
AcDbSavedByObjectVersion
1070
     0
  0
VISUALSTYLE
  5
F69
102
{ACAD_REACTORS
330
F5E
102
}
102
{ACAD_XDICTIONARY
360
F98
102
}
330
F5E
100
AcDbVisualStyle
  2
Dim
 70
    11
 71
     2
 72
     2
 73
     0
 90
        0
 40
0.6
 41
30.0
 62
     5
 63
     7
421
 16777215
 74
     1
 91
        4
 64
     7
 65
   257
 75
     1
175
     1
 42
1.0
 92
        8
 66
     7
 43
1.0
 76
     1
 77
     6
 78
     2
 67
     7
 79
     5
170
     0
171
     0
290
     0
174
     0
 93
        1
 44
-50.0
173
     0
291
     1
 45
0.0
1001
ACAD
1000
AcDbSavedByObjectVersion
1070
     0
  0
VISUALSTYLE
  5
F71
102
{ACAD_REACTORS
330
F5E
102
}
102
{ACAD_XDICTIONARY
360
FA8
102
}
330
F5E
100
AcDbVisualStyle
  2
EdgeColorOff
 70
    22
 71
     2
 72
     2
 73
     0
 90
        0
 40
0.6
 41
30.0
 62
     5
 63
     7
421
 16777215
 74
     1
 91
        4
 64
     7
 65
   257
 75
     1
175
     1
 42
1.0
 92
        8
 66
     7
 43
1.0
 76
     1
 77
     6
 78
     2
 67
     7
 79
     5
170
     0
171
     0
290
     0
174
     0
 93
        1
 44
0.0
173
     0
291
     1
 45
0.0
1001
ACAD
1000
AcDbSavedByObjectVersion
1070
     0
  0
VISUALSTYLE
  5
F6D
102
{ACAD_REACTORS
330
F5E
102
}
102
{ACAD_XDICTIONARY
360
FA0
102
}
330
F5E
100
AcDbVisualStyle
  2
Facepattern
 70
    15
 71
     2
 72
     2
 73
     0
 90
        0
 40
0.6
 41
30.0
 62
     5
 63
     7
421
 16777215
 74
     1
 91
        4
 64
     7
 65
   257
 75
     1
175
     1
 42
1.0
 92
        8
 66
     7
 43
1.0
 76
     1
 77
     6
 78
     2
 67
     7
 79
     5
170
     0
171
     0
290
     0
174
     0
 93
        1
 44
0.0
173
     0
291
     1
 45
0.0
1001
ACAD
1000
AcDbSavedByObjectVersion
1070
     0
  0
VISUALSTYLE
  5
F5F
102
{ACAD_REACTORS
330
F5E
102
}
102
{ACAD_XDICTIONARY
360
F84
102
}
330
F5E
100
AcDbVisualStyle
  2
Flat
 70
     0
 71
     2
 72
     1
 73
     1
 90
        2
 40
0.6
 41
30.0
 62
     5
 63
     7
421
 16777215
 74
     0
 91
        0
 64
     7
 65
   257
 75
     1
175
     1
 42
1.0
 92
        8
 66
     7
 43
1.0
 76
     1
 77
     6
 78
     2
 67
     7
 79
     5
170
     0
171
     0
290
     0
174
     0
 93
       13
 44
0.0
173
     0
291
     1
 45
0.0
1001
ACAD
1000
AcDbSavedByObjectVersion
1070
     0
  0
VISUALSTYLE
  5
F60
102
{ACAD_REACTORS
330
F5E
102
}
102
{ACAD_XDICTIONARY
360
F86
102
}
330
F5E
100
AcDbVisualStyle
  2
FlatWithEdges
 70
     1
 71
     2
 72
     1
 73
     1
 90
        2
 40
0.6
 41
30.0
 62
     5
 63
     7
421
 16777215
 74
     1
 91
        0
 64
     7
 65
   257
 75
     1
175
     1
 42
1.0
 92
        0
 66
   257
 43
1.0
 76
     1
 77
     6
 78
     2
 67
     7
 79
     5
170
     0
171
     0
290
     0
174
     0
 93
       13
 44
0.0
173
     0
291
     1
 45
0.0
1001
ACAD
1000
AcDbSavedByObjectVersion
1070
     0
  0
VISUALSTYLE
  5
F61
102
{ACAD_REACTORS
330
F5E
102
}
102
{ACAD_XDICTIONARY
360
F88
102
}
330
F5E
100
AcDbVisualStyle
  2
Gouraud
 70
     2
 71
     2
 72
     2
 73
     1
 90
        2
 40
0.6
 41
30.0
 62
     5
 63
     7
421
 16777215
 74
     0
 91
        0
 64
     7
 65
   257
 75
     1
175
     1
 42
1.0
 92
        0
 66
     7
 43
1.0
 76
     1
 77
     6
 78
     2
 67
     7
 79
     5
170
     0
171
     0
290
     0
174
     0
 93
       13
 44
0.0
173
     0
291
     1
 45
0.0
1001
ACAD
1000
AcDbSavedByObjectVersion
1070
     0
  0
VISUALSTYLE
  5
F62
102
{ACAD_REACTORS
330
F5E
102
}
102
{ACAD_XDICTIONARY
360
F8A
102
}
330
F5E
100
AcDbVisualStyle
  2
GouraudWithEdges
 70
     3
 71
     2
 72
     2
 73
     1
 90
        2
 40
0.6
 41
30.0
 62
     5
 63
     7
421
 16777215
 74
     1
 91
        0
 64
     7
 65
   257
 75
     1
175
     1
 42
1.0
 92
        0
 66
   257
 43
1.0
 76
     1
 77
     6
 78
     2
 67
     7
 79
     5
170
     0
171
     0
290
     0
174
     0
 93
       13
 44
0.0
173
     0
291
     1
 45
0.0
1001
ACAD
1000
AcDbSavedByObjectVersion
1070
     0
  0
VISUALSTYLE
  5
F65
102
{ACAD_REACTORS
330
F5E
102
}
102
{ACAD_XDICTIONARY
360
F90
102
}
330
F5E
100
AcDbVisualStyle
  2
Hidden
 70
     6
 71
     1
 72
     2
 73
     2
 90
        0
 40
0.6
 41
30.0
 62
     5
 63
     7
421
 16777215
 74
     2
 91
        2
 64
     7
 65
   257
 75
     2
175
     1
 42
40.0
 92
        0
 66
   257
 43
1.0
 76
     1
 77
     6
 78
     2
 67
     7
 79
     3
170
     0
171
     0
290
     0
174
     0
 93
        1
 44
0.0
173
     0
291
     0
 45
0.0
1001
ACAD
1000
AcDbSavedByObjectVersion
1070
     0
  0
VISUALSTYLE
  5
F6F
102
{ACAD_REACTORS
330
F5E
102
}
102
{ACAD_XDICTIONARY
360
FA4
102
}
330
F5E
100
AcDbVisualStyle
  2
JitterOff
 70
    20
 71
     2
 72
     2
 73
     0
 90
        0
 40
0.6
 41
30.0
 62
     5
 63
     7
421
 16777215
 74
     1
 91
        4
 64
     7
 65
   257
 75
     1
175
     1
 42
1.0
 92
       10
 66
     7
 43
1.0
 76
     1
 77
     6
 78
     2
 67
     7
 79
     5
170
     0
171
     0
290
     0
174
     0
 93
        1
 44
0.0
173
     0
291
     1
 45
0.0
1001
ACAD
1000
AcDbSavedByObjectVersion
1070
     0
  0
VISUALSTYLE
  5
F6C
102
{ACAD_REACTORS
330
F5E
102
}
102
{ACAD_XDICTIONARY
360
F9E
102
}
330
F5E
100
AcDbVisualStyle
  2
Linepattern
 70
    14
 71
     2
 72
     2
 73
     0
 90
        0
 40
0.6
 41
30.0
 62
     5
 63
     7
421
 16777215
 74
     1
 91
        4
 64
     7
 65
   257
 75
     7
175
     7
 42
1.0
 92
        8
 66
     7
 43
1.0
 76
     1
 77
     6
 78
     2
 67
     7
 79
     5
170
     0
171
     0
290
     0
174
     0
 93
        1
 44
0.0
173
     0
291
     1
 45
0.0
1001
ACAD
1000
AcDbSavedByObjectVersion
1070
     0
  0
VISUALSTYLE
  5
F70
102
{ACAD_REACTORS
330
F5E
102
}
102
{ACAD_XDICTIONARY
360
FA6
102
}
330
F5E
100
AcDbVisualStyle
  2
OverhangOff
 70
    21
 71
     2
 72
     2
 73
     0
 90
        0
 40
0.6
 41
30.0
 62
     5
 63
     7
421
 16777215
 74
     1
 91
        4
 64
     7
 65
   257
 75
     1
175
     1
 42
1.0
 92
        9
 66
     7
 43
1.0
 76
     1
 77
     6
 78
     2
 67
     7
 79
     5
170
     0
171
     0
290
     0
174
     0
 93
        1
 44
0.0
173
     0
291
     1
 45
0.0
1001
ACAD
1000
AcDbSavedByObjectVersion
1070
     0
  0
VISUALSTYLE
  5
F67
102
{ACAD_REACTORS
330
F5E
102
}
102
{ACAD_XDICTIONARY
360
F94
102
}
330
F5E
100
AcDbVisualStyle
  2
Realistic
 70
     8
 71
     2
 72
     3
 73
     0
 90
        2
 40
0.6
 41
30.0
 62
     5
 63
     7
421
 16777215
 74
     0
 91
        0
 64
     7
 65
   257
 75
     1
175
     1
 42
1.0
 92
        8
 66
   257
 43
1.0
 76
     1
 77
     6
 78
     2
 67
     7
 79
     3
170
     0
171
     0
290
     0
174
     0
 93
       13
 44
0.0
173
     0
291
     0
 45
0.0
1001
ACAD
1000
AcDbSavedByObjectVersion
1070
     0
  0
VISUALSTYLE
  5
F76
102
{ACAD_REACTORS
330
F5E
102
}
102
{ACAD_XDICTIONARY
360
FB2
102
}
330
F5E
100
AcDbVisualStyle
  2
Shaded
 70
    27
 71
     2
 72
     2
 73
     1
 90
        2
 40
0.6
 41
30.0
 62
     5
 63
     7
421
 16777215
 74
     0
 91
        4
 64
     7
 65
   257
 75
     1
175
     1
 42
1.0
 92
        8
 66
   257
 43
1.0
 76
     1
 77
     6
 78
     2
 67
     8
425
  7895160
 79
     3
170
     0
171
     0
290
     0
174
     0
 93
        5
 44
0.0
173
     0
291
     0
 45
0.0
1001
ACAD
1000
AcDbSavedByObjectVersion
1070
     0
  0
VISUALSTYLE
  5
F75
102
{ACAD_REACTORS
330
F5E
102
}
102
{ACAD_XDICTIONARY
360
FB0
102
}
330
F5E
100
AcDbVisualStyle
  2
Shaded with edges
 70
    26
 71
     2
 72
     2
 73
     1
 90
        2
 40
0.6
 41
30.0
 62
     5
 63
     7
421
 16777215
 74
     1
 91
       10
 64
     7
 65
   257
 75
     2
175
     1
 42
1.0
 92
        8
 66
   257
 43
1.0
 76
     1
 77
     6
 78
     2
 67
     7
 79
     3
170
     0
171
     0
290
     0
174
     0
 93
        5
 44
0.0
173
     0
291
     0
 45
0.0
1001
ACAD
1000
AcDbSavedByObjectVersion
1070
     0
  0
VISUALSTYLE
  5
F72
102
{ACAD_REACTORS
330
F5E
102
}
102
{ACAD_XDICTIONARY
360
FAA
102
}
330
F5E
100
AcDbVisualStyle
  2
Shades of Gray
 70
    23
 71
     2
 72
     2
 73
     3
 90
        0
 40
0.6
 41
30.0
 62
     5
 63
     7
421
 16777215
 74
     2
 91
        2
 64
     7
 65
     7
 75
     1
175
     1
 42
40.0
 92
        8
 66
     7
 43
1.0
 76
     1
 77
     6
 78
     2
 67
     7
 79
     3
170
     0
171
     0
290
     0
174
     0
 93
        1
 44
0.0
173
     0
291
     0
 45
0.0
1001
ACAD
1000
AcDbSavedByObjectVersion
1070
     0
  0
VISUALSTYLE
  5
F73
102
{ACAD_REACTORS
330
F5E
102
}
102
{ACAD_XDICTIONARY
360
FAC
102
}
330
F5E
100
AcDbVisualStyle
  2
Sketchy
 70
    24
 71
     1
 72
     2
 73
     2
 90
        0
 40
0.6
 41
30.0
 62
     5
 63
     7
421
 16777215
 74
     2
 91
        2
 64
     7
 65
     7
 75
     1
175
     1
 42
40.0
 92
       11
 66
     7
 43
1.0
 76
     1
 77
     6
 78
     2
 67
     7
 79
     6
170
     0
171
     0
290
     0
174
     0
 93
        1
 44
0.0
173
     0
291
     0
 45
0.0
1001
ACAD
1000
AcDbSavedByObjectVersion
1070
     0
  0
VISUALSTYLE
  5
F6B
102
{ACAD_REACTORS
330
F5E
102
}
102
{ACAD_XDICTIONARY
360
F9C
102
}
330
F5E
100
AcDbVisualStyle
  2
Thicken
 70
    13
 71
     2
 72
     2
 73
     0
 90
        0
 40
0.6
 41
30.0
 62
     5
 63
     7
421
 16777215
 74
     1
 91
        4
 64
     7
 65
   257
 75
     1
175
     1
 42
1.0
 92
       12
 66
     7
 43
1.0
 76
     1
 77
     6
 78
     2
 67
     7
 79
     5
170
     0
171
     0
290
     0
174
     0
 93
        1
 44
0.0
173
     0
291
     1
 45
0.0
1001
ACAD
1000
AcDbSavedByObjectVersion
1070
     0
  0
VISUALSTYLE
  5
F64
102
{ACAD_REACTORS
330
F5E
102
}
102
{ACAD_XDICTIONARY
360
F8E
102
}
330
F5E
100
AcDbVisualStyle
  2
Wireframe
 70
     5
 71
     0
 72
     2
 73
     0
 90
        0
 40
0.6
 41
30.0
 62
     5
 63
     7
421
 16777215
 74
     1
 91
        4
 64
     7
 65
   257
 75
     1
175
     1
 42
1.0
 92
        0
 66
   257
 43
1.0
 76
     1
 77
     6
 78
     2
 67
     7
 79
     3
170
     0
171
     0
290
     0
174
     0
 93
        1
 44
0.0
173
     0
291
     0
 45
0.0
1001
ACAD
1000
AcDbSavedByObjectVersion
1070
     0
  0
VISUALSTYLE
  5
F74
102
{ACAD_REACTORS
330
F5E
102
}
102
{ACAD_XDICTIONARY
360
FAE
102
}
330
F5E
100
AcDbVisualStyle
  2
X-Ray
 70
    25
 71
     2
 72
     2
 73
     1
 90
        1
 40
0.5
 41
30.0
 62
     5
 63
     7
421
 16777215
 74
     1
 91
        0
 64
     7
 65
   257
 75
     1
175
     1
 42
1.0
 92
        8
 66
     7
 43
1.0
 76
     1
 77
     6
 78
     2
 67
     7
 79
     3
170
     0
171
     0
290
     0
174
     0
 93
       13
 44
0.0
173
     0
291
     0
 45
0.0
1001
ACAD
1000
AcDbSavedByObjectVersion
1070
     0
  0
DICTIONARYVAR
  5
F82
102
{ACAD_REACTORS
330
F81
102
}
330
F81
100
DictionaryVariables
280
     0
  1
1:1
  0
DICTIONARYVAR
  5
FC2
102
{ACAD_REACTORS
330
F81
102
}
330
F81
100
DictionaryVariables
280
     0
  1
Standard
  0
DICTIONARYVAR
  5
FC1
102
{ACAD_REACTORS
330
F81
102
}
330
F81
100
DictionaryVariables
280
     0
  1
Standard
  0
DICTIONARYVAR
  5
FC3
102
{ACAD_REACTORS
330
F81
102
}
330
F81
100
DictionaryVariables
280
     0
  1
0
  0
DICTIONARYVAR
  5
F83
102
{ACAD_REACTORS
330
F81
102
}
330
F81
100
DictionaryVariables
280
     0
  1
2
  0
DICTIONARY
  5
FB6
330
F79
100
AcDbDictionary
280
     1
281
     1
  3
ACAD_XREC_ROUNDTRIP
360
FB7
  0
DICTIONARY
  5
FB4
330
F78
100
AcDbDictionary
280
     1
281
     1
  3
ACAD_XREC_ROUNDTRIP
360
FB5
  0
DICTIONARY
  5
FB8
330
F7A
100
AcDbDictionary
280
     1
281
     1
  3
ACAD_XREC_ROUNDTRIP
360
FB9
  0
DICTIONARY
  5
FBE
330
F7E
100
AcDbDictionary
280
     1
281
     1
  3
ACAD_XREC_ROUNDTRIP
360
FBF
  0
DICTIONARY
  5
FBA
330
F7C
100
AcDbDictionary
280
     1
281
     1
  3
ACAD_ROUNDTRIP_2008_TABLESTYLE_CELLSTYLEMAP
360
FBC
  3
ACAD_XREC_ROUNDTRIP
360
FBB
  0
DICTIONARY
  5
F8C
330
F63
100
AcDbDictionary
280
     1
281
     1
  3
ACAD_XREC_ROUNDTRIP
360
F8D
  0
DICTIONARY
  5
F92
330
F66
100
AcDbDictionary
280
     1
281
     1
  3
ACAD_XREC_ROUNDTRIP
360
F93
  0
DICTIONARY
  5
F9A
330
F6A
100
AcDbDictionary
280
     1
281
     1
  3
ACAD_XREC_ROUNDTRIP
360
F9B
  0
DICTIONARY
  5
FA2
330
F6E
100
AcDbDictionary
280
     1
281
     1
  3
ACAD_XREC_ROUNDTRIP
360
FA3
  0
DICTIONARY
  5
F96
330
F68
100
AcDbDictionary
280
     1
281
     1
  3
ACAD_XREC_ROUNDTRIP
360
F97
  0
DICTIONARY
  5
F98
330
F69
100
AcDbDictionary
280
     1
281
     1
  3
ACAD_XREC_ROUNDTRIP
360
F99
  0
DICTIONARY
  5
FA8
330
F71
100
AcDbDictionary
280
     1
281
     1
  3
ACAD_XREC_ROUNDTRIP
360
FA9
  0
DICTIONARY
  5
FA0
330
F6D
100
AcDbDictionary
280
     1
281
     1
  3
ACAD_XREC_ROUNDTRIP
360
FA1
  0
DICTIONARY
  5
F84
330
F5F
100
AcDbDictionary
280
     1
281
     1
  3
ACAD_XREC_ROUNDTRIP
360
F85
  0
DICTIONARY
  5
F86
330
F60
100
AcDbDictionary
280
     1
281
     1
  3
ACAD_XREC_ROUNDTRIP
360
F87
  0
DICTIONARY
  5
F88
330
F61
100
AcDbDictionary
280
     1
281
     1
  3
ACAD_XREC_ROUNDTRIP
360
F89
  0
DICTIONARY
  5
F8A
330
F62
100
AcDbDictionary
280
     1
281
     1
  3
ACAD_XREC_ROUNDTRIP
360
F8B
  0
DICTIONARY
  5
F90
330
F65
100
AcDbDictionary
280
     1
281
     1
  3
ACAD_XREC_ROUNDTRIP
360
F91
  0
DICTIONARY
  5
FA4
330
F6F
100
AcDbDictionary
280
     1
281
     1
  3
ACAD_XREC_ROUNDTRIP
360
FA5
  0
DICTIONARY
  5
F9E
330
F6C
100
AcDbDictionary
280
     1
281
     1
  3
ACAD_XREC_ROUNDTRIP
360
F9F
  0
DICTIONARY
  5
FA6
330
F70
100
AcDbDictionary
280
     1
281
     1
  3
ACAD_XREC_ROUNDTRIP
360
FA7
  0
DICTIONARY
  5
F94
330
F67
100
AcDbDictionary
280
     1
281
     1
  3
ACAD_XREC_ROUNDTRIP
360
F95
  0
DICTIONARY
  5
FB2
330
F76
100
AcDbDictionary
280
     1
281
     1
  3
ACAD_XREC_ROUNDTRIP
360
FB3
  0
DICTIONARY
  5
FB0
330
F75
100
AcDbDictionary
280
     1
281
     1
  3
ACAD_XREC_ROUNDTRIP
360
FB1
  0
DICTIONARY
  5
FAA
330
F72
100
AcDbDictionary
280
     1
281
     1
  3
ACAD_XREC_ROUNDTRIP
360
FAB
  0
DICTIONARY
  5
FAC
330
F73
100
AcDbDictionary
280
     1
281
     1
  3
ACAD_XREC_ROUNDTRIP
360
FAD
  0
DICTIONARY
  5
F9C
330
F6B
100
AcDbDictionary
280
     1
281
     1
  3
ACAD_XREC_ROUNDTRIP
360
F9D
  0
DICTIONARY
  5
F8E
330
F64
100
AcDbDictionary
280
     1
281
     1
  3
ACAD_XREC_ROUNDTRIP
360
F8F
  0
DICTIONARY
  5
FAE
330
F74
100
AcDbDictionary
280
     1
281
     1
  3
ACAD_XREC_ROUNDTRIP
360
FAF
  0
XRECORD
  5
FB7
102
{ACAD_REACTORS
330
FB6
102
}
330
FB6
100
AcDbXrecord
280
     1
102
MATERIAL
148
0.0
149
0.0
149
0.0
 93
        0
 94
      127
282
     0
 72
     1
 77
     1
171
     1
175
     1
179
     1
273
     0
  0
XRECORD
  5
FB5
102
{ACAD_REACTORS
330
FB4
102
}
330
FB4
100
AcDbXrecord
280
     1
102
MATERIAL
148
0.0
149
0.0
149
0.0
 93
        0
 94
      127
282
     0
 72
     1
 77
     1
171
     1
175
     1
179
     1
273
     0
  0
XRECORD
  5
FB9
102
{ACAD_REACTORS
330
FB8
102
}
330
FB8
100
AcDbXrecord
280
     1
102
MATERIAL
148
0.0
149
0.0
149
0.0
 93
        0
 94
      127
282
     0
 72
     1
 77
     1
171
     1
175
     1
179
     1
273
     0
  0
XRECORD
  5
FBF
102
{ACAD_REACTORS
330
FBE
102
}
330
FBE
100
AcDbXrecord
280
     1
102
ACAD_ROUNDTRIP_2010_MLEADER_STYLE
  0
CELLSTYLEMAP
  5
FBC
102
{ACAD_REACTORS
330
FBA
102
}
330
FBA
100
AcDbCellStyleMap
 90
        3
300
CELLSTYLE
  1
TABLEFORMAT_BEGIN
 90
        5
170
     1
 91
        0
 92
    32768
 62
   257
 93
        1
300
CONTENTFORMAT
  1
CONTENTFORMAT_BEGIN
 90
        0
 91
        0
 92
        4
 93
        0
300

 40
0.0
140
1.0
 94
        5
 62
     0
340
11
144
0.25
309
CONTENTFORMAT_END
171
     1
301
MARGIN
  1
CELLMARGIN_BEGIN
 40
0.06
 40
0.06
 40
0.06
 40
0.06
 40
0.06
 40
0.06
309
CELLMARGIN_END
 94
        6
 95
        1
302
GRIDFORMAT
  1
GRIDFORMAT_BEGIN
 90
        0
 91
        1
 62
     0
 92
       -2
340
14
 93
        0
 40
0.045
309
GRIDFORMAT_END
 95
        2
302
GRIDFORMAT
  1
GRIDFORMAT_BEGIN
 90
        0
 91
        1
 62
     0
 92
       -2
340
14
 93
        0
 40
0.045
309
GRIDFORMAT_END
 95
        4
302
GRIDFORMAT
  1
GRIDFORMAT_BEGIN
 90
        0
 91
        1
 62
     0
 92
       -2
340
14
 93
        0
 40
0.045
309
GRIDFORMAT_END
 95
        8
302
GRIDFORMAT
  1
GRIDFORMAT_BEGIN
 90
        0
 91
        1
 62
     0
 92
       -2
340
14
 93
        0
 40
0.045
309
GRIDFORMAT_END
 95
       16
302
GRIDFORMAT
  1
GRIDFORMAT_BEGIN
 90
        0
 91
        1
 62
     0
 92
       -2
340
14
 93
        0
 40
0.045
309
GRIDFORMAT_END
 95
       32
302
GRIDFORMAT
  1
GRIDFORMAT_BEGIN
 90
        0
 91
        1
 62
     0
 92
       -2
340
14
 93
        0
 40
0.045
309
GRIDFORMAT_END
309
TABLEFORMAT_END
  1
CELLSTYLE_BEGIN
 90
        1
 91
        1
300
_TITLE
309
CELLSTYLE_END
300
CELLSTYLE
  1
TABLEFORMAT_BEGIN
 90
        5
170
     1
 91
        0
 92
        0
 62
   257
 93
        1
300
CONTENTFORMAT
  1
CONTENTFORMAT_BEGIN
 90
        0
 91
        0
 92
        4
 93
        0
300

 40
0.0
140
1.0
 94
        5
 62
     0
340
11
144
0.18
309
CONTENTFORMAT_END
171
     1
301
MARGIN
  1
CELLMARGIN_BEGIN
 40
0.06
 40
0.06
 40
0.06
 40
0.06
 40
0.06
 40
0.06
309
CELLMARGIN_END
 94
        6
 95
        1
302
GRIDFORMAT
  1
GRIDFORMAT_BEGIN
 90
        0
 91
        1
 62
     0
 92
       -2
340
14
 93
        0
 40
0.045
309
GRIDFORMAT_END
 95
        2
302
GRIDFORMAT
  1
GRIDFORMAT_BEGIN
 90
        0
 91
        1
 62
     0
 92
       -2
340
14
 93
        0
 40
0.045
309
GRIDFORMAT_END
 95
        4
302
GRIDFORMAT
  1
GRIDFORMAT_BEGIN
 90
        0
 91
        1
 62
     0
 92
       -2
340
14
 93
        0
 40
0.045
309
GRIDFORMAT_END
 95
        8
302
GRIDFORMAT
  1
GRIDFORMAT_BEGIN
 90
        0
 91
        1
 62
     0
 92
       -2
340
14
 93
        0
 40
0.045
309
GRIDFORMAT_END
 95
       16
302
GRIDFORMAT
  1
GRIDFORMAT_BEGIN
 90
        0
 91
        1
 62
     0
 92
       -2
340
14
 93
        0
 40
0.045
309
GRIDFORMAT_END
 95
       32
302
GRIDFORMAT
  1
GRIDFORMAT_BEGIN
 90
        0
 91
        1
 62
     0
 92
       -2
340
14
 93
        0
 40
0.045
309
GRIDFORMAT_END
309
TABLEFORMAT_END
  1
CELLSTYLE_BEGIN
 90
        2
 91
        1
300
_HEADER
309
CELLSTYLE_END
300
CELLSTYLE
  1
TABLEFORMAT_BEGIN
 90
        5
170
     1
 91
        0
 92
        0
 62
   257
 93
        1
300
CONTENTFORMAT
  1
CONTENTFORMAT_BEGIN
 90
        0
 91
        0
 92
        4
 93
        0
300

 40
0.0
140
1.0
 94
        2
 62
     0
340
11
144
0.18
309
CONTENTFORMAT_END
171
     1
301
MARGIN
  1
CELLMARGIN_BEGIN
 40
0.06
 40
0.06
 40
0.06
 40
0.06
 40
0.06
 40
0.06
309
CELLMARGIN_END
 94
        6
 95
        1
302
GRIDFORMAT
  1
GRIDFORMAT_BEGIN
 90
        0
 91
        1
 62
     0
 92
       -2
340
14
 93
        0
 40
0.045
309
GRIDFORMAT_END
 95
        2
302
GRIDFORMAT
  1
GRIDFORMAT_BEGIN
 90
        0
 91
        1
 62
     0
 92
       -2
340
14
 93
        0
 40
0.045
309
GRIDFORMAT_END
 95
        4
302
GRIDFORMAT
  1
GRIDFORMAT_BEGIN
 90
        0
 91
        1
 62
     0
 92
       -2
340
14
 93
        0
 40
0.045
309
GRIDFORMAT_END
 95
        8
302
GRIDFORMAT
  1
GRIDFORMAT_BEGIN
 90
        0
 91
        1
 62
     0
 92
       -2
340
14
 93
        0
 40
0.045
309
GRIDFORMAT_END
 95
       16
302
GRIDFORMAT
  1
GRIDFORMAT_BEGIN
 90
        0
 91
        1
 62
     0
 92
       -2
340
14
 93
        0
 40
0.045
309
GRIDFORMAT_END
 95
       32
302
GRIDFORMAT
  1
GRIDFORMAT_BEGIN
 90
        0
 91
        1
 62
     0
 92
       -2
340
14
 93
        0
 40
0.045
309
GRIDFORMAT_END
309
TABLEFORMAT_END
  1
CELLSTYLE_BEGIN
 90
        3
 91
        2
300
_DATA
309
CELLSTYLE_END
  0
XRECORD
  5
FBB
102
{ACAD_REACTORS
330
FBA
102
}
330
FBA
100
AcDbXrecord
280
     1
102
ACAD_ROUNDTRIP_PRE2007_TABLESTYLE
 90
        4
 91
        0
  1

 92
        4
 93
        0
  2

 94
        4
 95
        0
  3

  0
XRECORD
  5
F8D
102
{ACAD_REACTORS
330
F8C
102
}
330
F8C
100
AcDbXrecord
280
     1
102
RTVSPropertyOp0
 70
     1
102
RTVSPropertyOp1
 70
     1
102
RTVSPropertyOp2
 70
     1
102
RTVSPropertyOp3
 70
     1
102
RTVSPropertyOp4
 70
     1
102
RTVSPropertyOp5
 70
     1
102
RTVSPropertyOp6
 70
     1
102
RTVSPropertyOp7
 70
     1
102
RTVSPropertyOp8
 70
     1
102
RTVSPropertyOp9
 70
     1
102
RTVSPropertyOp10
 70
     1
102
RTVSPropertyOp11
 70
     1
102
RTVSPropertyOp12
 70
     1
102
RTVSPropertyOp13
 70
     1
102
RTVSPropertyOp14
 70
     1
102
RTVSPropertyOp15
 70
     1
102
RTVSPropertyOp16
 70
     1
102
RTVSPropertyOp17
 70
     1
102
RTVSPropertyOp18
 70
     1
102
RTVSPropertyOp19
 70
     1
102
RTVSPropertyOp20
 70
     1
102
RTVSPropertyOp21
 70
     1
102
RTVSPropertyOp22
 70
     1
102
RTVSPropertyOp23
 70
     1
102
RTVSPropertyOp24
 70
     1
102
RTVSPropertyOp25
 70
     1
102
RTVSPropertyOp26
 70
     1
102
RTVSPropertyOp27
 70
     1
102
RTVSPropertyOp28
 70
     1
102
RTVSPropertyOp29
 70
     1
102
RTVSPropertyOp30
 70
     1
102
RTVSPropertyOp31
 70
     1
102
RTVSPropertyOp32
 70
     1
102
RTVSPropertyOp33
 70
     1
102
RTVSPropertyOp34
 70
     1
102
RTVSPropertyOp35
 70
     1
102
RTVSPropertyOp36
 70
     1
102
RTVSPropertyOp37
 70
     1
102
RTVSPropertyOp38
 70
     1
102
RTVSPropertyOp39
 70
     1
102
RTVSPropertyOp40
 70
     1
102
RTVSPropertyOp41
 70
     1
102
RTVSPropertyOp42
 70
     1
102
RTVSPropertyOp43
 70
     1
102
RTVSPropertyOp44
 70
     1
102
RTVSPropertyOp45
 70
     1
102
RTVSPropertyOp46
 70
     1
102
RTVSPropertyOp47
 70
     1
102
RTVSPropertyOp48
 70
     1
102
RTVSPropertyOp49
 70
     1
102
RTVSPropertyOp50
 70
     1
102
RTVSPropertyOp51
 70
     0
102
RTVSPropertyOp52
 70
     0
102
RTVSPropertyOp53
 70
     1
102
RTVSPropertyOp54
 70
     1
102
RTVSPropertyOp55
 70
     1
102
RTVSPropertyOp56
 70
     1
102
RTVSPropertyOp57
 70
     1
102
RTVSPost2010Prop28
280
     1
102
RTVSPost2010PropOp28
 70
     1
102
RTVSPost2010Prop29
280
     1
102
RTVSPost2010PropOp29
 70
     1
102
RTVSPost2010Prop30
280
     0
102
RTVSPost2010PropOp30
 70
     1
102
RTVSPost2010Prop31
280
     0
102
RTVSPost2010PropOp31
 70
     1
102
RTVSPost2010Prop32
280
     0
102
RTVSPost2010PropOp32
 70
     1
102
RTVSPost2010Prop33
280
     0
102
RTVSPost2010PropOp33
 70
     1
102
RTVSPost2010Prop34
280
     0
102
RTVSPost2010PropOp34
 70
     1
102
RTVSPost2010Prop35
280
     0
102
RTVSPost2010PropOp35
 70
     1
102
RTVSPost2010Prop36
280
     0
102
RTVSPost2010PropOp36
 70
     1
102
RTVSPost2010Prop37
 90
       50
102
RTVSPost2010PropOp37
 70
     1
102
RTVSPost2010Prop38
140
0.0
102
RTVSPost2010PropOp38
 70
     1
102
RTVSPost2010Prop39
140
1.0
102
RTVSPost2010PropOp39
 70
     1
102
RTVSPost2010Prop40
 90
        0
102
RTVSPost2010PropOp40
 70
     1
102
RTVSPost2010Prop41ColorIndex
 90
       18
102
RTVSPost2010Prop41ColorRGB
 90
        0
102
RTVSPost2010PropOp41
 70
     1
102
RTVSPost2010Prop42
 90
       50
102
RTVSPost2010PropOp42
 70
     1
102
RTVSPost2010Prop43
 90
        3
102
RTVSPost2010PropOp43
 70
     1
102
RTVSPost2010Prop44ColorIndex
 90
        5
102
RTVSPost2010Prop44ColorRGB
 90
      255
102
RTVSPost2010PropOp44
 70
     1
102
RTVSPost2010Prop45
280
     0
102
RTVSPost2010PropOp45
 70
     1
102
RTVSPost2010Prop46
 90
       50
102
RTVSPost2010PropOp46
 70
     1
102
RTVSPost2010Prop47
 90
       50
102
RTVSPost2010PropOp47
 70
     1
102
RTVSPost2010Prop48
 90
       50
102
RTVSPost2010PropOp48
 70
     1
102
RTVSPost2010Prop49
280
     0
102
RTVSPost2010PropOp49
 70
     1
102
RTVSPost2010Prop50
 90
       50
102
RTVSPost2010PropOp50
 70
     1
102
RTVSPost2010Prop51ColorIndex
 90
      256
102
RTVSPost2010Prop51ColorRGB
 90
-16777216
102
RTVSPost2010PropOp51
 70
     0
102
RTVSPost2010Prop52
140
1.0
102
RTVSPost2010PropOp52
 70
     0
102
RTVSPost2010Prop53
 90
        2
102
RTVSPost2010PropOp53
 70
     1
102
RTVSPost2010Prop54
  1
strokes_ogs.tif
102
RTVSPost2010PropOp54
 70
     1
102
RTVSPost2010Prop55
280
     0
102
RTVSPost2010PropOp55
 70
     1
102
RTVSPost2010Prop56
140
1.0
102
RTVSPost2010PropOp56
 70
     1
102
RTVSPost2010Prop57
140
1.0
102
RTVSPost2010PropOp57
 70
     1
  0
XRECORD
  5
F93
102
{ACAD_REACTORS
330
F92
102
}
330
F92
100
AcDbXrecord
280
     1
102
RTVSPropertyOp0
 70
     1
102
RTVSPropertyOp1
 70
     1
102
RTVSPropertyOp2
 70
     1
102
RTVSPropertyOp3
 70
     1
102
RTVSPropertyOp4
 70
     1
102
RTVSPropertyOp5
 70
     1
102
RTVSPropertyOp6
 70
     1
102
RTVSPropertyOp7
 70
     1
102
RTVSPropertyOp8
 70
     1
102
RTVSPropertyOp9
 70
     1
102
RTVSPropertyOp10
 70
     1
102
RTVSPropertyOp11
 70
     1
102
RTVSPropertyOp12
 70
     1
102
RTVSPropertyOp13
 70
     1
102
RTVSPropertyOp14
 70
     1
102
RTVSPropertyOp15
 70
     1
102
RTVSPropertyOp16
 70
     1
102
RTVSPropertyOp17
 70
     1
102
RTVSPropertyOp18
 70
     1
102
RTVSPropertyOp19
 70
     1
102
RTVSPropertyOp20
 70
     1
102
RTVSPropertyOp21
 70
     1
102
RTVSPropertyOp22
 70
     1
102
RTVSPropertyOp23
 70
     1
102
RTVSPropertyOp24
 70
     1
102
RTVSPropertyOp25
 70
     1
102
RTVSPropertyOp26
 70
     1
102
RTVSPropertyOp27
 70
     1
102
RTVSPropertyOp28
 70
     1
102
RTVSPropertyOp29
 70
     1
102
RTVSPropertyOp30
 70
     1
102
RTVSPropertyOp31
 70
     1
102
RTVSPropertyOp32
 70
     1
102
RTVSPropertyOp33
 70
     1
102
RTVSPropertyOp34
 70
     1
102
RTVSPropertyOp35
 70
     1
102
RTVSPropertyOp36
 70
     1
102
RTVSPropertyOp37
 70
     1
102
RTVSPropertyOp38
 70
     1
102
RTVSPropertyOp39
 70
     1
102
RTVSPropertyOp40
 70
     1
102
RTVSPropertyOp41
 70
     1
102
RTVSPropertyOp42
 70
     1
102
RTVSPropertyOp43
 70
     1
102
RTVSPropertyOp44
 70
     1
102
RTVSPropertyOp45
 70
     1
102
RTVSPropertyOp46
 70
     1
102
RTVSPropertyOp47
 70
     1
102
RTVSPropertyOp48
 70
     1
102
RTVSPropertyOp49
 70
     1
102
RTVSPropertyOp50
 70
     1
102
RTVSPropertyOp51
 70
     0
102
RTVSPropertyOp52
 70
     0
102
RTVSPropertyOp53
 70
     1
102
RTVSPropertyOp54
 70
     1
102
RTVSPropertyOp55
 70
     1
102
RTVSPropertyOp56
 70
     1
102
RTVSPropertyOp57
 70
     1
102
RTVSPost2010Prop28
280
     0
102
RTVSPost2010PropOp28
 70
     1
102
RTVSPost2010Prop29
280
     1
102
RTVSPost2010PropOp29
 70
     1
102
RTVSPost2010Prop30
280
     1
102
RTVSPost2010PropOp30
 70
     1
102
RTVSPost2010Prop31
280
     0
102
RTVSPost2010PropOp31
 70
     1
102
RTVSPost2010Prop32
280
     0
102
RTVSPost2010PropOp32
 70
     1
102
RTVSPost2010Prop33
280
     0
102
RTVSPost2010PropOp33
 70
     1
102
RTVSPost2010Prop34
280
     0
102
RTVSPost2010PropOp34
 70
     1
102
RTVSPost2010Prop35
280
     0
102
RTVSPost2010PropOp35
 70
     1
102
RTVSPost2010Prop36
280
     0
102
RTVSPost2010PropOp36
 70
     1
102
RTVSPost2010Prop37
 90
       50
102
RTVSPost2010PropOp37
 70
     1
102
RTVSPost2010Prop38
140
0.0
102
RTVSPost2010PropOp38
 70
     1
102
RTVSPost2010Prop39
140
1.0
102
RTVSPost2010PropOp39
 70
     1
102
RTVSPost2010Prop40
 90
        0
102
RTVSPost2010PropOp40
 70
     1
102
RTVSPost2010Prop41ColorIndex
 90
       18
102
RTVSPost2010Prop41ColorRGB
 90
        0
102
RTVSPost2010PropOp41
 70
     1
102
RTVSPost2010Prop42
 90
       50
102
RTVSPost2010PropOp42
 70
     1
102
RTVSPost2010Prop43
 90
        3
102
RTVSPost2010PropOp43
 70
     1
102
RTVSPost2010Prop44ColorIndex
 90
        5
102
RTVSPost2010Prop44ColorRGB
 90
      255
102
RTVSPost2010PropOp44
 70
     1
102
RTVSPost2010Prop45
280
     0
102
RTVSPost2010PropOp45
 70
     1
102
RTVSPost2010Prop46
 90
       50
102
RTVSPost2010PropOp46
 70
     1
102
RTVSPost2010Prop47
 90
       50
102
RTVSPost2010PropOp47
 70
     1
102
RTVSPost2010Prop48
 90
       50
102
RTVSPost2010PropOp48
 70
     1
102
RTVSPost2010Prop49
280
     0
102
RTVSPost2010PropOp49
 70
     1
102
RTVSPost2010Prop50
 90
       50
102
RTVSPost2010PropOp50
 70
     1
102
RTVSPost2010Prop51ColorIndex
 90
      256
102
RTVSPost2010Prop51ColorRGB
 90
-16777216
102
RTVSPost2010PropOp51
 70
     0
102
RTVSPost2010Prop52
140
1.0
102
RTVSPost2010PropOp52
 70
     0
102
RTVSPost2010Prop53
 90
        2
102
RTVSPost2010PropOp53
 70
     1
102
RTVSPost2010Prop54
  1
strokes_ogs.tif
102
RTVSPost2010PropOp54
 70
     1
102
RTVSPost2010Prop55
280
     0
102
RTVSPost2010PropOp55
 70
     1
102
RTVSPost2010Prop56
140
1.0
102
RTVSPost2010PropOp56
 70
     1
102
RTVSPost2010Prop57
140
1.0
102
RTVSPost2010PropOp57
 70
     1
  0
XRECORD
  5
F9B
102
{ACAD_REACTORS
330
F9A
102
}
330
F9A
100
AcDbXrecord
280
     1
102
RTVSPropertyOp0
 70
     1
102
RTVSPropertyOp1
 70
     1
102
RTVSPropertyOp2
 70
     1
102
RTVSPropertyOp3
 70
     1
102
RTVSPropertyOp4
 70
     1
102
RTVSPropertyOp5
 70
     1
102
RTVSPropertyOp6
 70
     1
102
RTVSPropertyOp7
 70
     1
102
RTVSPropertyOp8
 70
     1
102
RTVSPropertyOp9
 70
     1
102
RTVSPropertyOp10
 70
     1
102
RTVSPropertyOp11
 70
     1
102
RTVSPropertyOp12
 70
     1
102
RTVSPropertyOp13
 70
     1
102
RTVSPropertyOp14
 70
     1
102
RTVSPropertyOp15
 70
     1
102
RTVSPropertyOp16
 70
     1
102
RTVSPropertyOp17
 70
     1
102
RTVSPropertyOp18
 70
     1
102
RTVSPropertyOp19
 70
     1
102
RTVSPropertyOp20
 70
     1
102
RTVSPropertyOp21
 70
     1
102
RTVSPropertyOp22
 70
     1
102
RTVSPropertyOp23
 70
     1
102
RTVSPropertyOp24
 70
     1
102
RTVSPropertyOp25
 70
     1
102
RTVSPropertyOp26
 70
     1
102
RTVSPropertyOp27
 70
     1
102
RTVSPropertyOp28
 70
     1
102
RTVSPropertyOp29
 70
     1
102
RTVSPropertyOp30
 70
     1
102
RTVSPropertyOp31
 70
     1
102
RTVSPropertyOp32
 70
     1
102
RTVSPropertyOp33
 70
     1
102
RTVSPropertyOp34
 70
     1
102
RTVSPropertyOp35
 70
     1
102
RTVSPropertyOp36
 70
     1
102
RTVSPropertyOp37
 70
     1
102
RTVSPropertyOp38
 70
     1
102
RTVSPropertyOp39
 70
     1
102
RTVSPropertyOp40
 70
     1
102
RTVSPropertyOp41
 70
     1
102
RTVSPropertyOp42
 70
     1
102
RTVSPropertyOp43
 70
     1
102
RTVSPropertyOp44
 70
     1
102
RTVSPropertyOp45
 70
     1
102
RTVSPropertyOp46
 70
     1
102
RTVSPropertyOp47
 70
     1
102
RTVSPropertyOp48
 70
     1
102
RTVSPropertyOp49
 70
     1
102
RTVSPropertyOp50
 70
     1
102
RTVSPropertyOp51
 70
     0
102
RTVSPropertyOp52
 70
     0
102
RTVSPropertyOp53
 70
     1
102
RTVSPropertyOp54
 70
     1
102
RTVSPropertyOp55
 70
     1
102
RTVSPropertyOp56
 70
     1
102
RTVSPropertyOp57
 70
     1
102
RTVSPost2010Prop28
280
     0
102
RTVSPost2010PropOp28
 70
     1
102
RTVSPost2010Prop29
280
     1
102
RTVSPost2010PropOp29
 70
     1
102
RTVSPost2010Prop30
280
     1
102
RTVSPost2010PropOp30
 70
     1
102
RTVSPost2010Prop31
280
     0
102
RTVSPost2010PropOp31
 70
     1
102
RTVSPost2010Prop32
280
     0
102
RTVSPost2010PropOp32
 70
     1
102
RTVSPost2010Prop33
280
     0
102
RTVSPost2010PropOp33
 70
     1
102
RTVSPost2010Prop34
280
     0
102
RTVSPost2010PropOp34
 70
     1
102
RTVSPost2010Prop35
280
     0
102
RTVSPost2010PropOp35
 70
     1
102
RTVSPost2010Prop36
280
     0
102
RTVSPost2010PropOp36
 70
     1
102
RTVSPost2010Prop37
 90
       50
102
RTVSPost2010PropOp37
 70
     1
102
RTVSPost2010Prop38
140
0.0
102
RTVSPost2010PropOp38
 70
     1
102
RTVSPost2010Prop39
140
1.0
102
RTVSPost2010PropOp39
 70
     1
102
RTVSPost2010Prop40
 90
        0
102
RTVSPost2010PropOp40
 70
     1
102
RTVSPost2010Prop41ColorIndex
 90
       18
102
RTVSPost2010Prop41ColorRGB
 90
        0
102
RTVSPost2010PropOp41
 70
     1
102
RTVSPost2010Prop42
 90
       50
102
RTVSPost2010PropOp42
 70
     1
102
RTVSPost2010Prop43
 90
        3
102
RTVSPost2010PropOp43
 70
     1
102
RTVSPost2010Prop44ColorIndex
 90
        5
102
RTVSPost2010Prop44ColorRGB
 90
      255
102
RTVSPost2010PropOp44
 70
     1
102
RTVSPost2010Prop45
280
     0
102
RTVSPost2010PropOp45
 70
     1
102
RTVSPost2010Prop46
 90
       50
102
RTVSPost2010PropOp46
 70
     1
102
RTVSPost2010Prop47
 90
       50
102
RTVSPost2010PropOp47
 70
     1
102
RTVSPost2010Prop48
 90
       50
102
RTVSPost2010PropOp48
 70
     1
102
RTVSPost2010Prop49
280
     0
102
RTVSPost2010PropOp49
 70
     1
102
RTVSPost2010Prop50
 90
       50
102
RTVSPost2010PropOp50
 70
     1
102
RTVSPost2010Prop51ColorIndex
 90
      256
102
RTVSPost2010Prop51ColorRGB
 90
-16777216
102
RTVSPost2010PropOp51
 70
     0
102
RTVSPost2010Prop52
140
1.0
102
RTVSPost2010PropOp52
 70
     0
102
RTVSPost2010Prop53
 90
        2
102
RTVSPost2010PropOp53
 70
     1
102
RTVSPost2010Prop54
  1
strokes_ogs.tif
102
RTVSPost2010PropOp54
 70
     1
102
RTVSPost2010Prop55
280
     0
102
RTVSPost2010PropOp55
 70
     1
102
RTVSPost2010Prop56
140
1.0
102
RTVSPost2010PropOp56
 70
     1
102
RTVSPost2010Prop57
140
1.0
102
RTVSPost2010PropOp57
 70
     1
  0
XRECORD
  5
FA3
102
{ACAD_REACTORS
330
FA2
102
}
330
FA2
100
AcDbXrecord
280
     1
102
RTVSPropertyOp0
 70
     1
102
RTVSPropertyOp1
 70
     1
102
RTVSPropertyOp2
 70
     1
102
RTVSPropertyOp3
 70
     1
102
RTVSPropertyOp4
 70
     1
102
RTVSPropertyOp5
 70
     1
102
RTVSPropertyOp6
 70
     1
102
RTVSPropertyOp7
 70
     1
102
RTVSPropertyOp8
 70
     1
102
RTVSPropertyOp9
 70
     1
102
RTVSPropertyOp10
 70
     1
102
RTVSPropertyOp11
 70
     1
102
RTVSPropertyOp12
 70
     1
102
RTVSPropertyOp13
 70
     1
102
RTVSPropertyOp14
 70
     1
102
RTVSPropertyOp15
 70
     1
102
RTVSPropertyOp16
 70
     1
102
RTVSPropertyOp17
 70
     1
102
RTVSPropertyOp18
 70
     1
102
RTVSPropertyOp19
 70
     1
102
RTVSPropertyOp20
 70
     1
102
RTVSPropertyOp21
 70
     1
102
RTVSPropertyOp22
 70
     1
102
RTVSPropertyOp23
 70
     1
102
RTVSPropertyOp24
 70
     1
102
RTVSPropertyOp25
 70
     1
102
RTVSPropertyOp26
 70
     1
102
RTVSPropertyOp27
 70
     1
102
RTVSPropertyOp28
 70
     1
102
RTVSPropertyOp29
 70
     1
102
RTVSPropertyOp30
 70
     1
102
RTVSPropertyOp31
 70
     1
102
RTVSPropertyOp32
 70
     1
102
RTVSPropertyOp33
 70
     1
102
RTVSPropertyOp34
 70
     1
102
RTVSPropertyOp35
 70
     1
102
RTVSPropertyOp36
 70
     1
102
RTVSPropertyOp37
 70
     1
102
RTVSPropertyOp38
 70
     1
102
RTVSPropertyOp39
 70
     1
102
RTVSPropertyOp40
 70
     1
102
RTVSPropertyOp41
 70
     1
102
RTVSPropertyOp42
 70
     1
102
RTVSPropertyOp43
 70
     1
102
RTVSPropertyOp44
 70
     1
102
RTVSPropertyOp45
 70
     1
102
RTVSPropertyOp46
 70
     1
102
RTVSPropertyOp47
 70
     1
102
RTVSPropertyOp48
 70
     1
102
RTVSPropertyOp49
 70
     1
102
RTVSPropertyOp50
 70
     1
102
RTVSPropertyOp51
 70
     0
102
RTVSPropertyOp52
 70
     0
102
RTVSPropertyOp53
 70
     1
102
RTVSPropertyOp54
 70
     1
102
RTVSPropertyOp55
 70
     1
102
RTVSPropertyOp56
 70
     1
102
RTVSPropertyOp57
 70
     1
102
RTVSPost2010Prop28
280
     0
102
RTVSPost2010PropOp28
 70
     1
102
RTVSPost2010Prop29
280
     1
102
RTVSPost2010PropOp29
 70
     1
102
RTVSPost2010Prop30
280
     1
102
RTVSPost2010PropOp30
 70
     1
102
RTVSPost2010Prop31
280
     0
102
RTVSPost2010PropOp31
 70
     1
102
RTVSPost2010Prop32
280
     0
102
RTVSPost2010PropOp32
 70
     1
102
RTVSPost2010Prop33
280
     0
102
RTVSPost2010PropOp33
 70
     1
102
RTVSPost2010Prop34
280
     0
102
RTVSPost2010PropOp34
 70
     1
102
RTVSPost2010Prop35
280
     0
102
RTVSPost2010PropOp35
 70
     1
102
RTVSPost2010Prop36
280
     0
102
RTVSPost2010PropOp36
 70
     1
102
RTVSPost2010Prop37
 90
       50
102
RTVSPost2010PropOp37
 70
     1
102
RTVSPost2010Prop38
140
0.0
102
RTVSPost2010PropOp38
 70
     1
102
RTVSPost2010Prop39
140
1.0
102
RTVSPost2010PropOp39
 70
     1
102
RTVSPost2010Prop40
 90
        0
102
RTVSPost2010PropOp40
 70
     1
102
RTVSPost2010Prop41ColorIndex
 90
       18
102
RTVSPost2010Prop41ColorRGB
 90
        0
102
RTVSPost2010PropOp41
 70
     1
102
RTVSPost2010Prop42
 90
       50
102
RTVSPost2010PropOp42
 70
     1
102
RTVSPost2010Prop43
 90
        3
102
RTVSPost2010PropOp43
 70
     1
102
RTVSPost2010Prop44ColorIndex
 90
        5
102
RTVSPost2010Prop44ColorRGB
 90
      255
102
RTVSPost2010PropOp44
 70
     1
102
RTVSPost2010Prop45
280
     0
102
RTVSPost2010PropOp45
 70
     1
102
RTVSPost2010Prop46
 90
       50
102
RTVSPost2010PropOp46
 70
     1
102
RTVSPost2010Prop47
 90
       50
102
RTVSPost2010PropOp47
 70
     1
102
RTVSPost2010Prop48
 90
       50
102
RTVSPost2010PropOp48
 70
     1
102
RTVSPost2010Prop49
280
     0
102
RTVSPost2010PropOp49
 70
     1
102
RTVSPost2010Prop50
 90
       50
102
RTVSPost2010PropOp50
 70
     1
102
RTVSPost2010Prop51ColorIndex
 90
      256
102
RTVSPost2010Prop51ColorRGB
 90
-16777216
102
RTVSPost2010PropOp51
 70
     0
102
RTVSPost2010Prop52
140
1.0
102
RTVSPost2010PropOp52
 70
     0
102
RTVSPost2010Prop53
 90
        2
102
RTVSPost2010PropOp53
 70
     1
102
RTVSPost2010Prop54
  1
strokes_ogs.tif
102
RTVSPost2010PropOp54
 70
     1
102
RTVSPost2010Prop55
280
     0
102
RTVSPost2010PropOp55
 70
     1
102
RTVSPost2010Prop56
140
1.0
102
RTVSPost2010PropOp56
 70
     1
102
RTVSPost2010Prop57
140
1.0
102
RTVSPost2010PropOp57
 70
     1
  0
XRECORD
  5
F97
102
{ACAD_REACTORS
330
F96
102
}
330
F96
100
AcDbXrecord
280
     1
102
RTVSPropertyOp0
 70
     1
102
RTVSPropertyOp1
 70
     1
102
RTVSPropertyOp2
 70
     1
102
RTVSPropertyOp3
 70
     1
102
RTVSPropertyOp4
 70
     1
102
RTVSPropertyOp5
 70
     1
102
RTVSPropertyOp6
 70
     1
102
RTVSPropertyOp7
 70
     1
102
RTVSPropertyOp8
 70
     1
102
RTVSPropertyOp9
 70
     1
102
RTVSPropertyOp10
 70
     1
102
RTVSPropertyOp11
 70
     1
102
RTVSPropertyOp12
 70
     1
102
RTVSPropertyOp13
 70
     1
102
RTVSPropertyOp14
 70
     1
102
RTVSPropertyOp15
 70
     1
102
RTVSPropertyOp16
 70
     1
102
RTVSPropertyOp17
 70
     1
102
RTVSPropertyOp18
 70
     1
102
RTVSPropertyOp19
 70
     1
102
RTVSPropertyOp20
 70
     1
102
RTVSPropertyOp21
 70
     1
102
RTVSPropertyOp22
 70
     1
102
RTVSPropertyOp23
 70
     1
102
RTVSPropertyOp24
 70
     1
102
RTVSPropertyOp25
 70
     1
102
RTVSPropertyOp26
 70
     1
102
RTVSPropertyOp27
 70
     1
102
RTVSPropertyOp28
 70
     1
102
RTVSPropertyOp29
 70
     1
102
RTVSPropertyOp30
 70
     1
102
RTVSPropertyOp31
 70
     1
102
RTVSPropertyOp32
 70
     1
102
RTVSPropertyOp33
 70
     1
102
RTVSPropertyOp34
 70
     1
102
RTVSPropertyOp35
 70
     1
102
RTVSPropertyOp36
 70
     1
102
RTVSPropertyOp37
 70
     1
102
RTVSPropertyOp38
 70
     1
102
RTVSPropertyOp39
 70
     1
102
RTVSPropertyOp40
 70
     1
102
RTVSPropertyOp41
 70
     1
102
RTVSPropertyOp42
 70
     1
102
RTVSPropertyOp43
 70
     1
102
RTVSPropertyOp44
 70
     1
102
RTVSPropertyOp45
 70
     1
102
RTVSPropertyOp46
 70
     1
102
RTVSPropertyOp47
 70
     1
102
RTVSPropertyOp48
 70
     1
102
RTVSPropertyOp49
 70
     1
102
RTVSPropertyOp50
 70
     1
102
RTVSPropertyOp51
 70
     0
102
RTVSPropertyOp52
 70
     0
102
RTVSPropertyOp53
 70
     1
102
RTVSPropertyOp54
 70
     1
102
RTVSPropertyOp55
 70
     1
102
RTVSPropertyOp56
 70
     1
102
RTVSPropertyOp57
 70
     1
102
RTVSPost2010Prop28
280
     0
102
RTVSPost2010PropOp28
 70
     1
102
RTVSPost2010Prop29
280
     1
102
RTVSPost2010PropOp29
 70
     1
102
RTVSPost2010Prop30
280
     1
102
RTVSPost2010PropOp30
 70
     1
102
RTVSPost2010Prop31
280
     0
102
RTVSPost2010PropOp31
 70
     1
102
RTVSPost2010Prop32
280
     0
102
RTVSPost2010PropOp32
 70
     1
102
RTVSPost2010Prop33
280
     0
102
RTVSPost2010PropOp33
 70
     1
102
RTVSPost2010Prop34
280
     0
102
RTVSPost2010PropOp34
 70
     1
102
RTVSPost2010Prop35
280
     0
102
RTVSPost2010PropOp35
 70
     1
102
RTVSPost2010Prop36
280
     0
102
RTVSPost2010PropOp36
 70
     1
102
RTVSPost2010Prop37
 90
       50
102
RTVSPost2010PropOp37
 70
     1
102
RTVSPost2010Prop38
140
0.0
102
RTVSPost2010PropOp38
 70
     1
102
RTVSPost2010Prop39
140
1.0
102
RTVSPost2010PropOp39
 70
     1
102
RTVSPost2010Prop40
 90
        0
102
RTVSPost2010PropOp40
 70
     1
102
RTVSPost2010Prop41ColorIndex
 90
       18
102
RTVSPost2010Prop41ColorRGB
 90
        0
102
RTVSPost2010PropOp41
 70
     1
102
RTVSPost2010Prop42
 90
       50
102
RTVSPost2010PropOp42
 70
     1
102
RTVSPost2010Prop43
 90
        3
102
RTVSPost2010PropOp43
 70
     1
102
RTVSPost2010Prop44ColorIndex
 90
        5
102
RTVSPost2010Prop44ColorRGB
 90
      255
102
RTVSPost2010PropOp44
 70
     1
102
RTVSPost2010Prop45
280
     0
102
RTVSPost2010PropOp45
 70
     1
102
RTVSPost2010Prop46
 90
       50
102
RTVSPost2010PropOp46
 70
     1
102
RTVSPost2010Prop47
 90
       50
102
RTVSPost2010PropOp47
 70
     1
102
RTVSPost2010Prop48
 90
       50
102
RTVSPost2010PropOp48
 70
     1
102
RTVSPost2010Prop49
280
     0
102
RTVSPost2010PropOp49
 70
     1
102
RTVSPost2010Prop50
 90
       50
102
RTVSPost2010PropOp50
 70
     1
102
RTVSPost2010Prop51ColorIndex
 90
      256
102
RTVSPost2010Prop51ColorRGB
 90
-16777216
102
RTVSPost2010PropOp51
 70
     0
102
RTVSPost2010Prop52
140
1.0
102
RTVSPost2010PropOp52
 70
     0
102
RTVSPost2010Prop53
 90
        2
102
RTVSPost2010PropOp53
 70
     1
102
RTVSPost2010Prop54
  1
strokes_ogs.tif
102
RTVSPost2010PropOp54
 70
     1
102
RTVSPost2010Prop55
280
     0
102
RTVSPost2010PropOp55
 70
     1
102
RTVSPost2010Prop56
140
1.0
102
RTVSPost2010PropOp56
 70
     1
102
RTVSPost2010Prop57
140
1.0
102
RTVSPost2010PropOp57
 70
     1
  0
XRECORD
  5
F99
102
{ACAD_REACTORS
330
F98
102
}
330
F98
100
AcDbXrecord
280
     1
102
RTVSPropertyOp0
 70
     1
102
RTVSPropertyOp1
 70
     1
102
RTVSPropertyOp2
 70
     1
102
RTVSPropertyOp3
 70
     1
102
RTVSPropertyOp4
 70
     1
102
RTVSPropertyOp5
 70
     1
102
RTVSPropertyOp6
 70
     1
102
RTVSPropertyOp7
 70
     1
102
RTVSPropertyOp8
 70
     1
102
RTVSPropertyOp9
 70
     1
102
RTVSPropertyOp10
 70
     1
102
RTVSPropertyOp11
 70
     1
102
RTVSPropertyOp12
 70
     1
102
RTVSPropertyOp13
 70
     1
102
RTVSPropertyOp14
 70
     1
102
RTVSPropertyOp15
 70
     1
102
RTVSPropertyOp16
 70
     1
102
RTVSPropertyOp17
 70
     1
102
RTVSPropertyOp18
 70
     1
102
RTVSPropertyOp19
 70
     1
102
RTVSPropertyOp20
 70
     1
102
RTVSPropertyOp21
 70
     1
102
RTVSPropertyOp22
 70
     1
102
RTVSPropertyOp23
 70
     1
102
RTVSPropertyOp24
 70
     1
102
RTVSPropertyOp25
 70
     1
102
RTVSPropertyOp26
 70
     1
102
RTVSPropertyOp27
 70
     1
102
RTVSPropertyOp28
 70
     1
102
RTVSPropertyOp29
 70
     1
102
RTVSPropertyOp30
 70
     1
102
RTVSPropertyOp31
 70
     1
102
RTVSPropertyOp32
 70
     1
102
RTVSPropertyOp33
 70
     1
102
RTVSPropertyOp34
 70
     1
102
RTVSPropertyOp35
 70
     1
102
RTVSPropertyOp36
 70
     1
102
RTVSPropertyOp37
 70
     1
102
RTVSPropertyOp38
 70
     1
102
RTVSPropertyOp39
 70
     1
102
RTVSPropertyOp40
 70
     1
102
RTVSPropertyOp41
 70
     1
102
RTVSPropertyOp42
 70
     1
102
RTVSPropertyOp43
 70
     1
102
RTVSPropertyOp44
 70
     1
102
RTVSPropertyOp45
 70
     1
102
RTVSPropertyOp46
 70
     1
102
RTVSPropertyOp47
 70
     1
102
RTVSPropertyOp48
 70
     1
102
RTVSPropertyOp49
 70
     1
102
RTVSPropertyOp50
 70
     1
102
RTVSPropertyOp51
 70
     0
102
RTVSPropertyOp52
 70
     0
102
RTVSPropertyOp53
 70
     1
102
RTVSPropertyOp54
 70
     1
102
RTVSPropertyOp55
 70
     1
102
RTVSPropertyOp56
 70
     1
102
RTVSPropertyOp57
 70
     1
102
RTVSPost2010Prop28
280
     0
102
RTVSPost2010PropOp28
 70
     1
102
RTVSPost2010Prop29
280
     1
102
RTVSPost2010PropOp29
 70
     1
102
RTVSPost2010Prop30
280
     1
102
RTVSPost2010PropOp30
 70
     1
102
RTVSPost2010Prop31
280
     0
102
RTVSPost2010PropOp31
 70
     1
102
RTVSPost2010Prop32
280
     0
102
RTVSPost2010PropOp32
 70
     1
102
RTVSPost2010Prop33
280
     0
102
RTVSPost2010PropOp33
 70
     1
102
RTVSPost2010Prop34
280
     0
102
RTVSPost2010PropOp34
 70
     1
102
RTVSPost2010Prop35
280
     0
102
RTVSPost2010PropOp35
 70
     1
102
RTVSPost2010Prop36
280
     0
102
RTVSPost2010PropOp36
 70
     1
102
RTVSPost2010Prop37
 90
       50
102
RTVSPost2010PropOp37
 70
     1
102
RTVSPost2010Prop38
140
0.0
102
RTVSPost2010PropOp38
 70
     1
102
RTVSPost2010Prop39
140
1.0
102
RTVSPost2010PropOp39
 70
     1
102
RTVSPost2010Prop40
 90
        0
102
RTVSPost2010PropOp40
 70
     1
102
RTVSPost2010Prop41ColorIndex
 90
       18
102
RTVSPost2010Prop41ColorRGB
 90
        0
102
RTVSPost2010PropOp41
 70
     1
102
RTVSPost2010Prop42
 90
       50
102
RTVSPost2010PropOp42
 70
     1
102
RTVSPost2010Prop43
 90
        3
102
RTVSPost2010PropOp43
 70
     1
102
RTVSPost2010Prop44ColorIndex
 90
        5
102
RTVSPost2010Prop44ColorRGB
 90
      255
102
RTVSPost2010PropOp44
 70
     1
102
RTVSPost2010Prop45
280
     0
102
RTVSPost2010PropOp45
 70
     1
102
RTVSPost2010Prop46
 90
       50
102
RTVSPost2010PropOp46
 70
     1
102
RTVSPost2010Prop47
 90
       50
102
RTVSPost2010PropOp47
 70
     1
102
RTVSPost2010Prop48
 90
       50
102
RTVSPost2010PropOp48
 70
     1
102
RTVSPost2010Prop49
280
     0
102
RTVSPost2010PropOp49
 70
     1
102
RTVSPost2010Prop50
 90
       50
102
RTVSPost2010PropOp50
 70
     1
102
RTVSPost2010Prop51ColorIndex
 90
      256
102
RTVSPost2010Prop51ColorRGB
 90
-16777216
102
RTVSPost2010PropOp51
 70
     0
102
RTVSPost2010Prop52
140
1.0
102
RTVSPost2010PropOp52
 70
     0
102
RTVSPost2010Prop53
 90
        2
102
RTVSPost2010PropOp53
 70
     1
102
RTVSPost2010Prop54
  1
strokes_ogs.tif
102
RTVSPost2010PropOp54
 70
     1
102
RTVSPost2010Prop55
280
     0
102
RTVSPost2010PropOp55
 70
     1
102
RTVSPost2010Prop56
140
1.0
102
RTVSPost2010PropOp56
 70
     1
102
RTVSPost2010Prop57
140
1.0
102
RTVSPost2010PropOp57
 70
     1
  0
XRECORD
  5
FA9
102
{ACAD_REACTORS
330
FA8
102
}
330
FA8
100
AcDbXrecord
280
     1
102
RTVSPropertyOp0
 70
     0
102
RTVSPropertyOp1
 70
     0
102
RTVSPropertyOp2
 70
     0
102
RTVSPropertyOp3
 70
     0
102
RTVSPropertyOp4
 70
     0
102
RTVSPropertyOp5
 70
     0
102
RTVSPropertyOp6
 70
     0
102
RTVSPropertyOp7
 70
     0
102
RTVSPropertyOp8
 70
     0
102
RTVSPropertyOp9
 70
     0
102
RTVSPropertyOp10
 70
     0
102
RTVSPropertyOp11
 70
     0
102
RTVSPropertyOp12
 70
     0
102
RTVSPropertyOp13
 70
     0
102
RTVSPropertyOp14
 70
     2
102
RTVSPropertyOp15
 70
     0
102
RTVSPropertyOp16
 70
     0
102
RTVSPropertyOp17
 70
     0
102
RTVSPropertyOp18
 70
     0
102
RTVSPropertyOp19
 70
     0
102
RTVSPropertyOp20
 70
     0
102
RTVSPropertyOp21
 70
     0
102
RTVSPropertyOp22
 70
     0
102
RTVSPropertyOp23
 70
     0
102
RTVSPropertyOp24
 70
     0
102
RTVSPropertyOp25
 70
     0
102
RTVSPropertyOp26
 70
     0
102
RTVSPropertyOp27
 70
     0
102
RTVSPropertyOp28
 70
     0
102
RTVSPropertyOp29
 70
     0
102
RTVSPropertyOp30
 70
     0
102
RTVSPropertyOp31
 70
     0
102
RTVSPropertyOp32
 70
     0
102
RTVSPropertyOp33
 70
     0
102
RTVSPropertyOp34
 70
     0
102
RTVSPropertyOp35
 70
     0
102
RTVSPropertyOp36
 70
     0
102
RTVSPropertyOp37
 70
     0
102
RTVSPropertyOp38
 70
     0
102
RTVSPropertyOp39
 70
     0
102
RTVSPropertyOp40
 70
     0
102
RTVSPropertyOp41
 70
     0
102
RTVSPropertyOp42
 70
     0
102
RTVSPropertyOp43
 70
     0
102
RTVSPropertyOp44
 70
     0
102
RTVSPropertyOp45
 70
     0
102
RTVSPropertyOp46
 70
     0
102
RTVSPropertyOp47
 70
     0
102
RTVSPropertyOp48
 70
     0
102
RTVSPropertyOp49
 70
     0
102
RTVSPropertyOp50
 70
     0
102
RTVSPropertyOp51
 70
     0
102
RTVSPropertyOp52
 70
     0
102
RTVSPropertyOp53
 70
     0
102
RTVSPropertyOp54
 70
     0
102
RTVSPropertyOp55
 70
     0
102
RTVSPropertyOp56
 70
     0
102
RTVSPropertyOp57
 70
     0
102
RTVSPost2010Prop28
280
     0
102
RTVSPost2010PropOp28
 70
     0
102
RTVSPost2010Prop29
280
     1
102
RTVSPost2010PropOp29
 70
     0
102
RTVSPost2010Prop30
280
     1
102
RTVSPost2010PropOp30
 70
     0
102
RTVSPost2010Prop31
280
     0
102
RTVSPost2010PropOp31
 70
     0
102
RTVSPost2010Prop32
280
     0
102
RTVSPost2010PropOp32
 70
     0
102
RTVSPost2010Prop33
280
     0
102
RTVSPost2010PropOp33
 70
     0
102
RTVSPost2010Prop34
280
     0
102
RTVSPost2010PropOp34
 70
     0
102
RTVSPost2010Prop35
280
     0
102
RTVSPost2010PropOp35
 70
     0
102
RTVSPost2010Prop36
280
     0
102
RTVSPost2010PropOp36
 70
     0
102
RTVSPost2010Prop37
 90
       50
102
RTVSPost2010PropOp37
 70
     0
102
RTVSPost2010Prop38
140
0.0
102
RTVSPost2010PropOp38
 70
     0
102
RTVSPost2010Prop39
140
1.0
102
RTVSPost2010PropOp39
 70
     0
102
RTVSPost2010Prop40
 90
        0
102
RTVSPost2010PropOp40
 70
     0
102
RTVSPost2010Prop41ColorIndex
 90
       18
102
RTVSPost2010Prop41ColorRGB
 90
        0
102
RTVSPost2010PropOp41
 70
     0
102
RTVSPost2010Prop42
 90
       50
102
RTVSPost2010PropOp42
 70
     0
102
RTVSPost2010Prop43
 90
        3
102
RTVSPost2010PropOp43
 70
     0
102
RTVSPost2010Prop44ColorIndex
 90
        5
102
RTVSPost2010Prop44ColorRGB
 90
      255
102
RTVSPost2010PropOp44
 70
     0
102
RTVSPost2010Prop45
280
     0
102
RTVSPost2010PropOp45
 70
     0
102
RTVSPost2010Prop46
 90
       50
102
RTVSPost2010PropOp46
 70
     0
102
RTVSPost2010Prop47
 90
       50
102
RTVSPost2010PropOp47
 70
     0
102
RTVSPost2010Prop48
 90
       50
102
RTVSPost2010PropOp48
 70
     0
102
RTVSPost2010Prop49
280
     0
102
RTVSPost2010PropOp49
 70
     0
102
RTVSPost2010Prop50
 90
       50
102
RTVSPost2010PropOp50
 70
     0
102
RTVSPost2010Prop51ColorIndex
 90
      256
102
RTVSPost2010Prop51ColorRGB
 90
-16777216
102
RTVSPost2010PropOp51
 70
     0
102
RTVSPost2010Prop52
140
1.0
102
RTVSPost2010PropOp52
 70
     0
102
RTVSPost2010Prop53
 90
        2
102
RTVSPost2010PropOp53
 70
     0
102
RTVSPost2010Prop54
  1
strokes_ogs.tif
102
RTVSPost2010PropOp54
 70
     0
102
RTVSPost2010Prop55
280
     0
102
RTVSPost2010PropOp55
 70
     0
102
RTVSPost2010Prop56
140
1.0
102
RTVSPost2010PropOp56
 70
     0
102
RTVSPost2010Prop57
140
1.0
102
RTVSPost2010PropOp57
 70
     0
  0
XRECORD
  5
FA1
102
{ACAD_REACTORS
330
FA0
102
}
330
FA0
100
AcDbXrecord
280
     1
102
RTVSPropertyOp0
 70
     1
102
RTVSPropertyOp1
 70
     1
102
RTVSPropertyOp2
 70
     1
102
RTVSPropertyOp3
 70
     1
102
RTVSPropertyOp4
 70
     1
102
RTVSPropertyOp5
 70
     1
102
RTVSPropertyOp6
 70
     1
102
RTVSPropertyOp7
 70
     1
102
RTVSPropertyOp8
 70
     1
102
RTVSPropertyOp9
 70
     1
102
RTVSPropertyOp10
 70
     1
102
RTVSPropertyOp11
 70
     1
102
RTVSPropertyOp12
 70
     1
102
RTVSPropertyOp13
 70
     1
102
RTVSPropertyOp14
 70
     1
102
RTVSPropertyOp15
 70
     1
102
RTVSPropertyOp16
 70
     1
102
RTVSPropertyOp17
 70
     1
102
RTVSPropertyOp18
 70
     1
102
RTVSPropertyOp19
 70
     1
102
RTVSPropertyOp20
 70
     1
102
RTVSPropertyOp21
 70
     1
102
RTVSPropertyOp22
 70
     1
102
RTVSPropertyOp23
 70
     1
102
RTVSPropertyOp24
 70
     1
102
RTVSPropertyOp25
 70
     1
102
RTVSPropertyOp26
 70
     1
102
RTVSPropertyOp27
 70
     1
102
RTVSPropertyOp28
 70
     1
102
RTVSPropertyOp29
 70
     1
102
RTVSPropertyOp30
 70
     1
102
RTVSPropertyOp31
 70
     1
102
RTVSPropertyOp32
 70
     1
102
RTVSPropertyOp33
 70
     1
102
RTVSPropertyOp34
 70
     1
102
RTVSPropertyOp35
 70
     1
102
RTVSPropertyOp36
 70
     1
102
RTVSPropertyOp37
 70
     1
102
RTVSPropertyOp38
 70
     1
102
RTVSPropertyOp39
 70
     1
102
RTVSPropertyOp40
 70
     1
102
RTVSPropertyOp41
 70
     1
102
RTVSPropertyOp42
 70
     1
102
RTVSPropertyOp43
 70
     1
102
RTVSPropertyOp44
 70
     1
102
RTVSPropertyOp45
 70
     1
102
RTVSPropertyOp46
 70
     1
102
RTVSPropertyOp47
 70
     1
102
RTVSPropertyOp48
 70
     1
102
RTVSPropertyOp49
 70
     1
102
RTVSPropertyOp50
 70
     1
102
RTVSPropertyOp51
 70
     0
102
RTVSPropertyOp52
 70
     0
102
RTVSPropertyOp53
 70
     1
102
RTVSPropertyOp54
 70
     1
102
RTVSPropertyOp55
 70
     1
102
RTVSPropertyOp56
 70
     1
102
RTVSPropertyOp57
 70
     1
102
RTVSPost2010Prop28
280
     0
102
RTVSPost2010PropOp28
 70
     1
102
RTVSPost2010Prop29
280
     1
102
RTVSPost2010PropOp29
 70
     1
102
RTVSPost2010Prop30
280
     1
102
RTVSPost2010PropOp30
 70
     1
102
RTVSPost2010Prop31
280
     0
102
RTVSPost2010PropOp31
 70
     1
102
RTVSPost2010Prop32
280
     0
102
RTVSPost2010PropOp32
 70
     1
102
RTVSPost2010Prop33
280
     0
102
RTVSPost2010PropOp33
 70
     1
102
RTVSPost2010Prop34
280
     0
102
RTVSPost2010PropOp34
 70
     1
102
RTVSPost2010Prop35
280
     0
102
RTVSPost2010PropOp35
 70
     1
102
RTVSPost2010Prop36
280
     0
102
RTVSPost2010PropOp36
 70
     1
102
RTVSPost2010Prop37
 90
       50
102
RTVSPost2010PropOp37
 70
     1
102
RTVSPost2010Prop38
140
0.0
102
RTVSPost2010PropOp38
 70
     1
102
RTVSPost2010Prop39
140
1.0
102
RTVSPost2010PropOp39
 70
     1
102
RTVSPost2010Prop40
 90
        0
102
RTVSPost2010PropOp40
 70
     1
102
RTVSPost2010Prop41ColorIndex
 90
       18
102
RTVSPost2010Prop41ColorRGB
 90
        0
102
RTVSPost2010PropOp41
 70
     1
102
RTVSPost2010Prop42
 90
       50
102
RTVSPost2010PropOp42
 70
     1
102
RTVSPost2010Prop43
 90
        3
102
RTVSPost2010PropOp43
 70
     1
102
RTVSPost2010Prop44ColorIndex
 90
        5
102
RTVSPost2010Prop44ColorRGB
 90
      255
102
RTVSPost2010PropOp44
 70
     1
102
RTVSPost2010Prop45
280
     0
102
RTVSPost2010PropOp45
 70
     1
102
RTVSPost2010Prop46
 90
       50
102
RTVSPost2010PropOp46
 70
     1
102
RTVSPost2010Prop47
 90
       50
102
RTVSPost2010PropOp47
 70
     1
102
RTVSPost2010Prop48
 90
       50
102
RTVSPost2010PropOp48
 70
     1
102
RTVSPost2010Prop49
280
     0
102
RTVSPost2010PropOp49
 70
     1
102
RTVSPost2010Prop50
 90
       50
102
RTVSPost2010PropOp50
 70
     1
102
RTVSPost2010Prop51ColorIndex
 90
      256
102
RTVSPost2010Prop51ColorRGB
 90
-16777216
102
RTVSPost2010PropOp51
 70
     0
102
RTVSPost2010Prop52
140
1.0
102
RTVSPost2010PropOp52
 70
     0
102
RTVSPost2010Prop53
 90
        2
102
RTVSPost2010PropOp53
 70
     1
102
RTVSPost2010Prop54
  1
strokes_ogs.tif
102
RTVSPost2010PropOp54
 70
     1
102
RTVSPost2010Prop55
280
     0
102
RTVSPost2010PropOp55
 70
     1
102
RTVSPost2010Prop56
140
1.0
102
RTVSPost2010PropOp56
 70
     1
102
RTVSPost2010Prop57
140
1.0
102
RTVSPost2010PropOp57
 70
     1
  0
XRECORD
  5
F85
102
{ACAD_REACTORS
330
F84
102
}
330
F84
100
AcDbXrecord
280
     1
102
RTVSPropertyOp0
 70
     1
102
RTVSPropertyOp1
 70
     1
102
RTVSPropertyOp2
 70
     1
102
RTVSPropertyOp3
 70
     1
102
RTVSPropertyOp4
 70
     1
102
RTVSPropertyOp5
 70
     1
102
RTVSPropertyOp6
 70
     1
102
RTVSPropertyOp7
 70
     1
102
RTVSPropertyOp8
 70
     1
102
RTVSPropertyOp9
 70
     1
102
RTVSPropertyOp10
 70
     1
102
RTVSPropertyOp11
 70
     1
102
RTVSPropertyOp12
 70
     1
102
RTVSPropertyOp13
 70
     1
102
RTVSPropertyOp14
 70
     1
102
RTVSPropertyOp15
 70
     1
102
RTVSPropertyOp16
 70
     1
102
RTVSPropertyOp17
 70
     1
102
RTVSPropertyOp18
 70
     1
102
RTVSPropertyOp19
 70
     1
102
RTVSPropertyOp20
 70
     1
102
RTVSPropertyOp21
 70
     1
102
RTVSPropertyOp22
 70
     1
102
RTVSPropertyOp23
 70
     1
102
RTVSPropertyOp24
 70
     1
102
RTVSPropertyOp25
 70
     1
102
RTVSPropertyOp26
 70
     1
102
RTVSPropertyOp27
 70
     1
102
RTVSPropertyOp28
 70
     1
102
RTVSPropertyOp29
 70
     1
102
RTVSPropertyOp30
 70
     1
102
RTVSPropertyOp31
 70
     1
102
RTVSPropertyOp32
 70
     1
102
RTVSPropertyOp33
 70
     1
102
RTVSPropertyOp34
 70
     1
102
RTVSPropertyOp35
 70
     1
102
RTVSPropertyOp36
 70
     1
102
RTVSPropertyOp37
 70
     1
102
RTVSPropertyOp38
 70
     1
102
RTVSPropertyOp39
 70
     1
102
RTVSPropertyOp40
 70
     1
102
RTVSPropertyOp41
 70
     1
102
RTVSPropertyOp42
 70
     1
102
RTVSPropertyOp43
 70
     1
102
RTVSPropertyOp44
 70
     1
102
RTVSPropertyOp45
 70
     1
102
RTVSPropertyOp46
 70
     1
102
RTVSPropertyOp47
 70
     1
102
RTVSPropertyOp48
 70
     1
102
RTVSPropertyOp49
 70
     1
102
RTVSPropertyOp50
 70
     1
102
RTVSPropertyOp51
 70
     0
102
RTVSPropertyOp52
 70
     0
102
RTVSPropertyOp53
 70
     1
102
RTVSPropertyOp54
 70
     1
102
RTVSPropertyOp55
 70
     1
102
RTVSPropertyOp56
 70
     1
102
RTVSPropertyOp57
 70
     1
102
RTVSPost2010Prop28
280
     0
102
RTVSPost2010PropOp28
 70
     1
102
RTVSPost2010Prop29
280
     1
102
RTVSPost2010PropOp29
 70
     1
102
RTVSPost2010Prop30
280
     1
102
RTVSPost2010PropOp30
 70
     1
102
RTVSPost2010Prop31
280
     0
102
RTVSPost2010PropOp31
 70
     1
102
RTVSPost2010Prop32
280
     0
102
RTVSPost2010PropOp32
 70
     1
102
RTVSPost2010Prop33
280
     0
102
RTVSPost2010PropOp33
 70
     1
102
RTVSPost2010Prop34
280
     0
102
RTVSPost2010PropOp34
 70
     1
102
RTVSPost2010Prop35
280
     0
102
RTVSPost2010PropOp35
 70
     1
102
RTVSPost2010Prop36
280
     0
102
RTVSPost2010PropOp36
 70
     1
102
RTVSPost2010Prop37
 90
       50
102
RTVSPost2010PropOp37
 70
     1
102
RTVSPost2010Prop38
140
0.0
102
RTVSPost2010PropOp38
 70
     1
102
RTVSPost2010Prop39
140
1.0
102
RTVSPost2010PropOp39
 70
     1
102
RTVSPost2010Prop40
 90
        0
102
RTVSPost2010PropOp40
 70
     1
102
RTVSPost2010Prop41ColorIndex
 90
       18
102
RTVSPost2010Prop41ColorRGB
 90
        0
102
RTVSPost2010PropOp41
 70
     1
102
RTVSPost2010Prop42
 90
       50
102
RTVSPost2010PropOp42
 70
     1
102
RTVSPost2010Prop43
 90
        3
102
RTVSPost2010PropOp43
 70
     1
102
RTVSPost2010Prop44ColorIndex
 90
        5
102
RTVSPost2010Prop44ColorRGB
 90
      255
102
RTVSPost2010PropOp44
 70
     1
102
RTVSPost2010Prop45
280
     0
102
RTVSPost2010PropOp45
 70
     1
102
RTVSPost2010Prop46
 90
       50
102
RTVSPost2010PropOp46
 70
     1
102
RTVSPost2010Prop47
 90
       50
102
RTVSPost2010PropOp47
 70
     1
102
RTVSPost2010Prop48
 90
       50
102
RTVSPost2010PropOp48
 70
     1
102
RTVSPost2010Prop49
280
     0
102
RTVSPost2010PropOp49
 70
     1
102
RTVSPost2010Prop50
 90
       50
102
RTVSPost2010PropOp50
 70
     1
102
RTVSPost2010Prop51ColorIndex
 90
      256
102
RTVSPost2010Prop51ColorRGB
 90
-16777216
102
RTVSPost2010PropOp51
 70
     0
102
RTVSPost2010Prop52
140
1.0
102
RTVSPost2010PropOp52
 70
     0
102
RTVSPost2010Prop53
 90
        2
102
RTVSPost2010PropOp53
 70
     1
102
RTVSPost2010Prop54
  1
strokes_ogs.tif
102
RTVSPost2010PropOp54
 70
     1
102
RTVSPost2010Prop55
280
     0
102
RTVSPost2010PropOp55
 70
     1
102
RTVSPost2010Prop56
140
1.0
102
RTVSPost2010PropOp56
 70
     1
102
RTVSPost2010Prop57
140
1.0
102
RTVSPost2010PropOp57
 70
     1
  0
XRECORD
  5
F87
102
{ACAD_REACTORS
330
F86
102
}
330
F86
100
AcDbXrecord
280
     1
102
RTVSPropertyOp0
 70
     1
102
RTVSPropertyOp1
 70
     1
102
RTVSPropertyOp2
 70
     1
102
RTVSPropertyOp3
 70
     1
102
RTVSPropertyOp4
 70
     1
102
RTVSPropertyOp5
 70
     1
102
RTVSPropertyOp6
 70
     1
102
RTVSPropertyOp7
 70
     1
102
RTVSPropertyOp8
 70
     1
102
RTVSPropertyOp9
 70
     1
102
RTVSPropertyOp10
 70
     1
102
RTVSPropertyOp11
 70
     1
102
RTVSPropertyOp12
 70
     1
102
RTVSPropertyOp13
 70
     1
102
RTVSPropertyOp14
 70
     1
102
RTVSPropertyOp15
 70
     1
102
RTVSPropertyOp16
 70
     1
102
RTVSPropertyOp17
 70
     1
102
RTVSPropertyOp18
 70
     1
102
RTVSPropertyOp19
 70
     1
102
RTVSPropertyOp20
 70
     1
102
RTVSPropertyOp21
 70
     1
102
RTVSPropertyOp22
 70
     1
102
RTVSPropertyOp23
 70
     1
102
RTVSPropertyOp24
 70
     1
102
RTVSPropertyOp25
 70
     1
102
RTVSPropertyOp26
 70
     1
102
RTVSPropertyOp27
 70
     1
102
RTVSPropertyOp28
 70
     1
102
RTVSPropertyOp29
 70
     1
102
RTVSPropertyOp30
 70
     1
102
RTVSPropertyOp31
 70
     1
102
RTVSPropertyOp32
 70
     1
102
RTVSPropertyOp33
 70
     1
102
RTVSPropertyOp34
 70
     1
102
RTVSPropertyOp35
 70
     1
102
RTVSPropertyOp36
 70
     1
102
RTVSPropertyOp37
 70
     1
102
RTVSPropertyOp38
 70
     1
102
RTVSPropertyOp39
 70
     1
102
RTVSPropertyOp40
 70
     1
102
RTVSPropertyOp41
 70
     1
102
RTVSPropertyOp42
 70
     1
102
RTVSPropertyOp43
 70
     1
102
RTVSPropertyOp44
 70
     1
102
RTVSPropertyOp45
 70
     1
102
RTVSPropertyOp46
 70
     1
102
RTVSPropertyOp47
 70
     1
102
RTVSPropertyOp48
 70
     1
102
RTVSPropertyOp49
 70
     1
102
RTVSPropertyOp50
 70
     1
102
RTVSPropertyOp51
 70
     0
102
RTVSPropertyOp52
 70
     0
102
RTVSPropertyOp53
 70
     1
102
RTVSPropertyOp54
 70
     1
102
RTVSPropertyOp55
 70
     1
102
RTVSPropertyOp56
 70
     1
102
RTVSPropertyOp57
 70
     1
102
RTVSPost2010Prop28
280
     0
102
RTVSPost2010PropOp28
 70
     1
102
RTVSPost2010Prop29
280
     1
102
RTVSPost2010PropOp29
 70
     1
102
RTVSPost2010Prop30
280
     1
102
RTVSPost2010PropOp30
 70
     1
102
RTVSPost2010Prop31
280
     0
102
RTVSPost2010PropOp31
 70
     1
102
RTVSPost2010Prop32
280
     0
102
RTVSPost2010PropOp32
 70
     1
102
RTVSPost2010Prop33
280
     0
102
RTVSPost2010PropOp33
 70
     1
102
RTVSPost2010Prop34
280
     0
102
RTVSPost2010PropOp34
 70
     1
102
RTVSPost2010Prop35
280
     0
102
RTVSPost2010PropOp35
 70
     1
102
RTVSPost2010Prop36
280
     0
102
RTVSPost2010PropOp36
 70
     1
102
RTVSPost2010Prop37
 90
       50
102
RTVSPost2010PropOp37
 70
     1
102
RTVSPost2010Prop38
140
0.0
102
RTVSPost2010PropOp38
 70
     1
102
RTVSPost2010Prop39
140
1.0
102
RTVSPost2010PropOp39
 70
     1
102
RTVSPost2010Prop40
 90
        0
102
RTVSPost2010PropOp40
 70
     1
102
RTVSPost2010Prop41ColorIndex
 90
       18
102
RTVSPost2010Prop41ColorRGB
 90
        0
102
RTVSPost2010PropOp41
 70
     1
102
RTVSPost2010Prop42
 90
       50
102
RTVSPost2010PropOp42
 70
     1
102
RTVSPost2010Prop43
 90
        3
102
RTVSPost2010PropOp43
 70
     1
102
RTVSPost2010Prop44ColorIndex
 90
        5
102
RTVSPost2010Prop44ColorRGB
 90
      255
102
RTVSPost2010PropOp44
 70
     1
102
RTVSPost2010Prop45
280
     0
102
RTVSPost2010PropOp45
 70
     1
102
RTVSPost2010Prop46
 90
       50
102
RTVSPost2010PropOp46
 70
     1
102
RTVSPost2010Prop47
 90
       50
102
RTVSPost2010PropOp47
 70
     1
102
RTVSPost2010Prop48
 90
       50
102
RTVSPost2010PropOp48
 70
     1
102
RTVSPost2010Prop49
280
     0
102
RTVSPost2010PropOp49
 70
     1
102
RTVSPost2010Prop50
 90
       50
102
RTVSPost2010PropOp50
 70
     1
102
RTVSPost2010Prop51ColorIndex
 90
      256
102
RTVSPost2010Prop51ColorRGB
 90
-16777216
102
RTVSPost2010PropOp51
 70
     0
102
RTVSPost2010Prop52
140
1.0
102
RTVSPost2010PropOp52
 70
     0
102
RTVSPost2010Prop53
 90
        2
102
RTVSPost2010PropOp53
 70
     1
102
RTVSPost2010Prop54
  1
strokes_ogs.tif
102
RTVSPost2010PropOp54
 70
     1
102
RTVSPost2010Prop55
280
     0
102
RTVSPost2010PropOp55
 70
     1
102
RTVSPost2010Prop56
140
1.0
102
RTVSPost2010PropOp56
 70
     1
102
RTVSPost2010Prop57
140
1.0
102
RTVSPost2010PropOp57
 70
     1
  0
XRECORD
  5
F89
102
{ACAD_REACTORS
330
F88
102
}
330
F88
100
AcDbXrecord
280
     1
102
RTVSPropertyOp0
 70
     1
102
RTVSPropertyOp1
 70
     1
102
RTVSPropertyOp2
 70
     1
102
RTVSPropertyOp3
 70
     1
102
RTVSPropertyOp4
 70
     1
102
RTVSPropertyOp5
 70
     1
102
RTVSPropertyOp6
 70
     1
102
RTVSPropertyOp7
 70
     1
102
RTVSPropertyOp8
 70
     1
102
RTVSPropertyOp9
 70
     1
102
RTVSPropertyOp10
 70
     1
102
RTVSPropertyOp11
 70
     1
102
RTVSPropertyOp12
 70
     1
102
RTVSPropertyOp13
 70
     1
102
RTVSPropertyOp14
 70
     1
102
RTVSPropertyOp15
 70
     1
102
RTVSPropertyOp16
 70
     1
102
RTVSPropertyOp17
 70
     1
102
RTVSPropertyOp18
 70
     1
102
RTVSPropertyOp19
 70
     1
102
RTVSPropertyOp20
 70
     1
102
RTVSPropertyOp21
 70
     1
102
RTVSPropertyOp22
 70
     1
102
RTVSPropertyOp23
 70
     1
102
RTVSPropertyOp24
 70
     1
102
RTVSPropertyOp25
 70
     1
102
RTVSPropertyOp26
 70
     1
102
RTVSPropertyOp27
 70
     1
102
RTVSPropertyOp28
 70
     1
102
RTVSPropertyOp29
 70
     1
102
RTVSPropertyOp30
 70
     1
102
RTVSPropertyOp31
 70
     1
102
RTVSPropertyOp32
 70
     1
102
RTVSPropertyOp33
 70
     1
102
RTVSPropertyOp34
 70
     1
102
RTVSPropertyOp35
 70
     1
102
RTVSPropertyOp36
 70
     1
102
RTVSPropertyOp37
 70
     1
102
RTVSPropertyOp38
 70
     1
102
RTVSPropertyOp39
 70
     1
102
RTVSPropertyOp40
 70
     1
102
RTVSPropertyOp41
 70
     1
102
RTVSPropertyOp42
 70
     1
102
RTVSPropertyOp43
 70
     1
102
RTVSPropertyOp44
 70
     1
102
RTVSPropertyOp45
 70
     1
102
RTVSPropertyOp46
 70
     1
102
RTVSPropertyOp47
 70
     1
102
RTVSPropertyOp48
 70
     1
102
RTVSPropertyOp49
 70
     1
102
RTVSPropertyOp50
 70
     1
102
RTVSPropertyOp51
 70
     0
102
RTVSPropertyOp52
 70
     0
102
RTVSPropertyOp53
 70
     1
102
RTVSPropertyOp54
 70
     1
102
RTVSPropertyOp55
 70
     1
102
RTVSPropertyOp56
 70
     1
102
RTVSPropertyOp57
 70
     1
102
RTVSPost2010Prop28
280
     0
102
RTVSPost2010PropOp28
 70
     1
102
RTVSPost2010Prop29
280
     1
102
RTVSPost2010PropOp29
 70
     1
102
RTVSPost2010Prop30
280
     1
102
RTVSPost2010PropOp30
 70
     1
102
RTVSPost2010Prop31
280
     0
102
RTVSPost2010PropOp31
 70
     1
102
RTVSPost2010Prop32
280
     0
102
RTVSPost2010PropOp32
 70
     1
102
RTVSPost2010Prop33
280
     0
102
RTVSPost2010PropOp33
 70
     1
102
RTVSPost2010Prop34
280
     0
102
RTVSPost2010PropOp34
 70
     1
102
RTVSPost2010Prop35
280
     0
102
RTVSPost2010PropOp35
 70
     1
102
RTVSPost2010Prop36
280
     0
102
RTVSPost2010PropOp36
 70
     1
102
RTVSPost2010Prop37
 90
       50
102
RTVSPost2010PropOp37
 70
     1
102
RTVSPost2010Prop38
140
0.0
102
RTVSPost2010PropOp38
 70
     1
102
RTVSPost2010Prop39
140
1.0
102
RTVSPost2010PropOp39
 70
     1
102
RTVSPost2010Prop40
 90
        0
102
RTVSPost2010PropOp40
 70
     1
102
RTVSPost2010Prop41ColorIndex
 90
       18
102
RTVSPost2010Prop41ColorRGB
 90
        0
102
RTVSPost2010PropOp41
 70
     1
102
RTVSPost2010Prop42
 90
       50
102
RTVSPost2010PropOp42
 70
     1
102
RTVSPost2010Prop43
 90
        3
102
RTVSPost2010PropOp43
 70
     1
102
RTVSPost2010Prop44ColorIndex
 90
        5
102
RTVSPost2010Prop44ColorRGB
 90
      255
102
RTVSPost2010PropOp44
 70
     1
102
RTVSPost2010Prop45
280
     0
102
RTVSPost2010PropOp45
 70
     1
102
RTVSPost2010Prop46
 90
       50
102
RTVSPost2010PropOp46
 70
     1
102
RTVSPost2010Prop47
 90
       50
102
RTVSPost2010PropOp47
 70
     1
102
RTVSPost2010Prop48
 90
       50
102
RTVSPost2010PropOp48
 70
     1
102
RTVSPost2010Prop49
280
     0
102
RTVSPost2010PropOp49
 70
     1
102
RTVSPost2010Prop50
 90
       50
102
RTVSPost2010PropOp50
 70
     1
102
RTVSPost2010Prop51ColorIndex
 90
      256
102
RTVSPost2010Prop51ColorRGB
 90
-16777216
102
RTVSPost2010PropOp51
 70
     0
102
RTVSPost2010Prop52
140
1.0
102
RTVSPost2010PropOp52
 70
     0
102
RTVSPost2010Prop53
 90
        2
102
RTVSPost2010PropOp53
 70
     1
102
RTVSPost2010Prop54
  1
strokes_ogs.tif
102
RTVSPost2010PropOp54
 70
     1
102
RTVSPost2010Prop55
280
     0
102
RTVSPost2010PropOp55
 70
     1
102
RTVSPost2010Prop56
140
1.0
102
RTVSPost2010PropOp56
 70
     1
102
RTVSPost2010Prop57
140
1.0
102
RTVSPost2010PropOp57
 70
     1
  0
XRECORD
  5
F8B
102
{ACAD_REACTORS
330
F8A
102
}
330
F8A
100
AcDbXrecord
280
     1
102
RTVSPropertyOp0
 70
     1
102
RTVSPropertyOp1
 70
     1
102
RTVSPropertyOp2
 70
     1
102
RTVSPropertyOp3
 70
     1
102
RTVSPropertyOp4
 70
     1
102
RTVSPropertyOp5
 70
     1
102
RTVSPropertyOp6
 70
     1
102
RTVSPropertyOp7
 70
     1
102
RTVSPropertyOp8
 70
     1
102
RTVSPropertyOp9
 70
     1
102
RTVSPropertyOp10
 70
     1
102
RTVSPropertyOp11
 70
     1
102
RTVSPropertyOp12
 70
     1
102
RTVSPropertyOp13
 70
     1
102
RTVSPropertyOp14
 70
     1
102
RTVSPropertyOp15
 70
     1
102
RTVSPropertyOp16
 70
     1
102
RTVSPropertyOp17
 70
     1
102
RTVSPropertyOp18
 70
     1
102
RTVSPropertyOp19
 70
     1
102
RTVSPropertyOp20
 70
     1
102
RTVSPropertyOp21
 70
     1
102
RTVSPropertyOp22
 70
     1
102
RTVSPropertyOp23
 70
     1
102
RTVSPropertyOp24
 70
     1
102
RTVSPropertyOp25
 70
     1
102
RTVSPropertyOp26
 70
     1
102
RTVSPropertyOp27
 70
     1
102
RTVSPropertyOp28
 70
     1
102
RTVSPropertyOp29
 70
     1
102
RTVSPropertyOp30
 70
     1
102
RTVSPropertyOp31
 70
     1
102
RTVSPropertyOp32
 70
     1
102
RTVSPropertyOp33
 70
     1
102
RTVSPropertyOp34
 70
     1
102
RTVSPropertyOp35
 70
     1
102
RTVSPropertyOp36
 70
     1
102
RTVSPropertyOp37
 70
     1
102
RTVSPropertyOp38
 70
     1
102
RTVSPropertyOp39
 70
     1
102
RTVSPropertyOp40
 70
     1
102
RTVSPropertyOp41
 70
     1
102
RTVSPropertyOp42
 70
     1
102
RTVSPropertyOp43
 70
     1
102
RTVSPropertyOp44
 70
     1
102
RTVSPropertyOp45
 70
     1
102
RTVSPropertyOp46
 70
     1
102
RTVSPropertyOp47
 70
     1
102
RTVSPropertyOp48
 70
     1
102
RTVSPropertyOp49
 70
     1
102
RTVSPropertyOp50
 70
     1
102
RTVSPropertyOp51
 70
     0
102
RTVSPropertyOp52
 70
     0
102
RTVSPropertyOp53
 70
     1
102
RTVSPropertyOp54
 70
     1
102
RTVSPropertyOp55
 70
     1
102
RTVSPropertyOp56
 70
     1
102
RTVSPropertyOp57
 70
     1
102
RTVSPost2010Prop28
280
     0
102
RTVSPost2010PropOp28
 70
     1
102
RTVSPost2010Prop29
280
     1
102
RTVSPost2010PropOp29
 70
     1
102
RTVSPost2010Prop30
280
     1
102
RTVSPost2010PropOp30
 70
     1
102
RTVSPost2010Prop31
280
     0
102
RTVSPost2010PropOp31
 70
     1
102
RTVSPost2010Prop32
280
     0
102
RTVSPost2010PropOp32
 70
     1
102
RTVSPost2010Prop33
280
     0
102
RTVSPost2010PropOp33
 70
     1
102
RTVSPost2010Prop34
280
     0
102
RTVSPost2010PropOp34
 70
     1
102
RTVSPost2010Prop35
280
     0
102
RTVSPost2010PropOp35
 70
     1
102
RTVSPost2010Prop36
280
     0
102
RTVSPost2010PropOp36
 70
     1
102
RTVSPost2010Prop37
 90
       50
102
RTVSPost2010PropOp37
 70
     1
102
RTVSPost2010Prop38
140
0.0
102
RTVSPost2010PropOp38
 70
     1
102
RTVSPost2010Prop39
140
1.0
102
RTVSPost2010PropOp39
 70
     1
102
RTVSPost2010Prop40
 90
        0
102
RTVSPost2010PropOp40
 70
     1
102
RTVSPost2010Prop41ColorIndex
 90
       18
102
RTVSPost2010Prop41ColorRGB
 90
        0
102
RTVSPost2010PropOp41
 70
     1
102
RTVSPost2010Prop42
 90
       50
102
RTVSPost2010PropOp42
 70
     1
102
RTVSPost2010Prop43
 90
        3
102
RTVSPost2010PropOp43
 70
     1
102
RTVSPost2010Prop44ColorIndex
 90
        5
102
RTVSPost2010Prop44ColorRGB
 90
      255
102
RTVSPost2010PropOp44
 70
     1
102
RTVSPost2010Prop45
280
     0
102
RTVSPost2010PropOp45
 70
     1
102
RTVSPost2010Prop46
 90
       50
102
RTVSPost2010PropOp46
 70
     1
102
RTVSPost2010Prop47
 90
       50
102
RTVSPost2010PropOp47
 70
     1
102
RTVSPost2010Prop48
 90
       50
102
RTVSPost2010PropOp48
 70
     1
102
RTVSPost2010Prop49
280
     0
102
RTVSPost2010PropOp49
 70
     1
102
RTVSPost2010Prop50
 90
       50
102
RTVSPost2010PropOp50
 70
     1
102
RTVSPost2010Prop51ColorIndex
 90
      256
102
RTVSPost2010Prop51ColorRGB
 90
-16777216
102
RTVSPost2010PropOp51
 70
     0
102
RTVSPost2010Prop52
140
1.0
102
RTVSPost2010PropOp52
 70
     0
102
RTVSPost2010Prop53
 90
        2
102
RTVSPost2010PropOp53
 70
     1
102
RTVSPost2010Prop54
  1
strokes_ogs.tif
102
RTVSPost2010PropOp54
 70
     1
102
RTVSPost2010Prop55
280
     0
102
RTVSPost2010PropOp55
 70
     1
102
RTVSPost2010Prop56
140
1.0
102
RTVSPost2010PropOp56
 70
     1
102
RTVSPost2010Prop57
140
1.0
102
RTVSPost2010PropOp57
 70
     1
  0
XRECORD
  5
F91
102
{ACAD_REACTORS
330
F90
102
}
330
F90
100
AcDbXrecord
280
     1
102
RTVSPropertyOp0
 70
     1
102
RTVSPropertyOp1
 70
     1
102
RTVSPropertyOp2
 70
     1
102
RTVSPropertyOp3
 70
     1
102
RTVSPropertyOp4
 70
     1
102
RTVSPropertyOp5
 70
     1
102
RTVSPropertyOp6
 70
     1
102
RTVSPropertyOp7
 70
     1
102
RTVSPropertyOp8
 70
     1
102
RTVSPropertyOp9
 70
     1
102
RTVSPropertyOp10
 70
     1
102
RTVSPropertyOp11
 70
     1
102
RTVSPropertyOp12
 70
     1
102
RTVSPropertyOp13
 70
     1
102
RTVSPropertyOp14
 70
     1
102
RTVSPropertyOp15
 70
     1
102
RTVSPropertyOp16
 70
     1
102
RTVSPropertyOp17
 70
     1
102
RTVSPropertyOp18
 70
     1
102
RTVSPropertyOp19
 70
     1
102
RTVSPropertyOp20
 70
     1
102
RTVSPropertyOp21
 70
     1
102
RTVSPropertyOp22
 70
     1
102
RTVSPropertyOp23
 70
     1
102
RTVSPropertyOp24
 70
     1
102
RTVSPropertyOp25
 70
     1
102
RTVSPropertyOp26
 70
     1
102
RTVSPropertyOp27
 70
     1
102
RTVSPropertyOp28
 70
     1
102
RTVSPropertyOp29
 70
     1
102
RTVSPropertyOp30
 70
     1
102
RTVSPropertyOp31
 70
     1
102
RTVSPropertyOp32
 70
     1
102
RTVSPropertyOp33
 70
     1
102
RTVSPropertyOp34
 70
     1
102
RTVSPropertyOp35
 70
     1
102
RTVSPropertyOp36
 70
     1
102
RTVSPropertyOp37
 70
     1
102
RTVSPropertyOp38
 70
     1
102
RTVSPropertyOp39
 70
     1
102
RTVSPropertyOp40
 70
     1
102
RTVSPropertyOp41
 70
     1
102
RTVSPropertyOp42
 70
     1
102
RTVSPropertyOp43
 70
     1
102
RTVSPropertyOp44
 70
     1
102
RTVSPropertyOp45
 70
     1
102
RTVSPropertyOp46
 70
     1
102
RTVSPropertyOp47
 70
     1
102
RTVSPropertyOp48
 70
     1
102
RTVSPropertyOp49
 70
     1
102
RTVSPropertyOp50
 70
     1
102
RTVSPropertyOp51
 70
     0
102
RTVSPropertyOp52
 70
     0
102
RTVSPropertyOp53
 70
     1
102
RTVSPropertyOp54
 70
     1
102
RTVSPropertyOp55
 70
     1
102
RTVSPropertyOp56
 70
     1
102
RTVSPropertyOp57
 70
     1
102
RTVSPost2010Prop28
280
     0
102
RTVSPost2010PropOp28
 70
     1
102
RTVSPost2010Prop29
280
     1
102
RTVSPost2010PropOp29
 70
     1
102
RTVSPost2010Prop30
280
     1
102
RTVSPost2010PropOp30
 70
     1
102
RTVSPost2010Prop31
280
     0
102
RTVSPost2010PropOp31
 70
     1
102
RTVSPost2010Prop32
280
     0
102
RTVSPost2010PropOp32
 70
     1
102
RTVSPost2010Prop33
280
     0
102
RTVSPost2010PropOp33
 70
     1
102
RTVSPost2010Prop34
280
     0
102
RTVSPost2010PropOp34
 70
     1
102
RTVSPost2010Prop35
280
     0
102
RTVSPost2010PropOp35
 70
     1
102
RTVSPost2010Prop36
280
     0
102
RTVSPost2010PropOp36
 70
     1
102
RTVSPost2010Prop37
 90
       50
102
RTVSPost2010PropOp37
 70
     1
102
RTVSPost2010Prop38
140
0.0
102
RTVSPost2010PropOp38
 70
     1
102
RTVSPost2010Prop39
140
1.0
102
RTVSPost2010PropOp39
 70
     1
102
RTVSPost2010Prop40
 90
        0
102
RTVSPost2010PropOp40
 70
     1
102
RTVSPost2010Prop41ColorIndex
 90
       18
102
RTVSPost2010Prop41ColorRGB
 90
        0
102
RTVSPost2010PropOp41
 70
     1
102
RTVSPost2010Prop42
 90
       50
102
RTVSPost2010PropOp42
 70
     1
102
RTVSPost2010Prop43
 90
        3
102
RTVSPost2010PropOp43
 70
     1
102
RTVSPost2010Prop44ColorIndex
 90
        5
102
RTVSPost2010Prop44ColorRGB
 90
      255
102
RTVSPost2010PropOp44
 70
     1
102
RTVSPost2010Prop45
280
     0
102
RTVSPost2010PropOp45
 70
     1
102
RTVSPost2010Prop46
 90
       50
102
RTVSPost2010PropOp46
 70
     1
102
RTVSPost2010Prop47
 90
       50
102
RTVSPost2010PropOp47
 70
     1
102
RTVSPost2010Prop48
 90
       50
102
RTVSPost2010PropOp48
 70
     1
102
RTVSPost2010Prop49
280
     0
102
RTVSPost2010PropOp49
 70
     1
102
RTVSPost2010Prop50
 90
       50
102
RTVSPost2010PropOp50
 70
     1
102
RTVSPost2010Prop51ColorIndex
 90
      256
102
RTVSPost2010Prop51ColorRGB
 90
-16777216
102
RTVSPost2010PropOp51
 70
     0
102
RTVSPost2010Prop52
140
1.0
102
RTVSPost2010PropOp52
 70
     0
102
RTVSPost2010Prop53
 90
        2
102
RTVSPost2010PropOp53
 70
     1
102
RTVSPost2010Prop54
  1
strokes_ogs.tif
102
RTVSPost2010PropOp54
 70
     1
102
RTVSPost2010Prop55
280
     0
102
RTVSPost2010PropOp55
 70
     1
102
RTVSPost2010Prop56
140
1.0
102
RTVSPost2010PropOp56
 70
     1
102
RTVSPost2010Prop57
140
1.0
102
RTVSPost2010PropOp57
 70
     1
  0
XRECORD
  5
FA5
102
{ACAD_REACTORS
330
FA4
102
}
330
FA4
100
AcDbXrecord
280
     1
102
RTVSPropertyOp0
 70
     0
102
RTVSPropertyOp1
 70
     0
102
RTVSPropertyOp2
 70
     0
102
RTVSPropertyOp3
 70
     0
102
RTVSPropertyOp4
 70
     0
102
RTVSPropertyOp5
 70
     0
102
RTVSPropertyOp6
 70
     0
102
RTVSPropertyOp7
 70
     0
102
RTVSPropertyOp8
 70
     0
102
RTVSPropertyOp9
 70
     0
102
RTVSPropertyOp10
 70
     0
102
RTVSPropertyOp11
 70
     0
102
RTVSPropertyOp12
 70
     0
102
RTVSPropertyOp13
 70
     0
102
RTVSPropertyOp14
 70
     2
102
RTVSPropertyOp15
 70
     0
102
RTVSPropertyOp16
 70
     0
102
RTVSPropertyOp17
 70
     0
102
RTVSPropertyOp18
 70
     0
102
RTVSPropertyOp19
 70
     0
102
RTVSPropertyOp20
 70
     0
102
RTVSPropertyOp21
 70
     0
102
RTVSPropertyOp22
 70
     0
102
RTVSPropertyOp23
 70
     0
102
RTVSPropertyOp24
 70
     0
102
RTVSPropertyOp25
 70
     0
102
RTVSPropertyOp26
 70
     0
102
RTVSPropertyOp27
 70
     0
102
RTVSPropertyOp28
 70
     0
102
RTVSPropertyOp29
 70
     0
102
RTVSPropertyOp30
 70
     0
102
RTVSPropertyOp31
 70
     0
102
RTVSPropertyOp32
 70
     0
102
RTVSPropertyOp33
 70
     0
102
RTVSPropertyOp34
 70
     0
102
RTVSPropertyOp35
 70
     0
102
RTVSPropertyOp36
 70
     0
102
RTVSPropertyOp37
 70
     0
102
RTVSPropertyOp38
 70
     0
102
RTVSPropertyOp39
 70
     0
102
RTVSPropertyOp40
 70
     0
102
RTVSPropertyOp41
 70
     0
102
RTVSPropertyOp42
 70
     0
102
RTVSPropertyOp43
 70
     0
102
RTVSPropertyOp44
 70
     0
102
RTVSPropertyOp45
 70
     0
102
RTVSPropertyOp46
 70
     0
102
RTVSPropertyOp47
 70
     0
102
RTVSPropertyOp48
 70
     0
102
RTVSPropertyOp49
 70
     0
102
RTVSPropertyOp50
 70
     0
102
RTVSPropertyOp51
 70
     0
102
RTVSPropertyOp52
 70
     0
102
RTVSPropertyOp53
 70
     0
102
RTVSPropertyOp54
 70
     0
102
RTVSPropertyOp55
 70
     0
102
RTVSPropertyOp56
 70
     0
102
RTVSPropertyOp57
 70
     0
102
RTVSPost2010Prop28
280
     0
102
RTVSPost2010PropOp28
 70
     0
102
RTVSPost2010Prop29
280
     1
102
RTVSPost2010PropOp29
 70
     0
102
RTVSPost2010Prop30
280
     1
102
RTVSPost2010PropOp30
 70
     0
102
RTVSPost2010Prop31
280
     0
102
RTVSPost2010PropOp31
 70
     0
102
RTVSPost2010Prop32
280
     0
102
RTVSPost2010PropOp32
 70
     0
102
RTVSPost2010Prop33
280
     0
102
RTVSPost2010PropOp33
 70
     0
102
RTVSPost2010Prop34
280
     0
102
RTVSPost2010PropOp34
 70
     0
102
RTVSPost2010Prop35
280
     0
102
RTVSPost2010PropOp35
 70
     0
102
RTVSPost2010Prop36
280
     0
102
RTVSPost2010PropOp36
 70
     0
102
RTVSPost2010Prop37
 90
       50
102
RTVSPost2010PropOp37
 70
     0
102
RTVSPost2010Prop38
140
0.0
102
RTVSPost2010PropOp38
 70
     0
102
RTVSPost2010Prop39
140
1.0
102
RTVSPost2010PropOp39
 70
     0
102
RTVSPost2010Prop40
 90
        0
102
RTVSPost2010PropOp40
 70
     0
102
RTVSPost2010Prop41ColorIndex
 90
       18
102
RTVSPost2010Prop41ColorRGB
 90
        0
102
RTVSPost2010PropOp41
 70
     0
102
RTVSPost2010Prop42
 90
       50
102
RTVSPost2010PropOp42
 70
     0
102
RTVSPost2010Prop43
 90
        3
102
RTVSPost2010PropOp43
 70
     0
102
RTVSPost2010Prop44ColorIndex
 90
        5
102
RTVSPost2010Prop44ColorRGB
 90
      255
102
RTVSPost2010PropOp44
 70
     0
102
RTVSPost2010Prop45
280
     0
102
RTVSPost2010PropOp45
 70
     0
102
RTVSPost2010Prop46
 90
       50
102
RTVSPost2010PropOp46
 70
     0
102
RTVSPost2010Prop47
 90
       50
102
RTVSPost2010PropOp47
 70
     0
102
RTVSPost2010Prop48
 90
       50
102
RTVSPost2010PropOp48
 70
     0
102
RTVSPost2010Prop49
280
     0
102
RTVSPost2010PropOp49
 70
     0
102
RTVSPost2010Prop50
 90
       50
102
RTVSPost2010PropOp50
 70
     0
102
RTVSPost2010Prop51ColorIndex
 90
      256
102
RTVSPost2010Prop51ColorRGB
 90
-16777216
102
RTVSPost2010PropOp51
 70
     0
102
RTVSPost2010Prop52
140
1.0
102
RTVSPost2010PropOp52
 70
     0
102
RTVSPost2010Prop53
 90
        2
102
RTVSPost2010PropOp53
 70
     0
102
RTVSPost2010Prop54
  1
strokes_ogs.tif
102
RTVSPost2010PropOp54
 70
     0
102
RTVSPost2010Prop55
280
     0
102
RTVSPost2010PropOp55
 70
     0
102
RTVSPost2010Prop56
140
1.0
102
RTVSPost2010PropOp56
 70
     0
102
RTVSPost2010Prop57
140
1.0
102
RTVSPost2010PropOp57
 70
     0
  0
XRECORD
  5
F9F
102
{ACAD_REACTORS
330
F9E
102
}
330
F9E
100
AcDbXrecord
280
     1
102
RTVSPropertyOp0
 70
     1
102
RTVSPropertyOp1
 70
     1
102
RTVSPropertyOp2
 70
     1
102
RTVSPropertyOp3
 70
     1
102
RTVSPropertyOp4
 70
     1
102
RTVSPropertyOp5
 70
     1
102
RTVSPropertyOp6
 70
     1
102
RTVSPropertyOp7
 70
     1
102
RTVSPropertyOp8
 70
     1
102
RTVSPropertyOp9
 70
     1
102
RTVSPropertyOp10
 70
     1
102
RTVSPropertyOp11
 70
     1
102
RTVSPropertyOp12
 70
     1
102
RTVSPropertyOp13
 70
     1
102
RTVSPropertyOp14
 70
     1
102
RTVSPropertyOp15
 70
     1
102
RTVSPropertyOp16
 70
     1
102
RTVSPropertyOp17
 70
     1
102
RTVSPropertyOp18
 70
     1
102
RTVSPropertyOp19
 70
     1
102
RTVSPropertyOp20
 70
     1
102
RTVSPropertyOp21
 70
     1
102
RTVSPropertyOp22
 70
     1
102
RTVSPropertyOp23
 70
     1
102
RTVSPropertyOp24
 70
     1
102
RTVSPropertyOp25
 70
     1
102
RTVSPropertyOp26
 70
     1
102
RTVSPropertyOp27
 70
     1
102
RTVSPropertyOp28
 70
     1
102
RTVSPropertyOp29
 70
     1
102
RTVSPropertyOp30
 70
     1
102
RTVSPropertyOp31
 70
     1
102
RTVSPropertyOp32
 70
     1
102
RTVSPropertyOp33
 70
     1
102
RTVSPropertyOp34
 70
     1
102
RTVSPropertyOp35
 70
     1
102
RTVSPropertyOp36
 70
     1
102
RTVSPropertyOp37
 70
     1
102
RTVSPropertyOp38
 70
     1
102
RTVSPropertyOp39
 70
     1
102
RTVSPropertyOp40
 70
     1
102
RTVSPropertyOp41
 70
     1
102
RTVSPropertyOp42
 70
     1
102
RTVSPropertyOp43
 70
     1
102
RTVSPropertyOp44
 70
     1
102
RTVSPropertyOp45
 70
     1
102
RTVSPropertyOp46
 70
     1
102
RTVSPropertyOp47
 70
     1
102
RTVSPropertyOp48
 70
     1
102
RTVSPropertyOp49
 70
     1
102
RTVSPropertyOp50
 70
     1
102
RTVSPropertyOp51
 70
     0
102
RTVSPropertyOp52
 70
     0
102
RTVSPropertyOp53
 70
     1
102
RTVSPropertyOp54
 70
     1
102
RTVSPropertyOp55
 70
     1
102
RTVSPropertyOp56
 70
     1
102
RTVSPropertyOp57
 70
     1
102
RTVSPost2010Prop28
280
     0
102
RTVSPost2010PropOp28
 70
     1
102
RTVSPost2010Prop29
280
     1
102
RTVSPost2010PropOp29
 70
     1
102
RTVSPost2010Prop30
280
     1
102
RTVSPost2010PropOp30
 70
     1
102
RTVSPost2010Prop31
280
     0
102
RTVSPost2010PropOp31
 70
     1
102
RTVSPost2010Prop32
280
     0
102
RTVSPost2010PropOp32
 70
     1
102
RTVSPost2010Prop33
280
     0
102
RTVSPost2010PropOp33
 70
     1
102
RTVSPost2010Prop34
280
     0
102
RTVSPost2010PropOp34
 70
     1
102
RTVSPost2010Prop35
280
     0
102
RTVSPost2010PropOp35
 70
     1
102
RTVSPost2010Prop36
280
     0
102
RTVSPost2010PropOp36
 70
     1
102
RTVSPost2010Prop37
 90
       50
102
RTVSPost2010PropOp37
 70
     1
102
RTVSPost2010Prop38
140
0.0
102
RTVSPost2010PropOp38
 70
     1
102
RTVSPost2010Prop39
140
1.0
102
RTVSPost2010PropOp39
 70
     1
102
RTVSPost2010Prop40
 90
        0
102
RTVSPost2010PropOp40
 70
     1
102
RTVSPost2010Prop41ColorIndex
 90
       18
102
RTVSPost2010Prop41ColorRGB
 90
        0
102
RTVSPost2010PropOp41
 70
     1
102
RTVSPost2010Prop42
 90
       50
102
RTVSPost2010PropOp42
 70
     1
102
RTVSPost2010Prop43
 90
        3
102
RTVSPost2010PropOp43
 70
     1
102
RTVSPost2010Prop44ColorIndex
 90
        5
102
RTVSPost2010Prop44ColorRGB
 90
      255
102
RTVSPost2010PropOp44
 70
     1
102
RTVSPost2010Prop45
280
     0
102
RTVSPost2010PropOp45
 70
     1
102
RTVSPost2010Prop46
 90
       50
102
RTVSPost2010PropOp46
 70
     1
102
RTVSPost2010Prop47
 90
       50
102
RTVSPost2010PropOp47
 70
     1
102
RTVSPost2010Prop48
 90
       50
102
RTVSPost2010PropOp48
 70
     1
102
RTVSPost2010Prop49
280
     0
102
RTVSPost2010PropOp49
 70
     1
102
RTVSPost2010Prop50
 90
       50
102
RTVSPost2010PropOp50
 70
     1
102
RTVSPost2010Prop51ColorIndex
 90
      256
102
RTVSPost2010Prop51ColorRGB
 90
-16777216
102
RTVSPost2010PropOp51
 70
     0
102
RTVSPost2010Prop52
140
1.0
102
RTVSPost2010PropOp52
 70
     0
102
RTVSPost2010Prop53
 90
        2
102
RTVSPost2010PropOp53
 70
     1
102
RTVSPost2010Prop54
  1
strokes_ogs.tif
102
RTVSPost2010PropOp54
 70
     1
102
RTVSPost2010Prop55
280
     0
102
RTVSPost2010PropOp55
 70
     1
102
RTVSPost2010Prop56
140
1.0
102
RTVSPost2010PropOp56
 70
     1
102
RTVSPost2010Prop57
140
1.0
102
RTVSPost2010PropOp57
 70
     1
  0
XRECORD
  5
FA7
102
{ACAD_REACTORS
330
FA6
102
}
330
FA6
100
AcDbXrecord
280
     1
102
RTVSPropertyOp0
 70
     0
102
RTVSPropertyOp1
 70
     0
102
RTVSPropertyOp2
 70
     0
102
RTVSPropertyOp3
 70
     0
102
RTVSPropertyOp4
 70
     0
102
RTVSPropertyOp5
 70
     0
102
RTVSPropertyOp6
 70
     0
102
RTVSPropertyOp7
 70
     0
102
RTVSPropertyOp8
 70
     0
102
RTVSPropertyOp9
 70
     0
102
RTVSPropertyOp10
 70
     0
102
RTVSPropertyOp11
 70
     0
102
RTVSPropertyOp12
 70
     0
102
RTVSPropertyOp13
 70
     0
102
RTVSPropertyOp14
 70
     2
102
RTVSPropertyOp15
 70
     0
102
RTVSPropertyOp16
 70
     0
102
RTVSPropertyOp17
 70
     0
102
RTVSPropertyOp18
 70
     0
102
RTVSPropertyOp19
 70
     0
102
RTVSPropertyOp20
 70
     0
102
RTVSPropertyOp21
 70
     0
102
RTVSPropertyOp22
 70
     0
102
RTVSPropertyOp23
 70
     0
102
RTVSPropertyOp24
 70
     0
102
RTVSPropertyOp25
 70
     0
102
RTVSPropertyOp26
 70
     0
102
RTVSPropertyOp27
 70
     0
102
RTVSPropertyOp28
 70
     0
102
RTVSPropertyOp29
 70
     0
102
RTVSPropertyOp30
 70
     0
102
RTVSPropertyOp31
 70
     0
102
RTVSPropertyOp32
 70
     0
102
RTVSPropertyOp33
 70
     0
102
RTVSPropertyOp34
 70
     0
102
RTVSPropertyOp35
 70
     0
102
RTVSPropertyOp36
 70
     0
102
RTVSPropertyOp37
 70
     0
102
RTVSPropertyOp38
 70
     0
102
RTVSPropertyOp39
 70
     0
102
RTVSPropertyOp40
 70
     0
102
RTVSPropertyOp41
 70
     0
102
RTVSPropertyOp42
 70
     0
102
RTVSPropertyOp43
 70
     0
102
RTVSPropertyOp44
 70
     0
102
RTVSPropertyOp45
 70
     0
102
RTVSPropertyOp46
 70
     0
102
RTVSPropertyOp47
 70
     0
102
RTVSPropertyOp48
 70
     0
102
RTVSPropertyOp49
 70
     0
102
RTVSPropertyOp50
 70
     0
102
RTVSPropertyOp51
 70
     0
102
RTVSPropertyOp52
 70
     0
102
RTVSPropertyOp53
 70
     0
102
RTVSPropertyOp54
 70
     0
102
RTVSPropertyOp55
 70
     0
102
RTVSPropertyOp56
 70
     0
102
RTVSPropertyOp57
 70
     0
102
RTVSPost2010Prop28
280
     0
102
RTVSPost2010PropOp28
 70
     0
102
RTVSPost2010Prop29
280
     1
102
RTVSPost2010PropOp29
 70
     0
102
RTVSPost2010Prop30
280
     1
102
RTVSPost2010PropOp30
 70
     0
102
RTVSPost2010Prop31
280
     0
102
RTVSPost2010PropOp31
 70
     0
102
RTVSPost2010Prop32
280
     0
102
RTVSPost2010PropOp32
 70
     0
102
RTVSPost2010Prop33
280
     0
102
RTVSPost2010PropOp33
 70
     0
102
RTVSPost2010Prop34
280
     0
102
RTVSPost2010PropOp34
 70
     0
102
RTVSPost2010Prop35
280
     0
102
RTVSPost2010PropOp35
 70
     0
102
RTVSPost2010Prop36
280
     0
102
RTVSPost2010PropOp36
 70
     0
102
RTVSPost2010Prop37
 90
       50
102
RTVSPost2010PropOp37
 70
     0
102
RTVSPost2010Prop38
140
0.0
102
RTVSPost2010PropOp38
 70
     0
102
RTVSPost2010Prop39
140
1.0
102
RTVSPost2010PropOp39
 70
     0
102
RTVSPost2010Prop40
 90
        0
102
RTVSPost2010PropOp40
 70
     0
102
RTVSPost2010Prop41ColorIndex
 90
       18
102
RTVSPost2010Prop41ColorRGB
 90
        0
102
RTVSPost2010PropOp41
 70
     0
102
RTVSPost2010Prop42
 90
       50
102
RTVSPost2010PropOp42
 70
     0
102
RTVSPost2010Prop43
 90
        3
102
RTVSPost2010PropOp43
 70
     0
102
RTVSPost2010Prop44ColorIndex
 90
        5
102
RTVSPost2010Prop44ColorRGB
 90
      255
102
RTVSPost2010PropOp44
 70
     0
102
RTVSPost2010Prop45
280
     0
102
RTVSPost2010PropOp45
 70
     0
102
RTVSPost2010Prop46
 90
       50
102
RTVSPost2010PropOp46
 70
     0
102
RTVSPost2010Prop47
 90
       50
102
RTVSPost2010PropOp47
 70
     0
102
RTVSPost2010Prop48
 90
       50
102
RTVSPost2010PropOp48
 70
     0
102
RTVSPost2010Prop49
280
     0
102
RTVSPost2010PropOp49
 70
     0
102
RTVSPost2010Prop50
 90
       50
102
RTVSPost2010PropOp50
 70
     0
102
RTVSPost2010Prop51ColorIndex
 90
      256
102
RTVSPost2010Prop51ColorRGB
 90
-16777216
102
RTVSPost2010PropOp51
 70
     0
102
RTVSPost2010Prop52
140
1.0
102
RTVSPost2010PropOp52
 70
     0
102
RTVSPost2010Prop53
 90
        2
102
RTVSPost2010PropOp53
 70
     0
102
RTVSPost2010Prop54
  1
strokes_ogs.tif
102
RTVSPost2010PropOp54
 70
     0
102
RTVSPost2010Prop55
280
     0
102
RTVSPost2010PropOp55
 70
     0
102
RTVSPost2010Prop56
140
1.0
102
RTVSPost2010PropOp56
 70
     0
102
RTVSPost2010Prop57
140
1.0
102
RTVSPost2010PropOp57
 70
     0
  0
XRECORD
  5
F95
102
{ACAD_REACTORS
330
F94
102
}
330
F94
100
AcDbXrecord
280
     1
102
RTVSPropertyOp0
 70
     1
102
RTVSPropertyOp1
 70
     1
102
RTVSPropertyOp2
 70
     1
102
RTVSPropertyOp3
 70
     1
102
RTVSPropertyOp4
 70
     1
102
RTVSPropertyOp5
 70
     1
102
RTVSPropertyOp6
 70
     1
102
RTVSPropertyOp7
 70
     1
102
RTVSPropertyOp8
 70
     1
102
RTVSPropertyOp9
 70
     1
102
RTVSPropertyOp10
 70
     1
102
RTVSPropertyOp11
 70
     1
102
RTVSPropertyOp12
 70
     1
102
RTVSPropertyOp13
 70
     1
102
RTVSPropertyOp14
 70
     1
102
RTVSPropertyOp15
 70
     1
102
RTVSPropertyOp16
 70
     1
102
RTVSPropertyOp17
 70
     1
102
RTVSPropertyOp18
 70
     1
102
RTVSPropertyOp19
 70
     1
102
RTVSPropertyOp20
 70
     1
102
RTVSPropertyOp21
 70
     1
102
RTVSPropertyOp22
 70
     1
102
RTVSPropertyOp23
 70
     1
102
RTVSPropertyOp24
 70
     1
102
RTVSPropertyOp25
 70
     1
102
RTVSPropertyOp26
 70
     1
102
RTVSPropertyOp27
 70
     1
102
RTVSPropertyOp28
 70
     1
102
RTVSPropertyOp29
 70
     1
102
RTVSPropertyOp30
 70
     1
102
RTVSPropertyOp31
 70
     1
102
RTVSPropertyOp32
 70
     1
102
RTVSPropertyOp33
 70
     1
102
RTVSPropertyOp34
 70
     1
102
RTVSPropertyOp35
 70
     1
102
RTVSPropertyOp36
 70
     1
102
RTVSPropertyOp37
 70
     1
102
RTVSPropertyOp38
 70
     1
102
RTVSPropertyOp39
 70
     1
102
RTVSPropertyOp40
 70
     1
102
RTVSPropertyOp41
 70
     1
102
RTVSPropertyOp42
 70
     1
102
RTVSPropertyOp43
 70
     1
102
RTVSPropertyOp44
 70
     1
102
RTVSPropertyOp45
 70
     1
102
RTVSPropertyOp46
 70
     1
102
RTVSPropertyOp47
 70
     1
102
RTVSPropertyOp48
 70
     1
102
RTVSPropertyOp49
 70
     1
102
RTVSPropertyOp50
 70
     1
102
RTVSPropertyOp51
 70
     0
102
RTVSPropertyOp52
 70
     0
102
RTVSPropertyOp53
 70
     1
102
RTVSPropertyOp54
 70
     1
102
RTVSPropertyOp55
 70
     1
102
RTVSPropertyOp56
 70
     1
102
RTVSPropertyOp57
 70
     1
102
RTVSPost2010Prop28
280
     0
102
RTVSPost2010PropOp28
 70
     1
102
RTVSPost2010Prop29
280
     1
102
RTVSPost2010PropOp29
 70
     1
102
RTVSPost2010Prop30
280
     1
102
RTVSPost2010PropOp30
 70
     1
102
RTVSPost2010Prop31
280
     0
102
RTVSPost2010PropOp31
 70
     1
102
RTVSPost2010Prop32
280
     0
102
RTVSPost2010PropOp32
 70
     1
102
RTVSPost2010Prop33
280
     0
102
RTVSPost2010PropOp33
 70
     1
102
RTVSPost2010Prop34
280
     0
102
RTVSPost2010PropOp34
 70
     1
102
RTVSPost2010Prop35
280
     0
102
RTVSPost2010PropOp35
 70
     1
102
RTVSPost2010Prop36
280
     0
102
RTVSPost2010PropOp36
 70
     1
102
RTVSPost2010Prop37
 90
       50
102
RTVSPost2010PropOp37
 70
     1
102
RTVSPost2010Prop38
140
0.0
102
RTVSPost2010PropOp38
 70
     1
102
RTVSPost2010Prop39
140
1.0
102
RTVSPost2010PropOp39
 70
     1
102
RTVSPost2010Prop40
 90
        0
102
RTVSPost2010PropOp40
 70
     1
102
RTVSPost2010Prop41ColorIndex
 90
       18
102
RTVSPost2010Prop41ColorRGB
 90
        0
102
RTVSPost2010PropOp41
 70
     1
102
RTVSPost2010Prop42
 90
       50
102
RTVSPost2010PropOp42
 70
     1
102
RTVSPost2010Prop43
 90
        3
102
RTVSPost2010PropOp43
 70
     1
102
RTVSPost2010Prop44ColorIndex
 90
        5
102
RTVSPost2010Prop44ColorRGB
 90
      255
102
RTVSPost2010PropOp44
 70
     1
102
RTVSPost2010Prop45
280
     0
102
RTVSPost2010PropOp45
 70
     1
102
RTVSPost2010Prop46
 90
       50
102
RTVSPost2010PropOp46
 70
     1
102
RTVSPost2010Prop47
 90
       50
102
RTVSPost2010PropOp47
 70
     1
102
RTVSPost2010Prop48
 90
       50
102
RTVSPost2010PropOp48
 70
     1
102
RTVSPost2010Prop49
280
     0
102
RTVSPost2010PropOp49
 70
     1
102
RTVSPost2010Prop50
 90
       50
102
RTVSPost2010PropOp50
 70
     1
102
RTVSPost2010Prop51ColorIndex
 90
      256
102
RTVSPost2010Prop51ColorRGB
 90
-16777216
102
RTVSPost2010PropOp51
 70
     0
102
RTVSPost2010Prop52
140
1.0
102
RTVSPost2010PropOp52
 70
     0
102
RTVSPost2010Prop53
 90
        2
102
RTVSPost2010PropOp53
 70
     1
102
RTVSPost2010Prop54
  1
strokes_ogs.tif
102
RTVSPost2010PropOp54
 70
     1
102
RTVSPost2010Prop55
280
     0
102
RTVSPost2010PropOp55
 70
     1
102
RTVSPost2010Prop56
140
1.0
102
RTVSPost2010PropOp56
 70
     1
102
RTVSPost2010Prop57
140
1.0
102
RTVSPost2010PropOp57
 70
     1
  0
XRECORD
  5
FB3
102
{ACAD_REACTORS
330
FB2
102
}
330
FB2
100
AcDbXrecord
280
     1
102
RTVSPropertyOp0
 70
     1
102
RTVSPropertyOp1
 70
     1
102
RTVSPropertyOp2
 70
     1
102
RTVSPropertyOp3
 70
     1
102
RTVSPropertyOp4
 70
     1
102
RTVSPropertyOp5
 70
     1
102
RTVSPropertyOp6
 70
     1
102
RTVSPropertyOp7
 70
     1
102
RTVSPropertyOp8
 70
     1
102
RTVSPropertyOp9
 70
     1
102
RTVSPropertyOp10
 70
     1
102
RTVSPropertyOp11
 70
     1
102
RTVSPropertyOp12
 70
     1
102
RTVSPropertyOp13
 70
     1
102
RTVSPropertyOp14
 70
     1
102
RTVSPropertyOp15
 70
     1
102
RTVSPropertyOp16
 70
     1
102
RTVSPropertyOp17
 70
     1
102
RTVSPropertyOp18
 70
     1
102
RTVSPropertyOp19
 70
     1
102
RTVSPropertyOp20
 70
     1
102
RTVSPropertyOp21
 70
     1
102
RTVSPropertyOp22
 70
     1
102
RTVSPropertyOp23
 70
     1
102
RTVSPropertyOp24
 70
     1
102
RTVSPropertyOp25
 70
     1
102
RTVSPropertyOp26
 70
     1
102
RTVSPropertyOp27
 70
     1
102
RTVSPropertyOp28
 70
     1
102
RTVSPropertyOp29
 70
     1
102
RTVSPropertyOp30
 70
     1
102
RTVSPropertyOp31
 70
     1
102
RTVSPropertyOp32
 70
     1
102
RTVSPropertyOp33
 70
     1
102
RTVSPropertyOp34
 70
     1
102
RTVSPropertyOp35
 70
     1
102
RTVSPropertyOp36
 70
     1
102
RTVSPropertyOp37
 70
     1
102
RTVSPropertyOp38
 70
     1
102
RTVSPropertyOp39
 70
     1
102
RTVSPropertyOp40
 70
     1
102
RTVSPropertyOp41
 70
     1
102
RTVSPropertyOp42
 70
     1
102
RTVSPropertyOp43
 70
     1
102
RTVSPropertyOp44
 70
     1
102
RTVSPropertyOp45
 70
     1
102
RTVSPropertyOp46
 70
     1
102
RTVSPropertyOp47
 70
     1
102
RTVSPropertyOp48
 70
     1
102
RTVSPropertyOp49
 70
     1
102
RTVSPropertyOp50
 70
     1
102
RTVSPropertyOp51
 70
     0
102
RTVSPropertyOp52
 70
     0
102
RTVSPropertyOp53
 70
     1
102
RTVSPropertyOp54
 70
     1
102
RTVSPropertyOp55
 70
     1
102
RTVSPropertyOp56
 70
     1
102
RTVSPropertyOp57
 70
     1
102
RTVSPost2010Prop28
280
     0
102
RTVSPost2010PropOp28
 70
     1
102
RTVSPost2010Prop29
280
     1
102
RTVSPost2010PropOp29
 70
     1
102
RTVSPost2010Prop30
280
     1
102
RTVSPost2010PropOp30
 70
     1
102
RTVSPost2010Prop31
280
     0
102
RTVSPost2010PropOp31
 70
     1
102
RTVSPost2010Prop32
280
     0
102
RTVSPost2010PropOp32
 70
     1
102
RTVSPost2010Prop33
280
     0
102
RTVSPost2010PropOp33
 70
     1
102
RTVSPost2010Prop34
280
     0
102
RTVSPost2010PropOp34
 70
     1
102
RTVSPost2010Prop35
280
     0
102
RTVSPost2010PropOp35
 70
     1
102
RTVSPost2010Prop36
280
     0
102
RTVSPost2010PropOp36
 70
     1
102
RTVSPost2010Prop37
 90
       50
102
RTVSPost2010PropOp37
 70
     1
102
RTVSPost2010Prop38
140
0.0
102
RTVSPost2010PropOp38
 70
     1
102
RTVSPost2010Prop39
140
1.0
102
RTVSPost2010PropOp39
 70
     1
102
RTVSPost2010Prop40
 90
        0
102
RTVSPost2010PropOp40
 70
     1
102
RTVSPost2010Prop41ColorIndex
 90
       18
102
RTVSPost2010Prop41ColorRGB
 90
        0
102
RTVSPost2010PropOp41
 70
     1
102
RTVSPost2010Prop42
 90
       50
102
RTVSPost2010PropOp42
 70
     1
102
RTVSPost2010Prop43
 90
        3
102
RTVSPost2010PropOp43
 70
     1
102
RTVSPost2010Prop44ColorIndex
 90
        5
102
RTVSPost2010Prop44ColorRGB
 90
      255
102
RTVSPost2010PropOp44
 70
     1
102
RTVSPost2010Prop45
280
     0
102
RTVSPost2010PropOp45
 70
     1
102
RTVSPost2010Prop46
 90
       50
102
RTVSPost2010PropOp46
 70
     1
102
RTVSPost2010Prop47
 90
       50
102
RTVSPost2010PropOp47
 70
     1
102
RTVSPost2010Prop48
 90
       50
102
RTVSPost2010PropOp48
 70
     1
102
RTVSPost2010Prop49
280
     0
102
RTVSPost2010PropOp49
 70
     1
102
RTVSPost2010Prop50
 90
       50
102
RTVSPost2010PropOp50
 70
     1
102
RTVSPost2010Prop51ColorIndex
 90
      256
102
RTVSPost2010Prop51ColorRGB
 90
-16777216
102
RTVSPost2010PropOp51
 70
     0
102
RTVSPost2010Prop52
140
1.0
102
RTVSPost2010PropOp52
 70
     0
102
RTVSPost2010Prop53
 90
        2
102
RTVSPost2010PropOp53
 70
     1
102
RTVSPost2010Prop54
  1
strokes_ogs.tif
102
RTVSPost2010PropOp54
 70
     1
102
RTVSPost2010Prop55
280
     0
102
RTVSPost2010PropOp55
 70
     1
102
RTVSPost2010Prop56
140
1.0
102
RTVSPost2010PropOp56
 70
     1
102
RTVSPost2010Prop57
140
1.0
102
RTVSPost2010PropOp57
 70
     1
  0
XRECORD
  5
FB1
102
{ACAD_REACTORS
330
FB0
102
}
330
FB0
100
AcDbXrecord
280
     1
102
RTVSPropertyOp0
 70
     1
102
RTVSPropertyOp1
 70
     1
102
RTVSPropertyOp2
 70
     1
102
RTVSPropertyOp3
 70
     1
102
RTVSPropertyOp4
 70
     1
102
RTVSPropertyOp5
 70
     1
102
RTVSPropertyOp6
 70
     1
102
RTVSPropertyOp7
 70
     1
102
RTVSPropertyOp8
 70
     1
102
RTVSPropertyOp9
 70
     1
102
RTVSPropertyOp10
 70
     1
102
RTVSPropertyOp11
 70
     1
102
RTVSPropertyOp12
 70
     1
102
RTVSPropertyOp13
 70
     1
102
RTVSPropertyOp14
 70
     1
102
RTVSPropertyOp15
 70
     1
102
RTVSPropertyOp16
 70
     1
102
RTVSPropertyOp17
 70
     1
102
RTVSPropertyOp18
 70
     1
102
RTVSPropertyOp19
 70
     1
102
RTVSPropertyOp20
 70
     1
102
RTVSPropertyOp21
 70
     1
102
RTVSPropertyOp22
 70
     1
102
RTVSPropertyOp23
 70
     1
102
RTVSPropertyOp24
 70
     1
102
RTVSPropertyOp25
 70
     1
102
RTVSPropertyOp26
 70
     1
102
RTVSPropertyOp27
 70
     1
102
RTVSPropertyOp28
 70
     1
102
RTVSPropertyOp29
 70
     1
102
RTVSPropertyOp30
 70
     1
102
RTVSPropertyOp31
 70
     1
102
RTVSPropertyOp32
 70
     1
102
RTVSPropertyOp33
 70
     1
102
RTVSPropertyOp34
 70
     1
102
RTVSPropertyOp35
 70
     1
102
RTVSPropertyOp36
 70
     1
102
RTVSPropertyOp37
 70
     1
102
RTVSPropertyOp38
 70
     1
102
RTVSPropertyOp39
 70
     1
102
RTVSPropertyOp40
 70
     1
102
RTVSPropertyOp41
 70
     1
102
RTVSPropertyOp42
 70
     1
102
RTVSPropertyOp43
 70
     1
102
RTVSPropertyOp44
 70
     1
102
RTVSPropertyOp45
 70
     1
102
RTVSPropertyOp46
 70
     1
102
RTVSPropertyOp47
 70
     1
102
RTVSPropertyOp48
 70
     1
102
RTVSPropertyOp49
 70
     1
102
RTVSPropertyOp50
 70
     1
102
RTVSPropertyOp51
 70
     0
102
RTVSPropertyOp52
 70
     0
102
RTVSPropertyOp53
 70
     1
102
RTVSPropertyOp54
 70
     1
102
RTVSPropertyOp55
 70
     1
102
RTVSPropertyOp56
 70
     1
102
RTVSPropertyOp57
 70
     1
102
RTVSPost2010Prop28
280
     0
102
RTVSPost2010PropOp28
 70
     1
102
RTVSPost2010Prop29
280
     1
102
RTVSPost2010PropOp29
 70
     1
102
RTVSPost2010Prop30
280
     1
102
RTVSPost2010PropOp30
 70
     1
102
RTVSPost2010Prop31
280
     0
102
RTVSPost2010PropOp31
 70
     1
102
RTVSPost2010Prop32
280
     0
102
RTVSPost2010PropOp32
 70
     1
102
RTVSPost2010Prop33
280
     0
102
RTVSPost2010PropOp33
 70
     1
102
RTVSPost2010Prop34
280
     0
102
RTVSPost2010PropOp34
 70
     1
102
RTVSPost2010Prop35
280
     0
102
RTVSPost2010PropOp35
 70
     1
102
RTVSPost2010Prop36
280
     0
102
RTVSPost2010PropOp36
 70
     1
102
RTVSPost2010Prop37
 90
       50
102
RTVSPost2010PropOp37
 70
     1
102
RTVSPost2010Prop38
140
0.0
102
RTVSPost2010PropOp38
 70
     1
102
RTVSPost2010Prop39
140
1.0
102
RTVSPost2010PropOp39
 70
     1
102
RTVSPost2010Prop40
 90
        0
102
RTVSPost2010PropOp40
 70
     1
102
RTVSPost2010Prop41ColorIndex
 90
       18
102
RTVSPost2010Prop41ColorRGB
 90
        0
102
RTVSPost2010PropOp41
 70
     1
102
RTVSPost2010Prop42
 90
       50
102
RTVSPost2010PropOp42
 70
     1
102
RTVSPost2010Prop43
 90
        3
102
RTVSPost2010PropOp43
 70
     1
102
RTVSPost2010Prop44ColorIndex
 90
        5
102
RTVSPost2010Prop44ColorRGB
 90
      255
102
RTVSPost2010PropOp44
 70
     1
102
RTVSPost2010Prop45
280
     0
102
RTVSPost2010PropOp45
 70
     1
102
RTVSPost2010Prop46
 90
       50
102
RTVSPost2010PropOp46
 70
     1
102
RTVSPost2010Prop47
 90
       50
102
RTVSPost2010PropOp47
 70
     1
102
RTVSPost2010Prop48
 90
       50
102
RTVSPost2010PropOp48
 70
     1
102
RTVSPost2010Prop49
280
     0
102
RTVSPost2010PropOp49
 70
     1
102
RTVSPost2010Prop50
 90
       50
102
RTVSPost2010PropOp50
 70
     1
102
RTVSPost2010Prop51ColorIndex
 90
      256
102
RTVSPost2010Prop51ColorRGB
 90
-16777216
102
RTVSPost2010PropOp51
 70
     0
102
RTVSPost2010Prop52
140
1.0
102
RTVSPost2010PropOp52
 70
     0
102
RTVSPost2010Prop53
 90
        2
102
RTVSPost2010PropOp53
 70
     1
102
RTVSPost2010Prop54
  1
strokes_ogs.tif
102
RTVSPost2010PropOp54
 70
     1
102
RTVSPost2010Prop55
280
     0
102
RTVSPost2010PropOp55
 70
     1
102
RTVSPost2010Prop56
140
1.0
102
RTVSPost2010PropOp56
 70
     1
102
RTVSPost2010Prop57
140
1.0
102
RTVSPost2010PropOp57
 70
     1
  0
XRECORD
  5
FAB
102
{ACAD_REACTORS
330
FAA
102
}
330
FAA
100
AcDbXrecord
280
     1
102
RTVSPropertyOp0
 70
     1
102
RTVSPropertyOp1
 70
     1
102
RTVSPropertyOp2
 70
     1
102
RTVSPropertyOp3
 70
     1
102
RTVSPropertyOp4
 70
     1
102
RTVSPropertyOp5
 70
     1
102
RTVSPropertyOp6
 70
     1
102
RTVSPropertyOp7
 70
     1
102
RTVSPropertyOp8
 70
     1
102
RTVSPropertyOp9
 70
     1
102
RTVSPropertyOp10
 70
     1
102
RTVSPropertyOp11
 70
     1
102
RTVSPropertyOp12
 70
     1
102
RTVSPropertyOp13
 70
     1
102
RTVSPropertyOp14
 70
     1
102
RTVSPropertyOp15
 70
     1
102
RTVSPropertyOp16
 70
     1
102
RTVSPropertyOp17
 70
     1
102
RTVSPropertyOp18
 70
     1
102
RTVSPropertyOp19
 70
     1
102
RTVSPropertyOp20
 70
     1
102
RTVSPropertyOp21
 70
     1
102
RTVSPropertyOp22
 70
     1
102
RTVSPropertyOp23
 70
     1
102
RTVSPropertyOp24
 70
     1
102
RTVSPropertyOp25
 70
     1
102
RTVSPropertyOp26
 70
     1
102
RTVSPropertyOp27
 70
     1
102
RTVSPropertyOp28
 70
     1
102
RTVSPropertyOp29
 70
     1
102
RTVSPropertyOp30
 70
     1
102
RTVSPropertyOp31
 70
     1
102
RTVSPropertyOp32
 70
     1
102
RTVSPropertyOp33
 70
     1
102
RTVSPropertyOp34
 70
     1
102
RTVSPropertyOp35
 70
     1
102
RTVSPropertyOp36
 70
     1
102
RTVSPropertyOp37
 70
     1
102
RTVSPropertyOp38
 70
     1
102
RTVSPropertyOp39
 70
     1
102
RTVSPropertyOp40
 70
     1
102
RTVSPropertyOp41
 70
     1
102
RTVSPropertyOp42
 70
     1
102
RTVSPropertyOp43
 70
     1
102
RTVSPropertyOp44
 70
     1
102
RTVSPropertyOp45
 70
     1
102
RTVSPropertyOp46
 70
     1
102
RTVSPropertyOp47
 70
     1
102
RTVSPropertyOp48
 70
     1
102
RTVSPropertyOp49
 70
     1
102
RTVSPropertyOp50
 70
     1
102
RTVSPropertyOp51
 70
     0
102
RTVSPropertyOp52
 70
     0
102
RTVSPropertyOp53
 70
     1
102
RTVSPropertyOp54
 70
     1
102
RTVSPropertyOp55
 70
     1
102
RTVSPropertyOp56
 70
     1
102
RTVSPropertyOp57
 70
     1
102
RTVSPost2010Prop28
280
     0
102
RTVSPost2010PropOp28
 70
     1
102
RTVSPost2010Prop29
280
     1
102
RTVSPost2010PropOp29
 70
     1
102
RTVSPost2010Prop30
280
     1
102
RTVSPost2010PropOp30
 70
     1
102
RTVSPost2010Prop31
280
     0
102
RTVSPost2010PropOp31
 70
     1
102
RTVSPost2010Prop32
280
     0
102
RTVSPost2010PropOp32
 70
     1
102
RTVSPost2010Prop33
280
     0
102
RTVSPost2010PropOp33
 70
     1
102
RTVSPost2010Prop34
280
     0
102
RTVSPost2010PropOp34
 70
     1
102
RTVSPost2010Prop35
280
     0
102
RTVSPost2010PropOp35
 70
     1
102
RTVSPost2010Prop36
280
     0
102
RTVSPost2010PropOp36
 70
     1
102
RTVSPost2010Prop37
 90
       50
102
RTVSPost2010PropOp37
 70
     1
102
RTVSPost2010Prop38
140
0.0
102
RTVSPost2010PropOp38
 70
     1
102
RTVSPost2010Prop39
140
1.0
102
RTVSPost2010PropOp39
 70
     1
102
RTVSPost2010Prop40
 90
        0
102
RTVSPost2010PropOp40
 70
     1
102
RTVSPost2010Prop41ColorIndex
 90
       18
102
RTVSPost2010Prop41ColorRGB
 90
        0
102
RTVSPost2010PropOp41
 70
     1
102
RTVSPost2010Prop42
 90
       50
102
RTVSPost2010PropOp42
 70
     1
102
RTVSPost2010Prop43
 90
        3
102
RTVSPost2010PropOp43
 70
     1
102
RTVSPost2010Prop44ColorIndex
 90
        5
102
RTVSPost2010Prop44ColorRGB
 90
      255
102
RTVSPost2010PropOp44
 70
     1
102
RTVSPost2010Prop45
280
     0
102
RTVSPost2010PropOp45
 70
     1
102
RTVSPost2010Prop46
 90
       50
102
RTVSPost2010PropOp46
 70
     1
102
RTVSPost2010Prop47
 90
       50
102
RTVSPost2010PropOp47
 70
     1
102
RTVSPost2010Prop48
 90
       50
102
RTVSPost2010PropOp48
 70
     1
102
RTVSPost2010Prop49
280
     0
102
RTVSPost2010PropOp49
 70
     1
102
RTVSPost2010Prop50
 90
       50
102
RTVSPost2010PropOp50
 70
     1
102
RTVSPost2010Prop51ColorIndex
 90
      256
102
RTVSPost2010Prop51ColorRGB
 90
-16777216
102
RTVSPost2010PropOp51
 70
     0
102
RTVSPost2010Prop52
140
1.0
102
RTVSPost2010PropOp52
 70
     0
102
RTVSPost2010Prop53
 90
        2
102
RTVSPost2010PropOp53
 70
     1
102
RTVSPost2010Prop54
  1
strokes_ogs.tif
102
RTVSPost2010PropOp54
 70
     1
102
RTVSPost2010Prop55
280
     0
102
RTVSPost2010PropOp55
 70
     1
102
RTVSPost2010Prop56
140
1.0
102
RTVSPost2010PropOp56
 70
     1
102
RTVSPost2010Prop57
140
1.0
102
RTVSPost2010PropOp57
 70
     1
  0
XRECORD
  5
FAD
102
{ACAD_REACTORS
330
FAC
102
}
330
FAC
100
AcDbXrecord
280
     1
102
RTVSPropertyOp0
 70
     1
102
RTVSPropertyOp1
 70
     1
102
RTVSPropertyOp2
 70
     1
102
RTVSPropertyOp3
 70
     1
102
RTVSPropertyOp4
 70
     1
102
RTVSPropertyOp5
 70
     1
102
RTVSPropertyOp6
 70
     1
102
RTVSPropertyOp7
 70
     1
102
RTVSPropertyOp8
 70
     1
102
RTVSPropertyOp9
 70
     1
102
RTVSPropertyOp10
 70
     1
102
RTVSPropertyOp11
 70
     1
102
RTVSPropertyOp12
 70
     1
102
RTVSPropertyOp13
 70
     1
102
RTVSPropertyOp14
 70
     1
102
RTVSPropertyOp15
 70
     1
102
RTVSPropertyOp16
 70
     1
102
RTVSPropertyOp17
 70
     1
102
RTVSPropertyOp18
 70
     1
102
RTVSPropertyOp19
 70
     1
102
RTVSPropertyOp20
 70
     1
102
RTVSPropertyOp21
 70
     1
102
RTVSPropertyOp22
 70
     1
102
RTVSPropertyOp23
 70
     1
102
RTVSPropertyOp24
 70
     1
102
RTVSPropertyOp25
 70
     1
102
RTVSPropertyOp26
 70
     1
102
RTVSPropertyOp27
 70
     1
102
RTVSPropertyOp28
 70
     1
102
RTVSPropertyOp29
 70
     1
102
RTVSPropertyOp30
 70
     1
102
RTVSPropertyOp31
 70
     1
102
RTVSPropertyOp32
 70
     1
102
RTVSPropertyOp33
 70
     1
102
RTVSPropertyOp34
 70
     1
102
RTVSPropertyOp35
 70
     1
102
RTVSPropertyOp36
 70
     1
102
RTVSPropertyOp37
 70
     1
102
RTVSPropertyOp38
 70
     1
102
RTVSPropertyOp39
 70
     1
102
RTVSPropertyOp40
 70
     1
102
RTVSPropertyOp41
 70
     1
102
RTVSPropertyOp42
 70
     1
102
RTVSPropertyOp43
 70
     1
102
RTVSPropertyOp44
 70
     1
102
RTVSPropertyOp45
 70
     1
102
RTVSPropertyOp46
 70
     1
102
RTVSPropertyOp47
 70
     1
102
RTVSPropertyOp48
 70
     1
102
RTVSPropertyOp49
 70
     1
102
RTVSPropertyOp50
 70
     1
102
RTVSPropertyOp51
 70
     0
102
RTVSPropertyOp52
 70
     0
102
RTVSPropertyOp53
 70
     1
102
RTVSPropertyOp54
 70
     1
102
RTVSPropertyOp55
 70
     1
102
RTVSPropertyOp56
 70
     1
102
RTVSPropertyOp57
 70
     1
102
RTVSPost2010Prop28
280
     0
102
RTVSPost2010PropOp28
 70
     1
102
RTVSPost2010Prop29
280
     1
102
RTVSPost2010PropOp29
 70
     1
102
RTVSPost2010Prop30
280
     1
102
RTVSPost2010PropOp30
 70
     1
102
RTVSPost2010Prop31
280
     0
102
RTVSPost2010PropOp31
 70
     1
102
RTVSPost2010Prop32
280
     0
102
RTVSPost2010PropOp32
 70
     1
102
RTVSPost2010Prop33
280
     0
102
RTVSPost2010PropOp33
 70
     1
102
RTVSPost2010Prop34
280
     0
102
RTVSPost2010PropOp34
 70
     1
102
RTVSPost2010Prop35
280
     0
102
RTVSPost2010PropOp35
 70
     1
102
RTVSPost2010Prop36
280
     0
102
RTVSPost2010PropOp36
 70
     1
102
RTVSPost2010Prop37
 90
       50
102
RTVSPost2010PropOp37
 70
     1
102
RTVSPost2010Prop38
140
0.0
102
RTVSPost2010PropOp38
 70
     1
102
RTVSPost2010Prop39
140
1.0
102
RTVSPost2010PropOp39
 70
     1
102
RTVSPost2010Prop40
 90
        0
102
RTVSPost2010PropOp40
 70
     1
102
RTVSPost2010Prop41ColorIndex
 90
       18
102
RTVSPost2010Prop41ColorRGB
 90
        0
102
RTVSPost2010PropOp41
 70
     1
102
RTVSPost2010Prop42
 90
       50
102
RTVSPost2010PropOp42
 70
     1
102
RTVSPost2010Prop43
 90
        3
102
RTVSPost2010PropOp43
 70
     1
102
RTVSPost2010Prop44ColorIndex
 90
        5
102
RTVSPost2010Prop44ColorRGB
 90
      255
102
RTVSPost2010PropOp44
 70
     1
102
RTVSPost2010Prop45
280
     0
102
RTVSPost2010PropOp45
 70
     1
102
RTVSPost2010Prop46
 90
       50
102
RTVSPost2010PropOp46
 70
     1
102
RTVSPost2010Prop47
 90
       50
102
RTVSPost2010PropOp47
 70
     1
102
RTVSPost2010Prop48
 90
       50
102
RTVSPost2010PropOp48
 70
     1
102
RTVSPost2010Prop49
280
     0
102
RTVSPost2010PropOp49
 70
     1
102
RTVSPost2010Prop50
 90
       50
102
RTVSPost2010PropOp50
 70
     1
102
RTVSPost2010Prop51ColorIndex
 90
      256
102
RTVSPost2010Prop51ColorRGB
 90
-16777216
102
RTVSPost2010PropOp51
 70
     0
102
RTVSPost2010Prop52
140
1.0
102
RTVSPost2010PropOp52
 70
     0
102
RTVSPost2010Prop53
 90
        2
102
RTVSPost2010PropOp53
 70
     1
102
RTVSPost2010Prop54
  1
strokes_ogs.tif
102
RTVSPost2010PropOp54
 70
     1
102
RTVSPost2010Prop55
280
     0
102
RTVSPost2010PropOp55
 70
     1
102
RTVSPost2010Prop56
140
1.0
102
RTVSPost2010PropOp56
 70
     1
102
RTVSPost2010Prop57
140
1.0
102
RTVSPost2010PropOp57
 70
     1
  0
XRECORD
  5
F9D
102
{ACAD_REACTORS
330
F9C
102
}
330
F9C
100
AcDbXrecord
280
     1
102
RTVSPropertyOp0
 70
     1
102
RTVSPropertyOp1
 70
     1
102
RTVSPropertyOp2
 70
     1
102
RTVSPropertyOp3
 70
     1
102
RTVSPropertyOp4
 70
     1
102
RTVSPropertyOp5
 70
     1
102
RTVSPropertyOp6
 70
     1
102
RTVSPropertyOp7
 70
     1
102
RTVSPropertyOp8
 70
     1
102
RTVSPropertyOp9
 70
     1
102
RTVSPropertyOp10
 70
     1
102
RTVSPropertyOp11
 70
     1
102
RTVSPropertyOp12
 70
     1
102
RTVSPropertyOp13
 70
     1
102
RTVSPropertyOp14
 70
     1
102
RTVSPropertyOp15
 70
     1
102
RTVSPropertyOp16
 70
     1
102
RTVSPropertyOp17
 70
     1
102
RTVSPropertyOp18
 70
     1
102
RTVSPropertyOp19
 70
     1
102
RTVSPropertyOp20
 70
     1
102
RTVSPropertyOp21
 70
     1
102
RTVSPropertyOp22
 70
     1
102
RTVSPropertyOp23
 70
     1
102
RTVSPropertyOp24
 70
     1
102
RTVSPropertyOp25
 70
     1
102
RTVSPropertyOp26
 70
     1
102
RTVSPropertyOp27
 70
     1
102
RTVSPropertyOp28
 70
     1
102
RTVSPropertyOp29
 70
     1
102
RTVSPropertyOp30
 70
     1
102
RTVSPropertyOp31
 70
     1
102
RTVSPropertyOp32
 70
     1
102
RTVSPropertyOp33
 70
     1
102
RTVSPropertyOp34
 70
     1
102
RTVSPropertyOp35
 70
     1
102
RTVSPropertyOp36
 70
     1
102
RTVSPropertyOp37
 70
     1
102
RTVSPropertyOp38
 70
     1
102
RTVSPropertyOp39
 70
     1
102
RTVSPropertyOp40
 70
     1
102
RTVSPropertyOp41
 70
     1
102
RTVSPropertyOp42
 70
     1
102
RTVSPropertyOp43
 70
     1
102
RTVSPropertyOp44
 70
     1
102
RTVSPropertyOp45
 70
     1
102
RTVSPropertyOp46
 70
     1
102
RTVSPropertyOp47
 70
     1
102
RTVSPropertyOp48
 70
     1
102
RTVSPropertyOp49
 70
     1
102
RTVSPropertyOp50
 70
     1
102
RTVSPropertyOp51
 70
     0
102
RTVSPropertyOp52
 70
     0
102
RTVSPropertyOp53
 70
     1
102
RTVSPropertyOp54
 70
     1
102
RTVSPropertyOp55
 70
     1
102
RTVSPropertyOp56
 70
     1
102
RTVSPropertyOp57
 70
     1
102
RTVSPost2010Prop28
280
     0
102
RTVSPost2010PropOp28
 70
     1
102
RTVSPost2010Prop29
280
     1
102
RTVSPost2010PropOp29
 70
     1
102
RTVSPost2010Prop30
280
     1
102
RTVSPost2010PropOp30
 70
     1
102
RTVSPost2010Prop31
280
     0
102
RTVSPost2010PropOp31
 70
     1
102
RTVSPost2010Prop32
280
     0
102
RTVSPost2010PropOp32
 70
     1
102
RTVSPost2010Prop33
280
     0
102
RTVSPost2010PropOp33
 70
     1
102
RTVSPost2010Prop34
280
     0
102
RTVSPost2010PropOp34
 70
     1
102
RTVSPost2010Prop35
280
     0
102
RTVSPost2010PropOp35
 70
     1
102
RTVSPost2010Prop36
280
     0
102
RTVSPost2010PropOp36
 70
     1
102
RTVSPost2010Prop37
 90
       50
102
RTVSPost2010PropOp37
 70
     1
102
RTVSPost2010Prop38
140
0.0
102
RTVSPost2010PropOp38
 70
     1
102
RTVSPost2010Prop39
140
1.0
102
RTVSPost2010PropOp39
 70
     1
102
RTVSPost2010Prop40
 90
        0
102
RTVSPost2010PropOp40
 70
     1
102
RTVSPost2010Prop41ColorIndex
 90
       18
102
RTVSPost2010Prop41ColorRGB
 90
        0
102
RTVSPost2010PropOp41
 70
     1
102
RTVSPost2010Prop42
 90
       50
102
RTVSPost2010PropOp42
 70
     1
102
RTVSPost2010Prop43
 90
        3
102
RTVSPost2010PropOp43
 70
     1
102
RTVSPost2010Prop44ColorIndex
 90
        5
102
RTVSPost2010Prop44ColorRGB
 90
      255
102
RTVSPost2010PropOp44
 70
     1
102
RTVSPost2010Prop45
280
     0
102
RTVSPost2010PropOp45
 70
     1
102
RTVSPost2010Prop46
 90
       50
102
RTVSPost2010PropOp46
 70
     1
102
RTVSPost2010Prop47
 90
       50
102
RTVSPost2010PropOp47
 70
     1
102
RTVSPost2010Prop48
 90
       50
102
RTVSPost2010PropOp48
 70
     1
102
RTVSPost2010Prop49
280
     0
102
RTVSPost2010PropOp49
 70
     1
102
RTVSPost2010Prop50
 90
       50
102
RTVSPost2010PropOp50
 70
     1
102
RTVSPost2010Prop51ColorIndex
 90
      256
102
RTVSPost2010Prop51ColorRGB
 90
-16777216
102
RTVSPost2010PropOp51
 70
     0
102
RTVSPost2010Prop52
140
1.0
102
RTVSPost2010PropOp52
 70
     0
102
RTVSPost2010Prop53
 90
        2
102
RTVSPost2010PropOp53
 70
     1
102
RTVSPost2010Prop54
  1
strokes_ogs.tif
102
RTVSPost2010PropOp54
 70
     1
102
RTVSPost2010Prop55
280
     0
102
RTVSPost2010PropOp55
 70
     1
102
RTVSPost2010Prop56
140
1.0
102
RTVSPost2010PropOp56
 70
     1
102
RTVSPost2010Prop57
140
1.0
102
RTVSPost2010PropOp57
 70
     1
  0
XRECORD
  5
F8F
102
{ACAD_REACTORS
330
F8E
102
}
330
F8E
100
AcDbXrecord
280
     1
102
RTVSPropertyOp0
 70
     1
102
RTVSPropertyOp1
 70
     1
102
RTVSPropertyOp2
 70
     1
102
RTVSPropertyOp3
 70
     1
102
RTVSPropertyOp4
 70
     1
102
RTVSPropertyOp5
 70
     1
102
RTVSPropertyOp6
 70
     1
102
RTVSPropertyOp7
 70
     1
102
RTVSPropertyOp8
 70
     1
102
RTVSPropertyOp9
 70
     1
102
RTVSPropertyOp10
 70
     1
102
RTVSPropertyOp11
 70
     1
102
RTVSPropertyOp12
 70
     1
102
RTVSPropertyOp13
 70
     1
102
RTVSPropertyOp14
 70
     1
102
RTVSPropertyOp15
 70
     1
102
RTVSPropertyOp16
 70
     1
102
RTVSPropertyOp17
 70
     1
102
RTVSPropertyOp18
 70
     1
102
RTVSPropertyOp19
 70
     1
102
RTVSPropertyOp20
 70
     1
102
RTVSPropertyOp21
 70
     1
102
RTVSPropertyOp22
 70
     1
102
RTVSPropertyOp23
 70
     1
102
RTVSPropertyOp24
 70
     1
102
RTVSPropertyOp25
 70
     1
102
RTVSPropertyOp26
 70
     1
102
RTVSPropertyOp27
 70
     1
102
RTVSPropertyOp28
 70
     1
102
RTVSPropertyOp29
 70
     1
102
RTVSPropertyOp30
 70
     1
102
RTVSPropertyOp31
 70
     1
102
RTVSPropertyOp32
 70
     1
102
RTVSPropertyOp33
 70
     1
102
RTVSPropertyOp34
 70
     1
102
RTVSPropertyOp35
 70
     1
102
RTVSPropertyOp36
 70
     1
102
RTVSPropertyOp37
 70
     1
102
RTVSPropertyOp38
 70
     1
102
RTVSPropertyOp39
 70
     1
102
RTVSPropertyOp40
 70
     1
102
RTVSPropertyOp41
 70
     1
102
RTVSPropertyOp42
 70
     1
102
RTVSPropertyOp43
 70
     1
102
RTVSPropertyOp44
 70
     1
102
RTVSPropertyOp45
 70
     1
102
RTVSPropertyOp46
 70
     1
102
RTVSPropertyOp47
 70
     1
102
RTVSPropertyOp48
 70
     1
102
RTVSPropertyOp49
 70
     1
102
RTVSPropertyOp50
 70
     1
102
RTVSPropertyOp51
 70
     0
102
RTVSPropertyOp52
 70
     0
102
RTVSPropertyOp53
 70
     1
102
RTVSPropertyOp54
 70
     1
102
RTVSPropertyOp55
 70
     1
102
RTVSPropertyOp56
 70
     1
102
RTVSPropertyOp57
 70
     1
102
RTVSPost2010Prop28
280
     0
102
RTVSPost2010PropOp28
 70
     1
102
RTVSPost2010Prop29
280
     1
102
RTVSPost2010PropOp29
 70
     1
102
RTVSPost2010Prop30
280
     1
102
RTVSPost2010PropOp30
 70
     1
102
RTVSPost2010Prop31
280
     0
102
RTVSPost2010PropOp31
 70
     1
102
RTVSPost2010Prop32
280
     0
102
RTVSPost2010PropOp32
 70
     1
102
RTVSPost2010Prop33
280
     0
102
RTVSPost2010PropOp33
 70
     1
102
RTVSPost2010Prop34
280
     0
102
RTVSPost2010PropOp34
 70
     1
102
RTVSPost2010Prop35
280
     0
102
RTVSPost2010PropOp35
 70
     1
102
RTVSPost2010Prop36
280
     0
102
RTVSPost2010PropOp36
 70
     1
102
RTVSPost2010Prop37
 90
       50
102
RTVSPost2010PropOp37
 70
     1
102
RTVSPost2010Prop38
140
0.0
102
RTVSPost2010PropOp38
 70
     1
102
RTVSPost2010Prop39
140
1.0
102
RTVSPost2010PropOp39
 70
     1
102
RTVSPost2010Prop40
 90
        0
102
RTVSPost2010PropOp40
 70
     1
102
RTVSPost2010Prop41ColorIndex
 90
       18
102
RTVSPost2010Prop41ColorRGB
 90
        0
102
RTVSPost2010PropOp41
 70
     1
102
RTVSPost2010Prop42
 90
       50
102
RTVSPost2010PropOp42
 70
     1
102
RTVSPost2010Prop43
 90
        3
102
RTVSPost2010PropOp43
 70
     1
102
RTVSPost2010Prop44ColorIndex
 90
        5
102
RTVSPost2010Prop44ColorRGB
 90
      255
102
RTVSPost2010PropOp44
 70
     1
102
RTVSPost2010Prop45
280
     0
102
RTVSPost2010PropOp45
 70
     1
102
RTVSPost2010Prop46
 90
       50
102
RTVSPost2010PropOp46
 70
     1
102
RTVSPost2010Prop47
 90
       50
102
RTVSPost2010PropOp47
 70
     1
102
RTVSPost2010Prop48
 90
       50
102
RTVSPost2010PropOp48
 70
     1
102
RTVSPost2010Prop49
280
     0
102
RTVSPost2010PropOp49
 70
     1
102
RTVSPost2010Prop50
 90
       50
102
RTVSPost2010PropOp50
 70
     1
102
RTVSPost2010Prop51ColorIndex
 90
      256
102
RTVSPost2010Prop51ColorRGB
 90
-16777216
102
RTVSPost2010PropOp51
 70
     0
102
RTVSPost2010Prop52
140
1.0
102
RTVSPost2010PropOp52
 70
     0
102
RTVSPost2010Prop53
 90
        2
102
RTVSPost2010PropOp53
 70
     1
102
RTVSPost2010Prop54
  1
strokes_ogs.tif
102
RTVSPost2010PropOp54
 70
     1
102
RTVSPost2010Prop55
280
     0
102
RTVSPost2010PropOp55
 70
     1
102
RTVSPost2010Prop56
140
1.0
102
RTVSPost2010PropOp56
 70
     1
102
RTVSPost2010Prop57
140
1.0
102
RTVSPost2010PropOp57
 70
     1
  0
XRECORD
  5
FAF
102
{ACAD_REACTORS
330
FAE
102
}
330
FAE
100
AcDbXrecord
280
     1
102
RTVSPropertyOp0
 70
     1
102
RTVSPropertyOp1
 70
     1
102
RTVSPropertyOp2
 70
     1
102
RTVSPropertyOp3
 70
     1
102
RTVSPropertyOp4
 70
     1
102
RTVSPropertyOp5
 70
     1
102
RTVSPropertyOp6
 70
     1
102
RTVSPropertyOp7
 70
     1
102
RTVSPropertyOp8
 70
     1
102
RTVSPropertyOp9
 70
     1
102
RTVSPropertyOp10
 70
     1
102
RTVSPropertyOp11
 70
     1
102
RTVSPropertyOp12
 70
     1
102
RTVSPropertyOp13
 70
     1
102
RTVSPropertyOp14
 70
     1
102
RTVSPropertyOp15
 70
     1
102
RTVSPropertyOp16
 70
     1
102
RTVSPropertyOp17
 70
     1
102
RTVSPropertyOp18
 70
     1
102
RTVSPropertyOp19
 70
     1
102
RTVSPropertyOp20
 70
     1
102
RTVSPropertyOp21
 70
     1
102
RTVSPropertyOp22
 70
     1
102
RTVSPropertyOp23
 70
     1
102
RTVSPropertyOp24
 70
     1
102
RTVSPropertyOp25
 70
     1
102
RTVSPropertyOp26
 70
     1
102
RTVSPropertyOp27
 70
     1
102
RTVSPropertyOp28
 70
     1
102
RTVSPropertyOp29
 70
     1
102
RTVSPropertyOp30
 70
     1
102
RTVSPropertyOp31
 70
     1
102
RTVSPropertyOp32
 70
     1
102
RTVSPropertyOp33
 70
     1
102
RTVSPropertyOp34
 70
     1
102
RTVSPropertyOp35
 70
     1
102
RTVSPropertyOp36
 70
     1
102
RTVSPropertyOp37
 70
     1
102
RTVSPropertyOp38
 70
     1
102
RTVSPropertyOp39
 70
     1
102
RTVSPropertyOp40
 70
     1
102
RTVSPropertyOp41
 70
     1
102
RTVSPropertyOp42
 70
     1
102
RTVSPropertyOp43
 70
     1
102
RTVSPropertyOp44
 70
     1
102
RTVSPropertyOp45
 70
     1
102
RTVSPropertyOp46
 70
     1
102
RTVSPropertyOp47
 70
     1
102
RTVSPropertyOp48
 70
     1
102
RTVSPropertyOp49
 70
     1
102
RTVSPropertyOp50
 70
     1
102
RTVSPropertyOp51
 70
     0
102
RTVSPropertyOp52
 70
     0
102
RTVSPropertyOp53
 70
     1
102
RTVSPropertyOp54
 70
     1
102
RTVSPropertyOp55
 70
     1
102
RTVSPropertyOp56
 70
     1
102
RTVSPropertyOp57
 70
     1
102
RTVSPost2010Prop28
280
     0
102
RTVSPost2010PropOp28
 70
     1
102
RTVSPost2010Prop29
280
     1
102
RTVSPost2010PropOp29
 70
     1
102
RTVSPost2010Prop30
280
     1
102
RTVSPost2010PropOp30
 70
     1
102
RTVSPost2010Prop31
280
     0
102
RTVSPost2010PropOp31
 70
     1
102
RTVSPost2010Prop32
280
     0
102
RTVSPost2010PropOp32
 70
     1
102
RTVSPost2010Prop33
280
     0
102
RTVSPost2010PropOp33
 70
     1
102
RTVSPost2010Prop34
280
     0
102
RTVSPost2010PropOp34
 70
     1
102
RTVSPost2010Prop35
280
     0
102
RTVSPost2010PropOp35
 70
     1
102
RTVSPost2010Prop36
280
     0
102
RTVSPost2010PropOp36
 70
     1
102
RTVSPost2010Prop37
 90
       50
102
RTVSPost2010PropOp37
 70
     1
102
RTVSPost2010Prop38
140
0.0
102
RTVSPost2010PropOp38
 70
     1
102
RTVSPost2010Prop39
140
1.0
102
RTVSPost2010PropOp39
 70
     1
102
RTVSPost2010Prop40
 90
        0
102
RTVSPost2010PropOp40
 70
     1
102
RTVSPost2010Prop41ColorIndex
 90
       18
102
RTVSPost2010Prop41ColorRGB
 90
        0
102
RTVSPost2010PropOp41
 70
     1
102
RTVSPost2010Prop42
 90
       50
102
RTVSPost2010PropOp42
 70
     1
102
RTVSPost2010Prop43
 90
        3
102
RTVSPost2010PropOp43
 70
     1
102
RTVSPost2010Prop44ColorIndex
 90
        5
102
RTVSPost2010Prop44ColorRGB
 90
      255
102
RTVSPost2010PropOp44
 70
     1
102
RTVSPost2010Prop45
280
     0
102
RTVSPost2010PropOp45
 70
     1
102
RTVSPost2010Prop46
 90
       50
102
RTVSPost2010PropOp46
 70
     1
102
RTVSPost2010Prop47
 90
       50
102
RTVSPost2010PropOp47
 70
     1
102
RTVSPost2010Prop48
 90
       50
102
RTVSPost2010PropOp48
 70
     1
102
RTVSPost2010Prop49
280
     0
102
RTVSPost2010PropOp49
 70
     1
102
RTVSPost2010Prop50
 90
       50
102
RTVSPost2010PropOp50
 70
     1
102
RTVSPost2010Prop51ColorIndex
 90
      256
102
RTVSPost2010Prop51ColorRGB
 90
-16777216
102
RTVSPost2010PropOp51
 70
     0
102
RTVSPost2010Prop52
140
1.0
102
RTVSPost2010PropOp52
 70
     0
102
RTVSPost2010Prop53
 90
        2
102
RTVSPost2010PropOp53
 70
     1
102
RTVSPost2010Prop54
  1
strokes_ogs.tif
102
RTVSPost2010PropOp54
 70
     1
102
RTVSPost2010Prop55
280
     0
102
RTVSPost2010PropOp55
 70
     1
102
RTVSPost2010Prop56
140
1.0
102
RTVSPost2010PropOp56
 70
     1
102
RTVSPost2010Prop57
140
1.0
102
RTVSPost2010PropOp57
 70
     1
  0
ENDSEC
  0
EOF
