  0
SECTION
  2
HEADER
  9
$ACADVER
  1
AC1015
  9
$ACADMAINTVER
 70
     6
  9
$DWGCODEPAGE
  3
DOS850
  9
$INSBASE
 10
0.0
 20
0.0
 30
0.0
  9
$EXTMIN
 10
-4.37613
 20
-4.90784
 30
1.000000E 20
  9
$EXTMAX
 10
4.38164
 20
4.90163
 30
-1.000000E 20
  9
$LIMMIN
 10
0.0
 20
0.0
  9
$LIMMAX
 10
0.0
 20
0.0
  9
$ORTHOMODE
 70
     0
  9
$REGENMODE
 70
     1
  9
$FILLMODE
 70
     1
  9
$QTEXTMODE
 70
     0
  9
$MIRRTEXT
 70
     1
  9
$LTSCALE
 40
1.0
  9
$ATTMODE
 70
     1
  9
$TEXTSIZE
 40
0.2
  9
$TRACEWID
 40
0.05
  9
$TEXTSTYLE
  7
Standard
  9
$CLAYER
  8
0
  9
$CELTYPE
  6
Continuous
  9
$CECOLOR
 62
   256
  9
$CELTSCALE
 40
1.0
  9
$DISPSILH
 70
     0
  9
$DIMSCALE
 40
1.0
  9
$DIMASZ
 40
0.18
  9
$DIMEXO
 40
0.0625
  9
$DIMDLI
 40
0.38
  9
$DIMRND
 40
0.0
  9
$DIMDLE
 40
0.0
  9
$DIMEXE
 40
0.18
  9
$DIMTP
 40
0.0
  9
$DIMTM
 40
0.0
  9
$DIMTXT
 40
0.18
  9
$DIMCEN
 40
0.09
  9
$DIMTSZ
 40
0.0
  9
$DIMTOL
 70
     0
  9
$DIMLIM
 70
     0
  9
$DIMTIH
 70
     1
  9
$DIMTOH
 70
     1
  9
$DIMSE1
 70
     0
  9
$DIMSE2
 70
     0
  9
$DIMTAD
 70
     0
  9
$DIMZIN
 70
     0
  9
$DIMBLK
  1

  9
$DIMASO
 70
     1
  9
$DIMSHO
 70
     1
  9
$DIMPOST
  1

  9
$DIMAPOST
  1

  9
$DIMALT
 70
     0
  9
$DIMALTD
 70
     2
  9
$DIMALTF
 40
25.4
  9
$DIMLFAC
 40
1.0
  9
$DIMTOFL
 70
     0
  9
$DIMTVP
 40
0.0
  9
$DIMTIX
 70
     0
  9
$DIMSOXD
 70
     0
  9
$DIMSAH
 70
     0
  9
$DIMBLK1
  1

  9
$DIMBLK2
  1

  9
$DIMSTYLE
  2
Standard
  9
$DIMCLRD
 70
     0
  9
$DIMCLRE
 70
     0
  9
$DIMCLRT
 70
     0
  9
$DIMTFAC
 40
1.0
  9
$DIMGAP
 40
0.09
  9
$DIMJUST
 70
     0
  9
$DIMSD1
 70
     0
  9
$DIMSD2
 70
     0
  9
$DIMTOLJ
 70
     1
  9
$DIMTZIN
 70
     0
  9
$DIMALTZ
 70
     0
  9
$DIMALTTZ
 70
     0
  9
$DIMUPT
 70
     0
  9
$DIMDEC
 70
     4
  9
$DIMTDEC
 70
     4
  9
$DIMALTU
 70
     2
  9
$DIMALTTD
 70
     2
  9
$DIMTXSTY
  7
Standard
  9
$DIMAUNIT
 70
     0
  9
$DIMADEC
 70
     0
  9
$DIMALTRND
 40
0.0
  9
$DIMAZIN
 70
     0
  9
$DIMDSEP
 70
     0
  9
$DIMATFIT
 70
     3
  9
$DIMFRAC
 70
     0
  9
$DIMLDRBLK
  1

  9
$DIMLUNIT
 70
     2
  9
$DIMLWD
 70
     0
  9
$DIMLWE
 70
     0
  9
$DIMTMOVE
 70
     0
  9
$LUNITS
 70
     2
  9
$LUPREC
 70
     4
  9
$SKETCHINC
 40
0.1
  9
$FILLETRAD
 40
0.0
  9
$AUNITS
 70
     0
  9
$AUPREC
 70
     0
  9
$MENU
  1
acad
  9
$ELEVATION
 40
0.0
  9
$PELEVATION
 40
0.0
  9
$THICKNESS
 40
0.0
  9
$LIMCHECK
 70
     0
  9
$CHAMFERA
 40
0.0
  9
$CHAMFERB
 40
0.0
  9
$CHAMFERC
 40
0.0
  9
$CHAMFERD
 40
0.0
  9
$SKPOLY
 70
     0
  9
$TDCREATE
 40
0.000000000
  9
$TDUCREATE
 40
0.000000000
  9
$TDUPDATE
 40
0.000000000
  9
$TDUUPDATE
 40
0.000000000
  9
$TDINDWG
 40
0.0000000000
  9
$TDUSRTIMER
 40
0.0000000000
  9
$USRTIMER
 70
     1
  9
$ANGBASE
 50
0.0
  9
$ANGDIR
 70
     0
  9
$PDMODE
 70
     0
  9
$PDSIZE
 40
0.0
  9
$PLINEWID
 40
0.0
  9
$SPLFRAME
 70
     0
  9
$SPLINETYPE
 70
     6
  9
$SPLINESEGS
 70
     8
  9
$HANDSEED
  5
39
  9
$SURFTAB1
 70
     6
  9
$SURFTAB2
 70
     6
  9
$SURFTYPE
 70
     6
  9
$SURFU
 70
     6
  9
$SURFV
 70
     6
  9
$UCSBASE
  2

  9
$UCSNAME
  2

  9
$UCSORG
 10
0.0
 20
0.0
 30
0.0
  9
$UCSXDIR
 10
1.0
 20
0.0
 30
0.0
  9
$UCSYDIR
 10
0.0
 20
1.0
 30
0.0
  9
$UCSORTHOREF
  2

  9
$UCSORTHOVIEW
 70
     0
  9
$UCSORGTOP
 10
0.0
 20
0.0
 30
0.0
  9
$UCSORGBOTTOM
 10
0.0
 20
0.0
 30
0.0
  9
$UCSORGLEFT
 10
0.0
 20
0.0
 30
0.0
  9
$UCSORGRIGHT
 10
0.0
 20
0.0
 30
0.0
  9
$UCSORGFRONT
 10
0.0
 20
0.0
 30
0.0
  9
$UCSORGBACK
 10
0.0
 20
0.0
 30
0.0
  9
$PUCSBASE
  2

  9
$PUCSNAME
  2

  9
$PUCSORG
 10
0.0
 20
0.0
 30
0.0
  9
$PUCSXDIR
 10
1.0
 20
0.0
 30
0.0
  9
$PUCSYDIR
 10
0.0
 20
1.0
 30
0.0
  9
$PUCSORTHOREF
  2

  9
$PUCSORTHOVIEW
 70
     0
  9
$PUCSORGTOP
 10
0.0
 20
0.0
 30
0.0
  9
$PUCSORGBOTTOM
 10
0.0
 20
0.0
 30
0.0
  9
$PUCSORGLEFT
 10
0.0
 20
0.0
 30
0.0
  9
$PUCSORGRIGHT
 10
0.0
 20
0.0
 30
0.0
  9
$PUCSORGFRONT
 10
0.0
 20
0.0
 30
0.0
  9
$PUCSORGBACK
 10
0.0
 20
0.0
 30
0.0
  9
$USERI1
 70
     0
  9
$USERI2
 70
     0
  9
$USERI3
 70
     0
  9
$USERI4
 70
     0
  9
$USERI5
 70
     0
  9
$USERR1
 40
0.0
  9
$USERR2
 40
0.0
  9
$USERR3
 40
0.0
  9
$USERR4
 40
0.0
  9
$USERR5
 40
0.0
  9
$WORLDVIEW
 70
     1
  9
$SHADEDGE
 70
     3
  9
$SHADEDIF
 70
    70
  9
$TILEMODE
 70
     1
  9
$MAXACTVP
 70
    16
  9
$PINSBASE
 10
0.0
 20
0.0
 30
0.0
  9
$PLIMCHECK
 70
     0
  9
$PEXTMIN
 10
1.000000E 20
 20
1.000000E 20
 30
1.000000E 20
  9
$PEXTMAX
 10
-1.000000E 20
 20
-1.000000E 20
 30
-1.000000E 20
  9
$PLIMMIN
 10
0.0
 20
0.0
  9
$PLIMMAX
 10
12.0
 20
9.0
  9
$UNITMODE
 70
     0
  9
$VISRETAIN
 70
     0
  9
$PLINEGEN
 70
     1
  9
$PSLTSCALE
 70
     0
  9
$TREEDEPTH
 70
  3020
  9
$CMLSTYLE
  2
Standard
  9
$CMLJUST
 70
     0
  9
$CMLSCALE
 40
1.0
  9
$PROXYGRAPHICS
 70
     0
  9
$MEASUREMENT
 70
     0
  9
$CELWEIGHT
370
     0
  9
$ENDCAPS
280
     0
  9
$JOINSTYLE
280
     0
  9
$LWDISPLAY
290
     0
  9
$INSUNITS
 70
     5
  9
$HYPERLINKBASE
  1

  9
$XEDIT
290
     1
  9
$CEPSNTYPE
380
     0
  9
$PSTYLEMODE
290
     1
  9
$FINGERPRINTGUID
  2

  9
$VERSIONGUID
  2

  9
$EXTNAMES
290
     1
  9
$PSVPSCALE
 40
0.0
  0
ENDSEC
  0
SECTION
  2
CLASSES
  0
CLASS
  1
LWPOLYLINE
  2
AcDbPolyline
  3
AutoCAD 2000
 90
    32768
280
     0
281
     1
  0
CLASS
  1
IMAGE
  2
AcDbRasterImage
  3
ISM
 90
    32895
280
     0
281
     1
  0
CLASS
  1
OLE2FRAME
  2
AcDbOle2Frame
  3
AutoCAD 2000
 90
    32768
280
     0
281
     1
  0
CLASS
  1
HATCH
  2
AcDbHatch
  3
AutoCAD 2000
 90
    32768
280
     0
281
     1
  0
CLASS
  1
DICTIONARYVAR
  2
AcDbDictionaryVar
  3
AutoCAD 2000
 90
    32768
280
     0
281
     0
  0
CLASS
  1
RASTERVARIABLES
  2
AcDbRasterVariables
  3
ISM
 90
    32768
280
     0
281
     0
  0
CLASS
  1
IMAGEDEF
  2
AcDbRasterImageDef
  3
ISM
 90
    32768
280
     0
281
     0
  0
CLASS
  1
IMAGEDEF_REACTOR
  2
AcDbRasterImageDefReactor
  3
ISM
 90
    32769
280
     0
281
     0
  0
CLASS
  1
IDBUFFER
  2
AcDbIdBuffer
  3
AutoCAD 2000
 90
    32768
280
     0
281
     0
  0
CLASS
  1
SPATIAL_FILTER
  2
AcDbSpatialFilter
  3
AutoCAD 2000
 90
    32768
280
     0
281
     0
  0
CLASS
  1
XRECORD
  2
AcDbXrecord
  3
AutoCAD 2000
 90
    32768
280
     0
281
     0
  0
CLASS
  1
SORTENTSTABLE
  2
AcDbSortentsTable
  3
AutoCAD 2000
 90
    32768
280
     0
281
     0
  0
CLASS
  1
LAYER_INDEX
  2
AcDbLayerIndex
  3
AutoCAD 2000
 90
    32768
280
     0
281
     0
  0
CLASS
  1
SPATIAL_INDEX
  2
AcDbSpatialIndex
  3
AutoCAD 2000
 90
    32768
280
     0
281
     0
  0
CLASS
  1
OBJECT_PTR
  2
CAseDLPNTableRecord
  3
\"ASE-LPNTableRecord\"
 90
    32769
280
     0
281
     0
  0
CLASS
  1
LAYOUT
  2
AcDbLayout
  3
AutoCAD 2000
 90
        0
280
     0
281
     0
  0
CLASS
  1
PLOTSETTINGS
  2
AcDbPlotSettings
  3
AutoCAD 2000
 90
    32768
280
     0
281
     0
  0
CLASS
  1
ACDBDICTIONARYWDFLT
  2
AcDbDictionaryWithDefault
  3
AutoCAD 2000
 90
        0
280
     0
281
     0
  0
CLASS
  1
ACDBPLACEHOLDER
  2
AcDbPlaceHolder
  3
AutoCAD 2000
 90
        0
280
     0
281
     0
  0
CLASS
  1
VBA_PROJECT
  2
AcDbVbaProject
  3
acadvba
 90
    32768
280
     0
281
     0
  0
CLASS
  1
WIPEOUT
  2
AcDbWipeout
  3
WipeOut|AutoCAD Express Tool|expresstools@autodesk.com
 90
    32895
280
     0
281
     1
  0
CLASS
  1
WIPEOUTVARIABLES
  2
AcDbWipeoutVariables
  3
WipeOut|AutoCAD Express Tool|expresstools@autodesk.com
 90
        0
280
     0
281
     0
  0
CLASS
  1
RTEXT
  2
RText
  3
RText|AutoCAD Express Tool|expresstools@autodesk.com
 90
    32768
280
     0
281
     1
  0
CLASS
  1
ARCALIGNEDTEXT
  2
AcDbArcAlignedText
  3
ATEXT|AutoCAD Express Tool|expresstools@autodesk.com
 90
    32768
280
     0
281
     1
  0
ENDSEC
  0
SECTION
  2
TABLES
  0
TABLE
  2
VPORT
  5
7
100
AcDbSymbolTable
 70
     1
  0
VPORT
  5
15
100
AcDbSymbolTableRecord
100
AcDbViewportTableRecord
  2
*ACTIVE
 70
     0
 10
0.0
 20
0.0
 11
1.0
 21
1.0
 12
6.591288
 22
4.579184
 13
0.0
 23
0.0
 14
1.0
 24
1.0
 15
0.0
 25
0.0
 16
0.0
 26
0.0
 36
1.0
 17
0.0
 27
0.0
 37
0.0
 40
9.158369
 41
0.688564
 42
50.0
 43
0.0
 44
0.0
 50
0.0
 51
0.0
 71
     0
 72
   100
 73
     1
 74
     1
 75
     0
 76
     0
 77
     0
 78
     0
281
     0
 65
     0
110
0.0
120
0.0
130
0.0
111
1.0
121
0.0
131
0.0
112
0.0
122
1.0
132
0.0
345
0
346
0
 79
     0
146
0.0
  0
ENDTAB
  0
TABLE
  2
LTYPE
  5
4
100
AcDbSymbolTable
 70
     3
  0
LTYPE
  5
11
100
AcDbSymbolTableRecord
100
AcDbLinetypeTableRecord
  2
ByBlock
 70
    64
  3

 72
    65
 73
     0
 40
0.0
  0
LTYPE
  5
12
100
AcDbSymbolTableRecord
100
AcDbLinetypeTableRecord
  2
ByLayer
 70
    64
  3

 72
    65
 73
     0
 40
0.0
  0
LTYPE
  5
13
100
AcDbSymbolTableRecord
100
AcDbLinetypeTableRecord
  2
Continuous
 70
    64
  3
Solid line
 72
    65
 73
     0
 40
0.0
  0
ENDTAB
  0
TABLE
  2
LAYER
  5
2
100
AcDbSymbolTable
 70
     2
  0
LAYER
  5
14
100
AcDbSymbolTableRecord
100
AcDbLayerTableRecord
  2
0
 70
     0
 62
     7
  6
Continuous
290
     1
370
    -3
390
1D
  0
LAYER
  5
24
100
AcDbSymbolTableRecord
100
AcDbLayerTableRecord
  2
���� 1
 70
     0
 62
     7
  6
Continuous
290
     1
370
    -3
390
1F
  0
ENDTAB
  0
TABLE
  2
STYLE
  5
3
100
AcDbSymbolTable
 70
     1
  0
STYLE
  5
17
100
AcDbSymbolTableRecord
100
AcDbTextStyleTableRecord
  2
Standard
 70
     0
 40
0.0
 41
1.0
 50
0.0
 71
     0
 42
0.0
  3
txt
  4

  0
ENDTAB
  0
TABLE
  2
VIEW
  5
5
100
AcDbSymbolTable
 70
     0
  0
ENDTAB
  0
TABLE
  2
UCS
  5
6
100
AcDbSymbolTable
 70
     0
  0
ENDTAB
  0
TABLE
  2
APPID
  5
8
100
AcDbSymbolTable
 70
     1
  0
APPID
  5
16
100
AcDbSymbolTableRecord
100
AcDbRegAppTableRecord
  2
ACAD
 70
     0
  0
ENDTAB
  0
TABLE
  2
DIMSTYLE
  5
9
100
AcDbSymbolTable
 70
     1
100
AcDbDimStyleTable
 71
     0
  0
DIMSTYLE
105
18
100
AcDbSymbolTableRecord
100
AcDbDimStyleTableRecord
  2
Standard
 70
     0
  3

  4

 40
1.0
 41
0.18
 42
0.0625
 43
0.38
 44
0.18
 45
0.0
 46
0.0
 47
0.0
 48
0.0
 71
     0
 72
     0
 73
     1
 74
     1
 75
     0
 76
     0
 77
     0
 78
     0
 79
     0
140
0.18
141
0.09
142
0.0
143
25.4
144
1.0
145
0.0
146
1.0
147
0.09
148
0.0
170
     0
171
     2
172
     0
173
     0
174
     0
175
     0
176
     0
177
     0
178
     0
179
     0
271
     4
272
     4
273
     2
274
     2
275
     0
276
     0
277
     2
278
    46
279
     0
280
     0
281
     0
282
     0
283
     1
284
     0
285
     0
286
     0
288
     0
340
17
341
0
342
0
343
0
344
0
371
    -2
372
    -2
  0
ENDTAB
  0
TABLE
  2
BLOCK_RECORD
  5
1
100
AcDbSymbolTable
 70
     0
  0
BLOCK_RECORD
  5
A
100
AcDbSymbolTableRecord
100
AcDbBlockTableRecord
  2
*MODEL_SPACE
340
20
  0
BLOCK_RECORD
  5
B
100
AcDbSymbolTableRecord
100
AcDbBlockTableRecord
  2
*PAPER_SPACE
340
21
  0
ENDTAB
  0
ENDSEC
  0
SECTION
  2
BLOCKS
  0
BLOCK
  5
D
100
AcDbEntity
  8
0
100
AcDbBlockBegin
  2
*MODEL_SPACE
 70
     0
 10
0.0
 20
0.0
 30
0.0
  3
*MODEL_SPACE
  1

  0
ENDBLK
  5
E
100
AcDbEntity
  8
0
100
AcDbBlockEnd
  0
BLOCK
  5
F
100
AcDbEntity
 67
     1
  8
0
100
AcDbBlockBegin
  2
*PAPER_SPACE
 70
     0
 10
0.0
 20
0.0
 30
0.0
  3
*PAPER_SPACE
  1

  0
ENDBLK
  5
10
100
AcDbEntity
 67
     1
  8
0
100
AcDbBlockEnd
  0
ENDSEC
  0
SECTION
  2
ENTITIES
  0
SPLINE
  5
25
100
AcDbEntity
  8
���� 1
100
AcDbSpline
210
0.0
220
0.0
230
1.0
 70
     1
 71
     3
 72
   132
 73
   128
 74
     0
 42
0.0000000001
 43
0.0000000001
 40
0.0
 40
0.0
 40
0.0
 40
0.0
 40
0.03125
 40
0.03125
 40
0.03125
 40
0.03125
 40
0.0625
 40
0.0625
 40
0.0625
 40
0.0625
 40
0.09375
 40
0.09375
 40
0.09375
 40
0.09375
 40
0.125
 40
0.125
 40
0.125
 40
0.125
 40
0.15625
 40
0.15625
 40
0.15625
 40
0.15625
 40
0.1875
 40
0.1875
 40
0.1875
 40
0.1875
 40
0.21875
 40
0.21875
 40
0.21875
 40
0.21875
 40
0.25
 40
0.25
 40
0.25
 40
0.25
 40
0.28125
 40
0.28125
 40
0.28125
 40
0.28125
 40
0.3125
 40
0.3125
 40
0.3125
 40
0.3125
 40
0.34375
 40
0.34375
 40
0.34375
 40
0.34375
 40
0.375
 40
0.375
 40
0.375
 40
0.375
 40
0.40625
 40
0.40625
 40
0.40625
 40
0.40625
 40
0.4375
 40
0.4375
 40
0.4375
 40
0.4375
 40
0.46875
 40
0.46875
 40
0.46875
 40
0.46875
 40
0.5
 40
0.5
 40
0.5
 40
0.5
 40
0.53125
 40
0.53125
 40
0.53125
 40
0.53125
 40
0.5625
 40
0.5625
 40
0.5625
 40
0.5625
 40
0.59375
 40
0.59375
 40
0.59375
 40
0.59375
 40
0.625
 40
0.625
 40
0.625
 40
0.625
 40
0.65625
 40
0.65625
 40
0.65625
 40
0.65625
 40
0.6875
 40
0.6875
 40
0.6875
 40
0.6875
 40
0.71875
 40
0.71875
 40
0.71875
 40
0.71875
 40
0.75
 40
0.75
 40
0.75
 40
0.75
 40
0.78125
 40
0.78125
 40
0.78125
 40
0.78125
 40
0.8125
 40
0.8125
 40
0.8125
 40
0.8125
 40
0.84375
 40
0.84375
 40
0.84375
 40
0.84375
 40
0.875
 40
0.875
 40
0.875
 40
0.875
 40
0.90625
 40
0.90625
 40
0.90625
 40
0.90625
 40
0.9375
 40
0.9375
 40
0.9375
 40
0.9375
 40
0.96875
 40
0.96875
 40
0.96875
 40
0.96875
 40
1.0
 40
1.0
 40
1.0
 40
1.0
 10
-2.18933
 20
4.9016300000000008
 30
0.0
 10
-2.0674100000000002
 20
4.7797100000000006
 30
0.0
 10
-1.8489700000000002
 20
4.3529900000000001
 30
0.0
 10
-1.6940300000000001
 20
4.4317299999999999
 30
0.0
 10
-1.6940300000000001
 20
4.4317299999999999
 30
0.0
 10
-1.4781300000000002
 20
4.5434900000000003
 30
0.0
 10
-1.2342900000000001
 20
4.5688900000000006
 30
0.0
 10
-0.93203
 20
4.5485700000000007
 30
0.0
 10
-0.93203
 20
4.5485700000000007
 30
0.0
 10
-0.84821
 20
4.6374700000000004
 30
0.0
 10
-0.6881900000000001
 20
4.7136700000000005
 30
0.0
 10
-0.5840500000000001
 20
4.8279700000000005
 30
0.0
 10
-0.5840500000000001
 20
4.8279700000000005
 30
0.0
 10
-0.20051
 20
4.0507300000000006
 30
0.0
 10
-0.19289
 20
3.1363300000000001
 30
0.0
 10
0.27954
 20
2.3717900000000003
 30
0.0
 10
0.27954
 20
2.3717900000000003
 30
0.0
 10
1.5546200000000001
 20
2.2092300000000002
 30
0.0
 10
2.5122
 20
1.10433
 30
0.0
 10
2.5045800000000003
 20
-0.18852
 30
0.0
 10
2.5045800000000003
 20
-0.18852
 30
0.0
 10
2.5706200000000003
 20
-0.33838
 30
0.0
 10
2.7230200000000004
 20
-0.4349
 30
0.0
 10
2.8957400000000004
 20
-0.4349
 30
0.0
 10
2.8957400000000004
 20
-0.4349
 30
0.0
 10
3.2615000000000003
 20
-0.40696
 30
0.0
 10
3.3885000000000001
 20
-0.03866
 30
0.0
 10
3.4393000000000002
 20
0.2737500000000001
 30
0.0
 10
3.4393000000000002
 20
0.2737500000000001
 30
0.0
 10
2.6036400000000004
 20
1.7317100000000001
 30
0.0
 10
2.33948
 20
4.17265
 30
0.0
 10
4.38164
 20
4.7873300000000008
 30
0.0
 10
4.38164
 20
4.7873300000000008
 30
0.0
 10
3.3402400000000001
 20
3.3547700000000003
 30
0.0
 10
4.4476800000000001
 20
1.36341
 30
0.0
 10
4.1200200000000002
 20
-0.22916
 30
0.0
 10
4.1200200000000002
 20
-0.22916
 30
0.0
 10
4.0057200000000002
 20
-0.4882400000000001
 30
0.0
 10
3.8279200000000002
 20
-0.7473200000000001
 30
0.0
 10
3.5612200000000005
 20
-0.8692400000000001
 30
0.0
 10
3.5612200000000005
 20
-0.8692400000000001
 30
0.0
 10
3.2310200000000004
 20
-1.0216400000000001
 30
0.0
 10
2.7738200000000002
 20
-1.1029200000000001
 30
0.0
 10
2.46394
 20
-0.8692400000000001
 30
0.0
 10
2.46394
 20
-0.8692400000000001
 30
0.0
 10
2.3064600000000004
 20
-1.3620000000000001
 30
0.0
 10
2.0931000000000002
 20
-1.8242800000000001
 30
0.0
 10
1.8365600000000002
 20
-2.2764000000000002
 30
0.0
 10
1.8365600000000002
 20
-2.2764000000000002
 30
0.0
 10
1.9508600000000003
 20
-2.3703800000000004
 30
0.0
 10
2.1261200000000002
 20
-2.4389600000000002
 30
0.0
 10
2.1591400000000003
 20
-2.6167600000000002
 30
0.0
 10
2.1591400000000003
 20
-2.6167600000000002
 30
0.0
 10
1.8746600000000002
 20
-3.3940000000000001
 30
0.0
 10
1.8619600000000001
 20
-4.4709600000000007
 30
0.0
 10
1.1228200000000002
 20
-4.9078400000000002
 30
0.0
 10
1.1228200000000002
 20
-4.9078400000000002
 30
0.0
 10
0.8154800000000001
 20
-4.8392600000000003
 30
0.0
 10
0.2135
 20
-4.8799000000000001
 30
0.0
 10
0.4522600000000001
 20
-4.40238
 30
0.0
 10
0.4522600000000001
 20
-4.40238
 30
0.0
 10
0.18556
 20
-4.4150800000000006
 30
0.0
 10
0.12206
 20
-4.1712400000000001
 30
0.0
 10
0.29478
 20
-3.9934400000000005
 30
0.0
 10
0.29478
 20
-3.9934400000000005
 30
0.0
 10
0.7494400000000001
 20
-3.8308800000000005
 30
0.0
 10
1.3361800000000001
 20
-3.7623000000000002
 30
0.0
 10
1.1761600000000001
 20
-3.0511000000000004
 30
0.0
 10
1.1761600000000001
 20
-3.0511000000000004
 30
0.0
 10
0.9831200000000001
 20
-2.8072600000000003
 30
0.0
 10
0.5462400000000001
 20
-2.8606000000000003
 30
0.0
 10
0.5056000000000001
 20
-2.4516600000000004
 30
0.0
 10
0.5056000000000001
 20
-2.4516600000000004
 30
0.0
 10
-0.29449
 20
-2.5075400000000001
 30
0.0
 10
-0.6272300000000001
 20
-1.6744200000000002
 30
0.0
 10
-0.6094500000000001
 20
-1.0064000000000002
 30
0.0
 10
-0.6094500000000001
 20
-1.0064000000000002
 30
0.0
 10
-0.7034300000000001
 20
-1.0521200000000002
 30
0.0
 10
-0.74153
 20
-1.3366
 30
0.0
 10
-0.7770900000000001
 20
-1.4356600000000002
 30
0.0
 10
-0.7770900000000001
 20
-1.4356600000000002
 30
0.0
 10
-0.94981
 20
-1.9208000000000001
 30
0.0
 10
-1.29779
 20
-2.0859000000000001
 30
0.0
 10
-1.8311900000000001
 20
-1.7709400000000002
 30
0.0
 10
-1.8311900000000001
 20
-1.7709400000000002
 30
0.0
 10
-2.1867900000000002
 20
-1.33406
 30
0.0
 10
-1.4324100000000002
 20
-1.12832
 30
0.0
 10
-1.4247900000000002
 20
-0.7066800000000001
 30
0.0
 10
-1.4247900000000002
 20
-0.7066800000000001
 30
0.0
 10
-1.8667500000000001
 20
-0.28504
 30
0.0
 10
-1.9531100000000001
 20
-1.0216400000000001
 30
0.0
 10
-2.1613900000000004
 20
-0.84384
 30
0.0
 10
-2.1613900000000004
 20
-0.84384
 30
0.0
 10
-2.1867900000000002
 20
-0.6381
 30
0.0
 10
-2.31379
 20
-0.47554
 30
0.0
 10
-2.2604500000000001
 20
-0.2571
 30
0.0
 10
-2.2604500000000001
 20
-0.2571
 30
0.0
 10
-2.3442700000000003
 20
-0.33838
 30
0.0
 10
-2.4179300000000001
 20
-0.4882400000000001
 30
0.0
 10
-2.4915900000000004
 20
-0.5974600000000001
 30
0.0
 10
-2.4915900000000004
 20
-0.5974600000000001
 30
0.0
 10
-3.1900900000000001
 20
-0.7473200000000001
 30
0.0
 10
-3.2764500000000001
 20
-1.5804400000000001
 30
0.0
 10
-3.2434300000000005
 20
-2.1671800000000001
 30
0.0
 10
-3.2434300000000005
 20
-2.1671800000000001
 30
0.0
 10
-3.4923500000000001
 20
-2.5354800000000002
 30
0.0
 10
-3.9038300000000001
 20
-2.6447000000000003
 30
0.0
 10
-4.3000700000000007
 20
-2.4516600000000004
 30
0.0
 10
-4.3000700000000007
 20
-2.4516600000000004
 30
0.0
 10
-4.34579
 20
-2.3856200000000003
 30
0.0
 10
-4.3915100000000002
 20
-2.3297400000000001
 30
0.0
 10
-4.3711900000000004
 20
-2.2484600000000001
 30
0.0
 10
-4.3711900000000004
 20
-2.2484600000000001
 30
0.0
 10
-3.7158700000000002
 20
-1.5398000000000001
 30
0.0
 10
-4.1425900000000002
 20
-0.37902
 30
0.0
 10
-3.3526500000000001
 20
0.23311
 30
0.0
 10
-3.3526500000000001
 20
0.23311
 30
0.0
 10
-3.2916900000000004
 20
0.39567
 30
0.0
 10
-3.2510500000000002
 20
0.55823
 30
0.0
 10
-3.2129500000000002
 20
0.7360300000000001
 30
0.0
 10
-3.2129500000000002
 20
0.7360300000000001
 30
0.0
 10
-3.6549100000000001
 20
1.7317100000000001
 30
0.0
 10
-3.5761700000000003
 20
3.1515700000000004
 30
0.0
 10
-2.5474700000000001
 20
3.9135700000000004
 30
0.0
 10
-2.5474700000000001
 20
3.9135700000000004
 30
0.0
 10
-2.6287500000000001
 20
4.2412300000000007
 30
0.0
 10
-2.4255500000000003
 20
4.6679500000000003
 30
0.0
 10
-2.18933
 20
4.9016300000000008
 30
0.0
  0
SPLINE
  5
26
100
AcDbEntity
  8
���� 1
 62
     7
100
AcDbSpline
210
0.0
220
0.0
230
1.0
 70
     1
 71
     3
 72
    16
 73
    12
 74
     0
 42
0.0000000001
 43
0.0000000001
 40
0.0
 40
0.0
 40
0.0
 40
0.0
 40
0.3333333333333333
 40
0.3333333333333333
 40
0.3333333333333333
 40
0.3333333333333333
 40
0.6666666666666666
 40
0.6666666666666666
 40
0.6666666666666666
 40
0.6666666666666666
 40
1.0
 40
1.0
 40
1.0
 40
1.0
 10
-2.18933
 20
4.7466900000000001
 30
0.0
 10
-2.0928100000000001
 20
4.7060500000000003
 30
0.0
 10
-2.0318500000000004
 20
4.5968300000000006
 30
0.0
 10
-1.9607300000000001
 20
4.5155500000000002
 30
0.0
 10
-1.9607300000000001
 20
4.5155500000000002
 30
0.0
 10
-2.0521700000000003
 20
4.55619
 30
0.0
 10
-2.1309100000000001
 20
4.6501700000000001
 30
0.0
 10
-2.2045700000000004
 20
4.71875
 30
0.0
 10
-2.2045700000000004
 20
4.71875
 30
0.0
 10
-2.2045700000000004
 20
4.71875
 30
0.0
 10
-2.18933
 20
4.7466900000000001
 30
0.0
 10
-2.18933
 20
4.7466900000000001
 30
0.0
  0
SPLINE
  5
27
100
AcDbEntity
  8
���� 1
 62
     7
100
AcDbSpline
210
0.0
220
0.0
230
1.0
 70
     1
 71
     3
 72
    16
 73
    12
 74
     0
 42
0.0000000001
 43
0.0000000001
 40
0.0
 40
0.0
 40
0.0
 40
0.0
 40
0.3333333333333333
 40
0.3333333333333333
 40
0.3333333333333333
 40
0.3333333333333333
 40
0.6666666666666666
 40
0.6666666666666666
 40
0.6666666666666666
 40
0.6666666666666666
 40
1.0
 40
1.0
 40
1.0
 40
1.0
 10
-0.5815100000000001
 20
4.3910900000000002
 30
0.0
 10
-0.5815100000000001
 20
4.3910900000000002
 30
0.0
 10
-0.7542300000000001
 20
4.4876100000000001
 30
0.0
 10
-0.7542300000000001
 20
4.4876100000000001
 30
0.0
 10
-0.7542300000000001
 20
4.4876100000000001
 30
0.0
 10
-0.7542300000000001
 20
4.4876100000000001
 30
0.0
 10
-0.6094500000000001
 20
4.5688900000000006
 30
0.0
 10
-0.6094500000000001
 20
4.5688900000000006
 30
0.0
 10
-0.6094500000000001
 20
4.5688900000000006
 30
0.0
 10
-0.6094500000000001
 20
4.5688900000000006
 30
0.0
 10
-0.5815100000000001
 20
4.3910900000000002
 30
0.0
 10
-0.5815100000000001
 20
4.3910900000000002
 30
0.0
  0
SPLINE
  5
28
100
AcDbEntity
  8
���� 1
 62
     7
100
AcDbSpline
210
0.0
220
0.0
230
1.0
 70
     1
 71
     3
 72
   300
 73
   296
 74
     0
 42
0.0000000001
 43
0.0000000001
 40
0.0
 40
0.0
 40
0.0
 40
0.0
 40
0.0135135135135135
 40
0.0135135135135135
 40
0.0135135135135135
 40
0.0135135135135135
 40
0.027027027027027
 40
0.027027027027027
 40
0.027027027027027
 40
0.027027027027027
 40
0.0405405405405405
 40
0.0405405405405405
 40
0.0405405405405405
 40
0.0405405405405405
 40
0.0540540540540541
 40
0.0540540540540541
 40
0.0540540540540541
 40
0.0540540540540541
 40
0.0675675675675676
 40
0.0675675675675676
 40
0.0675675675675676
 40
0.0675675675675676
 40
0.0810810810810811
 40
0.0810810810810811
 40
0.0810810810810811
 40
0.0810810810810811
 40
0.0945945945945946
 40
0.0945945945945946
 40
0.0945945945945946
 40
0.0945945945945946
 40
0.1081081081081081
 40
0.1081081081081081
 40
0.1081081081081081
 40
0.1081081081081081
 40
0.1216216216216216
 40
0.1216216216216216
 40
0.1216216216216216
 40
0.1216216216216216
 40
0.1351351351351351
 40
0.1351351351351351
 40
0.1351351351351351
 40
0.1351351351351351
 40
0.1486486486486487
 40
0.1486486486486487
 40
0.1486486486486487
 40
0.1486486486486487
 40
0.1621621621621622
 40
0.1621621621621622
 40
0.1621621621621622
 40
0.1621621621621622
 40
0.1756756756756757
 40
0.1756756756756757
 40
0.1756756756756757
 40
0.1756756756756757
 40
0.1891891891891892
 40
0.1891891891891892
 40
0.1891891891891892
 40
0.1891891891891892
 40
0.2027027027027027
 40
0.2027027027027027
 40
0.2027027027027027
 40
0.2027027027027027
 40
0.2162162162162162
 40
0.2162162162162162
 40
0.2162162162162162
 40
0.2162162162162162
 40
0.2297297297297297
 40
0.2297297297297297
 40
0.2297297297297297
 40
0.2297297297297297
 40
0.2432432432432433
 40
0.2432432432432433
 40
0.2432432432432433
 40
0.2432432432432433
 40
0.2567567567567568
 40
0.2567567567567568
 40
0.2567567567567568
 40
0.2567567567567568
 40
0.2702702702702703
 40
0.2702702702702703
 40
0.2702702702702703
 40
0.2702702702702703
 40
0.2837837837837838
 40
0.2837837837837838
 40
0.2837837837837838
 40
0.2837837837837838
 40
0.2972972972972973
 40
0.2972972972972973
 40
0.2972972972972973
 40
0.2972972972972973
 40
0.3108108108108107
 40
0.3108108108108107
 40
0.3108108108108107
 40
0.3108108108108107
 40
0.3243243243243242
 40
0.3243243243243242
 40
0.3243243243243242
 40
0.3243243243243242
 40
0.3378378378378377
 40
0.3378378378378377
 40
0.3378378378378377
 40
0.3378378378378377
 40
0.3513513513513512
 40
0.3513513513513512
 40
0.3513513513513512
 40
0.3513513513513512
 40
0.3648648648648647
 40
0.3648648648648647
 40
0.3648648648648647
 40
0.3648648648648647
 40
0.3783783783783782
 40
0.3783783783783782
 40
0.3783783783783782
 40
0.3783783783783782
 40
0.3918918918918917
 40
0.3918918918918917
 40
0.3918918918918917
 40
0.3918918918918917
 40
0.4054054054054052
 40
0.4054054054054052
 40
0.4054054054054052
 40
0.4054054054054052
 40
0.4189189189189186
 40
0.4189189189189186
 40
0.4189189189189186
 40
0.4189189189189186
 40
0.4324324324324321
 40
0.4324324324324321
 40
0.4324324324324321
 40
0.4324324324324321
 40
0.4459459459459456
 40
0.4459459459459456
 40
0.4459459459459456
 40
0.4459459459459456
 40
0.4594594594594591
 40
0.4594594594594591
 40
0.4594594594594591
 40
0.4594594594594591
 40
0.4729729729729726
 40
0.4729729729729726
 40
0.4729729729729726
 40
0.4729729729729726
 40
0.4864864864864861
 40
0.4864864864864861
 40
0.4864864864864861
 40
0.4864864864864861
 40
0.4999999999999996
 40
0.4999999999999996
 40
0.4999999999999996
 40
0.4999999999999996
 40
0.513513513513513
 40
0.513513513513513
 40
0.513513513513513
 40
0.513513513513513
 40
0.5270270270270265
 40
0.5270270270270265
 40
0.5270270270270265
 40
0.5270270270270265
 40
0.54054054054054
 40
0.54054054054054
 40
0.54054054054054
 40
0.54054054054054
 40
0.5540540540540535
 40
0.5540540540540535
 40
0.5540540540540535
 40
0.5540540540540535
 40
0.567567567567567
 40
0.567567567567567
 40
0.567567567567567
 40
0.567567567567567
 40
0.5810810810810805
 40
0.5810810810810805
 40
0.5810810810810805
 40
0.5810810810810805
 40
0.594594594594594
 40
0.594594594594594
 40
0.594594594594594
 40
0.594594594594594
 40
0.6081081081081075
 40
0.6081081081081075
 40
0.6081081081081075
 40
0.6081081081081075
 40
0.6216216216216209
 40
0.6216216216216209
 40
0.6216216216216209
 40
0.6216216216216209
 40
0.6351351351351344
 40
0.6351351351351344
 40
0.6351351351351344
 40
0.6351351351351344
 40
0.6486486486486479
 40
0.6486486486486479
 40
0.6486486486486479
 40
0.6486486486486479
 40
0.6621621621621614
 40
0.6621621621621614
 40
0.6621621621621614
 40
0.6621621621621614
 40
0.6756756756756749
 40
0.6756756756756749
 40
0.6756756756756749
 40
0.6756756756756749
 40
0.6891891891891884
 40
0.6891891891891884
 40
0.6891891891891884
 40
0.6891891891891884
 40
0.7027027027027019
 40
0.7027027027027019
 40
0.7027027027027019
 40
0.7027027027027019
 40
0.7162162162162153
 40
0.7162162162162153
 40
0.7162162162162153
 40
0.7162162162162153
 40
0.7297297297297288
 40
0.7297297297297288
 40
0.7297297297297288
 40
0.7297297297297288
 40
0.7432432432432423
 40
0.7432432432432423
 40
0.7432432432432423
 40
0.7432432432432423
 40
0.7567567567567558
 40
0.7567567567567558
 40
0.7567567567567558
 40
0.7567567567567558
 40
0.7702702702702693
 40
0.7702702702702693
 40
0.7702702702702693
 40
0.7702702702702693
 40
0.7837837837837828
 40
0.7837837837837828
 40
0.7837837837837828
 40
0.7837837837837828
 40
0.7972972972972963
 40
0.7972972972972963
 40
0.7972972972972963
 40
0.7972972972972963
 40
0.8108108108108098
 40
0.8108108108108098
 40
0.8108108108108098
 40
0.8108108108108098
 40
0.8243243243243232
 40
0.8243243243243232
 40
0.8243243243243232
 40
0.8243243243243232
 40
0.8378378378378367
 40
0.8378378378378367
 40
0.8378378378378367
 40
0.8378378378378367
 40
0.8513513513513502
 40
0.8513513513513502
 40
0.8513513513513502
 40
0.8513513513513502
 40
0.8648648648648637
 40
0.8648648648648637
 40
0.8648648648648637
 40
0.8648648648648637
 40
0.8783783783783772
 40
0.8783783783783772
 40
0.8783783783783772
 40
0.8783783783783772
 40
0.8918918918918907
 40
0.8918918918918907
 40
0.8918918918918907
 40
0.8918918918918907
 40
0.9054054054054042
 40
0.9054054054054042
 40
0.9054054054054042
 40
0.9054054054054042
 40
0.9189189189189176
 40
0.9189189189189176
 40
0.9189189189189176
 40
0.9189189189189176
 40
0.9324324324324311
 40
0.9324324324324311
 40
0.9324324324324311
 40
0.9324324324324311
 40
0.9459459459459446
 40
0.9459459459459446
 40
0.9459459459459446
 40
0.9459459459459446
 40
0.9594594594594581
 40
0.9594594594594581
 40
0.9594594594594581
 40
0.9594594594594581
 40
0.9729729729729716
 40
0.9729729729729716
 40
0.9729729729729716
 40
0.9729729729729716
 40
0.9864864864864851
 40
0.9864864864864851
 40
0.9864864864864851
 40
0.9864864864864851
 40
1.0
 40
1.0
 40
1.0
 40
1.0
 10
1.8035400000000001
 20
-1.9487400000000001
 30
0.0
 10
1.8035400000000001
 20
-1.9487400000000001
 30
0.0
 10
1.8289400000000002
 20
-1.7836400000000001
 30
0.0
 10
1.8289400000000002
 20
-1.7836400000000001
 30
0.0
 10
1.8289400000000002
 20
-1.7836400000000001
 30
0.0
 10
1.4174600000000002
 20
-2.2078200000000003
 30
0.0
 10
1.8060800000000001
 20
-2.7666200000000001
 30
0.0
 10
1.9534000000000002
 20
-3.2035000000000005
 30
0.0
 10
1.9534000000000002
 20
-3.2035000000000005
 30
0.0
 10
1.4581000000000002
 20
-3.9401000000000002
 30
0.0
 10
1.65368
 20
-4.4989000000000008
 30
0.0
 10
1.0720200000000002
 20
-4.8265600000000006
 30
0.0
 10
1.0720200000000002
 20
-4.8265600000000006
 30
0.0
 10
1.0364600000000002
 20
-4.7579800000000008
 30
0.0
 10
1.0517000000000001
 20
-4.6614600000000008
 30
0.0
 10
1.0847200000000001
 20
-4.5928800000000001
 30
0.0
 10
1.0847200000000001
 20
-4.5928800000000001
 30
0.0
 10
1.09996
 20
-4.5243000000000002
 30
0.0
 10
1.23458
 20
-4.5116000000000005
 30
0.0
 10
1.2218800000000001
 20
-4.4430200000000006
 30
0.0
 10
1.2218800000000001
 20
-4.4430200000000006
 30
0.0
 10
1.0110600000000001
 20
-4.5243000000000002
 30
0.0
 10
0.64276
 20
-5.1135800000000007
 30
0.0
 10
0.7926200000000001
 20
-4.5243000000000002
 30
0.0
 10
0.7926200000000001
 20
-4.5243000000000002
 30
0.0
 10
1.0110600000000001
 20
-4.0340800000000003
 30
0.0
 10
0.34812
 20
-5.0983400000000003
 30
0.0
 10
0.5386200000000001
 20
-4.4430200000000006
 30
0.0
 10
0.5386200000000001
 20
-4.4430200000000006
 30
0.0
 10
0.6961000000000001
 20
-4.2118800000000007
 30
0.0
 10
0.9729600000000001
 20
-4.40238
 30
0.0
 10
1.18886
 20
-4.3617400000000002
 30
0.0
 10
1.18886
 20
-4.3617400000000002
 30
0.0
 10
1.1583800000000002
 20
-4.2652200000000002
 30
0.0
 10
0.9907400000000001
 20
-4.2931600000000003
 30
0.0
 10
0.93232
 20
-4.2118800000000007
 30
0.0
 10
0.93232
 20
-4.2118800000000007
 30
0.0
 10
1.2091800000000001
 20
-3.6124400000000003
 30
0.0
 10
1.7044800000000002
 20
-2.6167600000000002
 30
0.0
 10
0.8129400000000001
 20
-2.6701000000000001
 30
0.0
 10
0.8129400000000001
 20
-2.6701000000000001
 30
0.0
 10
0.71896
 20
-2.5354800000000002
 30
0.0
 10
0.6478400000000001
 20
-2.39832
 30
0.0
 10
0.6224400000000001
 20
-2.2484600000000001
 30
0.0
 10
0.6224400000000001
 20
-2.2484600000000001
 30
0.0
 10
0.6478400000000001
 20
-1.7150600000000003
 30
0.0
 10
1.0110600000000001
 20
-0.5161800000000001
 30
0.0
 10
0.15254
 20
-0.61016
 30
0.0
 10
0.15254
 20
-0.61016
 30
0.0
 10
0.38114
 20
-0.61016
 30
0.0
 10
0.51322
 20
-0.8032
 30
0.0
 10
0.50814
 20
-1.03434
 30
0.0
 10
0.50814
 20
-1.03434
 30
0.0
 10
0.17794
 20
-1.1029200000000001
 30
0.0
 10
-0.27163
 20
-0.9784600000000001
 30
0.0
 10
-0.52563
 20
-0.76002
 30
0.0
 10
-0.52563
 20
-0.76002
 30
0.0
 10
-0.52563
 20
-0.76002
 30
0.0
 10
-0.35799
 20
-0.47554
 30
0.0
 10
-0.35799
 20
-0.47554
 30
0.0
 10
-0.35799
 20
-0.47554
 30
0.0
 10
0.5487800000000001
 20
-0.6660400000000001
 30
0.0
 10
0.65546
 20
0.31439
 30
0.0
 10
0.3557400000000001
 20
1.0357500000000002
 30
0.0
 10
0.3557400000000001
 20
1.0357500000000002
 30
0.0
 10
0.24398
 20
1.22879
 30
0.0
 10
0.23128
 20
1.5005700000000002
 30
0.0
 10
0.0992
 20
1.6504300000000001
 30
0.0
 10
0.0992
 20
1.6504300000000001
 30
0.0
 10
0.13984
 20
1.1322700000000001
 30
0.0
 10
0.5894200000000001
 20
0.43631
 30
0.0
 10
0.25922
 20
-0.14788
 30
0.0
 10
0.25922
 20
-0.14788
 30
0.0
 10
0.20842
 20
-0.21646
 30
0.0
 10
0.14492
 20
-0.24186
 30
0.0
 10
0.05856
 20
-0.22916
 30
0.0
 10
0.05856
 20
-0.22916
 30
0.0
 10
-0.22337
 20
-0.21646
 30
0.0
 10
-0.25385
 20
-0.18852
 30
0.0
 10
-0.12939
 20
0.05531
 30
0.0
 10
-0.12939
 20
0.05531
 30
0.0
 10
-0.9244100000000001
 20
-0.61016
 30
0.0
 10
-0.6678700000000001
 20
-1.21214
 30
0.0
 10
-1.0996700000000001
 20
-1.7836400000000001
 30
0.0
 10
-1.0996700000000001
 20
-1.7836400000000001
 30
0.0
 10
-1.16317
 20
-1.7836400000000001
 30
0.0
 10
-1.2368300000000001
 20
-1.7582400000000002
 30
0.0
 10
-1.2749300000000001
 20
-1.7023600000000001
 30
0.0
 10
-1.2749300000000001
 20
-1.7023600000000001
 30
0.0
 10
-1.2749300000000001
 20
-1.7023600000000001
 30
0.0
 10
-1.2215900000000002
 20
-1.5525000000000002
 30
0.0
 10
-1.2215900000000002
 20
-1.5525000000000002
 30
0.0
 10
-1.2215900000000002
 20
-1.5525000000000002
 30
0.0
 10
-1.1072900000000001
 20
-1.12832
 30
0.0
 10
-1.5695700000000001
 20
-2.0986000000000002
 30
0.0
 10
-1.6051300000000002
 20
-1.5525000000000002
 30
0.0
 10
-1.6051300000000002
 20
-1.5525000000000002
 30
0.0
 10
-1.58735
 20
-1.4839200000000001
 30
0.0
 10
-1.3943100000000002
 20
-1.3467600000000002
 30
0.0
 10
-1.54925
 20
-1.33406
 30
0.0
 10
-1.54925
 20
-1.33406
 30
0.0
 10
-1.6889500000000002
 20
-1.3747
 30
0.0
 10
-1.6965700000000001
 20
-1.6210800000000001
 30
0.0
 10
-1.7905500000000001
 20
-1.6617200000000001
 30
0.0
 10
-1.7905500000000001
 20
-1.6617200000000001
 30
0.0
 10
-1.8489700000000002
 20
-1.6058400000000002
 30
0.0
 10
-1.8565900000000002
 20
-1.5245600000000001
 30
0.0
 10
-1.8438900000000003
 20
-1.4432800000000001
 30
0.0
 10
-1.8438900000000003
 20
-1.4432800000000001
 30
0.0
 10
-1.1733300000000002
 20
-1.0216400000000001
 30
0.0
 10
-1.3282700000000001
 20
0.20517
 30
0.0
 10
-0.4062500000000001
 20
0.20517
 30
0.0
 10
-0.4062500000000001
 20
0.20517
 30
0.0
 10
-0.6500900000000001
 20
0.39567
 30
0.0
 10
-0.47737
 20
0.8173100000000001
 30
0.0
 10
-0.40371
 20
1.0916300000000001
 30
0.0
 10
-0.40371
 20
1.0916300000000001
 30
0.0
 10
-0.37069
 20
1.2668900000000001
 30
0.0
 10
-0.28179
 20
1.5132700000000001
 30
0.0
 10
-0.41133
 20
1.6631300000000002
 30
0.0
 10
-0.41133
 20
1.6631300000000002
 30
0.0
 10
-0.33767
 20
1.1195700000000002
 30
0.0
 10
-0.8177300000000001
 20
0.7512700000000001
 30
0.0
 10
-0.9447300000000001
 20
0.29915
 30
0.0
 10
-0.9447300000000001
 20
0.29915
 30
0.0
 10
-0.86853
 20
0.33979
 30
0.0
 10
-0.8101100000000001
 20
0.53029
 30
0.0
 10
-0.7466100000000001
 20
0.51759
 30
0.0
 10
-0.7466100000000001
 20
0.51759
 30
0.0
 10
-0.7466100000000001
 20
0.51759
 30
0.0
 10
-0.7720100000000001
 20
0.44901
 30
0.0
 10
-0.7720100000000001
 20
0.44901
 30
0.0
 10
-0.7720100000000001
 20
0.44901
 30
0.0
 10
-0.8405900000000001
 20
0.31439
 30
0.0
 10
-0.8837700000000001
 20
0.14929
 30
0.0
 10
-1.03871
 20
0.08071
 30
0.0
 10
-1.03871
 20
0.08071
 30
0.0
 10
-1.08443
 20
0.01467
 30
0.0
 10
-1.1555500000000001
 20
-0.00056
 30
0.0
 10
-1.2215900000000002
 20
-0.02596
 30
0.0
 10
-1.2215900000000002
 20
-0.02596
 30
0.0
 10
-1.29017
 20
-0.03866
 30
0.0
 10
-1.4857500000000001
 20
-0.18852
 30
0.0
 10
-1.4501900000000001
 20
-0.0793
 30
0.0
 10
-1.4501900000000001
 20
-0.0793
 30
0.0
 10
-1.1555500000000001
 20
0.55823
 30
0.0
 10
-2.0826500000000001
 20
-0.8159000000000001
 30
0.0
 10
-1.9454900000000002
 20
-0.4882400000000001
 30
0.0
 10
-1.9454900000000002
 20
-0.4882400000000001
 30
0.0
 10
-1.8870700000000002
 20
-0.3104400000000001
 30
0.0
 10
-1.8616700000000002
 20
-0.11994
 30
0.0
 10
-1.7524500000000001
 20
0.02737
 30
0.0
 10
-1.7524500000000001
 20
0.02737
 30
0.0
 10
-1.8743700000000001
 20
0.05785
 30
0.0
 10
-1.9658100000000001
 20
-0.17328
 30
0.0
 10
-2.0369300000000004
 20
-0.3841000000000001
 30
0.0
 10
-2.0369300000000004
 20
-0.3841000000000001
 30
0.0
 10
-2.0623300000000002
 20
-0.4603
 30
0.0
 10
-2.0674100000000002
 20
-0.5746
 30
0.0
 10
-2.1309100000000001
 20
-0.5974600000000001
 30
0.0
 10
-2.1309100000000001
 20
-0.5974600000000001
 30
0.0
 10
-2.0572500000000002
 20
0.68269
 30
0.0
 10
-3.1342100000000004
 20
0.5861700000000001
 30
0.0
 10
-3.2281900000000001
 20
1.6504300000000001
 30
0.0
 10
-3.2281900000000001
 20
1.6504300000000001
 30
0.0
 10
-3.3221700000000003
 20
1.7596500000000002
 30
0.0
 10
-3.3374100000000002
 20
1.40405
 30
0.0
 10
-3.3907500000000002
 20
1.5970900000000001
 30
0.0
 10
-3.3907500000000002
 20
1.5970900000000001
 30
0.0
 10
-3.3297900000000005
 20
2.1152500000000001
 30
0.0
 10
-3.2535900000000004
 20
2.6588100000000003
 30
0.0
 10
-2.9157700000000002
 20
3.0677500000000002
 30
0.0
 10
-2.9157700000000002
 20
3.0677500000000002
 30
0.0
 10
-3.4136100000000003
 20
2.8366100000000003
 30
0.0
 10
-2.5804900000000002
 20
4.0786700000000007
 30
0.0
 10
-2.2045700000000004
 20
3.6417900000000003
 30
0.0
 10
-2.2045700000000004
 20
3.6417900000000003
 30
0.0
 10
-2.1207500000000001
 20
3.8322900000000004
 30
0.0
 10
-2.4331700000000001
 20
4.03803
 30
0.0
 10
-2.27061
 20
4.2539300000000004
 30
0.0
 10
-2.27061
 20
4.2539300000000004
 30
0.0
 10
-2.2731500000000002
 20
4.1193100000000005
 30
0.0
 10
-2.1639300000000001
 20
3.7357700000000005
 30
0.0
 10
-1.9734300000000002
 20
3.9135700000000004
 30
0.0
 10
-1.9734300000000002
 20
3.9135700000000004
 30
0.0
 10
-2.1740900000000001
 20
4.1599500000000003
 30
0.0
 10
-2.0191500000000002
 20
4.0786700000000007
 30
0.0
 10
-1.8235700000000001
 20
4.1193100000000005
 30
0.0
 10
-1.8235700000000001
 20
4.1193100000000005
 30
0.0
 10
-1.8184900000000002
 20
4.2132900000000006
 30
0.0
 10
-1.9556500000000001
 20
4.2285300000000001
 30
0.0
 10
-1.9658100000000001
 20
4.3250500000000001
 30
0.0
 10
-1.9658100000000001
 20
4.3250500000000001
 30
0.0
 10
-1.8007100000000003
 20
4.2818700000000005
 30
0.0
 10
-1.6406900000000002
 20
4.3758500000000007
 30
0.0
 10
-1.46035
 20
4.42157
 30
0.0
 10
-1.46035
 20
4.42157
 30
0.0
 10
-1.1809500000000002
 20
4.4926900000000005
 30
0.0
 10
-0.8761500000000001
 20
4.5180899999999999
 30
0.0
 10
-0.6094500000000001
 20
4.3098100000000006
 30
0.0
 10
-0.6094500000000001
 20
4.3098100000000006
 30
0.0
 10
-0.05827
 20
3.8322900000000004
 30
0.0
 10
-0.5027700000000001
 20
3.3674700000000004
 30
0.0
 10
-0.07097
 20
2.8899500000000002
 30
0.0
 10
-0.07097
 20
2.8899500000000002
 30
0.0
 10
0.04078
 20
2.6740500000000003
 30
0.0
 10
0.404
 20
2.2625700000000002
 30
0.0
 10
-0.07097
 20
2.3717900000000003
 30
0.0
 10
-0.07097
 20
2.3717900000000003
 30
0.0
 10
0.19826
 20
1.8561700000000001
 30
0.0
 10
-0.5205500000000001
 20
2.3997300000000004
 30
0.0
 10
-0.74407
 20
2.50895
 30
0.0
 10
-0.74407
 20
2.50895
 30
0.0
 10
-1.3079500000000002
 20
2.5927700000000002
 30
0.0
 10
-0.76185
 20
2.3311500000000001
 30
0.0
 10
-0.51039
 20
2.2625700000000002
 30
0.0
 10
-0.51039
 20
2.2625700000000002
 30
0.0
 10
0.18048
 20
1.8409300000000002
 30
0.0
 10
-0.9269500000000001
 20
2.50895
 30
0.0
 10
-1.2444500000000001
 20
2.3057500000000002
 30
0.0
 10
-1.2444500000000001
 20
2.3057500000000002
 30
0.0
 10
-1.5695700000000001
 20
2.1812900000000002
 30
0.0
 10
-1.9937500000000001
 20
2.3311500000000001
 30
0.0
 10
-2.0420100000000003
 20
2.6994500000000001
 30
0.0
 10
-2.0420100000000003
 20
2.6994500000000001
 30
0.0
 10
-2.22235
 20
2.2625700000000002
 30
0.0
 10
-2.2604500000000001
 20
2.9178900000000003
 30
0.0
 10
-2.4026900000000002
 20
2.9458300000000004
 30
0.0
 10
-2.4026900000000002
 20
2.9458300000000004
 30
0.0
 10
-2.4585700000000004
 20
3.1769700000000003
 30
0.0
 10
-2.2299700000000002
 20
3.3827100000000003
 30
0.0
 10
-2.2477500000000004
 20
3.5732100000000004
 30
0.0
 10
-2.2477500000000004
 20
3.5732100000000004
 30
0.0
 10
-2.3239500000000004
 20
3.3954100000000005
 30
0.0
 10
-2.48651
 20
3.2455500000000002
 30
0.0
 10
-2.5373100000000002
 20
3.0753700000000004
 30
0.0
 10
-2.5373100000000002
 20
3.0753700000000004
 30
0.0
 10
-2.77861
 20
2.2447900000000001
 30
0.0
 10
-2.6312900000000004
 20
1.5005700000000002
 30
0.0
 10
-2.2401300000000002
 20
0.70301
 30
0.0
 10
-2.2401300000000002
 20
0.70301
 30
0.0
 10
-2.2045700000000004
 20
0.6293500000000001
 30
0.0
 10
-2.1817100000000003
 20
0.4845700000000001
 30
0.0
 10
-2.0953500000000003
 20
0.47695
 30
0.0
 10
-2.0953500000000003
 20
0.47695
 30
0.0
 10
-2.2426700000000004
 20
0.7919100000000001
 30
0.0
 10
-2.3061700000000003
 20
1.14497
 30
0.0
 10
-2.3671300000000004
 20
1.48787
 30
0.0
 10
-2.3671300000000004
 20
1.48787
 30
0.0
 10
-2.4941300000000002
 20
1.7469500000000002
 30
0.0
 10
-2.1359900000000001
 20
2.24987
 30
0.0
 10
-2.3214100000000002
 20
2.2625700000000002
 30
0.0
 10
-2.3214100000000002
 20
2.2625700000000002
 30
0.0
 10
-2.36205
 20
2.2092300000000002
 30
0.0
 10
-2.3849100000000001
 20
2.1406500000000004
 30
0.0
 10
-2.44333
 20
2.1279500000000002
 30
0.0
 10
-2.44333
 20
2.1279500000000002
 30
0.0
 10
-2.40015
 20
2.2371700000000003
 30
0.0
 10
-2.3722100000000004
 20
2.3717900000000003
 30
0.0
 10
-2.2858500000000004
 20
2.4683100000000002
 30
0.0
 10
-2.2858500000000004
 20
2.4683100000000002
 30
0.0
 10
-1.9277100000000003
 20
2.0466700000000002
 30
0.0
 10
-1.3587500000000001
 20
2.2778100000000001
 30
0.0
 10
-0.9625100000000001
 20
2.1558900000000003
 30
0.0
 10
-0.9625100000000001
 20
2.1558900000000003
 30
0.0
 10
-0.8151900000000001
 20
1.9476100000000001
 30
0.0
 10
-0.91171
 20
1.40405
 30
0.0
 10
-1.0945900000000002
 20
1.0052700000000001
 30
0.0
 10
-1.0945900000000002
 20
1.0052700000000001
 30
0.0
 10
-1.1174500000000001
 20
0.95447
 30
0.0
 10
-1.2292100000000001
 20
0.8579500000000001
 30
0.0
 10
-1.16317
 20
0.8452500000000001
 30
0.0
 10
-1.16317
 20
0.8452500000000001
 30
0.0
 10
-1.0183900000000001
 20
0.9824100000000001
 30
0.0
 10
-0.9625100000000001
 20
1.2008500000000002
 30
0.0
 10
-0.84821
 20
1.3786500000000002
 30
0.0
 10
-0.84821
 20
1.3786500000000002
 30
0.0
 10
-0.6856500000000001
 20
1.6504300000000001
 30
0.0
 10
-0.7923300000000001
 20
1.0509900000000001
 30
0.0
 10
-0.8939300000000001
 20
0.9417700000000001
 30
0.0
 10
-0.8939300000000001
 20
0.9417700000000001
 30
0.0
 10
-1.1504700000000001
 20
0.47695
 30
0.0
 10
-1.2190500000000002
 20
-0.03866
 30
0.0
 10
-0.88885
 20
0.6953900000000001
 30
0.0
 10
-0.88885
 20
0.6953900000000001
 30
0.0
 10
-0.50531
 20
1.1195700000000002
 30
0.0
 10
-0.69835
 20
1.6351900000000001
 30
0.0
 10
-0.6704100000000001
 20
2.1406500000000004
 30
0.0
 10
-0.6704100000000001
 20
2.1406500000000004
 30
0.0
 10
-0.48753
 20
2.1279500000000002
 30
0.0
 10
-0.35799
 20
1.9374500000000001
 30
0.0
 10
-0.15733
 20
1.9780900000000001
 30
0.0
 10
-0.15733
 20
1.9780900000000001
 30
0.0
 10
2.0423
 20
2.8086700000000002
 30
0.0
 10
3.0710000000000002
 20
-0.4882400000000001
 30
0.0
 10
1.8035400000000001
 20
-1.9487400000000001
 30
0.0
  0
SPLINE
  5
29
100
AcDbEntity
  8
���� 1
 62
     7
100
AcDbSpline
210
0.0
220
0.0
230
1.0
 70
     1
 71
     3
 72
    68
 73
    64
 74
     0
 42
0.0000000001
 43
0.0000000001
 40
0.0
 40
0.0
 40
0.0
 40
0.0
 40
0.0625
 40
0.0625
 40
0.0625
 40
0.0625
 40
0.125
 40
0.125
 40
0.125
 40
0.125
 40
0.1875
 40
0.1875
 40
0.1875
 40
0.1875
 40
0.25
 40
0.25
 40
0.25
 40
0.25
 40
0.3125
 40
0.3125
 40
0.3125
 40
0.3125
 40
0.375
 40
0.375
 40
0.375
 40
0.375
 40
0.4375
 40
0.4375
 40
0.4375
 40
0.4375
 40
0.5
 40
0.5
 40
0.5
 40
0.5
 40
0.5625
 40
0.5625
 40
0.5625
 40
0.5625
 40
0.625
 40
0.625
 40
0.625
 40
0.625
 40
0.6875
 40
0.6875
 40
0.6875
 40
0.6875
 40
0.75
 40
0.75
 40
0.75
 40
0.75
 40
0.8125
 40
0.8125
 40
0.8125
 40
0.8125
 40
0.875
 40
0.875
 40
0.875
 40
0.875
 40
0.9375
 40
0.9375
 40
0.9375
 40
0.9375
 40
1.0
 40
1.0
 40
1.0
 40
1.0
 10
3.9727000000000001
 20
4.3910900000000002
 30
0.0
 10
3.9727000000000001
 20
4.3910900000000002
 30
0.0
 10
3.9320600000000003
 20
4.3098100000000006
 30
0.0
 10
3.9320600000000003
 20
4.3098100000000006
 30
0.0
 10
3.9320600000000003
 20
4.3098100000000006
 30
0.0
 10
3.9320600000000003
 20
4.2818700000000005
 30
0.0
 10
3.9168200000000004
 20
4.2691699999999999
 30
0.0
 10
3.9015800000000005
 20
4.2412300000000007
 30
0.0
 10
3.9015800000000005
 20
4.2412300000000007
 30
0.0
 10
3.9015800000000005
 20
4.2412300000000007
 30
0.0
 10
3.8634800000000005
 20
4.17265
 30
0.0
 10
3.8634800000000005
 20
4.17265
 30
0.0
 10
3.8634800000000005
 20
4.17265
 30
0.0
 10
3.8634800000000005
 20
4.17265
 30
0.0
 10
3.8076000000000003
 20
4.0634300000000003
 30
0.0
 10
3.8076000000000003
 20
4.0634300000000003
 30
0.0
 10
3.8076000000000003
 20
4.0634300000000003
 30
0.0
 10
3.8431600000000001
 20
3.9948500000000005
 30
0.0
 10
3.9219000000000004
 20
4.1320100000000002
 30
0.0
 10
3.9422200000000003
 20
4.1878900000000003
 30
0.0
 10
3.9422200000000003
 20
4.1878900000000003
 30
0.0
 10
3.9422200000000003
 20
4.1878900000000003
 30
0.0
 10
4.0793800000000005
 20
4.3631500000000001
 30
0.0
 10
4.0793800000000005
 20
4.3631500000000001
 30
0.0
 10
4.0793800000000005
 20
4.3631500000000001
 30
0.0
 10
3.6272600000000002
 20
3.5605100000000003
 30
0.0
 10
3.8253800000000004
 20
2.4835500000000001
 30
0.0
 10
3.8203000000000005
 20
1.6631300000000002
 30
0.0
 10
3.8203000000000005
 20
1.6631300000000002
 30
0.0
 10
3.6958400000000005
 20
1.8942700000000001
 30
0.0
 10
3.5967800000000003
 20
2.1558900000000003
 30
0.0
 10
3.5917000000000003
 20
2.42767
 30
0.0
 10
3.5917000000000003
 20
2.42767
 30
0.0
 10
3.4062800000000002
 20
2.50895
 30
0.0
 10
3.5358200000000002
 20
1.9780900000000001
 30
0.0
 10
3.4672400000000003
 20
1.8282300000000002
 30
0.0
 10
3.4672400000000003
 20
1.8282300000000002
 30
0.0
 10
3.3275400000000004
 20
2.0466700000000002
 30
0.0
 10
3.2538800000000001
 20
2.3184500000000003
 30
0.0
 10
3.2234000000000003
 20
2.5927700000000002
 30
0.0
 10
3.2234000000000003
 20
2.5927700000000002
 30
0.0
 10
3.2640400000000001
 20
2.7959700000000001
 30
0.0
 10
3.0811600000000001
 20
2.97377
 30
0.0
 10
3.1421200000000002
 20
2.6740500000000003
 30
0.0
 10
3.1421200000000002
 20
2.6740500000000003
 30
0.0
 10
3.1446600000000005
 20
2.4683100000000002
 30
0.0
 10
3.1040200000000002
 20
2.2244700000000002
 30
0.0
 10
3.0862400000000001
 20
2.0466700000000002
 30
0.0
 10
3.0862400000000001
 20
2.0466700000000002
 30
0.0
 10
2.7763600000000004
 20
2.7400900000000004
 30
0.0
 10
2.9973400000000003
 20
3.6011500000000001
 30
0.0
 10
3.5409000000000002
 20
4.1320100000000002
 30
0.0
 10
3.5409000000000002
 20
4.1320100000000002
 30
0.0
 10
3.5688400000000002
 20
4.1599500000000003
 30
0.0
 10
3.5967800000000003
 20
4.2132900000000006
 30
0.0
 10
3.6425000000000005
 20
4.2412300000000007
 30
0.0
 10
3.6425000000000005
 20
4.2412300000000007
 30
0.0
 10
3.5332800000000004
 20
3.9415100000000005
 30
0.0
 10
3.4012000000000002
 20
3.6417900000000003
 30
0.0
 10
3.3224600000000004
 20
3.3293700000000004
 30
0.0
 10
3.3224600000000004
 20
3.3293700000000004
 30
0.0
 10
3.5129600000000001
 20
3.6824300000000001
 30
0.0
 10
3.6323400000000001
 20
4.1320100000000002
 30
0.0
 10
3.9727000000000001
 20
4.3910900000000002
 30
0.0
  0
SPLINE
  5
2A
100
AcDbEntity
  8
���� 1
100
AcDbSpline
210
0.0
220
0.0
230
1.0
 70
     1
 71
     3
 72
    20
 73
    16
 74
     0
 42
0.0000000001
 43
0.0000000001
 40
0.0
 40
0.0
 40
0.0
 40
0.0
 40
0.25
 40
0.25
 40
0.25
 40
0.25
 40
0.5
 40
0.5
 40
0.5
 40
0.5
 40
0.75
 40
0.75
 40
0.75
 40
0.75
 40
1.0
 40
1.0
 40
1.0
 40
1.0
 10
-0.9904500000000001
 20
3.9821500000000003
 30
0.0
 10
-0.9142500000000001
 20
3.9135700000000004
 30
0.0
 10
-0.9040900000000001
 20
3.7510100000000004
 30
0.0
 10
-0.8964700000000001
 20
3.6265500000000004
 30
0.0
 10
-0.8964700000000001
 20
3.6265500000000004
 30
0.0
 10
-0.9650500000000001
 20
3.5452700000000004
 30
0.0
 10
-1.0996700000000001
 20
3.4919300000000004
 30
0.0
 10
-1.1911100000000001
 20
3.5452700000000004
 30
0.0
 10
-1.1911100000000001
 20
3.5452700000000004
 30
0.0
 10
-1.1911100000000001
 20
3.5452700000000004
 30
0.0
 10
-1.1911100000000001
 20
3.6138500000000002
 30
0.0
 10
-1.1911100000000001
 20
3.6138500000000002
 30
0.0
 10
-1.1911100000000001
 20
3.6138500000000002
 30
0.0
 10
-1.0285500000000001
 20
3.6697300000000004
 30
0.0
 10
-0.9828300000000001
 20
3.8195900000000003
 30
0.0
 10
-0.9904500000000001
 20
3.9821500000000003
 30
0.0
  0
SPLINE
  5
2B
100
AcDbEntity
  8
���� 1
100
AcDbSpline
210
0.0
220
0.0
230
1.0
 70
     1
 71
     3
 72
    32
 73
    28
 74
     0
 42
0.0000000001
 43
0.0000000001
 40
0.0
 40
0.0
 40
0.0
 40
0.0
 40
0.1428571428571429
 40
0.1428571428571429
 40
0.1428571428571429
 40
0.1428571428571429
 40
0.2857142857142857
 40
0.2857142857142857
 40
0.2857142857142857
 40
0.2857142857142857
 40
0.4285714285714286
 40
0.4285714285714286
 40
0.4285714285714286
 40
0.4285714285714286
 40
0.5714285714285714
 40
0.5714285714285714
 40
0.5714285714285714
 40
0.5714285714285714
 40
0.7142857142857142
 40
0.7142857142857142
 40
0.7142857142857142
 40
0.7142857142857142
 40
0.857142857142857
 40
0.857142857142857
 40
0.857142857142857
 40
0.857142857142857
 40
1.0
 40
1.0
 40
1.0
 40
1.0
 10
-0.6881900000000001
 20
3.7510100000000004
 30
0.0
 10
-0.65517
 20
3.6265500000000004
 30
0.0
 10
-0.44435
 20
3.2328500000000004
 30
0.0
 10
-0.69835
 20
3.2861900000000004
 30
0.0
 10
-0.69835
 20
3.2861900000000004
 30
0.0
 10
-0.6856500000000001
 20
3.1642700000000001
 30
0.0
 10
-0.7516900000000001
 20
3.0677500000000002
 30
0.0
 10
-0.8405900000000001
 20
3.1922100000000002
 30
0.0
 10
-0.8405900000000001
 20
3.1922100000000002
 30
0.0
 10
-0.9574300000000001
 20
3.1769700000000003
 30
0.0
 10
-1.07681
 20
3.2201500000000003
 30
0.0
 10
-1.0742700000000001
 20
3.3674700000000004
 30
0.0
 10
-1.0742700000000001
 20
3.3674700000000004
 30
0.0
 10
-1.1098300000000001
 20
3.3827100000000003
 30
0.0
 10
-1.1834900000000002
 20
3.3547700000000003
 30
0.0
 10
-1.1809500000000002
 20
3.4106500000000004
 30
0.0
 10
-1.1809500000000002
 20
3.4106500000000004
 30
0.0
 10
-1.0945900000000002
 20
3.4766900000000005
 30
0.0
 10
-0.9802900000000001
 20
3.4919300000000004
 30
0.0
 10
-0.8786900000000001
 20
3.5198700000000005
 30
0.0
 10
-0.8786900000000001
 20
3.5198700000000005
 30
0.0
 10
-0.7923300000000001
 20
3.5046300000000001
 30
0.0
 10
-0.7059700000000001
 20
3.3420700000000001
 30
0.0
 10
-0.67549
 20
3.3674700000000004
 30
0.0
 10
-0.67549
 20
3.3674700000000004
 30
0.0
 10
-0.67549
 20
3.3674700000000004
 30
0.0
 10
-0.6881900000000001
 20
3.7510100000000004
 30
0.0
 10
-0.6881900000000001
 20
3.7510100000000004
 30
0.0
  0
SPLINE
  5
2C
100
AcDbEntity
  8
���� 1
100
AcDbSpline
210
0.0
220
0.0
230
1.0
 70
     1
 71
     3
 72
    32
 73
    28
 74
     0
 42
0.0000000001
 43
0.0000000001
 40
0.0
 40
0.0
 40
0.0
 40
0.0
 40
0.1428571428571429
 40
0.1428571428571429
 40
0.1428571428571429
 40
0.1428571428571429
 40
0.2857142857142857
 40
0.2857142857142857
 40
0.2857142857142857
 40
0.2857142857142857
 40
0.4285714285714286
 40
0.4285714285714286
 40
0.4285714285714286
 40
0.4285714285714286
 40
0.5714285714285714
 40
0.5714285714285714
 40
0.5714285714285714
 40
0.5714285714285714
 40
0.7142857142857142
 40
0.7142857142857142
 40
0.7142857142857142
 40
0.7142857142857142
 40
0.857142857142857
 40
0.857142857142857
 40
0.857142857142857
 40
0.857142857142857
 40
1.0
 40
1.0
 40
1.0
 40
1.0
 10
-1.9988300000000001
 20
3.6951300000000002
 30
0.0
 10
-1.8870700000000002
 20
3.6824300000000001
 30
0.0
 10
-2.0089900000000003
 20
3.5884500000000004
 30
0.0
 10
-2.0394700000000001
 20
3.5452700000000004
 30
0.0
 10
-2.0394700000000001
 20
3.5452700000000004
 30
0.0
 10
-1.7930900000000001
 20
3.6417900000000003
 30
0.0
 10
-2.0521700000000003
 20
3.3827100000000003
 30
0.0
 10
-2.10297
 20
3.2582500000000003
 30
0.0
 10
-2.10297
 20
3.2582500000000003
 30
0.0
 10
-2.0013700000000001
 20
3.3014300000000003
 30
0.0
 10
-1.9099300000000001
 20
3.4233500000000001
 30
0.0
 10
-1.7829300000000001
 20
3.4106500000000004
 30
0.0
 10
-1.7829300000000001
 20
3.4106500000000004
 30
0.0
 10
-1.9150100000000001
 20
3.2201500000000003
 30
0.0
 10
-1.8972300000000002
 20
2.9458300000000004
 30
0.0
 10
-1.8794500000000001
 20
2.71469
 30
0.0
 10
-1.8794500000000001
 20
2.71469
 30
0.0
 10
-1.9912100000000001
 20
2.8086700000000002
 30
0.0
 10
-2.02169
 20
3.0271100000000004
 30
0.0
 10
-1.9886700000000002
 20
3.1769700000000003
 30
0.0
 10
-1.9886700000000002
 20
3.1769700000000003
 30
0.0
 10
-1.9886700000000002
 20
3.1769700000000003
 30
0.0
 10
-2.2045700000000004
 20
2.9610700000000003
 30
0.0
 10
-2.2045700000000004
 20
2.9610700000000003
 30
0.0
 10
-2.2045700000000004
 20
2.9610700000000003
 30
0.0
 10
-2.3036300000000001
 20
3.2049100000000004
 30
0.0
 10
-2.22235
 20
3.5198700000000005
 30
0.0
 10
-1.9988300000000001
 20
3.6951300000000002
 30
0.0
  0
SPLINE
  5
2D
100
AcDbEntity
  8
���� 1
 62
     7
100
AcDbSpline
210
0.0
220
0.0
230
1.0
 70
     1
 71
     3
 72
    12
 73
     8
 74
     0
 42
0.0000000001
 43
0.0000000001
 40
0.0
 40
0.0
 40
0.0
 40
0.0
 40
0.5
 40
0.5
 40
0.5
 40
0.5
 40
1.0
 40
1.0
 40
1.0
 40
1.0
 10
-0.8939300000000001
 20
3.3674700000000004
 30
0.0
 10
-0.7796300000000001
 20
3.4106500000000004
 30
0.0
 10
-0.9345700000000001
 20
3.2201500000000003
 30
0.0
 10
-0.9167900000000001
 20
3.3293700000000004
 30
0.0
 10
-0.9167900000000001
 20
3.3293700000000004
 30
0.0
 10
-0.9066300000000001
 20
3.3420700000000001
 30
0.0
 10
-0.88885
 20
3.3547700000000003
 30
0.0
 10
-0.8939300000000001
 20
3.3674700000000004
 30
0.0
  0
SPLINE
  5
2E
100
AcDbEntity
  8
���� 1
100
AcDbSpline
210
0.0
220
0.0
230
1.0
 70
     1
 71
     3
 72
    32
 73
    28
 74
     0
 42
0.0000000001
 43
0.0000000001
 40
0.0
 40
0.0
 40
0.0
 40
0.0
 40
0.1428571428571429
 40
0.1428571428571429
 40
0.1428571428571429
 40
0.1428571428571429
 40
0.2857142857142857
 40
0.2857142857142857
 40
0.2857142857142857
 40
0.2857142857142857
 40
0.4285714285714286
 40
0.4285714285714286
 40
0.4285714285714286
 40
0.4285714285714286
 40
0.5714285714285714
 40
0.5714285714285714
 40
0.5714285714285714
 40
0.5714285714285714
 40
0.7142857142857142
 40
0.7142857142857142
 40
0.7142857142857142
 40
0.7142857142857142
 40
0.857142857142857
 40
0.857142857142857
 40
0.857142857142857
 40
0.857142857142857
 40
1.0
 40
1.0
 40
1.0
 40
1.0
 10
-1.24699
 20
3.1642700000000001
 30
0.0
 10
-1.08697
 20
3.1769700000000003
 30
0.0
 10
-0.9244100000000001
 20
3.1236300000000004
 30
0.0
 10
-0.82535
 20
2.9991700000000003
 30
0.0
 10
-0.82535
 20
2.9991700000000003
 30
0.0
 10
-0.6094500000000001
 20
3.0144100000000003
 30
0.0
 10
-0.36815
 20
2.8772500000000001
 30
0.0
 10
-0.30973
 20
2.6740500000000003
 30
0.0
 10
-0.30973
 20
2.6740500000000003
 30
0.0
 10
-0.41895
 20
2.6994500000000001
 30
0.0
 10
-0.47483
 20
2.6461100000000002
 30
0.0
 10
-0.54849
 20
2.5927700000000002
 30
0.0
 10
-0.54849
 20
2.5927700000000002
 30
0.0
 10
-0.57643
 20
2.6181700000000001
 30
0.0
 10
-0.5637300000000001
 20
2.6461100000000002
 30
0.0
 10
-0.5662700000000001
 20
2.6740500000000003
 30
0.0
 10
-0.5662700000000001
 20
2.6740500000000003
 30
0.0
 10
-0.4062500000000001
 20
2.8518500000000002
 30
0.0
 10
-0.6881900000000001
 20
2.9051900000000002
 30
0.0
 10
-0.82535
 20
2.8772500000000001
 30
0.0
 10
-0.82535
 20
2.8772500000000001
 30
0.0
 10
-0.94981
 20
3.0144100000000003
 30
0.0
 10
-1.12507
 20
3.05505
 30
0.0
 10
-1.2850900000000001
 20
3.1083900000000004
 30
0.0
 10
-1.2850900000000001
 20
3.1083900000000004
 30
0.0
 10
-1.2850900000000001
 20
3.1083900000000004
 30
0.0
 10
-1.24699
 20
3.1642700000000001
 30
0.0
 10
-1.24699
 20
3.1642700000000001
 30
0.0
  0
SPLINE
  5
2F
100
AcDbEntity
  8
���� 1
100
AcDbSpline
210
0.0
220
0.0
230
1.0
 70
     1
 71
     3
 72
    24
 73
    20
 74
     0
 42
0.0000000001
 43
0.0000000001
 40
0.0
 40
0.0
 40
0.0
 40
0.0
 40
0.2
 40
0.2
 40
0.2
 40
0.2
 40
0.4
 40
0.4
 40
0.4
 40
0.4
 40
0.6000000000000001
 40
0.6000000000000001
 40
0.6000000000000001
 40
0.6000000000000001
 40
0.8
 40
0.8
 40
0.8
 40
0.8
 40
1.0
 40
1.0
 40
1.0
 40
1.0
 10
-1.24699
 20
2.7680300000000004
 30
0.0
 10
-1.24699
 20
2.7680300000000004
 30
0.0
 10
-1.1149100000000001
 20
2.6994500000000001
 30
0.0
 10
-1.1149100000000001
 20
2.6994500000000001
 30
0.0
 10
-1.1149100000000001
 20
2.6994500000000001
 30
0.0
 10
-1.1149100000000001
 20
2.6994500000000001
 30
0.0
 10
-1.3003300000000002
 20
2.6461100000000002
 30
0.0
 10
-1.3003300000000002
 20
2.6461100000000002
 30
0.0
 10
-1.3003300000000002
 20
2.6461100000000002
 30
0.0
 10
-1.37653
 20
2.6054700000000004
 30
0.0
 10
-1.3206500000000001
 20
2.50895
 30
0.0
 10
-1.37399
 20
2.4683100000000002
 30
0.0
 10
-1.37399
 20
2.4683100000000002
 30
0.0
 10
-1.4501900000000001
 20
2.4556100000000001
 30
0.0
 10
-1.42225
 20
2.5775300000000003
 30
0.0
 10
-1.42225
 20
2.6308700000000003
 30
0.0
 10
-1.42225
 20
2.6308700000000003
 30
0.0
 10
-1.3993900000000001
 20
2.7273900000000002
 30
0.0
 10
-1.2800100000000001
 20
2.6867500000000004
 30
0.0
 10
-1.24699
 20
2.7680300000000004
 30
0.0
  0
SPLINE
  5
30
100
AcDbEntity
  8
���� 1
 62
     7
100
AcDbSpline
210
0.0
220
0.0
230
1.0
 70
     1
 71
     3
 72
    40
 73
    36
 74
     0
 42
0.0000000001
 43
0.0000000001
 40
0.0
 40
0.0
 40
0.0
 40
0.0
 40
0.1111111111111111
 40
0.1111111111111111
 40
0.1111111111111111
 40
0.1111111111111111
 40
0.2222222222222222
 40
0.2222222222222222
 40
0.2222222222222222
 40
0.2222222222222222
 40
0.3333333333333333
 40
0.3333333333333333
 40
0.3333333333333333
 40
0.3333333333333333
 40
0.4444444444444444
 40
0.4444444444444444
 40
0.4444444444444444
 40
0.4444444444444444
 40
0.5555555555555556
 40
0.5555555555555556
 40
0.5555555555555556
 40
0.5555555555555556
 40
0.6666666666666667
 40
0.6666666666666667
 40
0.6666666666666667
 40
0.6666666666666667
 40
0.7777777777777779
 40
0.7777777777777779
 40
0.7777777777777779
 40
0.7777777777777779
 40
0.8888888888888891
 40
0.8888888888888891
 40
0.8888888888888891
 40
0.8888888888888891
 40
1.0
 40
1.0
 40
1.0
 40
1.0
 10
3.2234000000000003
 20
2.0314300000000003
 30
0.0
 10
3.2843600000000004
 20
1.8282300000000002
 30
0.0
 10
3.4088200000000004
 20
1.6351900000000001
 30
0.0
 10
3.5409000000000002
 20
1.4726300000000001
 30
0.0
 10
3.5409000000000002
 20
1.4726300000000001
 30
0.0
 10
3.5358200000000002
 20
1.3913500000000001
 30
0.0
 10
3.7187000000000001
 20
1.2541900000000001
 30
0.0
 10
3.6729800000000004
 20
1.4192900000000002
 30
0.0
 10
3.6729800000000004
 20
1.4192900000000002
 30
0.0
 10
3.7110800000000004
 20
1.5818500000000002
 30
0.0
 10
3.6298000000000004
 20
1.56915
 30
0.0
 10
3.6094800000000005
 20
1.7875900000000002
 30
0.0
 10
3.6094800000000005
 20
1.7875900000000002
 30
0.0
 10
3.6094800000000005
 20
1.7875900000000002
 30
0.0
 10
3.8228400000000002
 20
1.4319900000000001
 30
0.0
 10
3.8228400000000002
 20
1.4319900000000001
 30
0.0
 10
3.8228400000000002
 20
1.4319900000000001
 30
0.0
 10
3.8812600000000002
 20
1.3100700000000001
 30
0.0
 10
3.9168200000000004
 20
1.1856100000000001
 30
0.0
 10
3.9447600000000005
 20
1.0509900000000001
 30
0.0
 10
3.9447600000000005
 20
1.0509900000000001
 30
0.0
 10
4.4527600000000005
 20
0.16199
 30
0.0
 10
3.5332800000000004
 20
-1.3467600000000002
 30
0.0
 10
2.5045800000000003
 20
-0.69398
 30
0.0
 10
2.5045800000000003
 20
-0.69398
 30
0.0
 10
2.5147400000000002
 20
-0.61016
 30
0.0
 10
2.45886
 20
-0.3942600000000001
 30
0.0
 10
2.5376000000000003
 20
-0.40696
 30
0.0
 10
2.5376000000000003
 20
-0.40696
 30
0.0
 10
2.9668600000000001
 20
-0.71938
 30
0.0
 10
3.6602800000000002
 20
-0.47554
 30
0.0
 10
3.7542600000000004
 20
0.05531
 30
0.0
 10
3.7542600000000004
 20
0.05531
 30
0.0
 10
3.8076000000000003
 20
0.7766700000000001
 30
0.0
 10
3.2107000000000001
 20
1.32277
 30
0.0
 10
3.2234000000000003
 20
2.0314300000000003
 30
0.0
  0
SPLINE
  5
31
100
AcDbEntity
  8
���� 1
 62
     7
100
AcDbSpline
210
0.0
220
0.0
230
1.0
 70
     1
 71
     3
 72
    20
 73
    16
 74
     0
 42
0.0000000001
 43
0.0000000001
 40
0.0
 40
0.0
 40
0.0
 40
0.0
 40
0.25
 40
0.25
 40
0.25
 40
0.25
 40
0.5
 40
0.5
 40
0.5
 40
0.5
 40
0.75
 40
0.75
 40
0.75
 40
0.75
 40
1.0
 40
1.0
 40
1.0
 40
1.0
 10
3.5231200000000005
 20
-0.13264
 30
0.0
 10
3.6983800000000002
 20
0.64205
 30
0.0
 10
3.0862400000000001
 20
1.2821300000000002
 30
0.0
 10
2.9897200000000002
 20
2.0187300000000001
 30
0.0
 10
2.9897200000000002
 20
2.0187300000000001
 30
0.0
 10
2.9897200000000002
 20
2.0187300000000001
 30
0.0
 10
3.1116400000000004
 20
1.8002900000000002
 30
0.0
 10
3.1116400000000004
 20
1.8002900000000002
 30
0.0
 10
3.1116400000000004
 20
1.8002900000000002
 30
0.0
 10
3.2411800000000004
 20
1.2135500000000001
 30
0.0
 10
3.6958400000000005
 20
0.7080900000000001
 30
0.0
 10
3.6450400000000003
 20
0.06801
 30
0.0
 10
3.6450400000000003
 20
0.06801
 30
0.0
 10
3.6450400000000003
 20
0.06801
 30
0.0
 10
3.5231200000000005
 20
-0.13264
 30
0.0
 10
3.5231200000000005
 20
-0.13264
 30
0.0
  0
SPLINE
  5
32
100
AcDbEntity
  8
���� 1
100
AcDbSpline
210
0.0
220
0.0
230
1.0
 70
     1
 71
     3
 72
    16
 73
    12
 74
     0
 42
0.0000000001
 43
0.0000000001
 40
0.0
 40
0.0
 40
0.0
 40
0.0
 40
0.3333333333333333
 40
0.3333333333333333
 40
0.3333333333333333
 40
0.3333333333333333
 40
0.6666666666666666
 40
0.6666666666666666
 40
0.6666666666666666
 40
0.6666666666666666
 40
1.0
 40
1.0
 40
1.0
 40
1.0
 10
-2.1207500000000001
 20
1.8561700000000001
 30
0.0
 10
-2.0953500000000003
 20
1.8688700000000003
 30
0.0
 10
-2.05979
 20
1.8409300000000002
 30
0.0
 10
-2.0674100000000002
 20
1.8129900000000001
 30
0.0
 10
-2.0674100000000002
 20
1.8129900000000001
 30
0.0
 10
-2.3264900000000002
 20
1.1856100000000001
 30
0.0
 10
-1.7346700000000002
 20
0.64205
 30
0.0
 10
-1.8616700000000002
 20
0.04007
 30
0.0
 10
-1.8616700000000002
 20
0.04007
 30
0.0
 10
-1.8794500000000001
 20
0.6674500000000001
 30
0.0
 10
-2.51953
 20
1.2541900000000001
 30
0.0
 10
-2.1207500000000001
 20
1.8561700000000001
 30
0.0
  0
SPLINE
  5
33
100
AcDbEntity
  8
���� 1
100
AcDbSpline
210
0.0
220
0.0
230
1.0
 70
     1
 71
     3
 72
    24
 73
    20
 74
     0
 42
0.0000000001
 43
0.0000000001
 40
0.0
 40
0.0
 40
0.0
 40
0.0
 40
0.2
 40
0.2
 40
0.2
 40
0.2
 40
0.4
 40
0.4
 40
0.4
 40
0.4
 40
0.6000000000000001
 40
0.6000000000000001
 40
0.6000000000000001
 40
0.6000000000000001
 40
0.8
 40
0.8
 40
0.8
 40
0.8
 40
1.0
 40
1.0
 40
1.0
 40
1.0
 10
1.1228200000000002
 20
0.9824100000000001
 30
0.0
 10
1.1533
 20
0.9824100000000001
 30
0.0
 10
1.18886
 20
0.9417700000000001
 30
0.0
 10
1.1736200000000001
 20
0.91383
 30
0.0
 10
1.1736200000000001
 20
0.91383
 30
0.0
 10
0.8993000000000001
 20
0.5861700000000001
 30
0.0
 10
0.8612000000000001
 20
0.10865
 30
0.0
 10
0.9856600000000001
 20
-0.28504
 30
0.0
 10
0.9856600000000001
 20
-0.28504
 30
0.0
 10
0.86882
 20
-0.41966
 30
0.0
 10
0.9196200000000001
 20
-0.6254000000000001
 30
0.0
 10
0.8231000000000001
 20
-0.76002
 30
0.0
 10
0.8231000000000001
 20
-0.76002
 30
0.0
 10
0.7799200000000001
 20
-0.7752600000000001
 30
0.0
 10
0.7748400000000001
 20
-0.7346200000000001
 30
0.0
 10
0.7545200000000001
 20
-0.7066800000000001
 30
0.0
 10
0.7545200000000001
 20
-0.7066800000000001
 30
0.0
 10
0.86882
 20
-0.13264
 30
0.0
 10
0.6300600000000001
 20
0.55823
 30
0.0
 10
1.1228200000000002
 20
0.9824100000000001
 30
0.0
  0
SPLINE
  5
34
100
AcDbEntity
  8
���� 1
 62
     7
100
AcDbSpline
210
0.0
220
0.0
230
1.0
 70
     1
 71
     3
 72
    96
 73
    92
 74
     0
 42
0.0000000001
 43
0.0000000001
 40
0.0
 40
0.0
 40
0.0
 40
0.0
 40
0.0434782608695652
 40
0.0434782608695652
 40
0.0434782608695652
 40
0.0434782608695652
 40
0.0869565217391304
 40
0.0869565217391304
 40
0.0869565217391304
 40
0.0869565217391304
 40
0.1304347826086957
 40
0.1304347826086957
 40
0.1304347826086957
 40
0.1304347826086957
 40
0.1739130434782609
 40
0.1739130434782609
 40
0.1739130434782609
 40
0.1739130434782609
 40
0.2173913043478261
 40
0.2173913043478261
 40
0.2173913043478261
 40
0.2173913043478261
 40
0.2608695652173913
 40
0.2608695652173913
 40
0.2608695652173913
 40
0.2608695652173913
 40
0.3043478260869565
 40
0.3043478260869565
 40
0.3043478260869565
 40
0.3043478260869565
 40
0.3478260869565217
 40
0.3478260869565217
 40
0.3478260869565217
 40
0.3478260869565217
 40
0.3913043478260869
 40
0.3913043478260869
 40
0.3913043478260869
 40
0.3913043478260869
 40
0.4347826086956521
 40
0.4347826086956521
 40
0.4347826086956521
 40
0.4347826086956521
 40
0.4782608695652173
 40
0.4782608695652173
 40
0.4782608695652173
 40
0.4782608695652173
 40
0.5217391304347825
 40
0.5217391304347825
 40
0.5217391304347825
 40
0.5217391304347825
 40
0.5652173913043477
 40
0.5652173913043477
 40
0.5652173913043477
 40
0.5652173913043477
 40
0.6086956521739129
 40
0.6086956521739129
 40
0.6086956521739129
 40
0.6086956521739129
 40
0.6521739130434781
 40
0.6521739130434781
 40
0.6521739130434781
 40
0.6521739130434781
 40
0.6956521739130432
 40
0.6956521739130432
 40
0.6956521739130432
 40
0.6956521739130432
 40
0.7391304347826084
 40
0.7391304347826084
 40
0.7391304347826084
 40
0.7391304347826084
 40
0.7826086956521736
 40
0.7826086956521736
 40
0.7826086956521736
 40
0.7826086956521736
 40
0.8260869565217388
 40
0.8260869565217388
 40
0.8260869565217388
 40
0.8260869565217388
 40
0.869565217391304
 40
0.869565217391304
 40
0.869565217391304
 40
0.869565217391304
 40
0.9130434782608692
 40
0.9130434782608692
 40
0.9130434782608692
 40
0.9130434782608692
 40
0.9565217391304344
 40
0.9565217391304344
 40
0.9565217391304344
 40
0.9565217391304344
 40
1.0
 40
1.0
 40
1.0
 40
1.0
 10
-3.0630900000000003
 20
0.8325500000000001
 30
0.0
 10
-2.7938500000000004
 20
0.64205
 30
0.0
 10
-2.8243300000000002
 20
0.29915
 30
0.0
 10
-2.7887700000000004
 20
0.02737
 30
0.0
 10
-2.7887700000000004
 20
0.02737
 30
0.0
 10
-2.6846300000000003
 20
0.09595
 30
0.0
 10
-2.69733
 20
0.28645
 30
0.0
 10
-2.6897100000000003
 20
0.39567
 30
0.0
 10
-2.6897100000000003
 20
0.39567
 30
0.0
 10
-2.5474700000000001
 20
0.29915
 30
0.0
 10
-2.3899900000000001
 20
0.16199
 30
0.0
 10
-2.3010900000000003
 20
-0.00056
 30
0.0
 10
-2.3010900000000003
 20
-0.00056
 30
0.0
 10
-2.35189
 20
-0.20376
 30
0.0
 10
-2.5601700000000003
 20
-0.40696
 30
0.0
 10
-2.57287
 20
-0.56952
 30
0.0
 10
-2.57287
 20
-0.56952
 30
0.0
 10
-2.6897100000000003
 20
-0.5568200000000001
 30
0.0
 10
-2.8065500000000001
 20
-0.61016
 30
0.0
 10
-2.9157700000000002
 20
-0.65334
 30
0.0
 10
-2.9157700000000002
 20
-0.65334
 30
0.0
 10
-2.9919700000000002
 20
-0.61016
 30
0.0
 10
-3.0808700000000004
 20
-0.7879600000000001
 30
0.0
 10
-3.0783300000000002
 20
-0.6660400000000001
 30
0.0
 10
-3.0783300000000002
 20
-0.6660400000000001
 30
0.0
 10
-3.0783300000000002
 20
-0.6660400000000001
 30
0.0
 10
-3.0529300000000004
 20
-0.4349
 30
0.0
 10
-3.0529300000000004
 20
-0.4349
 30
0.0
 10
-3.0529300000000004
 20
-0.4349
 30
0.0
 10
-3.3424900000000002
 20
-0.7879600000000001
 30
0.0
 10
-3.1443700000000003
 20
-1.3467600000000002
 30
0.0
 10
-3.4034500000000003
 20
-1.6871200000000002
 30
0.0
 10
-3.4034500000000003
 20
-1.6871200000000002
 30
0.0
 10
-3.4034500000000003
 20
-1.83952
 30
0.0
 10
-3.2840700000000003
 20
-1.9893800000000001
 30
0.0
 10
-3.3374100000000002
 20
-2.13924
 30
0.0
 10
-3.3374100000000002
 20
-2.13924
 30
0.0
 10
-3.3958300000000001
 20
-2.2484600000000001
 30
0.0
 10
-3.4796500000000004
 20
-2.1240000000000001
 30
0.0
 10
-3.5355300000000005
 20
-2.1519400000000002
 30
0.0
 10
-3.5355300000000005
 20
-2.1519400000000002
 30
0.0
 10
-3.5406100000000005
 20
-2.2484600000000001
 30
0.0
 10
-3.5253700000000001
 20
-2.3856200000000003
 30
0.0
 10
-3.6320500000000004
 20
-2.4237200000000003
 30
0.0
 10
-3.6320500000000004
 20
-2.4237200000000003
 30
0.0
 10
-3.7158700000000002
 20
-2.39832
 30
0.0
 10
-3.8327100000000005
 20
-2.3018000000000001
 30
0.0
 10
-3.7539700000000003
 20
-2.2078200000000003
 30
0.0
 10
-3.7539700000000003
 20
-2.2078200000000003
 30
0.0
 10
-3.6803100000000004
 20
-2.13924
 30
0.0
 10
-3.5761700000000003
 20
-1.8242800000000001
 30
0.0
 10
-3.7412700000000001
 20
-2.0020800000000003
 30
0.0
 10
-3.7412700000000001
 20
-2.0020800000000003
 30
0.0
 10
-3.7844500000000001
 20
-2.1113
 30
0.0
 10
-3.9368500000000002
 20
-2.19258
 30
0.0
 10
-3.8555700000000002
 20
-2.3145000000000002
 30
0.0
 10
-3.8555700000000002
 20
-2.3145000000000002
 30
0.0
 10
-3.8225500000000001
 20
-2.56088
 30
0.0
 10
-4.1171899999999999
 20
-2.4516600000000004
 30
0.0
 10
-4.1095700000000006
 20
-2.2611600000000003
 30
0.0
 10
-4.1095700000000006
 20
-2.2611600000000003
 30
0.0
 10
-3.9419300000000002
 20
-2.0706600000000002
 30
0.0
 10
-3.9800300000000002
 20
-1.8242800000000001
 30
0.0
 10
-4.1679900000000005
 20
-2.13924
 30
0.0
 10
-4.1679900000000005
 20
-2.13924
 30
0.0
 10
-4.2467300000000003
 20
-2.2078200000000003
 30
0.0
 10
-4.2086300000000003
 20
-2.3424400000000003
 30
0.0
 10
-4.1908500000000002
 20
-2.4110200000000002
 30
0.0
 10
-4.1908500000000002
 20
-2.4110200000000002
 30
0.0
 10
-4.4600900000000001
 20
-2.2078200000000003
 30
0.0
 10
-4.0740100000000004
 20
-1.9335000000000002
 30
0.0
 10
-3.8657300000000001
 20
-1.83952
 30
0.0
 10
-3.8657300000000001
 20
-1.83952
 30
0.0
 10
-3.8657300000000001
 20
-1.7709400000000002
 30
0.0
 10
-3.9546300000000003
 20
-1.8649200000000001
 30
0.0
 10
-3.9749500000000002
 20
-1.8115800000000002
 30
0.0
 10
-3.9749500000000002
 20
-1.8115800000000002
 30
0.0
 10
-3.8327100000000005
 20
-1.2807200000000001
 30
0.0
 10
-3.8530300000000004
 20
-0.7066800000000001
 30
0.0
 10
-3.6320500000000004
 20
-0.20376
 30
0.0
 10
-3.6320500000000004
 20
-0.20376
 30
0.0
 10
-3.6320500000000004
 20
-0.20376
 30
0.0
 10
-3.2561300000000002
 20
0.12389
 30
0.0
 10
-3.2561300000000002
 20
0.12389
 30
0.0
 10
-3.2561300000000002
 20
0.12389
 30
0.0
 10
-3.2205700000000004
 20
0.04007
 30
0.0
 10
-3.3475700000000002
 20
-0.0793
 30
0.0
 10
-3.2967700000000004
 20
-0.14788
 30
0.0
 10
-3.2967700000000004
 20
-0.14788
 30
0.0
 10
-3.0910300000000004
 20
0.13659
 30
0.0
 10
-3.0427700000000004
 20
0.49219
 30
0.0
 10
-3.0630900000000003
 20
0.8325500000000001
 30
0.0
  0
SPLINE
  5
35
100
AcDbEntity
  8
���� 1
 62
     7
100
AcDbSpline
210
0.0
220
0.0
230
1.0
 70
     1
 71
     3
 72
    16
 73
    12
 74
     0
 42
0.0000000001
 43
0.0000000001
 40
0.0
 40
0.0
 40
0.0
 40
0.0
 40
0.3333333333333333
 40
0.3333333333333333
 40
0.3333333333333333
 40
0.3333333333333333
 40
0.6666666666666666
 40
0.6666666666666666
 40
0.6666666666666666
 40
0.6666666666666666
 40
1.0
 40
1.0
 40
1.0
 40
1.0
 10
-0.19797
 20
-1.1715
 30
0.0
 10
0.01284
 20
-1.2248400000000002
 30
0.0
 10
0.24906
 20
-1.2807200000000001
 30
0.0
 10
0.39638
 20
-1.4559800000000001
 30
0.0
 10
0.39638
 20
-1.4559800000000001
 30
0.0
 10
0.37098
 20
-1.7023600000000001
 30
0.0
 10
0.3354200000000001
 20
-2.0020800000000003
 30
0.0
 10
0.4090800000000001
 20
-2.2484600000000001
 30
0.0
 10
0.4090800000000001
 20
-2.2484600000000001
 30
0.0
 10
-0.14717
 20
-2.2764000000000002
 30
0.0
 10
-0.3427500000000001
 20
-1.6210800000000001
 30
0.0
 10
-0.19797
 20
-1.1715
 30
0.0
  0
SPLINE
  5
36
100
AcDbEntity
  8
���� 1
 62
     7
100
AcDbSpline
210
0.0
220
0.0
230
1.0
 70
     1
 71
     3
 72
    16
 73
    12
 74
     0
 42
0.0000000001
 43
0.0000000001
 40
0.0
 40
0.0
 40
0.0
 40
0.0
 40
0.3333333333333333
 40
0.3333333333333333
 40
0.3333333333333333
 40
0.3333333333333333
 40
0.6666666666666666
 40
0.6666666666666666
 40
0.6666666666666666
 40
0.6666666666666666
 40
1.0
 40
1.0
 40
1.0
 40
1.0
 10
1.9407000000000001
 20
-2.5888200000000001
 30
0.0
 10
2.0270600000000001
 20
-2.6015200000000003
 30
0.0
 10
2.0575400000000004
 20
-2.7793200000000002
 30
0.0
 10
1.9686400000000002
 20
-2.8072600000000003
 30
0.0
 10
1.9686400000000002
 20
-2.8072600000000003
 30
0.0
 10
1.9000600000000001
 20
-2.7666200000000001
 30
0.0
 10
1.8543400000000001
 20
-2.6828000000000003
 30
0.0
 10
1.8492600000000001
 20
-2.6015200000000003
 30
0.0
 10
1.8492600000000001
 20
-2.6015200000000003
 30
0.0
 10
1.8492600000000001
 20
-2.6015200000000003
 30
0.0
 10
1.9407000000000001
 20
-2.5888200000000001
 30
0.0
 10
1.9407000000000001
 20
-2.5888200000000001
 30
0.0
  0
SPLINE
  5
37
100
AcDbEntity
  8
���� 1
100
AcDbSpline
210
0.0
220
0.0
230
1.0
 70
     1
 71
     3
 72
    28
 73
    24
 74
     0
 42
0.0000000001
 43
0.0000000001
 40
0.0
 40
0.0
 40
0.0
 40
0.0
 40
0.1666666666666667
 40
0.1666666666666667
 40
0.1666666666666667
 40
0.1666666666666667
 40
0.3333333333333333
 40
0.3333333333333333
 40
0.3333333333333333
 40
0.3333333333333333
 40
0.5
 40
0.5
 40
0.5
 40
0.5
 40
0.6666666666666666
 40
0.6666666666666666
 40
0.6666666666666666
 40
0.6666666666666666
 40
0.8333333333333333
 40
0.8333333333333333
 40
0.8333333333333333
 40
0.8333333333333333
 40
1.0
 40
1.0
 40
1.0
 40
1.0
 10
1.5851000000000002
 20
-2.9977600000000004
 30
0.0
 10
1.7552800000000002
 20
-2.9977600000000004
 30
0.0
 10
1.5978000000000001
 20
-3.2162000000000002
 30
0.0
 10
1.61304
 20
-3.3127200000000001
 30
0.0
 10
1.61304
 20
-3.3127200000000001
 30
0.0
 10
1.6333600000000001
 20
-3.3660600000000005
 30
0.0
 10
1.6892400000000001
 20
-3.2720800000000003
 30
0.0
 10
1.7197200000000001
 20
-3.3381200000000004
 30
0.0
 10
1.7197200000000001
 20
-3.3381200000000004
 30
0.0
 10
1.7527400000000002
 20
-3.5718000000000001
 30
0.0
 10
1.6003400000000001
 20
-3.7877000000000005
 30
0.0
 10
1.5571600000000001
 20
-4.00868
 30
0.0
 10
1.5571600000000001
 20
-4.00868
 30
0.0
 10
1.5343000000000002
 20
-4.0213800000000006
 30
0.0
 10
1.5089000000000001
 20
-4.04678
 30
0.0
 10
1.4809600000000001
 20
-4.04678
 30
0.0
 10
1.4809600000000001
 20
-4.04678
 30
0.0
 10
1.4809600000000001
 20
-4.04678
 30
0.0
 10
1.61304
 20
-3.4752800000000001
 30
0.0
 10
1.61304
 20
-3.4752800000000001
 30
0.0
 10
1.61304
 20
-3.4752800000000001
 30
0.0
 10
1.3869800000000001
 20
-3.4067000000000003
 30
0.0
 10
1.5165200000000001
 20
-3.1196800000000002
 30
0.0
 10
1.5851000000000002
 20
-2.9977600000000004
 30
0.0
  0
SPLINE
  5
38
100
AcDbEntity
  8
���� 1
 62
     7
100
AcDbSpline
210
0.0
220
0.0
230
1.0
 70
     1
 71
     3
 72
    24
 73
    20
 74
     0
 42
0.0000000001
 43
0.0000000001
 40
0.0
 40
0.0
 40
0.0
 40
0.0
 40
0.2
 40
0.2
 40
0.2
 40
0.2
 40
0.4
 40
0.4
 40
0.4
 40
0.4
 40
0.6000000000000001
 40
0.6000000000000001
 40
0.6000000000000001
 40
0.6000000000000001
 40
0.8
 40
0.8
 40
0.8
 40
0.8
 40
1.0
 40
1.0
 40
1.0
 40
1.0
 10
0.9577200000000001
 20
-3.8969200000000002
 30
0.0
 10
0.9678800000000001
 20
-3.8969200000000002
 30
0.0
 10
0.9882000000000001
 20
-3.8969200000000002
 30
0.0
 10
0.9856600000000001
 20
-3.9121600000000005
 30
0.0
 10
0.9856600000000001
 20
-3.9121600000000005
 30
0.0
 10
0.9196200000000001
 20
-4.04678
 30
0.0
 10
0.8154800000000001
 20
-4.1839400000000007
 30
0.0
 10
0.66308
 20
-4.2118800000000007
 30
0.0
 10
0.66308
 20
-4.2118800000000007
 30
0.0
 10
0.68086
 20
-4.1179000000000006
 30
0.0
 10
0.8002400000000001
 20
-4.1306000000000003
 30
0.0
 10
0.8332600000000001
 20
-4.04678
 30
0.0
 10
0.8332600000000001
 20
-4.04678
 30
0.0
 10
0.6300600000000001
 20
-3.9248600000000002
 30
0.0
 10
0.5183000000000001
 20
-4.1839400000000007
 30
0.0
 10
0.37606
 20
-4.2398199999999999
 30
0.0
 10
0.37606
 20
-4.2398199999999999
 30
0.0
 10
0.3532
 20
-3.9401000000000002
 30
0.0
 10
0.76722
 20
-3.9807400000000004
 30
0.0
 10
0.9577200000000001
 20
-3.8969200000000002
 30
0.0
  0
ENDSEC
  0
SECTION
  2
OBJECTS
  0
DICTIONARY
  5
19
100
AcDbDictionary
280
     0
281
     1
  3
ACAD_GROUP
350
1A
  3
ACAD_MLINESTYLE
350
1B
  3
ACAD_LAYOUT
350
1E
  3
ACAD_PLOTSETTINGS
350
22
  3
ACAD_PLOTSTYLENAME
350
1F
  3
ACAD_WIPEOUT_VARS
350
23
  0
DICTIONARY
  5
1A
102
{ACAD_REACTORS
330
19
102
}
100
AcDbDictionary
280
     0
281
     1
  0
DICTIONARY
  5
1B
102
{ACAD_REACTORS
330
19
102
}
100
AcDbDictionary
280
     0
281
     1
  3
Standard
350
1C
  0
MLINESTYLE
  5
1C
102
{ACAD_REACTORS
330
1B
102
}
100
AcDbMlineStyle
  2
Standard
 70
     0
  3

 62
     0
 51
90.0
 52
90.0
 71
     2
 49
0.5
 62
   256
  6
BYLAYER
 49
-0.5
 62
   256
  6
BYLAYER
  0
ACDBDICTIONARYWDFLT
  5
1F
102
{ACAD_REACTORS
330
19
102
}
100
AcDbDictionary
281
     1
  3
Normal
350
1D
100
AcDbDictionaryWithDefault
340
1D
  0
ACDBPLACEHOLDER
  5
1D
102
{ACAD_REACTORS
330
1F
102
}
  0
LAYOUT
  5
20
102
{ACAD_REACTORS
330
1E
102
}
100
AcDbPlotSettings
  1

  2

  4

  6

 40
0.0
 41
0.0
 42
0.0
 43
0.0
 44
0.0
 45
0.0
 46
0.0
 47
0.0
 48
0.0
 49
0.0
140
0.0
141
0.0
142
1.0
143
1.0
 70
  1024
 72
     0
 73
     0
 74
     0
  7

 75
     0
147
1.0
148
0.0
149
0.0
100
AcDbLayout
  1
Model
 70
     0
 71
     0
 10
0.0
 20
0.0
 11
0.0
 21
0.0
 12
0.0
 22
0.0
 32
0.0
 14
0.0
 24
0.0
 34
0.0
 15
0.0
 25
0.0
 35
0.0
146
0.0
 13
0.0
 23
0.0
 33
0.0
 16
0.0
 26
0.0
 36
0.0
 17
0.0
 27
0.0
 37
0.0
 76
     0
330
A
331
0
345
0
346
0
  0
LAYOUT
  5
21
102
{ACAD_REACTORS
330
1E
102
}
100
AcDbPlotSettings
  1

  2

  4

  6

 40
0.0
 41
0.0
 42
0.0
 43
0.0
 44
0.0
 45
0.0
 46
0.0
 47
0.0
 48
0.0
 49
0.0
140
0.0
141
0.0
142
1.0
143
1.0
 70
     0
 72
     0
 73
     0
 74
     0
  7

 75
     0
147
1.0
148
0.0
149
0.0
100
AcDbLayout
  1
Layout1
 70
     0
 71
     0
 10
0.0
 20
0.0
 11
0.0
 21
0.0
 12
0.0
 22
0.0
 32
0.0
 14
0.0
 24
0.0
 34
0.0
 15
0.0
 25
0.0
 35
0.0
146
0.0
 13
0.0
 23
0.0
 33
0.0
 16
0.0
 26
0.0
 36
0.0
 17
0.0
 27
0.0
 37
0.0
 76
     0
330
B
331
0
345
0
346
0
  0
DICTIONARY
  5
1E
102
{ACAD_REACTORS
330
19
102
}
100
AcDbDictionary
280
     0
281
     1
  3
Layout1
350
21
  3
Model
350
20
  0
DICTIONARY
  5
22
102
{ACAD_REACTORS
330
19
102
}
100
AcDbDictionary
280
     0
281
     1
  0
WIPEOUTVARIABLES
  5
23
100
AcDbWipeoutVariables
 70
     1
  0
ENDSEC
  0
EOF
