  0
SECTION
  2
HEADER
  9
$ACADVER
  1
AC1014
  9
$ACADMAINTVER
 70
     9
  9
$DWGCODEPAGE
  3
MAC-ROMAN
  9
$INSBASE
 10
0.0
 20
0.0
 30
0.0
  9
$EXTMIN
 10
1.000000000000000E+20
 20
1.000000000000000E+20
 30
1.000000000000000E+20
  9
$EXTMAX
 10
-1.000000000000000E+20
 20
-1.000000000000000E+20
 30
-1.000000000000000E+20
  9
$LIMMIN
 10
0.0
 20
0.0
  9
$LIMMAX
 10
12.0
 20
9.0
  9
$ORTHOMODE
 70
     0
  9
$REGENMODE
 70
     1
  9
$FILLMODE
 70
     1
  9
$QTEXTMODE
 70
     0
  9
$MIRRTEXT
 70
     1
  9
$DRAGMODE
 70
     2
  9
$LTSCALE
 40
1.0
  9
$OSMODE
 70
    37
  9
$ATTMODE
 70
     1
  9
$TEXTSIZE
 40
0.2
  9
$TRACEWID
 40
0.05
  9
$TEXTSTYLE
  7
STANDARD
  9
$CLAYER
  8
0
  9
$CELTYPE
  6
BYLAYER
  9
$CECOLOR
 62
   256
  9
$CELTSCALE
 40
1.0
  9
$DELOBJ
 70
     1
  9
$DISPSILH
 70
     0
  9
$DIMSCALE
 40
1.0
  9
$DIMASZ
 40
0.18
  9
$DIMEXO
 40
0.0625
  9
$DIMDLI
 40
0.38
  9
$DIMRND
 40
0.0
  9
$DIMDLE
 40
0.0
  9
$DIMEXE
 40
0.18
  9
$DIMTP
 40
0.0
  9
$DIMTM
 40
0.0
  9
$DIMTXT
 40
0.18
  9
$DIMCEN
 40
0.09
  9
$DIMTSZ
 40
0.0
  9
$DIMTOL
 70
     0
  9
$DIMLIM
 70
     0
  9
$DIMTIH
 70
     1
  9
$DIMTOH
 70
     1
  9
$DIMSE1
 70
     0
  9
$DIMSE2
 70
     0
  9
$DIMTAD
 70
     0
  9
$DIMZIN
 70
     0
  9
$DIMBLK
  1

  9
$DIMASO
 70
     1
  9
$DIMSHO
 70
     1
  9
$DIMPOST
  1

  9
$DIMAPOST
  1

  9
$DIMALT
 70
     0
  9
$DIMALTD
 70
     2
  9
$DIMALTF
 40
25.4
  9
$DIMLFAC
 40
1.0
  9
$DIMTOFL
 70
     0
  9
$DIMTVP
 40
0.0
  9
$DIMTIX
 70
     0
  9
$DIMSOXD
 70
     0
  9
$DIMSAH
 70
     0
  9
$DIMBLK1
  1

  9
$DIMBLK2
  1

  9
$DIMSTYLE
  2
STANDARD
  9
$DIMCLRD
 70
     0
  9
$DIMCLRE
 70
     0
  9
$DIMCLRT
 70
     0
  9
$DIMTFAC
 40
1.0
  9
$DIMGAP
 40
0.09
  9
$DIMJUST
 70
     0
  9
$DIMSD1
 70
     0
  9
$DIMSD2
 70
     0
  9
$DIMTOLJ
 70
     1
  9
$DIMTZIN
 70
     0
  9
$DIMALTZ
 70
     0
  9
$DIMALTTZ
 70
     0
  9
$DIMFIT
 70
     3
  9
$DIMUPT
 70
     0
  9
$DIMUNIT
 70
     2
  9
$DIMDEC
 70
     4
  9
$DIMTDEC
 70
     4
  9
$DIMALTU
 70
     2
  9
$DIMALTTD
 70
     2
  9
$DIMTXSTY
  7
STANDARD
  9
$DIMAUNIT
 70
     0
  9
$LUNITS
 70
     2
  9
$LUPREC
 70
     4
  9
$SKETCHINC
 40
0.1
  9
$FILLETRAD
 40
0.5
  9
$AUNITS
 70
     0
  9
$AUPREC
 70
     0
  9
$MENU
  1
.
  9
$ELEVATION
 40
0.0
  9
$PELEVATION
 40
0.0
  9
$THICKNESS
 40
0.0
  9
$LIMCHECK
 70
     0
  9
$CHAMFERA
 40
0.0
  9
$CHAMFERB
 40
0.0
  9
$CHAMFERC
 40
0.0
  9
$CHAMFERD
 40
0.0
  9
$SKPOLY
 70
     0
  9
$TDCREATE
 40
2458511.877883576
  9
$TDUPDATE
 40
2458511.877884317
  9
$TDINDWG
 40
0.0000000116
  9
$TDUSRTIMER
 40
0.0000000116
  9
$USRTIMER
 70
     1
  9
$ANGBASE
 50
0.0
  9
$ANGDIR
 70
     0
  9
$PDMODE
 70
     0
  9
$PDSIZE
 40
0.0
  9
$PLINEWID
 40
0.0
  9
$COORDS
 70
     1
  9
$SPLFRAME
 70
     0
  9
$SPLINETYPE
 70
     6
  9
$SPLINESEGS
 70
     8
  9
$ATTDIA
 70
     0
  9
$ATTREQ
 70
     1
  9
$HANDLING
 70
     1
  9
$HANDSEED
  5
394
  9
$SURFTAB1
 70
     6
  9
$SURFTAB2
 70
     6
  9
$SURFTYPE
 70
     6
  9
$SURFU
 70
     6
  9
$SURFV
 70
     6
  9
$UCSNAME
  2

  9
$UCSORG
 10
0.0
 20
0.0
 30
0.0
  9
$UCSXDIR
 10
1.0
 20
0.0
 30
0.0
  9
$UCSYDIR
 10
0.0
 20
1.0
 30
0.0
  9
$PUCSNAME
  2

  9
$PUCSORG
 10
0.0
 20
0.0
 30
0.0
  9
$PUCSXDIR
 10
1.0
 20
0.0
 30
0.0
  9
$PUCSYDIR
 10
0.0
 20
1.0
 30
0.0
  9
$USERI1
 70
     0
  9
$USERI2
 70
     0
  9
$USERI3
 70
     0
  9
$USERI4
 70
     0
  9
$USERI5
 70
     0
  9
$USERR1
 40
0.0
  9
$USERR2
 40
0.0
  9
$USERR3
 40
0.0
  9
$USERR4
 40
0.0
  9
$USERR5
 40
0.0
  9
$WORLDVIEW
 70
     1
  9
$SHADEDGE
 70
     3
  9
$SHADEDIF
 70
    70
  9
$TILEMODE
 70
     1
  9
$MAXACTVP
 70
    64
  9
$PINSBASE
 10
0.0
 20
0.0
 30
0.0
  9
$PLIMCHECK
 70
     0
  9
$PEXTMIN
 10
1.000000000000000E+20
 20
1.000000000000000E+20
 30
1.000000000000000E+20
  9
$PEXTMAX
 10
-1.000000000000000E+20
 20
-1.000000000000000E+20
 30
-1.000000000000000E+20
  9
$PLIMMIN
 10
0.0
 20
0.0
  9
$PLIMMAX
 10
12.0
 20
9.0
  9
$UNITMODE
 70
     0
  9
$VISRETAIN
 70
     1
  9
$PLINEGEN
 70
     0
  9
$PSLTSCALE
 70
     1
  9
$TREEDEPTH
 70
  3020
  9
$PICKSTYLE
 70
     1
  9
$CMLSTYLE
  2
STANDARD
  9
$CMLJUST
 70
     0
  9
$CMLSCALE
 40
1.0
  9
$PROXYGRAPHICS
 70
     1
  9
$MEASUREMENT
 70
     0
  0
ENDSEC
  0
SECTION
  2
CLASSES
  0
CLASS
  1
ACDBDICTIONARYWDFLT
  2
AcDbDictionaryWithDefault
  3
ObjectDBX Classes
 90
        0
280
     0
281
     0
  0
CLASS
  1
VISUALSTYLE
  2
AcDbVisualStyle
  3
ObjectDBX Classes
 90
     4095
280
     0
281
     0
  0
CLASS
  1
MATERIAL
  2
AcDbMaterial
  3
ObjectDBX Classes
 90
     1153
280
     0
281
     0
  0
CLASS
  1
SCALE
  2
AcDbScale
  3
ObjectDBX Classes
 90
     1153
280
     0
281
     0
  0
CLASS
  1
TABLESTYLE
  2
AcDbTableStyle
  3
ObjectDBX Classes
 90
     4095
280
     0
281
     0
  0
CLASS
  1
MLEADERSTYLE
  2
AcDbMLeaderStyle
  3
ACDB_MLEADERSTYLE_CLASS
 90
     4095
280
     0
281
     0
  0
CLASS
  1
SUN
  2
AcDbSun
  3
SCENEOE
 90
     1153
280
     0
281
     0
  0
CLASS
  1
DICTIONARYVAR
  2
AcDbDictionaryVar
  3
ObjectDBX Classes
 90
        0
280
     0
281
     0
  0
CLASS
  1
XRECORD
  2
AcDbXrecord
  3
ObjectDBX Classes
 90
        0
280
     0
281
     0
  0
CLASS
  1
LWPOLYLINE
  2
AcDbPolyline
  3
ObjectDBX Classes
 90
        0
280
     0
281
     1
  0
CLASS
  1
HATCH
  2
AcDbHatch
  3
ObjectDBX Classes
 90
        0
280
     0
281
     1
  0
CLASS
  1
ACDBPLACEHOLDER
  2
AcDbPlaceHolder
  3
ObjectDBX Classes
 90
        0
280
     0
281
     0
  0
CLASS
  1
LAYOUT
  2
AcDbLayout
  3
ObjectDBX Classes
 90
        0
280
     0
281
     0
  0
ENDSEC
  0
SECTION
  2
TABLES
  0
TABLE
  2
VPORT
  5
8
102
{ACAD_XDICTIONARY
360
389
102
}
330
0
100
AcDbSymbolTable
 70
     1
  0
VPORT
  5
29
330
8
100
AcDbSymbolTableRecord
100
AcDbViewportTableRecord
  2
*ACTIVE
 70
     0
 10
0.0
 20
0.0
 11
1.0
 21
1.0
 12
0.0
 22
0.0
 13
0.0
 23
0.0
 14
0.5
 24
0.5
 15
0.5
 25
0.5
 16
0.0
 26
0.0
 36
1.0
 17
0.0
 27
0.0
 37
-1000.0
 40
32.44643223404945
 41
1.737488196411709
 42
50.0
 43
435.5637665003474
 44
535.7932146115356
 50
0.0
 51
0.0
 71
     0
 72
   100
 73
     1
 74
     3
 75
     0
 76
     0
 77
     0
 78
     0
  0
ENDTAB
  0
TABLE
  2
LTYPE
  5
5
330
0
100
AcDbSymbolTable
 70
     1
  0
LTYPE
  5
14
330
5
100
AcDbSymbolTableRecord
100
AcDbLinetypeTableRecord
  2
BYBLOCK
 70
     0
  3

 72
    65
 73
     0
 40
0.0
  0
LTYPE
  5
15
330
5
100
AcDbSymbolTableRecord
100
AcDbLinetypeTableRecord
  2
BYLAYER
 70
     0
  3

 72
    65
 73
     0
 40
0.0
  0
LTYPE
  5
16
330
5
100
AcDbSymbolTableRecord
100
AcDbLinetypeTableRecord
  2
CONTINUOUS
 70
     0
  3
Solid line
 72
    65
 73
     0
 40
0.0
  0
ENDTAB
  0
TABLE
  2
LAYER
  5
2
330
0
100
AcDbSymbolTable
 70
     3
  0
LAYER
  5
10
330
2
100
AcDbSymbolTableRecord
100
AcDbLayerTableRecord
  2
0
 70
     0
 62
     7
  6
CONTINUOUS
  0
LAYER
  5
6E
330
2
100
AcDbSymbolTableRecord
100
AcDbLayerTableRecord
  2
PROFILEEDGES
 70
     0
 62
     7
  6
CONTINUOUS
  0
LAYER
  5
6F
330
2
100
AcDbSymbolTableRecord
100
AcDbLayerTableRecord
  2
SECTIONCUTEDGES
 70
     0
 62
     7
  6
CONTINUOUS
  0
ENDTAB
  0
TABLE
  2
STYLE
  5
3
330
0
100
AcDbSymbolTable
 70
     1
  0
STYLE
  5
11
330
3
100
AcDbSymbolTableRecord
100
AcDbTextStyleTableRecord
  2
STANDARD
 70
     0
 40
0.0
 41
1.0
 50
0.0
 71
     0
 42
0.2
  3
txt
  4

  0
ENDTAB
  0
TABLE
  2
VIEW
  5
6
330
0
100
AcDbSymbolTable
 70
     0
  0
ENDTAB
  0
TABLE
  2
UCS
  5
7
330
0
100
AcDbSymbolTable
 70
     0
  0
ENDTAB
  0
TABLE
  2
APPID
  5
9
330
0
100
AcDbSymbolTable
 70
     2
  0
APPID
  5
12
330
9
100
AcDbSymbolTableRecord
100
AcDbRegAppTableRecord
  2
ACAD
 70
     0
  0
APPID
  5
393
330
9
100
AcDbSymbolTableRecord
100
AcDbRegAppTableRecord
  2
ACAD_MLEADERVER
 70
     0
  0
ENDTAB
  0
TABLE
  2
DIMSTYLE
  5
A
330
0
100
AcDbSymbolTable
 70
     1
  0
DIMSTYLE
105
27
330
A
100
AcDbSymbolTableRecord
100
AcDbDimStyleTableRecord
  2
STANDARD
 70
     0
  3

  4

  5

  6

  7

 40
1.0
 41
0.18
 42
0.0625
 43
0.38
 44
0.18
 45
0.0
 46
0.0
 47
0.0
 48
0.0
140
0.18
141
0.09
142
0.0
143
25.4
144
1.0
145
0.0
146
1.0
147
0.09
 71
     0
 72
     0
 73
     1
 74
     1
 75
     0
 76
     0
 77
     0
 78
     0
170
     0
171
     2
172
     0
173
     0
174
     0
175
     0
176
     0
177
     0
178
     0
270
     2
271
     4
272
     4
273
     2
274
     2
340
11
275
     0
280
     0
281
     0
282
     0
283
     1
284
     0
285
     0
286
     0
287
     3
288
     0
  0
ENDTAB
  0
TABLE
  2
BLOCK_RECORD
  5
1
330
0
100
AcDbSymbolTable
 70
     1
  0
BLOCK_RECORD
  5
1F
330
1
100
AcDbSymbolTableRecord
100
AcDbBlockTableRecord
  2
*MODEL_SPACE
  0
BLOCK_RECORD
  5
1B
330
1
100
AcDbSymbolTableRecord
100
AcDbBlockTableRecord
  2
*PAPER_SPACE
  0
ENDTAB
  0
ENDSEC
  0
SECTION
  2
BLOCKS
  0
BLOCK
  5
20
330
1F
100
AcDbEntity
  8
0
100
AcDbBlockBegin
  2
*MODEL_SPACE
 70
     0
 10
0.0
 20
0.0
 30
0.0
  3
*MODEL_SPACE
  1

  0
ENDBLK
  5
21
330
1F
100
AcDbEntity
  8
0
100
AcDbBlockEnd
  0
BLOCK
  5
1C
330
1B
100
AcDbEntity
 67
     1
  8
0
100
AcDbBlockBegin
  2
*PAPER_SPACE
 70
     0
 10
0.0
 20
0.0
 30
0.0
  3
*PAPER_SPACE
  1

  0
ENDBLK
  5
1D
330
1B
100
AcDbEntity
 67
     1
  8
0
100
AcDbBlockEnd
  0
ENDSEC
  0
SECTION
  2
ENTITIES
  0
LINE
  5
70
330
1F
100
AcDbEntity
  8
0
100
AcDbLine
 10
-22.5895522895617
 20
-1.9067966221485
 30
0.0
 11
-23.34134961924332
 21
-1.906796622148607
 31
0.0
  0
LINE
  5
71
330
1F
100
AcDbEntity
  8
0
100
AcDbLine
 10
-23.34134961924333
 20
-1.788686385928134
 30
0.0
 11
-22.58955228956171
 21
-1.788686385928028
 31
0.0
  0
LINE
  5
72
330
1F
100
AcDbEntity
  8
0
100
AcDbLine
 10
-24.09314694892494
 20
-1.78868638592824
 30
0.0
 11
-24.09314694892493
 21
-1.906796622148713
 31
0.0
  0
LINE
  5
73
330
1F
100
AcDbEntity
  8
0
100
AcDbLine
 10
-24.84494427860657
 20
-1.788686385928347
 30
0.0
 11
-24.09314694892494
 21
-1.78868638592824
 31
0.0
  0
LINE
  5
74
330
1F
100
AcDbEntity
  8
0
100
AcDbLine
 10
-24.84494427860655
 20
-1.906796622148819
 30
0.0
 11
-24.84494427860657
 21
-1.788686385928347
 31
0.0
  0
LINE
  5
75
330
1F
100
AcDbEntity
  8
0
100
AcDbLine
 10
-22.58955228956171
 20
-1.788686385928028
 30
0.0
 11
-22.5895522895617
 21
-1.9067966221485
 31
0.0
  0
LINE
  5
76
330
1F
100
AcDbEntity
  8
0
100
AcDbLine
 10
-21.83775495988009
 20
-1.906796622148395
 30
0.0
 11
-21.83775495988009
 21
-1.788686385927922
 31
0.0
  0
LINE
  5
77
330
1F
100
AcDbEntity
  8
0
100
AcDbLine
 10
-21.08595763019848
 20
-1.788686385927816
 30
0.0
 11
-21.08595763019846
 21
-1.906796622148288
 31
0.0
  0
LINE
  5
78
330
1F
100
AcDbEntity
  8
0
100
AcDbLine
 10
-21.83775495988009
 20
-1.788686385927922
 30
0.0
 11
-21.08595763019848
 21
-1.788686385927816
 31
0.0
  0
LINE
  5
79
330
1F
100
AcDbEntity
  8
0
100
AcDbLine
 10
-21.08595763019846
 20
-1.906796622148288
 30
0.0
 11
-21.83775495988009
 21
-1.906796622148395
 31
0.0
  0
LINE
  5
7A
330
1F
100
AcDbEntity
  8
0
100
AcDbLine
 10
-20.33416030051686
 20
-1.906796622148182
 30
0.0
 11
-20.33416030051686
 21
-1.78868638592771
 31
0.0
  0
LINE
  5
7B
330
1F
100
AcDbEntity
  8
0
100
AcDbLine
 10
-19.58236297083525
 20
-1.788686385927604
 30
0.0
 11
-19.58236297083523
 21
-1.906796622148076
 31
0.0
  0
LINE
  5
7C
330
1F
100
AcDbEntity
  8
0
100
AcDbLine
 10
-20.33416030051686
 20
-1.78868638592771
 30
0.0
 11
-19.58236297083525
 21
-1.788686385927604
 31
0.0
  0
LINE
  5
7D
330
1F
100
AcDbEntity
  8
0
100
AcDbLine
 10
-19.58236297083523
 20
-1.906796622148076
 30
0.0
 11
-20.33416030051686
 21
-1.906796622148182
 31
0.0
  0
LINE
  5
7E
330
1F
100
AcDbEntity
  8
0
100
AcDbLine
 10
-18.83056564115363
 20
-1.90679662214797
 30
0.0
 11
-18.83056564115365
 21
-1.788686385927498
 31
0.0
  0
LINE
  5
7F
330
1F
100
AcDbEntity
  8
0
100
AcDbLine
 10
-18.07876831147204
 20
-1.788686385927391
 30
0.0
 11
-18.07876831147201
 21
-1.906796622147864
 31
0.0
  0
LINE
  5
80
330
1F
100
AcDbEntity
  8
0
100
AcDbLine
 10
-18.83056564115365
 20
-1.788686385927498
 30
0.0
 11
-18.07876831147204
 21
-1.788686385927391
 31
0.0
  0
LINE
  5
81
330
1F
100
AcDbEntity
  8
0
100
AcDbLine
 10
-18.07876831147201
 20
-1.906796622147864
 30
0.0
 11
-18.83056564115363
 21
-1.90679662214797
 31
0.0
  0
LINE
  5
82
330
1F
100
AcDbEntity
  8
0
100
AcDbLine
 10
-17.3269709817904
 20
-1.906796622147758
 30
0.0
 11
-17.32697098179042
 21
-1.788686385927286
 31
0.0
  0
LINE
  5
83
330
1F
100
AcDbEntity
  8
0
100
AcDbLine
 10
-16.57517365210882
 20
-1.788686385927179
 30
0.0
 11
-16.57517365210878
 21
-1.906796622147652
 31
0.0
  0
LINE
  5
84
330
1F
100
AcDbEntity
  8
0
100
AcDbLine
 10
-17.32697098179042
 20
-1.788686385927286
 30
0.0
 11
-16.57517365210882
 21
-1.788686385927179
 31
0.0
  0
LINE
  5
85
330
1F
100
AcDbEntity
  8
0
100
AcDbLine
 10
-16.57517365210878
 20
-1.906796622147652
 30
0.0
 11
-17.3269709817904
 21
-1.906796622147758
 31
0.0
  0
LINE
  5
86
330
1F
100
AcDbEntity
  8
0
100
AcDbLine
 10
-15.82337632242717
 20
-1.906796622147545
 30
0.0
 11
-15.82337632242719
 21
-1.788686385927073
 31
0.0
  0
LINE
  5
87
330
1F
100
AcDbEntity
  8
0
100
AcDbLine
 10
-15.07157899274558
 20
-1.788686385926967
 30
0.0
 11
-15.07157899274555
 21
-1.90679662214744
 31
0.0
  0
LINE
  5
88
330
1F
100
AcDbEntity
  8
0
100
AcDbLine
 10
-15.82337632242719
 20
-1.788686385927073
 30
0.0
 11
-15.07157899274558
 21
-1.788686385926967
 31
0.0
  0
LINE
  5
89
330
1F
100
AcDbEntity
  8
0
100
AcDbLine
 10
-15.07157899274555
 20
-1.90679662214744
 30
0.0
 11
-15.82337632242717
 21
-1.906796622147545
 31
0.0
  0
LINE
  5
8A
330
1F
100
AcDbEntity
  8
0
100
AcDbLine
 10
-14.31978166306394
 20
-1.906796622147334
 30
0.0
 11
-14.31978166306396
 21
-1.788686385926861
 31
0.0
  0
LINE
  5
8B
330
1F
100
AcDbEntity
  8
0
100
AcDbLine
 10
-13.56798433338235
 20
-1.788686385926755
 30
0.0
 11
-13.56798433338232
 21
-1.906796622147227
 31
0.0
  0
LINE
  5
8C
330
1F
100
AcDbEntity
  8
0
100
AcDbLine
 10
-14.31978166306396
 20
-1.788686385926861
 30
0.0
 11
-13.56798433338235
 21
-1.788686385926755
 31
0.0
  0
LINE
  5
8D
330
1F
100
AcDbEntity
  8
0
100
AcDbLine
 10
-13.56798433338232
 20
-1.906796622147227
 30
0.0
 11
-14.31978166306394
 21
-1.906796622147334
 31
0.0
  0
LINE
  5
8E
330
1F
100
AcDbEntity
  8
0
100
AcDbLine
 10
-12.81618700370071
 20
-1.906796622147121
 30
0.0
 11
-12.81618700370073
 21
-1.788686385926649
 31
0.0
  0
LINE
  5
8F
330
1F
100
AcDbEntity
  8
0
100
AcDbLine
 10
-12.06438967401912
 20
-1.788686385926543
 30
0.0
 11
-12.06438967401909
 21
-1.906796622147015
 31
0.0
  0
LINE
  5
90
330
1F
100
AcDbEntity
  8
0
100
AcDbLine
 10
-12.81618700370073
 20
-1.788686385926649
 30
0.0
 11
-12.06438967401912
 21
-1.788686385926543
 31
0.0
  0
LINE
  5
91
330
1F
100
AcDbEntity
  8
0
100
AcDbLine
 10
-12.06438967401909
 20
-1.906796622147015
 30
0.0
 11
-12.81618700370071
 21
-1.906796622147121
 31
0.0
  0
LINE
  5
92
330
1F
100
AcDbEntity
  8
0
100
AcDbLine
 10
-11.31259234433748
 20
-1.906796622146909
 30
0.0
 11
-11.3125923443375
 21
-1.788686385926436
 31
0.0
  0
LINE
  5
93
330
1F
100
AcDbEntity
  8
0
100
AcDbLine
 10
-10.56079501465589
 20
-1.78868638592633
 30
0.0
 11
-10.56079501465586
 21
-1.906796622146803
 31
0.0
  0
LINE
  5
94
330
1F
100
AcDbEntity
  8
0
100
AcDbLine
 10
-11.3125923443375
 20
-1.788686385926436
 30
0.0
 11
-10.56079501465589
 21
-1.78868638592633
 31
0.0
  0
LINE
  5
95
330
1F
100
AcDbEntity
  8
0
100
AcDbLine
 10
-10.56079501465586
 20
-1.906796622146803
 30
0.0
 11
-11.31259234433748
 21
-1.906796622146909
 31
0.0
  0
LINE
  5
96
330
1F
100
AcDbEntity
  8
0
100
AcDbLine
 10
-9.808997684974248
 20
-1.906796622146697
 30
0.0
 11
-9.808997684974269
 21
-1.788686385926225
 31
0.0
  0
LINE
  5
97
330
1F
100
AcDbEntity
  8
0
100
AcDbLine
 10
-9.057200355292661
 20
-1.788686385926118
 30
0.0
 11
-9.057200355292633
 21
-1.90679662214659
 31
0.0
  0
LINE
  5
98
330
1F
100
AcDbEntity
  8
0
100
AcDbLine
 10
-9.808997684974269
 20
-1.788686385926225
 30
0.0
 11
-9.057200355292661
 21
-1.788686385926118
 31
0.0
  0
LINE
  5
99
330
1F
100
AcDbEntity
  8
0
100
AcDbLine
 10
-9.057200355292633
 20
-1.90679662214659
 30
0.0
 11
-9.808997684974248
 21
-1.906796622146697
 31
0.0
  0
LINE
  5
9A
330
1F
100
AcDbEntity
  8
0
100
AcDbLine
 10
-7.951072316949485
 20
-2.670576149705489
 30
0.0
 11
-25.95107231694947
 21
-2.67057614970803
 31
0.0
  0
LINE
  5
9B
330
1F
100
AcDbEntity
  8
0
100
AcDbLine
 10
-7.951072316949627
 20
-1.670576149705489
 30
0.0
 11
-7.951072316949677
 21
-1.87057614970549
 31
0.0
  0
LINE
  5
9C
330
1F
100
AcDbEntity
  8
0
100
AcDbLine
 10
-25.95107231694964
 20
-1.67057614970803
 30
0.0
 11
-25.9510723169496
 21
-1.87057614970803
 31
0.0
  0
LINE
  5
9D
330
1F
100
AcDbEntity
  8
0
100
AcDbLine
 10
-7.951072316949627
 20
-1.670576149705489
 30
0.0
 11
-25.95107231694964
 21
-1.67057614970803
 31
0.0
  0
LINE
  5
9E
330
1F
100
AcDbEntity
  8
0
100
AcDbLine
 10
-24.09314694892493
 20
-1.906796622148713
 30
0.0
 11
-24.84494427860655
 21
-1.906796622148819
 31
0.0
  0
LINE
  5
9F
330
1F
100
AcDbEntity
  8
0
100
AcDbLine
 10
-23.34134961924332
 20
-1.906796622148607
 30
0.0
 11
-23.34134961924333
 21
-1.788686385928134
 31
0.0
  0
LINE
  5
A0
330
1F
100
AcDbEntity
  8
0
100
AcDbLine
 10
-25.95107231694951
 20
-2.470576149708047
 30
0.0
 11
-25.95107231694947
 21
-2.67057614970803
 31
0.0
  0
LINE
  5
A1
330
1F
100
AcDbEntity
  8
0
100
AcDbLine
 10
-25.95107231694957
 20
-2.07057614970803
 30
0.0
 11
-25.95107231694954
 21
-2.270576149708031
 31
0.0
  0
LINE
  5
A2
330
1F
100
AcDbEntity
  8
0
100
AcDbLine
 10
-25.59674160828818
 20
-1.87057614970798
 30
0.0
 11
-25.59674160828815
 21
-2.07057614970798
 31
0.0
  0
LINE
  5
A3
330
1F
100
AcDbEntity
  8
0
100
AcDbLine
 10
-25.9510723169496
 20
-1.87057614970803
 30
0.0
 11
-25.59674160828818
 21
-1.87057614970798
 31
0.0
  0
LINE
  5
A4
330
1F
100
AcDbEntity
  8
0
100
AcDbLine
 10
-25.95107231694957
 20
-2.07057614970803
 30
0.0
 11
-25.59674160828815
 21
-2.07057614970798
 31
0.0
  0
LINE
  5
A5
330
1F
100
AcDbEntity
  8
0
100
AcDbLine
 10
-25.59674160828812
 20
-2.27057614970798
 30
0.0
 11
-25.59674160828809
 21
-2.47057614970798
 31
0.0
  0
LINE
  5
A6
330
1F
100
AcDbEntity
  8
0
100
AcDbLine
 10
-25.95107231694954
 20
-2.270576149708031
 30
0.0
 11
-25.59674160828812
 21
-2.27057614970798
 31
0.0
  0
LINE
  5
A7
330
1F
100
AcDbEntity
  8
0
100
AcDbLine
 10
-25.95107231694951
 20
-2.470576149708047
 30
0.0
 11
-25.59674160828809
 21
-2.47057614970798
 31
0.0
  0
LINE
  5
A8
330
1F
100
AcDbEntity
  8
0
100
AcDbLine
 10
-7.951072316949549
 20
-2.470576149705489
 30
0.0
 11
-7.951072316949485
 21
-2.670576149705489
 31
0.0
  0
LINE
  5
A9
330
1F
100
AcDbEntity
  8
0
100
AcDbLine
 10
-7.951072316949649
 20
-2.070576149705469
 30
0.0
 11
-7.951072316949578
 21
-2.27057614970547
 31
0.0
  0
LINE
  5
AA
330
1F
100
AcDbEntity
  8
0
100
AcDbLine
 10
-8.30540302561112
 20
-1.870576149705471
 30
0.0
 11
-8.305403025611092
 21
-2.070576149705451
 31
0.0
  0
LINE
  5
AB
330
1F
100
AcDbEntity
  8
0
100
AcDbLine
 10
-7.951072316949649
 20
-2.070576149705469
 30
0.0
 11
-8.305403025611092
 21
-2.070576149705451
 31
0.0
  0
LINE
  5
AC
330
1F
100
AcDbEntity
  8
0
100
AcDbLine
 10
-7.951072316949677
 20
-1.87057614970549
 30
0.0
 11
-8.30540302561112
 21
-1.870576149705471
 31
0.0
  0
LINE
  5
AD
330
1F
100
AcDbEntity
  8
0
100
AcDbLine
 10
-8.305403025611021
 20
-2.27057614970555
 30
0.0
 11
-8.305403025610993
 21
-2.470576149705569
 31
0.0
  0
LINE
  5
AE
330
1F
100
AcDbEntity
  8
0
100
AcDbLine
 10
-7.951072316949549
 20
-2.470576149705489
 30
0.0
 11
-8.305403025610993
 21
-2.470576149705569
 31
0.0
  0
LINE
  5
AF
330
1F
100
AcDbEntity
  8
0
100
AcDbLine
 10
-7.951072316949578
 20
-2.27057614970547
 30
0.0
 11
-8.305403025611021
 21
-2.27057614970555
 31
0.0
  0
LINE
  5
B0
330
1F
100
AcDbEntity
  8
0
100
AcDbLine
 10
3.918674811362479
 20
-9.957791749601906
 30
0.0
 11
3.212792458421302
 21
-9.957791749601906
 31
0.0
  0
LINE
  5
B1
330
1F
100
AcDbEntity
  8
0
100
AcDbLine
 10
2.506910105480125
 20
-9.957791749601906
 30
0.0
 11
1.80102775253895
 21
-9.957791749601906
 31
0.0
  0
LINE
  5
B2
330
1F
100
AcDbEntity
  8
0
100
AcDbLine
 10
1.095145399597772
 20
-9.957791749601906
 30
0.0
 11
0.3892630466565965
 21
-9.957791749601906
 31
0.0
  0
LINE
  5
B3
330
1F
100
AcDbEntity
  8
0
100
AcDbLine
 10
-4.551913423931639
 20
-9.957791749601906
 30
0.0
 11
-5.257795776872815
 21
-9.957791749601906
 31
0.0
  0
LINE
  5
B4
330
1F
100
AcDbEntity
  8
0
100
AcDbLine
 10
-3.140148718049286
 20
-9.957791749601906
 30
0.0
 11
-3.846031070990463
 21
-9.957791749601906
 31
0.0
  0
LINE
  5
B5
330
1F
100
AcDbEntity
  8
0
100
AcDbLine
 10
-1.728384012166934
 20
-9.957791749601906
 30
0.0
 11
-2.434266365108108
 21
-9.957791749601906
 31
0.0
  0
LINE
  5
B6
330
1F
100
AcDbEntity
  8
0
100
AcDbLine
 10
-0.316619306284581
 20
-9.957791749601906
 30
0.0
 11
-1.022501659225757
 21
-9.957791749601906
 31
0.0
  0
LINE
  5
B7
330
1F
100
AcDbEntity
  8
0
100
AcDbLine
 10
5.330439517244832
 20
-9.957791749601906
 30
0.0
 11
4.624557164303655
 21
-9.957791749601906
 31
0.0
  0
LINE
  5
B8
330
1F
100
AcDbEntity
  8
0
100
AcDbLine
 10
3.212792458421303
 20
8.042208250398094
 30
0.0
 11
3.91867481136248
 21
8.042208250398094
 31
0.0
  0
LINE
  5
B9
330
1F
100
AcDbEntity
  8
0
100
AcDbLine
 10
1.801027752538951
 20
8.042208250398094
 30
0.0
 11
2.506910105480126
 21
8.042208250398094
 31
0.0
  0
LINE
  5
BA
330
1F
100
AcDbEntity
  8
0
100
AcDbLine
 10
-5.257795776872813
 20
8.042208250398094
 30
0.0
 11
-4.551913423931637
 21
8.042208250398094
 31
0.0
  0
LINE
  5
BB
330
1F
100
AcDbEntity
  8
0
100
AcDbLine
 10
4.624557164303656
 20
8.042208250398094
 30
0.0
 11
5.330439517244833
 21
8.042208250398094
 31
0.0
  0
LINE
  5
BC
330
1F
100
AcDbEntity
  8
0
100
AcDbLine
 10
-1.022501659225756
 20
8.042208250398094
 30
0.0
 11
-0.3166193062845801
 21
8.042208250398094
 31
0.0
  0
LINE
  5
BD
330
1F
100
AcDbEntity
  8
0
100
AcDbLine
 10
-2.434266365108106
 20
8.042208250398094
 30
0.0
 11
-1.728384012166933
 21
8.042208250398094
 31
0.0
  0
LINE
  5
BE
330
1F
100
AcDbEntity
  8
0
100
AcDbLine
 10
-3.846031070990461
 20
8.042208250398094
 30
0.0
 11
-3.140148718049284
 21
8.042208250398094
 31
0.0
  0
LINE
  5
BF
330
1F
100
AcDbEntity
  8
0
100
AcDbLine
 10
0.3892630466565974
 20
8.042208250398094
 30
0.0
 11
1.095145399597773
 21
8.042208250398094
 31
0.0
  0
LINE
  5
C0
330
1F
100
AcDbEntity
  8
0
100
AcDbLine
 10
5.330439517244833
 20
7.687877541736672
 30
0.0
 11
5.681991161524524
 21
7.687877541736675
 31
0.0
  0
LINE
  5
C1
330
1F
100
AcDbEntity
  8
0
100
AcDbLine
 10
5.330439517244833
 20
8.042208250398094
 30
0.0
 11
5.330439517244833
 21
7.687877541736672
 31
0.0
  0
LINE
  5
C2
330
1F
100
AcDbEntity
  8
0
100
AcDbLine
 10
3.91867481136248
 20
7.687877541736672
 30
0.0
 11
4.624557164303656
 21
7.687877541736672
 31
0.0
  0
LINE
  5
C3
330
1F
100
AcDbEntity
  8
0
100
AcDbLine
 10
4.624557164303656
 20
8.042208250398094
 30
0.0
 11
4.624557164303656
 21
7.687877541736672
 31
0.0
  0
LINE
  5
C4
330
1F
100
AcDbEntity
  8
0
100
AcDbLine
 10
3.91867481136248
 20
8.042208250398094
 30
0.0
 11
3.91867481136248
 21
7.687877541736672
 31
0.0
  0
LINE
  5
C5
330
1F
100
AcDbEntity
  8
0
100
AcDbLine
 10
2.506910105480126
 20
7.687877541736672
 30
0.0
 11
3.212792458421303
 21
7.687877541736672
 31
0.0
  0
LINE
  5
C6
330
1F
100
AcDbEntity
  8
0
100
AcDbLine
 10
3.212792458421303
 20
8.042208250398094
 30
0.0
 11
3.212792458421303
 21
7.687877541736672
 31
0.0
  0
LINE
  5
C7
330
1F
100
AcDbEntity
  8
0
100
AcDbLine
 10
2.506910105480126
 20
8.042208250398094
 30
0.0
 11
2.506910105480126
 21
7.687877541736672
 31
0.0
  0
LINE
  5
C8
330
1F
100
AcDbEntity
  8
0
100
AcDbLine
 10
1.095145399597773
 20
7.687877541736672
 30
0.0
 11
1.801027752538951
 21
7.687877541736672
 31
0.0
  0
LINE
  5
C9
330
1F
100
AcDbEntity
  8
0
100
AcDbLine
 10
1.801027752538951
 20
8.042208250398094
 30
0.0
 11
1.801027752538951
 21
7.687877541736672
 31
0.0
  0
LINE
  5
CA
330
1F
100
AcDbEntity
  8
0
100
AcDbLine
 10
1.095145399597773
 20
8.042208250398094
 30
0.0
 11
1.095145399597773
 21
7.687877541736672
 31
0.0
  0
LINE
  5
CB
330
1F
100
AcDbEntity
  8
0
100
AcDbLine
 10
-0.3166193062845801
 20
7.687877541736672
 30
0.0
 11
0.3892630466565974
 21
7.687877541736672
 31
0.0
  0
LINE
  5
CC
330
1F
100
AcDbEntity
  8
0
100
AcDbLine
 10
0.3892630466565974
 20
8.042208250398094
 30
0.0
 11
0.3892630466565974
 21
7.687877541736672
 31
0.0
  0
LINE
  5
CD
330
1F
100
AcDbEntity
  8
0
100
AcDbLine
 10
-0.3166193062845801
 20
8.042208250398094
 30
0.0
 11
-0.3166193062845801
 21
7.687877541736672
 31
0.0
  0
LINE
  5
CE
330
1F
100
AcDbEntity
  8
0
100
AcDbLine
 10
-1.728384012166933
 20
7.687877541736672
 30
0.0
 11
-1.022501659225756
 21
7.687877541736672
 31
0.0
  0
LINE
  5
CF
330
1F
100
AcDbEntity
  8
0
100
AcDbLine
 10
-1.022501659225756
 20
8.042208250398094
 30
0.0
 11
-1.022501659225756
 21
7.687877541736672
 31
0.0
  0
LINE
  5
D0
330
1F
100
AcDbEntity
  8
0
100
AcDbLine
 10
-1.728384012166933
 20
8.042208250398094
 30
0.0
 11
-1.728384012166933
 21
7.687877541736672
 31
0.0
  0
LINE
  5
D1
330
1F
100
AcDbEntity
  8
0
100
AcDbLine
 10
-3.140148718049284
 20
7.687877541736672
 30
0.0
 11
-2.434266365108106
 21
7.687877541736672
 31
0.0
  0
LINE
  5
D2
330
1F
100
AcDbEntity
  8
0
100
AcDbLine
 10
-2.434266365108106
 20
8.042208250398094
 30
0.0
 11
-2.434266365108106
 21
7.687877541736672
 31
0.0
  0
LINE
  5
D3
330
1F
100
AcDbEntity
  8
0
100
AcDbLine
 10
-3.140148718049284
 20
8.042208250398094
 30
0.0
 11
-3.140148718049284
 21
7.687877541736672
 31
0.0
  0
LINE
  5
D4
330
1F
100
AcDbEntity
  8
0
100
AcDbLine
 10
-4.551913423931637
 20
7.687877541736672
 30
0.0
 11
-3.846031070990461
 21
7.687877541736672
 31
0.0
  0
LINE
  5
D5
330
1F
100
AcDbEntity
  8
0
100
AcDbLine
 10
-3.846031070990461
 20
8.042208250398094
 30
0.0
 11
-3.846031070990461
 21
7.687877541736672
 31
0.0
  0
LINE
  5
D6
330
1F
100
AcDbEntity
  8
0
100
AcDbLine
 10
-4.551913423931637
 20
8.042208250398094
 30
0.0
 11
-4.551913423931637
 21
7.687877541736672
 31
0.0
  0
LINE
  5
D7
330
1F
100
AcDbEntity
  8
0
100
AcDbLine
 10
-5.609347421152634
 20
7.687877541736672
 30
0.0
 11
-5.257795776872813
 21
7.687877541736672
 31
0.0
  0
LINE
  5
D8
330
1F
100
AcDbEntity
  8
0
100
AcDbLine
 10
-5.257795776872813
 20
8.042208250398094
 30
0.0
 11
-5.257795776872813
 21
7.687877541736672
 31
0.0
  0
LINE
  5
D9
330
1F
100
AcDbEntity
  8
0
100
AcDbLine
 10
5.681991161524523
 20
-9.603461040940477
 30
0.0
 11
5.330439517244832
 21
-9.603461040940484
 31
0.0
  0
LINE
  5
DA
330
1F
100
AcDbEntity
  8
0
100
AcDbLine
 10
5.330439517244832
 20
-9.957791749601906
 30
0.0
 11
5.330439517244832
 21
-9.603461040940484
 31
0.0
  0
LINE
  5
DB
330
1F
100
AcDbEntity
  8
0
100
AcDbLine
 10
4.624557164303655
 20
-9.603461040940484
 30
0.0
 11
3.918674811362479
 21
-9.603461040940484
 31
0.0
  0
LINE
  5
DC
330
1F
100
AcDbEntity
  8
0
100
AcDbLine
 10
3.918674811362479
 20
-9.957791749601906
 30
0.0
 11
3.918674811362479
 21
-9.603461040940484
 31
0.0
  0
LINE
  5
DD
330
1F
100
AcDbEntity
  8
0
100
AcDbLine
 10
4.624557164303655
 20
-9.957791749601906
 30
0.0
 11
4.624557164303655
 21
-9.603461040940484
 31
0.0
  0
LINE
  5
DE
330
1F
100
AcDbEntity
  8
0
100
AcDbLine
 10
3.212792458421302
 20
-9.603461040940484
 30
0.0
 11
2.506910105480125
 21
-9.603461040940484
 31
0.0
  0
LINE
  5
DF
330
1F
100
AcDbEntity
  8
0
100
AcDbLine
 10
2.506910105480125
 20
-9.957791749601906
 30
0.0
 11
2.506910105480125
 21
-9.603461040940484
 31
0.0
  0
LINE
  5
E0
330
1F
100
AcDbEntity
  8
0
100
AcDbLine
 10
3.212792458421302
 20
-9.957791749601906
 30
0.0
 11
3.212792458421302
 21
-9.603461040940484
 31
0.0
  0
LINE
  5
E1
330
1F
100
AcDbEntity
  8
0
100
AcDbLine
 10
1.80102775253895
 20
-9.603461040940484
 30
0.0
 11
1.095145399597772
 21
-9.603461040940484
 31
0.0
  0
LINE
  5
E2
330
1F
100
AcDbEntity
  8
0
100
AcDbLine
 10
1.095145399597772
 20
-9.957791749601906
 30
0.0
 11
1.095145399597772
 21
-9.603461040940484
 31
0.0
  0
LINE
  5
E3
330
1F
100
AcDbEntity
  8
0
100
AcDbLine
 10
1.80102775253895
 20
-9.957791749601906
 30
0.0
 11
1.80102775253895
 21
-9.603461040940484
 31
0.0
  0
LINE
  5
E4
330
1F
100
AcDbEntity
  8
0
100
AcDbLine
 10
0.3892630466565965
 20
-9.603461040940484
 30
0.0
 11
-0.316619306284581
 21
-9.603461040940484
 31
0.0
  0
LINE
  5
E5
330
1F
100
AcDbEntity
  8
0
100
AcDbLine
 10
-0.316619306284581
 20
-9.957791749601906
 30
0.0
 11
-0.316619306284581
 21
-9.603461040940484
 31
0.0
  0
LINE
  5
E6
330
1F
100
AcDbEntity
  8
0
100
AcDbLine
 10
0.3892630466565965
 20
-9.957791749601906
 30
0.0
 11
0.3892630466565965
 21
-9.603461040940484
 31
0.0
  0
LINE
  5
E7
330
1F
100
AcDbEntity
  8
0
100
AcDbLine
 10
-1.022501659225757
 20
-9.603461040940484
 30
0.0
 11
-1.728384012166934
 21
-9.603461040940484
 31
0.0
  0
LINE
  5
E8
330
1F
100
AcDbEntity
  8
0
100
AcDbLine
 10
-1.728384012166934
 20
-9.957791749601906
 30
0.0
 11
-1.728384012166934
 21
-9.603461040940484
 31
0.0
  0
LINE
  5
E9
330
1F
100
AcDbEntity
  8
0
100
AcDbLine
 10
-1.022501659225757
 20
-9.957791749601906
 30
0.0
 11
-1.022501659225757
 21
-9.603461040940484
 31
0.0
  0
LINE
  5
EA
330
1F
100
AcDbEntity
  8
0
100
AcDbLine
 10
-2.434266365108108
 20
-9.603461040940484
 30
0.0
 11
-3.140148718049286
 21
-9.603461040940484
 31
0.0
  0
LINE
  5
EB
330
1F
100
AcDbEntity
  8
0
100
AcDbLine
 10
-3.140148718049286
 20
-9.957791749601906
 30
0.0
 11
-3.140148718049286
 21
-9.603461040940484
 31
0.0
  0
LINE
  5
EC
330
1F
100
AcDbEntity
  8
0
100
AcDbLine
 10
-2.434266365108108
 20
-9.957791749601906
 30
0.0
 11
-2.434266365108108
 21
-9.603461040940484
 31
0.0
  0
LINE
  5
ED
330
1F
100
AcDbEntity
  8
0
100
AcDbLine
 10
-3.846031070990463
 20
-9.603461040940484
 30
0.0
 11
-4.551913423931639
 21
-9.603461040940484
 31
0.0
  0
LINE
  5
EE
330
1F
100
AcDbEntity
  8
0
100
AcDbLine
 10
-4.551913423931639
 20
-9.957791749601906
 30
0.0
 11
-4.551913423931639
 21
-9.603461040940484
 31
0.0
  0
LINE
  5
EF
330
1F
100
AcDbEntity
  8
0
100
AcDbLine
 10
-3.846031070990463
 20
-9.957791749601906
 30
0.0
 11
-3.846031070990463
 21
-9.603461040940484
 31
0.0
  0
LINE
  5
F0
330
1F
100
AcDbEntity
  8
0
100
AcDbLine
 10
-5.257795776872815
 20
-9.603461040940484
 30
0.0
 11
-5.609347421152636
 21
-9.603461040940482
 31
0.0
  0
LINE
  5
F1
330
1F
100
AcDbEntity
  8
0
100
AcDbLine
 10
-5.257795776872815
 20
-9.957791749601906
 30
0.0
 11
-5.257795776872815
 21
-9.603461040940484
 31
0.0
  0
LINE
  5
F2
330
1F
100
AcDbEntity
  8
0
100
AcDbLine
 10
-5.963678129813994
 20
-8.851663711258867
 30
0.0
 11
-5.963678129813992
 21
-8.099866381577252
 31
0.0
  0
LINE
  5
F3
330
1F
100
AcDbEntity
  8
0
100
AcDbLine
 10
-5.963678129813992
 20
-7.348069051895637
 30
0.0
 11
-5.963678129813992
 21
-6.596271722214022
 31
0.0
  0
LINE
  5
F4
330
1F
100
AcDbEntity
  8
0
100
AcDbLine
 10
-5.963678129813992
 20
-5.844474392532406
 30
0.0
 11
-5.963678129813992
 21
-5.09267706285079
 31
0.0
  0
LINE
  5
F5
330
1F
100
AcDbEntity
  8
0
100
AcDbLine
 10
-5.963678129813992
 20
-4.340879733169174
 30
0.0
 11
-5.963678129813992
 21
-3.589082403487559
 31
0.0
  0
LINE
  5
F6
330
1F
100
AcDbEntity
  8
0
100
AcDbLine
 10
-5.963678129813992
 20
-2.837285073805945
 30
0.0
 11
-5.963678129813992
 21
-2.085487744124329
 31
0.0
  0
LINE
  5
F7
330
1F
100
AcDbEntity
  8
0
100
AcDbLine
 10
-5.963678129813992
 20
-1.333690414442714
 30
0.0
 11
-5.963678129813992
 21
-0.5818930847610986
 31
0.0
  0
LINE
  5
F8
330
1F
100
AcDbEntity
  8
0
100
AcDbLine
 10
-5.963678129813992
 20
0.1699042449205148
 30
0.0
 11
-5.963678129813992
 21
0.9217015746021335
 31
0.0
  0
LINE
  5
F9
330
1F
100
AcDbEntity
  8
0
100
AcDbLine
 10
-5.963678129813992
 20
1.673498904283747
 30
0.0
 11
-5.963678129813992
 21
2.425296233965364
 31
0.0
  0
LINE
  5
FA
330
1F
100
AcDbEntity
  8
0
100
AcDbLine
 10
-5.963678129813992
 20
3.177093563646979
 30
0.0
 11
-5.963678129813992
 21
3.928890893328592
 31
0.0
  0
LINE
  5
FB
330
1F
100
AcDbEntity
  8
0
100
AcDbLine
 10
-5.963678129813992
 20
4.680688223010211
 30
0.0
 11
-5.963678129813992
 21
5.432485552691825
 31
0.0
  0
LINE
  5
FC
330
1F
100
AcDbEntity
  8
0
100
AcDbLine
 10
-5.96367812981399
 20
6.184282882373438
 30
0.0
 11
-5.96367812981399
 21
6.936080212055057
 31
0.0
  0
LINE
  5
FD
330
1F
100
AcDbEntity
  8
0
100
AcDbLine
 10
-5.609347421152634
 20
6.936080212055057
 30
0.0
 11
-5.609347421152634
 21
7.687877541736672
 31
0.0
  0
LINE
  5
FE
330
1F
100
AcDbEntity
  8
0
100
AcDbLine
 10
-5.96367812981399
 20
6.936080212055057
 30
0.0
 11
-5.609347421152634
 21
6.936080212055057
 31
0.0
  0
LINE
  5
FF
330
1F
100
AcDbEntity
  8
0
100
AcDbLine
 10
-5.609347421152636
 20
5.432485552691825
 30
0.0
 11
-5.609347421152634
 21
6.184282882373438
 31
0.0
  0
LINE
  5
100
330
1F
100
AcDbEntity
  8
0
100
AcDbLine
 10
-5.96367812981399
 20
6.184282882373438
 30
0.0
 11
-5.609347421152634
 21
6.184282882373438
 31
0.0
  0
LINE
  5
101
330
1F
100
AcDbEntity
  8
0
100
AcDbLine
 10
-5.963678129813992
 20
5.432485552691825
 30
0.0
 11
-5.609347421152636
 21
5.432485552691825
 31
0.0
  0
LINE
  5
102
330
1F
100
AcDbEntity
  8
0
100
AcDbLine
 10
-5.609347421152636
 20
3.928890893328592
 30
0.0
 11
-5.609347421152636
 21
4.680688223010211
 31
0.0
  0
LINE
  5
103
330
1F
100
AcDbEntity
  8
0
100
AcDbLine
 10
-5.963678129813992
 20
4.680688223010211
 30
0.0
 11
-5.609347421152636
 21
4.680688223010211
 31
0.0
  0
LINE
  5
104
330
1F
100
AcDbEntity
  8
0
100
AcDbLine
 10
-5.963678129813992
 20
3.928890893328592
 30
0.0
 11
-5.609347421152636
 21
3.928890893328592
 31
0.0
  0
LINE
  5
105
330
1F
100
AcDbEntity
  8
0
100
AcDbLine
 10
-5.609347421152636
 20
2.425296233965364
 30
0.0
 11
-5.609347421152636
 21
3.177093563646979
 31
0.0
  0
LINE
  5
106
330
1F
100
AcDbEntity
  8
0
100
AcDbLine
 10
-5.963678129813992
 20
3.177093563646979
 30
0.0
 11
-5.609347421152636
 21
3.177093563646979
 31
0.0
  0
LINE
  5
107
330
1F
100
AcDbEntity
  8
0
100
AcDbLine
 10
-5.963678129813992
 20
2.425296233965364
 30
0.0
 11
-5.609347421152636
 21
2.425296233965364
 31
0.0
  0
LINE
  5
108
330
1F
100
AcDbEntity
  8
0
100
AcDbLine
 10
-5.609347421152636
 20
0.9217015746021335
 30
0.0
 11
-5.609347421152636
 21
1.673498904283747
 31
0.0
  0
LINE
  5
109
330
1F
100
AcDbEntity
  8
0
100
AcDbLine
 10
-5.963678129813992
 20
1.673498904283747
 30
0.0
 11
-5.609347421152636
 21
1.673498904283747
 31
0.0
  0
LINE
  5
10A
330
1F
100
AcDbEntity
  8
0
100
AcDbLine
 10
-5.963678129813992
 20
0.9217015746021335
 30
0.0
 11
-5.609347421152636
 21
0.9217015746021335
 31
0.0
  0
LINE
  5
10B
330
1F
100
AcDbEntity
  8
0
100
AcDbLine
 10
-5.609347421152636
 20
-0.5818930847610986
 30
0.0
 11
-5.609347421152636
 21
0.1699042449205148
 31
0.0
  0
LINE
  5
10C
330
1F
100
AcDbEntity
  8
0
100
AcDbLine
 10
-5.963678129813992
 20
0.1699042449205148
 30
0.0
 11
-5.609347421152636
 21
0.1699042449205148
 31
0.0
  0
LINE
  5
10D
330
1F
100
AcDbEntity
  8
0
100
AcDbLine
 10
-5.963678129813992
 20
-0.5818930847610986
 30
0.0
 11
-5.609347421152636
 21
-0.5818930847610986
 31
0.0
  0
LINE
  5
10E
330
1F
100
AcDbEntity
  8
0
100
AcDbLine
 10
-5.609347421152636
 20
-2.085487744124329
 30
0.0
 11
-5.609347421152636
 21
-1.333690414442714
 31
0.0
  0
LINE
  5
10F
330
1F
100
AcDbEntity
  8
0
100
AcDbLine
 10
-5.963678129813992
 20
-1.333690414442714
 30
0.0
 11
-5.609347421152636
 21
-1.333690414442714
 31
0.0
  0
LINE
  5
110
330
1F
100
AcDbEntity
  8
0
100
AcDbLine
 10
-5.963678129813992
 20
-2.085487744124329
 30
0.0
 11
-5.609347421152636
 21
-2.085487744124329
 31
0.0
  0
LINE
  5
111
330
1F
100
AcDbEntity
  8
0
100
AcDbLine
 10
-5.609347421152636
 20
-3.589082403487559
 30
0.0
 11
-5.609347421152636
 21
-2.837285073805945
 31
0.0
  0
LINE
  5
112
330
1F
100
AcDbEntity
  8
0
100
AcDbLine
 10
-5.963678129813992
 20
-2.837285073805945
 30
0.0
 11
-5.609347421152636
 21
-2.837285073805945
 31
0.0
  0
LINE
  5
113
330
1F
100
AcDbEntity
  8
0
100
AcDbLine
 10
-5.963678129813992
 20
-3.589082403487559
 30
0.0
 11
-5.609347421152636
 21
-3.589082403487559
 31
0.0
  0
LINE
  5
114
330
1F
100
AcDbEntity
  8
0
100
AcDbLine
 10
-5.609347421152636
 20
-5.09267706285079
 30
0.0
 11
-5.609347421152636
 21
-4.340879733169174
 31
0.0
  0
LINE
  5
115
330
1F
100
AcDbEntity
  8
0
100
AcDbLine
 10
-5.963678129813992
 20
-4.340879733169174
 30
0.0
 11
-5.609347421152636
 21
-4.340879733169174
 31
0.0
  0
LINE
  5
116
330
1F
100
AcDbEntity
  8
0
100
AcDbLine
 10
-5.963678129813992
 20
-5.09267706285079
 30
0.0
 11
-5.609347421152636
 21
-5.09267706285079
 31
0.0
  0
LINE
  5
117
330
1F
100
AcDbEntity
  8
0
100
AcDbLine
 10
-5.609347421152636
 20
-6.596271722214022
 30
0.0
 11
-5.609347421152636
 21
-5.844474392532406
 31
0.0
  0
LINE
  5
118
330
1F
100
AcDbEntity
  8
0
100
AcDbLine
 10
-5.963678129813992
 20
-5.844474392532406
 30
0.0
 11
-5.609347421152636
 21
-5.844474392532406
 31
0.0
  0
LINE
  5
119
330
1F
100
AcDbEntity
  8
0
100
AcDbLine
 10
-5.963678129813992
 20
-6.596271722214022
 30
0.0
 11
-5.609347421152636
 21
-6.596271722214022
 31
0.0
  0
LINE
  5
11A
330
1F
100
AcDbEntity
  8
0
100
AcDbLine
 10
-5.609347421152636
 20
-8.099866381577252
 30
0.0
 11
-5.609347421152636
 21
-7.348069051895637
 31
0.0
  0
LINE
  5
11B
330
1F
100
AcDbEntity
  8
0
100
AcDbLine
 10
-5.963678129813992
 20
-7.348069051895637
 30
0.0
 11
-5.609347421152636
 21
-7.348069051895637
 31
0.0
  0
LINE
  5
11C
330
1F
100
AcDbEntity
  8
0
100
AcDbLine
 10
-5.963678129813992
 20
-8.099866381577252
 30
0.0
 11
-5.609347421152636
 21
-8.099866381577252
 31
0.0
  0
LINE
  5
11D
330
1F
100
AcDbEntity
  8
0
100
AcDbLine
 10
-5.609347421152636
 20
-9.603461040940482
 30
0.0
 11
-5.609347421152638
 21
-8.851663711258867
 31
0.0
  0
LINE
  5
11E
330
1F
100
AcDbEntity
  8
0
100
AcDbLine
 10
-5.963678129813994
 20
-8.851663711258867
 30
0.0
 11
-5.609347421152638
 21
-8.851663711258867
 31
0.0
  0
LINE
  5
11F
330
1F
100
AcDbEntity
  8
0
100
AcDbLine
 10
6.036321870186026
 20
0.9217015746021335
 30
0.0
 11
6.036321870186026
 21
0.1699042449205148
 31
0.0
  0
LINE
  5
120
330
1F
100
AcDbEntity
  8
0
100
AcDbLine
 10
6.036321870186026
 20
2.425296233965364
 30
0.0
 11
6.036321870186026
 21
1.673498904283747
 31
0.0
  0
LINE
  5
121
330
1F
100
AcDbEntity
  8
0
100
AcDbLine
 10
6.036321870186026
 20
3.928890893328592
 30
0.0
 11
6.036321870186026
 21
3.177093563646979
 31
0.0
  0
LINE
  5
122
330
1F
100
AcDbEntity
  8
0
100
AcDbLine
 10
6.036321870186026
 20
5.432485552691825
 30
0.0
 11
6.036321870186026
 21
4.680688223010211
 31
0.0
  0
LINE
  5
123
330
1F
100
AcDbEntity
  8
0
100
AcDbLine
 10
6.036321870186026
 20
6.936080212055057
 30
0.0
 11
6.036321870186026
 21
6.184282882373438
 31
0.0
  0
LINE
  5
124
330
1F
100
AcDbEntity
  8
0
100
AcDbLine
 10
6.036321870186025
 20
-8.099866381577254
 30
0.0
 11
6.036321870186023
 21
-8.851663711258869
 31
0.0
  0
LINE
  5
125
330
1F
100
AcDbEntity
  8
0
100
AcDbLine
 10
6.036321870186025
 20
-6.596271722214022
 30
0.0
 11
6.036321870186025
 21
-7.348069051895638
 31
0.0
  0
LINE
  5
126
330
1F
100
AcDbEntity
  8
0
100
AcDbLine
 10
6.036321870186025
 20
-5.092677062850791
 30
0.0
 11
6.036321870186025
 21
-5.844474392532407
 31
0.0
  0
LINE
  5
127
330
1F
100
AcDbEntity
  8
0
100
AcDbLine
 10
6.036321870186025
 20
-3.589082403487561
 30
0.0
 11
6.036321870186025
 21
-4.340879733169176
 31
0.0
  0
LINE
  5
128
330
1F
100
AcDbEntity
  8
0
100
AcDbLine
 10
6.036321870186025
 20
-2.085487744124331
 30
0.0
 11
6.036321870186025
 21
-2.837285073805946
 31
0.0
  0
LINE
  5
129
330
1F
100
AcDbEntity
  8
0
100
AcDbLine
 10
6.036321870186026
 20
-0.5818930847610986
 30
0.0
 11
6.036321870186026
 21
-1.333690414442714
 31
0.0
  0
LINE
  5
12A
330
1F
100
AcDbEntity
  8
0
100
AcDbLine
 10
5.681991161524524
 20
7.687877541736675
 30
0.0
 11
5.68199116152454
 21
6.93608021205506
 31
0.0
  0
LINE
  5
12B
330
1F
100
AcDbEntity
  8
0
100
AcDbLine
 10
6.036321870186026
 20
6.936080212055057
 30
0.0
 11
5.68199116152454
 21
6.93608021205506
 31
0.0
  0
LINE
  5
12C
330
1F
100
AcDbEntity
  8
0
100
AcDbLine
 10
5.68199116152454
 20
6.184282882373438
 30
0.0
 11
5.68199116152454
 21
5.432485552691825
 31
0.0
  0
LINE
  5
12D
330
1F
100
AcDbEntity
  8
0
100
AcDbLine
 10
6.036321870186026
 20
5.432485552691825
 30
0.0
 11
5.68199116152454
 21
5.432485552691825
 31
0.0
  0
LINE
  5
12E
330
1F
100
AcDbEntity
  8
0
100
AcDbLine
 10
6.036321870186026
 20
6.184282882373438
 30
0.0
 11
5.68199116152454
 21
6.184282882373438
 31
0.0
  0
LINE
  5
12F
330
1F
100
AcDbEntity
  8
0
100
AcDbLine
 10
5.68199116152454
 20
4.680688223010211
 30
0.0
 11
5.68199116152454
 21
3.928890893328592
 31
0.0
  0
LINE
  5
130
330
1F
100
AcDbEntity
  8
0
100
AcDbLine
 10
6.036321870186026
 20
3.928890893328592
 30
0.0
 11
5.68199116152454
 21
3.928890893328592
 31
0.0
  0
LINE
  5
131
330
1F
100
AcDbEntity
  8
0
100
AcDbLine
 10
6.036321870186026
 20
4.680688223010211
 30
0.0
 11
5.68199116152454
 21
4.680688223010211
 31
0.0
  0
LINE
  5
132
330
1F
100
AcDbEntity
  8
0
100
AcDbLine
 10
5.68199116152454
 20
3.177093563646979
 30
0.0
 11
5.68199116152454
 21
2.425296233965364
 31
0.0
  0
LINE
  5
133
330
1F
100
AcDbEntity
  8
0
100
AcDbLine
 10
6.036321870186026
 20
2.425296233965364
 30
0.0
 11
5.68199116152454
 21
2.425296233965364
 31
0.0
  0
LINE
  5
134
330
1F
100
AcDbEntity
  8
0
100
AcDbLine
 10
6.036321870186026
 20
3.177093563646979
 30
0.0
 11
5.68199116152454
 21
3.177093563646979
 31
0.0
  0
LINE
  5
135
330
1F
100
AcDbEntity
  8
0
100
AcDbLine
 10
5.68199116152454
 20
1.673498904283747
 30
0.0
 11
5.68199116152454
 21
0.9217015746021335
 31
0.0
  0
LINE
  5
136
330
1F
100
AcDbEntity
  8
0
100
AcDbLine
 10
6.036321870186026
 20
0.9217015746021335
 30
0.0
 11
5.68199116152454
 21
0.9217015746021335
 31
0.0
  0
LINE
  5
137
330
1F
100
AcDbEntity
  8
0
100
AcDbLine
 10
6.036321870186026
 20
1.673498904283747
 30
0.0
 11
5.68199116152454
 21
1.673498904283747
 31
0.0
  0
LINE
  5
138
330
1F
100
AcDbEntity
  8
0
100
AcDbLine
 10
5.68199116152454
 20
0.1699042449205148
 30
0.0
 11
5.68199116152454
 21
-0.5818930847610986
 31
0.0
  0
LINE
  5
139
330
1F
100
AcDbEntity
  8
0
100
AcDbLine
 10
6.036321870186026
 20
-0.5818930847610986
 30
0.0
 11
5.68199116152454
 21
-0.5818930847610986
 31
0.0
  0
LINE
  5
13A
330
1F
100
AcDbEntity
  8
0
100
AcDbLine
 10
6.036321870186026
 20
0.1699042449205148
 30
0.0
 11
5.68199116152454
 21
0.1699042449205148
 31
0.0
  0
LINE
  5
13B
330
1F
100
AcDbEntity
  8
0
100
AcDbLine
 10
5.68199116152454
 20
-1.333690414442714
 30
0.0
 11
5.68199116152454
 21
-2.085487744124331
 31
0.0
  0
LINE
  5
13C
330
1F
100
AcDbEntity
  8
0
100
AcDbLine
 10
6.036321870186025
 20
-2.085487744124331
 30
0.0
 11
5.68199116152454
 21
-2.085487744124331
 31
0.0
  0
LINE
  5
13D
330
1F
100
AcDbEntity
  8
0
100
AcDbLine
 10
6.036321870186026
 20
-1.333690414442714
 30
0.0
 11
5.68199116152454
 21
-1.333690414442714
 31
0.0
  0
LINE
  5
13E
330
1F
100
AcDbEntity
  8
0
100
AcDbLine
 10
5.68199116152454
 20
-2.837285073805946
 30
0.0
 11
5.68199116152454
 21
-3.589082403487561
 31
0.0
  0
LINE
  5
13F
330
1F
100
AcDbEntity
  8
0
100
AcDbLine
 10
6.036321870186025
 20
-3.589082403487561
 30
0.0
 11
5.68199116152454
 21
-3.589082403487561
 31
0.0
  0
LINE
  5
140
330
1F
100
AcDbEntity
  8
0
100
AcDbLine
 10
6.036321870186025
 20
-2.837285073805946
 30
0.0
 11
5.68199116152454
 21
-2.837285073805946
 31
0.0
  0
LINE
  5
141
330
1F
100
AcDbEntity
  8
0
100
AcDbLine
 10
5.68199116152454
 20
-4.340879733169176
 30
0.0
 11
5.68199116152454
 21
-5.092677062850791
 31
0.0
  0
LINE
  5
142
330
1F
100
AcDbEntity
  8
0
100
AcDbLine
 10
6.036321870186025
 20
-5.092677062850791
 30
0.0
 11
5.68199116152454
 21
-5.092677062850791
 31
0.0
  0
LINE
  5
143
330
1F
100
AcDbEntity
  8
0
100
AcDbLine
 10
6.036321870186025
 20
-4.340879733169176
 30
0.0
 11
5.68199116152454
 21
-4.340879733169176
 31
0.0
  0
LINE
  5
144
330
1F
100
AcDbEntity
  8
0
100
AcDbLine
 10
5.68199116152454
 20
-5.844474392532407
 30
0.0
 11
5.68199116152454
 21
-6.596271722214023
 31
0.0
  0
LINE
  5
145
330
1F
100
AcDbEntity
  8
0
100
AcDbLine
 10
6.036321870186025
 20
-6.596271722214022
 30
0.0
 11
5.68199116152454
 21
-6.596271722214023
 31
0.0
  0
LINE
  5
146
330
1F
100
AcDbEntity
  8
0
100
AcDbLine
 10
6.036321870186025
 20
-5.844474392532407
 30
0.0
 11
5.68199116152454
 21
-5.844474392532407
 31
0.0
  0
LINE
  5
147
330
1F
100
AcDbEntity
  8
0
100
AcDbLine
 10
5.68199116152454
 20
-7.348069051895639
 30
0.0
 11
5.68199116152454
 21
-8.099866381577254
 31
0.0
  0
LINE
  5
148
330
1F
100
AcDbEntity
  8
0
100
AcDbLine
 10
6.036321870186025
 20
-8.099866381577254
 30
0.0
 11
5.68199116152454
 21
-8.099866381577254
 31
0.0
  0
LINE
  5
149
330
1F
100
AcDbEntity
  8
0
100
AcDbLine
 10
6.036321870186025
 20
-7.348069051895638
 30
0.0
 11
5.68199116152454
 21
-7.348069051895639
 31
0.0
  0
LINE
  5
14A
330
1F
100
AcDbEntity
  8
0
100
AcDbLine
 10
5.681991161524538
 20
-8.851663711258862
 30
0.0
 11
5.681991161524523
 21
-9.603461040940477
 31
0.0
  0
LINE
  5
14B
330
1F
100
AcDbEntity
  8
0
100
AcDbLine
 10
6.036321870186023
 20
-8.851663711258869
 30
0.0
 11
5.681991161524538
 21
-8.851663711258862
 31
0.0
  0
LINE
  5
14C
330
1F
100
AcDbEntity
  8
0
100
AcDbLine
 10
-14.65695466989096
 20
3.218203377851077
 30
0.0
 11
-14.65695466989096
 21
3.336313614071549
 31
0.0
  0
LINE
  5
14D
330
1F
100
AcDbEntity
  8
0
100
AcDbLine
 10
-23.83342525812624
 20
3.218203377850979
 30
0.0
 11
-23.12754290518507
 21
3.218203377850987
 31
0.0
  0
LINE
  5
14E
330
1F
100
AcDbEntity
  8
0
100
AcDbLine
 10
-23.12754290518507
 20
3.336313614071459
 30
0.0
 11
-23.83342525812624
 21
3.336313614071452
 31
0.0
  0
LINE
  5
14F
330
1F
100
AcDbEntity
  8
0
100
AcDbLine
 10
-24.53930761106742
 20
3.218203377850972
 30
0.0
 11
-24.53930761106742
 21
3.336313614071444
 31
0.0
  0
LINE
  5
150
330
1F
100
AcDbEntity
  8
0
100
AcDbLine
 10
-22.42166055224389
 20
3.218203377850994
 30
0.0
 11
-21.71577819930272
 21
3.218203377851002
 31
0.0
  0
LINE
  5
151
330
1F
100
AcDbEntity
  8
0
100
AcDbLine
 10
-15.36283702283214
 20
3.336313614071542
 30
0.0
 11
-15.36283702283213
 21
3.218203377851069
 31
0.0
  0
LINE
  5
152
330
1F
100
AcDbEntity
  8
0
100
AcDbLine
 10
-23.12754290518507
 20
3.218203377850987
 30
0.0
 11
-23.12754290518507
 21
3.336313614071459
 31
0.0
  0
LINE
  5
153
330
1F
100
AcDbEntity
  8
0
100
AcDbLine
 10
-23.83342525812624
 20
3.336313614071452
 30
0.0
 11
-23.83342525812624
 21
3.218203377850979
 31
0.0
  0
LINE
  5
154
330
1F
100
AcDbEntity
  8
0
100
AcDbLine
 10
-25.2451899640086
 20
3.218203377850964
 30
0.0
 11
-24.53930761106742
 21
3.218203377850972
 31
0.0
  0
LINE
  5
155
330
1F
100
AcDbEntity
  8
0
100
AcDbLine
 10
-14.65695466989096
 20
3.336313614071549
 30
0.0
 11
-15.36283702283214
 21
3.336313614071542
 31
0.0
  0
LINE
  5
156
330
1F
100
AcDbEntity
  8
0
100
AcDbLine
 10
-15.36283702283213
 20
3.218203377851069
 30
0.0
 11
-14.65695466989096
 21
3.218203377851077
 31
0.0
  0
LINE
  5
157
330
1F
100
AcDbEntity
  8
0
100
AcDbLine
 10
-16.77460172871449
 20
3.336313614071527
 30
0.0
 11
-16.77460172871449
 21
3.218203377851054
 31
0.0
  0
LINE
  5
158
330
1F
100
AcDbEntity
  8
0
100
AcDbLine
 10
-17.48048408165566
 20
3.336313614071519
 30
0.0
 11
-18.18636643459684
 21
3.336313614071512
 31
0.0
  0
LINE
  5
159
330
1F
100
AcDbEntity
  8
0
100
AcDbLine
 10
-24.53930761106742
 20
3.336313614071444
 30
0.0
 11
-25.2451899640086
 21
3.336313614071436
 31
0.0
  0
LINE
  5
15A
330
1F
100
AcDbEntity
  8
0
100
AcDbLine
 10
-25.2451899640086
 20
3.336313614071436
 30
0.0
 11
-25.2451899640086
 21
3.218203377850964
 31
0.0
  0
LINE
  5
15B
330
1F
100
AcDbEntity
  8
0
100
AcDbLine
 10
-21.71577819930272
 20
3.218203377851002
 30
0.0
 11
-21.71577819930272
 21
3.336313614071474
 31
0.0
  0
LINE
  5
15C
330
1F
100
AcDbEntity
  8
0
100
AcDbLine
 10
-21.71577819930272
 20
3.336313614071474
 30
0.0
 11
-22.42166055224389
 21
3.336313614071467
 31
0.0
  0
LINE
  5
15D
330
1F
100
AcDbEntity
  8
0
100
AcDbLine
 10
-25.59674160828835
 20
3.054423850291905
 30
0.0
 11
-25.59674160828835
 21
2.854423850291905
 31
0.0
  0
LINE
  5
15E
330
1F
100
AcDbEntity
  8
0
100
AcDbLine
 10
-25.59674160828835
 20
2.654423850291905
 30
0.0
 11
-25.59674160828835
 21
2.454423850291906
 31
0.0
  0
LINE
  5
15F
330
1F
100
AcDbEntity
  8
0
100
AcDbLine
 10
-14.30540302561119
 20
3.054423850292025
 30
0.0
 11
-13.95107231694978
 21
3.054423850292029
 31
0.0
  0
LINE
  5
160
330
1F
100
AcDbEntity
  8
0
100
AcDbLine
 10
-25.95107231694979
 20
2.854423850291921
 30
0.0
 11
-25.95107231694979
 21
2.654423850291921
 31
0.0
  0
LINE
  5
161
330
1F
100
AcDbEntity
  8
0
100
AcDbLine
 10
-25.59674160828835
 20
3.054423850291905
 30
0.0
 11
-25.95107231694978
 21
3.054423850291921
 31
0.0
  0
LINE
  5
162
330
1F
100
AcDbEntity
  8
0
100
AcDbLine
 10
-25.59674160828835
 20
3.254423850291905
 30
0.0
 11
-25.95107231694978
 21
3.254423850291921
 31
0.0
  0
LINE
  5
163
330
1F
100
AcDbEntity
  8
0
100
AcDbLine
 10
-25.95107231694978
 20
3.254423850291921
 30
0.0
 11
-25.95107231694978
 21
3.054423850291921
 31
0.0
  0
LINE
  5
164
330
1F
100
AcDbEntity
  8
0
100
AcDbLine
 10
-25.59674160828835
 20
2.654423850291905
 30
0.0
 11
-25.95107231694979
 21
2.654423850291921
 31
0.0
  0
LINE
  5
165
330
1F
100
AcDbEntity
  8
0
100
AcDbLine
 10
-25.59674160828835
 20
2.854423850291905
 30
0.0
 11
-25.95107231694979
 21
2.854423850291921
 31
0.0
  0
LINE
  5
166
330
1F
100
AcDbEntity
  8
0
100
AcDbLine
 10
-21.00989584636154
 20
3.218203377851009
 30
0.0
 11
-20.30401349342036
 21
3.218203377851017
 31
0.0
  0
LINE
  5
167
330
1F
100
AcDbEntity
  8
0
100
AcDbLine
 10
-18.89224878753802
 20
3.336313614071504
 30
0.0
 11
-19.59813114047919
 21
3.336313614071496
 31
0.0
  0
LINE
  5
168
330
1F
100
AcDbEntity
  8
0
100
AcDbLine
 10
-14.30540302561119
 20
3.054423850292025
 30
0.0
 11
-14.30540302561119
 21
2.854423850292025
 31
0.0
  0
LINE
  5
169
330
1F
100
AcDbEntity
  8
0
100
AcDbLine
 10
-14.30540302561119
 20
2.654423850292025
 30
0.0
 11
-14.30540302561118
 21
2.454423850292025
 31
0.0
  0
LINE
  5
16A
330
1F
100
AcDbEntity
  8
0
100
AcDbLine
 10
-22.42166055224389
 20
3.336313614071467
 30
0.0
 11
-22.42166055224389
 21
3.218203377850994
 31
0.0
  0
LINE
  5
16B
330
1F
100
AcDbEntity
  8
0
100
AcDbLine
 10
-14.30540302561119
 20
3.254423850292025
 30
0.0
 11
-13.95107231694978
 21
3.254423850292029
 31
0.0
  0
LINE
  5
16C
330
1F
100
AcDbEntity
  8
0
100
AcDbLine
 10
-14.30540302561119
 20
2.654423850292025
 30
0.0
 11
-13.95107231694977
 21
2.654423850292029
 31
0.0
  0
LINE
  5
16D
330
1F
100
AcDbEntity
  8
0
100
AcDbLine
 10
-14.30540302561119
 20
2.854423850292025
 30
0.0
 11
-13.95107231694978
 21
2.854423850292029
 31
0.0
  0
LINE
  5
16E
330
1F
100
AcDbEntity
  8
0
100
AcDbLine
 10
-13.95107231694978
 20
2.854423850292029
 30
0.0
 11
-13.95107231694977
 21
2.654423850292029
 31
0.0
  0
LINE
  5
16F
330
1F
100
AcDbEntity
  8
0
100
AcDbLine
 10
-13.95107231694978
 20
3.254423850292029
 30
0.0
 11
-13.95107231694978
 21
3.054423850292029
 31
0.0
  0
LINE
  5
170
330
1F
100
AcDbEntity
  8
0
100
AcDbLine
 10
-19.59813114047919
 20
3.218203377851024
 30
0.0
 11
-18.89224878753801
 21
3.218203377851032
 31
0.0
  0
LINE
  5
171
330
1F
100
AcDbEntity
  8
0
100
AcDbLine
 10
-21.00989584636154
 20
3.336313614071482
 30
0.0
 11
-21.00989584636154
 21
3.218203377851009
 31
0.0
  0
LINE
  5
172
330
1F
100
AcDbEntity
  8
0
100
AcDbLine
 10
-19.59813114047919
 20
3.336313614071496
 30
0.0
 11
-19.59813114047919
 21
3.218203377851024
 31
0.0
  0
LINE
  5
173
330
1F
100
AcDbEntity
  8
0
100
AcDbLine
 10
-20.30401349342036
 20
3.336313614071489
 30
0.0
 11
-21.00989584636154
 21
3.336313614071482
 31
0.0
  0
LINE
  5
174
330
1F
100
AcDbEntity
  8
0
100
AcDbLine
 10
-20.30401349342036
 20
3.218203377851017
 30
0.0
 11
-20.30401349342036
 21
3.336313614071489
 31
0.0
  0
LINE
  5
175
330
1F
100
AcDbEntity
  8
0
100
AcDbLine
 10
-18.89224878753801
 20
3.218203377851032
 30
0.0
 11
-18.89224878753802
 21
3.336313614071504
 31
0.0
  0
LINE
  5
176
330
1F
100
AcDbEntity
  8
0
100
AcDbLine
 10
-18.18636643459683
 20
3.218203377851039
 30
0.0
 11
-17.48048408165566
 21
3.218203377851047
 31
0.0
  0
LINE
  5
177
330
1F
100
AcDbEntity
  8
0
100
AcDbLine
 10
-17.48048408165566
 20
3.218203377851047
 30
0.0
 11
-17.48048408165566
 21
3.336313614071519
 31
0.0
  0
LINE
  5
178
330
1F
100
AcDbEntity
  8
0
100
AcDbLine
 10
-17.25131279053059
 20
1.516923850291994
 30
0.0
 11
-17.3109072740048
 21
1.439258807347038
 31
0.0
  0
LINE
  5
179
330
1F
100
AcDbEntity
  8
0
100
AcDbLine
 10
-17.21385013209136
 20
1.607366708378549
 30
0.0
 11
-17.25131279053059
 21
1.516923850291994
 31
0.0
  0
LINE
  5
17A
330
1F
100
AcDbEntity
  8
0
100
AcDbLine
 10
-18.18636643459684
 20
3.336313614071512
 30
0.0
 11
-18.18636643459683
 21
3.218203377851039
 31
0.0
  0
LINE
  5
17B
330
1F
100
AcDbEntity
  8
0
100
AcDbLine
 10
-16.06871937577331
 20
3.218203377851061
 30
0.0
 11
-16.06871937577331
 21
3.336313614071534
 31
0.0
  0
LINE
  5
17C
330
1F
100
AcDbEntity
  8
0
100
AcDbLine
 10
-16.06871937577331
 20
3.336313614071534
 30
0.0
 11
-16.77460172871449
 21
3.336313614071527
 31
0.0
  0
LINE
  5
17D
330
1F
100
AcDbEntity
  8
0
100
AcDbLine
 10
-25.59674160828835
 20
3.454423850291905
 30
0.0
 11
-25.59674160828835
 21
3.254423850291905
 31
0.0
  0
LINE
  5
17E
330
1F
100
AcDbEntity
  8
0
100
AcDbLine
 10
-14.30540302561119
 20
3.454423850292025
 30
0.0
 11
-14.30540302561119
 21
3.254423850292025
 31
0.0
  0
LINE
  5
17F
330
1F
100
AcDbEntity
  8
0
100
AcDbLine
 10
-14.30540302561118
 20
2.454423850292025
 30
0.0
 11
-17.07607231694977
 21
2.454423850291996
 31
0.0
  0
LINE
  5
180
330
1F
100
AcDbEntity
  8
0
100
AcDbLine
 10
-25.59674160828835
 20
2.454423850291906
 30
0.0
 11
-22.82607231694976
 21
2.454423850291935
 31
0.0
  0
LINE
  5
181
330
1F
100
AcDbEntity
  8
0
100
AcDbLine
 10
-17.20107231694976
 20
1.704423850291995
 30
0.0
 11
-17.21385013209136
 21
1.607366708378549
 31
0.0
  0
LINE
  5
182
330
1F
100
AcDbEntity
  8
0
100
AcDbLine
 10
-22.68829450180815
 20
1.607366708378491
 30
0.0
 11
-22.70107231694976
 21
1.704423850291936
 31
0.0
  0
LINE
  5
183
330
1F
100
AcDbEntity
  8
0
100
AcDbLine
 10
-22.65083184336892
 20
1.516923850291937
 30
0.0
 11
-22.68829450180815
 21
1.607366708378491
 31
0.0
  0
LINE
  5
184
330
1F
100
AcDbEntity
  8
0
100
AcDbLine
 10
-22.59123735989471
 20
1.439258807346982
 30
0.0
 11
-22.65083184336892
 21
1.516923850291937
 31
0.0
  0
LINE
  5
185
330
1F
100
AcDbEntity
  8
0
100
AcDbLine
 10
-22.51357231694976
 20
1.379664323872773
 30
0.0
 11
-22.59123735989471
 21
1.439258807346982
 31
0.0
  0
LINE
  5
186
330
1F
100
AcDbEntity
  8
0
100
AcDbLine
 10
-22.4231294588632
 20
1.342201665433538
 30
0.0
 11
-22.51357231694976
 21
1.379664323872773
 31
0.0
  0
LINE
  5
187
330
1F
100
AcDbEntity
  8
0
100
AcDbLine
 10
-22.32607231694975
 20
1.32942385029194
 30
0.0
 11
-22.4231294588632
 21
1.342201665433538
 31
0.0
  0
LINE
  5
188
330
1F
100
AcDbEntity
  8
0
100
AcDbLine
 10
-22.32607231694975
 20
1.32942385029194
 30
0.0
 11
-17.57607231694975
 21
1.32942385029199
 31
0.0
  0
LINE
  5
189
330
1F
100
AcDbEntity
  8
0
100
AcDbLine
 10
-17.47901517503631
 20
1.342201665433591
 30
0.0
 11
-17.57607231694975
 21
1.32942385029199
 31
0.0
  0
LINE
  5
18A
330
1F
100
AcDbEntity
  8
0
100
AcDbLine
 10
-17.38857231694976
 20
1.379664323872828
 30
0.0
 11
-17.47901517503631
 21
1.342201665433591
 31
0.0
  0
LINE
  5
18B
330
1F
100
AcDbEntity
  8
0
100
AcDbLine
 10
-17.3109072740048
 20
1.439258807347038
 30
0.0
 11
-17.38857231694976
 21
1.379664323872828
 31
0.0
  0
LINE
  5
18C
330
1F
100
AcDbEntity
  8
0
100
AcDbLine
 10
-14.30540302561119
 20
3.454423850292025
 30
0.0
 11
-25.59674160828835
 21
3.454423850291905
 31
0.0
  0
LINE
  5
18D
330
1F
100
AcDbEntity
  8
0
100
AcDbLine
 10
-16.77460172871449
 20
3.218203377851054
 30
0.0
 11
-16.06871937577331
 21
3.218203377851061
 31
0.0
  0
LINE
  5
18E
330
1F
100
AcDbEntity
  8
0
100
AcDbLine
 10
-17.95107231694976
 20
1.829423850291987
 30
0.0
 11
-17.95107231694976
 21
2.329423850291988
 31
0.0
  0
LINE
  5
18F
330
1F
100
AcDbEntity
  8
0
100
AcDbLine
 10
-17.95107231694976
 20
1.829423850291987
 30
0.0
 11
-17.95214170927803
 21
1.81310807626448
 31
0.0
  0
LINE
  5
190
330
1F
100
AcDbEntity
  8
0
100
AcDbLine
 10
-17.95214170927803
 20
1.81310807626448
 30
0.0
 11
-17.95533158866363
 21
1.797071469654171
 31
0.0
  0
LINE
  5
191
330
1F
100
AcDbEntity
  8
0
100
AcDbLine
 10
-17.95533158866363
 20
1.797071469654171
 30
0.0
 11
-17.96058737538585
 21
1.78158842124635
 31
0.0
  0
LINE
  5
192
330
1F
100
AcDbEntity
  8
0
100
AcDbLine
 10
-17.96058737538585
 20
1.78158842124635
 30
0.0
 11
-17.9678191414767
 21
1.766923850291986
 31
0.0
  0
LINE
  5
193
330
1F
100
AcDbEntity
  8
0
100
AcDbLine
 10
-17.9678191414767
 20
1.766923850291986
 30
0.0
 11
-17.97690314941335
 21
1.753328671665896
 31
0.0
  0
LINE
  5
194
330
1F
100
AcDbEntity
  8
0
100
AcDbLine
 10
-17.97690314941335
 20
1.753328671665896
 30
0.0
 11
-17.98768396930144
 21
1.741035502643668
 31
0.0
  0
LINE
  5
195
330
1F
100
AcDbEntity
  8
0
100
AcDbLine
 10
-17.98768396930144
 20
1.741035502643668
 30
0.0
 11
-17.99997713832367
 21
1.730254682755582
 31
0.0
  0
LINE
  5
196
330
1F
100
AcDbEntity
  8
0
100
AcDbLine
 10
-17.99997713832367
 20
1.730254682755582
 30
0.0
 11
-18.01357231694976
 21
1.721170674818931
 31
0.0
  0
LINE
  5
197
330
1F
100
AcDbEntity
  8
0
100
AcDbLine
 10
-18.01357231694976
 20
1.721170674818931
 30
0.0
 11
-18.02823688790412
 21
1.713938908728075
 31
0.0
  0
LINE
  5
198
330
1F
100
AcDbEntity
  8
0
100
AcDbLine
 10
-18.02823688790412
 20
1.713938908728075
 30
0.0
 11
-18.04371993631194
 21
1.708683122005852
 31
0.0
  0
LINE
  5
199
330
1F
100
AcDbEntity
  8
0
100
AcDbLine
 10
-18.04371993631194
 20
1.708683122005852
 30
0.0
 11
-18.05975654292225
 21
1.705493242620259
 31
0.0
  0
LINE
  5
19A
330
1F
100
AcDbEntity
  8
0
100
AcDbLine
 10
-18.05975654292225
 20
1.705493242620259
 30
0.0
 11
-18.07607231694976
 21
1.704423850291985
 31
0.0
  0
LINE
  5
19B
330
1F
100
AcDbEntity
  8
0
100
AcDbLine
 10
-17.97690314941336
 20
2.405519028918078
 30
0.0
 11
-17.98768396930145
 21
2.417812197940305
 31
0.0
  0
LINE
  5
19C
330
1F
100
AcDbEntity
  8
0
100
AcDbLine
 10
-17.95533158866363
 20
2.361776230929803
 30
0.0
 11
-17.96058737538585
 21
2.377259279337624
 31
0.0
  0
LINE
  5
19D
330
1F
100
AcDbEntity
  8
0
100
AcDbLine
 10
-17.95214170927804
 20
2.345739624319495
 30
0.0
 11
-17.95533158866363
 21
2.361776230929803
 31
0.0
  0
LINE
  5
19E
330
1F
100
AcDbEntity
  8
0
100
AcDbLine
 10
-17.95107231694976
 20
2.329423850291988
 30
0.0
 11
-17.95214170927804
 21
2.345739624319495
 31
0.0
  0
LINE
  5
19F
330
1F
100
AcDbEntity
  8
0
100
AcDbLine
 10
-17.96058737538585
 20
2.377259279337624
 30
0.0
 11
-17.96781914147671
 21
2.391923850291986
 31
0.0
  0
LINE
  5
1A0
330
1F
100
AcDbEntity
  8
0
100
AcDbLine
 10
-17.96781914147671
 20
2.391923850291986
 30
0.0
 11
-17.97690314941336
 21
2.405519028918078
 31
0.0
  0
LINE
  5
1A1
330
1F
100
AcDbEntity
  8
0
100
AcDbLine
 10
-18.01357231694977
 20
2.437677025765041
 30
0.0
 11
-18.02823688790413
 21
2.444908791855897
 31
0.0
  0
LINE
  5
1A2
330
1F
100
AcDbEntity
  8
0
100
AcDbLine
 10
-18.05975654292226
 20
2.453354457963713
 30
0.0
 11
-18.07607231694977
 21
2.454423850291986
 31
0.0
  0
LINE
  5
1A3
330
1F
100
AcDbEntity
  8
0
100
AcDbLine
 10
-18.04371993631195
 20
2.45016457857812
 30
0.0
 11
-18.05975654292226
 21
2.453354457963713
 31
0.0
  0
LINE
  5
1A4
330
1F
100
AcDbEntity
  8
0
100
AcDbLine
 10
-18.02823688790413
 20
2.444908791855897
 30
0.0
 11
-18.04371993631195
 21
2.45016457857812
 31
0.0
  0
LINE
  5
1A5
330
1F
100
AcDbEntity
  8
0
100
AcDbLine
 10
-17.98768396930145
 20
2.417812197940305
 30
0.0
 11
-17.99997713832368
 21
2.428593017828391
 31
0.0
  0
LINE
  5
1A6
330
1F
100
AcDbEntity
  8
0
100
AcDbLine
 10
-17.99997713832368
 20
2.428593017828391
 30
0.0
 11
-18.01357231694977
 21
2.437677025765041
 31
0.0
  0
LINE
  5
1A7
330
1F
100
AcDbEntity
  8
0
100
AcDbLine
 10
-21.84238809097727
 20
2.453354457963672
 30
0.0
 11
-21.82607231694977
 21
2.454423850291946
 31
0.0
  0
LINE
  5
1A8
330
1F
100
AcDbEntity
  8
0
100
AcDbLine
 10
-21.85842469758758
 20
2.45016457857808
 30
0.0
 11
-21.84238809097727
 21
2.453354457963672
 31
0.0
  0
LINE
  5
1A9
330
1F
100
AcDbEntity
  8
0
100
AcDbLine
 10
-21.8739077459954
 20
2.444908791855856
 30
0.0
 11
-21.85842469758758
 21
2.45016457857808
 31
0.0
  0
LINE
  5
1AA
330
1F
100
AcDbEntity
  8
0
100
AcDbLine
 10
-21.88857231694977
 20
2.437677025765
 30
0.0
 11
-21.8739077459954
 21
2.444908791855856
 31
0.0
  0
LINE
  5
1AB
330
1F
100
AcDbEntity
  8
0
100
AcDbLine
 10
-21.90216749557585
 20
2.428593017828349
 30
0.0
 11
-21.88857231694977
 21
2.437677025765
 31
0.0
  0
LINE
  5
1AC
330
1F
100
AcDbEntity
  8
0
100
AcDbLine
 10
-21.91446066459808
 20
2.417812197940263
 30
0.0
 11
-21.90216749557585
 21
2.428593017828349
 31
0.0
  0
LINE
  5
1AD
330
1F
100
AcDbEntity
  8
0
100
AcDbLine
 10
-21.92524148448617
 20
2.405519028918036
 30
0.0
 11
-21.91446066459808
 21
2.417812197940263
 31
0.0
  0
LINE
  5
1AE
330
1F
100
AcDbEntity
  8
0
100
AcDbLine
 10
-21.93432549242281
 20
2.391923850291944
 30
0.0
 11
-21.92524148448617
 21
2.405519028918036
 31
0.0
  0
LINE
  5
1AF
330
1F
100
AcDbEntity
  8
0
100
AcDbLine
 10
-21.94155725851368
 20
2.377259279337582
 30
0.0
 11
-21.93432549242281
 21
2.391923850291944
 31
0.0
  0
LINE
  5
1B0
330
1F
100
AcDbEntity
  8
0
100
AcDbLine
 10
-21.94681304523589
 20
2.361776230929761
 30
0.0
 11
-21.94155725851368
 21
2.377259279337582
 31
0.0
  0
LINE
  5
1B1
330
1F
100
AcDbEntity
  8
0
100
AcDbLine
 10
-21.95000292462149
 20
2.345739624319452
 30
0.0
 11
-21.94681304523589
 21
2.361776230929761
 31
0.0
  0
LINE
  5
1B2
330
1F
100
AcDbEntity
  8
0
100
AcDbLine
 10
-21.95107231694976
 20
2.329423850291946
 30
0.0
 11
-21.95000292462149
 21
2.345739624319452
 31
0.0
  0
LINE
  5
1B3
330
1F
100
AcDbEntity
  8
0
100
AcDbLine
 10
-21.94681304523589
 20
1.797071469654129
 30
0.0
 11
-21.94155725851367
 21
1.781588421246308
 31
0.0
  0
LINE
  5
1B4
330
1F
100
AcDbEntity
  8
0
100
AcDbLine
 10
-21.87390774599539
 20
1.713938908728034
 30
0.0
 11
-21.85842469758757
 21
1.708683122005811
 31
0.0
  0
LINE
  5
1B5
330
1F
100
AcDbEntity
  8
0
100
AcDbLine
 10
-21.85842469758757
 20
1.708683122005811
 30
0.0
 11
-21.84238809097726
 21
1.705493242620219
 31
0.0
  0
LINE
  5
1B6
330
1F
100
AcDbEntity
  8
0
100
AcDbLine
 10
-21.84238809097726
 20
1.705493242620219
 30
0.0
 11
-21.82607231694976
 21
1.704423850291945
 31
0.0
  0
LINE
  5
1B7
330
1F
100
AcDbEntity
  8
0
100
AcDbLine
 10
-21.93432549242281
 20
1.766923850291944
 30
0.0
 11
-21.92524148448616
 21
1.753328671665854
 31
0.0
  0
LINE
  5
1B8
330
1F
100
AcDbEntity
  8
0
100
AcDbLine
 10
-21.88857231694976
 20
1.72117067481889
 30
0.0
 11
-21.87390774599539
 21
1.713938908728034
 31
0.0
  0
LINE
  5
1B9
330
1F
100
AcDbEntity
  8
0
100
AcDbLine
 10
-21.95107231694976
 20
1.829423850291944
 30
0.0
 11
-21.95000292462148
 21
1.813108076264437
 31
0.0
  0
LINE
  5
1BA
330
1F
100
AcDbEntity
  8
0
100
AcDbLine
 10
-21.92524148448616
 20
1.753328671665854
 30
0.0
 11
-21.91446066459807
 21
1.741035502643626
 31
0.0
  0
LINE
  5
1BB
330
1F
100
AcDbEntity
  8
0
100
AcDbLine
 10
-21.94155725851367
 20
1.781588421246308
 30
0.0
 11
-21.93432549242281
 21
1.766923850291944
 31
0.0
  0
LINE
  5
1BC
330
1F
100
AcDbEntity
  8
0
100
AcDbLine
 10
-21.91446066459807
 20
1.741035502643626
 30
0.0
 11
-21.90216749557585
 21
1.730254682755541
 31
0.0
  0
LINE
  5
1BD
330
1F
100
AcDbEntity
  8
0
100
AcDbLine
 10
-21.90216749557585
 20
1.730254682755541
 30
0.0
 11
-21.88857231694976
 21
1.72117067481889
 31
0.0
  0
LINE
  5
1BE
330
1F
100
AcDbEntity
  8
0
100
AcDbLine
 10
-21.95000292462148
 20
1.813108076264437
 30
0.0
 11
-21.94681304523589
 21
1.797071469654129
 31
0.0
  0
LINE
  5
1BF
330
1F
100
AcDbEntity
  8
0
100
AcDbLine
 10
-21.95107231694976
 20
2.329423850291946
 30
0.0
 11
-21.95107231694976
 21
1.829423850291944
 31
0.0
  0
LINE
  5
1C0
330
1F
100
AcDbEntity
  8
0
100
AcDbLine
 10
-21.82607231694977
 20
2.454423850291946
 30
0.0
 11
-18.07607231694977
 21
2.454423850291986
 31
0.0
  0
LINE
  5
1C1
330
1F
100
AcDbEntity
  8
0
100
AcDbLine
 10
-21.82607231694976
 20
1.704423850291945
 30
0.0
 11
-18.07607231694976
 21
1.704423850291985
 31
0.0
  0
LINE
  5
1C2
330
1F
100
AcDbEntity
  8
0
100
AcDbLine
 10
-17.15216749557586
 20
2.428593017828399
 30
0.0
 11
-17.13857231694978
 21
2.43767702576505
 31
0.0
  0
LINE
  5
1C3
330
1F
100
AcDbEntity
  8
0
100
AcDbLine
 10
-17.16446066459809
 20
2.417812197940314
 30
0.0
 11
-17.15216749557586
 21
2.428593017828399
 31
0.0
  0
LINE
  5
1C4
330
1F
100
AcDbEntity
  8
0
100
AcDbLine
 10
-17.12390774599541
 20
2.444908791855906
 30
0.0
 11
-17.10842469758759
 21
2.45016457857813
 31
0.0
  0
LINE
  5
1C5
330
1F
100
AcDbEntity
  8
0
100
AcDbLine
 10
-17.10842469758759
 20
2.45016457857813
 30
0.0
 11
-17.09238809097728
 21
2.453354457963723
 31
0.0
  0
LINE
  5
1C6
330
1F
100
AcDbEntity
  8
0
100
AcDbLine
 10
-17.09238809097728
 20
2.453354457963723
 30
0.0
 11
-17.07607231694977
 21
2.454423850291996
 31
0.0
  0
LINE
  5
1C7
330
1F
100
AcDbEntity
  8
0
100
AcDbLine
 10
-17.13857231694978
 20
2.43767702576505
 30
0.0
 11
-17.12390774599541
 21
2.444908791855906
 31
0.0
  0
LINE
  5
1C8
330
1F
100
AcDbEntity
  8
0
100
AcDbLine
 10
-17.18432549242283
 20
2.391923850291995
 30
0.0
 11
-17.17524148448618
 21
2.405519028918087
 31
0.0
  0
LINE
  5
1C9
330
1F
100
AcDbEntity
  8
0
100
AcDbLine
 10
-17.19155725851368
 20
2.377259279337632
 30
0.0
 11
-17.18432549242283
 21
2.391923850291995
 31
0.0
  0
LINE
  5
1CA
330
1F
100
AcDbEntity
  8
0
100
AcDbLine
 10
-17.20107231694977
 20
2.329423850291996
 30
0.0
 11
-17.2000029246215
 21
2.345739624319503
 31
0.0
  0
LINE
  5
1CB
330
1F
100
AcDbEntity
  8
0
100
AcDbLine
 10
-17.2000029246215
 20
2.345739624319503
 30
0.0
 11
-17.19681304523591
 21
2.361776230929811
 31
0.0
  0
LINE
  5
1CC
330
1F
100
AcDbEntity
  8
0
100
AcDbLine
 10
-17.17524148448618
 20
2.405519028918087
 30
0.0
 11
-17.16446066459809
 21
2.417812197940314
 31
0.0
  0
LINE
  5
1CD
330
1F
100
AcDbEntity
  8
0
100
AcDbLine
 10
-17.19681304523591
 20
2.361776230929811
 30
0.0
 11
-17.19155725851368
 21
2.377259279337632
 31
0.0
  0
LINE
  5
1CE
330
1F
100
AcDbEntity
  8
0
100
AcDbLine
 10
-17.20107231694977
 20
2.329423850291996
 30
0.0
 11
-17.20107231694976
 21
1.704423850291995
 31
0.0
  0
LINE
  5
1CF
330
1F
100
AcDbEntity
  8
0
100
AcDbLine
 10
-22.77823688790411
 20
2.444908791855847
 30
0.0
 11
-22.79371993631194
 21
2.45016457857807
 31
0.0
  0
LINE
  5
1D0
330
1F
100
AcDbEntity
  8
0
100
AcDbLine
 10
-22.76357231694975
 20
2.43767702576499
 30
0.0
 11
-22.77823688790411
 21
2.444908791855847
 31
0.0
  0
LINE
  5
1D1
330
1F
100
AcDbEntity
  8
0
100
AcDbLine
 10
-22.79371993631194
 20
2.45016457857807
 30
0.0
 11
-22.80975654292225
 21
2.453354457963662
 31
0.0
  0
LINE
  5
1D2
330
1F
100
AcDbEntity
  8
0
100
AcDbLine
 10
-22.70533158866362
 20
2.361776230929753
 30
0.0
 11
-22.71058737538585
 21
2.377259279337573
 31
0.0
  0
LINE
  5
1D3
330
1F
100
AcDbEntity
  8
0
100
AcDbLine
 10
-22.71781914147671
 20
2.391923850291936
 30
0.0
 11
-22.72690314941335
 21
2.405519028918027
 31
0.0
  0
LINE
  5
1D4
330
1F
100
AcDbEntity
  8
0
100
AcDbLine
 10
-22.73768396930144
 20
2.417812197940254
 30
0.0
 11
-22.74997713832366
 21
2.42859301782834
 31
0.0
  0
LINE
  5
1D5
330
1F
100
AcDbEntity
  8
0
100
AcDbLine
 10
-22.70214170927802
 20
2.345739624319444
 30
0.0
 11
-22.70533158866362
 21
2.361776230929753
 31
0.0
  0
LINE
  5
1D6
330
1F
100
AcDbEntity
  8
0
100
AcDbLine
 10
-22.71058737538585
 20
2.377259279337573
 30
0.0
 11
-22.71781914147671
 21
2.391923850291936
 31
0.0
  0
LINE
  5
1D7
330
1F
100
AcDbEntity
  8
0
100
AcDbLine
 10
-22.72690314941335
 20
2.405519028918027
 30
0.0
 11
-22.73768396930144
 21
2.417812197940254
 31
0.0
  0
LINE
  5
1D8
330
1F
100
AcDbEntity
  8
0
100
AcDbLine
 10
-22.80975654292225
 20
2.453354457963662
 30
0.0
 11
-22.82607231694976
 21
2.454423850291935
 31
0.0
  0
LINE
  5
1D9
330
1F
100
AcDbEntity
  8
0
100
AcDbLine
 10
-22.70107231694976
 20
2.329423850291938
 30
0.0
 11
-22.70214170927802
 21
2.345739624319444
 31
0.0
  0
LINE
  5
1DA
330
1F
100
AcDbEntity
  8
0
100
AcDbLine
 10
-22.74997713832366
 20
2.42859301782834
 30
0.0
 11
-22.76357231694975
 21
2.43767702576499
 31
0.0
  0
LINE
  5
1DB
330
1F
100
AcDbEntity
  8
0
100
AcDbLine
 10
-22.70107231694976
 20
2.329423850291938
 30
0.0
 11
-22.70107231694976
 21
1.704423850291936
 31
0.0
  0
LINE
  5
1DC
330
1F
100
AcDbEntity
  8
0
100
AcDbLine
 10
-7.951072316949784
 20
-0.6705761497054659
 30
0.0
 11
-25.95107231694977
 21
-0.6705761497080523
 31
0.0
  0
LINE
  5
1DD
330
1F
100
AcDbEntity
  8
0
100
AcDbLine
 10
-7.951072316949627
 20
-1.670576149705489
 30
0.0
 11
-7.951072316949748
 21
-1.470576149705465
 31
0.0
  0
LINE
  5
1DE
330
1F
100
AcDbEntity
  8
0
100
AcDbLine
 10
-25.95107231694964
 20
-1.67057614970803
 30
0.0
 11
-25.95107231694967
 21
-1.470576149708036
 31
0.0
  0
LINE
  5
1DF
330
1F
100
AcDbEntity
  8
0
100
AcDbLine
 10
-24.84494427860663
 20
-1.434355677266932
 30
0.0
 11
-24.84494427860662
 21
-1.552465913487404
 31
0.0
  0
LINE
  5
1E0
330
1F
100
AcDbEntity
  8
0
100
AcDbLine
 10
-24.84494427860662
 20
-1.552465913487404
 30
0.0
 11
-24.09314694892499
 21
-1.552465913487296
 31
0.0
  0
LINE
  5
1E1
330
1F
100
AcDbEntity
  8
0
100
AcDbLine
 10
-24.09314694892499
 20
-1.552465913487296
 30
0.0
 11
-24.09314694892501
 21
-1.434355677266824
 31
0.0
  0
LINE
  5
1E2
330
1F
100
AcDbEntity
  8
0
100
AcDbLine
 10
-24.09314694892501
 20
-1.434355677266824
 30
0.0
 11
-24.84494427860663
 21
-1.434355677266932
 31
0.0
  0
LINE
  5
1E3
330
1F
100
AcDbEntity
  8
0
100
AcDbLine
 10
-23.3413496192434
 20
-1.434355677266716
 30
0.0
 11
-23.34134961924338
 21
-1.552465913487188
 31
0.0
  0
LINE
  5
1E4
330
1F
100
AcDbEntity
  8
0
100
AcDbLine
 10
-23.34134961924338
 20
-1.552465913487188
 30
0.0
 11
-22.58955228956176
 21
-1.552465913487081
 31
0.0
  0
LINE
  5
1E5
330
1F
100
AcDbEntity
  8
0
100
AcDbLine
 10
-22.58955228956176
 20
-1.552465913487081
 30
0.0
 11
-22.58955228956178
 21
-1.434355677266608
 31
0.0
  0
LINE
  5
1E6
330
1F
100
AcDbEntity
  8
0
100
AcDbLine
 10
-22.58955228956178
 20
-1.434355677266608
 30
0.0
 11
-23.3413496192434
 21
-1.434355677266716
 31
0.0
  0
LINE
  5
1E7
330
1F
100
AcDbEntity
  8
0
100
AcDbLine
 10
-21.83775495988017
 20
-1.4343556772665
 30
0.0
 11
-21.83775495988014
 21
-1.552465913486972
 31
0.0
  0
LINE
  5
1E8
330
1F
100
AcDbEntity
  8
0
100
AcDbLine
 10
-21.83775495988014
 20
-1.552465913486972
 30
0.0
 11
-21.08595763019853
 21
-1.552465913486864
 31
0.0
  0
LINE
  5
1E9
330
1F
100
AcDbEntity
  8
0
100
AcDbLine
 10
-21.08595763019853
 20
-1.552465913486864
 30
0.0
 11
-21.08595763019855
 21
-1.434355677266391
 31
0.0
  0
LINE
  5
1EA
330
1F
100
AcDbEntity
  8
0
100
AcDbLine
 10
-21.08595763019855
 20
-1.434355677266391
 30
0.0
 11
-21.83775495988017
 21
-1.4343556772665
 31
0.0
  0
LINE
  5
1EB
330
1F
100
AcDbEntity
  8
0
100
AcDbLine
 10
-20.33416030051694
 20
-1.434355677266284
 30
0.0
 11
-20.33416030051691
 21
-1.552465913486756
 31
0.0
  0
LINE
  5
1EC
330
1F
100
AcDbEntity
  8
0
100
AcDbLine
 10
-20.33416030051691
 20
-1.552465913486756
 30
0.0
 11
-19.5823629708353
 21
-1.552465913486648
 31
0.0
  0
LINE
  5
1ED
330
1F
100
AcDbEntity
  8
0
100
AcDbLine
 10
-19.5823629708353
 20
-1.552465913486648
 30
0.0
 11
-19.58236297083532
 21
-1.434355677266175
 31
0.0
  0
LINE
  5
1EE
330
1F
100
AcDbEntity
  8
0
100
AcDbLine
 10
-19.58236297083532
 20
-1.434355677266175
 30
0.0
 11
-20.33416030051694
 21
-1.434355677266284
 31
0.0
  0
LINE
  5
1EF
330
1F
100
AcDbEntity
  8
0
100
AcDbLine
 10
-18.83056564115371
 20
-1.434355677266067
 30
0.0
 11
-18.8305656411537
 21
-1.55246591348654
 31
0.0
  0
LINE
  5
1F0
330
1F
100
AcDbEntity
  8
0
100
AcDbLine
 10
-18.8305656411537
 20
-1.55246591348654
 30
0.0
 11
-18.07876831147209
 21
-1.552465913486432
 31
0.0
  0
LINE
  5
1F1
330
1F
100
AcDbEntity
  8
0
100
AcDbLine
 10
-18.07876831147209
 20
-1.552465913486432
 30
0.0
 11
-18.0787683114721
 21
-1.43435567726596
 31
0.0
  0
LINE
  5
1F2
330
1F
100
AcDbEntity
  8
0
100
AcDbLine
 10
-18.0787683114721
 20
-1.43435567726596
 30
0.0
 11
-18.83056564115371
 21
-1.434355677266067
 31
0.0
  0
LINE
  5
1F3
330
1F
100
AcDbEntity
  8
0
100
AcDbLine
 10
-17.32697098179048
 20
-1.434355677265851
 30
0.0
 11
-17.32697098179047
 21
-1.552465913486324
 31
0.0
  0
LINE
  5
1F4
330
1F
100
AcDbEntity
  8
0
100
AcDbLine
 10
-17.32697098179047
 20
-1.552465913486324
 30
0.0
 11
-16.57517365210886
 21
-1.552465913486216
 31
0.0
  0
LINE
  5
1F5
330
1F
100
AcDbEntity
  8
0
100
AcDbLine
 10
-16.57517365210886
 20
-1.552465913486216
 30
0.0
 11
-16.57517365210887
 21
-1.434355677265743
 31
0.0
  0
LINE
  5
1F6
330
1F
100
AcDbEntity
  8
0
100
AcDbLine
 10
-16.57517365210887
 20
-1.434355677265743
 30
0.0
 11
-17.32697098179048
 21
-1.434355677265851
 31
0.0
  0
LINE
  5
1F7
330
1F
100
AcDbEntity
  8
0
100
AcDbLine
 10
-15.82337632242725
 20
-1.434355677265636
 30
0.0
 11
-15.82337632242724
 21
-1.552465913486108
 31
0.0
  0
LINE
  5
1F8
330
1F
100
AcDbEntity
  8
0
100
AcDbLine
 10
-15.82337632242724
 20
-1.552465913486108
 30
0.0
 11
-15.07157899274563
 21
-1.552465913485999
 31
0.0
  0
LINE
  5
1F9
330
1F
100
AcDbEntity
  8
0
100
AcDbLine
 10
-15.07157899274563
 20
-1.552465913485999
 30
0.0
 11
-15.07157899274563
 21
-1.434355677265527
 31
0.0
  0
LINE
  5
1FA
330
1F
100
AcDbEntity
  8
0
100
AcDbLine
 10
-15.07157899274563
 20
-1.434355677265527
 30
0.0
 11
-15.82337632242725
 21
-1.434355677265636
 31
0.0
  0
LINE
  5
1FB
330
1F
100
AcDbEntity
  8
0
100
AcDbLine
 10
-14.31978166306402
 20
-1.434355677265419
 30
0.0
 11
-14.31978166306401
 21
-1.552465913485891
 31
0.0
  0
LINE
  5
1FC
330
1F
100
AcDbEntity
  8
0
100
AcDbLine
 10
-14.31978166306401
 20
-1.552465913485891
 30
0.0
 11
-13.5679843333824
 21
-1.552465913485783
 31
0.0
  0
LINE
  5
1FD
330
1F
100
AcDbEntity
  8
0
100
AcDbLine
 10
-13.5679843333824
 20
-1.552465913485783
 30
0.0
 11
-13.5679843333824
 21
-1.434355677265311
 31
0.0
  0
LINE
  5
1FE
330
1F
100
AcDbEntity
  8
0
100
AcDbLine
 10
-13.5679843333824
 20
-1.434355677265311
 30
0.0
 11
-14.31978166306402
 21
-1.434355677265419
 31
0.0
  0
LINE
  5
1FF
330
1F
100
AcDbEntity
  8
0
100
AcDbLine
 10
-12.81618700370079
 20
-1.434355677265203
 30
0.0
 11
-12.81618700370078
 21
-1.552465913485676
 31
0.0
  0
LINE
  5
200
330
1F
100
AcDbEntity
  8
0
100
AcDbLine
 10
-12.81618700370078
 20
-1.552465913485676
 30
0.0
 11
-12.06438967401917
 21
-1.552465913485567
 31
0.0
  0
LINE
  5
201
330
1F
100
AcDbEntity
  8
0
100
AcDbLine
 10
-12.06438967401917
 20
-1.552465913485567
 30
0.0
 11
-12.06438967401917
 21
-1.434355677265095
 31
0.0
  0
LINE
  5
202
330
1F
100
AcDbEntity
  8
0
100
AcDbLine
 10
-12.06438967401917
 20
-1.434355677265095
 30
0.0
 11
-12.81618700370079
 21
-1.434355677265203
 31
0.0
  0
LINE
  5
203
330
1F
100
AcDbEntity
  8
0
100
AcDbLine
 10
-11.31259234433756
 20
-1.434355677264987
 30
0.0
 11
-11.31259234433755
 21
-1.552465913485459
 31
0.0
  0
LINE
  5
204
330
1F
100
AcDbEntity
  8
0
100
AcDbLine
 10
-11.31259234433755
 20
-1.552465913485459
 30
0.0
 11
-10.56079501465594
 21
-1.552465913485352
 31
0.0
  0
LINE
  5
205
330
1F
100
AcDbEntity
  8
0
100
AcDbLine
 10
-10.56079501465594
 20
-1.552465913485352
 30
0.0
 11
-10.56079501465594
 21
-1.434355677264879
 31
0.0
  0
LINE
  5
206
330
1F
100
AcDbEntity
  8
0
100
AcDbLine
 10
-10.56079501465594
 20
-1.434355677264879
 30
0.0
 11
-11.31259234433756
 21
-1.434355677264987
 31
0.0
  0
LINE
  5
207
330
1F
100
AcDbEntity
  8
0
100
AcDbLine
 10
-9.80899768497433
 20
-1.434355677264771
 30
0.0
 11
-9.808997684974319
 21
-1.552465913485243
 31
0.0
  0
LINE
  5
208
330
1F
100
AcDbEntity
  8
0
100
AcDbLine
 10
-9.808997684974319
 20
-1.552465913485243
 30
0.0
 11
-9.05720035529271
 21
-1.552465913485135
 31
0.0
  0
LINE
  5
209
330
1F
100
AcDbEntity
  8
0
100
AcDbLine
 10
-9.05720035529271
 20
-1.552465913485135
 30
0.0
 11
-9.057200355292714
 21
-1.434355677264662
 31
0.0
  0
LINE
  5
20A
330
1F
100
AcDbEntity
  8
0
100
AcDbLine
 10
-9.057200355292714
 20
-1.434355677264662
 30
0.0
 11
-9.80899768497433
 21
-1.434355677264771
 31
0.0
  0
LINE
  5
20B
330
1F
100
AcDbEntity
  8
0
100
AcDbLine
 10
-25.95107231694976
 20
-0.870576149708036
 30
0.0
 11
-25.95107231694977
 21
-0.6705761497080523
 31
0.0
  0
LINE
  5
20C
330
1F
100
AcDbEntity
  8
0
100
AcDbLine
 10
-25.9510723169497
 20
-1.270576149708036
 30
0.0
 11
-25.95107231694973
 21
-1.070576149708036
 31
0.0
  0
LINE
  5
20D
330
1F
100
AcDbEntity
  8
0
100
AcDbLine
 10
-25.59674160828825
 20
-1.470576149707985
 30
0.0
 11
-25.59674160828828
 21
-1.270576149707985
 31
0.0
  0
LINE
  5
20E
330
1F
100
AcDbEntity
  8
0
100
AcDbLine
 10
-25.9510723169497
 20
-1.270576149708036
 30
0.0
 11
-25.59674160828828
 21
-1.270576149707985
 31
0.0
  0
LINE
  5
20F
330
1F
100
AcDbEntity
  8
0
100
AcDbLine
 10
-25.95107231694967
 20
-1.470576149708036
 30
0.0
 11
-25.59674160828825
 21
-1.470576149707985
 31
0.0
  0
LINE
  5
210
330
1F
100
AcDbEntity
  8
0
100
AcDbLine
 10
-25.5967416082883
 20
-1.070576149707985
 30
0.0
 11
-25.59674160828833
 21
-0.870576149707985
 31
0.0
  0
LINE
  5
211
330
1F
100
AcDbEntity
  8
0
100
AcDbLine
 10
-25.95107231694976
 20
-0.870576149708036
 30
0.0
 11
-25.59674160828833
 21
-0.870576149707985
 31
0.0
  0
LINE
  5
212
330
1F
100
AcDbEntity
  8
0
100
AcDbLine
 10
-25.95107231694973
 20
-1.070576149708036
 30
0.0
 11
-25.5967416082883
 21
-1.070576149707985
 31
0.0
  0
LINE
  5
213
330
1F
100
AcDbEntity
  8
0
100
AcDbLine
 10
-7.951072316949791
 20
-0.8705761497054655
 30
0.0
 11
-7.951072316949784
 21
-0.6705761497054659
 31
0.0
  0
LINE
  5
214
330
1F
100
AcDbEntity
  8
0
100
AcDbLine
 10
-7.951072316949777
 20
-1.270576149705485
 30
0.0
 11
-7.951072316949762
 21
-1.070576149705485
 31
0.0
  0
LINE
  5
215
330
1F
100
AcDbEntity
  8
0
100
AcDbLine
 10
-8.305403025611191
 20
-1.470576149705568
 30
0.0
 11
-8.30540302561122
 21
-1.270576149705605
 31
0.0
  0
LINE
  5
216
330
1F
100
AcDbEntity
  8
0
100
AcDbLine
 10
-7.951072316949748
 20
-1.470576149705465
 30
0.0
 11
-8.305403025611191
 21
-1.470576149705568
 31
0.0
  0
LINE
  5
217
330
1F
100
AcDbEntity
  8
0
100
AcDbLine
 10
-7.951072316949777
 20
-1.270576149705485
 30
0.0
 11
-8.30540302561122
 21
-1.270576149705605
 31
0.0
  0
LINE
  5
218
330
1F
100
AcDbEntity
  8
0
100
AcDbLine
 10
-8.305403025611206
 20
-1.070576149705489
 30
0.0
 11
-8.305403025611206
 21
-0.8705761497054701
 31
0.0
  0
LINE
  5
219
330
1F
100
AcDbEntity
  8
0
100
AcDbLine
 10
-7.951072316949762
 20
-1.070576149705485
 30
0.0
 11
-8.305403025611206
 21
-1.070576149705489
 31
0.0
  0
LINE
  5
21A
330
1F
100
AcDbEntity
  8
0
100
AcDbLine
 10
-7.951072316949791
 20
-0.8705761497054655
 30
0.0
 11
-8.305403025611206
 21
-0.8705761497054701
 31
0.0
  0
LINE
  5
21B
330
1F
100
AcDbEntity
  8
0
100
AcDbLine
 10
-25.24518996400862
 20
3.690644322732883
 30
0.0
 11
-25.24518996400861
 21
3.572534086512411
 31
0.0
  0
LINE
  5
21C
330
1F
100
AcDbEntity
  8
0
100
AcDbLine
 10
-16.06871937577333
 20
3.690644322732979
 30
0.0
 11
-16.77460172871451
 21
3.690644322732972
 31
0.0
  0
LINE
  5
21D
330
1F
100
AcDbEntity
  8
0
100
AcDbLine
 10
-16.77460172871451
 20
3.572534086512499
 30
0.0
 11
-16.06871937577333
 21
3.572534086512507
 31
0.0
  0
LINE
  5
21E
330
1F
100
AcDbEntity
  8
0
100
AcDbLine
 10
-15.36283702283215
 20
3.690644322732986
 30
0.0
 11
-15.36283702283215
 21
3.572534086512514
 31
0.0
  0
LINE
  5
21F
330
1F
100
AcDbEntity
  8
0
100
AcDbLine
 10
-17.48048408165568
 20
3.690644322732964
 30
0.0
 11
-18.18636643459686
 21
3.690644322732957
 31
0.0
  0
LINE
  5
220
330
1F
100
AcDbEntity
  8
0
100
AcDbLine
 10
-24.53930761106744
 20
3.572534086512418
 30
0.0
 11
-24.53930761106744
 21
3.69064432273289
 31
0.0
  0
LINE
  5
221
330
1F
100
AcDbEntity
  8
0
100
AcDbLine
 10
-16.77460172871451
 20
3.690644322732972
 30
0.0
 11
-16.77460172871451
 21
3.572534086512499
 31
0.0
  0
LINE
  5
222
330
1F
100
AcDbEntity
  8
0
100
AcDbLine
 10
-16.06871937577333
 20
3.572534086512507
 30
0.0
 11
-16.06871937577333
 21
3.690644322732979
 31
0.0
  0
LINE
  5
223
330
1F
100
AcDbEntity
  8
0
100
AcDbLine
 10
-14.65695466989098
 20
3.690644322732993
 30
0.0
 11
-15.36283702283215
 21
3.690644322732986
 31
0.0
  0
LINE
  5
224
330
1F
100
AcDbEntity
  8
0
100
AcDbLine
 10
-25.24518996400861
 20
3.572534086512411
 30
0.0
 11
-24.53930761106744
 21
3.572534086512418
 31
0.0
  0
LINE
  5
225
330
1F
100
AcDbEntity
  8
0
100
AcDbLine
 10
-24.53930761106744
 20
3.69064432273289
 30
0.0
 11
-25.24518996400862
 21
3.690644322732883
 31
0.0
  0
LINE
  5
226
330
1F
100
AcDbEntity
  8
0
100
AcDbLine
 10
-23.12754290518509
 20
3.572534086512433
 30
0.0
 11
-23.12754290518509
 21
3.690644322732905
 31
0.0
  0
LINE
  5
227
330
1F
100
AcDbEntity
  8
0
100
AcDbLine
 10
-22.42166055224391
 20
3.57253408651244
 30
0.0
 11
-21.71577819930274
 21
3.572534086512448
 31
0.0
  0
LINE
  5
228
330
1F
100
AcDbEntity
  8
0
100
AcDbLine
 10
-15.36283702283215
 20
3.572534086512514
 30
0.0
 11
-14.65695466989098
 21
3.572534086512521
 31
0.0
  0
LINE
  5
229
330
1F
100
AcDbEntity
  8
0
100
AcDbLine
 10
-14.65695466989098
 20
3.572534086512521
 30
0.0
 11
-14.65695466989098
 21
3.690644322732993
 31
0.0
  0
LINE
  5
22A
330
1F
100
AcDbEntity
  8
0
100
AcDbLine
 10
-18.18636643459686
 20
3.690644322732957
 30
0.0
 11
-18.18636643459686
 21
3.572534086512484
 31
0.0
  0
LINE
  5
22B
330
1F
100
AcDbEntity
  8
0
100
AcDbLine
 10
-18.18636643459686
 20
3.572534086512484
 30
0.0
 11
-17.48048408165568
 21
3.572534086512491
 31
0.0
  0
LINE
  5
22C
330
1F
100
AcDbEntity
  8
0
100
AcDbLine
 10
-14.30540302561122
 20
3.854423850292052
 30
0.0
 11
-14.30540302561122
 21
4.054423850292053
 31
0.0
  0
LINE
  5
22D
330
1F
100
AcDbEntity
  8
0
100
AcDbLine
 10
-14.30540302561123
 20
4.254423850292053
 30
0.0
 11
-14.30540302561123
 21
4.454423850292052
 31
0.0
  0
LINE
  5
22E
330
1F
100
AcDbEntity
  8
0
100
AcDbLine
 10
-25.59674160828838
 20
3.854423850291934
 30
0.0
 11
-25.95107231694979
 21
3.854423850291931
 31
0.0
  0
LINE
  5
22F
330
1F
100
AcDbEntity
  8
0
100
AcDbLine
 10
-13.95107231694978
 20
4.054423850292037
 30
0.0
 11
-13.95107231694978
 21
4.254423850292037
 31
0.0
  0
LINE
  5
230
330
1F
100
AcDbEntity
  8
0
100
AcDbLine
 10
-14.30540302561122
 20
3.854423850292052
 30
0.0
 11
-13.9510723169498
 21
3.854423850292036
 31
0.0
  0
LINE
  5
231
330
1F
100
AcDbEntity
  8
0
100
AcDbLine
 10
-14.30540302561122
 20
3.654423850292052
 30
0.0
 11
-13.9510723169498
 21
3.654423850292036
 31
0.0
  0
LINE
  5
232
330
1F
100
AcDbEntity
  8
0
100
AcDbLine
 10
-13.9510723169498
 20
3.654423850292036
 30
0.0
 11
-13.9510723169498
 21
3.854423850292036
 31
0.0
  0
LINE
  5
233
330
1F
100
AcDbEntity
  8
0
100
AcDbLine
 10
-14.30540302561123
 20
4.254423850292053
 30
0.0
 11
-13.95107231694978
 21
4.254423850292037
 31
0.0
  0
LINE
  5
234
330
1F
100
AcDbEntity
  8
0
100
AcDbLine
 10
-14.30540302561122
 20
4.054423850292053
 30
0.0
 11
-13.95107231694978
 21
4.054423850292037
 31
0.0
  0
LINE
  5
235
330
1F
100
AcDbEntity
  8
0
100
AcDbLine
 10
-18.89224878753803
 20
3.69064432273295
 30
0.0
 11
-19.59813114047921
 21
3.690644322732942
 31
0.0
  0
LINE
  5
236
330
1F
100
AcDbEntity
  8
0
100
AcDbLine
 10
-21.00989584636156
 20
3.572534086512455
 30
0.0
 11
-20.30401349342038
 21
3.572534086512462
 31
0.0
  0
LINE
  5
237
330
1F
100
AcDbEntity
  8
0
100
AcDbLine
 10
-25.59674160828838
 20
3.854423850291934
 30
0.0
 11
-25.59674160828839
 21
4.054423850291935
 31
0.0
  0
LINE
  5
238
330
1F
100
AcDbEntity
  8
0
100
AcDbLine
 10
-25.59674160828839
 20
4.254423850291935
 30
0.0
 11
-25.59674160828839
 21
4.454423850291935
 31
0.0
  0
LINE
  5
239
330
1F
100
AcDbEntity
  8
0
100
AcDbLine
 10
-17.48048408165568
 20
3.572534086512491
 30
0.0
 11
-17.48048408165568
 21
3.690644322732964
 31
0.0
  0
LINE
  5
23A
330
1F
100
AcDbEntity
  8
0
100
AcDbLine
 10
-25.59674160828838
 20
3.654423850291935
 30
0.0
 11
-25.95107231694979
 21
3.654423850291931
 31
0.0
  0
LINE
  5
23B
330
1F
100
AcDbEntity
  8
0
100
AcDbLine
 10
-25.59674160828839
 20
4.254423850291935
 30
0.0
 11
-25.9510723169498
 21
4.254423850291931
 31
0.0
  0
LINE
  5
23C
330
1F
100
AcDbEntity
  8
0
100
AcDbLine
 10
-25.59674160828839
 20
4.054423850291935
 30
0.0
 11
-25.9510723169498
 21
4.054423850291931
 31
0.0
  0
LINE
  5
23D
330
1F
100
AcDbEntity
  8
0
100
AcDbLine
 10
-25.9510723169498
 20
4.054423850291931
 30
0.0
 11
-25.9510723169498
 21
4.254423850291931
 31
0.0
  0
LINE
  5
23E
330
1F
100
AcDbEntity
  8
0
100
AcDbLine
 10
-25.95107231694979
 20
3.654423850291931
 30
0.0
 11
-25.95107231694979
 21
3.854423850291931
 31
0.0
  0
LINE
  5
23F
330
1F
100
AcDbEntity
  8
0
100
AcDbLine
 10
-20.30401349342038
 20
3.690644322732935
 30
0.0
 11
-21.00989584636156
 21
3.690644322732927
 31
0.0
  0
LINE
  5
240
330
1F
100
AcDbEntity
  8
0
100
AcDbLine
 10
-18.89224878753803
 20
3.572534086512477
 30
0.0
 11
-18.89224878753803
 21
3.69064432273295
 31
0.0
  0
LINE
  5
241
330
1F
100
AcDbEntity
  8
0
100
AcDbLine
 10
-20.30401349342038
 20
3.572534086512462
 30
0.0
 11
-20.30401349342038
 21
3.690644322732935
 31
0.0
  0
LINE
  5
242
330
1F
100
AcDbEntity
  8
0
100
AcDbLine
 10
-19.59813114047921
 20
3.57253408651247
 30
0.0
 11
-18.89224878753803
 21
3.572534086512477
 31
0.0
  0
LINE
  5
243
330
1F
100
AcDbEntity
  8
0
100
AcDbLine
 10
-19.59813114047921
 20
3.690644322732942
 30
0.0
 11
-19.59813114047921
 21
3.57253408651247
 31
0.0
  0
LINE
  5
244
330
1F
100
AcDbEntity
  8
0
100
AcDbLine
 10
-21.00989584636156
 20
3.690644322732927
 30
0.0
 11
-21.00989584636156
 21
3.572534086512455
 31
0.0
  0
LINE
  5
245
330
1F
100
AcDbEntity
  8
0
100
AcDbLine
 10
-21.71577819930274
 20
3.69064432273292
 30
0.0
 11
-22.42166055224391
 21
3.690644322732913
 31
0.0
  0
LINE
  5
246
330
1F
100
AcDbEntity
  8
0
100
AcDbLine
 10
-22.42166055224391
 20
3.690644322732913
 30
0.0
 11
-22.42166055224391
 21
3.57253408651244
 31
0.0
  0
LINE
  5
247
330
1F
100
AcDbEntity
  8
0
100
AcDbLine
 10
-22.65083184336898
 20
5.391923850291965
 30
0.0
 11
-22.59123735989477
 21
5.469588893236921
 31
0.0
  0
LINE
  5
248
330
1F
100
AcDbEntity
  8
0
100
AcDbLine
 10
-22.68829450180822
 20
5.30148099220541
 30
0.0
 11
-22.65083184336898
 21
5.391923850291965
 31
0.0
  0
LINE
  5
249
330
1F
100
AcDbEntity
  8
0
100
AcDbLine
 10
-21.71577819930274
 20
3.572534086512448
 30
0.0
 11
-21.71577819930274
 21
3.69064432273292
 31
0.0
  0
LINE
  5
24A
330
1F
100
AcDbEntity
  8
0
100
AcDbLine
 10
-23.83342525812627
 20
3.690644322732898
 30
0.0
 11
-23.83342525812626
 21
3.572534086512425
 31
0.0
  0
LINE
  5
24B
330
1F
100
AcDbEntity
  8
0
100
AcDbLine
 10
-23.83342525812626
 20
3.572534086512425
 30
0.0
 11
-23.12754290518509
 21
3.572534086512433
 31
0.0
  0
LINE
  5
24C
330
1F
100
AcDbEntity
  8
0
100
AcDbLine
 10
-14.30540302561119
 20
3.454423850292025
 30
0.0
 11
-14.30540302561122
 21
3.654423850292052
 31
0.0
  0
LINE
  5
24D
330
1F
100
AcDbEntity
  8
0
100
AcDbLine
 10
-25.59674160828835
 20
3.454423850291905
 30
0.0
 11
-25.59674160828838
 21
3.654423850291935
 31
0.0
  0
LINE
  5
24E
330
1F
100
AcDbEntity
  8
0
100
AcDbLine
 10
-25.59674160828839
 20
4.454423850291935
 30
0.0
 11
-22.82607231694981
 21
4.454423850291963
 31
0.0
  0
LINE
  5
24F
330
1F
100
AcDbEntity
  8
0
100
AcDbLine
 10
-14.30540302561123
 20
4.454423850292052
 30
0.0
 11
-17.07607231694981
 21
4.454423850292024
 31
0.0
  0
LINE
  5
250
330
1F
100
AcDbEntity
  8
0
100
AcDbLine
 10
-22.70107231694982
 20
5.204423850291965
 30
0.0
 11
-22.68829450180822
 21
5.30148099220541
 31
0.0
  0
LINE
  5
251
330
1F
100
AcDbEntity
  8
0
100
AcDbLine
 10
-17.21385013209142
 20
5.301480992205468
 30
0.0
 11
-17.20107231694982
 21
5.204423850292022
 31
0.0
  0
LINE
  5
252
330
1F
100
AcDbEntity
  8
0
100
AcDbLine
 10
-17.25131279053065
 20
5.391923850292022
 30
0.0
 11
-17.21385013209142
 21
5.301480992205468
 31
0.0
  0
LINE
  5
253
330
1F
100
AcDbEntity
  8
0
100
AcDbLine
 10
-17.31090727400486
 20
5.469588893236976
 30
0.0
 11
-17.25131279053065
 21
5.391923850292022
 31
0.0
  0
LINE
  5
254
330
1F
100
AcDbEntity
  8
0
100
AcDbLine
 10
-17.38857231694982
 20
5.529183376711185
 30
0.0
 11
-17.31090727400486
 21
5.469588893236976
 31
0.0
  0
LINE
  5
255
330
1F
100
AcDbEntity
  8
0
100
AcDbLine
 10
-17.47901517503637
 20
5.56664603515042
 30
0.0
 11
-17.38857231694982
 21
5.529183376711185
 31
0.0
  0
LINE
  5
256
330
1F
100
AcDbEntity
  8
0
100
AcDbLine
 10
-17.57607231694982
 20
5.579423850292018
 30
0.0
 11
-17.47901517503637
 21
5.56664603515042
 31
0.0
  0
LINE
  5
257
330
1F
100
AcDbEntity
  8
0
100
AcDbLine
 10
-17.57607231694982
 20
5.579423850292018
 30
0.0
 11
-22.32607231694982
 21
5.579423850291969
 31
0.0
  0
LINE
  5
258
330
1F
100
AcDbEntity
  8
0
100
AcDbLine
 10
-22.42312945886327
 20
5.566646035150368
 30
0.0
 11
-22.32607231694982
 21
5.579423850291969
 31
0.0
  0
LINE
  5
259
330
1F
100
AcDbEntity
  8
0
100
AcDbLine
 10
-22.51357231694982
 20
5.529183376711131
 30
0.0
 11
-22.42312945886327
 21
5.566646035150368
 31
0.0
  0
LINE
  5
25A
330
1F
100
AcDbEntity
  8
0
100
AcDbLine
 10
-22.59123735989477
 20
5.469588893236921
 30
0.0
 11
-22.51357231694982
 21
5.529183376711131
 31
0.0
  0
LINE
  5
25B
330
1F
100
AcDbEntity
  8
0
100
AcDbLine
 10
-23.12754290518509
 20
3.690644322732905
 30
0.0
 11
-23.83342525812627
 21
3.690644322732898
 31
0.0
  0
LINE
  5
25C
330
1F
100
AcDbEntity
  8
0
100
AcDbLine
 10
-21.95107231694982
 20
5.079423850291972
 30
0.0
 11
-21.95107231694981
 21
4.579423850291971
 31
0.0
  0
LINE
  5
25D
330
1F
100
AcDbEntity
  8
0
100
AcDbLine
 10
-21.95107231694982
 20
5.079423850291972
 30
0.0
 11
-21.95000292462154
 21
5.095739624319479
 31
0.0
  0
LINE
  5
25E
330
1F
100
AcDbEntity
  8
0
100
AcDbLine
 10
-21.95000292462154
 20
5.095739624319479
 30
0.0
 11
-21.94681304523595
 21
5.111776230929788
 31
0.0
  0
LINE
  5
25F
330
1F
100
AcDbEntity
  8
0
100
AcDbLine
 10
-21.94681304523595
 20
5.111776230929788
 30
0.0
 11
-21.94155725851373
 21
5.127259279337609
 31
0.0
  0
LINE
  5
260
330
1F
100
AcDbEntity
  8
0
100
AcDbLine
 10
-21.94155725851373
 20
5.127259279337609
 30
0.0
 11
-21.93432549242287
 21
5.141923850291972
 31
0.0
  0
LINE
  5
261
330
1F
100
AcDbEntity
  8
0
100
AcDbLine
 10
-21.93432549242287
 20
5.141923850291972
 30
0.0
 11
-21.92524148448622
 21
5.155519028918063
 31
0.0
  0
LINE
  5
262
330
1F
100
AcDbEntity
  8
0
100
AcDbLine
 10
-21.92524148448622
 20
5.155519028918063
 30
0.0
 11
-21.91446066459813
 21
5.167812197940291
 31
0.0
  0
LINE
  5
263
330
1F
100
AcDbEntity
  8
0
100
AcDbLine
 10
-21.91446066459813
 20
5.167812197940291
 30
0.0
 11
-21.90216749557591
 21
5.178593017828377
 31
0.0
  0
LINE
  5
264
330
1F
100
AcDbEntity
  8
0
100
AcDbLine
 10
-21.90216749557591
 20
5.178593017828377
 30
0.0
 11
-21.88857231694982
 21
5.187677025765028
 31
0.0
  0
LINE
  5
265
330
1F
100
AcDbEntity
  8
0
100
AcDbLine
 10
-21.88857231694982
 20
5.187677025765028
 30
0.0
 11
-21.87390774599545
 21
5.194908791855884
 31
0.0
  0
LINE
  5
266
330
1F
100
AcDbEntity
  8
0
100
AcDbLine
 10
-21.87390774599545
 20
5.194908791855884
 30
0.0
 11
-21.85842469758763
 21
5.200164578578107
 31
0.0
  0
LINE
  5
267
330
1F
100
AcDbEntity
  8
0
100
AcDbLine
 10
-21.85842469758763
 20
5.200164578578107
 30
0.0
 11
-21.84238809097732
 21
5.2033544579637
 31
0.0
  0
LINE
  5
268
330
1F
100
AcDbEntity
  8
0
100
AcDbLine
 10
-21.84238809097732
 20
5.2033544579637
 30
0.0
 11
-21.82607231694982
 21
5.204423850291974
 31
0.0
  0
LINE
  5
269
330
1F
100
AcDbEntity
  8
0
100
AcDbLine
 10
-21.92524148448621
 20
4.503328671665882
 30
0.0
 11
-21.91446066459813
 21
4.491035502643655
 31
0.0
  0
LINE
  5
26A
330
1F
100
AcDbEntity
  8
0
100
AcDbLine
 10
-21.94681304523594
 20
4.547071469654156
 30
0.0
 11
-21.94155725851372
 21
4.531588421246336
 31
0.0
  0
LINE
  5
26B
330
1F
100
AcDbEntity
  8
0
100
AcDbLine
 10
-21.95000292462154
 20
4.563108076264465
 30
0.0
 11
-21.94681304523594
 21
4.547071469654156
 31
0.0
  0
LINE
  5
26C
330
1F
100
AcDbEntity
  8
0
100
AcDbLine
 10
-21.95107231694981
 20
4.579423850291971
 30
0.0
 11
-21.95000292462154
 21
4.563108076264465
 31
0.0
  0
LINE
  5
26D
330
1F
100
AcDbEntity
  8
0
100
AcDbLine
 10
-21.94155725851372
 20
4.531588421246336
 30
0.0
 11
-21.93432549242286
 21
4.516923850291972
 31
0.0
  0
LINE
  5
26E
330
1F
100
AcDbEntity
  8
0
100
AcDbLine
 10
-21.93432549242286
 20
4.516923850291972
 30
0.0
 11
-21.92524148448621
 21
4.503328671665882
 31
0.0
  0
LINE
  5
26F
330
1F
100
AcDbEntity
  8
0
100
AcDbLine
 10
-21.88857231694981
 20
4.471170674818918
 30
0.0
 11
-21.87390774599545
 21
4.463938908728062
 31
0.0
  0
LINE
  5
270
330
1F
100
AcDbEntity
  8
0
100
AcDbLine
 10
-21.84238809097732
 20
4.455493242620246
 30
0.0
 11
-21.82607231694981
 21
4.454423850291974
 31
0.0
  0
LINE
  5
271
330
1F
100
AcDbEntity
  8
0
100
AcDbLine
 10
-21.85842469758762
 20
4.458683122005839
 30
0.0
 11
-21.84238809097732
 21
4.455493242620246
 31
0.0
  0
LINE
  5
272
330
1F
100
AcDbEntity
  8
0
100
AcDbLine
 10
-21.87390774599545
 20
4.463938908728062
 30
0.0
 11
-21.85842469758762
 21
4.458683122005839
 31
0.0
  0
LINE
  5
273
330
1F
100
AcDbEntity
  8
0
100
AcDbLine
 10
-21.91446066459813
 20
4.491035502643655
 30
0.0
 11
-21.9021674955759
 21
4.480254682755569
 31
0.0
  0
LINE
  5
274
330
1F
100
AcDbEntity
  8
0
100
AcDbLine
 10
-21.9021674955759
 20
4.480254682755569
 30
0.0
 11
-21.88857231694981
 21
4.471170674818918
 31
0.0
  0
LINE
  5
275
330
1F
100
AcDbEntity
  8
0
100
AcDbLine
 10
-18.0597565429223
 20
4.455493242620286
 30
0.0
 11
-18.07607231694981
 21
4.454423850292013
 31
0.0
  0
LINE
  5
276
330
1F
100
AcDbEntity
  8
0
100
AcDbLine
 10
-18.04371993631199
 20
4.458683122005879
 30
0.0
 11
-18.0597565429223
 21
4.455493242620286
 31
0.0
  0
LINE
  5
277
330
1F
100
AcDbEntity
  8
0
100
AcDbLine
 10
-18.02823688790417
 20
4.463938908728102
 30
0.0
 11
-18.04371993631199
 21
4.458683122005879
 31
0.0
  0
LINE
  5
278
330
1F
100
AcDbEntity
  8
0
100
AcDbLine
 10
-18.01357231694981
 20
4.471170674818959
 30
0.0
 11
-18.02823688790417
 21
4.463938908728102
 31
0.0
  0
LINE
  5
279
330
1F
100
AcDbEntity
  8
0
100
AcDbLine
 10
-17.99997713832372
 20
4.48025468275561
 30
0.0
 11
-18.01357231694981
 21
4.471170674818959
 31
0.0
  0
LINE
  5
27A
330
1F
100
AcDbEntity
  8
0
100
AcDbLine
 10
-17.9876839693015
 20
4.491035502643696
 30
0.0
 11
-17.99997713832372
 21
4.48025468275561
 31
0.0
  0
LINE
  5
27B
330
1F
100
AcDbEntity
  8
0
100
AcDbLine
 10
-17.9769031494134
 20
4.503328671665923
 30
0.0
 11
-17.9876839693015
 21
4.491035502643696
 31
0.0
  0
LINE
  5
27C
330
1F
100
AcDbEntity
  8
0
100
AcDbLine
 10
-17.96781914147676
 20
4.516923850292014
 30
0.0
 11
-17.9769031494134
 21
4.503328671665923
 31
0.0
  0
LINE
  5
27D
330
1F
100
AcDbEntity
  8
0
100
AcDbLine
 10
-17.9605873753859
 20
4.531588421246377
 30
0.0
 11
-17.96781914147676
 21
4.516923850292014
 31
0.0
  0
LINE
  5
27E
330
1F
100
AcDbEntity
  8
0
100
AcDbLine
 10
-17.95533158866368
 20
4.547071469654197
 30
0.0
 11
-17.9605873753859
 21
4.531588421246377
 31
0.0
  0
LINE
  5
27F
330
1F
100
AcDbEntity
  8
0
100
AcDbLine
 10
-17.95214170927808
 20
4.563108076264506
 30
0.0
 11
-17.95533158866368
 21
4.547071469654197
 31
0.0
  0
LINE
  5
280
330
1F
100
AcDbEntity
  8
0
100
AcDbLine
 10
-17.95107231694981
 20
4.579423850292013
 30
0.0
 11
-17.95214170927808
 21
4.563108076264506
 31
0.0
  0
LINE
  5
281
330
1F
100
AcDbEntity
  8
0
100
AcDbLine
 10
-17.95533158866369
 20
5.111776230929829
 30
0.0
 11
-17.96058737538591
 21
5.12725927933765
 31
0.0
  0
LINE
  5
282
330
1F
100
AcDbEntity
  8
0
100
AcDbLine
 10
-18.02823688790418
 20
5.194908791855925
 30
0.0
 11
-18.043719936312
 21
5.200164578578147
 31
0.0
  0
LINE
  5
283
330
1F
100
AcDbEntity
  8
0
100
AcDbLine
 10
-18.043719936312
 20
5.200164578578147
 30
0.0
 11
-18.05975654292231
 21
5.20335445796374
 31
0.0
  0
LINE
  5
284
330
1F
100
AcDbEntity
  8
0
100
AcDbLine
 10
-18.05975654292231
 20
5.20335445796374
 30
0.0
 11
-18.07607231694982
 21
5.204423850292013
 31
0.0
  0
LINE
  5
285
330
1F
100
AcDbEntity
  8
0
100
AcDbLine
 10
-17.96781914147676
 20
5.141923850292014
 30
0.0
 11
-17.97690314941341
 21
5.155519028918104
 31
0.0
  0
LINE
  5
286
330
1F
100
AcDbEntity
  8
0
100
AcDbLine
 10
-18.01357231694982
 20
5.187677025765069
 30
0.0
 11
-18.02823688790418
 21
5.194908791855925
 31
0.0
  0
LINE
  5
287
330
1F
100
AcDbEntity
  8
0
100
AcDbLine
 10
-17.95107231694982
 20
5.079423850292015
 30
0.0
 11
-17.95214170927809
 21
5.095739624319521
 31
0.0
  0
LINE
  5
288
330
1F
100
AcDbEntity
  8
0
100
AcDbLine
 10
-17.97690314941341
 20
5.155519028918104
 30
0.0
 11
-17.9876839693015
 21
5.167812197940332
 31
0.0
  0
LINE
  5
289
330
1F
100
AcDbEntity
  8
0
100
AcDbLine
 10
-17.96058737538591
 20
5.12725927933765
 30
0.0
 11
-17.96781914147676
 21
5.141923850292014
 31
0.0
  0
LINE
  5
28A
330
1F
100
AcDbEntity
  8
0
100
AcDbLine
 10
-17.9876839693015
 20
5.167812197940332
 30
0.0
 11
-17.99997713832373
 21
5.178593017828418
 31
0.0
  0
LINE
  5
28B
330
1F
100
AcDbEntity
  8
0
100
AcDbLine
 10
-17.99997713832373
 20
5.178593017828418
 30
0.0
 11
-18.01357231694982
 21
5.187677025765069
 31
0.0
  0
LINE
  5
28C
330
1F
100
AcDbEntity
  8
0
100
AcDbLine
 10
-17.95214170927809
 20
5.095739624319521
 30
0.0
 11
-17.95533158866369
 21
5.111776230929829
 31
0.0
  0
LINE
  5
28D
330
1F
100
AcDbEntity
  8
0
100
AcDbLine
 10
-17.95107231694981
 20
4.579423850292013
 30
0.0
 11
-17.95107231694982
 21
5.079423850292015
 31
0.0
  0
LINE
  5
28E
330
1F
100
AcDbEntity
  8
0
100
AcDbLine
 10
-18.07607231694981
 20
4.454423850292013
 30
0.0
 11
-21.82607231694981
 21
4.454423850291974
 31
0.0
  0
LINE
  5
28F
330
1F
100
AcDbEntity
  8
0
100
AcDbLine
 10
-18.07607231694982
 20
5.204423850292013
 30
0.0
 11
-21.82607231694982
 21
5.204423850291974
 31
0.0
  0
LINE
  5
290
330
1F
100
AcDbEntity
  8
0
100
AcDbLine
 10
-22.74997713832371
 20
4.48025468275556
 30
0.0
 11
-22.76357231694979
 21
4.471170674818909
 31
0.0
  0
LINE
  5
291
330
1F
100
AcDbEntity
  8
0
100
AcDbLine
 10
-22.73768396930148
 20
4.491035502643646
 30
0.0
 11
-22.74997713832371
 21
4.48025468275556
 31
0.0
  0
LINE
  5
292
330
1F
100
AcDbEntity
  8
0
100
AcDbLine
 10
-22.77823688790416
 20
4.463938908728053
 30
0.0
 11
-22.79371993631198
 21
4.458683122005829
 31
0.0
  0
LINE
  5
293
330
1F
100
AcDbEntity
  8
0
100
AcDbLine
 10
-22.79371993631198
 20
4.458683122005829
 30
0.0
 11
-22.8097565429223
 21
4.455493242620236
 31
0.0
  0
LINE
  5
294
330
1F
100
AcDbEntity
  8
0
100
AcDbLine
 10
-22.8097565429223
 20
4.455493242620236
 30
0.0
 11
-22.82607231694981
 21
4.454423850291963
 31
0.0
  0
LINE
  5
295
330
1F
100
AcDbEntity
  8
0
100
AcDbLine
 10
-22.76357231694979
 20
4.471170674818909
 30
0.0
 11
-22.77823688790416
 21
4.463938908728053
 31
0.0
  0
LINE
  5
296
330
1F
100
AcDbEntity
  8
0
100
AcDbLine
 10
-22.71781914147675
 20
4.516923850291964
 30
0.0
 11
-22.7269031494134
 21
4.503328671665873
 31
0.0
  0
LINE
  5
297
330
1F
100
AcDbEntity
  8
0
100
AcDbLine
 10
-22.7105873753859
 20
4.531588421246328
 30
0.0
 11
-22.71781914147675
 21
4.516923850291964
 31
0.0
  0
LINE
  5
298
330
1F
100
AcDbEntity
  8
0
100
AcDbLine
 10
-22.7010723169498
 20
4.579423850291963
 30
0.0
 11
-22.70214170927807
 21
4.563108076264457
 31
0.0
  0
LINE
  5
299
330
1F
100
AcDbEntity
  8
0
100
AcDbLine
 10
-22.70214170927807
 20
4.563108076264457
 30
0.0
 11
-22.70533158866366
 21
4.547071469654148
 31
0.0
  0
LINE
  5
29A
330
1F
100
AcDbEntity
  8
0
100
AcDbLine
 10
-22.7269031494134
 20
4.503328671665873
 30
0.0
 11
-22.73768396930148
 21
4.491035502643646
 31
0.0
  0
LINE
  5
29B
330
1F
100
AcDbEntity
  8
0
100
AcDbLine
 10
-22.70533158866366
 20
4.547071469654148
 30
0.0
 11
-22.7105873753859
 21
4.531588421246328
 31
0.0
  0
LINE
  5
29C
330
1F
100
AcDbEntity
  8
0
100
AcDbLine
 10
-22.7010723169498
 20
4.579423850291963
 30
0.0
 11
-22.70107231694982
 21
5.204423850291965
 31
0.0
  0
LINE
  5
29D
330
1F
100
AcDbEntity
  8
0
100
AcDbLine
 10
-17.12390774599546
 20
4.463938908728112
 30
0.0
 11
-17.10842469758764
 21
4.458683122005889
 31
0.0
  0
LINE
  5
29E
330
1F
100
AcDbEntity
  8
0
100
AcDbLine
 10
-17.13857231694982
 20
4.471170674818968
 30
0.0
 11
-17.12390774599546
 21
4.463938908728112
 31
0.0
  0
LINE
  5
29F
330
1F
100
AcDbEntity
  8
0
100
AcDbLine
 10
-17.10842469758764
 20
4.458683122005889
 30
0.0
 11
-17.09238809097732
 21
4.455493242620296
 31
0.0
  0
LINE
  5
2A0
330
1F
100
AcDbEntity
  8
0
100
AcDbLine
 10
-17.19681304523595
 20
4.547071469654206
 30
0.0
 11
-17.19155725851372
 21
4.531588421246385
 31
0.0
  0
LINE
  5
2A1
330
1F
100
AcDbEntity
  8
0
100
AcDbLine
 10
-17.18432549242286
 20
4.516923850292022
 30
0.0
 11
-17.17524148448622
 21
4.503328671665931
 31
0.0
  0
LINE
  5
2A2
330
1F
100
AcDbEntity
  8
0
100
AcDbLine
 10
-17.16446066459814
 20
4.491035502643705
 30
0.0
 11
-17.15216749557591
 21
4.480254682755618
 31
0.0
  0
LINE
  5
2A3
330
1F
100
AcDbEntity
  8
0
100
AcDbLine
 10
-17.20000292462155
 20
4.563108076264514
 30
0.0
 11
-17.19681304523595
 21
4.547071469654206
 31
0.0
  0
LINE
  5
2A4
330
1F
100
AcDbEntity
  8
0
100
AcDbLine
 10
-17.19155725851372
 20
4.531588421246385
 30
0.0
 11
-17.18432549242286
 21
4.516923850292022
 31
0.0
  0
LINE
  5
2A5
330
1F
100
AcDbEntity
  8
0
100
AcDbLine
 10
-17.17524148448622
 20
4.503328671665931
 30
0.0
 11
-17.16446066459814
 21
4.491035502643705
 31
0.0
  0
LINE
  5
2A6
330
1F
100
AcDbEntity
  8
0
100
AcDbLine
 10
-17.09238809097732
 20
4.455493242620296
 30
0.0
 11
-17.07607231694981
 21
4.454423850292024
 31
0.0
  0
LINE
  5
2A7
330
1F
100
AcDbEntity
  8
0
100
AcDbLine
 10
-17.20107231694982
 20
4.57942385029202
 30
0.0
 11
-17.20000292462155
 21
4.563108076264514
 31
0.0
  0
LINE
  5
2A8
330
1F
100
AcDbEntity
  8
0
100
AcDbLine
 10
-17.15216749557591
 20
4.480254682755618
 30
0.0
 11
-17.13857231694982
 21
4.471170674818968
 31
0.0
  0
LINE
  5
2A9
330
1F
100
AcDbEntity
  8
0
100
AcDbLine
 10
-17.20107231694982
 20
4.57942385029202
 30
0.0
 11
-17.20107231694982
 21
5.204423850292022
 31
0.0
  0
LINE
  5
2AA
330
1F
100
AcDbEntity
  8
0
100
AcDbLine
 10
-6.57266237195023
 20
-11.11160769959985
 30
0.0
 11
-6.57266237195023
 21
8.888392300400154
 31
0.0
  0
LINE
  5
2AB
330
1F
100
AcDbEntity
  8
0
100
AcDbLine
 10
-6.57266237195023
 20
8.888392300400154
 30
0.0
 11
18.03632187018605
 21
8.888392300400154
 31
0.0
  0
LINE
  5
2AC
330
1F
100
AcDbEntity
  8
0
100
AcDbLine
 10
23.42733762804977
 20
8.888392300400154
 30
0.0
 11
23.42733762804977
 21
-11.11160769959985
 31
0.0
  0
LINE
  5
2AD
330
1F
100
AcDbEntity
  8
0
100
AcDbLine
 10
23.42733762804977
 20
-11.11160769959985
 30
0.0
 11
18.03632187018605
 21
-11.11160769959985
 31
0.0
  0
LINE
  5
2AE
330
1F
100
AcDbEntity
  8
0
100
AcDbLine
 10
18.03632187018605
 20
8.888392300400154
 30
0.0
 11
23.42733762804977
 21
8.888392300400154
 31
0.0
  0
LINE
  5
2AF
330
1F
100
AcDbEntity
  8
0
100
AcDbLine
 10
18.03632187018605
 20
-11.11160769959985
 30
0.0
 11
-6.57266237195023
 21
-11.11160769959985
 31
0.0
  0
LINE
  5
2B0
330
1F
100
AcDbEntity
  8
0
100
AcDbLine
 10
18.03632187018605
 20
8.888392300400154
 30
0.0
 11
18.03632187018605
 21
6.936080212055057
 31
0.0
  0
LINE
  5
2B1
330
1F
100
AcDbEntity
  8
0
100
AcDbLine
 10
18.03632187018605
 20
6.184282882373434
 30
0.0
 11
18.03632187018605
 21
5.432485552691826
 31
0.0
  0
LINE
  5
2B2
330
1F
100
AcDbEntity
  8
0
100
AcDbLine
 10
18.03632187018605
 20
4.680688223010204
 30
0.0
 11
18.03632187018605
 21
3.928890893328596
 31
0.0
  0
LINE
  5
2B3
330
1F
100
AcDbEntity
  8
0
100
AcDbLine
 10
18.03632187018605
 20
3.177093563646974
 30
0.0
 11
18.03632187018605
 21
2.425296233965366
 31
0.0
  0
LINE
  5
2B4
330
1F
100
AcDbEntity
  8
0
100
AcDbLine
 10
18.03632187018605
 20
1.673498904283743
 30
0.0
 11
18.03632187018605
 21
0.9217015746021353
 31
0.0
  0
LINE
  5
2B5
330
1F
100
AcDbEntity
  8
0
100
AcDbLine
 10
18.03632187018605
 20
0.169904244920513
 30
0.0
 11
18.03632187018605
 21
-0.581893084761095
 31
0.0
  0
LINE
  5
2B6
330
1F
100
AcDbEntity
  8
0
100
AcDbLine
 10
18.03632187018605
 20
-1.333690414442714
 30
0.0
 11
18.03632187018605
 21
-2.085487744124329
 31
0.0
  0
LINE
  5
2B7
330
1F
100
AcDbEntity
  8
0
100
AcDbLine
 10
18.03632187018605
 20
-2.837285073805948
 30
0.0
 11
18.03632187018605
 21
-3.589082403487559
 31
0.0
  0
LINE
  5
2B8
330
1F
100
AcDbEntity
  8
0
100
AcDbLine
 10
18.03632187018605
 20
-4.340879733169178
 30
0.0
 11
18.03632187018605
 21
-5.092677062850793
 31
0.0
  0
LINE
  5
2B9
330
1F
100
AcDbEntity
  8
0
100
AcDbLine
 10
18.03632187018605
 20
-5.844474392532408
 30
0.0
 11
18.03632187018605
 21
-6.596271722214023
 31
0.0
  0
LINE
  5
2BA
330
1F
100
AcDbEntity
  8
0
100
AcDbLine
 10
18.03632187018605
 20
-7.348069051895637
 30
0.0
 11
18.03632187018605
 21
-8.099866381577252
 31
0.0
  0
LINE
  5
2BB
330
1F
100
AcDbEntity
  8
0
100
AcDbLine
 10
18.03632187018605
 20
-8.851663711258867
 30
0.0
 11
18.03632187018605
 21
-11.11160769959985
 31
0.0
  0
LINE
  5
2BC
330
1F
100
AcDbEntity
  8
0
100
AcDbLine
 10
15.9186748113625
 20
-9.957791749601906
 30
0.0
 11
15.21279245842132
 21
-9.957791749601906
 31
0.0
  0
LINE
  5
2BD
330
1F
100
AcDbEntity
  8
0
100
AcDbLine
 10
14.50691010548015
 20
-9.957791749601906
 30
0.0
 11
13.80102775253897
 21
-9.957791749601906
 31
0.0
  0
LINE
  5
2BE
330
1F
100
AcDbEntity
  8
0
100
AcDbLine
 10
13.09514539959779
 20
-9.957791749601906
 30
0.0
 11
12.38926304665662
 21
-9.957791749601906
 31
0.0
  0
LINE
  5
2BF
330
1F
100
AcDbEntity
  8
0
100
AcDbLine
 10
7.448086576068382
 20
-9.957791749601906
 30
0.0
 11
6.742204223127207
 21
-9.957791749601904
 31
0.0
  0
LINE
  5
2C0
330
1F
100
AcDbEntity
  8
0
100
AcDbLine
 10
8.859851281950736
 20
-9.957791749601906
 30
0.0
 11
8.153968929009558
 21
-9.957791749601906
 31
0.0
  0
LINE
  5
2C1
330
1F
100
AcDbEntity
  8
0
100
AcDbLine
 10
10.27161598783309
 20
-9.957791749601906
 30
0.0
 11
9.565733634891913
 21
-9.957791749601906
 31
0.0
  0
LINE
  5
2C2
330
1F
100
AcDbEntity
  8
0
100
AcDbLine
 10
11.68338069371544
 20
-9.957791749601906
 30
0.0
 11
10.97749834077426
 21
-9.957791749601906
 31
0.0
  0
LINE
  5
2C3
330
1F
100
AcDbEntity
  8
0
100
AcDbLine
 10
17.33043951724486
 20
-9.957791749601906
 30
0.0
 11
16.62455716430368
 21
-9.957791749601906
 31
0.0
  0
LINE
  5
2C4
330
1F
100
AcDbEntity
  8
0
100
AcDbLine
 10
15.21279245842132
 20
8.042208250398094
 30
0.0
 11
15.9186748113625
 21
8.042208250398094
 31
0.0
  0
LINE
  5
2C5
330
1F
100
AcDbEntity
  8
0
100
AcDbLine
 10
13.80102775253897
 20
8.042208250398094
 30
0.0
 11
14.50691010548015
 21
8.042208250398094
 31
0.0
  0
LINE
  5
2C6
330
1F
100
AcDbEntity
  8
0
100
AcDbLine
 10
6.742204223127208
 20
8.042208250398094
 30
0.0
 11
7.448086576068384
 21
8.042208250398094
 31
0.0
  0
LINE
  5
2C7
330
1F
100
AcDbEntity
  8
0
100
AcDbLine
 10
16.62455716430368
 20
8.042208250398094
 30
0.0
 11
17.33043951724486
 21
8.042208250398094
 31
0.0
  0
LINE
  5
2C8
330
1F
100
AcDbEntity
  8
0
100
AcDbLine
 10
10.97749834077427
 20
8.042208250398094
 30
0.0
 11
11.68338069371544
 21
8.042208250398094
 31
0.0
  0
LINE
  5
2C9
330
1F
100
AcDbEntity
  8
0
100
AcDbLine
 10
9.565733634891915
 20
8.042208250398094
 30
0.0
 11
10.27161598783309
 21
8.042208250398094
 31
0.0
  0
LINE
  5
2CA
330
1F
100
AcDbEntity
  8
0
100
AcDbLine
 10
8.15396892900956
 20
8.042208250398094
 30
0.0
 11
8.859851281950737
 21
8.042208250398094
 31
0.0
  0
LINE
  5
2CB
330
1F
100
AcDbEntity
  8
0
100
AcDbLine
 10
12.38926304665662
 20
8.042208250398094
 30
0.0
 11
13.0951453995978
 21
8.042208250398094
 31
0.0
  0
LINE
  5
2CC
330
1F
100
AcDbEntity
  8
0
100
AcDbLine
 10
17.33043951724486
 20
7.687877541736672
 30
0.0
 11
17.68199116152455
 21
7.687877541736679
 31
0.0
  0
LINE
  5
2CD
330
1F
100
AcDbEntity
  8
0
100
AcDbLine
 10
17.33043951724486
 20
8.042208250398094
 30
0.0
 11
17.33043951724486
 21
7.687877541736672
 31
0.0
  0
LINE
  5
2CE
330
1F
100
AcDbEntity
  8
0
100
AcDbLine
 10
15.9186748113625
 20
7.687877541736672
 30
0.0
 11
16.62455716430368
 21
7.687877541736672
 31
0.0
  0
LINE
  5
2CF
330
1F
100
AcDbEntity
  8
0
100
AcDbLine
 10
16.62455716430368
 20
8.042208250398094
 30
0.0
 11
16.62455716430368
 21
7.687877541736672
 31
0.0
  0
LINE
  5
2D0
330
1F
100
AcDbEntity
  8
0
100
AcDbLine
 10
15.9186748113625
 20
8.042208250398094
 30
0.0
 11
15.9186748113625
 21
7.687877541736672
 31
0.0
  0
LINE
  5
2D1
330
1F
100
AcDbEntity
  8
0
100
AcDbLine
 10
14.50691010548015
 20
7.687877541736672
 30
0.0
 11
15.21279245842132
 21
7.687877541736672
 31
0.0
  0
LINE
  5
2D2
330
1F
100
AcDbEntity
  8
0
100
AcDbLine
 10
15.21279245842132
 20
8.042208250398094
 30
0.0
 11
15.21279245842132
 21
7.687877541736672
 31
0.0
  0
LINE
  5
2D3
330
1F
100
AcDbEntity
  8
0
100
AcDbLine
 10
14.50691010548015
 20
8.042208250398094
 30
0.0
 11
14.50691010548015
 21
7.687877541736672
 31
0.0
  0
LINE
  5
2D4
330
1F
100
AcDbEntity
  8
0
100
AcDbLine
 10
13.0951453995978
 20
7.687877541736672
 30
0.0
 11
13.80102775253897
 21
7.687877541736672
 31
0.0
  0
LINE
  5
2D5
330
1F
100
AcDbEntity
  8
0
100
AcDbLine
 10
13.80102775253897
 20
8.042208250398094
 30
0.0
 11
13.80102775253897
 21
7.687877541736672
 31
0.0
  0
LINE
  5
2D6
330
1F
100
AcDbEntity
  8
0
100
AcDbLine
 10
13.0951453995978
 20
8.042208250398094
 30
0.0
 11
13.0951453995978
 21
7.687877541736672
 31
0.0
  0
LINE
  5
2D7
330
1F
100
AcDbEntity
  8
0
100
AcDbLine
 10
11.68338069371544
 20
7.687877541736672
 30
0.0
 11
12.38926304665662
 21
7.687877541736672
 31
0.0
  0
LINE
  5
2D8
330
1F
100
AcDbEntity
  8
0
100
AcDbLine
 10
12.38926304665662
 20
8.042208250398094
 30
0.0
 11
12.38926304665662
 21
7.687877541736672
 31
0.0
  0
LINE
  5
2D9
330
1F
100
AcDbEntity
  8
0
100
AcDbLine
 10
11.68338069371544
 20
8.042208250398094
 30
0.0
 11
11.68338069371544
 21
7.687877541736672
 31
0.0
  0
LINE
  5
2DA
330
1F
100
AcDbEntity
  8
0
100
AcDbLine
 10
10.27161598783309
 20
7.687877541736672
 30
0.0
 11
10.97749834077427
 21
7.687877541736672
 31
0.0
  0
LINE
  5
2DB
330
1F
100
AcDbEntity
  8
0
100
AcDbLine
 10
10.97749834077427
 20
8.042208250398094
 30
0.0
 11
10.97749834077427
 21
7.687877541736672
 31
0.0
  0
LINE
  5
2DC
330
1F
100
AcDbEntity
  8
0
100
AcDbLine
 10
10.27161598783309
 20
8.042208250398094
 30
0.0
 11
10.27161598783309
 21
7.687877541736672
 31
0.0
  0
LINE
  5
2DD
330
1F
100
AcDbEntity
  8
0
100
AcDbLine
 10
8.859851281950737
 20
7.687877541736672
 30
0.0
 11
9.565733634891915
 21
7.687877541736672
 31
0.0
  0
LINE
  5
2DE
330
1F
100
AcDbEntity
  8
0
100
AcDbLine
 10
9.565733634891915
 20
8.042208250398094
 30
0.0
 11
9.565733634891915
 21
7.687877541736672
 31
0.0
  0
LINE
  5
2DF
330
1F
100
AcDbEntity
  8
0
100
AcDbLine
 10
8.859851281950737
 20
8.042208250398094
 30
0.0
 11
8.859851281950737
 21
7.687877541736672
 31
0.0
  0
LINE
  5
2E0
330
1F
100
AcDbEntity
  8
0
100
AcDbLine
 10
7.448086576068384
 20
7.687877541736672
 30
0.0
 11
8.15396892900956
 21
7.687877541736672
 31
0.0
  0
LINE
  5
2E1
330
1F
100
AcDbEntity
  8
0
100
AcDbLine
 10
8.15396892900956
 20
8.042208250398094
 30
0.0
 11
8.15396892900956
 21
7.687877541736672
 31
0.0
  0
LINE
  5
2E2
330
1F
100
AcDbEntity
  8
0
100
AcDbLine
 10
7.448086576068384
 20
8.042208250398094
 30
0.0
 11
7.448086576068384
 21
7.687877541736672
 31
0.0
  0
LINE
  5
2E3
330
1F
100
AcDbEntity
  8
0
100
AcDbLine
 10
6.390652578847387
 20
7.687877541736672
 30
0.0
 11
6.742204223127208
 21
7.687877541736672
 31
0.0
  0
LINE
  5
2E4
330
1F
100
AcDbEntity
  8
0
100
AcDbLine
 10
6.742204223127208
 20
8.042208250398094
 30
0.0
 11
6.742204223127208
 21
7.687877541736672
 31
0.0
  0
LINE
  5
2E5
330
1F
100
AcDbEntity
  8
0
100
AcDbLine
 10
17.68199116152454
 20
-9.603461040940477
 30
0.0
 11
17.33043951724486
 21
-9.603461040940484
 31
0.0
  0
LINE
  5
2E6
330
1F
100
AcDbEntity
  8
0
100
AcDbLine
 10
17.33043951724486
 20
-9.957791749601906
 30
0.0
 11
17.33043951724486
 21
-9.603461040940484
 31
0.0
  0
LINE
  5
2E7
330
1F
100
AcDbEntity
  8
0
100
AcDbLine
 10
16.62455716430368
 20
-9.603461040940484
 30
0.0
 11
15.9186748113625
 21
-9.603461040940484
 31
0.0
  0
LINE
  5
2E8
330
1F
100
AcDbEntity
  8
0
100
AcDbLine
 10
15.9186748113625
 20
-9.957791749601906
 30
0.0
 11
15.9186748113625
 21
-9.603461040940484
 31
0.0
  0
LINE
  5
2E9
330
1F
100
AcDbEntity
  8
0
100
AcDbLine
 10
16.62455716430368
 20
-9.957791749601906
 30
0.0
 11
16.62455716430368
 21
-9.603461040940484
 31
0.0
  0
LINE
  5
2EA
330
1F
100
AcDbEntity
  8
0
100
AcDbLine
 10
15.21279245842132
 20
-9.603461040940484
 30
0.0
 11
14.50691010548015
 21
-9.603461040940484
 31
0.0
  0
LINE
  5
2EB
330
1F
100
AcDbEntity
  8
0
100
AcDbLine
 10
14.50691010548015
 20
-9.957791749601906
 30
0.0
 11
14.50691010548015
 21
-9.603461040940484
 31
0.0
  0
LINE
  5
2EC
330
1F
100
AcDbEntity
  8
0
100
AcDbLine
 10
15.21279245842132
 20
-9.957791749601906
 30
0.0
 11
15.21279245842132
 21
-9.603461040940484
 31
0.0
  0
LINE
  5
2ED
330
1F
100
AcDbEntity
  8
0
100
AcDbLine
 10
13.80102775253897
 20
-9.603461040940484
 30
0.0
 11
13.09514539959779
 21
-9.603461040940484
 31
0.0
  0
LINE
  5
2EE
330
1F
100
AcDbEntity
  8
0
100
AcDbLine
 10
13.09514539959779
 20
-9.957791749601906
 30
0.0
 11
13.09514539959779
 21
-9.603461040940484
 31
0.0
  0
LINE
  5
2EF
330
1F
100
AcDbEntity
  8
0
100
AcDbLine
 10
13.80102775253897
 20
-9.957791749601906
 30
0.0
 11
13.80102775253897
 21
-9.603461040940484
 31
0.0
  0
LINE
  5
2F0
330
1F
100
AcDbEntity
  8
0
100
AcDbLine
 10
12.38926304665662
 20
-9.603461040940484
 30
0.0
 11
11.68338069371544
 21
-9.603461040940484
 31
0.0
  0
LINE
  5
2F1
330
1F
100
AcDbEntity
  8
0
100
AcDbLine
 10
11.68338069371544
 20
-9.957791749601906
 30
0.0
 11
11.68338069371544
 21
-9.603461040940484
 31
0.0
  0
LINE
  5
2F2
330
1F
100
AcDbEntity
  8
0
100
AcDbLine
 10
12.38926304665662
 20
-9.957791749601906
 30
0.0
 11
12.38926304665662
 21
-9.603461040940484
 31
0.0
  0
LINE
  5
2F3
330
1F
100
AcDbEntity
  8
0
100
AcDbLine
 10
10.97749834077426
 20
-9.603461040940484
 30
0.0
 11
10.27161598783309
 21
-9.603461040940484
 31
0.0
  0
LINE
  5
2F4
330
1F
100
AcDbEntity
  8
0
100
AcDbLine
 10
10.27161598783309
 20
-9.957791749601906
 30
0.0
 11
10.27161598783309
 21
-9.603461040940484
 31
0.0
  0
LINE
  5
2F5
330
1F
100
AcDbEntity
  8
0
100
AcDbLine
 10
10.97749834077426
 20
-9.957791749601906
 30
0.0
 11
10.97749834077426
 21
-9.603461040940484
 31
0.0
  0
LINE
  5
2F6
330
1F
100
AcDbEntity
  8
0
100
AcDbLine
 10
9.565733634891913
 20
-9.603461040940484
 30
0.0
 11
8.859851281950736
 21
-9.603461040940484
 31
0.0
  0
LINE
  5
2F7
330
1F
100
AcDbEntity
  8
0
100
AcDbLine
 10
8.859851281950736
 20
-9.957791749601906
 30
0.0
 11
8.859851281950736
 21
-9.603461040940484
 31
0.0
  0
LINE
  5
2F8
330
1F
100
AcDbEntity
  8
0
100
AcDbLine
 10
9.565733634891913
 20
-9.957791749601906
 30
0.0
 11
9.565733634891913
 21
-9.603461040940484
 31
0.0
  0
LINE
  5
2F9
330
1F
100
AcDbEntity
  8
0
100
AcDbLine
 10
8.153968929009558
 20
-9.603461040940484
 30
0.0
 11
7.448086576068382
 21
-9.603461040940484
 31
0.0
  0
LINE
  5
2FA
330
1F
100
AcDbEntity
  8
0
100
AcDbLine
 10
7.448086576068382
 20
-9.957791749601906
 30
0.0
 11
7.448086576068382
 21
-9.603461040940484
 31
0.0
  0
LINE
  5
2FB
330
1F
100
AcDbEntity
  8
0
100
AcDbLine
 10
8.153968929009558
 20
-9.957791749601906
 30
0.0
 11
8.153968929009558
 21
-9.603461040940484
 31
0.0
  0
LINE
  5
2FC
330
1F
100
AcDbEntity
  8
0
100
AcDbLine
 10
6.742204223127207
 20
-9.603461040940482
 30
0.0
 11
6.390652578847385
 21
-9.603461040940482
 31
0.0
  0
LINE
  5
2FD
330
1F
100
AcDbEntity
  8
0
100
AcDbLine
 10
6.742204223127207
 20
-9.957791749601904
 30
0.0
 11
6.742204223127207
 21
-9.603461040940482
 31
0.0
  0
LINE
  5
2FE
330
1F
100
AcDbEntity
  8
0
100
AcDbLine
 10
6.390652578847387
 20
6.936080212055057
 30
0.0
 11
6.390652578847387
 21
7.687877541736672
 31
0.0
  0
LINE
  5
2FF
330
1F
100
AcDbEntity
  8
0
100
AcDbLine
 10
6.036321870186026
 20
6.936080212055057
 30
0.0
 11
6.390652578847387
 21
6.936080212055057
 31
0.0
  0
LINE
  5
300
330
1F
100
AcDbEntity
  8
0
100
AcDbLine
 10
6.390652578847387
 20
5.432485552691828
 30
0.0
 11
6.390652578847387
 21
6.184282882373434
 31
0.0
  0
LINE
  5
301
330
1F
100
AcDbEntity
  8
0
100
AcDbLine
 10
6.036321870186026
 20
6.184282882373438
 30
0.0
 11
6.390652578847387
 21
6.184282882373434
 31
0.0
  0
LINE
  5
302
330
1F
100
AcDbEntity
  8
0
100
AcDbLine
 10
6.036321870186026
 20
5.432485552691825
 30
0.0
 11
6.390652578847387
 21
5.432485552691828
 31
0.0
  0
LINE
  5
303
330
1F
100
AcDbEntity
  8
0
100
AcDbLine
 10
6.390652578847387
 20
3.928890893328598
 30
0.0
 11
6.390652578847387
 21
4.680688223010213
 31
0.0
  0
LINE
  5
304
330
1F
100
AcDbEntity
  8
0
100
AcDbLine
 10
6.036321870186026
 20
4.680688223010211
 30
0.0
 11
6.390652578847387
 21
4.680688223010213
 31
0.0
  0
LINE
  5
305
330
1F
100
AcDbEntity
  8
0
100
AcDbLine
 10
6.036321870186026
 20
3.928890893328592
 30
0.0
 11
6.390652578847387
 21
3.928890893328598
 31
0.0
  0
LINE
  5
306
330
1F
100
AcDbEntity
  8
0
100
AcDbLine
 10
6.390652578847387
 20
2.425296233965367
 30
0.0
 11
6.390652578847387
 21
3.177093563646983
 31
0.0
  0
LINE
  5
307
330
1F
100
AcDbEntity
  8
0
100
AcDbLine
 10
6.036321870186026
 20
3.177093563646979
 30
0.0
 11
6.390652578847387
 21
3.177093563646983
 31
0.0
  0
LINE
  5
308
330
1F
100
AcDbEntity
  8
0
100
AcDbLine
 10
6.036321870186026
 20
2.425296233965364
 30
0.0
 11
6.390652578847387
 21
2.425296233965367
 31
0.0
  0
LINE
  5
309
330
1F
100
AcDbEntity
  8
0
100
AcDbLine
 10
6.390652578847387
 20
0.9217015746021371
 30
0.0
 11
6.390652578847387
 21
1.673498904283745
 31
0.0
  0
LINE
  5
30A
330
1F
100
AcDbEntity
  8
0
100
AcDbLine
 10
6.036321870186026
 20
1.673498904283747
 30
0.0
 11
6.390652578847387
 21
1.673498904283745
 31
0.0
  0
LINE
  5
30B
330
1F
100
AcDbEntity
  8
0
100
AcDbLine
 10
6.036321870186026
 20
0.9217015746021335
 30
0.0
 11
6.390652578847387
 21
0.9217015746021371
 31
0.0
  0
LINE
  5
30C
330
1F
100
AcDbEntity
  8
0
100
AcDbLine
 10
6.390652578847385
 20
-0.5818930847610932
 30
0.0
 11
6.390652578847385
 21
0.1699042449205148
 31
0.0
  0
LINE
  5
30D
330
1F
100
AcDbEntity
  8
0
100
AcDbLine
 10
6.036321870186026
 20
0.1699042449205148
 30
0.0
 11
6.390652578847385
 21
0.1699042449205148
 31
0.0
  0
LINE
  5
30E
330
1F
100
AcDbEntity
  8
0
100
AcDbLine
 10
6.036321870186026
 20
-0.5818930847610986
 30
0.0
 11
6.390652578847385
 21
-0.5818930847610932
 31
0.0
  0
LINE
  5
30F
330
1F
100
AcDbEntity
  8
0
100
AcDbLine
 10
6.390652578847385
 20
-2.085487744124328
 30
0.0
 11
6.390652578847385
 21
-1.333690414442712
 31
0.0
  0
LINE
  5
310
330
1F
100
AcDbEntity
  8
0
100
AcDbLine
 10
6.036321870186026
 20
-1.333690414442714
 30
0.0
 11
6.390652578847385
 21
-1.333690414442712
 31
0.0
  0
LINE
  5
311
330
1F
100
AcDbEntity
  8
0
100
AcDbLine
 10
6.036321870186025
 20
-2.085487744124331
 30
0.0
 11
6.390652578847385
 21
-2.085487744124328
 31
0.0
  0
LINE
  5
312
330
1F
100
AcDbEntity
  8
0
100
AcDbLine
 10
6.390652578847385
 20
-3.589082403487558
 30
0.0
 11
6.390652578847385
 21
-2.837285073805947
 31
0.0
  0
LINE
  5
313
330
1F
100
AcDbEntity
  8
0
100
AcDbLine
 10
6.036321870186025
 20
-2.837285073805946
 30
0.0
 11
6.390652578847385
 21
-2.837285073805947
 31
0.0
  0
LINE
  5
314
330
1F
100
AcDbEntity
  8
0
100
AcDbLine
 10
6.036321870186025
 20
-3.589082403487561
 30
0.0
 11
6.390652578847385
 21
-3.589082403487558
 31
0.0
  0
LINE
  5
315
330
1F
100
AcDbEntity
  8
0
100
AcDbLine
 10
6.390652578847385
 20
-5.092677062850792
 30
0.0
 11
6.390652578847385
 21
-4.340879733169174
 31
0.0
  0
LINE
  5
316
330
1F
100
AcDbEntity
  8
0
100
AcDbLine
 10
6.036321870186025
 20
-4.340879733169176
 30
0.0
 11
6.390652578847385
 21
-4.340879733169174
 31
0.0
  0
LINE
  5
317
330
1F
100
AcDbEntity
  8
0
100
AcDbLine
 10
6.036321870186025
 20
-5.092677062850791
 30
0.0
 11
6.390652578847385
 21
-5.092677062850792
 31
0.0
  0
LINE
  5
318
330
1F
100
AcDbEntity
  8
0
100
AcDbLine
 10
6.390652578847385
 20
-6.596271722214023
 30
0.0
 11
6.390652578847385
 21
-5.844474392532407
 31
0.0
  0
LINE
  5
319
330
1F
100
AcDbEntity
  8
0
100
AcDbLine
 10
6.036321870186025
 20
-5.844474392532407
 30
0.0
 11
6.390652578847385
 21
-5.844474392532407
 31
0.0
  0
LINE
  5
31A
330
1F
100
AcDbEntity
  8
0
100
AcDbLine
 10
6.036321870186025
 20
-6.596271722214022
 30
0.0
 11
6.390652578847385
 21
-6.596271722214023
 31
0.0
  0
LINE
  5
31B
330
1F
100
AcDbEntity
  8
0
100
AcDbLine
 10
6.390652578847385
 20
-8.099866381577254
 30
0.0
 11
6.390652578847385
 21
-7.348069051895638
 31
0.0
  0
LINE
  5
31C
330
1F
100
AcDbEntity
  8
0
100
AcDbLine
 10
6.036321870186025
 20
-7.348069051895638
 30
0.0
 11
6.390652578847385
 21
-7.348069051895638
 31
0.0
  0
LINE
  5
31D
330
1F
100
AcDbEntity
  8
0
100
AcDbLine
 10
6.036321870186025
 20
-8.099866381577254
 30
0.0
 11
6.390652578847385
 21
-8.099866381577254
 31
0.0
  0
LINE
  5
31E
330
1F
100
AcDbEntity
  8
0
100
AcDbLine
 10
6.390652578847385
 20
-9.603461040940482
 30
0.0
 11
6.390652578847384
 21
-8.851663711258869
 31
0.0
  0
LINE
  5
31F
330
1F
100
AcDbEntity
  8
0
100
AcDbLine
 10
6.036321870186023
 20
-8.851663711258869
 30
0.0
 11
6.390652578847384
 21
-8.851663711258869
 31
0.0
  0
LINE
  5
320
330
1F
100
AcDbEntity
  8
0
100
AcDbLine
 10
18.03632187018605
 20
0.9217015746021353
 30
0.0
 11
18.03632187018605
 21
0.169904244920513
 31
0.0
  0
LINE
  5
321
330
1F
100
AcDbEntity
  8
0
100
AcDbLine
 10
18.03632187018605
 20
2.425296233965366
 30
0.0
 11
18.03632187018605
 21
1.673498904283743
 31
0.0
  0
LINE
  5
322
330
1F
100
AcDbEntity
  8
0
100
AcDbLine
 10
18.03632187018605
 20
3.928890893328596
 30
0.0
 11
18.03632187018605
 21
3.177093563646974
 31
0.0
  0
LINE
  5
323
330
1F
100
AcDbEntity
  8
0
100
AcDbLine
 10
18.03632187018605
 20
5.432485552691826
 30
0.0
 11
18.03632187018605
 21
4.680688223010204
 31
0.0
  0
LINE
  5
324
330
1F
100
AcDbEntity
  8
0
100
AcDbLine
 10
18.03632187018605
 20
6.936080212055057
 30
0.0
 11
18.03632187018605
 21
6.184282882373434
 31
0.0
  0
LINE
  5
325
330
1F
100
AcDbEntity
  8
0
100
AcDbLine
 10
18.03632187018605
 20
-8.099866381577252
 30
0.0
 11
18.03632187018605
 21
-8.851663711258867
 31
0.0
  0
LINE
  5
326
330
1F
100
AcDbEntity
  8
0
100
AcDbLine
 10
18.03632187018605
 20
-6.596271722214023
 30
0.0
 11
18.03632187018605
 21
-7.348069051895637
 31
0.0
  0
LINE
  5
327
330
1F
100
AcDbEntity
  8
0
100
AcDbLine
 10
18.03632187018605
 20
-5.092677062850793
 30
0.0
 11
18.03632187018605
 21
-5.844474392532408
 31
0.0
  0
LINE
  5
328
330
1F
100
AcDbEntity
  8
0
100
AcDbLine
 10
18.03632187018605
 20
-3.589082403487559
 30
0.0
 11
18.03632187018605
 21
-4.340879733169178
 31
0.0
  0
LINE
  5
329
330
1F
100
AcDbEntity
  8
0
100
AcDbLine
 10
18.03632187018605
 20
-2.085487744124329
 30
0.0
 11
18.03632187018605
 21
-2.837285073805948
 31
0.0
  0
LINE
  5
32A
330
1F
100
AcDbEntity
  8
0
100
AcDbLine
 10
18.03632187018605
 20
-0.581893084761095
 30
0.0
 11
18.03632187018605
 21
-1.333690414442714
 31
0.0
  0
LINE
  5
32B
330
1F
100
AcDbEntity
  8
0
100
AcDbLine
 10
17.68199116152455
 20
7.687877541736679
 30
0.0
 11
17.68199116152456
 21
6.936080212055057
 31
0.0
  0
LINE
  5
32C
330
1F
100
AcDbEntity
  8
0
100
AcDbLine
 10
18.03632187018605
 20
6.936080212055057
 30
0.0
 11
17.68199116152456
 21
6.936080212055057
 31
0.0
  0
LINE
  5
32D
330
1F
100
AcDbEntity
  8
0
100
AcDbLine
 10
17.68199116152456
 20
6.184282882373434
 30
0.0
 11
17.68199116152456
 21
5.432485552691826
 31
0.0
  0
LINE
  5
32E
330
1F
100
AcDbEntity
  8
0
100
AcDbLine
 10
18.03632187018605
 20
5.432485552691826
 30
0.0
 11
17.68199116152456
 21
5.432485552691826
 31
0.0
  0
LINE
  5
32F
330
1F
100
AcDbEntity
  8
0
100
AcDbLine
 10
18.03632187018605
 20
6.184282882373434
 30
0.0
 11
17.68199116152456
 21
6.184282882373434
 31
0.0
  0
LINE
  5
330
330
1F
100
AcDbEntity
  8
0
100
AcDbLine
 10
17.68199116152456
 20
4.680688223010211
 30
0.0
 11
17.68199116152456
 21
3.928890893328596
 31
0.0
  0
LINE
  5
331
330
1F
100
AcDbEntity
  8
0
100
AcDbLine
 10
18.03632187018605
 20
3.928890893328596
 30
0.0
 11
17.68199116152456
 21
3.928890893328596
 31
0.0
  0
LINE
  5
332
330
1F
100
AcDbEntity
  8
0
100
AcDbLine
 10
18.03632187018605
 20
4.680688223010204
 30
0.0
 11
17.68199116152456
 21
4.680688223010211
 31
0.0
  0
LINE
  5
333
330
1F
100
AcDbEntity
  8
0
100
AcDbLine
 10
17.68199116152456
 20
3.177093563646981
 30
0.0
 11
17.68199116152456
 21
2.425296233965366
 31
0.0
  0
LINE
  5
334
330
1F
100
AcDbEntity
  8
0
100
AcDbLine
 10
18.03632187018605
 20
2.425296233965366
 30
0.0
 11
17.68199116152456
 21
2.425296233965366
 31
0.0
  0
LINE
  5
335
330
1F
100
AcDbEntity
  8
0
100
AcDbLine
 10
18.03632187018605
 20
3.177093563646974
 30
0.0
 11
17.68199116152456
 21
3.177093563646981
 31
0.0
  0
LINE
  5
336
330
1F
100
AcDbEntity
  8
0
100
AcDbLine
 10
17.68199116152456
 20
1.673498904283743
 30
0.0
 11
17.68199116152456
 21
0.9217015746021353
 31
0.0
  0
LINE
  5
337
330
1F
100
AcDbEntity
  8
0
100
AcDbLine
 10
18.03632187018605
 20
0.9217015746021353
 30
0.0
 11
17.68199116152456
 21
0.9217015746021353
 31
0.0
  0
LINE
  5
338
330
1F
100
AcDbEntity
  8
0
100
AcDbLine
 10
18.03632187018605
 20
1.673498904283743
 30
0.0
 11
17.68199116152456
 21
1.673498904283743
 31
0.0
  0
LINE
  5
339
330
1F
100
AcDbEntity
  8
0
100
AcDbLine
 10
17.68199116152456
 20
0.169904244920513
 30
0.0
 11
17.68199116152456
 21
-0.581893084761095
 31
0.0
  0
LINE
  5
33A
330
1F
100
AcDbEntity
  8
0
100
AcDbLine
 10
18.03632187018605
 20
-0.581893084761095
 30
0.0
 11
17.68199116152456
 21
-0.581893084761095
 31
0.0
  0
LINE
  5
33B
330
1F
100
AcDbEntity
  8
0
100
AcDbLine
 10
18.03632187018605
 20
0.169904244920513
 30
0.0
 11
17.68199116152456
 21
0.169904244920513
 31
0.0
  0
LINE
  5
33C
330
1F
100
AcDbEntity
  8
0
100
AcDbLine
 10
17.68199116152456
 20
-1.333690414442714
 30
0.0
 11
17.68199116152456
 21
-2.085487744124332
 31
0.0
  0
LINE
  5
33D
330
1F
100
AcDbEntity
  8
0
100
AcDbLine
 10
18.03632187018605
 20
-2.085487744124329
 30
0.0
 11
17.68199116152456
 21
-2.085487744124332
 31
0.0
  0
LINE
  5
33E
330
1F
100
AcDbEntity
  8
0
100
AcDbLine
 10
18.03632187018605
 20
-1.333690414442714
 30
0.0
 11
17.68199116152456
 21
-1.333690414442714
 31
0.0
  0
LINE
  5
33F
330
1F
100
AcDbEntity
  8
0
100
AcDbLine
 10
17.68199116152456
 20
-2.837285073805948
 30
0.0
 11
17.68199116152456
 21
-3.589082403487563
 31
0.0
  0
LINE
  5
340
330
1F
100
AcDbEntity
  8
0
100
AcDbLine
 10
18.03632187018605
 20
-3.589082403487559
 30
0.0
 11
17.68199116152456
 21
-3.589082403487563
 31
0.0
  0
LINE
  5
341
330
1F
100
AcDbEntity
  8
0
100
AcDbLine
 10
18.03632187018605
 20
-2.837285073805948
 30
0.0
 11
17.68199116152456
 21
-2.837285073805948
 31
0.0
  0
LINE
  5
342
330
1F
100
AcDbEntity
  8
0
100
AcDbLine
 10
17.68199116152456
 20
-4.340879733169178
 30
0.0
 11
17.68199116152456
 21
-5.092677062850793
 31
0.0
  0
LINE
  5
343
330
1F
100
AcDbEntity
  8
0
100
AcDbLine
 10
18.03632187018605
 20
-5.092677062850793
 30
0.0
 11
17.68199116152456
 21
-5.092677062850793
 31
0.0
  0
LINE
  5
344
330
1F
100
AcDbEntity
  8
0
100
AcDbLine
 10
18.03632187018605
 20
-4.340879733169178
 30
0.0
 11
17.68199116152456
 21
-4.340879733169178
 31
0.0
  0
LINE
  5
345
330
1F
100
AcDbEntity
  8
0
100
AcDbLine
 10
17.68199116152456
 20
-5.844474392532408
 30
0.0
 11
17.68199116152456
 21
-6.596271722214023
 31
0.0
  0
LINE
  5
346
330
1F
100
AcDbEntity
  8
0
100
AcDbLine
 10
18.03632187018605
 20
-6.596271722214023
 30
0.0
 11
17.68199116152456
 21
-6.596271722214023
 31
0.0
  0
LINE
  5
347
330
1F
100
AcDbEntity
  8
0
100
AcDbLine
 10
18.03632187018605
 20
-5.844474392532408
 30
0.0
 11
17.68199116152456
 21
-5.844474392532408
 31
0.0
  0
LINE
  5
348
330
1F
100
AcDbEntity
  8
0
100
AcDbLine
 10
17.68199116152456
 20
-7.348069051895639
 30
0.0
 11
17.68199116152456
 21
-8.099866381577254
 31
0.0
  0
LINE
  5
349
330
1F
100
AcDbEntity
  8
0
100
AcDbLine
 10
18.03632187018605
 20
-8.099866381577252
 30
0.0
 11
17.68199116152456
 21
-8.099866381577254
 31
0.0
  0
LINE
  5
34A
330
1F
100
AcDbEntity
  8
0
100
AcDbLine
 10
18.03632187018605
 20
-7.348069051895637
 30
0.0
 11
17.68199116152456
 21
-7.348069051895639
 31
0.0
  0
LINE
  5
34B
330
1F
100
AcDbEntity
  8
0
100
AcDbLine
 10
17.68199116152456
 20
-8.851663711258862
 30
0.0
 11
17.68199116152454
 21
-9.603461040940477
 31
0.0
  0
LINE
  5
34C
330
1F
100
AcDbEntity
  8
0
100
AcDbLine
 10
18.03632187018605
 20
-8.851663711258867
 30
0.0
 11
17.68199116152456
 21
-8.851663711258862
 31
0.0
  0
LINE
  5
34D
330
1F
100
AcDbEntity
  8
0
100
AcDbLine
 10
5.445770689083577
 20
-9.367240568499533
 30
0.0
 11
5.445770689083578
 21
7.45132301309966
 31
0.0
  0
LINE
  5
34E
330
1F
100
AcDbEntity
  8
0
100
AcDbLine
 10
5.445770689083578
 20
7.451323013099662
 30
0.0
 11
-5.373126948711687
 21
7.451323013099662
 31
0.0
  0
LINE
  5
34F
330
1F
100
AcDbEntity
  8
0
100
AcDbLine
 10
-5.37312694871169
 20
7.451323013099662
 30
0.0
 11
-5.373126948711691
 21
-9.36724056849953
 31
0.0
  0
LINE
  5
350
330
1F
100
AcDbEntity
  8
0
100
AcDbLine
 10
-5.373126948711691
 20
-9.367240568499533
 30
0.0
 11
5.445770689083577
 21
-9.367240568499533
 31
0.0
  0
LINE
  5
351
330
1F
100
AcDbEntity
  8
0
100
AcDbLine
 10
-19.95107231694976
 20
1.329423850291964
 30
0.0
 11
-25.9510723169498
 21
1.329423850291964
 31
0.0
  0
LINE
  5
352
330
1F
100
AcDbEntity
  8
0
100
AcDbLine
 10
-25.9510723169498
 20
1.329423850291964
 30
0.0
 11
-25.9510723169498
 21
5.579423850291931
 31
0.0
  0
LINE
  5
353
330
1F
100
AcDbEntity
  8
0
100
AcDbLine
 10
-25.9510723169498
 20
5.579423850291931
 30
0.0
 11
-13.95107231694978
 21
5.579423850291931
 31
0.0
  0
LINE
  5
354
330
1F
100
AcDbEntity
  8
0
100
AcDbLine
 10
-13.95107231694978
 20
5.579423850291931
 30
0.0
 11
-13.95107231694978
 21
1.329423850292027
 31
0.0
  0
LINE
  5
355
330
1F
100
AcDbEntity
  8
0
100
AcDbLine
 10
-13.95107231694978
 20
1.329423850292027
 30
0.0
 11
-19.57607231694978
 21
1.329423850291969
 31
0.0
  0
LINE
  5
356
330
1F
100
AcDbEntity
  8
0
100
AcDbLine
 10
-7.951072316949798
 20
-0.6705761497054485
 30
0.0
 11
-7.951072316949528
 21
-2.67057614970549
 31
0.0
  0
LINE
  5
357
330
1F
100
AcDbEntity
  8
0
100
AcDbLine
 10
18.03632187018605
 20
6.936080212055057
 30
0.0
 11
18.03632187018605
 21
8.888392300400154
 31
0.0
  0
LINE
  5
358
330
1F
100
AcDbEntity
  8
0
100
AcDbLine
 10
-5.257795776872818
 20
-9.957791749601904
 30
0.0
 11
-6.57266237195023
 21
-9.957791749601904
 31
0.0
  0
LINE
  5
359
330
1F
100
AcDbEntity
  8
0
100
AcDbLine
 10
-5.609347421152634
 20
7.687877541736672
 30
0.0
 11
-6.57266237195023
 21
7.687877541736672
 31
0.0
  0
LINE
  5
35A
330
1F
100
AcDbEntity
  8
0
100
AcDbLine
 10
5.330439517244834
 20
8.042208250398094
 30
0.0
 11
5.330439517244834
 21
8.888392300400154
 31
0.0
  0
LINE
  5
35B
330
1F
100
AcDbEntity
  8
0
100
AcDbLine
 10
5.330439517244834
 20
-9.957791749601906
 30
0.0
 11
5.330439517244834
 21
-11.11160769959985
 31
0.0
  0
LINE
  5
35C
330
1F
100
AcDbEntity
  8
0
100
AcDbLine
 10
-25.9510723169498
 20
-0.6705761497080358
 30
0.0
 11
-25.95107231694953
 21
-2.67057614970803
 31
0.0
  0
LINE
  5
35D
330
1F
100
AcDbEntity
  8
0
100
AcDbLine
 10
17.4457706890836
 20
-9.36724056849953
 30
0.0
 11
17.4457706890836
 21
7.451323013099662
 31
0.0
  0
LINE
  5
35E
330
1F
100
AcDbEntity
  8
0
100
AcDbLine
 10
17.4457706890836
 20
7.451323013099664
 30
0.0
 11
6.626873051288333
 21
7.451323013099664
 31
0.0
  0
LINE
  5
35F
330
1F
100
AcDbEntity
  8
0
100
AcDbLine
 10
6.626873051288333
 20
7.451323013099664
 30
0.0
 11
6.626873051288332
 21
-9.367240568499529
 31
0.0
  0
LINE
  5
360
330
1F
100
AcDbEntity
  8
0
100
AcDbLine
 10
6.626873051288332
 20
-9.367240568499529
 30
0.0
 11
17.4457706890836
 21
-9.36724056849953
 31
0.0
  0
ENDSEC
  0
SECTION
  2
OBJECTS
  0
DICTIONARY
  5
C
330
0
100
AcDbDictionary
  3
ACAD_GROUP
350
D
  3
ACAD_LAYOUT
350
1A
  3
ACAD_MATERIAL
350
43
  3
ACAD_MLEADERSTYLE
350
6B
  3
ACAD_MLINESTYLE
350
17
  3
ACAD_PLOTSETTINGS
350
19
  3
ACAD_SCALELIST
350
47
  3
ACAD_VISUALSTYLE
350
2A
  3
ACDBHEADERROUNDTRIPXREC
350
361
  3
ACDBVARIABLEDICTIONARY
350
382
  0
DICTIONARY
  5
389
330
8
100
AcDbDictionary
280
     1
  3
ACAD_XREC_ROUNDTRIP
360
38A
  0
DICTIONARY
  5
D
102
{ACAD_REACTORS
330
C
102
}
330
C
100
AcDbDictionary
  0
DICTIONARY
  5
1A
102
{ACAD_REACTORS
330
C
102
}
330
C
100
AcDbDictionary
  0
DICTIONARY
  5
43
102
{ACAD_REACTORS
330
C
102
}
330
C
100
AcDbDictionary
  3
BYBLOCK
350
45
  3
BYLAYER
350
44
  3
GLOBAL
350
46
  0
DICTIONARY
  5
6B
102
{ACAD_REACTORS
330
C
102
}
330
C
100
AcDbDictionary
  3
STANDARD
350
6C
  0
DICTIONARY
  5
17
102
{ACAD_REACTORS
330
C
102
}
330
C
100
AcDbDictionary
  3
STANDARD
350
18
  0
DICTIONARY
  5
19
102
{ACAD_REACTORS
330
C
102
}
330
C
100
AcDbDictionary
  0
DICTIONARY
  5
47
102
{ACAD_REACTORS
330
C
102
}
330
C
100
AcDbDictionary
  3
A0
350
48
  3
A1
350
49
  3
A2
350
4A
  3
A3
350
4B
  3
A4
350
4C
  3
A5
350
4D
  3
A6
350
4E
  3
A7
350
4F
  3
A8
350
50
  3
A9
350
51
  3
B0
350
52
  3
B1
350
53
  3
B2
350
54
  3
B3
350
55
  3
B4
350
56
  3
B5
350
57
  3
B6
350
58
  3
B7
350
59
  3
B8
350
5A
  3
B9
350
5B
  3
C0
350
5C
  3
C1
350
5D
  3
C2
350
5E
  3
C3
350
5F
  3
C4
350
60
  3
C5
350
61
  3
C6
350
62
  3
C7
350
63
  3
C8
350
64
  3
C9
350
65
  3
D0
350
66
  3
D1
350
67
  3
D2
350
68
  0
DICTIONARY
  5
2A
102
{ACAD_REACTORS
330
C
102
}
330
C
100
AcDbDictionary
  3
2DWIREFRAME
350
2F
  3
BASIC
350
32
  3
BRIGHTEN
350
36
  3
COLORCHANGE
350
3A
  3
CONCEPTUAL
350
34
  3
DIM
350
35
  3
EDGECOLOROFF
350
3D
  3
FACEPATTERN
350
39
  3
FLAT
350
2B
  3
FLATWITHEDGES
350
2C
  3
GOURAUD
350
2D
  3
GOURAUDWITHEDGES
350
2E
  3
HIDDEN
350
31
  3
JITTEROFF
350
3B
  3
LINEPATTERN
350
38
  3
OVERHANGOFF
350
3C
  3
REALISTIC
350
33
  3
SHADED
350
42
  3
SHADED_WITH_EDGES
350
41
  3
SHADES_OF_GRAY
350
3E
  3
SKETCHY
350
3F
  3
THICKEN
350
37
  3
WIREFRAME
350
30
  3
X-RAY
350
40
  0
DICTIONARY
  5
361
102
{ACAD_REACTORS
330
C
102
}
330
C
100
AcDbDictionary
  3
CEPSNID
350
36B
  3
CEPSNTYPE
350
36A
  3
DIMSTYLEDATA
350
381
  3
FINGERPRINTGUID
350
36C
  3
HYPERLINKBASE
350
364
  3
INSUNITS
350
369
  3
LAYOUTDICT
350
366
  3
LWETCUNION
350
368
  3
PLOTSETDICT
350
367
  3
PSVPSCALE
350
36E
  3
PUCSBASE
350
371
  3
PUCSORGBACK
350
377
  3
PUCSORGBOTTOM
350
373
  3
PUCSORGFRONT
350
376
  3
PUCSORGLEFT
350
374
  3
PUCSORGRIGHT
350
375
  3
PUCSORGTOP
350
372
  3
PUCSORTHOREF
350
36F
  3
PUCSORTHOVIEW
350
370
  3
STYLESHEET
350
365
  3
TSTACKALIGN
350
362
  3
TSTACKSIZE
350
363
  3
UCSBASE
350
37A
  3
UCSORGBACK
350
380
  3
UCSORGBOTTOM
350
37C
  3
UCSORGFRONT
350
37F
  3
UCSORGLEFT
350
37D
  3
UCSORGRIGHT
350
37E
  3
UCSORGTOP
350
37B
  3
UCSORTHOREF
350
378
  3
UCSORTHOVIEW
350
379
  3
VERSIONGUID
350
36D
  0
DICTIONARY
  5
382
102
{ACAD_REACTORS
330
C
102
}
330
C
100
AcDbDictionary
  3
CANNOSCALE
350
38B
  3
CMLEADERSTYLE
350
384
  3
CTABLESTYLE
350
383
  3
DIMASSOC
350
387
  3
HIDETEXT
350
388
  3
MSLTSCALE
350
38C
  0
XRECORD
  5
38A
102
{ACAD_REACTORS
330
389
102
}
330
389
100
AcDbXrecord
102
VTR_0.000_0.000_1.000_1.000_VISUALSTYLE
340
2F
102
VTR_0.000_0.000_1.000_1.000_GRIDDISPLAY
 70
     3
102
VTR_0.000_0.000_1.000_1.000_GRIDMAJOR
 70
     5
102
VTR_0.000_0.000_1.000_1.000_DEFAULTLIGHTING
280
     1
102
VTR_0.000_0.000_1.000_1.000_DEFAULTLIGHTINGTYPE
 70
     1
102
VTR_0.000_0.000_1.000_1.000_BRIGHTNESS
141
0.0
102
VTR_0.000_0.000_1.000_1.000_CONTRAST
142
0.0
  0
MATERIAL
  5
45
102
{ACAD_REACTORS
330
43
102
}
102
{ACAD_XDICTIONARY
360
38F
102
}
330
43
100
AcDbMaterial
  1
BYBLOCK
  0
MATERIAL
  5
44
102
{ACAD_REACTORS
330
43
102
}
102
{ACAD_XDICTIONARY
360
38D
102
}
330
43
100
AcDbMaterial
  1
BYLAYER
  0
MATERIAL
  5
46
102
{ACAD_REACTORS
330
43
102
}
102
{ACAD_XDICTIONARY
360
391
102
}
330
43
100
AcDbMaterial
  1
GLOBAL
  0
ACAD_PROXY_OBJECT
  5
6C
102
{ACAD_REACTORS
330
6B
102
}
330
6B
100
AcDbProxyObject
 90
      499
 91
      505
 93
      610
310
40901902A4063FBFFFFFE056BD1B81E855B9FC0AD7A3703D0AD73F4214DD185B99185C9900AD7A3703D0AC73F90141901A02B5E8DC0F42B1CFC02B5E8DC0F42B1CFE5764000000000000300FC0
340
14
340
0
340
11
340
0
 94
        0
1001
ACAD_MLEADERVER
1070
     2
  0
MLINESTYLE
  5
18
102
{ACAD_REACTORS
330
17
102
}
330
17
100
AcDbMlineStyle
  2
Standard
 70
     0
  3

 62
   256
 51
90.0
 52
90.0
 71
     2
 49
0.5
 62
   256
  6
BYLAYER
 49
-0.5
 62
   256
  6
BYLAYER
  0
ACAD_PROXY_OBJECT
  5
48
102
{ACAD_REACTORS
330
47
102
}
330
47
100
AcDbProxyObject
 90
      499
 91
      503
 93
       41
310
903313A31580
  0
ACAD_PROXY_OBJECT
  5
49
102
{ACAD_REACTORS
330
47
102
}
330
47
100
AcDbProxyObject
 90
      499
 91
      503
 93
      105
310
903313A324000000000000004000
  0
ACAD_PROXY_OBJECT
  5
4A
102
{ACAD_REACTORS
330
47
102
}
330
47
100
AcDbProxyObject
 90
      499
 91
      503
 93
      105
310
903313A344000000000000104000
  0
ACAD_PROXY_OBJECT
  5
4B
102
{ACAD_REACTORS
330
47
102
}
330
47
100
AcDbProxyObject
 90
      499
 91
      503
 93
      105
310
903313A354000000000000144000
  0
ACAD_PROXY_OBJECT
  5
4C
102
{ACAD_REACTORS
330
47
102
}
330
47
100
AcDbProxyObject
 90
      499
 91
      503
 93
      105
310
903313A384000000000000204000
  0
ACAD_PROXY_OBJECT
  5
4D
102
{ACAD_REACTORS
330
47
102
}
330
47
100
AcDbProxyObject
 90
      499
 91
      503
 93
      113
310
904313A31304000000000000244000
  0
ACAD_PROXY_OBJECT
  5
4E
102
{ACAD_REACTORS
330
47
102
}
330
47
100
AcDbProxyObject
 90
      499
 91
      503
 93
      113
310
904313A31364000000000000304000
  0
ACAD_PROXY_OBJECT
  5
4F
102
{ACAD_REACTORS
330
47
102
}
330
47
100
AcDbProxyObject
 90
      499
 91
      503
 93
      113
310
904313A32304000000000000344000
  0
ACAD_PROXY_OBJECT
  5
50
102
{ACAD_REACTORS
330
47
102
}
330
47
100
AcDbProxyObject
 90
      499
 91
      503
 93
      113
310
904313A333040000000000003E4000
  0
ACAD_PROXY_OBJECT
  5
51
102
{ACAD_REACTORS
330
47
102
}
330
47
100
AcDbProxyObject
 90
      499
 91
      503
 93
      113
310
904313A34304000000000000444000
  0
ACAD_PROXY_OBJECT
  5
52
102
{ACAD_REACTORS
330
47
102
}
330
47
100
AcDbProxyObject
 90
      499
 91
      503
 93
      113
310
904313A35304000000000000494000
  0
ACAD_PROXY_OBJECT
  5
53
102
{ACAD_REACTORS
330
47
102
}
330
47
100
AcDbProxyObject
 90
      499
 91
      503
 93
      121
310
905313A3130304000000000000594000
  0
ACAD_PROXY_OBJECT
  5
54
102
{ACAD_REACTORS
330
47
102
}
330
47
100
AcDbProxyObject
 90
      499
 91
      503
 93
      105
310
903323A310000000000000010100
  0
ACAD_PROXY_OBJECT
  5
55
102
{ACAD_REACTORS
330
47
102
}
330
47
100
AcDbProxyObject
 90
      499
 91
      503
 93
      105
310
903343A310000000000000410100
  0
ACAD_PROXY_OBJECT
  5
56
102
{ACAD_REACTORS
330
47
102
}
330
47
100
AcDbProxyObject
 90
      499
 91
      503
 93
      105
310
903383A310000000000000810100
  0
ACAD_PROXY_OBJECT
  5
57
102
{ACAD_REACTORS
330
47
102
}
330
47
100
AcDbProxyObject
 90
      499
 91
      503
 93
      113
310
90431303A310000000000000910100
  0
ACAD_PROXY_OBJECT
  5
58
102
{ACAD_REACTORS
330
47
102
}
330
47
100
AcDbProxyObject
 90
      499
 91
      503
 93
      121
310
9053130303A310000000000001650100
  0
ACAD_PROXY_OBJECT
  5
59
102
{ACAD_REACTORS
330
47
102
}
330
47
100
AcDbProxyObject
 90
      499
 91
      503
 93
      257
310
90E312F31323822203D2031272D3022000000000000200FC000000000000284000
  0
ACAD_PROXY_OBJECT
  5
5A
102
{ACAD_REACTORS
330
47
102
}
330
47
100
AcDbProxyObject
 90
      499
 91
      503
 93
      249
310
90D312F363422203D2031272D3022000000000000240FC000000000000284000
  0
ACAD_PROXY_OBJECT
  5
5B
102
{ACAD_REACTORS
330
47
102
}
330
47
100
AcDbProxyObject
 90
      499
 91
      503
 93
      249
310
90D312F333222203D2031272D3022000000000000280FC000000000000284000
  0
ACAD_PROXY_OBJECT
  5
5C
102
{ACAD_REACTORS
330
47
102
}
330
47
100
AcDbProxyObject
 90
      499
 91
      503
 93
      249
310
90D312F313622203D2031272D30220000000000002C0FC000000000000284000
  0
ACAD_PROXY_OBJECT
  5
5D
102
{ACAD_REACTORS
330
47
102
}
330
47
100
AcDbProxyObject
 90
      499
 91
      503
 93
      249
310
90D332F333222203D2031272D30220000000000002E0FC000000000000284000
  0
ACAD_PROXY_OBJECT
  5
5E
102
{ACAD_REACTORS
330
47
102
}
330
47
100
AcDbProxyObject
 90
      499
 91
      503
 93
      241
310
90C312F3822203D2031272D3022000000000000300FC000000000000284000
  0
ACAD_PROXY_OBJECT
  5
5F
102
{ACAD_REACTORS
330
47
102
}
330
47
100
AcDbProxyObject
 90
      499
 91
      503
 93
      249
310
90D332F313622203D2031272D3022000000000000320FC000000000000284000
  0
ACAD_PROXY_OBJECT
  5
60
102
{ACAD_REACTORS
330
47
102
}
330
47
100
AcDbProxyObject
 90
      499
 91
      503
 93
      241
310
90C312F3422203D2031272D3022000000000000340FC000000000000284000
  0
ACAD_PROXY_OBJECT
  5
61
102
{ACAD_REACTORS
330
47
102
}
330
47
100
AcDbProxyObject
 90
      499
 91
      503
 93
      241
310
90C332F3822203D2031272D3022000000000000360FC000000000000284000
  0
ACAD_PROXY_OBJECT
  5
62
102
{ACAD_REACTORS
330
47
102
}
330
47
100
AcDbProxyObject
 90
      499
 91
      503
 93
      241
310
90C312F3222203D2031272D3022000000000000380FC000000000000284000
  0
ACAD_PROXY_OBJECT
  5
63
102
{ACAD_REACTORS
330
47
102
}
330
47
100
AcDbProxyObject
 90
      499
 91
      503
 93
      241
310
90C332F3422203D2031272D30220000000000003A0FC000000000000284000
  0
ACAD_PROXY_OBJECT
  5
64
102
{ACAD_REACTORS
330
47
102
}
330
47
100
AcDbProxyObject
 90
      499
 91
      503
 93
      161
310
90A3122203D2031272D30224000000000000284000
  0
ACAD_PROXY_OBJECT
  5
65
102
{ACAD_REACTORS
330
47
102
}
330
47
100
AcDbProxyObject
 90
      499
 91
      503
 93
      257
310
90E312D312F3222203D2031272D30220000000000003E0FC000000000000284000
  0
ACAD_PROXY_OBJECT
  5
66
102
{ACAD_REACTORS
330
47
102
}
330
47
100
AcDbProxyObject
 90
      499
 91
      503
 93
      225
310
90A3322203D2031272D302200000000000002100000000000000284000
  0
ACAD_PROXY_OBJECT
  5
67
102
{ACAD_REACTORS
330
47
102
}
330
47
100
AcDbProxyObject
 90
      499
 91
      503
 93
      225
310
90A3622203D2031272D302200000000000006100000000000000284000
  0
ACAD_PROXY_OBJECT
  5
68
102
{ACAD_REACTORS
330
47
102
}
330
47
100
AcDbProxyObject
 90
      499
 91
      503
 93
      249
310
90D31272D3022203D2031272D30220000000000000A100000000000000284000
  0
ACAD_PROXY_OBJECT
  5
2F
102
{ACAD_REACTORS
330
2A
102
}
330
2A
100
AcDbProxyObject
 90
      499
 91
      501
 93
      436
310
42CC9915DA5C99599C985B595049028333333333333E33F0000000000000F90107901411070040501600405405064090741402480A0340
1001
ACAD
1000
AcDbSavedByObjectVersion
1070
     0
  0
ACAD_PROXY_OBJECT
  5
32
102
{ACAD_REACTORS
330
2A
102
}
330
2A
100
AcDbProxyObject
 90
      499
 91
      501
 93
      388
310
4150985CDA58D07406404333333333333E33F0000000000000F90107A41107004050150841D405064090741402480A0350
1001
ACAD
1000
AcDbSavedByObjectVersion
1070
     0
  0
ACAD_PROXY_OBJECT
  5
36
102
{ACAD_REACTORS
330
2A
102
}
330
2A
100
AcDbProxyObject
 90
      499
 91
      501
 93
      428
310
42109C9A59DA1D195B90C409028333333333333E33F0000000000000F9010790141107004050150841D405064090741402480A029950
1001
ACAD
1000
AcDbSavedByObjectVersion
1070
     0
  0
ACAD_PROXY_OBJECT
  5
3A
102
{ACAD_REACTORS
330
2A
102
}
330
2A
100
AcDbProxyObject
 90
      499
 91
      501
 93
      452
310
42D0DBDB1BDC90DA185B99D95104090240C333333333333E33F0000000000000F90108901411070040501508421405064090741402480A0350
1001
ACAD
1000
AcDbSavedByObjectVersion
1070
     0
  0
ACAD_PROXY_OBJECT
  5
34
102
{ACAD_REACTORS
330
2A
102
}
330
2A
100
AcDbProxyObject
 90
      499
 91
      501
 93
      500
310
4290DBDB98D95C1D1D585B10940D028333333333333E33F0000000000000F90107902409070040501000000000018199010841D405064090740C02480A0340
1001
ACAD
1000
AcDbSavedByObjectVersion
1070
     0
  0
ACAD_PROXY_OBJECT
  5
35
102
{ACAD_REACTORS
330
2A
102
}
330
2A
100
AcDbProxyObject
 90
      499
 91
      501
 93
      412
310
40D11A5B50B409028333333333333E33F0000000000000F9010790141107004050150841D405064090741402480A02677FFFFFD0
1001
ACAD
1000
AcDbSavedByObjectVersion
1070
     0
  0
ACAD_PROXY_OBJECT
  5
3D
102
{ACAD_REACTORS
330
2A
102
}
330
2A
100
AcDbProxyObject
 90
      499
 91
      501
 93
      452
310
43115919D950DBDB1BDC93D999916409028333333333333E33F0000000000000F9010790141107004050150841D405064090741402480A0350
1001
ACAD
1000
AcDbSavedByObjectVersion
1070
     0
  0
ACAD_PROXY_OBJECT
  5
39
102
{ACAD_REACTORS
330
2A
102
}
330
2A
100
AcDbProxyObject
 90
      499
 91
      501
 93
      444
310
42D19858D95C185D1D195C9B90F409028333333333333E33F0000000000000F9010790141107004050150841D405064090741402480A0350
1001
ACAD
1000
AcDbSavedByObjectVersion
1070
     0
  0
ACAD_PROXY_OBJECT
  5
2B
102
{ACAD_REACTORS
330
2A
102
}
330
2A
100
AcDbProxyObject
 90
      499
 91
      501
 93
      380
310
41119B185D240901404333333333333E33F0000000000000F9010740A907004050150841D405064090741402480A1B50
1001
ACAD
1000
AcDbSavedByObjectVersion
1070
     0
  0
ACAD_PROXY_OBJECT
  5
2C
102
{ACAD_REACTORS
330
2A
102
}
330
2A
100
AcDbProxyObject
 90
      499
 91
      501
 93
      468
310
43519B185D15DA5D1A115919D95CD0140901404333333333333E33F0000000000000F90107409019070040501600405405064090741402480A1B50
1001
ACAD
1000
AcDbSavedByObjectVersion
1070
     0
  0
ACAD_PROXY_OBJECT
  5
2D
102
{ACAD_REACTORS
330
2A
102
}
330
2A
100
AcDbProxyObject
 90
      499
 91
      501
 93
      404
310
41D1DBDD5C985D5910240902404333333333333E33F0000000000000F9010740A9070040501641D405064090741402480A1B50
1001
ACAD
1000
AcDbSavedByObjectVersion
1070
     0
  0
ACAD_PROXY_OBJECT
  5
2E
102
{ACAD_REACTORS
330
2A
102
}
330
2A
100
AcDbProxyObject
 90
      499
 91
      501
 93
      492
310
4411DBDD5C985D5915DA5D1A115919D95CD0340902404333333333333E33F0000000000000F90107409019070040501600405405064090741402480A1B50
1001
ACAD
1000
AcDbSavedByObjectVersion
1070
     0
  0
ACAD_PROXY_OBJECT
  5
31
102
{ACAD_REACTORS
330
2A
102
}
330
2A
100
AcDbProxyObject
 90
      499
 91
      501
 93
      476
310
41921A5919195B90640502408333333333333E33F0000000000000F901079024090700405020000000000001110200405405064090740C02480A0340
1001
ACAD
1000
AcDbSavedByObjectVersion
1070
     0
  0
ACAD_PROXY_OBJECT
  5
3B
102
{ACAD_REACTORS
330
2A
102
}
330
2A
100
AcDbProxyObject
 90
      499
 91
      501
 93
      428
310
42529A5D1D195C93D999914409028333333333333E33F0000000000000F9010790141107004050150A41D405064090741402480A0350
1001
ACAD
1000
AcDbSavedByObjectVersion
1070
     0
  0
ACAD_PROXY_OBJECT
  5
38
102
{ACAD_REACTORS
330
2A
102
}
330
2A
100
AcDbProxyObject
 90
      499
 91
      501
 93
      444
310
42D31A5B995C185D1D195C9B90E409028333333333333E33F0000000000000F9010790141107004050750841D405064090741402483A0350
1001
ACAD
1000
AcDbSavedByObjectVersion
1070
     0
  0
ACAD_PROXY_OBJECT
  5
3C
102
{ACAD_REACTORS
330
2A
102
}
330
2A
100
AcDbProxyObject
 90
      499
 91
      501
 93
      444
310
42D3DD995C9A185B99D3D999915409028333333333333E33F0000000000000F9010790141107004050150941D405064090741402480A0350
1001
ACAD
1000
AcDbSavedByObjectVersion
1070
     0
  0
ACAD_PROXY_OBJECT
  5
33
102
{ACAD_REACTORS
330
2A
102
}
330
2A
100
AcDbProxyObject
 90
      499
 91
      501
 93
      428
310
425499585B1A5CDD1A58D08409038333333333333E33F0000000000000F9010740A907004050150800405405064090740C02480A1B40
1001
ACAD
1000
AcDbSavedByObjectVersion
1070
     0
  0
ACAD_PROXY_OBJECT
  5
42
102
{ACAD_REACTORS
330
2A
102
}
330
2A
100
AcDbProxyObject
 90
      499
 91
      501
 93
      420
310
4194DA1859195911B40902404333333333333E33F0000000000000F9010740A41107004050150800405405064090840C02480A0B40
1001
ACAD
1000
AcDbSavedByObjectVersion
1070
     0
  0
ACAD_PROXY_OBJECT
  5
41
102
{ACAD_REACTORS
330
2A
102
}
330
2A
100
AcDbProxyObject
 90
      499
 91
      501
 93
      516
310
4454DA18591959081DDA5D1A08195919D95CD1A40902404333333333333E33F0000000000000F901074090142907004050250800405405064090740C02480A0B40
1001
ACAD
1000
AcDbSavedByObjectVersion
1070
     0
  0
ACAD_PROXY_OBJECT
  5
3E
102
{ACAD_REACTORS
330
2A
102
}
330
2A
100
AcDbProxyObject
 90
      499
 91
      501
 93
      532
310
4394DA1859195CC81BD98811DC985E5174090240C333333333333E33F0000000000000F901079024090741D01000000000000111010841D405064090740C02480A0340
1001
ACAD
1000
AcDbSavedByObjectVersion
1070
     0
  0
ACAD_PROXY_OBJECT
  5
3F
102
{ACAD_REACTORS
330
2A
102
}
330
2A
100
AcDbProxyObject
 90
      499
 91
      501
 93
      476
310
41D4DAD95D18DA1E51840502408333333333333E33F0000000000000F901079024090741D01000000000000111010B41D405064090741802480A0340
1001
ACAD
1000
AcDbSavedByObjectVersion
1070
     0
  0
ACAD_PROXY_OBJECT
  5
37
102
{ACAD_REACTORS
330
2A
102
}
330
2A
100
AcDbProxyObject
 90
      499
 91
      501
 93
      412
310
41D51A1A58DAD95B90D409028333333333333E33F0000000000000F9010790141107004050150C41D405064090741402480A0350
1001
ACAD
1000
AcDbSavedByObjectVersion
1070
     0
  0
ACAD_PROXY_OBJECT
  5
30
102
{ACAD_REACTORS
330
2A
102
}
330
2A
100
AcDbProxyObject
 90
      499
 91
      501
 93
      420
310
4255DA5C99599C985B595059028333333333333E33F0000000000000F90107901411070040501600405405064090740C02480A0340
1001
ACAD
1000
AcDbSavedByObjectVersion
1070
     0
  0
ACAD_PROXY_OBJECT
  5
40
102
{ACAD_REACTORS
330
2A
102
}
330
2A
100
AcDbProxyObject
 90
      499
 91
      501
 93
      404
310
41560B54985E51940902404000000000000E03F0000000000000F9010740501907004050150841D405064090740C02480A1B40
1001
ACAD
1000
AcDbSavedByObjectVersion
1070
     0
  0
XRECORD
  5
36B
102
{ACAD_REACTORS
330
361
102
}
330
361
100
AcDbXrecord
340
0
  0
XRECORD
  5
36A
102
{ACAD_REACTORS
330
361
102
}
330
361
100
AcDbXrecord
 90
        0
  0
XRECORD
  5
381
102
{ACAD_REACTORS
330
361
102
}
330
361
100
AcDbXrecord
1000
DSTYLE
1002
{
1070
   340
340
11
1002
}
  0
XRECORD
  5
36C
102
{ACAD_REACTORS
330
361
102
}
330
361
100
AcDbXrecord
  1
{6DA80D98-5D93-4014-B6B5-11E1719FE9F7}
  0
XRECORD
  5
364
102
{ACAD_REACTORS
330
361
102
}
330
361
100
AcDbXrecord
  1

  0
XRECORD
  5
369
102
{ACAD_REACTORS
330
361
102
}
330
361
100
AcDbXrecord
 90
        1
  0
XRECORD
  5
366
102
{ACAD_REACTORS
330
361
102
}
330
361
100
AcDbXrecord
340
1A
  0
XRECORD
  5
368
102
{ACAD_REACTORS
330
361
102
}
330
361
100
AcDbXrecord
 90
    10781
  0
XRECORD
  5
367
102
{ACAD_REACTORS
330
361
102
}
330
361
100
AcDbXrecord
340
19
  0
XRECORD
  5
36E
102
{ACAD_REACTORS
330
361
102
}
330
361
100
AcDbXrecord
 40
0.0
  0
XRECORD
  5
371
102
{ACAD_REACTORS
330
361
102
}
330
361
100
AcDbXrecord
340
0
  0
XRECORD
  5
377
102
{ACAD_REACTORS
330
361
102
}
330
361
100
AcDbXrecord
 10
0.0
 20
0.0
 30
0.0
  0
XRECORD
  5
373
102
{ACAD_REACTORS
330
361
102
}
330
361
100
AcDbXrecord
 10
0.0
 20
0.0
 30
0.0
  0
XRECORD
  5
376
102
{ACAD_REACTORS
330
361
102
}
330
361
100
AcDbXrecord
 10
0.0
 20
0.0
 30
0.0
  0
XRECORD
  5
374
102
{ACAD_REACTORS
330
361
102
}
330
361
100
AcDbXrecord
 10
0.0
 20
0.0
 30
0.0
  0
XRECORD
  5
375
102
{ACAD_REACTORS
330
361
102
}
330
361
100
AcDbXrecord
 10
0.0
 20
0.0
 30
0.0
  0
XRECORD
  5
372
102
{ACAD_REACTORS
330
361
102
}
330
361
100
AcDbXrecord
 10
0.0
 20
0.0
 30
0.0
  0
XRECORD
  5
36F
102
{ACAD_REACTORS
330
361
102
}
330
361
100
AcDbXrecord
340
0
  0
XRECORD
  5
370
102
{ACAD_REACTORS
330
361
102
}
330
361
100
AcDbXrecord
 70
     0
  0
XRECORD
  5
365
102
{ACAD_REACTORS
330
361
102
}
330
361
100
AcDbXrecord
  1

  0
XRECORD
  5
362
102
{ACAD_REACTORS
330
361
102
}
330
361
100
AcDbXrecord
 90
        1
  0
XRECORD
  5
363
102
{ACAD_REACTORS
330
361
102
}
330
361
100
AcDbXrecord
 90
       70
  0
XRECORD
  5
37A
102
{ACAD_REACTORS
330
361
102
}
330
361
100
AcDbXrecord
340
0
  0
XRECORD
  5
380
102
{ACAD_REACTORS
330
361
102
}
330
361
100
AcDbXrecord
 10
0.0
 20
0.0
 30
0.0
  0
XRECORD
  5
37C
102
{ACAD_REACTORS
330
361
102
}
330
361
100
AcDbXrecord
 10
0.0
 20
0.0
 30
0.0
  0
XRECORD
  5
37F
102
{ACAD_REACTORS
330
361
102
}
330
361
100
AcDbXrecord
 10
0.0
 20
0.0
 30
0.0
  0
XRECORD
  5
37D
102
{ACAD_REACTORS
330
361
102
}
330
361
100
AcDbXrecord
 10
0.0
 20
0.0
 30
0.0
  0
XRECORD
  5
37E
102
{ACAD_REACTORS
330
361
102
}
330
361
100
AcDbXrecord
 10
0.0
 20
0.0
 30
0.0
  0
XRECORD
  5
37B
102
{ACAD_REACTORS
330
361
102
}
330
361
100
AcDbXrecord
 10
0.0
 20
0.0
 30
0.0
  0
XRECORD
  5
378
102
{ACAD_REACTORS
330
361
102
}
330
361
100
AcDbXrecord
340
0
  0
XRECORD
  5
379
102
{ACAD_REACTORS
330
361
102
}
330
361
100
AcDbXrecord
 70
     0
  0
XRECORD
  5
36D
102
{ACAD_REACTORS
330
361
102
}
330
361
100
AcDbXrecord
  1
{FAEB1C32-E019-11D5-929B-00C0DF256EC4}
  0
DICTIONARYVAR
  5
38B
102
{ACAD_REACTORS
330
382
102
}
330
382
100
DictionaryVariables
280
     0
  1
1:1
  0
DICTIONARYVAR
  5
384
102
{ACAD_REACTORS
330
382
102
}
330
382
100
DictionaryVariables
280
     0
  1
Standard
  0
DICTIONARYVAR
  5
383
102
{ACAD_REACTORS
330
382
102
}
330
382
100
DictionaryVariables
280
     0
  1
Standard
  0
DICTIONARYVAR
  5
387
102
{ACAD_REACTORS
330
382
102
}
330
382
100
DictionaryVariables
280
     0
  1
2
  0
DICTIONARYVAR
  5
388
102
{ACAD_REACTORS
330
382
102
}
330
382
100
DictionaryVariables
280
     0
  1
1
  0
DICTIONARYVAR
  5
38C
102
{ACAD_REACTORS
330
382
102
}
330
382
100
DictionaryVariables
280
     0
  1
1
  0
DICTIONARY
  5
38F
330
45
100
AcDbDictionary
280
     1
  3
ACAD_XREC_ROUNDTRIP
360
390
  0
DICTIONARY
  5
38D
330
44
100
AcDbDictionary
280
     1
  3
ACAD_XREC_ROUNDTRIP
360
38E
  0
DICTIONARY
  5
391
330
46
100
AcDbDictionary
280
     1
  3
ACAD_XREC_ROUNDTRIP
360
392
  0
XRECORD
  5
390
102
{ACAD_REACTORS
330
38F
102
}
330
38F
100
AcDbXrecord
102
MATERIAL
148
0.0
149
0.0
149
0.0
 93
        0
 94
      127
282
     0
 72
     1
 77
     1
171
     1
175
     1
179
     1
273
     0
  0
XRECORD
  5
38E
102
{ACAD_REACTORS
330
38D
102
}
330
38D
100
AcDbXrecord
102
MATERIAL
148
0.0
149
0.0
149
0.0
 93
        0
 94
      127
282
     0
 72
     1
 77
     1
171
     1
175
     1
179
     1
273
     0
  0
XRECORD
  5
392
102
{ACAD_REACTORS
330
391
102
}
330
391
100
AcDbXrecord
102
MATERIAL
148
0.0
149
0.0
149
0.0
 93
        0
 94
      127
282
     0
 72
     1
 77
     1
171
     1
175
     1
179
     1
273
     0
  0
ENDSEC
  0
EOF
