  0
SECTION
  2
HEADER
  9
$ACADVER
  1
AC1015
  9
$ACADMAINTVER
 70
     6
  9
$DWGCODEPAGE
  3
ANSI_1252
  9
$INSBASE
 10
0.0
 20
0.0
 30
0.0
  9
$EXTMIN
 10
1.000000000000000E+20
 20
1.000000000000000E+20
 30
1.000000000000000E+20
  9
$EXTMAX
 10
-1.000000000000000E+20
 20
-1.000000000000000E+20
 30
-1.000000000000000E+20
  9
$LIMMIN
 10
0.0
 20
0.0
  9
$LIMMAX
 10
12.0
 20
9.0
  9
$ORTHOMODE
 70
     0
  9
$REGENMODE
 70
     1
  9
$FILLMODE
 70
     1
  9
$QTEXTMODE
 70
     0
  9
$MIRRTEXT
 70
     1
  9
$LTSCALE
 40
1.0
  9
$ATTMODE
 70
     1
  9
$TEXTSIZE
 40
0.2
  9
$TRACEWID
 40
0.05
  9
$TEXTSTYLE
  7
Standard
  9
$CLAYER
  8
0
  9
$CELTYPE
  6
ByLayer
  9
$CECOLOR
 62
   256
  9
$CELTSCALE
 40
1.0
  9
$DISPSILH
 70
     0
  9
$DIMSCALE
 40
1.0
  9
$DIMASZ
 40
0.18
  9
$DIMEXO
 40
0.0625
  9
$DIMDLI
 40
0.38
  9
$DIMRND
 40
0.0
  9
$DIMDLE
 40
0.0
  9
$DIMEXE
 40
0.18
  9
$DIMTP
 40
0.0
  9
$DIMTM
 40
0.0
  9
$DIMTXT
 40
0.18
  9
$DIMCEN
 40
0.09
  9
$DIMTSZ
 40
0.0
  9
$DIMTOL
 70
     0
  9
$DIMLIM
 70
     0
  9
$DIMTIH
 70
     1
  9
$DIMTOH
 70
     1
  9
$DIMSE1
 70
     0
  9
$DIMSE2
 70
     0
  9
$DIMTAD
 70
     0
  9
$DIMZIN
 70
     0
  9
$DIMBLK
  1

  9
$DIMASO
 70
     1
  9
$DIMSHO
 70
     1
  9
$DIMPOST
  1

  9
$DIMAPOST
  1

  9
$DIMALT
 70
     0
  9
$DIMALTD
 70
     2
  9
$DIMALTF
 40
25.4
  9
$DIMLFAC
 40
1.0
  9
$DIMTOFL
 70
     0
  9
$DIMTVP
 40
0.0
  9
$DIMTIX
 70
     0
  9
$DIMSOXD
 70
     0
  9
$DIMSAH
 70
     0
  9
$DIMBLK1
  1

  9
$DIMBLK2
  1

  9
$DIMSTYLE
  2
Standard
  9
$DIMCLRD
 70
     0
  9
$DIMCLRE
 70
     0
  9
$DIMCLRT
 70
     0
  9
$DIMTFAC
 40
1.0
  9
$DIMGAP
 40
0.09
  9
$DIMJUST
 70
     0
  9
$DIMSD1
 70
     0
  9
$DIMSD2
 70
     0
  9
$DIMTOLJ
 70
     1
  9
$DIMTZIN
 70
     0
  9
$DIMALTZ
 70
     0
  9
$DIMALTTZ
 70
     0
  9
$DIMUPT
 70
     0
  9
$DIMDEC
 70
     4
  9
$DIMTDEC
 70
     4
  9
$DIMALTU
 70
     2
  9
$DIMALTTD
 70
     2
  9
$DIMTXSTY
  7
Standard
  9
$DIMAUNIT
 70
     0
  9
$DIMADEC
 70
     0
  9
$DIMALTRND
 40
0.0
  9
$DIMAZIN
 70
     0
  9
$DIMDSEP
 70
    46
  9
$DIMATFIT
 70
     3
  9
$DIMFRAC
 70
     0
  9
$DIMLDRBLK
  1

  9
$DIMLUNIT
 70
     2
  9
$DIMLWD
 70
    -2
  9
$DIMLWE
 70
    -2
  9
$DIMTMOVE
 70
     0
  9
$LUNITS
 70
     2
  9
$LUPREC
 70
     4
  9
$SKETCHINC
 40
0.1
  9
$FILLETRAD
 40
0.5
  9
$AUNITS
 70
     0
  9
$AUPREC
 70
     0
  9
$MENU
  1
.
  9
$ELEVATION
 40
0.0
  9
$PELEVATION
 40
0.0
  9
$THICKNESS
 40
0.0
  9
$LIMCHECK
 70
     0
  9
$CHAMFERA
 40
0.5
  9
$CHAMFERB
 40
0.5
  9
$CHAMFERC
 40
1.0
  9
$CHAMFERD
 40
0.0
  9
$SKPOLY
 70
     0
  9
$TDCREATE
 40
2458449.494207338
  9
$TDUCREATE
 40
2458449.702540671
  9
$TDUPDATE
 40
2458449.49420735
  9
$TDUUPDATE
 40
2458449.702540683
  9
$TDINDWG
 40
0.0000000116
  9
$TDUSRTIMER
 40
0.0000000116
  9
$USRTIMER
 70
     1
  9
$ANGBASE
 50
0.0
  9
$ANGDIR
 70
     0
  9
$PDMODE
 70
     0
  9
$PDSIZE
 40
0.0
  9
$PLINEWID
 40
0.0
  9
$SPLFRAME
 70
     0
  9
$SPLINETYPE
 70
     6
  9
$SPLINESEGS
 70
     8
  9
$HANDSEED
  5
60
  9
$SURFTAB1
 70
     6
  9
$SURFTAB2
 70
     6
  9
$SURFTYPE
 70
     6
  9
$SURFU
 70
     6
  9
$SURFV
 70
     6
  9
$UCSBASE
  2

  9
$UCSNAME
  2

  9
$UCSORG
 10
0.0
 20
0.0
 30
0.0
  9
$UCSXDIR
 10
1.0
 20
0.0
 30
0.0
  9
$UCSYDIR
 10
0.0
 20
1.0
 30
0.0
  9
$UCSORTHOREF
  2

  9
$UCSORTHOVIEW
 70
     0
  9
$UCSORGTOP
 10
0.0
 20
0.0
 30
0.0
  9
$UCSORGBOTTOM
 10
0.0
 20
0.0
 30
0.0
  9
$UCSORGLEFT
 10
0.0
 20
0.0
 30
0.0
  9
$UCSORGRIGHT
 10
0.0
 20
0.0
 30
0.0
  9
$UCSORGFRONT
 10
0.0
 20
0.0
 30
0.0
  9
$UCSORGBACK
 10
0.0
 20
0.0
 30
0.0
  9
$PUCSBASE
  2

  9
$PUCSNAME
  2

  9
$PUCSORG
 10
0.0
 20
0.0
 30
0.0
  9
$PUCSXDIR
 10
1.0
 20
0.0
 30
0.0
  9
$PUCSYDIR
 10
0.0
 20
1.0
 30
0.0
  9
$PUCSORTHOREF
  2

  9
$PUCSORTHOVIEW
 70
     0
  9
$PUCSORGTOP
 10
0.0
 20
0.0
 30
0.0
  9
$PUCSORGBOTTOM
 10
0.0
 20
0.0
 30
0.0
  9
$PUCSORGLEFT
 10
0.0
 20
0.0
 30
0.0
  9
$PUCSORGRIGHT
 10
0.0
 20
0.0
 30
0.0
  9
$PUCSORGFRONT
 10
0.0
 20
0.0
 30
0.0
  9
$PUCSORGBACK
 10
0.0
 20
0.0
 30
0.0
  9
$USERI1
 70
     0
  9
$USERI2
 70
     0
  9
$USERI3
 70
     0
  9
$USERI4
 70
     0
  9
$USERI5
 70
     0
  9
$USERR1
 40
0.0
  9
$USERR2
 40
0.0
  9
$USERR3
 40
0.0
  9
$USERR4
 40
0.0
  9
$USERR5
 40
0.0
  9
$WORLDVIEW
 70
     1
  9
$SHADEDGE
 70
     3
  9
$SHADEDIF
 70
    70
  9
$TILEMODE
 70
     1
  9
$MAXACTVP
 70
    64
  9
$PINSBASE
 10
0.0
 20
0.0
 30
0.0
  9
$PLIMCHECK
 70
     0
  9
$PEXTMIN
 10
1.000000000000000E+20
 20
1.000000000000000E+20
 30
1.000000000000000E+20
  9
$PEXTMAX
 10
-1.000000000000000E+20
 20
-1.000000000000000E+20
 30
-1.000000000000000E+20
  9
$PLIMMIN
 10
0.0
 20
0.0
  9
$PLIMMAX
 10
12.0
 20
9.0
  9
$UNITMODE
 70
     0
  9
$VISRETAIN
 70
     1
  9
$PLINEGEN
 70
     0
  9
$PSLTSCALE
 70
     1
  9
$TREEDEPTH
 70
  3020
  9
$CMLSTYLE
  2
Standard
  9
$CMLJUST
 70
     0
  9
$CMLSCALE
 40
1.0
  9
$PROXYGRAPHICS
 70
     1
  9
$MEASUREMENT
 70
     0
  9
$CELWEIGHT
370
    -1
  9
$ENDCAPS
280
     0
  9
$JOINSTYLE
280
     0
  9
$LWDISPLAY
290
     1
  9
$INSUNITS
 70
     1
  9
$HYPERLINKBASE
  1

  9
$STYLESHEET
  1

  9
$XEDIT
290
     1
  9
$CEPSNTYPE
380
     0
  9
$PSTYLEMODE
290
     1
  9
$FINGERPRINTGUID
  2
{0BAF5C82-A5AE-4DD3-BDC6-CBD941AF36FC}
  9
$VERSIONGUID
  2
{FAEB1C32-E019-11D5-929B-00C0DF256EC4}
  9
$EXTNAMES
290
     1
  9
$PSVPSCALE
 40
0.0
  9
$OLESTARTUP
290
     0
  0
ENDSEC
  0
SECTION
  2
CLASSES
  0
CLASS
  1
ACDBDICTIONARYWDFLT
  2
AcDbDictionaryWithDefault
  3
ObjectDBX Classes
 90
        0
280
     0
281
     0
  0
CLASS
  1
VISUALSTYLE
  2
AcDbVisualStyle
  3
ObjectDBX Classes
 90
     4095
280
     0
281
     0
  0
CLASS
  1
ACDBPLACEHOLDER
  2
AcDbPlaceHolder
  3
ObjectDBX Classes
 90
        0
280
     0
281
     0
  0
CLASS
  1
LAYOUT
  2
AcDbLayout
  3
ObjectDBX Classes
 90
        0
280
     0
281
     0
  0
ENDSEC
  0
SECTION
  2
TABLES
  0
TABLE
  2
VPORT
  5
8
330
0
100
AcDbSymbolTable
 70
     1
  0
VPORT
  5
29
330
8
100
AcDbSymbolTableRecord
100
AcDbViewportTableRecord
  2
*Active
 70
     0
 10
0.0
 20
0.0
 11
1.0
 21
1.0
 12
0.0
 22
0.0
 13
0.0
 23
0.0
 14
0.5
 24
0.5
 15
0.5
 25
0.5
 16
0.0
 26
0.0
 36
1.0
 17
500.0
 27
-500.0
 37
0.0
 40
1000.0
 41
1.0
 42
50.0
 43
0.0
 44
0.0
 50
0.0
 51
0.0
 71
     0
 72
   100
 73
     1
 74
     3
 75
     0
 76
     0
 77
     0
 78
     0
281
     0
 65
     1
110
0.0
120
0.0
130
0.0
111
1.0
121
0.0
131
0.0
112
0.0
122
1.0
132
0.0
 79
     0
146
0.0
  0
ENDTAB
  0
TABLE
  2
LTYPE
  5
5
330
0
100
AcDbSymbolTable
 70
     1
  0
LTYPE
  5
14
330
5
100
AcDbSymbolTableRecord
100
AcDbLinetypeTableRecord
  2
ByBlock
 70
     0
  3

 72
    65
 73
     0
 40
0.0
  0
LTYPE
  5
15
330
5
100
AcDbSymbolTableRecord
100
AcDbLinetypeTableRecord
  2
ByLayer
 70
     0
  3

 72
    65
 73
     0
 40
0.0
  0
LTYPE
  5
16
330
5
100
AcDbSymbolTableRecord
100
AcDbLinetypeTableRecord
  2
Continuous
 70
     0
  3
Solid line
 72
    65
 73
     0
 40
0.0
  0
ENDTAB
  0
TABLE
  2
LAYER
  5
2
330
0
100
AcDbSymbolTable
 70
     2
  0
LAYER
  5
10
330
2
100
AcDbSymbolTableRecord
100
AcDbLayerTableRecord
  2
0
 70
     0
 62
     7
  6
Continuous
370
    -3
390
F
  0
LAYER
  5
3B
330
2
100
AcDbSymbolTableRecord
100
AcDbLayerTableRecord
  2
Layer 1
 70
     0
 62
     7
  6
Continuous
370
    -3
390
F
  0
ENDTAB
  0
TABLE
  2
STYLE
  5
3
330
0
100
AcDbSymbolTable
 70
     1
  0
STYLE
  5
11
330
3
100
AcDbSymbolTableRecord
100
AcDbTextStyleTableRecord
  2
Standard
 70
     0
 40
0.0
 41
1.0
 50
0.0
 71
     0
 42
0.2
  3
txt
  4

  0
ENDTAB
  0
TABLE
  2
VIEW
  5
6
330
0
100
AcDbSymbolTable
 70
     0
  0
ENDTAB
  0
TABLE
  2
UCS
  5
7
330
0
100
AcDbSymbolTable
 70
     0
  0
ENDTAB
  0
TABLE
  2
APPID
  5
9
330
0
100
AcDbSymbolTable
 70
     1
  0
APPID
  5
12
330
9
100
AcDbSymbolTableRecord
100
AcDbRegAppTableRecord
  2
ACAD
 70
     0
  0
ENDTAB
  0
TABLE
  2
DIMSTYLE
  5
A
330
0
100
AcDbSymbolTable
 70
     1
100
AcDbDimStyleTable
  0
DIMSTYLE
105
27
330
A
100
AcDbSymbolTableRecord
100
AcDbDimStyleTableRecord
  2
Standard
 70
     0
340
11
  0
ENDTAB
  0
TABLE
  2
BLOCK_RECORD
  5
1
330
0
100
AcDbSymbolTable
 70
     2
  0
BLOCK_RECORD
  5
1F
330
1
100
AcDbSymbolTableRecord
100
AcDbBlockTableRecord
  2
*Model_Space
340
22
  0
BLOCK_RECORD
  5
1B
330
1
100
AcDbSymbolTableRecord
100
AcDbBlockTableRecord
  2
*Paper_Space
340
1E
  0
BLOCK_RECORD
  5
23
330
1
100
AcDbSymbolTableRecord
100
AcDbBlockTableRecord
  2
*Paper_Space0
340
26
  0
BLOCK_RECORD
  5
3C
330
1
100
AcDbSymbolTableRecord
100
AcDbBlockTableRecord
  2
block 2
340
0
102
{BLKREFS
331
3D
102
}
  0
ENDTAB
  0
ENDSEC
  0
SECTION
  2
BLOCKS
  0
BLOCK
  5
20
330
1F
100
AcDbEntity
  8
0
100
AcDbBlockBegin
  2
*Model_Space
 70
     0
 71
     0
 10
0.0
 20
0.0
 30
0.0
  3
*Model_Space
  1

  0
ENDBLK
  5
21
330
1F
100
AcDbEntity
  8
0
100
AcDbBlockEnd
  0
BLOCK
  5
1C
330
1B
100
AcDbEntity
 67
     1
  8
0
100
AcDbBlockBegin
  2
*Paper_Space
 70
     0
 71
     0
 10
0.0
 20
0.0
 30
0.0
  3
*Paper_Space
  1

  0
ENDBLK
  5
1D
330
1B
100
AcDbEntity
 67
     1
  8
0
100
AcDbBlockEnd
  0
BLOCK
  5
24
330
23
100
AcDbEntity
  8
0
100
AcDbBlockBegin
  2
*Paper_Space0
 70
     0
 71
     0
 10
0.0
 20
0.0
 30
0.0
  3
*Paper_Space0
  1

  0
ENDBLK
  5
25
330
23
100
AcDbEntity
  8
0
100
AcDbBlockEnd
  0
BLOCK
  5
3E
330
3C
100
AcDbEntity
  8
0
100
AcDbBlockBegin
  2
block 2
 70
     0
 71
     0
 10
0.0
 20
0.0
 30
0.0
  3
block 2
  1

  0
SPLINE
  5
40
330
3C
100
AcDbEntity
  8
Layer 1
370
     0
100
AcDbSpline
210
0.0
220
0.0
230
1.0
 70
    11
 71
     3
 72
   152
 73
   148
 74
     0
 42
0.0000000001
 43
0.0000000001
 40
0.0
 40
0.0
 40
0.0
 40
0.0
 40
1.0
 40
1.0
 40
1.0
 40
2.0
 40
2.0
 40
2.0
 40
3.0
 40
3.0
 40
3.0
 40
4.0
 40
4.0
 40
4.0
 40
5.0
 40
5.0
 40
5.0
 40
6.0
 40
6.0
 40
6.0
 40
7.0
 40
7.0
 40
7.0
 40
8.0
 40
8.0
 40
8.0
 40
9.0
 40
9.0
 40
9.0
 40
10.0
 40
10.0
 40
10.0
 40
11.0
 40
11.0
 40
11.0
 40
12.0
 40
12.0
 40
12.0
 40
13.0
 40
13.0
 40
13.0
 40
14.0
 40
14.0
 40
14.0
 40
15.0
 40
15.0
 40
15.0
 40
16.0
 40
16.0
 40
16.0
 40
17.0
 40
17.0
 40
17.0
 40
18.0
 40
18.0
 40
18.0
 40
19.0
 40
19.0
 40
19.0
 40
20.0
 40
20.0
 40
20.0
 40
21.0
 40
21.0
 40
21.0
 40
22.0
 40
22.0
 40
22.0
 40
23.0
 40
23.0
 40
23.0
 40
24.0
 40
24.0
 40
24.0
 40
25.0
 40
25.0
 40
25.0
 40
26.0
 40
26.0
 40
26.0
 40
27.0
 40
27.0
 40
27.0
 40
28.0
 40
28.0
 40
28.0
 40
29.0
 40
29.0
 40
29.0
 40
30.0
 40
30.0
 40
30.0
 40
31.0
 40
31.0
 40
31.0
 40
32.0
 40
32.0
 40
32.0
 40
33.0
 40
33.0
 40
33.0
 40
34.0
 40
34.0
 40
34.0
 40
35.0
 40
35.0
 40
35.0
 40
36.0
 40
36.0
 40
36.0
 40
37.0
 40
37.0
 40
37.0
 40
38.0
 40
38.0
 40
38.0
 40
39.0
 40
39.0
 40
39.0
 40
40.0
 40
40.0
 40
40.0
 40
41.0
 40
41.0
 40
41.0
 40
42.0
 40
42.0
 40
42.0
 40
43.0
 40
43.0
 40
43.0
 40
44.0
 40
44.0
 40
44.0
 40
45.0
 40
45.0
 40
45.0
 40
46.0
 40
46.0
 40
46.0
 40
47.0
 40
47.0
 40
47.0
 40
48.0
 40
48.0
 40
48.0
 40
49.0
 40
49.0
 40
49.0
 40
49.0
 10
539.609375
 20
-343.681640625
 30
0.0
 10
539.609375
 20
-343.681640625
 30
0.0
 10
539.9013671875
 20
-343.57666015625
 30
0.0
 10
539.9013671875
 20
-343.57666015625
 30
0.0
 10
554.859375
 20
-338.4560546875
 30
0.0
 10
569.9638671875
 20
-335.85400390625
 30
0.0
 10
584.7978515625
 20
-335.85400390625
 30
0.0
 10
621.2822265625
 20
-335.85400390625
 30
0.0
 10
656.1357421875
 20
-352.02685546875
 30
0.0
 10
680.634765625
 20
-380.27099609375
 30
0.0
 10
697.0703125
 20
-384.1474609375
 30
0.0
 10
709.681640625
 20
-389.890625
 30
0.0
 10
720.234375
 20
-398.2880859375
 30
0.0
 10
730.08984375
 20
-406.13818359375
 30
0.0
 10
741.021484375
 20
-419.162109375
 30
0.0
 10
744.748046875
 20
-433.8203125
 30
0.0
 10
748.576171875
 20
-430.89599609375
 30
0.0
 10
751.78515625
 20
-427.8671875
 30
0.0
 10
754.4765625
 20
-424.650390625
 30
0.0
 10
768.2392578125
 20
-408.2001953125
 30
0.0
 10
763.833984375
 20
-394.404296875
 30
0.0
 10
757.7421875
 20
-375.3076171875
 30
0.0
 10
756.6171875
 20
-371.77587890625
 30
0.0
 10
757.1201171875
 20
-368.296875
 30
0.0
 10
759.1513671875
 20
-365.51513671875
 30
0.0
 10
761.37109375
 20
-362.486328125
 30
0.0
 10
765.10546875
 20
-360.67919921875
 30
0.0
 10
769.154296875
 20
-360.67919921875
 30
0.0
 10
772.0927734375
 20
-360.67919921875
 30
0.0
 10
774.912109375
 20
-361.68408203125
 30
0.0
 10
777.08984375
 20
-363.513671875
 30
0.0
 10
794.2109375
 20
-377.89404296875
 30
0.0
 10
790.810546875
 20
-404.361328125
 30
0.0
 10
778.919921875
 20
-421.96630859375
 30
0.0
 10
778.7431640625
 20
-422.22119140625
 30
0.0
 10
778.5673828125
 20
-422.4833984375
 30
0.0
 10
778.390625
 20
-422.73828125
 30
0.0
 10
806.8671875
 20
-402.95166015625
 30
0.0
 10
825.29296875
 20
-375.33740234375
 30
0.0
 10
830.2158203125
 20
-343.99658203125
 30
0.0
 10
833.3349609375
 20
-324.1201171875
 30
0.0
 10
829.5185546875
 20
-303.1787109375
 30
0.0
 10
819.7412109375
 20
-286.43603515625
 30
0.0
 10
814.125
 20
-281.76513671875
 30
0.0
 10
808.9521484375
 20
-280.08544921875
 30
0.0
 10
803.6064453125
 20
-281.1953125
 30
0.0
 10
795.34375
 20
-282.89697265625
 30
0.0
 10
789.2587890625
 20
-289.3154296875
 30
0.0
 10
782.720703125
 20
-296.8955078125
 30
0.0
 10
780.52734375
 20
-299.4375
 30
0.0
 10
777.607421875
 20
-300.8466796875
 30
0.0
 10
774.5068359375
 20
-300.8466796875
 30
0.0
 10
770.5107421875
 20
-300.8466796875
 30
0.0
 10
766.5966796875
 20
-298.53759765625
 30
0.0
 10
764.291015625
 20
-294.826171875
 30
0.0
 10
761.9970703125
 20
-291.13720703125
 30
0.0
 10
761.75390625
 20
-286.85595703125
 30
0.0
 10
763.6201171875
 20
-283.08447265625
 30
0.0
 10
769.7236328125
 20
-270.7509765625
 30
0.0
 10
783.33984375
 20
-263.515625
 30
0.0
 10
799.5087890625
 20
-264.0478515625
 30
0.0
 10
793.0751953125
 20
-259.458984375
 30
0.0
 10
785.9189453125
 20
-256.0927734375
 30
0.0
 10
778.12109375
 20
-254.00048828125
 30
0.0
 10
773.6376953125
 20
-252.79345703125
 30
0.0
 10
768.955078125
 20
-252.1787109375
 30
0.0
 10
764.212890625
 20
-252.1787109375
 30
0.0
 10
750.0341796875
 20
-252.1787109375
 30
0.0
 10
736.24609375
 20
-257.63720703125
 30
0.0
 10
726.38671875
 20
-267.15185546875
 30
0.0
 10
721.021484375
 20
-272.3251953125
 30
0.0
 10
714.29296875
 20
-280.76025390625
 30
0.0
 10
712.6953125
 20
-291.572265625
 30
0.0
 10
711.78125
 20
-297.79541015625
 30
0.0
 10
713.0546875
 20
-307.02490234375
 30
0.0
 10
717.2314453125
 20
-311.861328125
 30
0.0
 10
720.087890625
 20
-315.16748046875
 30
0.0
 10
723.77734375
 20
-315.64013671875
 30
0.0
 10
728.60546875
 20
-313.533203125
 30
0.0
 10
730.787109375
 20
-312.5732421875
 30
0.0
 10
733.0
 20
-312.09375
 30
0.0
 10
735.181640625
 20
-312.09375
 30
0.0
 10
741.16015625
 20
-312.09375
 30
0.0
 10
746.4619140625
 20
-315.9248046875
 30
0.0
 10
748.3701171875
 20
-321.630859375
 30
0.0
 10
750.37890625
 20
-327.63671875
 30
0.0
 10
748.2275390625
 20
-333.92724609375
 30
0.0
 10
742.76171875
 20
-338.0361328125
 30
0.0
 10
737.16015625
 20
-342.25732421875
 30
0.0
 10
730.5625
 20
-344.48388671875
 30
0.0
 10
723.6875
 20
-344.48388671875
 30
0.0
 10
707.3046875
 20
-344.48388671875
 30
0.0
 10
691.341796875
 20
-332.0224609375
 30
0.0
 10
686.5654296875
 20
-315.490234375
 30
0.0
 10
680.1171875
 20
-293.19140625
 30
0.0
 10
689.9765625
 20
-270.30078125
 30
0.0
 10
703.85546875
 20
-255.26025390625
 30
0.0
 10
703.85546875
 20
-255.26025390625
 30
0.0
 10
703.0458984375
 20
-255.2080078125
 30
0.0
 10
703.0458984375
 20
-255.2080078125
 30
0.0
 10
691.75390625
 20
-254.47314453125
 30
0.0
 10
668.255859375
 20
-252.943359375
 30
0.0
 10
668.720703125
 20
-235.53369140625
 30
0.0
 10
668.826171875
 20
-231.20751953125
 30
0.0
 10
671.7578125
 20
-227.40625
 30
0.0
 10
675.84375
 20
-226.28125
 30
0.0
 10
677.185546875
 20
-225.9140625
 30
0.0
 10
678.5546875
 20
-225.7265625
 30
0.0
 10
679.9111328125
 20
-225.7265625
 30
0.0
 10
686.3779296875
 20
-225.7265625
 30
0.0
 10
691.431640625
 20
-229.73779296875
 30
0.0
 10
696.3203125
 20
-233.62890625
 30
0.0
 10
699.58984375
 20
-236.23095703125
 30
0.0
 10
702.685546875
 20
-238.6904296875
 30
0.0
 10
705.7900390625
 20
-239.58984375
 30
0.0
 10
710.65625
 20
-241.0068359375
 30
0.0
 10
716.0322265625
 20
-241.4794921875
 30
0.0
 10
721.63671875
 20
-241.08935546875
 30
0.0
 10
732.9130859375
 20
-234.5966796875
 30
0.0
 10
745.8427734375
 20
-231.162109375
 30
0.0
 10
759.099609375
 20
-231.162109375
 30
0.0
 10
774.4130859375
 20
-231.162109375
 30
0.0
 10
789.8740234375
 20
-235.66845703125
 30
0.0
 10
803.4150390625
 20
-243.96875
 30
0.0
 10
803.15625
 20
-236.935546875
 30
0.0
 10
803.8232421875
 20
-230.0302734375
 30
0.0
 10
804.310546875
 20
-224.96923828125
 30
0.0
 10
805.0947265625
 20
-216.80419921875
 30
0.0
 10
806.8603515625
 20
-198.7080078125
 30
0.0
 10
814.9052734375
 20
-189.376953125
 30
0.0
 10
813.0458984375
 20
-185.98828125
 30
0.0
 10
811.1298828125
 20
-182.828125
 30
0.0
 10
809.162109375
 20
-179.89990234375
 30
0.0
 10
793.4765625
 20
-156.57421875
 30
0.0
 10
776.6142578125
 20
-142.26123046875
 30
0.0
 10
758.58203125
 20
-136.9677734375
 30
0.0
 10
740.5419921875
 20
-131.67431640625
 30
0.0
 10
709.771484375
 20
-129.02734375
 30
0.0
 10
666.24609375
 20
-129.02734375
 30
0.0
 10
666.24609375
 20
-129.02734375
 30
0.0
 10
538.0419921875
 20
-129.02734375
 30
0.0
 10
538.0419921875
 20
-129.02734375
 30
0.0
 10
538.0419921875
 20
-129.02734375
 30
0.0
 10
538.0419921875
 20
-342.7373046875
 30
0.0
 10
538.0419921875
 20
-342.7373046875
 30
0.0
 10
538.57421875
 20
-343.0517578125
 30
0.0
 10
539.0615234375
 20
-343.36669921875
 30
0.0
 10
539.609375
 20
-343.681640625
 30
0.0
  0
SPLINE
  5
41
330
3C
100
AcDbEntity
  8
Layer 1
370
     0
100
AcDbSpline
210
0.0
220
0.0
230
1.0
 70
    11
 71
     3
 72
    20
 73
    16
 74
     0
 42
0.0000000001
 43
0.0000000001
 40
0.0
 40
0.0
 40
0.0
 40
0.0
 40
1.0
 40
1.0
 40
1.0
 40
2.0
 40
2.0
 40
2.0
 40
3.0
 40
3.0
 40
3.0
 40
4.0
 40
4.0
 40
4.0
 40
5.0
 40
5.0
 40
5.0
 40
5.0
 10
644.8779296875
 20
-374.6474609375
 30
0.0
 10
647.45703125
 20
-374.955078125
 30
0.0
 10
650.07421875
 20
-375.2626953125
 30
0.0
 10
652.708984375
 20
-375.59228515625
 30
0.0
 10
640.2666015625
 20
-364.89306640625
 30
0.0
 10
627.1904296875
 20
-357.04296875
 30
0.0
 10
616.36328125
 20
-353.93115234375
 30
0.0
 10
600.1650390625
 20
-349.28271484375
 30
0.0
 10
579.572265625
 20
-349.32763671875
 30
0.0
 10
560.15625
 20
-353.9462890625
 30
0.0
 10
581.75390625
 20
-363.23583984375
 30
0.0
 10
606.515625
 20
-369.736328125
 30
0.0
 10
633.923828125
 20
-373.3056640625
 30
0.0
 10
637.541015625
 20
-373.7705078125
 30
0.0
 10
641.1962890625
 20
-374.205078125
 30
0.0
 10
644.8779296875
 20
-374.6474609375
 30
0.0
  0
SPLINE
  5
42
330
3C
100
AcDbEntity
  8
Layer 1
370
     0
100
AcDbSpline
210
0.0
220
0.0
230
1.0
 70
    11
 71
     3
 72
    35
 73
    31
 74
     0
 42
0.0000000001
 43
0.0000000001
 40
0.0
 40
0.0
 40
0.0
 40
0.0
 40
1.0
 40
1.0
 40
1.0
 40
2.0
 40
2.0
 40
2.0
 40
3.0
 40
3.0
 40
3.0
 40
4.0
 40
4.0
 40
4.0
 40
5.0
 40
5.0
 40
5.0
 40
6.0
 40
6.0
 40
6.0
 40
7.0
 40
7.0
 40
7.0
 40
8.0
 40
8.0
 40
8.0
 40
9.0
 40
9.0
 40
9.0
 40
10.0
 40
10.0
 40
10.0
 40
10.0
 10
663.28515625
 20
-391.0078125
 30
0.0
 10
653.177734375
 20
-389.43310546875
 30
0.0
 10
642.9619140625
 20
-388.09130859375
 30
0.0
 10
633.083984375
 20
-386.7939453125
 30
0.0
 10
603.220703125
 20
-382.87255859375
 30
0.0
 10
572.3369140625
 20
-378.81640625
 30
0.0
 10
542.345703125
 20
-367.8544921875
 30
0.0
 10
540.8837890625
 20
-367.322265625
 30
0.0
 10
539.4814453125
 20
-366.7109375
 30
0.0
 10
538.0419921875
 20
-366.14501953125
 30
0.0
 10
538.0419921875
 20
-366.14501953125
 30
0.0
 10
538.0419921875
 20
-380.21484375
 30
0.0
 10
538.0419921875
 20
-380.21484375
 30
0.0
 10
539.9462890625
 20
-381.29052734375
 30
0.0
 10
541.8056640625
 20
-382.4453125
 30
0.0
 10
543.6201171875
 20
-383.68994140625
 30
0.0
 10
560.955078125
 20
-395.5966796875
 30
0.0
 10
572.958984375
 20
-420.93896484375
 30
0.0
 10
563.0546875
 20
-442.75
 30
0.0
 10
562.068359375
 20
-444.9169921875
 30
0.0
 10
560.8916015625
 20
-446.9638671875
 30
0.0
 10
559.5302734375
 20
-448.88330078125
 30
0.0
 10
559.5302734375
 20
-448.88330078125
 30
0.0
 10
695.203125
 20
-448.88330078125
 30
0.0
 10
695.203125
 20
-448.88330078125
 30
0.0
 10
695.5625
 20
-432.05810546875
 30
0.0
 10
686.2578125
 20
-411.61181640625
 30
0.0
 10
669.2265625
 20
-392.02001953125
 30
0.0
 10
667.2509765625
 20
-391.65234375
 30
0.0
 10
665.271484375
 20
-391.3154296875
 30
0.0
 10
663.28515625
 20
-391.0078125
 30
0.0
  0
SPLINE
  5
43
330
3C
100
AcDbEntity
  8
Layer 1
370
     0
100
AcDbSpline
210
0.0
220
0.0
230
1.0
 70
    11
 71
     3
 72
    80
 73
    76
 74
     0
 42
0.0000000001
 43
0.0000000001
 40
0.0
 40
0.0
 40
0.0
 40
0.0
 40
1.0
 40
1.0
 40
1.0
 40
2.0
 40
2.0
 40
2.0
 40
3.0
 40
3.0
 40
3.0
 40
4.0
 40
4.0
 40
4.0
 40
5.0
 40
5.0
 40
5.0
 40
6.0
 40
6.0
 40
6.0
 40
7.0
 40
7.0
 40
7.0
 40
8.0
 40
8.0
 40
8.0
 40
9.0
 40
9.0
 40
9.0
 40
10.0
 40
10.0
 40
10.0
 40
11.0
 40
11.0
 40
11.0
 40
12.0
 40
12.0
 40
12.0
 40
13.0
 40
13.0
 40
13.0
 40
14.0
 40
14.0
 40
14.0
 40
15.0
 40
15.0
 40
15.0
 40
16.0
 40
16.0
 40
16.0
 40
17.0
 40
17.0
 40
17.0
 40
18.0
 40
18.0
 40
18.0
 40
19.0
 40
19.0
 40
19.0
 40
20.0
 40
20.0
 40
20.0
 40
21.0
 40
21.0
 40
21.0
 40
22.0
 40
22.0
 40
22.0
 40
23.0
 40
23.0
 40
23.0
 40
24.0
 40
24.0
 40
24.0
 40
25.0
 40
25.0
 40
25.0
 40
25.0
 10
388.4384765625
 20
-406.7158203125
 30
0.0
 10
390.830078125
 20
-405.5087890625
 30
0.0
 10
393.255859375
 20
-404.27880859375
 30
0.0
 10
395.71142578125
 20
-403.0419921875
 30
0.0
 10
389.720703125
 20
-388.2783203125
 30
0.0
 10
383.025390625
 20
-376.716796875
 30
0.0
 10
375.294921875
 20
-367.7568359375
 30
0.0
 10
355.05859375
 20
-344.2890625
 30
0.0
 10
327.84130859375
 20
-331.36279296875
 30
0.0
 10
298.67138671875
 20
-331.36279296875
 30
0.0
 10
268.732421875
 20
-331.4677734375
 30
0.0
 10
242.265625
 20
-345.30126953125
 30
0.0
 10
221.79248046875
 20
-371.36328125
 30
0.0
 10
215.5693359375
 20
-379.28125
 30
0.0
 10
209.74755859375
 20
-387.8359375
 30
0.0
 10
204.11669921875
 20
-396.11376953125
 30
0.0
 10
192.15771484375
 20
-413.6884765625
 30
0.0
 10
179.7939453125
 20
-431.86328125
 30
0.0
 10
162.62744140625
 20
-445.4794921875
 30
0.0
 10
161.1357421875
 20
-446.65625
 30
0.0
 10
159.6171875
 20
-447.7958984375
 30
0.0
 10
158.080078125
 20
-448.88330078125
 30
0.0
 10
158.080078125
 20
-448.88330078125
 30
0.0
 10
238.56884765625
 20
-448.88330078125
 30
0.0
 10
238.56884765625
 20
-448.88330078125
 30
0.0
 10
237.61669921875
 20
-448.16357421875
 30
0.0
 10
236.68701171875
 20
-447.4208984375
 30
0.0
 10
235.77978515625
 20
-446.64892578125
 30
0.0
 10
217.77734375
 20
-431.3310546875
 30
0.0
 10
211.2060546875
 20
-405.34375
 30
0.0
 10
219.42724609375
 20
-381.98779296875
 30
0.0
 10
227.05615234375
 20
-360.349609375
 30
0.0
 10
247.611328125
 20
-344.6416015625
 30
0.0
 10
268.30517578125
 20
-344.6416015625
 30
0.0
 10
271.244140625
 20
-344.6416015625
 30
0.0
 10
274.1982421875
 20
-344.94140625
 30
0.0
 10
277.0849609375
 20
-345.541015625
 30
0.0
 10
288.8115234375
 20
-347.970703125
 30
0.0
 10
298.22509765625
 20
-355.60302734375
 30
0.0
 10
302.9072265625
 20
-366.47509765625
 30
0.0
 10
307.6162109375
 20
-377.40673828125
 30
0.0
 10
306.65234375
 20
-390.0478515625
 30
0.0
 10
300.328125
 20
-400.29736328125
 30
0.0
 10
297.73779296875
 20
-404.49609375
 30
0.0
 10
293.81640625
 20
-406.8056640625
 30
0.0
 10
289.28759765625
 20
-406.8056640625
 30
0.0
 10
283.4921875
 20
-406.8056640625
 30
0.0
 10
277.8125
 20
-402.92919921875
 30
0.0
 10
275.48046875
 20
-397.380859375
 30
0.0
 10
273.25390625
 20
-392.08740234375
 30
0.0
 10
274.4833984375
 20
-386.494140625
 30
0.0
 10
278.84716796875
 20
-382.033203125
 30
0.0
 10
279.95703125
 20
-380.90087890625
 30
0.0
 10
280.35400390625
 20
-379.68603515625
 30
0.0
 10
280.09912109375
 20
-378.22412109375
 30
0.0
 10
279.58935546875
 20
-375.27734375
 30
0.0
 10
276.65771484375
 20
-372.1884765625
 30
0.0
 10
274.23583984375
 20
-371.01123046875
 30
0.0
 10
270.92578125
 20
-369.3994140625
 30
0.0
 10
266.5546875
 20
-369.654296875
 30
0.0
 10
260.634765625
 20
-371.82080078125
 30
0.0
 10
252.634765625
 20
-374.7373046875
 30
0.0
 10
246.43408203125
 20
-381.3056640625
 30
0.0
 10
243.1728515625
 20
-390.29541015625
 30
0.0
 10
237.091796875
 20
-407.052734375
 30
0.0
 10
243.56982421875
 20
-424.68017578125
 30
0.0
 10
258.92529296875
 20
-433.17529296875
 30
0.0
 10
267.58544921875
 20
-437.958984375
 30
0.0
 10
277.77099609375
 20
-440.38818359375
 30
0.0
 10
289.205078125
 20
-440.38818359375
 30
0.0
 10
312.8681640625
 20
-440.38818359375
 30
0.0
 10
337.970703125
 20
-430.5283203125
 30
0.0
 10
361.57763671875
 20
-419.86669921875
 30
0.0
 10
369.81396484375
 20
-416.1552734375
 30
0.0
 10
378.8564453125
 20
-411.57421875
 30
0.0
 10
388.4384765625
 20
-406.7158203125
 30
0.0
  0
SPLINE
  5
44
330
3C
100
AcDbEntity
  8
Layer 1
370
     0
100
AcDbSpline
210
0.0
220
0.0
230
1.0
 70
    11
 71
     3
 72
    20
 73
    16
 74
     0
 42
0.0000000001
 43
0.0000000001
 40
0.0
 40
0.0
 40
0.0
 40
0.0
 40
1.0
 40
1.0
 40
1.0
 40
2.0
 40
2.0
 40
2.0
 40
3.0
 40
3.0
 40
3.0
 40
4.0
 40
4.0
 40
4.0
 40
5.0
 40
5.0
 40
5.0
 40
5.0
 10
402.23046875
 20
-421.0439453125
 30
0.0
 10
399.40771484375
 20
-422.54345703125
 30
0.0
 10
396.5849609375
 20
-424.05078125
 30
0.0
 10
393.76171875
 20
-425.56494140625
 30
0.0
 10
378.44384765625
 20
-433.7529296875
 30
0.0
 10
362.7587890625
 20
-442.142578125
 30
0.0
 10
346.45849609375
 20
-448.88330078125
 30
0.0
 10
346.45849609375
 20
-448.88330078125
 30
0.0
 10
410.53076171875
 20
-448.88330078125
 30
0.0
 10
410.53076171875
 20
-448.88330078125
 30
0.0
 10
410.53076171875
 20
-448.88330078125
 30
0.0
 10
410.03955078125
 20
-447.173828125
 30
0.0
 10
410.03955078125
 20
-447.173828125
 30
0.0
 10
407.587890625
 20
-438.5888671875
 30
0.0
 10
405.06103515625
 20
-429.7412109375
 30
0.0
 10
402.23046875
 20
-421.0439453125
 30
0.0
  0
SPLINE
  5
45
330
3C
100
AcDbEntity
  8
Layer 1
370
     0
100
AcDbSpline
210
0.0
220
0.0
230
1.0
 70
    11
 71
     3
 72
    14
 73
    10
 74
     0
 42
0.0000000001
 43
0.0000000001
 40
0.0
 40
0.0
 40
0.0
 40
0.0
 40
1.0
 40
1.0
 40
1.0
 40
2.0
 40
2.0
 40
2.0
 40
3.0
 40
3.0
 40
3.0
 40
3.0
 10
538.0419921875
 20
-444.095703125
 30
0.0
 10
543.78515625
 20
-440.654296875
 30
0.0
 10
547.1220703125
 20
-435.61572265625
 30
0.0
 10
547.939453125
 20
-429.0966796875
 30
0.0
 10
549.048828125
 20
-420.26806640625
 30
0.0
 10
545.0673828125
 20
-409.58349609375
 30
0.0
 10
538.0419921875
 20
-402.39306640625
 30
0.0
 10
538.0419921875
 20
-402.39306640625
 30
0.0
 10
538.0419921875
 20
-444.095703125
 30
0.0
 10
538.0419921875
 20
-444.095703125
 30
0.0
  0
SPLINE
  5
46
330
3C
100
AcDbEntity
  8
Layer 1
370
     0
100
AcDbSpline
210
0.0
220
0.0
230
1.0
 70
    11
 71
     3
 72
    20
 73
    16
 74
     0
 42
0.0000000001
 43
0.0000000001
 40
0.0
 40
0.0
 40
0.0
 40
0.0
 40
1.0
 40
1.0
 40
1.0
 40
2.0
 40
2.0
 40
2.0
 40
3.0
 40
3.0
 40
3.0
 40
4.0
 40
4.0
 40
4.0
 40
5.0
 40
5.0
 40
5.0
 40
5.0
 10
653.5341796875
 20
-621.564453125
 30
0.0
 10
653.5341796875
 20
-621.564453125
 30
0.0
 10
589.4658203125
 20
-621.564453125
 30
0.0
 10
589.4658203125
 20
-621.564453125
 30
0.0
 10
589.4658203125
 20
-621.564453125
 30
0.0
 10
589.912109375
 20
-623.1318359375
 30
0.0
 10
589.912109375
 20
-623.1318359375
 30
0.0
 10
592.37890625
 20
-631.76953125
 30
0.0
 10
594.916015625
 20
-640.662109375
 30
0.0
 10
597.76171875
 20
-649.4111328125
 30
0.0
 10
600.5888671875
 20
-647.912109375
 30
0.0
 10
603.4111328125
 20
-646.3974609375
 30
0.0
 10
606.234375
 20
-644.890625
 30
0.0
 10
621.548828125
 20
-636.6953125
 30
0.0
 10
637.234375
 20
-628.3125
 30
0.0
 10
653.5341796875
 20
-621.564453125
 30
0.0
  0
SPLINE
  5
47
330
3C
100
AcDbEntity
  8
Layer 1
370
     0
100
AcDbSpline
210
0.0
220
0.0
230
1.0
 70
    11
 71
     3
 72
    23
 73
    19
 74
     0
 42
0.0000000001
 43
0.0000000001
 40
0.0
 40
0.0
 40
0.0
 40
0.0
 40
1.0
 40
1.0
 40
1.0
 40
2.0
 40
2.0
 40
2.0
 40
3.0
 40
3.0
 40
3.0
 40
4.0
 40
4.0
 40
4.0
 40
5.0
 40
5.0
 40
5.0
 40
6.0
 40
6.0
 40
6.0
 40
6.0
 10
366.06884765625
 20
-697.150390625
 30
0.0
 10
362.447265625
 20
-696.677734375
 30
0.0
 10
358.78857421875
 20
-696.2431640625
 30
0.0
 10
355.10693359375
 20
-695.8076171875
 30
0.0
 10
352.52783203125
 20
-695.5009765625
 30
0.0
 10
349.9111328125
 20
-695.193359375
 30
0.0
 10
347.287109375
 20
-694.86328125
 30
0.0
 10
359.7255859375
 20
-705.5625
 30
0.0
 10
372.7978515625
 20
-713.4130859375
 30
0.0
 10
383.625
 20
-716.5244140625
 30
0.0
 10
395.25
 20
-719.8603515625
 30
0.0
 10
409.1435546875
 20
-720.734375
 30
0.0
 10
423.23583984375
 20
-719.279296875
 30
0.0
 10
423.26171875
 20
-716.302734375
 30
0.0
 10
423.2841796875
 20
-713.2548828125
 30
0.0
 10
423.30126953125
 20
-710.158203125
 30
0.0
 10
405.87255859375
 20
-704.1982421875
 30
0.0
 10
386.7236328125
 20
-699.841796875
 30
0.0
 10
366.06884765625
 20
-697.150390625
 30
0.0
  0
SPLINE
  5
48
330
3C
100
AcDbEntity
  8
Layer 1
370
     0
100
AcDbSpline
210
0.0
220
0.0
230
1.0
 70
    11
 71
     3
 72
    17
 73
    13
 74
     0
 42
0.0000000001
 43
0.0000000001
 40
0.0
 40
0.0
 40
0.0
 40
0.0
 40
1.0
 40
1.0
 40
1.0
 40
2.0
 40
2.0
 40
2.0
 40
3.0
 40
3.0
 40
3.0
 40
4.0
 40
4.0
 40
4.0
 40
4.0
 10
538.0419921875
 20
-621.564453125
 30
0.0
 10
538.0419921875
 20
-621.564453125
 30
0.0
 10
538.0419921875
 20
-675.4365234375
 30
0.0
 10
538.0419921875
 20
-675.4365234375
 30
0.0
 10
553.1083984375
 20
-671.1103515625
 30
0.0
 10
566.9755859375
 20
-664.9921875
 30
0.0
 10
579.3212890625
 20
-658.9033203125
 30
0.0
 10
574.2001953125
 20
-645.767578125
 30
0.0
 10
571.185546875
 20
-633.2392578125
 30
0.0
 10
570.3349609375
 20
-621.564453125
 30
0.0
 10
570.3349609375
 20
-621.564453125
 30
0.0
 10
538.0419921875
 20
-621.564453125
 30
0.0
 10
538.0419921875
 20
-621.564453125
 30
0.0
  0
SPLINE
  5
49
330
3C
100
AcDbEntity
  8
Layer 1
370
     0
100
AcDbSpline
210
0.0
220
0.0
230
1.0
 70
    11
 71
     3
 72
    26
 73
    22
 74
     0
 42
0.0000000001
 43
0.0000000001
 40
0.0
 40
0.0
 40
0.0
 40
0.0
 40
1.0
 40
1.0
 40
1.0
 40
2.0
 40
2.0
 40
2.0
 40
3.0
 40
3.0
 40
3.0
 40
4.0
 40
4.0
 40
4.0
 40
5.0
 40
5.0
 40
5.0
 40
6.0
 40
6.0
 40
6.0
 40
7.0
 40
7.0
 40
7.0
 40
7.0
 10
423.35546875
 20
-692.763671875
 30
0.0
 10
423.35546875
 20
-692.4560546875
 30
0.0
 10
423.357421875
 20
-692.16796875
 30
0.0
 10
423.357421875
 20
-691.8564453125
 30
0.0
 10
423.357421875
 20
-691.8564453125
 30
0.0
 10
423.357421875
 20
-621.564453125
 30
0.0
 10
423.357421875
 20
-621.564453125
 30
0.0
 10
423.357421875
 20
-621.564453125
 30
0.0
 10
304.78955078125
 20
-621.564453125
 30
0.0
 10
304.78955078125
 20
-621.564453125
 30
0.0
 10
304.4296875
 20
-638.3974609375
 30
0.0
 10
313.734375
 20
-658.84375
 30
0.0
 10
330.76171875
 20
-678.435546875
 30
0.0
 10
332.7412109375
 20
-678.802734375
 30
0.0
 10
334.720703125
 20
-679.1328125
 30
0.0
 10
336.70751953125
 20
-679.447265625
 30
0.0
 10
346.822265625
 20
-681.0224609375
 30
0.0
 10
357.04150390625
 20
-682.3642578125
 30
0.0
 10
366.923828125
 20
-683.6611328125
 30
0.0
 10
385.49560546875
 20
-686.0986328125
 30
0.0
 10
404.45947265625
 20
-688.5947265625
 30
0.0
 10
423.35546875
 20
-692.763671875
 30
0.0
  0
SPLINE
  5
4A
330
3C
100
AcDbEntity
  8
Layer 1
370
     0
100
AcDbSpline
210
0.0
220
0.0
230
1.0
 70
    11
 71
     3
 72
    23
 73
    19
 74
     0
 42
0.0000000001
 43
0.0000000001
 40
0.0
 40
0.0
 40
0.0
 40
0.0
 40
1.0
 40
1.0
 40
1.0
 40
2.0
 40
2.0
 40
2.0
 40
3.0
 40
3.0
 40
3.0
 40
4.0
 40
4.0
 40
4.0
 40
5.0
 40
5.0
 40
5.0
 40
6.0
 40
6.0
 40
6.0
 40
6.0
 10
283.38671875
 20
-621.564453125
 30
0.0
 10
282.28125
 20
-621.796875
 30
0.0
 10
281.17138671875
 20
-622.037109375
 30
0.0
 10
280.0615234375
 20
-622.2919921875
 30
0.0
 10
276.1328125
 20
-624.181640625
 30
0.0
 10
271.65673828125
 20
-626.3857421875
 30
0.0
 10
267.244140625
 20
-628.8603515625
 30
0.0
 10
270.037109375
 20
-640.9619140625
 30
0.0
 10
275.3271484375
 20
-650.041015625
 30
0.0
 10
284.177734375
 20
-658.0185546875
 30
0.0
 10
290.18359375
 20
-663.4404296875
 30
0.0
 10
297.26904296875
 20
-667.833984375
 30
0.0
 10
305.6591796875
 20
-671.3046875
 30
0.0
 10
296.42919921875
 20
-655.9873046875
 30
0.0
 10
290.3564453125
 20
-639.0341796875
 30
0.0
 10
287.8671875
 20
-621.564453125
 30
0.0
 10
287.8671875
 20
-621.564453125
 30
0.0
 10
283.38671875
 20
-621.564453125
 30
0.0
 10
283.38671875
 20
-621.564453125
 30
0.0
  0
SPLINE
  5
4B
330
3C
100
AcDbEntity
  8
Layer 1
370
     0
100
AcDbSpline
210
0.0
220
0.0
230
1.0
 70
    11
 71
     3
 72
    14
 73
    10
 74
     0
 42
0.0000000001
 43
0.0000000001
 40
0.0
 40
0.0
 40
0.0
 40
0.0
 40
1.0
 40
1.0
 40
1.0
 40
2.0
 40
2.0
 40
2.0
 40
3.0
 40
3.0
 40
3.0
 40
3.0
 10
423.357421875
 20
-410.2548828125
 30
0.0
 10
422.46533203125
 20
-410.689453125
 30
0.0
 10
421.548828125
 20
-411.12060546875
 30
0.0
 10
420.67138671875
 20
-411.5517578125
 30
0.0
 10
421.67041015625
 20
-414.1123046875
 30
0.0
 10
422.51953125
 20
-416.6279296875
 30
0.0
 10
423.357421875
 20
-419.1396484375
 30
0.0
 10
423.357421875
 20
-419.1396484375
 30
0.0
 10
423.357421875
 20
-410.2548828125
 30
0.0
 10
423.357421875
 20
-410.2548828125
 30
0.0
  0
SPLINE
  5
4C
330
3C
100
AcDbEntity
  8
Layer 1
370
     0
100
AcDbSpline
210
0.0
220
0.0
230
1.0
 70
    11
 71
     3
 72
    80
 73
    76
 74
     0
 42
0.0000000001
 43
0.0000000001
 40
0.0
 40
0.0
 40
0.0
 40
0.0
 40
1.0
 40
1.0
 40
1.0
 40
2.0
 40
2.0
 40
2.0
 40
3.0
 40
3.0
 40
3.0
 40
4.0
 40
4.0
 40
4.0
 40
5.0
 40
5.0
 40
5.0
 40
6.0
 40
6.0
 40
6.0
 40
7.0
 40
7.0
 40
7.0
 40
8.0
 40
8.0
 40
8.0
 40
9.0
 40
9.0
 40
9.0
 40
10.0
 40
10.0
 40
10.0
 40
11.0
 40
11.0
 40
11.0
 40
12.0
 40
12.0
 40
12.0
 40
13.0
 40
13.0
 40
13.0
 40
14.0
 40
14.0
 40
14.0
 40
15.0
 40
15.0
 40
15.0
 40
16.0
 40
16.0
 40
16.0
 40
17.0
 40
17.0
 40
17.0
 40
18.0
 40
18.0
 40
18.0
 40
19.0
 40
19.0
 40
19.0
 40
20.0
 40
20.0
 40
20.0
 40
21.0
 40
21.0
 40
21.0
 40
22.0
 40
22.0
 40
22.0
 40
23.0
 40
23.0
 40
23.0
 40
24.0
 40
24.0
 40
24.0
 40
25.0
 40
25.0
 40
25.0
 40
25.0
 10
764.212890625
 20
-623.798828125
 30
0.0
 10
782.21875
 20
-639.125
 30
0.0
 10
788.791015625
 20
-665.1123046875
 30
0.0
 10
780.5615234375
 20
-688.4677734375
 30
0.0
 10
772.943359375
 20
-710.1064453125
 30
0.0
 10
752.384765625
 20
-725.814453125
 30
0.0
 10
731.68359375
 20
-725.814453125
 30
0.0
 10
728.751953125
 20
-725.814453125
 30
0.0
 10
725.7978515625
 20
-725.5068359375
 30
0.0
 10
722.9111328125
 20
-724.9072265625
 30
0.0
 10
711.1845703125
 20
-722.4775390625
 30
0.0
 10
701.771484375
 20
-714.8525390625
 30
0.0
 10
697.0888671875
 20
-703.98046875
 30
0.0
 10
692.3798828125
 20
-693.048828125
 30
0.0
 10
693.34375
 20
-680.4072265625
 30
0.0
 10
699.66796875
 20
-670.150390625
 30
0.0
 10
702.2548828125
 20
-665.958984375
 30
0.0
 10
706.17578125
 20
-663.6494140625
 30
0.0
 10
710.705078125
 20
-663.6494140625
 30
0.0
 10
716.5
 20
-663.6494140625
 30
0.0
 10
722.17578125
 20
-667.5185546875
 30
0.0
 10
724.5078125
 20
-673.07421875
 30
0.0
 10
726.7353515625
 20
-678.3681640625
 30
0.0
 10
725.5126953125
 20
-683.9609375
 30
0.0
 10
721.1494140625
 20
-688.4228515625
 30
0.0
 10
720.0390625
 20
-689.5546875
 30
0.0
 10
719.638671875
 20
-690.76953125
 30
0.0
 10
719.8935546875
 20
-692.2314453125
 30
0.0
 10
720.4033203125
 20
-695.177734375
 30
0.0
 10
723.3349609375
 20
-698.267578125
 30
0.0
 10
725.759765625
 20
-699.4443359375
 30
0.0
 10
729.06640625
 20
-701.056640625
 30
0.0
 10
733.4453125
 20
-700.7939453125
 30
0.0
 10
739.357421875
 20
-698.634765625
 30
0.0
 10
747.353515625
 20
-695.7177734375
 30
0.0
 10
753.5546875
 20
-689.1494140625
 30
0.0
 10
756.82421875
 20
-680.15234375
 30
0.0
 10
762.904296875
 20
-663.40234375
 30
0.0
 10
756.42578125
 20
-645.767578125
 30
0.0
 10
741.0673828125
 20
-637.2802734375
 30
0.0
 10
732.4111328125
 20
-632.4892578125
 30
0.0
 10
722.2216796875
 20
-630.0673828125
 30
0.0
 10
710.787109375
 20
-630.0673828125
 30
0.0
 10
687.1318359375
 20
-630.0673828125
 30
0.0
 10
662.021484375
 20
-639.9267578125
 30
0.0
 10
638.41796875
 20
-650.5810546875
 30
0.0
 10
630.1787109375
 20
-654.2998046875
 30
0.0
 10
621.125
 20
-658.888671875
 30
0.0
 10
611.5390625
 20
-663.7470703125
 30
0.0
 10
609.150390625
 20
-664.9541015625
 30
0.0
 10
606.7294921875
 20
-666.1767578125
 30
0.0
 10
604.28125
 20
-667.4140625
 30
0.0
 10
610.2646484375
 20
-682.162109375
 30
0.0
 10
616.9599609375
 20
-693.7236328125
 30
0.0
 10
624.701171875
 20
-702.6982421875
 30
0.0
 10
644.9375
 20
-726.166015625
 30
0.0
 10
672.1435546875
 20
-739.0849609375
 30
0.0
 10
701.3173828125
 20
-739.0849609375
 30
0.0
 10
731.263671875
 20
-738.9873046875
 30
0.0
 10
757.73046875
 20
-725.154296875
 30
0.0
 10
778.2001953125
 20
-699.091796875
 30
0.0
 10
784.4228515625
 20
-691.173828125
 30
0.0
 10
790.2451171875
 20
-682.619140625
 30
0.0
 10
795.8759765625
 20
-674.341796875
 30
0.0
 10
807.8349609375
 20
-656.7666015625
 30
0.0
 10
820.2021484375
 20
-638.591796875
 30
0.0
 10
837.365234375
 20
-624.9765625
 30
0.0
 10
838.857421875
 20
-623.798828125
 30
0.0
 10
840.37109375
 20
-622.6591796875
 30
0.0
 10
841.916015625
 20
-621.564453125
 30
0.0
 10
841.916015625
 20
-621.564453125
 30
0.0
 10
761.423828125
 20
-621.564453125
 30
0.0
 10
761.423828125
 20
-621.564453125
 30
0.0
 10
762.37890625
 20
-622.2841796875
 30
0.0
 10
763.3095703125
 20
-623.0341796875
 30
0.0
 10
764.212890625
 20
-623.798828125
 30
0.0
  0
SPLINE
  5
4D
330
3C
100
AcDbEntity
  8
Layer 1
370
     0
100
AcDbSpline
210
0.0
220
0.0
230
1.0
 70
    11
 71
     3
 72
   431
 73
   427
 74
     0
 42
0.0000000001
 43
0.0000000001
 40
0.0
 40
0.0
 40
0.0
 40
0.0
 40
1.0
 40
1.0
 40
1.0
 40
2.0
 40
2.0
 40
2.0
 40
3.0
 40
3.0
 40
3.0
 40
4.0
 40
4.0
 40
4.0
 40
5.0
 40
5.0
 40
5.0
 40
6.0
 40
6.0
 40
6.0
 40
7.0
 40
7.0
 40
7.0
 40
8.0
 40
8.0
 40
8.0
 40
9.0
 40
9.0
 40
9.0
 40
10.0
 40
10.0
 40
10.0
 40
11.0
 40
11.0
 40
11.0
 40
12.0
 40
12.0
 40
12.0
 40
13.0
 40
13.0
 40
13.0
 40
14.0
 40
14.0
 40
14.0
 40
15.0
 40
15.0
 40
15.0
 40
16.0
 40
16.0
 40
16.0
 40
17.0
 40
17.0
 40
17.0
 40
18.0
 40
18.0
 40
18.0
 40
19.0
 40
19.0
 40
19.0
 40
20.0
 40
20.0
 40
20.0
 40
21.0
 40
21.0
 40
21.0
 40
22.0
 40
22.0
 40
22.0
 40
23.0
 40
23.0
 40
23.0
 40
24.0
 40
24.0
 40
24.0
 40
25.0
 40
25.0
 40
25.0
 40
26.0
 40
26.0
 40
26.0
 40
27.0
 40
27.0
 40
27.0
 40
28.0
 40
28.0
 40
28.0
 40
29.0
 40
29.0
 40
29.0
 40
30.0
 40
30.0
 40
30.0
 40
31.0
 40
31.0
 40
31.0
 40
32.0
 40
32.0
 40
32.0
 40
33.0
 40
33.0
 40
33.0
 40
34.0
 40
34.0
 40
34.0
 40
35.0
 40
35.0
 40
35.0
 40
36.0
 40
36.0
 40
36.0
 40
37.0
 40
37.0
 40
37.0
 40
38.0
 40
38.0
 40
38.0
 40
39.0
 40
39.0
 40
39.0
 40
40.0
 40
40.0
 40
40.0
 40
41.0
 40
41.0
 40
41.0
 40
42.0
 40
42.0
 40
42.0
 40
43.0
 40
43.0
 40
43.0
 40
44.0
 40
44.0
 40
44.0
 40
45.0
 40
45.0
 40
45.0
 40
46.0
 40
46.0
 40
46.0
 40
47.0
 40
47.0
 40
47.0
 40
48.0
 40
48.0
 40
48.0
 40
49.0
 40
49.0
 40
49.0
 40
50.0
 40
50.0
 40
50.0
 40
51.0
 40
51.0
 40
51.0
 40
52.0
 40
52.0
 40
52.0
 40
53.0
 40
53.0
 40
53.0
 40
54.0
 40
54.0
 40
54.0
 40
55.0
 40
55.0
 40
55.0
 40
56.0
 40
56.0
 40
56.0
 40
57.0
 40
57.0
 40
57.0
 40
58.0
 40
58.0
 40
58.0
 40
59.0
 40
59.0
 40
59.0
 40
60.0
 40
60.0
 40
60.0
 40
61.0
 40
61.0
 40
61.0
 40
62.0
 40
62.0
 40
62.0
 40
63.0
 40
63.0
 40
63.0
 40
64.0
 40
64.0
 40
64.0
 40
65.0
 40
65.0
 40
65.0
 40
66.0
 40
66.0
 40
66.0
 40
67.0
 40
67.0
 40
67.0
 40
68.0
 40
68.0
 40
68.0
 40
69.0
 40
69.0
 40
69.0
 40
70.0
 40
70.0
 40
70.0
 40
71.0
 40
71.0
 40
71.0
 40
72.0
 40
72.0
 40
72.0
 40
73.0
 40
73.0
 40
73.0
 40
74.0
 40
74.0
 40
74.0
 40
75.0
 40
75.0
 40
75.0
 40
76.0
 40
76.0
 40
76.0
 40
77.0
 40
77.0
 40
77.0
 40
78.0
 40
78.0
 40
78.0
 40
79.0
 40
79.0
 40
79.0
 40
80.0
 40
80.0
 40
80.0
 40
81.0
 40
81.0
 40
81.0
 40
82.0
 40
82.0
 40
82.0
 40
83.0
 40
83.0
 40
83.0
 40
84.0
 40
84.0
 40
84.0
 40
85.0
 40
85.0
 40
85.0
 40
86.0
 40
86.0
 40
86.0
 40
87.0
 40
87.0
 40
87.0
 40
88.0
 40
88.0
 40
88.0
 40
89.0
 40
89.0
 40
89.0
 40
90.0
 40
90.0
 40
90.0
 40
91.0
 40
91.0
 40
91.0
 40
92.0
 40
92.0
 40
92.0
 40
93.0
 40
93.0
 40
93.0
 40
94.0
 40
94.0
 40
94.0
 40
95.0
 40
95.0
 40
95.0
 40
96.0
 40
96.0
 40
96.0
 40
97.0
 40
97.0
 40
97.0
 40
98.0
 40
98.0
 40
98.0
 40
99.0
 40
99.0
 40
99.0
 40
100.0
 40
100.0
 40
100.0
 40
101.0
 40
101.0
 40
101.0
 40
102.0
 40
102.0
 40
102.0
 40
103.0
 40
103.0
 40
103.0
 40
104.0
 40
104.0
 40
104.0
 40
105.0
 40
105.0
 40
105.0
 40
106.0
 40
106.0
 40
106.0
 40
107.0
 40
107.0
 40
107.0
 40
108.0
 40
108.0
 40
108.0
 40
109.0
 40
109.0
 40
109.0
 40
110.0
 40
110.0
 40
110.0
 40
111.0
 40
111.0
 40
111.0
 40
112.0
 40
112.0
 40
112.0
 40
113.0
 40
113.0
 40
113.0
 40
114.0
 40
114.0
 40
114.0
 40
115.0
 40
115.0
 40
115.0
 40
116.0
 40
116.0
 40
116.0
 40
117.0
 40
117.0
 40
117.0
 40
118.0
 40
118.0
 40
118.0
 40
119.0
 40
119.0
 40
119.0
 40
120.0
 40
120.0
 40
120.0
 40
121.0
 40
121.0
 40
121.0
 40
122.0
 40
122.0
 40
122.0
 40
123.0
 40
123.0
 40
123.0
 40
124.0
 40
124.0
 40
124.0
 40
125.0
 40
125.0
 40
125.0
 40
126.0
 40
126.0
 40
126.0
 40
127.0
 40
127.0
 40
127.0
 40
128.0
 40
128.0
 40
128.0
 40
129.0
 40
129.0
 40
129.0
 40
130.0
 40
130.0
 40
130.0
 40
131.0
 40
131.0
 40
131.0
 40
132.0
 40
132.0
 40
132.0
 40
133.0
 40
133.0
 40
133.0
 40
134.0
 40
134.0
 40
134.0
 40
135.0
 40
135.0
 40
135.0
 40
136.0
 40
136.0
 40
136.0
 40
137.0
 40
137.0
 40
137.0
 40
138.0
 40
138.0
 40
138.0
 40
139.0
 40
139.0
 40
139.0
 40
140.0
 40
140.0
 40
140.0
 40
141.0
 40
141.0
 40
141.0
 40
142.0
 40
142.0
 40
142.0
 40
142.0
 10
913.14453125
 20
-608.630859375
 30
0.0
 10
909.1708984375
 20
-607.1240234375
 30
0.0
 10
905.017578125
 20
-606.029296875
 30
0.0
 10
900.7509765625
 20
-605.369140625
 30
0.0
 10
900.7509765625
 20
-605.369140625
 30
0.0
 10
900.7509765625
 20
-604.41015625
 30
0.0
 10
900.7509765625
 20
-604.41015625
 30
0.0
 10
900.7509765625
 20
-604.41015625
 30
0.0
 10
96.6884765625
 20
-604.41015625
 30
0.0
 10
96.6884765625
 20
-604.41015625
 30
0.0
 10
96.6884765625
 20
-604.41015625
 30
0.0
 10
96.6884765625
 20
-621.564453125
 30
0.0
 10
96.6884765625
 20
-621.564453125
 30
0.0
 10
96.6884765625
 20
-621.564453125
 30
0.0
 10
239.34130859375
 20
-621.564453125
 30
0.0
 10
239.34130859375
 20
-621.564453125
 30
0.0
 10
229.3017578125
 20
-626.5361328125
 30
0.0
 10
219.7158203125
 20
-632.51171875
 30
0.0
 10
210.6884765625
 20
-639.4248046875
 30
0.0
 10
202.09228515625
 20
-643.40625
 30
0.0
 10
194.8603515625
 20
-646.427734375
 30
0.0
 10
187.10400390625
 20
-646.427734375
 30
0.0
 10
183.4189453125
 20
-646.427734375
 30
0.0
 10
179.8310546875
 20
-645.7451171875
 30
0.0
 10
176.142578125
 20
-644.328125
 30
0.0
 10
171.6962890625
 20
-642.6337890625
 30
0.0
 10
165.9189453125
 20
-640.287109375
 30
0.0
 10
160.69677734375
 20
-637.205078125
 30
0.0
 10
160.69677734375
 20
-637.205078125
 30
0.0
 10
158.77001953125
 20
-636.04296875
 30
0.0
 10
158.77001953125
 20
-636.04296875
 30
0.0
 10
154.9462890625
 20
-633.7109375
 30
0.0
 10
151.33203125
 20
-631.5068359375
 30
0.0
 10
145.31884765625
 20
-631.341796875
 30
0.0
 10
142.5146484375
 20
-631.341796875
 30
0.0
 10
139.8828125
 20
-632.6318359375
 30
0.0
 10
138.0986328125
 20
-634.888671875
 30
0.0
 10
136.216796875
 20
-637.265625
 30
0.0
 10
135.5078125
 20
-640.421875
 30
0.0
 10
136.20166015625
 20
-643.345703125
 30
0.0
 10
140.6025390625
 20
-661.767578125
 30
0.0
 10
165.529296875
 20
-663.2001953125
 30
0.0
 10
173.064453125
 20
-663.2001953125
 30
0.0
 10
175.54248046875
 20
-663.2001953125
 30
0.0
 10
177.94921875
 20
-663.072265625
 30
0.0
 10
180.22119140625
 20
-662.8251953125
 30
0.0
 10
182.0732421875
 20
-662.623046875
 30
0.0
 10
184.3076171875
 20
-662.3076171875
 30
0.0
 10
186.7890625
 20
-661.8203125
 30
0.0
 10
185.73583984375
 20
-663.0498046875
 30
0.0
 10
184.697265625
 20
-664.3017578125
 30
0.0
 10
183.68505859375
 20
-665.5693359375
 30
0.0
 10
182.8642578125
 20
-665.869140625
 30
0.0
 10
182.14453125
 20
-666.4013671875
 30
0.0
 10
181.6005859375
 20
-667.12109375
 30
0.0
 10
178.8115234375
 20
-670.8173828125
 30
0.0
 10
175.947265625
 20
-674.814453125
 30
0.0
 10
172.978515625
 20
-678.9599609375
 30
0.0
 10
154.40625
 20
-704.8876953125
 30
0.0
 10
133.3525390625
 20
-734.4365234375
 30
0.0
 10
101.55419921875
 20
-732.0595703125
 30
0.0
 10
94.5361328125
 20
-731.5126953125
 30
0.0
 10
89.5205078125
 20
-736.2138671875
 30
0.0
 10
89.20556640625
 20
-743.07421875
 30
0.0
 10
88.92041015625
 20
-749.259765625
 30
0.0
 10
92.9619140625
 20
-756.240234375
 30
0.0
 10
101.0146484375
 20
-756.982421875
 30
0.0
 10
121.84326171875
 20
-758.9169921875
 30
0.0
 10
136.4716796875
 20
-745.87109375
 30
0.0
 10
147.8232421875
 20
-733.146484375
 30
0.0
 10
150.3798828125
 20
-730.283203125
 30
0.0
 10
153.00048828125
 20
-727.3359375
 30
0.0
 10
155.62841796875
 20
-724.314453125
 30
0.0
 10
150.537109375
 20
-749.537109375
 30
0.0
 10
154.02392578125
 20
-774.103515625
 30
0.0
 10
165.900390625
 20
-794.9169921875
 30
0.0
 10
169.04931640625
 20
-800.443359375
 30
0.0
 10
172.880859375
 20
-805.69921875
 30
0.0
 10
177.31591796875
 20
-810.5576171875
 30
0.0
 10
177.44677734375
 20
-813.2041015625
 30
0.0
 10
177.77685546875
 20
-815.806640625
 30
0.0
 10
178.095703125
 20
-818.3408203125
 30
0.0
 10
178.4892578125
 20
-821.474609375
 30
0.0
 10
178.8642578125
 20
-824.4287109375
 30
0.0
 10
178.87158203125
 20
-827.3603515625
 30
0.0
 10
178.9013671875
 20
-836.5380859375
 30
0.0
 10
176.74951171875
 20
-844.5
 30
0.0
 10
171.89111328125
 20
-853.1826171875
 30
0.0
 10
171.5986328125
 20
-853.71484375
 30
0.0
 10
171.1640625
 20
-854.427734375
 30
0.0
 10
170.646484375
 20
-855.2900390625
 30
0.0
 10
164.93310546875
 20
-864.7666015625
 30
0.0
 10
159.15966796875
 20
-875.451171875
 30
0.0
 10
162.98388671875
 20
-882.2138671875
 30
0.0
 10
164.1982421875
 20
-884.3662109375
 30
0.0
 10
166.86767578125
 20
-886.9228515625
 30
0.0
 10
172.7119140625
 20
-886.9228515625
 30
0.0
 10
173.068359375
 20
-886.9228515625
 30
0.0
 10
173.435546875
 20
-886.9150390625
 30
0.0
 10
173.814453125
 20
-886.892578125
 30
0.0
 10
191.80517578125
 20
-886.0078125
 30
0.0
 10
194.62060546875
 20
-856.564453125
 30
0.0
 10
195.681640625
 20
-845.482421875
 30
0.0
 10
196.1689453125
 20
-840.4287109375
 30
0.0
 10
196.8359375
 20
-833.5234375
 30
0.0
 10
196.57763671875
 20
-826.4833984375
 30
0.0
 10
210.11865234375
 20
-834.783203125
 30
0.0
 10
225.5830078125
 20
-839.2890625
 30
0.0
 10
240.8935546875
 20
-839.2890625
 30
0.0
 10
254.1455078125
 20
-839.2890625
 30
0.0
 10
267.07568359375
 20
-835.86328125
 30
0.0
 10
278.35205078125
 20
-829.3701171875
 30
0.0
 10
283.9677734375
 20
-828.9794921875
 30
0.0
 10
289.34375
 20
-829.4521484375
 30
0.0
 10
294.20263671875
 20
-830.869140625
 30
0.0
 10
297.310546875
 20
-831.76953125
 30
0.0
 10
300.4033203125
 20
-834.228515625
 30
0.0
 10
303.6796875
 20
-836.837890625
 30
0.0
 10
308.564453125
 20
-840.7216796875
 30
0.0
 10
313.6142578125
 20
-844.732421875
 30
0.0
 10
320.0849609375
 20
-844.732421875
 30
0.0
 10
321.44189453125
 20
-844.732421875
 30
0.0
 10
322.806640625
 20
-844.544921875
 30
0.0
 10
324.1484375
 20
-844.177734375
 30
0.0
 10
328.294921875
 20
-843.0380859375
 30
0.0
 10
331.1630859375
 20
-839.3193359375
 30
0.0
 10
331.275390625
 20
-834.92578125
 30
0.0
 10
331.736328125
 20
-817.515625
 30
0.0
 10
308.2421875
 20
-815.986328125
 30
0.0
 10
296.9541015625
 20
-815.2509765625
 30
0.0
 10
296.9541015625
 20
-815.2509765625
 30
0.0
 10
296.14453125
 20
-815.19140625
 30
0.0
 10
296.14453125
 20
-815.19140625
 30
0.0
 10
310.015625
 20
-800.158203125
 30
0.0
 10
319.87109375
 20
-777.267578125
 30
0.0
 10
313.4267578125
 20
-754.9658203125
 30
0.0
 10
308.6435546875
 20
-738.4326171875
 30
0.0
 10
292.68798828125
 20
-725.9716796875
 30
0.0
 10
276.30908203125
 20
-725.9716796875
 30
0.0
 10
269.43359375
 20
-725.9716796875
 30
0.0
 10
262.83935546875
 20
-728.1982421875
 30
0.0
 10
257.23095703125
 20
-732.412109375
 30
0.0
 10
251.76513671875
 20
-736.5283203125
 30
0.0
 10
249.6171875
 20
-742.8193359375
 30
0.0
 10
251.62646484375
 20
-748.8251953125
 30
0.0
 10
253.53466796875
 20
-754.5302734375
 30
0.0
 10
258.83154296875
 20
-758.3623046875
 30
0.0
 10
264.81494140625
 20
-758.3623046875
 30
0.0
 10
266.9931640625
 20
-758.3623046875
 30
0.0
 10
269.205078125
 20
-757.875
 30
0.0
 10
271.38671875
 20
-756.9228515625
 30
0.0
 10
276.23046875
 20
-754.8076171875
 30
0.0
 10
279.91162109375
 20
-755.2880859375
 30
0.0
 10
282.7607421875
 20
-758.5947265625
 30
0.0
 10
286.93701171875
 20
-763.4306640625
 30
0.0
 10
288.2158203125
 20
-772.65625
 30
0.0
 10
287.296875
 20
-778.8798828125
 30
0.0
 10
285.70361328125
 20
-789.69140625
 30
0.0
 10
278.974609375
 20
-798.1337890625
 30
0.0
 10
273.61376953125
 20
-803.3076171875
 30
0.0
 10
263.75
 20
-812.822265625
 30
0.0
 10
249.9580078125
 20
-818.2802734375
 30
0.0
 10
235.77978515625
 20
-818.2802734375
 30
0.0
 10
231.03369140625
 20
-818.2802734375
 30
0.0
 10
226.35888671875
 20
-817.666015625
 30
0.0
 10
221.87109375
 20
-816.458984375
 30
0.0
 10
214.07373046875
 20
-814.3662109375
 30
0.0
 10
206.9169921875
 20
-811.0
 30
0.0
 10
200.48388671875
 20
-806.4111328125
 30
0.0
 10
216.58544921875
 20
-806.951171875
 30
0.0
 10
230.26904296875
 20
-799.708984375
 30
0.0
 10
236.3720703125
 20
-787.375
 30
0.0
 10
238.2392578125
 20
-783.603515625
 30
0.0
 10
237.9990234375
 20
-779.322265625
 30
0.0
 10
235.705078125
 20
-775.6328125
 30
0.0
 10
233.40283203125
 20
-771.9140625
 30
0.0
 10
229.4814453125
 20
-769.6123046875
 30
0.0
 10
225.4814453125
 20
-769.6123046875
 30
0.0
 10
222.38134765625
 20
-769.6123046875
 30
0.0
 10
219.46484375
 20
-771.0146484375
 30
0.0
 10
217.267578125
 20
-773.5634765625
 30
0.0
 10
210.7373046875
 20
-781.1435546875
 30
0.0
 10
204.65625
 20
-787.5546875
 30
0.0
 10
196.39013671875
 20
-789.263671875
 30
0.0
 10
191.033203125
 20
-790.3662109375
 30
0.0
 10
185.8671875
 20
-788.6943359375
 30
0.0
 10
180.2509765625
 20
-784.0234375
 30
0.0
 10
170.47412109375
 20
-767.26953125
 30
0.0
 10
166.65771484375
 20
-746.328125
 30
0.0
 10
169.77685546875
 20
-726.451171875
 30
0.0
 10
174.6953125
 20
-695.1181640625
 30
0.0
 10
193.125
 20
-667.50390625
 30
0.0
 10
221.60546875
 20
-647.7099609375
 30
0.0
 10
221.4287109375
 20
-647.9716796875
 30
0.0
 10
221.2490234375
 20
-648.234375
 30
0.0
 10
221.07275390625
 20
-648.4892578125
 30
0.0
 10
209.18505859375
 20
-666.09375
 30
0.0
 10
205.78515625
 20
-692.5615234375
 30
0.0
 10
222.90625
 20
-706.9423828125
 30
0.0
 10
225.08056640625
 20
-708.763671875
 30
0.0
 10
227.8994140625
 20
-709.7763671875
 30
0.0
 10
230.84619140625
 20
-709.7763671875
 30
0.0
 10
234.89111328125
 20
-709.7763671875
 30
0.0
 10
238.62890625
 20
-707.9619140625
 30
0.0
 10
240.8408203125
 20
-704.9326171875
 30
0.0
 10
242.87255859375
 20
-702.1513671875
 30
0.0
 10
243.375
 20
-698.6796875
 30
0.0
 10
242.24658203125
 20
-695.1484375
 30
0.0
 10
236.15478515625
 20
-676.05078125
 30
0.0
 10
231.75732421875
 20
-662.2548828125
 30
0.0
 10
245.51171875
 20
-645.8046875
 30
0.0
 10
248.20751953125
 20
-642.5888671875
 30
0.0
 10
251.41650390625
 20
-639.5595703125
 30
0.0
 10
255.244140625
 20
-636.6279296875
 30
0.0
 10
258.970703125
 20
-651.2939453125
 30
0.0
 10
269.90234375
 20
-664.3173828125
 30
0.0
 10
279.75439453125
 20
-672.16015625
 30
0.0
 10
290.31103515625
 20
-680.564453125
 30
0.0
 10
302.92236328125
 20
-686.30859375
 30
0.0
 10
319.357421875
 20
-690.1845703125
 30
0.0
 10
343.8564453125
 20
-718.4287109375
 30
0.0
 10
378.7099609375
 20
-734.59375
 30
0.0
 10
415.1904296875
 20
-734.59375
 30
0.0
 10
417.8017578125
 20
-734.59375
 30
0.0
 10
420.423828125
 20
-734.4853515625
 30
0.0
 10
423.05029296875
 20
-734.32421875
 30
0.0
 10
422.38671875
 20
-776.8623046875
 30
0.0
 10
420.62646484375
 20
-805.189453125
 30
0.0
 10
417.77001953125
 20
-819.1875
 30
0.0
 10
414.03955078125
 20
-837.4150390625
 30
0.0
 10
405.6123046875
 20
-850.8505859375
 30
0.0
 10
392.47998046875
 20
-859.4736328125
 30
0.0
 10
379.33984375
 20
-868.095703125
 30
0.0
 10
355.7236328125
 20
-872.4072265625
 30
0.0
 10
321.6123046875
 20
-872.4072265625
 30
0.0
 10
321.6123046875
 20
-872.4072265625
 30
0.0
 10
280.4443359375
 20
-872.4072265625
 30
0.0
 10
280.4443359375
 20
-872.4072265625
 30
0.0
 10
280.4443359375
 20
-872.4072265625
 30
0.0
 10
280.4443359375
 20
-899.458984375
 30
0.0
 10
280.4443359375
 20
-899.458984375
 30
0.0
 10
280.4443359375
 20
-899.458984375
 30
0.0
 10
678.0107421875
 20
-899.458984375
 30
0.0
 10
678.0107421875
 20
-899.458984375
 30
0.0
 10
678.0107421875
 20
-899.458984375
 30
0.0
 10
678.0107421875
 20
-872.4072265625
 30
0.0
 10
678.0107421875
 20
-872.4072265625
 30
0.0
 10
678.0107421875
 20
-872.4072265625
 30
0.0
 10
639.1943359375
 20
-872.4072265625
 30
0.0
 10
639.1943359375
 20
-872.4072265625
 30
0.0
 10
603.5126953125
 20
-872.4072265625
 30
0.0
 10
579.205078125
 20
-867.7060546875
 30
0.0
 10
566.271484375
 20
-858.2958984375
 30
0.0
 10
553.330078125
 20
-848.88671875
 30
0.0
 10
545.3896484375
 20
-834.3857421875
 30
0.0
 10
542.4501953125
 20
-814.771484375
 30
0.0
 10
542.01953125
 20
-811.892578125
 30
0.0
 10
541.6220703125
 20
-808.49609375
 30
0.0
 10
541.2548828125
 20
-804.7021484375
 30
0.0
 10
546.986328125
 20
-808.0908203125
 30
0.0
 10
553.5322265625
 20
-810.7978515625
 30
0.0
 10
560.5986328125
 20
-811.044921875
 30
0.0
 10
565.1767578125
 20
-811.044921875
 30
0.0
 10
568.8955078125
 20
-807.84375
 30
0.0
 10
569.85546875
 20
-803.0751953125
 30
0.0
 10
570.8896484375
 20
-797.931640625
 30
0.0
 10
568.4345703125
 20
-792.85546875
 30
0.0
 10
564.025390625
 20
-791.00390625
 30
0.0
 10
560.216796875
 20
-789.4140625
 30
0.0
 10
556.3330078125
 20
-788.5068359375
 30
0.0
 10
552.576171875
 20
-787.63671875
 30
0.0
 10
548.5048828125
 20
-786.6923828125
 30
0.0
 10
544.658203125
 20
-785.79296875
 30
0.0
 10
541.052734375
 20
-784.09765625
 30
0.0
 10
540.6064453125
 20
-783.8876953125
 30
0.0
 10
540.1787109375
 20
-783.6328125
 30
0.0
 10
539.748046875
 20
-783.3935546875
 30
0.0
 10
539.451171875
 20
-777.5751953125
 30
0.0
 10
539.1962890625
 20
-771.134765625
 30
0.0
 10
538.9716796875
 20
-764.1806640625
 30
0.0
 10
541.3935546875
 20
-762.6396484375
 30
0.0
 10
543.1328125
 20
-759.8916015625
 30
0.0
 10
543.3388671875
 20
-756.509765625
 30
0.0
 10
543.5830078125
 20
-752.5439453125
 30
0.0
 10
541.689453125
 20
-749.2705078125
 30
0.0
 10
538.5517578125
 20
-747.73046875
 30
0.0
 10
538.2294921875
 20
-732.3779296875
 30
0.0
 10
538.064453125
 20
-714.8447265625
 30
0.0
 10
538.0458984375
 20
-695.1064453125
 30
0.0
 10
555.0390625
 20
-690.4130859375
 30
0.0
 10
571.7294921875
 20
-683.2158203125
 30
0.0
 10
587.013671875
 20
-675.916015625
 30
0.0
 10
599.0546875
 20
-699.4072265625
 30
0.0
 10
615.9853515625
 20
-720.828125
 30
0.0
 10
632.802734375
 20
-733.716796875
 30
0.0
 10
652.2294921875
 20
-748.615234375
 30
0.0
 10
676.5146484375
 20
-756.8173828125
 30
0.0
 10
701.1826171875
 20
-756.8173828125
 30
0.0
 10
718.060546875
 20
-756.8173828125
 30
0.0
 10
734.884765625
 20
-752.9111328125
 30
0.0
 10
749.8505859375
 20
-745.5107421875
 30
0.0
 10
757.3447265625
 20
-741.806640625
 30
0.0
 10
764.4716796875
 20
-736.9853515625
 30
0.0
 10
771.4365234375
 20
-730.8974609375
 30
0.0
 10
770.064453125
 20
-741.109375
 30
0.0
 10
769.65234375
 20
-753.1806640625
 30
0.0
 10
774.58984375
 20
-763.2734375
 30
0.0
 10
776.408203125
 20
-766.9765625
 30
0.0
 10
779.830078125
 20
-769.1025390625
 30
0.0
 10
783.98046875
 20
-769.1025390625
 30
0.0
 10
787.556640625
 20
-769.1025390625
 30
0.0
 10
791.16015625
 20
-767.486328125
 30
0.0
 10
793.619140625
 20
-764.787109375
 30
0.0
 10
795.796875
 20
-762.3955078125
 30
0.0
 10
796.83984375
 20
-759.388671875
 30
0.0
 10
796.55078125
 20
-756.330078125
 30
0.0
 10
796.08984375
 20
-751.44921875
 30
0.0
 10
794.8525390625
 20
-746.845703125
 30
0.0
 10
793.65234375
 20
-742.3837890625
 30
0.0
 10
792.3330078125
 20
-737.47265625
 30
0.0
 10
791.0888671875
 20
-732.83203125
 30
0.0
 10
790.8408203125
 20
-727.943359375
 30
0.0
 10
790.646484375
 20
-724.0146484375
 30
0.0
 10
791.3662109375
 20
-720.0185546875
 30
0.0
 10
792.134765625
 20
-715.7822265625
 30
0.0
 10
792.6484375
 20
-712.9404296875
 30
0.0
 10
793.1806640625
 20
-710.0166015625
 30
0.0
 10
793.427734375
 20
-707.0400390625
 30
0.0
 10
797.6494140625
 20
-701.6259765625
 30
0.0
 10
801.75
 20
-695.98828125
 30
0.0
 10
805.7431640625
 20
-690.447265625
 30
0.0
 10
805.7919921875
 20
-697.7646484375
 30
0.0
 10
806.841796875
 20
-704.212890625
 30
0.0
 10
807.486328125
 20
-707.52734375
 30
0.0
 10
808.3896484375
 20
-712.1083984375
 30
0.0
 10
812.0673828125
 20
-715.0625
 30
0.0
 10
816.8662109375
 20
-715.0625
 30
0.0
 10
820.6748046875
 20
-715.0625
 30
0.0
 10
824.453125
 20
-713.150390625
 30
0.0
 10
826.482421875
 20
-710.1962890625
 30
0.0
 10
828.29296875
 20
-707.556640625
 30
0.0
 10
828.623046875
 20
-704.3779296875
 30
0.0
 10
827.408203125
 20
-701.244140625
 30
0.0
 10
825.1396484375
 20
-695.365234375
 30
0.0
 10
823.2392578125
 20
-690.0048828125
 30
0.0
 10
822.984375
 20
-683.96875
 30
0.0
 10
822.890625
 20
-681.7041015625
 30
0.0
 10
822.9921875
 20
-679.3955078125
 30
0.0
 10
823.103515625
 20
-676.951171875
 30
0.0
 10
823.24609375
 20
-673.7197265625
 30
0.0
 10
823.396484375
 20
-670.390625
 30
0.0
 10
823.06640625
 20
-667.0390625
 30
0.0
 10
826.275390625
 20
-662.998046875
 30
0.0
 10
829.3203125
 20
-659.4140625
 30
0.0
 10
832.3115234375
 20
-656.1591796875
 30
0.0
 10
832.2548828125
 20
-664.099609375
 30
0.0
 10
834.365234375
 20
-671.919921875
 30
0.0
 10
838.3994140625
 20
-677.6484375
 30
0.0
 10
840.423828125
 20
-680.5419921875
 30
0.0
 10
844.427734375
 20
-681.8544921875
 30
0.0
 10
847.513671875
 20
-680.5947265625
 30
0.0
 10
848.8291015625
 20
-680.0703125
 30
0.0
 10
849.67578125
 20
-679.3876953125
 30
0.0
 10
850.4111328125
 20
-678.720703125
 30
0.0
 10
852.5107421875
 20
-676.7861328125
 30
0.0
 10
853.255859375
 20
-673.2919921875
 30
0.0
 10
852.146484375
 20
-670.5849609375
 30
0.0
 10
852.146484375
 20
-670.5849609375
 30
0.0
 10
851.9482421875
 20
-670.10546875
 30
0.0
 10
851.9482421875
 20
-670.10546875
 30
0.0
 10
849.7734375
 20
-664.8046875
 30
0.0
 10
847.8916015625
 20
-660.2236328125
 30
0.0
 10
847.966796875
 20
-654.7802734375
 30
0.0
 10
848.0419921875
 20
-649.07421875
 30
0.0
 10
850.193359375
 20
-643.7060546875
 30
0.0
 10
852.326171875
 20
-638.501953125
 30
0.0
 10
853.6796875
 20
-637.572265625
 30
0.0
 10
855.0556640625
 20
-636.6728515625
 30
0.0
 10
856.47265625
 20
-635.818359375
 30
0.0
 10
866.396484375
 20
-629.8349609375
 30
0.0
 10
878.4755859375
 20
-626.408203125
 30
0.0
 10
889.6015625
 20
-626.408203125
 30
0.0
 10
900.7509765625
 20
-626.408203125
 30
0.0
 10
920.5
 20
-629.8349609375
 30
0.0
 10
927.4580078125
 20
-652.79296875
 30
0.0
 10
931.619140625
 20
-666.529296875
 30
0.0
 10
926.619140625
 20
-681.9072265625
 30
0.0
 10
915.57421875
 20
-689.3525390625
 30
0.0
 10
908.8115234375
 20
-693.9033203125
 30
0.0
 10
901.283203125
 20
-694.3310546875
 30
0.0
 10
895.1875
 20
-690.4765625
 30
0.0
 10
891.994140625
 20
-688.4150390625
 30
0.0
 10
889.556640625
 20
-685.693359375
 30
0.0
 10
887.6826171875
 20
-682.056640625
 30
0.0
 10
887.4951171875
 20
-681.7197265625
 30
0.0
 10
887.326171875
 20
-681.3818359375
 30
0.0
 10
887.1728515625
 20
-681.044921875
 30
0.0
 10
887.20703125
 20
-681.044921875
 30
0.0
 10
887.240234375
 20
-681.044921875
 30
0.0
 10
887.27734375
 20
-681.044921875
 30
0.0
 10
892.818359375
 20
-681.044921875
 30
0.0
 10
898.0517578125
 20
-678.533203125
 30
0.0
 10
901.2685546875
 20
-674.3193359375
 30
0.0
 10
904.552734375
 20
-670.0234375
 30
0.0
 10
905.44140625
 20
-664.3017578125
 30
0.0
 10
903.7802734375
 20
-658.19921875
 30
0.0
 10
901.6953125
 20
-650.5439453125
 30
0.0
 10
895.240234375
 20
-645.5947265625
 30
0.0
 10
887.330078125
 20
-645.5947265625
 30
0.0
 10
884.5185546875
 20
-645.5947265625
 30
0.0
 10
881.6396484375
 20
-646.240234375
 30
0.0
 10
878.9921875
 20
-647.4619140625
 30
0.0
 10
867.1123046875
 20
-652.943359375
 30
0.0
 10
863.693359375
 20
-667.0693359375
 30
0.0
 10
864.3720703125
 20
-677.498046875
 30
0.0
 10
865.736328125
 20
-698.484375
 30
0.0
 10
883.375
 20
-715.564453125
 30
0.0
 10
903.6904296875
 20
-715.564453125
 30
0.0
 10
906.025390625
 20
-715.564453125
 30
0.0
 10
908.369140625
 20
-715.33203125
 30
0.0
 10
910.6591796875
 20
-714.875
 30
0.0
 10
932.12890625
 20
-710.5859375
 30
0.0
 10
949.404296875
 20
-688.2724609375
 30
0.0
 10
949.9814453125
 20
-664.0771484375
 30
0.0
 10
950.56640625
 20
-639.8896484375
 30
0.0
 10
935.4208984375
 20
-617.095703125
 30
0.0
 10
913.14453125
 20
-608.630859375
 30
0.0
  0
SPLINE
  5
4E
330
3C
100
AcDbEntity
  8
Layer 1
370
     0
100
AcDbSpline
210
0.0
220
0.0
230
1.0
 70
    11
 71
     3
 72
    23
 73
    19
 74
     0
 42
0.0000000001
 43
0.0000000001
 40
0.0
 40
0.0
 40
0.0
 40
0.0
 40
1.0
 40
1.0
 40
1.0
 40
2.0
 40
2.0
 40
2.0
 40
3.0
 40
3.0
 40
3.0
 40
4.0
 40
4.0
 40
4.0
 40
5.0
 40
5.0
 40
5.0
 40
6.0
 40
6.0
 40
6.0
 40
6.0
 10
284.177734375
 20
-658.0185546875
 30
0.0
 10
275.3271484375
 20
-650.041015625
 30
0.0
 10
270.037109375
 20
-640.9619140625
 30
0.0
 10
267.244140625
 20
-628.8603515625
 30
0.0
 10
271.65673828125
 20
-626.3857421875
 30
0.0
 10
276.1328125
 20
-624.181640625
 30
0.0
 10
280.0615234375
 20
-622.2919921875
 30
0.0
 10
281.17138671875
 20
-622.037109375
 30
0.0
 10
282.28125
 20
-621.796875
 30
0.0
 10
283.38671875
 20
-621.564453125
 30
0.0
 10
283.38671875
 20
-621.564453125
 30
0.0
 10
287.8671875
 20
-621.564453125
 30
0.0
 10
287.8671875
 20
-621.564453125
 30
0.0
 10
290.3564453125
 20
-639.0341796875
 30
0.0
 10
296.42919921875
 20
-655.9873046875
 30
0.0
 10
305.6591796875
 20
-671.3046875
 30
0.0
 10
297.26904296875
 20
-667.833984375
 30
0.0
 10
290.18359375
 20
-663.4404296875
 30
0.0
 10
284.177734375
 20
-658.0185546875
 30
0.0
  0
SPLINE
  5
4F
330
3C
100
AcDbEntity
  8
Layer 1
370
     0
100
AcDbSpline
210
0.0
220
0.0
230
1.0
 70
    11
 71
     3
 72
    26
 73
    22
 74
     0
 42
0.0000000001
 43
0.0000000001
 40
0.0
 40
0.0
 40
0.0
 40
0.0
 40
1.0
 40
1.0
 40
1.0
 40
2.0
 40
2.0
 40
2.0
 40
3.0
 40
3.0
 40
3.0
 40
4.0
 40
4.0
 40
4.0
 40
5.0
 40
5.0
 40
5.0
 40
6.0
 40
6.0
 40
6.0
 40
7.0
 40
7.0
 40
7.0
 40
7.0
 10
330.76171875
 20
-678.435546875
 30
0.0
 10
313.734375
 20
-658.84375
 30
0.0
 10
304.4296875
 20
-638.3974609375
 30
0.0
 10
304.78955078125
 20
-621.564453125
 30
0.0
 10
304.78955078125
 20
-621.564453125
 30
0.0
 10
423.357421875
 20
-621.564453125
 30
0.0
 10
423.357421875
 20
-621.564453125
 30
0.0
 10
423.357421875
 20
-621.564453125
 30
0.0
 10
423.357421875
 20
-691.8564453125
 30
0.0
 10
423.357421875
 20
-691.8564453125
 30
0.0
 10
423.357421875
 20
-692.16796875
 30
0.0
 10
423.35546875
 20
-692.4560546875
 30
0.0
 10
423.35546875
 20
-692.763671875
 30
0.0
 10
404.45947265625
 20
-688.5947265625
 30
0.0
 10
385.49560546875
 20
-686.0986328125
 30
0.0
 10
366.923828125
 20
-683.6611328125
 30
0.0
 10
357.04150390625
 20
-682.3642578125
 30
0.0
 10
346.822265625
 20
-681.0224609375
 30
0.0
 10
336.70751953125
 20
-679.447265625
 30
0.0
 10
334.720703125
 20
-679.1328125
 30
0.0
 10
332.7412109375
 20
-678.802734375
 30
0.0
 10
330.76171875
 20
-678.435546875
 30
0.0
  0
SPLINE
  5
50
330
3C
100
AcDbEntity
  8
Layer 1
370
     0
100
AcDbSpline
210
0.0
220
0.0
230
1.0
 70
    11
 71
     3
 72
    23
 73
    19
 74
     0
 42
0.0000000001
 43
0.0000000001
 40
0.0
 40
0.0
 40
0.0
 40
0.0
 40
1.0
 40
1.0
 40
1.0
 40
2.0
 40
2.0
 40
2.0
 40
3.0
 40
3.0
 40
3.0
 40
4.0
 40
4.0
 40
4.0
 40
5.0
 40
5.0
 40
5.0
 40
6.0
 40
6.0
 40
6.0
 40
6.0
 10
383.625
 20
-716.5244140625
 30
0.0
 10
372.7978515625
 20
-713.4130859375
 30
0.0
 10
359.7255859375
 20
-705.5625
 30
0.0
 10
347.287109375
 20
-694.86328125
 30
0.0
 10
349.9111328125
 20
-695.193359375
 30
0.0
 10
352.52783203125
 20
-695.5009765625
 30
0.0
 10
355.10693359375
 20
-695.8076171875
 30
0.0
 10
358.78857421875
 20
-696.2431640625
 30
0.0
 10
362.447265625
 20
-696.677734375
 30
0.0
 10
366.06884765625
 20
-697.150390625
 30
0.0
 10
386.7236328125
 20
-699.841796875
 30
0.0
 10
405.87255859375
 20
-704.1982421875
 30
0.0
 10
423.30126953125
 20
-710.158203125
 30
0.0
 10
423.2841796875
 20
-713.2548828125
 30
0.0
 10
423.26171875
 20
-716.302734375
 30
0.0
 10
423.23583984375
 20
-719.279296875
 30
0.0
 10
409.1435546875
 20
-720.734375
 30
0.0
 10
395.25
 20
-719.8603515625
 30
0.0
 10
383.625
 20
-716.5244140625
 30
0.0
  0
SPLINE
  5
51
330
3C
100
AcDbEntity
  8
Layer 1
370
     0
100
AcDbSpline
210
0.0
220
0.0
230
1.0
 70
    11
 71
     3
 72
    17
 73
    13
 74
     0
 42
0.0000000001
 43
0.0000000001
 40
0.0
 40
0.0
 40
0.0
 40
0.0
 40
1.0
 40
1.0
 40
1.0
 40
2.0
 40
2.0
 40
2.0
 40
3.0
 40
3.0
 40
3.0
 40
4.0
 40
4.0
 40
4.0
 40
4.0
 10
538.0419921875
 20
-675.4365234375
 30
0.0
 10
538.0419921875
 20
-675.4365234375
 30
0.0
 10
538.0419921875
 20
-621.564453125
 30
0.0
 10
538.0419921875
 20
-621.564453125
 30
0.0
 10
538.0419921875
 20
-621.564453125
 30
0.0
 10
570.3349609375
 20
-621.564453125
 30
0.0
 10
570.3349609375
 20
-621.564453125
 30
0.0
 10
571.185546875
 20
-633.2392578125
 30
0.0
 10
574.2001953125
 20
-645.767578125
 30
0.0
 10
579.3212890625
 20
-658.9033203125
 30
0.0
 10
566.9755859375
 20
-664.9921875
 30
0.0
 10
553.1083984375
 20
-671.1103515625
 30
0.0
 10
538.0419921875
 20
-675.4365234375
 30
0.0
  0
SPLINE
  5
52
330
3C
100
AcDbEntity
  8
Layer 1
370
     0
100
AcDbSpline
210
0.0
220
0.0
230
1.0
 70
    11
 71
     3
 72
    20
 73
    16
 74
     0
 42
0.0000000001
 43
0.0000000001
 40
0.0
 40
0.0
 40
0.0
 40
0.0
 40
1.0
 40
1.0
 40
1.0
 40
2.0
 40
2.0
 40
2.0
 40
3.0
 40
3.0
 40
3.0
 40
4.0
 40
4.0
 40
4.0
 40
5.0
 40
5.0
 40
5.0
 40
5.0
 10
589.912109375
 20
-623.1318359375
 30
0.0
 10
589.912109375
 20
-623.1318359375
 30
0.0
 10
589.4658203125
 20
-621.564453125
 30
0.0
 10
589.4658203125
 20
-621.564453125
 30
0.0
 10
589.4658203125
 20
-621.564453125
 30
0.0
 10
653.5341796875
 20
-621.564453125
 30
0.0
 10
653.5341796875
 20
-621.564453125
 30
0.0
 10
637.234375
 20
-628.3125
 30
0.0
 10
621.548828125
 20
-636.6953125
 30
0.0
 10
606.234375
 20
-644.890625
 30
0.0
 10
603.4111328125
 20
-646.3974609375
 30
0.0
 10
600.5888671875
 20
-647.912109375
 30
0.0
 10
597.76171875
 20
-649.4111328125
 30
0.0
 10
594.916015625
 20
-640.662109375
 30
0.0
 10
592.37890625
 20
-631.76953125
 30
0.0
 10
589.912109375
 20
-623.1318359375
 30
0.0
  0
SPLINE
  5
53
330
3C
100
AcDbEntity
  8
Layer 1
370
     0
100
AcDbSpline
210
0.0
220
0.0
230
1.0
 70
    11
 71
     3
 72
    80
 73
    76
 74
     0
 42
0.0000000001
 43
0.0000000001
 40
0.0
 40
0.0
 40
0.0
 40
0.0
 40
1.0
 40
1.0
 40
1.0
 40
2.0
 40
2.0
 40
2.0
 40
3.0
 40
3.0
 40
3.0
 40
4.0
 40
4.0
 40
4.0
 40
5.0
 40
5.0
 40
5.0
 40
6.0
 40
6.0
 40
6.0
 40
7.0
 40
7.0
 40
7.0
 40
8.0
 40
8.0
 40
8.0
 40
9.0
 40
9.0
 40
9.0
 40
10.0
 40
10.0
 40
10.0
 40
11.0
 40
11.0
 40
11.0
 40
12.0
 40
12.0
 40
12.0
 40
13.0
 40
13.0
 40
13.0
 40
14.0
 40
14.0
 40
14.0
 40
15.0
 40
15.0
 40
15.0
 40
16.0
 40
16.0
 40
16.0
 40
17.0
 40
17.0
 40
17.0
 40
18.0
 40
18.0
 40
18.0
 40
19.0
 40
19.0
 40
19.0
 40
20.0
 40
20.0
 40
20.0
 40
21.0
 40
21.0
 40
21.0
 40
22.0
 40
22.0
 40
22.0
 40
23.0
 40
23.0
 40
23.0
 40
24.0
 40
24.0
 40
24.0
 40
25.0
 40
25.0
 40
25.0
 40
25.0
 10
837.365234375
 20
-624.9765625
 30
0.0
 10
820.2021484375
 20
-638.591796875
 30
0.0
 10
807.8349609375
 20
-656.7666015625
 30
0.0
 10
795.8759765625
 20
-674.341796875
 30
0.0
 10
790.2451171875
 20
-682.619140625
 30
0.0
 10
784.4228515625
 20
-691.173828125
 30
0.0
 10
778.2001953125
 20
-699.091796875
 30
0.0
 10
757.73046875
 20
-725.154296875
 30
0.0
 10
731.263671875
 20
-738.9873046875
 30
0.0
 10
701.3173828125
 20
-739.0849609375
 30
0.0
 10
672.1435546875
 20
-739.0849609375
 30
0.0
 10
644.9375
 20
-726.166015625
 30
0.0
 10
624.701171875
 20
-702.6982421875
 30
0.0
 10
616.9599609375
 20
-693.7236328125
 30
0.0
 10
610.2646484375
 20
-682.162109375
 30
0.0
 10
604.28125
 20
-667.4140625
 30
0.0
 10
606.7294921875
 20
-666.1767578125
 30
0.0
 10
609.150390625
 20
-664.9541015625
 30
0.0
 10
611.5390625
 20
-663.7470703125
 30
0.0
 10
621.125
 20
-658.888671875
 30
0.0
 10
630.1787109375
 20
-654.2998046875
 30
0.0
 10
638.41796875
 20
-650.5810546875
 30
0.0
 10
662.021484375
 20
-639.9267578125
 30
0.0
 10
687.1318359375
 20
-630.0673828125
 30
0.0
 10
710.787109375
 20
-630.0673828125
 30
0.0
 10
722.2216796875
 20
-630.0673828125
 30
0.0
 10
732.4111328125
 20
-632.4892578125
 30
0.0
 10
741.0673828125
 20
-637.2802734375
 30
0.0
 10
756.42578125
 20
-645.767578125
 30
0.0
 10
762.904296875
 20
-663.40234375
 30
0.0
 10
756.82421875
 20
-680.15234375
 30
0.0
 10
753.5546875
 20
-689.1494140625
 30
0.0
 10
747.353515625
 20
-695.7177734375
 30
0.0
 10
739.357421875
 20
-698.634765625
 30
0.0
 10
733.4453125
 20
-700.7939453125
 30
0.0
 10
729.06640625
 20
-701.056640625
 30
0.0
 10
725.759765625
 20
-699.4443359375
 30
0.0
 10
723.3349609375
 20
-698.267578125
 30
0.0
 10
720.4033203125
 20
-695.177734375
 30
0.0
 10
719.8935546875
 20
-692.2314453125
 30
0.0
 10
719.638671875
 20
-690.76953125
 30
0.0
 10
720.0390625
 20
-689.5546875
 30
0.0
 10
721.1494140625
 20
-688.4228515625
 30
0.0
 10
725.5126953125
 20
-683.9609375
 30
0.0
 10
726.7353515625
 20
-678.3681640625
 30
0.0
 10
724.5078125
 20
-673.07421875
 30
0.0
 10
722.17578125
 20
-667.5185546875
 30
0.0
 10
716.5
 20
-663.6494140625
 30
0.0
 10
710.705078125
 20
-663.6494140625
 30
0.0
 10
706.17578125
 20
-663.6494140625
 30
0.0
 10
702.2548828125
 20
-665.958984375
 30
0.0
 10
699.66796875
 20
-670.150390625
 30
0.0
 10
693.34375
 20
-680.4072265625
 30
0.0
 10
692.3798828125
 20
-693.048828125
 30
0.0
 10
697.0888671875
 20
-703.98046875
 30
0.0
 10
701.771484375
 20
-714.8525390625
 30
0.0
 10
711.1845703125
 20
-722.4775390625
 30
0.0
 10
722.9111328125
 20
-724.9072265625
 30
0.0
 10
725.7978515625
 20
-725.5068359375
 30
0.0
 10
728.751953125
 20
-725.814453125
 30
0.0
 10
731.68359375
 20
-725.814453125
 30
0.0
 10
752.384765625
 20
-725.814453125
 30
0.0
 10
772.943359375
 20
-710.1064453125
 30
0.0
 10
780.5615234375
 20
-688.4677734375
 30
0.0
 10
788.791015625
 20
-665.1123046875
 30
0.0
 10
782.21875
 20
-639.125
 30
0.0
 10
764.212890625
 20
-623.798828125
 30
0.0
 10
763.3095703125
 20
-623.0341796875
 30
0.0
 10
762.37890625
 20
-622.2841796875
 30
0.0
 10
761.423828125
 20
-621.564453125
 30
0.0
 10
761.423828125
 20
-621.564453125
 30
0.0
 10
841.916015625
 20
-621.564453125
 30
0.0
 10
841.916015625
 20
-621.564453125
 30
0.0
 10
840.37109375
 20
-622.6591796875
 30
0.0
 10
838.857421875
 20
-623.798828125
 30
0.0
 10
837.365234375
 20
-624.9765625
 30
0.0
  0
HATCH
  5
54
330
3C
100
AcDbEntity
  8
Layer 1
 62
     7
100
AcDbHatch
 10
0.0
 20
0.0
 30
0.0
210
0.0
220
0.0
230
1.0
  2
SOLID
 70
     1
 71
     0
 91
        7
 92
        1
 93
        1
 72
     4
 94
        3
 73
     0
 74
     1
 95
      431
 96
      427
 40
0.0
 40
0.0
 40
0.0
 40
0.0
 40
1.0
 40
1.0
 40
1.0
 40
2.0
 40
2.0
 40
2.0
 40
3.0
 40
3.0
 40
3.0
 40
4.0
 40
4.0
 40
4.0
 40
5.0
 40
5.0
 40
5.0
 40
6.0
 40
6.0
 40
6.0
 40
7.0
 40
7.0
 40
7.0
 40
8.0
 40
8.0
 40
8.0
 40
9.0
 40
9.0
 40
9.0
 40
10.0
 40
10.0
 40
10.0
 40
11.0
 40
11.0
 40
11.0
 40
12.0
 40
12.0
 40
12.0
 40
13.0
 40
13.0
 40
13.0
 40
14.0
 40
14.0
 40
14.0
 40
15.0
 40
15.0
 40
15.0
 40
16.0
 40
16.0
 40
16.0
 40
17.0
 40
17.0
 40
17.0
 40
18.0
 40
18.0
 40
18.0
 40
19.0
 40
19.0
 40
19.0
 40
20.0
 40
20.0
 40
20.0
 40
21.0
 40
21.0
 40
21.0
 40
22.0
 40
22.0
 40
22.0
 40
23.0
 40
23.0
 40
23.0
 40
24.0
 40
24.0
 40
24.0
 40
25.0
 40
25.0
 40
25.0
 40
26.0
 40
26.0
 40
26.0
 40
27.0
 40
27.0
 40
27.0
 40
28.0
 40
28.0
 40
28.0
 40
29.0
 40
29.0
 40
29.0
 40
30.0
 40
30.0
 40
30.0
 40
31.0
 40
31.0
 40
31.0
 40
32.0
 40
32.0
 40
32.0
 40
33.0
 40
33.0
 40
33.0
 40
34.0
 40
34.0
 40
34.0
 40
35.0
 40
35.0
 40
35.0
 40
36.0
 40
36.0
 40
36.0
 40
37.0
 40
37.0
 40
37.0
 40
38.0
 40
38.0
 40
38.0
 40
39.0
 40
39.0
 40
39.0
 40
40.0
 40
40.0
 40
40.0
 40
41.0
 40
41.0
 40
41.0
 40
42.0
 40
42.0
 40
42.0
 40
43.0
 40
43.0
 40
43.0
 40
44.0
 40
44.0
 40
44.0
 40
45.0
 40
45.0
 40
45.0
 40
46.0
 40
46.0
 40
46.0
 40
47.0
 40
47.0
 40
47.0
 40
48.0
 40
48.0
 40
48.0
 40
49.0
 40
49.0
 40
49.0
 40
50.0
 40
50.0
 40
50.0
 40
51.0
 40
51.0
 40
51.0
 40
52.0
 40
52.0
 40
52.0
 40
53.0
 40
53.0
 40
53.0
 40
54.0
 40
54.0
 40
54.0
 40
55.0
 40
55.0
 40
55.0
 40
56.0
 40
56.0
 40
56.0
 40
57.0
 40
57.0
 40
57.0
 40
58.0
 40
58.0
 40
58.0
 40
59.0
 40
59.0
 40
59.0
 40
60.0
 40
60.0
 40
60.0
 40
61.0
 40
61.0
 40
61.0
 40
62.0
 40
62.0
 40
62.0
 40
63.0
 40
63.0
 40
63.0
 40
64.0
 40
64.0
 40
64.0
 40
65.0
 40
65.0
 40
65.0
 40
66.0
 40
66.0
 40
66.0
 40
67.0
 40
67.0
 40
67.0
 40
68.0
 40
68.0
 40
68.0
 40
69.0
 40
69.0
 40
69.0
 40
70.0
 40
70.0
 40
70.0
 40
71.0
 40
71.0
 40
71.0
 40
72.0
 40
72.0
 40
72.0
 40
73.0
 40
73.0
 40
73.0
 40
74.0
 40
74.0
 40
74.0
 40
75.0
 40
75.0
 40
75.0
 40
76.0
 40
76.0
 40
76.0
 40
77.0
 40
77.0
 40
77.0
 40
78.0
 40
78.0
 40
78.0
 40
79.0
 40
79.0
 40
79.0
 40
80.0
 40
80.0
 40
80.0
 40
81.0
 40
81.0
 40
81.0
 40
82.0
 40
82.0
 40
82.0
 40
83.0
 40
83.0
 40
83.0
 40
84.0
 40
84.0
 40
84.0
 40
85.0
 40
85.0
 40
85.0
 40
86.0
 40
86.0
 40
86.0
 40
87.0
 40
87.0
 40
87.0
 40
88.0
 40
88.0
 40
88.0
 40
89.0
 40
89.0
 40
89.0
 40
90.0
 40
90.0
 40
90.0
 40
91.0
 40
91.0
 40
91.0
 40
92.0
 40
92.0
 40
92.0
 40
93.0
 40
93.0
 40
93.0
 40
94.0
 40
94.0
 40
94.0
 40
95.0
 40
95.0
 40
95.0
 40
96.0
 40
96.0
 40
96.0
 40
97.0
 40
97.0
 40
97.0
 40
98.0
 40
98.0
 40
98.0
 40
99.0
 40
99.0
 40
99.0
 40
100.0
 40
100.0
 40
100.0
 40
101.0
 40
101.0
 40
101.0
 40
102.0
 40
102.0
 40
102.0
 40
103.0
 40
103.0
 40
103.0
 40
104.0
 40
104.0
 40
104.0
 40
105.0
 40
105.0
 40
105.0
 40
106.0
 40
106.0
 40
106.0
 40
107.0
 40
107.0
 40
107.0
 40
108.0
 40
108.0
 40
108.0
 40
109.0
 40
109.0
 40
109.0
 40
110.0
 40
110.0
 40
110.0
 40
111.0
 40
111.0
 40
111.0
 40
112.0
 40
112.0
 40
112.0
 40
113.0
 40
113.0
 40
113.0
 40
114.0
 40
114.0
 40
114.0
 40
115.0
 40
115.0
 40
115.0
 40
116.0
 40
116.0
 40
116.0
 40
117.0
 40
117.0
 40
117.0
 40
118.0
 40
118.0
 40
118.0
 40
119.0
 40
119.0
 40
119.0
 40
120.0
 40
120.0
 40
120.0
 40
121.0
 40
121.0
 40
121.0
 40
122.0
 40
122.0
 40
122.0
 40
123.0
 40
123.0
 40
123.0
 40
124.0
 40
124.0
 40
124.0
 40
125.0
 40
125.0
 40
125.0
 40
126.0
 40
126.0
 40
126.0
 40
127.0
 40
127.0
 40
127.0
 40
128.0
 40
128.0
 40
128.0
 40
129.0
 40
129.0
 40
129.0
 40
130.0
 40
130.0
 40
130.0
 40
131.0
 40
131.0
 40
131.0
 40
132.0
 40
132.0
 40
132.0
 40
133.0
 40
133.0
 40
133.0
 40
134.0
 40
134.0
 40
134.0
 40
135.0
 40
135.0
 40
135.0
 40
136.0
 40
136.0
 40
136.0
 40
137.0
 40
137.0
 40
137.0
 40
138.0
 40
138.0
 40
138.0
 40
139.0
 40
139.0
 40
139.0
 40
140.0
 40
140.0
 40
140.0
 40
141.0
 40
141.0
 40
141.0
 40
142.0
 40
142.0
 40
142.0
 40
142.0
 10
913.14453125
 20
-608.630859375
 10
909.1708984375
 20
-607.1240234375
 10
905.017578125
 20
-606.029296875
 10
900.7509765625
 20
-605.369140625
 10
900.7509765625
 20
-605.369140625
 10
900.7509765625
 20
-604.41015625
 10
900.7509765625
 20
-604.41015625
 10
900.7509765625
 20
-604.41015625
 10
96.6884765625
 20
-604.41015625
 10
96.6884765625
 20
-604.41015625
 10
96.6884765625
 20
-604.41015625
 10
96.6884765625
 20
-621.564453125
 10
96.6884765625
 20
-621.564453125
 10
96.6884765625
 20
-621.564453125
 10
239.34130859375
 20
-621.564453125
 10
239.34130859375
 20
-621.564453125
 10
229.3017578125
 20
-626.5361328125
 10
219.7158203125
 20
-632.51171875
 10
210.6884765625
 20
-639.4248046875
 10
202.09228515625
 20
-643.40625
 10
194.8603515625
 20
-646.427734375
 10
187.10400390625
 20
-646.427734375
 10
183.4189453125
 20
-646.427734375
 10
179.8310546875
 20
-645.7451171875
 10
176.142578125
 20
-644.328125
 10
171.6962890625
 20
-642.6337890625
 10
165.9189453125
 20
-640.287109375
 10
160.69677734375
 20
-637.205078125
 10
160.69677734375
 20
-637.205078125
 10
158.77001953125
 20
-636.04296875
 10
158.77001953125
 20
-636.04296875
 10
154.9462890625
 20
-633.7109375
 10
151.33203125
 20
-631.5068359375
 10
145.31884765625
 20
-631.341796875
 10
142.5146484375
 20
-631.341796875
 10
139.8828125
 20
-632.6318359375
 10
138.0986328125
 20
-634.888671875
 10
136.216796875
 20
-637.265625
 10
135.5078125
 20
-640.421875
 10
136.20166015625
 20
-643.345703125
 10
140.6025390625
 20
-661.767578125
 10
165.529296875
 20
-663.2001953125
 10
173.064453125
 20
-663.2001953125
 10
175.54248046875
 20
-663.2001953125
 10
177.94921875
 20
-663.072265625
 10
180.22119140625
 20
-662.8251953125
 10
182.0732421875
 20
-662.623046875
 10
184.3076171875
 20
-662.3076171875
 10
186.7890625
 20
-661.8203125
 10
185.73583984375
 20
-663.0498046875
 10
184.697265625
 20
-664.3017578125
 10
183.68505859375
 20
-665.5693359375
 10
182.8642578125
 20
-665.869140625
 10
182.14453125
 20
-666.4013671875
 10
181.6005859375
 20
-667.12109375
 10
178.8115234375
 20
-670.8173828125
 10
175.947265625
 20
-674.814453125
 10
172.978515625
 20
-678.9599609375
 10
154.40625
 20
-704.8876953125
 10
133.3525390625
 20
-734.4365234375
 10
101.55419921875
 20
-732.0595703125
 10
94.5361328125
 20
-731.5126953125
 10
89.5205078125
 20
-736.2138671875
 10
89.20556640625
 20
-743.07421875
 10
88.92041015625
 20
-749.259765625
 10
92.9619140625
 20
-756.240234375
 10
101.0146484375
 20
-756.982421875
 10
121.84326171875
 20
-758.9169921875
 10
136.4716796875
 20
-745.87109375
 10
147.8232421875
 20
-733.146484375
 10
150.3798828125
 20
-730.283203125
 10
153.00048828125
 20
-727.3359375
 10
155.62841796875
 20
-724.314453125
 10
150.537109375
 20
-749.537109375
 10
154.02392578125
 20
-774.103515625
 10
165.900390625
 20
-794.9169921875
 10
169.04931640625
 20
-800.443359375
 10
172.880859375
 20
-805.69921875
 10
177.31591796875
 20
-810.5576171875
 10
177.44677734375
 20
-813.2041015625
 10
177.77685546875
 20
-815.806640625
 10
178.095703125
 20
-818.3408203125
 10
178.4892578125
 20
-821.474609375
 10
178.8642578125
 20
-824.4287109375
 10
178.87158203125
 20
-827.3603515625
 10
178.9013671875
 20
-836.5380859375
 10
176.74951171875
 20
-844.5
 10
171.89111328125
 20
-853.1826171875
 10
171.5986328125
 20
-853.71484375
 10
171.1640625
 20
-854.427734375
 10
170.646484375
 20
-855.2900390625
 10
164.93310546875
 20
-864.7666015625
 10
159.15966796875
 20
-875.451171875
 10
162.98388671875
 20
-882.2138671875
 10
164.1982421875
 20
-884.3662109375
 10
166.86767578125
 20
-886.9228515625
 10
172.7119140625
 20
-886.9228515625
 10
173.068359375
 20
-886.9228515625
 10
173.435546875
 20
-886.9150390625
 10
173.814453125
 20
-886.892578125
 10
191.80517578125
 20
-886.0078125
 10
194.62060546875
 20
-856.564453125
 10
195.681640625
 20
-845.482421875
 10
196.1689453125
 20
-840.4287109375
 10
196.8359375
 20
-833.5234375
 10
196.57763671875
 20
-826.4833984375
 10
210.11865234375
 20
-834.783203125
 10
225.5830078125
 20
-839.2890625
 10
240.8935546875
 20
-839.2890625
 10
254.1455078125
 20
-839.2890625
 10
267.07568359375
 20
-835.86328125
 10
278.35205078125
 20
-829.3701171875
 10
283.9677734375
 20
-828.9794921875
 10
289.34375
 20
-829.4521484375
 10
294.20263671875
 20
-830.869140625
 10
297.310546875
 20
-831.76953125
 10
300.4033203125
 20
-834.228515625
 10
303.6796875
 20
-836.837890625
 10
308.564453125
 20
-840.7216796875
 10
313.6142578125
 20
-844.732421875
 10
320.0849609375
 20
-844.732421875
 10
321.44189453125
 20
-844.732421875
 10
322.806640625
 20
-844.544921875
 10
324.1484375
 20
-844.177734375
 10
328.294921875
 20
-843.0380859375
 10
331.1630859375
 20
-839.3193359375
 10
331.275390625
 20
-834.92578125
 10
331.736328125
 20
-817.515625
 10
308.2421875
 20
-815.986328125
 10
296.9541015625
 20
-815.2509765625
 10
296.9541015625
 20
-815.2509765625
 10
296.14453125
 20
-815.19140625
 10
296.14453125
 20
-815.19140625
 10
310.015625
 20
-800.158203125
 10
319.87109375
 20
-777.267578125
 10
313.4267578125
 20
-754.9658203125
 10
308.6435546875
 20
-738.4326171875
 10
292.68798828125
 20
-725.9716796875
 10
276.30908203125
 20
-725.9716796875
 10
269.43359375
 20
-725.9716796875
 10
262.83935546875
 20
-728.1982421875
 10
257.23095703125
 20
-732.412109375
 10
251.76513671875
 20
-736.5283203125
 10
249.6171875
 20
-742.8193359375
 10
251.62646484375
 20
-748.8251953125
 10
253.53466796875
 20
-754.5302734375
 10
258.83154296875
 20
-758.3623046875
 10
264.81494140625
 20
-758.3623046875
 10
266.9931640625
 20
-758.3623046875
 10
269.205078125
 20
-757.875
 10
271.38671875
 20
-756.9228515625
 10
276.23046875
 20
-754.8076171875
 10
279.91162109375
 20
-755.2880859375
 10
282.7607421875
 20
-758.5947265625
 10
286.93701171875
 20
-763.4306640625
 10
288.2158203125
 20
-772.65625
 10
287.296875
 20
-778.8798828125
 10
285.70361328125
 20
-789.69140625
 10
278.974609375
 20
-798.1337890625
 10
273.61376953125
 20
-803.3076171875
 10
263.75
 20
-812.822265625
 10
249.9580078125
 20
-818.2802734375
 10
235.77978515625
 20
-818.2802734375
 10
231.03369140625
 20
-818.2802734375
 10
226.35888671875
 20
-817.666015625
 10
221.87109375
 20
-816.458984375
 10
214.07373046875
 20
-814.3662109375
 10
206.9169921875
 20
-811.0
 10
200.48388671875
 20
-806.4111328125
 10
216.58544921875
 20
-806.951171875
 10
230.26904296875
 20
-799.708984375
 10
236.3720703125
 20
-787.375
 10
238.2392578125
 20
-783.603515625
 10
237.9990234375
 20
-779.322265625
 10
235.705078125
 20
-775.6328125
 10
233.40283203125
 20
-771.9140625
 10
229.4814453125
 20
-769.6123046875
 10
225.4814453125
 20
-769.6123046875
 10
222.38134765625
 20
-769.6123046875
 10
219.46484375
 20
-771.0146484375
 10
217.267578125
 20
-773.5634765625
 10
210.7373046875
 20
-781.1435546875
 10
204.65625
 20
-787.5546875
 10
196.39013671875
 20
-789.263671875
 10
191.033203125
 20
-790.3662109375
 10
185.8671875
 20
-788.6943359375
 10
180.2509765625
 20
-784.0234375
 10
170.47412109375
 20
-767.26953125
 10
166.65771484375
 20
-746.328125
 10
169.77685546875
 20
-726.451171875
 10
174.6953125
 20
-695.1181640625
 10
193.125
 20
-667.50390625
 10
221.60546875
 20
-647.7099609375
 10
221.4287109375
 20
-647.9716796875
 10
221.2490234375
 20
-648.234375
 10
221.07275390625
 20
-648.4892578125
 10
209.18505859375
 20
-666.09375
 10
205.78515625
 20
-692.5615234375
 10
222.90625
 20
-706.9423828125
 10
225.08056640625
 20
-708.763671875
 10
227.8994140625
 20
-709.7763671875
 10
230.84619140625
 20
-709.7763671875
 10
234.89111328125
 20
-709.7763671875
 10
238.62890625
 20
-707.9619140625
 10
240.8408203125
 20
-704.9326171875
 10
242.87255859375
 20
-702.1513671875
 10
243.375
 20
-698.6796875
 10
242.24658203125
 20
-695.1484375
 10
236.15478515625
 20
-676.05078125
 10
231.75732421875
 20
-662.2548828125
 10
245.51171875
 20
-645.8046875
 10
248.20751953125
 20
-642.5888671875
 10
251.41650390625
 20
-639.5595703125
 10
255.244140625
 20
-636.6279296875
 10
258.970703125
 20
-651.2939453125
 10
269.90234375
 20
-664.3173828125
 10
279.75439453125
 20
-672.16015625
 10
290.31103515625
 20
-680.564453125
 10
302.92236328125
 20
-686.30859375
 10
319.357421875
 20
-690.1845703125
 10
343.8564453125
 20
-718.4287109375
 10
378.7099609375
 20
-734.59375
 10
415.1904296875
 20
-734.59375
 10
417.8017578125
 20
-734.59375
 10
420.423828125
 20
-734.4853515625
 10
423.05029296875
 20
-734.32421875
 10
422.38671875
 20
-776.8623046875
 10
420.62646484375
 20
-805.189453125
 10
417.77001953125
 20
-819.1875
 10
414.03955078125
 20
-837.4150390625
 10
405.6123046875
 20
-850.8505859375
 10
392.47998046875
 20
-859.4736328125
 10
379.33984375
 20
-868.095703125
 10
355.7236328125
 20
-872.4072265625
 10
321.6123046875
 20
-872.4072265625
 10
321.6123046875
 20
-872.4072265625
 10
280.4443359375
 20
-872.4072265625
 10
280.4443359375
 20
-872.4072265625
 10
280.4443359375
 20
-872.4072265625
 10
280.4443359375
 20
-899.458984375
 10
280.4443359375
 20
-899.458984375
 10
280.4443359375
 20
-899.458984375
 10
678.0107421875
 20
-899.458984375
 10
678.0107421875
 20
-899.458984375
 10
678.0107421875
 20
-899.458984375
 10
678.0107421875
 20
-872.4072265625
 10
678.0107421875
 20
-872.4072265625
 10
678.0107421875
 20
-872.4072265625
 10
639.1943359375
 20
-872.4072265625
 10
639.1943359375
 20
-872.4072265625
 10
603.5126953125
 20
-872.4072265625
 10
579.205078125
 20
-867.7060546875
 10
566.271484375
 20
-858.2958984375
 10
553.330078125
 20
-848.88671875
 10
545.3896484375
 20
-834.3857421875
 10
542.4501953125
 20
-814.771484375
 10
542.01953125
 20
-811.892578125
 10
541.6220703125
 20
-808.49609375
 10
541.2548828125
 20
-804.7021484375
 10
546.986328125
 20
-808.0908203125
 10
553.5322265625
 20
-810.7978515625
 10
560.5986328125
 20
-811.044921875
 10
565.1767578125
 20
-811.044921875
 10
568.8955078125
 20
-807.84375
 10
569.85546875
 20
-803.0751953125
 10
570.8896484375
 20
-797.931640625
 10
568.4345703125
 20
-792.85546875
 10
564.025390625
 20
-791.00390625
 10
560.216796875
 20
-789.4140625
 10
556.3330078125
 20
-788.5068359375
 10
552.576171875
 20
-787.63671875
 10
548.5048828125
 20
-786.6923828125
 10
544.658203125
 20
-785.79296875
 10
541.052734375
 20
-784.09765625
 10
540.6064453125
 20
-783.8876953125
 10
540.1787109375
 20
-783.6328125
 10
539.748046875
 20
-783.3935546875
 10
539.451171875
 20
-777.5751953125
 10
539.1962890625
 20
-771.134765625
 10
538.9716796875
 20
-764.1806640625
 10
541.3935546875
 20
-762.6396484375
 10
543.1328125
 20
-759.8916015625
 10
543.3388671875
 20
-756.509765625
 10
543.5830078125
 20
-752.5439453125
 10
541.689453125
 20
-749.2705078125
 10
538.5517578125
 20
-747.73046875
 10
538.2294921875
 20
-732.3779296875
 10
538.064453125
 20
-714.8447265625
 10
538.0458984375
 20
-695.1064453125
 10
555.0390625
 20
-690.4130859375
 10
571.7294921875
 20
-683.2158203125
 10
587.013671875
 20
-675.916015625
 10
599.0546875
 20
-699.4072265625
 10
615.9853515625
 20
-720.828125
 10
632.802734375
 20
-733.716796875
 10
652.2294921875
 20
-748.615234375
 10
676.5146484375
 20
-756.8173828125
 10
701.1826171875
 20
-756.8173828125
 10
718.060546875
 20
-756.8173828125
 10
734.884765625
 20
-752.9111328125
 10
749.8505859375
 20
-745.5107421875
 10
757.3447265625
 20
-741.806640625
 10
764.4716796875
 20
-736.9853515625
 10
771.4365234375
 20
-730.8974609375
 10
770.064453125
 20
-741.109375
 10
769.65234375
 20
-753.1806640625
 10
774.58984375
 20
-763.2734375
 10
776.408203125
 20
-766.9765625
 10
779.830078125
 20
-769.1025390625
 10
783.98046875
 20
-769.1025390625
 10
787.556640625
 20
-769.1025390625
 10
791.16015625
 20
-767.486328125
 10
793.619140625
 20
-764.787109375
 10
795.796875
 20
-762.3955078125
 10
796.83984375
 20
-759.388671875
 10
796.55078125
 20
-756.330078125
 10
796.08984375
 20
-751.44921875
 10
794.8525390625
 20
-746.845703125
 10
793.65234375
 20
-742.3837890625
 10
792.3330078125
 20
-737.47265625
 10
791.0888671875
 20
-732.83203125
 10
790.8408203125
 20
-727.943359375
 10
790.646484375
 20
-724.0146484375
 10
791.3662109375
 20
-720.0185546875
 10
792.134765625
 20
-715.7822265625
 10
792.6484375
 20
-712.9404296875
 10
793.1806640625
 20
-710.0166015625
 10
793.427734375
 20
-707.0400390625
 10
797.6494140625
 20
-701.6259765625
 10
801.75
 20
-695.98828125
 10
805.7431640625
 20
-690.447265625
 10
805.7919921875
 20
-697.7646484375
 10
806.841796875
 20
-704.212890625
 10
807.486328125
 20
-707.52734375
 10
808.3896484375
 20
-712.1083984375
 10
812.0673828125
 20
-715.0625
 10
816.8662109375
 20
-715.0625
 10
820.6748046875
 20
-715.0625
 10
824.453125
 20
-713.150390625
 10
826.482421875
 20
-710.1962890625
 10
828.29296875
 20
-707.556640625
 10
828.623046875
 20
-704.3779296875
 10
827.408203125
 20
-701.244140625
 10
825.1396484375
 20
-695.365234375
 10
823.2392578125
 20
-690.0048828125
 10
822.984375
 20
-683.96875
 10
822.890625
 20
-681.7041015625
 10
822.9921875
 20
-679.3955078125
 10
823.103515625
 20
-676.951171875
 10
823.24609375
 20
-673.7197265625
 10
823.396484375
 20
-670.390625
 10
823.06640625
 20
-667.0390625
 10
826.275390625
 20
-662.998046875
 10
829.3203125
 20
-659.4140625
 10
832.3115234375
 20
-656.1591796875
 10
832.2548828125
 20
-664.099609375
 10
834.365234375
 20
-671.919921875
 10
838.3994140625
 20
-677.6484375
 10
840.423828125
 20
-680.5419921875
 10
844.427734375
 20
-681.8544921875
 10
847.513671875
 20
-680.5947265625
 10
848.8291015625
 20
-680.0703125
 10
849.67578125
 20
-679.3876953125
 10
850.4111328125
 20
-678.720703125
 10
852.5107421875
 20
-676.7861328125
 10
853.255859375
 20
-673.2919921875
 10
852.146484375
 20
-670.5849609375
 10
852.146484375
 20
-670.5849609375
 10
851.9482421875
 20
-670.10546875
 10
851.9482421875
 20
-670.10546875
 10
849.7734375
 20
-664.8046875
 10
847.8916015625
 20
-660.2236328125
 10
847.966796875
 20
-654.7802734375
 10
848.0419921875
 20
-649.07421875
 10
850.193359375
 20
-643.7060546875
 10
852.326171875
 20
-638.501953125
 10
853.6796875
 20
-637.572265625
 10
855.0556640625
 20
-636.6728515625
 10
856.47265625
 20
-635.818359375
 10
866.396484375
 20
-629.8349609375
 10
878.4755859375
 20
-626.408203125
 10
889.6015625
 20
-626.408203125
 10
900.7509765625
 20
-626.408203125
 10
920.5
 20
-629.8349609375
 10
927.4580078125
 20
-652.79296875
 10
931.619140625
 20
-666.529296875
 10
926.619140625
 20
-681.9072265625
 10
915.57421875
 20
-689.3525390625
 10
908.8115234375
 20
-693.9033203125
 10
901.283203125
 20
-694.3310546875
 10
895.1875
 20
-690.4765625
 10
891.994140625
 20
-688.4150390625
 10
889.556640625
 20
-685.693359375
 10
887.6826171875
 20
-682.056640625
 10
887.4951171875
 20
-681.7197265625
 10
887.326171875
 20
-681.3818359375
 10
887.1728515625
 20
-681.044921875
 10
887.20703125
 20
-681.044921875
 10
887.240234375
 20
-681.044921875
 10
887.27734375
 20
-681.044921875
 10
892.818359375
 20
-681.044921875
 10
898.0517578125
 20
-678.533203125
 10
901.2685546875
 20
-674.3193359375
 10
904.552734375
 20
-670.0234375
 10
905.44140625
 20
-664.3017578125
 10
903.7802734375
 20
-658.19921875
 10
901.6953125
 20
-650.5439453125
 10
895.240234375
 20
-645.5947265625
 10
887.330078125
 20
-645.5947265625
 10
884.5185546875
 20
-645.5947265625
 10
881.6396484375
 20
-646.240234375
 10
878.9921875
 20
-647.4619140625
 10
867.1123046875
 20
-652.943359375
 10
863.693359375
 20
-667.0693359375
 10
864.3720703125
 20
-677.498046875
 10
865.736328125
 20
-698.484375
 10
883.375
 20
-715.564453125
 10
903.6904296875
 20
-715.564453125
 10
906.025390625
 20
-715.564453125
 10
908.369140625
 20
-715.33203125
 10
910.6591796875
 20
-714.875
 10
932.12890625
 20
-710.5859375
 10
949.404296875
 20
-688.2724609375
 10
949.9814453125
 20
-664.0771484375
 10
950.56640625
 20
-639.8896484375
 10
935.4208984375
 20
-617.095703125
 10
913.14453125
 20
-608.630859375
 97
        0
 92
        1
 93
        1
 72
     4
 94
        3
 73
     0
 74
     1
 95
       23
 96
       19
 40
0.0
 40
0.0
 40
0.0
 40
0.0
 40
1.0
 40
1.0
 40
1.0
 40
2.0
 40
2.0
 40
2.0
 40
3.0
 40
3.0
 40
3.0
 40
4.0
 40
4.0
 40
4.0
 40
5.0
 40
5.0
 40
5.0
 40
6.0
 40
6.0
 40
6.0
 40
6.0
 10
284.177734375
 20
-658.0185546875
 10
275.3271484375
 20
-650.041015625
 10
270.037109375
 20
-640.9619140625
 10
267.244140625
 20
-628.8603515625
 10
271.65673828125
 20
-626.3857421875
 10
276.1328125
 20
-624.181640625
 10
280.0615234375
 20
-622.2919921875
 10
281.17138671875
 20
-622.037109375
 10
282.28125
 20
-621.796875
 10
283.38671875
 20
-621.564453125
 10
283.38671875
 20
-621.564453125
 10
287.8671875
 20
-621.564453125
 10
287.8671875
 20
-621.564453125
 10
290.3564453125
 20
-639.0341796875
 10
296.42919921875
 20
-655.9873046875
 10
305.6591796875
 20
-671.3046875
 10
297.26904296875
 20
-667.833984375
 10
290.18359375
 20
-663.4404296875
 10
284.177734375
 20
-658.0185546875
 97
        0
 92
        1
 93
        1
 72
     4
 94
        3
 73
     0
 74
     1
 95
       26
 96
       22
 40
0.0
 40
0.0
 40
0.0
 40
0.0
 40
1.0
 40
1.0
 40
1.0
 40
2.0
 40
2.0
 40
2.0
 40
3.0
 40
3.0
 40
3.0
 40
4.0
 40
4.0
 40
4.0
 40
5.0
 40
5.0
 40
5.0
 40
6.0
 40
6.0
 40
6.0
 40
7.0
 40
7.0
 40
7.0
 40
7.0
 10
330.76171875
 20
-678.435546875
 10
313.734375
 20
-658.84375
 10
304.4296875
 20
-638.3974609375
 10
304.78955078125
 20
-621.564453125
 10
304.78955078125
 20
-621.564453125
 10
423.357421875
 20
-621.564453125
 10
423.357421875
 20
-621.564453125
 10
423.357421875
 20
-621.564453125
 10
423.357421875
 20
-691.8564453125
 10
423.357421875
 20
-691.8564453125
 10
423.357421875
 20
-692.16796875
 10
423.35546875
 20
-692.4560546875
 10
423.35546875
 20
-692.763671875
 10
404.45947265625
 20
-688.5947265625
 10
385.49560546875
 20
-686.0986328125
 10
366.923828125
 20
-683.6611328125
 10
357.04150390625
 20
-682.3642578125
 10
346.822265625
 20
-681.0224609375
 10
336.70751953125
 20
-679.447265625
 10
334.720703125
 20
-679.1328125
 10
332.7412109375
 20
-678.802734375
 10
330.76171875
 20
-678.435546875
 97
        0
 92
        1
 93
        1
 72
     4
 94
        3
 73
     0
 74
     1
 95
       23
 96
       19
 40
0.0
 40
0.0
 40
0.0
 40
0.0
 40
1.0
 40
1.0
 40
1.0
 40
2.0
 40
2.0
 40
2.0
 40
3.0
 40
3.0
 40
3.0
 40
4.0
 40
4.0
 40
4.0
 40
5.0
 40
5.0
 40
5.0
 40
6.0
 40
6.0
 40
6.0
 40
6.0
 10
383.625
 20
-716.5244140625
 10
372.7978515625
 20
-713.4130859375
 10
359.7255859375
 20
-705.5625
 10
347.287109375
 20
-694.86328125
 10
349.9111328125
 20
-695.193359375
 10
352.52783203125
 20
-695.5009765625
 10
355.10693359375
 20
-695.8076171875
 10
358.78857421875
 20
-696.2431640625
 10
362.447265625
 20
-696.677734375
 10
366.06884765625
 20
-697.150390625
 10
386.7236328125
 20
-699.841796875
 10
405.87255859375
 20
-704.1982421875
 10
423.30126953125
 20
-710.158203125
 10
423.2841796875
 20
-713.2548828125
 10
423.26171875
 20
-716.302734375
 10
423.23583984375
 20
-719.279296875
 10
409.1435546875
 20
-720.734375
 10
395.25
 20
-719.8603515625
 10
383.625
 20
-716.5244140625
 97
        0
 92
        1
 93
        1
 72
     4
 94
        3
 73
     0
 74
     1
 95
       17
 96
       13
 40
0.0
 40
0.0
 40
0.0
 40
0.0
 40
1.0
 40
1.0
 40
1.0
 40
2.0
 40
2.0
 40
2.0
 40
3.0
 40
3.0
 40
3.0
 40
4.0
 40
4.0
 40
4.0
 40
4.0
 10
538.0419921875
 20
-675.4365234375
 10
538.0419921875
 20
-675.4365234375
 10
538.0419921875
 20
-621.564453125
 10
538.0419921875
 20
-621.564453125
 10
538.0419921875
 20
-621.564453125
 10
570.3349609375
 20
-621.564453125
 10
570.3349609375
 20
-621.564453125
 10
571.185546875
 20
-633.2392578125
 10
574.2001953125
 20
-645.767578125
 10
579.3212890625
 20
-658.9033203125
 10
566.9755859375
 20
-664.9921875
 10
553.1083984375
 20
-671.1103515625
 10
538.0419921875
 20
-675.4365234375
 97
        0
 92
        1
 93
        1
 72
     4
 94
        3
 73
     0
 74
     1
 95
       20
 96
       16
 40
0.0
 40
0.0
 40
0.0
 40
0.0
 40
1.0
 40
1.0
 40
1.0
 40
2.0
 40
2.0
 40
2.0
 40
3.0
 40
3.0
 40
3.0
 40
4.0
 40
4.0
 40
4.0
 40
5.0
 40
5.0
 40
5.0
 40
5.0
 10
589.912109375
 20
-623.1318359375
 10
589.912109375
 20
-623.1318359375
 10
589.4658203125
 20
-621.564453125
 10
589.4658203125
 20
-621.564453125
 10
589.4658203125
 20
-621.564453125
 10
653.5341796875
 20
-621.564453125
 10
653.5341796875
 20
-621.564453125
 10
637.234375
 20
-628.3125
 10
621.548828125
 20
-636.6953125
 10
606.234375
 20
-644.890625
 10
603.4111328125
 20
-646.3974609375
 10
600.5888671875
 20
-647.912109375
 10
597.76171875
 20
-649.4111328125
 10
594.916015625
 20
-640.662109375
 10
592.37890625
 20
-631.76953125
 10
589.912109375
 20
-623.1318359375
 97
        0
 92
        1
 93
        1
 72
     4
 94
        3
 73
     0
 74
     1
 95
       80
 96
       76
 40
0.0
 40
0.0
 40
0.0
 40
0.0
 40
1.0
 40
1.0
 40
1.0
 40
2.0
 40
2.0
 40
2.0
 40
3.0
 40
3.0
 40
3.0
 40
4.0
 40
4.0
 40
4.0
 40
5.0
 40
5.0
 40
5.0
 40
6.0
 40
6.0
 40
6.0
 40
7.0
 40
7.0
 40
7.0
 40
8.0
 40
8.0
 40
8.0
 40
9.0
 40
9.0
 40
9.0
 40
10.0
 40
10.0
 40
10.0
 40
11.0
 40
11.0
 40
11.0
 40
12.0
 40
12.0
 40
12.0
 40
13.0
 40
13.0
 40
13.0
 40
14.0
 40
14.0
 40
14.0
 40
15.0
 40
15.0
 40
15.0
 40
16.0
 40
16.0
 40
16.0
 40
17.0
 40
17.0
 40
17.0
 40
18.0
 40
18.0
 40
18.0
 40
19.0
 40
19.0
 40
19.0
 40
20.0
 40
20.0
 40
20.0
 40
21.0
 40
21.0
 40
21.0
 40
22.0
 40
22.0
 40
22.0
 40
23.0
 40
23.0
 40
23.0
 40
24.0
 40
24.0
 40
24.0
 40
25.0
 40
25.0
 40
25.0
 40
25.0
 10
837.365234375
 20
-624.9765625
 10
820.2021484375
 20
-638.591796875
 10
807.8349609375
 20
-656.7666015625
 10
795.8759765625
 20
-674.341796875
 10
790.2451171875
 20
-682.619140625
 10
784.4228515625
 20
-691.173828125
 10
778.2001953125
 20
-699.091796875
 10
757.73046875
 20
-725.154296875
 10
731.263671875
 20
-738.9873046875
 10
701.3173828125
 20
-739.0849609375
 10
672.1435546875
 20
-739.0849609375
 10
644.9375
 20
-726.166015625
 10
624.701171875
 20
-702.6982421875
 10
616.9599609375
 20
-693.7236328125
 10
610.2646484375
 20
-682.162109375
 10
604.28125
 20
-667.4140625
 10
606.7294921875
 20
-666.1767578125
 10
609.150390625
 20
-664.9541015625
 10
611.5390625
 20
-663.7470703125
 10
621.125
 20
-658.888671875
 10
630.1787109375
 20
-654.2998046875
 10
638.41796875
 20
-650.5810546875
 10
662.021484375
 20
-639.9267578125
 10
687.1318359375
 20
-630.0673828125
 10
710.787109375
 20
-630.0673828125
 10
722.2216796875
 20
-630.0673828125
 10
732.4111328125
 20
-632.4892578125
 10
741.0673828125
 20
-637.2802734375
 10
756.42578125
 20
-645.767578125
 10
762.904296875
 20
-663.40234375
 10
756.82421875
 20
-680.15234375
 10
753.5546875
 20
-689.1494140625
 10
747.353515625
 20
-695.7177734375
 10
739.357421875
 20
-698.634765625
 10
733.4453125
 20
-700.7939453125
 10
729.06640625
 20
-701.056640625
 10
725.759765625
 20
-699.4443359375
 10
723.3349609375
 20
-698.267578125
 10
720.4033203125
 20
-695.177734375
 10
719.8935546875
 20
-692.2314453125
 10
719.638671875
 20
-690.76953125
 10
720.0390625
 20
-689.5546875
 10
721.1494140625
 20
-688.4228515625
 10
725.5126953125
 20
-683.9609375
 10
726.7353515625
 20
-678.3681640625
 10
724.5078125
 20
-673.07421875
 10
722.17578125
 20
-667.5185546875
 10
716.5
 20
-663.6494140625
 10
710.705078125
 20
-663.6494140625
 10
706.17578125
 20
-663.6494140625
 10
702.2548828125
 20
-665.958984375
 10
699.66796875
 20
-670.150390625
 10
693.34375
 20
-680.4072265625
 10
692.3798828125
 20
-693.048828125
 10
697.0888671875
 20
-703.98046875
 10
701.771484375
 20
-714.8525390625
 10
711.1845703125
 20
-722.4775390625
 10
722.9111328125
 20
-724.9072265625
 10
725.7978515625
 20
-725.5068359375
 10
728.751953125
 20
-725.814453125
 10
731.68359375
 20
-725.814453125
 10
752.384765625
 20
-725.814453125
 10
772.943359375
 20
-710.1064453125
 10
780.5615234375
 20
-688.4677734375
 10
788.791015625
 20
-665.1123046875
 10
782.21875
 20
-639.125
 10
764.212890625
 20
-623.798828125
 10
763.3095703125
 20
-623.0341796875
 10
762.37890625
 20
-622.2841796875
 10
761.423828125
 20
-621.564453125
 10
761.423828125
 20
-621.564453125
 10
841.916015625
 20
-621.564453125
 10
841.916015625
 20
-621.564453125
 10
840.37109375
 20
-622.6591796875
 10
838.857421875
 20
-623.798828125
 10
837.365234375
 20
-624.9765625
 97
        0
 75
     2
 76
     1
 98
        0
  0
SPLINE
  5
55
330
3C
100
AcDbEntity
  8
Layer 1
370
     0
100
AcDbSpline
210
0.0
220
0.0
230
1.0
 70
    11
 71
     3
 72
   266
 73
   262
 74
     0
 42
0.0000000001
 43
0.0000000001
 40
0.0
 40
0.0
 40
0.0
 40
0.0
 40
1.0
 40
1.0
 40
1.0
 40
2.0
 40
2.0
 40
2.0
 40
3.0
 40
3.0
 40
3.0
 40
4.0
 40
4.0
 40
4.0
 40
5.0
 40
5.0
 40
5.0
 40
6.0
 40
6.0
 40
6.0
 40
7.0
 40
7.0
 40
7.0
 40
8.0
 40
8.0
 40
8.0
 40
9.0
 40
9.0
 40
9.0
 40
10.0
 40
10.0
 40
10.0
 40
11.0
 40
11.0
 40
11.0
 40
12.0
 40
12.0
 40
12.0
 40
13.0
 40
13.0
 40
13.0
 40
14.0
 40
14.0
 40
14.0
 40
15.0
 40
15.0
 40
15.0
 40
16.0
 40
16.0
 40
16.0
 40
17.0
 40
17.0
 40
17.0
 40
18.0
 40
18.0
 40
18.0
 40
19.0
 40
19.0
 40
19.0
 40
20.0
 40
20.0
 40
20.0
 40
21.0
 40
21.0
 40
21.0
 40
22.0
 40
22.0
 40
22.0
 40
23.0
 40
23.0
 40
23.0
 40
24.0
 40
24.0
 40
24.0
 40
25.0
 40
25.0
 40
25.0
 40
26.0
 40
26.0
 40
26.0
 40
27.0
 40
27.0
 40
27.0
 40
28.0
 40
28.0
 40
28.0
 40
29.0
 40
29.0
 40
29.0
 40
30.0
 40
30.0
 40
30.0
 40
31.0
 40
31.0
 40
31.0
 40
32.0
 40
32.0
 40
32.0
 40
33.0
 40
33.0
 40
33.0
 40
34.0
 40
34.0
 40
34.0
 40
35.0
 40
35.0
 40
35.0
 40
36.0
 40
36.0
 40
36.0
 40
37.0
 40
37.0
 40
37.0
 40
38.0
 40
38.0
 40
38.0
 40
39.0
 40
39.0
 40
39.0
 40
40.0
 40
40.0
 40
40.0
 40
41.0
 40
41.0
 40
41.0
 40
42.0
 40
42.0
 40
42.0
 40
43.0
 40
43.0
 40
43.0
 40
44.0
 40
44.0
 40
44.0
 40
45.0
 40
45.0
 40
45.0
 40
46.0
 40
46.0
 40
46.0
 40
47.0
 40
47.0
 40
47.0
 40
48.0
 40
48.0
 40
48.0
 40
49.0
 40
49.0
 40
49.0
 40
50.0
 40
50.0
 40
50.0
 40
51.0
 40
51.0
 40
51.0
 40
52.0
 40
52.0
 40
52.0
 40
53.0
 40
53.0
 40
53.0
 40
54.0
 40
54.0
 40
54.0
 40
55.0
 40
55.0
 40
55.0
 40
56.0
 40
56.0
 40
56.0
 40
57.0
 40
57.0
 40
57.0
 40
58.0
 40
58.0
 40
58.0
 40
59.0
 40
59.0
 40
59.0
 40
60.0
 40
60.0
 40
60.0
 40
61.0
 40
61.0
 40
61.0
 40
62.0
 40
62.0
 40
62.0
 40
63.0
 40
63.0
 40
63.0
 40
64.0
 40
64.0
 40
64.0
 40
65.0
 40
65.0
 40
65.0
 40
66.0
 40
66.0
 40
66.0
 40
67.0
 40
67.0
 40
67.0
 40
68.0
 40
68.0
 40
68.0
 40
69.0
 40
69.0
 40
69.0
 40
70.0
 40
70.0
 40
70.0
 40
71.0
 40
71.0
 40
71.0
 40
72.0
 40
72.0
 40
72.0
 40
73.0
 40
73.0
 40
73.0
 40
74.0
 40
74.0
 40
74.0
 40
75.0
 40
75.0
 40
75.0
 40
76.0
 40
76.0
 40
76.0
 40
77.0
 40
77.0
 40
77.0
 40
78.0
 40
78.0
 40
78.0
 40
79.0
 40
79.0
 40
79.0
 40
80.0
 40
80.0
 40
80.0
 40
81.0
 40
81.0
 40
81.0
 40
82.0
 40
82.0
 40
82.0
 40
83.0
 40
83.0
 40
83.0
 40
84.0
 40
84.0
 40
84.0
 40
85.0
 40
85.0
 40
85.0
 40
86.0
 40
86.0
 40
86.0
 40
87.0
 40
87.0
 40
87.0
 40
87.0
 10
903.3046875
 20
-466.0380859375
 30
0.0
 10
903.3046875
 20
-466.0380859375
 30
0.0
 10
903.3046875
 20
-448.88330078125
 30
0.0
 10
903.3046875
 20
-448.88330078125
 30
0.0
 10
903.3046875
 20
-448.88330078125
 30
0.0
 10
760.6513671875
 20
-448.88330078125
 30
0.0
 10
760.6513671875
 20
-448.88330078125
 30
0.0
 10
770.6904296875
 20
-443.912109375
 30
0.0
 10
780.2734375
 20
-437.94384765625
 30
0.0
 10
789.30078125
 20
-431.03125
 30
0.0
 10
797.904296875
 20
-427.0498046875
 30
0.0
 10
805.1396484375
 20
-424.0283203125
 30
0.0
 10
812.888671875
 20
-424.0283203125
 30
0.0
 10
816.5771484375
 20
-424.0283203125
 30
0.0
 10
820.1611328125
 20
-424.71044921875
 30
0.0
 10
823.853515625
 20
-426.12744140625
 30
0.0
 10
828.3037109375
 20
-427.82177734375
 30
0.0
 10
834.0810546875
 20
-430.1689453125
 30
0.0
 10
839.2958984375
 20
-433.25048828125
 30
0.0
 10
839.2958984375
 20
-433.25048828125
 30
0.0
 10
841.21484375
 20
-434.4052734375
 30
0.0
 10
841.21484375
 20
-434.4052734375
 30
0.0
 10
845.046875
 20
-436.744140625
 30
0.0
 10
848.66015625
 20
-438.94873046875
 30
0.0
 10
854.673828125
 20
-439.11328125
 30
0.0
 10
857.4814453125
 20
-439.11328125
 30
0.0
 10
860.1171875
 20
-437.81640625
 30
0.0
 10
861.9013671875
 20
-435.5595703125
 30
0.0
 10
863.775390625
 20
-433.1826171875
 30
0.0
 10
864.48828125
 20
-430.0263671875
 30
0.0
 10
863.791015625
 20
-427.109375
 30
0.0
 10
859.3896484375
 20
-408.68017578125
 30
0.0
 10
834.458984375
 20
-407.248046875
 30
0.0
 10
826.923828125
 20
-407.248046875
 30
0.0
 10
824.4501953125
 20
-407.248046875
 30
0.0
 10
822.04296875
 20
-407.37548828125
 30
0.0
 10
819.771484375
 20
-407.63037109375
 30
0.0
 10
817.916015625
 20
-407.8330078125
 30
0.0
 10
815.6884765625
 20
-408.1474609375
 30
0.0
 10
813.203125
 20
-408.63525390625
 30
0.0
 10
814.2568359375
 20
-407.4052734375
 30
0.0
 10
815.294921875
 20
-406.1533203125
 30
0.0
 10
816.3076171875
 20
-404.87890625
 30
0.0
 10
817.12890625
 20
-404.57861328125
 30
0.0
 10
817.84765625
 20
-404.0537109375
 30
0.0
 10
818.3916015625
 20
-403.333984375
 30
0.0
 10
821.1806640625
 20
-399.6376953125
 30
0.0
 10
824.044921875
 20
-395.6337890625
 30
0.0
 10
827.013671875
 20
-391.4951171875
 30
0.0
 10
845.5859375
 20
-365.560546875
 30
0.0
 10
866.71484375
 20
-336.06396484375
 30
0.0
 10
898.4384765625
 20
-338.38818359375
 30
0.0
 10
898.8017578125
 20
-338.41845703125
 30
0.0
 10
899.158203125
 20
-338.43310546875
 30
0.0
 10
899.5029296875
 20
-338.43310546875
 30
0.0
 10
899.5029296875
 20
-338.43310546875
 30
0.0
 10
899.5029296875
 20
-338.43310546875
 30
0.0
 10
899.5068359375
 20
-338.43310546875
 30
0.0
 10
905.845703125
 20
-338.43310546875
 30
0.0
 10
910.4873046875
 20
-333.8896484375
 30
0.0
 10
910.787109375
 20
-327.38916015625
 30
0.0
 10
911.076171875
 20
-321.19580078125
 30
0.0
 10
907.0341796875
 20
-314.21533203125
 30
0.0
 10
898.978515625
 20
-313.4658203125
 30
0.0
 10
878.126953125
 20
-311.53125
 30
0.0
 10
863.521484375
 20
-324.5849609375
 30
0.0
 10
852.1689453125
 20
-337.30126953125
 30
0.0
 10
849.6123046875
 20
-340.1650390625
 30
0.0
 10
846.99609375
 20
-343.11181640625
 30
0.0
 10
844.3681640625
 20
-346.14111328125
 30
0.0
 10
849.458984375
 20
-320.91845703125
 30
0.0
 10
845.96875
 20
-296.35546875
 30
0.0
 10
834.091796875
 20
-275.5341796875
 30
0.0
 10
830.927734375
 20
-269.9931640625
 30
0.0
 10
827.0888671875
 20
-264.7373046875
 30
0.0
 10
822.6767578125
 20
-259.9013671875
 30
0.0
 10
822.544921875
 20
-257.2548828125
 30
0.0
 10
822.2158203125
 20
-254.65283203125
 30
0.0
 10
821.896484375
 20
-252.11865234375
 30
0.0
 10
821.50390625
 20
-248.984375
 30
0.0
 10
821.12890625
 20
-246.02294921875
 30
0.0
 10
821.12109375
 20
-243.09130859375
 30
0.0
 10
821.0908203125
 20
-234.2705078125
 30
0.0
 10
823.115234375
 20
-226.55859375
 30
0.0
 10
827.583984375
 20
-218.2509765625
 30
0.0
 10
834.8720703125
 20
-238.6826171875
 30
0.0
 10
841.080078125
 20
-263.82275390625
 30
0.0
 10
846.2119140625
 20
-293.701171875
 30
0.0
 10
846.2119140625
 20
-293.701171875
 30
0.0
 10
871.498046875
 20
-293.701171875
 30
0.0
 10
871.498046875
 20
-293.701171875
 30
0.0
 10
871.498046875
 20
-293.701171875
 30
0.0
 10
867.3828125
 20
-101.9755859375
 30
0.0
 10
867.3828125
 20
-101.9755859375
 30
0.0
 10
867.3828125
 20
-101.9755859375
 30
0.0
 10
93.4228515625
 20
-101.9755859375
 30
0.0
 10
93.4228515625
 20
-101.9755859375
 30
0.0
 10
93.4228515625
 20
-101.9755859375
 30
0.0
 10
89.306640625
 20
-293.701171875
 30
0.0
 10
89.306640625
 20
-293.701171875
 30
0.0
 10
89.306640625
 20
-293.701171875
 30
0.0
 10
116.3603515625
 20
-293.701171875
 30
0.0
 10
116.3603515625
 20
-293.701171875
 30
0.0
 10
124.59326171875
 20
-243.12109375
 30
0.0
 10
136.44921875
 20
-205.482421875
 30
0.0
 10
151.94140625
 20
-180.77734375
 30
0.0
 10
167.42626953125
 20
-156.07958984375
 30
0.0
 10
183.994140625
 20
-141.2861328125
 30
0.0
 10
201.63671875
 20
-136.37548828125
 30
0.0
 10
219.28076171875
 20
-131.4794921875
 30
0.0
 10
253.7783203125
 20
-129.02734375
 30
0.0
 10
305.1455078125
 20
-129.02734375
 30
0.0
 10
305.1455078125
 20
-129.02734375
 30
0.0
 10
423.357421875
 20
-129.02734375
 30
0.0
 10
423.357421875
 20
-129.02734375
 30
0.0
 10
423.357421875
 20
-129.02734375
 30
0.0
 10
423.357421875
 20
-389.71826171875
 30
0.0
 10
423.357421875
 20
-389.71826171875
 30
0.0
 10
419.83935546875
 20
-391.3037109375
 30
0.0
 10
416.37158203125
 20
-392.919921875
 30
0.0
 10
412.978515625
 20
-394.5390625
 30
0.0
 10
400.9375
 20
-371.041015625
 30
0.0
 10
384.00341796875
 20
-349.6201171875
 30
0.0
 10
367.18994140625
 20
-336.73876953125
 30
0.0
 10
347.7626953125
 20
-321.8408203125
 30
0.0
 10
323.4775390625
 20
-313.63818359375
 30
0.0
 10
298.81005859375
 20
-313.63818359375
 30
0.0
 10
281.93603515625
 20
-313.63818359375
 30
0.0
 10
265.107421875
 20
-317.54443359375
 30
0.0
 10
250.1416015625
 20
-324.94482421875
 30
0.0
 10
242.6552734375
 20
-328.6484375
 30
0.0
 10
235.52490234375
 20
-333.46240234375
 30
0.0
 10
228.5517578125
 20
-339.55810546875
 30
0.0
 10
229.927734375
 20
-329.345703125
 30
0.0
 10
230.34375
 20
-317.2744140625
 30
0.0
 10
225.39892578125
 20
-307.1826171875
 30
0.0
 10
223.5810546875
 20
-303.478515625
 30
0.0
 10
220.162109375
 20
-301.34912109375
 30
0.0
 10
216.0078125
 20
-301.34912109375
 30
0.0
 10
212.435546875
 20
-301.34912109375
 30
0.0
 10
208.8330078125
 20
-302.96875
 30
0.0
 10
206.37353515625
 20
-305.66796875
 30
0.0
 10
204.19921875
 20
-308.0595703125
 30
0.0
 10
203.15673828125
 20
-311.06640625
 30
0.0
 10
203.4453125
 20
-314.1181640625
 30
0.0
 10
203.90283203125
 20
-319.01416015625
 30
0.0
 10
205.1435546875
 20
-323.625
 30
0.0
 10
206.34326171875
 20
-328.08642578125
 30
0.0
 10
207.6591796875
 20
-332.98974609375
 30
0.0
 10
208.90380859375
 20
-337.630859375
 30
0.0
 10
209.1513671875
 20
-342.51220703125
 30
0.0
 10
209.35009765625
 20
-346.4482421875
 30
0.0
 10
208.623046875
 20
-350.4521484375
 30
0.0
 10
207.85791015625
 20
-354.6884765625
 30
0.0
 10
207.3408203125
 20
-357.5224609375
 30
0.0
 10
206.80859375
 20
-360.44677734375
 30
0.0
 10
206.564453125
 20
-363.408203125
 30
0.0
 10
202.33984375
 20
-368.8291015625
 30
0.0
 10
198.23828125
 20
-374.4677734375
 30
0.0
 10
194.24951171875
 20
-380.0087890625
 30
0.0
 10
194.197265625
 20
-372.6904296875
 30
0.0
 10
193.1513671875
 20
-366.2353515625
 30
0.0
 10
192.50244140625
 20
-362.9287109375
 30
0.0
 10
191.6025390625
 20
-358.34765625
 30
0.0
 10
187.92529296875
 20
-355.3857421875
 30
0.0
 10
183.13037109375
 20
-355.3857421875
 30
0.0
 10
179.3173828125
 20
-355.3857421875
 30
0.0
 10
175.54248046875
 20
-357.2978515625
 30
0.0
 10
173.5107421875
 20
-360.25927734375
 30
0.0
 10
171.70361328125
 20
-362.8984375
 30
0.0
 10
171.3740234375
 20
-366.07763671875
 30
0.0
 10
172.5810546875
 20
-369.2119140625
 30
0.0
 10
174.8525390625
 20
-375.08984375
 30
0.0
 10
176.75341796875
 20
-380.443359375
 30
0.0
 10
177.01220703125
 20
-386.486328125
 30
0.0
 10
177.10205078125
 20
-388.7431640625
 30
0.0
 10
177.0009765625
 20
-391.04541015625
 30
0.0
 10
176.89208984375
 20
-393.4892578125
 30
0.0
 10
176.74951171875
 20
-396.72119140625
 30
0.0
 10
176.599609375
 20
-400.0498046875
 30
0.0
 10
176.9296875
 20
-403.41650390625
 30
0.0
 10
173.720703125
 20
-407.4580078125
 30
0.0
 10
170.6728515625
 20
-411.0419921875
 30
0.0
 10
167.6845703125
 20
-414.2958984375
 30
0.0
 10
167.7373046875
 20
-406.36328125
 30
0.0
 10
165.626953125
 20
-398.53564453125
 30
0.0
 10
161.5966796875
 20
-392.80712890625
 30
0.0
 10
159.572265625
 20
-389.9130859375
 30
0.0
 10
155.62451171875
 20
-388.57861328125
 30
0.0
 10
152.46044921875
 20
-389.8603515625
 30
0.0
 10
151.11474609375
 20
-390.408203125
 30
0.0
 10
150.2451171875
 20
-391.1201171875
 30
0.0
 10
149.5927734375
 20
-391.7275390625
 30
0.0
 10
147.478515625
 20
-393.662109375
 30
0.0
 10
146.732421875
 20
-397.16357421875
 30
0.0
 10
147.849609375
 20
-399.8701171875
 30
0.0
 10
147.849609375
 20
-399.8701171875
 30
0.0
 10
148.029296875
 20
-400.30517578125
 30
0.0
 10
148.029296875
 20
-400.30517578125
 30
0.0
 10
150.2109375
 20
-405.62109375
 30
0.0
 10
152.0966796875
 20
-410.20947265625
 30
0.0
 10
152.02197265625
 20
-415.67578125
 30
0.0
 10
151.95068359375
 20
-421.3515625
 30
0.0
 10
149.8173828125
 20
-426.71240234375
 30
0.0
 10
147.666015625
 20
-431.953125
 30
0.0
 10
146.30859375
 20
-432.8828125
 30
0.0
 10
144.9365234375
 20
-433.78271484375
 30
0.0
 10
143.51953125
 20
-434.6376953125
 30
0.0
 10
133.599609375
 20
-440.62060546875
 30
0.0
 10
121.52099609375
 20
-444.046875
 30
0.0
 10
110.39453125
 20
-444.046875
 30
0.0
 10
99.2451171875
 20
-444.046875
 30
0.0
 10
79.49609375
 20
-440.62060546875
 30
0.0
 10
72.5380859375
 20
-417.662109375
 30
0.0
 10
68.369140625
 20
-403.9267578125
 30
0.0
 10
73.3701171875
 20
-388.55615234375
 30
0.0
 10
84.421875
 20
-381.10302734375
 30
0.0
 10
91.18115234375
 20
-376.54443359375
 30
0.0
 10
98.712890625
 20
-376.12451171875
 30
0.0
 10
104.80078125
 20
-379.978515625
 30
0.0
 10
108.00244140625
 20
-382.04052734375
 30
0.0
 10
110.44287109375
 20
-384.76220703125
 30
0.0
 10
112.31005859375
 20
-388.39111328125
 30
0.0
 10
112.49365234375
 20
-388.73583984375
 30
0.0
 10
112.666015625
 20
-389.0732421875
 30
0.0
 10
112.81982421875
 20
-389.41064453125
 30
0.0
 10
107.3427734375
 20
-389.3955078125
 30
0.0
 10
101.962890625
 20
-391.89990234375
 30
0.0
 10
98.72021484375
 20
-396.13623046875
 30
0.0
 10
95.443359375
 20
-400.4326171875
 30
0.0
 10
94.55126953125
 20
-406.1533203125
 30
0.0
 10
96.2158203125
 20
-412.25634765625
 30
0.0
 10
98.30029296875
 20
-419.91162109375
 30
0.0
 10
104.755859375
 20
-424.8525390625
 30
0.0
 10
112.662109375
 20
-424.8525390625
 30
0.0
 10
115.47021484375
 20
-424.8525390625
 30
0.0
 10
118.35693359375
 20
-424.21533203125
 30
0.0
 10
121.0
 20
-422.9931640625
 30
0.0
 10
132.8876953125
 20
-417.5126953125
 30
0.0
 10
136.302734375
 20
-403.38671875
 30
0.0
 10
135.61669921875
 20
-392.95703125
 30
0.0
 10
134.251953125
 20
-371.96337890625
 30
0.0
 10
116.6171875
 20
-354.890625
 30
0.0
 10
96.3056640625
 20
-354.890625
 30
0.0
 10
93.966796875
 20
-354.890625
 30
0.0
 10
91.62353515625
 20
-355.123046875
 30
0.0
 10
89.3369140625
 20
-355.58056640625
 30
0.0
 10
67.86669921875
 20
-359.86181640625
 30
0.0
 10
50.591796875
 20
-382.17529296875
 30
0.0
 10
50.0146484375
 20
-406.37060546875
 30
0.0
 10
49.4296875
 20
-430.56640625
 30
0.0
 10
64.5751953125
 20
-453.359375
 30
0.0
 10
86.85107421875
 20
-461.82421875
 30
0.0
 10
90.8173828125
 20
-463.32421875
 30
0.0
 10
94.97119140625
 20
-464.41845703125
 30
0.0
 10
99.2373046875
 20
-465.0859375
 30
0.0
 10
99.2373046875
 20
-465.0859375
 30
0.0
 10
99.2373046875
 20
-466.0380859375
 30
0.0
 10
99.2373046875
 20
-466.0380859375
 30
0.0
 10
99.2373046875
 20
-466.0380859375
 30
0.0
 10
903.3046875
 20
-466.0380859375
 30
0.0
 10
903.3046875
 20
-466.0380859375
 30
0.0
  0
SPLINE
  5
56
330
3C
100
AcDbEntity
  8
Layer 1
370
     0
100
AcDbSpline
210
0.0
220
0.0
230
1.0
 70
    11
 71
     3
 72
    80
 73
    76
 74
     0
 42
0.0000000001
 43
0.0000000001
 40
0.0
 40
0.0
 40
0.0
 40
0.0
 40
1.0
 40
1.0
 40
1.0
 40
2.0
 40
2.0
 40
2.0
 40
3.0
 40
3.0
 40
3.0
 40
4.0
 40
4.0
 40
4.0
 40
5.0
 40
5.0
 40
5.0
 40
6.0
 40
6.0
 40
6.0
 40
7.0
 40
7.0
 40
7.0
 40
8.0
 40
8.0
 40
8.0
 40
9.0
 40
9.0
 40
9.0
 40
10.0
 40
10.0
 40
10.0
 40
11.0
 40
11.0
 40
11.0
 40
12.0
 40
12.0
 40
12.0
 40
13.0
 40
13.0
 40
13.0
 40
14.0
 40
14.0
 40
14.0
 40
15.0
 40
15.0
 40
15.0
 40
16.0
 40
16.0
 40
16.0
 40
17.0
 40
17.0
 40
17.0
 40
18.0
 40
18.0
 40
18.0
 40
19.0
 40
19.0
 40
19.0
 40
20.0
 40
20.0
 40
20.0
 40
21.0
 40
21.0
 40
21.0
 40
22.0
 40
22.0
 40
22.0
 40
23.0
 40
23.0
 40
23.0
 40
24.0
 40
24.0
 40
24.0
 40
25.0
 40
25.0
 40
25.0
 40
25.0
 10
258.92529296875
 20
-433.17529296875
 30
0.0
 10
243.56982421875
 20
-424.68017578125
 30
0.0
 10
237.091796875
 20
-407.052734375
 30
0.0
 10
243.1728515625
 20
-390.29541015625
 30
0.0
 10
246.43408203125
 20
-381.3056640625
 30
0.0
 10
252.634765625
 20
-374.7373046875
 30
0.0
 10
260.634765625
 20
-371.82080078125
 30
0.0
 10
266.5546875
 20
-369.654296875
 30
0.0
 10
270.92578125
 20
-369.3994140625
 30
0.0
 10
274.23583984375
 20
-371.01123046875
 30
0.0
 10
276.65771484375
 20
-372.1884765625
 30
0.0
 10
279.58935546875
 20
-375.27734375
 30
0.0
 10
280.09912109375
 20
-378.22412109375
 30
0.0
 10
280.35400390625
 20
-379.68603515625
 30
0.0
 10
279.95703125
 20
-380.90087890625
 30
0.0
 10
278.84716796875
 20
-382.033203125
 30
0.0
 10
274.4833984375
 20
-386.494140625
 30
0.0
 10
273.25390625
 20
-392.08740234375
 30
0.0
 10
275.48046875
 20
-397.380859375
 30
0.0
 10
277.8125
 20
-402.92919921875
 30
0.0
 10
283.4921875
 20
-406.8056640625
 30
0.0
 10
289.28759765625
 20
-406.8056640625
 30
0.0
 10
293.81640625
 20
-406.8056640625
 30
0.0
 10
297.73779296875
 20
-404.49609375
 30
0.0
 10
300.328125
 20
-400.29736328125
 30
0.0
 10
306.65234375
 20
-390.0478515625
 30
0.0
 10
307.6162109375
 20
-377.40673828125
 30
0.0
 10
302.9072265625
 20
-366.47509765625
 30
0.0
 10
298.22509765625
 20
-355.60302734375
 30
0.0
 10
288.8115234375
 20
-347.970703125
 30
0.0
 10
277.0849609375
 20
-345.541015625
 30
0.0
 10
274.1982421875
 20
-344.94140625
 30
0.0
 10
271.244140625
 20
-344.6416015625
 30
0.0
 10
268.30517578125
 20
-344.6416015625
 30
0.0
 10
247.611328125
 20
-344.6416015625
 30
0.0
 10
227.05615234375
 20
-360.349609375
 30
0.0
 10
219.42724609375
 20
-381.98779296875
 30
0.0
 10
211.2060546875
 20
-405.34375
 30
0.0
 10
217.77734375
 20
-431.3310546875
 30
0.0
 10
235.77978515625
 20
-446.64892578125
 30
0.0
 10
236.68701171875
 20
-447.4208984375
 30
0.0
 10
237.61669921875
 20
-448.16357421875
 30
0.0
 10
238.56884765625
 20
-448.88330078125
 30
0.0
 10
238.56884765625
 20
-448.88330078125
 30
0.0
 10
158.080078125
 20
-448.88330078125
 30
0.0
 10
158.080078125
 20
-448.88330078125
 30
0.0
 10
159.6171875
 20
-447.7958984375
 30
0.0
 10
161.1357421875
 20
-446.65625
 30
0.0
 10
162.62744140625
 20
-445.4794921875
 30
0.0
 10
179.7939453125
 20
-431.86328125
 30
0.0
 10
192.15771484375
 20
-413.6884765625
 30
0.0
 10
204.11669921875
 20
-396.11376953125
 30
0.0
 10
209.74755859375
 20
-387.8359375
 30
0.0
 10
215.5693359375
 20
-379.28125
 30
0.0
 10
221.79248046875
 20
-371.36328125
 30
0.0
 10
242.265625
 20
-345.30126953125
 30
0.0
 10
268.732421875
 20
-331.4677734375
 30
0.0
 10
298.67138671875
 20
-331.36279296875
 30
0.0
 10
327.84130859375
 20
-331.36279296875
 30
0.0
 10
355.05859375
 20
-344.2890625
 30
0.0
 10
375.294921875
 20
-367.7568359375
 30
0.0
 10
383.025390625
 20
-376.716796875
 30
0.0
 10
389.720703125
 20
-388.2783203125
 30
0.0
 10
395.71142578125
 20
-403.0419921875
 30
0.0
 10
393.255859375
 20
-404.27880859375
 30
0.0
 10
390.830078125
 20
-405.5087890625
 30
0.0
 10
388.4384765625
 20
-406.7158203125
 30
0.0
 10
378.8564453125
 20
-411.57421875
 30
0.0
 10
369.81396484375
 20
-416.1552734375
 30
0.0
 10
361.57763671875
 20
-419.86669921875
 30
0.0
 10
337.970703125
 20
-430.5283203125
 30
0.0
 10
312.8681640625
 20
-440.38818359375
 30
0.0
 10
289.205078125
 20
-440.38818359375
 30
0.0
 10
277.77099609375
 20
-440.38818359375
 30
0.0
 10
267.58544921875
 20
-437.958984375
 30
0.0
 10
258.92529296875
 20
-433.17529296875
 30
0.0
  0
SPLINE
  5
57
330
3C
100
AcDbEntity
  8
Layer 1
370
     0
100
AcDbSpline
210
0.0
220
0.0
230
1.0
 70
    11
 71
     3
 72
    20
 73
    16
 74
     0
 42
0.0000000001
 43
0.0000000001
 40
0.0
 40
0.0
 40
0.0
 40
0.0
 40
1.0
 40
1.0
 40
1.0
 40
2.0
 40
2.0
 40
2.0
 40
3.0
 40
3.0
 40
3.0
 40
4.0
 40
4.0
 40
4.0
 40
5.0
 40
5.0
 40
5.0
 40
5.0
 10
346.45849609375
 20
-448.88330078125
 30
0.0
 10
362.7587890625
 20
-442.142578125
 30
0.0
 10
378.44384765625
 20
-433.7529296875
 30
0.0
 10
393.76171875
 20
-425.56494140625
 30
0.0
 10
396.5849609375
 20
-424.05078125
 30
0.0
 10
399.40771484375
 20
-422.54345703125
 30
0.0
 10
402.23046875
 20
-421.0439453125
 30
0.0
 10
405.06103515625
 20
-429.7412109375
 30
0.0
 10
407.587890625
 20
-438.5888671875
 30
0.0
 10
410.03955078125
 20
-447.173828125
 30
0.0
 10
410.03955078125
 20
-447.173828125
 30
0.0
 10
410.53076171875
 20
-448.88330078125
 30
0.0
 10
410.53076171875
 20
-448.88330078125
 30
0.0
 10
410.53076171875
 20
-448.88330078125
 30
0.0
 10
346.45849609375
 20
-448.88330078125
 30
0.0
 10
346.45849609375
 20
-448.88330078125
 30
0.0
  0
SPLINE
  5
58
330
3C
100
AcDbEntity
  8
Layer 1
370
     0
100
AcDbSpline
210
0.0
220
0.0
230
1.0
 70
    11
 71
     3
 72
    14
 73
    10
 74
     0
 42
0.0000000001
 43
0.0000000001
 40
0.0
 40
0.0
 40
0.0
 40
0.0
 40
1.0
 40
1.0
 40
1.0
 40
2.0
 40
2.0
 40
2.0
 40
3.0
 40
3.0
 40
3.0
 40
3.0
 10
547.939453125
 20
-429.0966796875
 30
0.0
 10
547.1220703125
 20
-435.61572265625
 30
0.0
 10
543.78515625
 20
-440.654296875
 30
0.0
 10
538.0419921875
 20
-444.095703125
 30
0.0
 10
538.0419921875
 20
-444.095703125
 30
0.0
 10
538.0419921875
 20
-402.39306640625
 30
0.0
 10
538.0419921875
 20
-402.39306640625
 30
0.0
 10
545.0673828125
 20
-409.58349609375
 30
0.0
 10
549.048828125
 20
-420.26806640625
 30
0.0
 10
547.939453125
 20
-429.0966796875
 30
0.0
  0
SPLINE
  5
59
330
3C
100
AcDbEntity
  8
Layer 1
370
     0
100
AcDbSpline
210
0.0
220
0.0
230
1.0
 70
    11
 71
     3
 72
    35
 73
    31
 74
     0
 42
0.0000000001
 43
0.0000000001
 40
0.0
 40
0.0
 40
0.0
 40
0.0
 40
1.0
 40
1.0
 40
1.0
 40
2.0
 40
2.0
 40
2.0
 40
3.0
 40
3.0
 40
3.0
 40
4.0
 40
4.0
 40
4.0
 40
5.0
 40
5.0
 40
5.0
 40
6.0
 40
6.0
 40
6.0
 40
7.0
 40
7.0
 40
7.0
 40
8.0
 40
8.0
 40
8.0
 40
9.0
 40
9.0
 40
9.0
 40
10.0
 40
10.0
 40
10.0
 40
10.0
 10
559.5302734375
 20
-448.88330078125
 30
0.0
 10
560.8916015625
 20
-446.9638671875
 30
0.0
 10
562.068359375
 20
-444.9169921875
 30
0.0
 10
563.0546875
 20
-442.75
 30
0.0
 10
572.958984375
 20
-420.93896484375
 30
0.0
 10
560.955078125
 20
-395.5966796875
 30
0.0
 10
543.6201171875
 20
-383.68994140625
 30
0.0
 10
541.8056640625
 20
-382.4453125
 30
0.0
 10
539.9462890625
 20
-381.29052734375
 30
0.0
 10
538.0419921875
 20
-380.21484375
 30
0.0
 10
538.0419921875
 20
-380.21484375
 30
0.0
 10
538.0419921875
 20
-366.14501953125
 30
0.0
 10
538.0419921875
 20
-366.14501953125
 30
0.0
 10
539.4814453125
 20
-366.7109375
 30
0.0
 10
540.8837890625
 20
-367.322265625
 30
0.0
 10
542.345703125
 20
-367.8544921875
 30
0.0
 10
572.3369140625
 20
-378.81640625
 30
0.0
 10
603.220703125
 20
-382.87255859375
 30
0.0
 10
633.083984375
 20
-386.7939453125
 30
0.0
 10
642.9619140625
 20
-388.09130859375
 30
0.0
 10
653.177734375
 20
-389.43310546875
 30
0.0
 10
663.28515625
 20
-391.0078125
 30
0.0
 10
665.271484375
 20
-391.3154296875
 30
0.0
 10
667.2509765625
 20
-391.65234375
 30
0.0
 10
669.2265625
 20
-392.02001953125
 30
0.0
 10
686.2578125
 20
-411.61181640625
 30
0.0
 10
695.5625
 20
-432.05810546875
 30
0.0
 10
695.203125
 20
-448.88330078125
 30
0.0
 10
695.203125
 20
-448.88330078125
 30
0.0
 10
559.5302734375
 20
-448.88330078125
 30
0.0
 10
559.5302734375
 20
-448.88330078125
 30
0.0
  0
SPLINE
  5
5A
330
3C
100
AcDbEntity
  8
Layer 1
370
     0
100
AcDbSpline
210
0.0
220
0.0
230
1.0
 70
    11
 71
     3
 72
    20
 73
    16
 74
     0
 42
0.0000000001
 43
0.0000000001
 40
0.0
 40
0.0
 40
0.0
 40
0.0
 40
1.0
 40
1.0
 40
1.0
 40
2.0
 40
2.0
 40
2.0
 40
3.0
 40
3.0
 40
3.0
 40
4.0
 40
4.0
 40
4.0
 40
5.0
 40
5.0
 40
5.0
 40
5.0
 10
560.15625
 20
-353.9462890625
 30
0.0
 10
579.572265625
 20
-349.32763671875
 30
0.0
 10
600.1650390625
 20
-349.28271484375
 30
0.0
 10
616.36328125
 20
-353.93115234375
 30
0.0
 10
627.1904296875
 20
-357.04296875
 30
0.0
 10
640.2666015625
 20
-364.89306640625
 30
0.0
 10
652.708984375
 20
-375.59228515625
 30
0.0
 10
650.07421875
 20
-375.2626953125
 30
0.0
 10
647.45703125
 20
-374.955078125
 30
0.0
 10
644.8779296875
 20
-374.6474609375
 30
0.0
 10
641.1962890625
 20
-374.205078125
 30
0.0
 10
637.541015625
 20
-373.7705078125
 30
0.0
 10
633.923828125
 20
-373.3056640625
 30
0.0
 10
606.515625
 20
-369.736328125
 30
0.0
 10
581.75390625
 20
-363.23583984375
 30
0.0
 10
560.15625
 20
-353.9462890625
 30
0.0
  0
SPLINE
  5
5B
330
3C
100
AcDbEntity
  8
Layer 1
370
     0
100
AcDbSpline
210
0.0
220
0.0
230
1.0
 70
    11
 71
     3
 72
    23
 73
    19
 74
     0
 42
0.0000000001
 43
0.0000000001
 40
0.0
 40
0.0
 40
0.0
 40
0.0
 40
1.0
 40
1.0
 40
1.0
 40
2.0
 40
2.0
 40
2.0
 40
3.0
 40
3.0
 40
3.0
 40
4.0
 40
4.0
 40
4.0
 40
5.0
 40
5.0
 40
5.0
 40
6.0
 40
6.0
 40
6.0
 40
6.0
 10
719.9306640625
 20
-448.16357421875
 30
0.0
 10
718.8212890625
 20
-448.4111328125
 30
0.0
 10
717.71875
 20
-448.65087890625
 30
0.0
 10
716.609375
 20
-448.88330078125
 30
0.0
 10
716.609375
 20
-448.88330078125
 30
0.0
 10
712.125
 20
-448.88330078125
 30
0.0
 10
712.125
 20
-448.88330078125
 30
0.0
 10
709.63671875
 20
-431.4208984375
 30
0.0
 10
703.5556640625
 20
-414.4609375
 30
0.0
 10
694.3369140625
 20
-399.150390625
 30
0.0
 10
702.7236328125
 20
-402.6220703125
 30
0.0
 10
709.80859375
 20
-407.015625
 30
0.0
 10
715.814453125
 20
-412.4365234375
 30
0.0
 10
724.662109375
 20
-420.40673828125
 30
0.0
 10
729.947265625
 20
-429.486328125
 30
0.0
 10
732.751953125
 20
-441.59521484375
 30
0.0
 10
728.3203125
 20
-444.0771484375
 30
0.0
 10
723.859375
 20
-446.27392578125
 30
0.0
 10
719.9306640625
 20
-448.16357421875
 30
0.0
  0
SPLINE
  5
5C
330
3C
100
AcDbEntity
  8
Layer 1
370
     0
100
AcDbSpline
210
0.0
220
0.0
230
1.0
 70
    11
 71
     3
 72
   152
 73
   148
 74
     0
 42
0.0000000001
 43
0.0000000001
 40
0.0
 40
0.0
 40
0.0
 40
0.0
 40
1.0
 40
1.0
 40
1.0
 40
2.0
 40
2.0
 40
2.0
 40
3.0
 40
3.0
 40
3.0
 40
4.0
 40
4.0
 40
4.0
 40
5.0
 40
5.0
 40
5.0
 40
6.0
 40
6.0
 40
6.0
 40
7.0
 40
7.0
 40
7.0
 40
8.0
 40
8.0
 40
8.0
 40
9.0
 40
9.0
 40
9.0
 40
10.0
 40
10.0
 40
10.0
 40
11.0
 40
11.0
 40
11.0
 40
12.0
 40
12.0
 40
12.0
 40
13.0
 40
13.0
 40
13.0
 40
14.0
 40
14.0
 40
14.0
 40
15.0
 40
15.0
 40
15.0
 40
16.0
 40
16.0
 40
16.0
 40
17.0
 40
17.0
 40
17.0
 40
18.0
 40
18.0
 40
18.0
 40
19.0
 40
19.0
 40
19.0
 40
20.0
 40
20.0
 40
20.0
 40
21.0
 40
21.0
 40
21.0
 40
22.0
 40
22.0
 40
22.0
 40
23.0
 40
23.0
 40
23.0
 40
24.0
 40
24.0
 40
24.0
 40
25.0
 40
25.0
 40
25.0
 40
26.0
 40
26.0
 40
26.0
 40
27.0
 40
27.0
 40
27.0
 40
28.0
 40
28.0
 40
28.0
 40
29.0
 40
29.0
 40
29.0
 40
30.0
 40
30.0
 40
30.0
 40
31.0
 40
31.0
 40
31.0
 40
32.0
 40
32.0
 40
32.0
 40
33.0
 40
33.0
 40
33.0
 40
34.0
 40
34.0
 40
34.0
 40
35.0
 40
35.0
 40
35.0
 40
36.0
 40
36.0
 40
36.0
 40
37.0
 40
37.0
 40
37.0
 40
38.0
 40
38.0
 40
38.0
 40
39.0
 40
39.0
 40
39.0
 40
40.0
 40
40.0
 40
40.0
 40
41.0
 40
41.0
 40
41.0
 40
42.0
 40
42.0
 40
42.0
 40
43.0
 40
43.0
 40
43.0
 40
44.0
 40
44.0
 40
44.0
 40
45.0
 40
45.0
 40
45.0
 40
46.0
 40
46.0
 40
46.0
 40
47.0
 40
47.0
 40
47.0
 40
48.0
 40
48.0
 40
48.0
 40
49.0
 40
49.0
 40
49.0
 40
49.0
 10
666.24609375
 20
-129.02734375
 30
0.0
 10
709.771484375
 20
-129.02734375
 30
0.0
 10
740.5419921875
 20
-131.67431640625
 30
0.0
 10
758.58203125
 20
-136.9677734375
 30
0.0
 10
776.6142578125
 20
-142.26123046875
 30
0.0
 10
793.4765625
 20
-156.57421875
 30
0.0
 10
809.162109375
 20
-179.89990234375
 30
0.0
 10
811.1298828125
 20
-182.828125
 30
0.0
 10
813.0458984375
 20
-185.98828125
 30
0.0
 10
814.9052734375
 20
-189.376953125
 30
0.0
 10
806.8603515625
 20
-198.7080078125
 30
0.0
 10
805.0947265625
 20
-216.80419921875
 30
0.0
 10
804.310546875
 20
-224.96923828125
 30
0.0
 10
803.8232421875
 20
-230.0302734375
 30
0.0
 10
803.15625
 20
-236.935546875
 30
0.0
 10
803.4150390625
 20
-243.96875
 30
0.0
 10
789.8740234375
 20
-235.66845703125
 30
0.0
 10
774.4130859375
 20
-231.162109375
 30
0.0
 10
759.099609375
 20
-231.162109375
 30
0.0
 10
745.8427734375
 20
-231.162109375
 30
0.0
 10
732.9130859375
 20
-234.5966796875
 30
0.0
 10
721.63671875
 20
-241.08935546875
 30
0.0
 10
716.0322265625
 20
-241.4794921875
 30
0.0
 10
710.65625
 20
-241.0068359375
 30
0.0
 10
705.7900390625
 20
-239.58984375
 30
0.0
 10
702.685546875
 20
-238.6904296875
 30
0.0
 10
699.58984375
 20
-236.23095703125
 30
0.0
 10
696.3203125
 20
-233.62890625
 30
0.0
 10
691.431640625
 20
-229.73779296875
 30
0.0
 10
686.3779296875
 20
-225.7265625
 30
0.0
 10
679.9111328125
 20
-225.7265625
 30
0.0
 10
678.5546875
 20
-225.7265625
 30
0.0
 10
677.185546875
 20
-225.9140625
 30
0.0
 10
675.84375
 20
-226.28125
 30
0.0
 10
671.7578125
 20
-227.40625
 30
0.0
 10
668.826171875
 20
-231.20751953125
 30
0.0
 10
668.720703125
 20
-235.53369140625
 30
0.0
 10
668.255859375
 20
-252.943359375
 30
0.0
 10
691.75390625
 20
-254.47314453125
 30
0.0
 10
703.0458984375
 20
-255.2080078125
 30
0.0
 10
703.0458984375
 20
-255.2080078125
 30
0.0
 10
703.85546875
 20
-255.26025390625
 30
0.0
 10
703.85546875
 20
-255.26025390625
 30
0.0
 10
689.9765625
 20
-270.30078125
 30
0.0
 10
680.1171875
 20
-293.19140625
 30
0.0
 10
686.5654296875
 20
-315.490234375
 30
0.0
 10
691.341796875
 20
-332.0224609375
 30
0.0
 10
707.3046875
 20
-344.48388671875
 30
0.0
 10
723.6875
 20
-344.48388671875
 30
0.0
 10
730.5625
 20
-344.48388671875
 30
0.0
 10
737.16015625
 20
-342.25732421875
 30
0.0
 10
742.76171875
 20
-338.0361328125
 30
0.0
 10
748.2275390625
 20
-333.92724609375
 30
0.0
 10
750.37890625
 20
-327.63671875
 30
0.0
 10
748.3701171875
 20
-321.630859375
 30
0.0
 10
746.4619140625
 20
-315.9248046875
 30
0.0
 10
741.16015625
 20
-312.09375
 30
0.0
 10
735.181640625
 20
-312.09375
 30
0.0
 10
733.0
 20
-312.09375
 30
0.0
 10
730.787109375
 20
-312.5732421875
 30
0.0
 10
728.60546875
 20
-313.533203125
 30
0.0
 10
723.77734375
 20
-315.64013671875
 30
0.0
 10
720.087890625
 20
-315.16748046875
 30
0.0
 10
717.2314453125
 20
-311.861328125
 30
0.0
 10
713.0546875
 20
-307.02490234375
 30
0.0
 10
711.78125
 20
-297.79541015625
 30
0.0
 10
712.6953125
 20
-291.572265625
 30
0.0
 10
714.29296875
 20
-280.76025390625
 30
0.0
 10
721.021484375
 20
-272.3251953125
 30
0.0
 10
726.38671875
 20
-267.15185546875
 30
0.0
 10
736.24609375
 20
-257.63720703125
 30
0.0
 10
750.0341796875
 20
-252.1787109375
 30
0.0
 10
764.212890625
 20
-252.1787109375
 30
0.0
 10
768.955078125
 20
-252.1787109375
 30
0.0
 10
773.6376953125
 20
-252.79345703125
 30
0.0
 10
778.12109375
 20
-254.00048828125
 30
0.0
 10
785.9189453125
 20
-256.0927734375
 30
0.0
 10
793.0751953125
 20
-259.458984375
 30
0.0
 10
799.5087890625
 20
-264.0478515625
 30
0.0
 10
783.33984375
 20
-263.515625
 30
0.0
 10
769.7236328125
 20
-270.7509765625
 30
0.0
 10
763.6201171875
 20
-283.08447265625
 30
0.0
 10
761.75390625
 20
-286.85595703125
 30
0.0
 10
761.9970703125
 20
-291.13720703125
 30
0.0
 10
764.291015625
 20
-294.826171875
 30
0.0
 10
766.5966796875
 20
-298.53759765625
 30
0.0
 10
770.5107421875
 20
-300.8466796875
 30
0.0
 10
774.5068359375
 20
-300.8466796875
 30
0.0
 10
777.607421875
 20
-300.8466796875
 30
0.0
 10
780.52734375
 20
-299.4375
 30
0.0
 10
782.720703125
 20
-296.8955078125
 30
0.0
 10
789.2587890625
 20
-289.3154296875
 30
0.0
 10
795.34375
 20
-282.89697265625
 30
0.0
 10
803.6064453125
 20
-281.1953125
 30
0.0
 10
808.9521484375
 20
-280.08544921875
 30
0.0
 10
814.125
 20
-281.76513671875
 30
0.0
 10
819.7412109375
 20
-286.43603515625
 30
0.0
 10
829.5185546875
 20
-303.1787109375
 30
0.0
 10
833.3349609375
 20
-324.1201171875
 30
0.0
 10
830.2158203125
 20
-343.99658203125
 30
0.0
 10
825.29296875
 20
-375.33740234375
 30
0.0
 10
806.8671875
 20
-402.95166015625
 30
0.0
 10
778.390625
 20
-422.73828125
 30
0.0
 10
778.5673828125
 20
-422.4833984375
 30
0.0
 10
778.7431640625
 20
-422.22119140625
 30
0.0
 10
778.919921875
 20
-421.96630859375
 30
0.0
 10
790.810546875
 20
-404.361328125
 30
0.0
 10
794.2109375
 20
-377.89404296875
 30
0.0
 10
777.08984375
 20
-363.513671875
 30
0.0
 10
774.912109375
 20
-361.68408203125
 30
0.0
 10
772.0927734375
 20
-360.67919921875
 30
0.0
 10
769.154296875
 20
-360.67919921875
 30
0.0
 10
765.10546875
 20
-360.67919921875
 30
0.0
 10
761.37109375
 20
-362.486328125
 30
0.0
 10
759.1513671875
 20
-365.51513671875
 30
0.0
 10
757.1201171875
 20
-368.296875
 30
0.0
 10
756.6171875
 20
-371.77587890625
 30
0.0
 10
757.7421875
 20
-375.3076171875
 30
0.0
 10
763.833984375
 20
-394.404296875
 30
0.0
 10
768.2392578125
 20
-408.2001953125
 30
0.0
 10
754.4765625
 20
-424.650390625
 30
0.0
 10
751.78515625
 20
-427.8671875
 30
0.0
 10
748.576171875
 20
-430.89599609375
 30
0.0
 10
744.748046875
 20
-433.8203125
 30
0.0
 10
741.021484375
 20
-419.162109375
 30
0.0
 10
730.08984375
 20
-406.13818359375
 30
0.0
 10
720.234375
 20
-398.2880859375
 30
0.0
 10
709.681640625
 20
-389.890625
 30
0.0
 10
697.0703125
 20
-384.1474609375
 30
0.0
 10
680.634765625
 20
-380.27099609375
 30
0.0
 10
656.1357421875
 20
-352.02685546875
 30
0.0
 10
621.2822265625
 20
-335.85400390625
 30
0.0
 10
584.7978515625
 20
-335.85400390625
 30
0.0
 10
569.9638671875
 20
-335.85400390625
 30
0.0
 10
554.859375
 20
-338.4560546875
 30
0.0
 10
539.9013671875
 20
-343.57666015625
 30
0.0
 10
539.9013671875
 20
-343.57666015625
 30
0.0
 10
539.609375
 20
-343.681640625
 30
0.0
 10
539.609375
 20
-343.681640625
 30
0.0
 10
539.0615234375
 20
-343.36669921875
 30
0.0
 10
538.57421875
 20
-343.0517578125
 30
0.0
 10
538.0419921875
 20
-342.7373046875
 30
0.0
 10
538.0419921875
 20
-342.7373046875
 30
0.0
 10
538.0419921875
 20
-129.02734375
 30
0.0
 10
538.0419921875
 20
-129.02734375
 30
0.0
 10
538.0419921875
 20
-129.02734375
 30
0.0
 10
666.24609375
 20
-129.02734375
 30
0.0
 10
666.24609375
 20
-129.02734375
 30
0.0
  0
SPLINE
  5
5D
330
3C
100
AcDbEntity
  8
Layer 1
370
     0
100
AcDbSpline
210
0.0
220
0.0
230
1.0
 70
    11
 71
     3
 72
    14
 73
    10
 74
     0
 42
0.0000000001
 43
0.0000000001
 40
0.0
 40
0.0
 40
0.0
 40
0.0
 40
1.0
 40
1.0
 40
1.0
 40
2.0
 40
2.0
 40
2.0
 40
3.0
 40
3.0
 40
3.0
 40
3.0
 10
423.357421875
 20
-410.2548828125
 30
0.0
 10
423.357421875
 20
-410.2548828125
 30
0.0
 10
423.357421875
 20
-419.1396484375
 30
0.0
 10
423.357421875
 20
-419.1396484375
 30
0.0
 10
422.51953125
 20
-416.6279296875
 30
0.0
 10
421.67041015625
 20
-414.1123046875
 30
0.0
 10
420.67138671875
 20
-411.5517578125
 30
0.0
 10
421.548828125
 20
-411.12060546875
 30
0.0
 10
422.46533203125
 20
-410.689453125
 30
0.0
 10
423.357421875
 20
-410.2548828125
 30
0.0
  0
HATCH
  5
5E
330
3C
100
AcDbEntity
  8
Layer 1
 62
     7
100
AcDbHatch
 10
0.0
 20
0.0
 30
0.0
210
0.0
220
0.0
230
1.0
  2
SOLID
 70
     1
 71
     0
 91
        9
 92
        1
 93
        1
 72
     4
 94
        3
 73
     0
 74
     1
 95
      266
 96
      262
 40
0.0
 40
0.0
 40
0.0
 40
0.0
 40
1.0
 40
1.0
 40
1.0
 40
2.0
 40
2.0
 40
2.0
 40
3.0
 40
3.0
 40
3.0
 40
4.0
 40
4.0
 40
4.0
 40
5.0
 40
5.0
 40
5.0
 40
6.0
 40
6.0
 40
6.0
 40
7.0
 40
7.0
 40
7.0
 40
8.0
 40
8.0
 40
8.0
 40
9.0
 40
9.0
 40
9.0
 40
10.0
 40
10.0
 40
10.0
 40
11.0
 40
11.0
 40
11.0
 40
12.0
 40
12.0
 40
12.0
 40
13.0
 40
13.0
 40
13.0
 40
14.0
 40
14.0
 40
14.0
 40
15.0
 40
15.0
 40
15.0
 40
16.0
 40
16.0
 40
16.0
 40
17.0
 40
17.0
 40
17.0
 40
18.0
 40
18.0
 40
18.0
 40
19.0
 40
19.0
 40
19.0
 40
20.0
 40
20.0
 40
20.0
 40
21.0
 40
21.0
 40
21.0
 40
22.0
 40
22.0
 40
22.0
 40
23.0
 40
23.0
 40
23.0
 40
24.0
 40
24.0
 40
24.0
 40
25.0
 40
25.0
 40
25.0
 40
26.0
 40
26.0
 40
26.0
 40
27.0
 40
27.0
 40
27.0
 40
28.0
 40
28.0
 40
28.0
 40
29.0
 40
29.0
 40
29.0
 40
30.0
 40
30.0
 40
30.0
 40
31.0
 40
31.0
 40
31.0
 40
32.0
 40
32.0
 40
32.0
 40
33.0
 40
33.0
 40
33.0
 40
34.0
 40
34.0
 40
34.0
 40
35.0
 40
35.0
 40
35.0
 40
36.0
 40
36.0
 40
36.0
 40
37.0
 40
37.0
 40
37.0
 40
38.0
 40
38.0
 40
38.0
 40
39.0
 40
39.0
 40
39.0
 40
40.0
 40
40.0
 40
40.0
 40
41.0
 40
41.0
 40
41.0
 40
42.0
 40
42.0
 40
42.0
 40
43.0
 40
43.0
 40
43.0
 40
44.0
 40
44.0
 40
44.0
 40
45.0
 40
45.0
 40
45.0
 40
46.0
 40
46.0
 40
46.0
 40
47.0
 40
47.0
 40
47.0
 40
48.0
 40
48.0
 40
48.0
 40
49.0
 40
49.0
 40
49.0
 40
50.0
 40
50.0
 40
50.0
 40
51.0
 40
51.0
 40
51.0
 40
52.0
 40
52.0
 40
52.0
 40
53.0
 40
53.0
 40
53.0
 40
54.0
 40
54.0
 40
54.0
 40
55.0
 40
55.0
 40
55.0
 40
56.0
 40
56.0
 40
56.0
 40
57.0
 40
57.0
 40
57.0
 40
58.0
 40
58.0
 40
58.0
 40
59.0
 40
59.0
 40
59.0
 40
60.0
 40
60.0
 40
60.0
 40
61.0
 40
61.0
 40
61.0
 40
62.0
 40
62.0
 40
62.0
 40
63.0
 40
63.0
 40
63.0
 40
64.0
 40
64.0
 40
64.0
 40
65.0
 40
65.0
 40
65.0
 40
66.0
 40
66.0
 40
66.0
 40
67.0
 40
67.0
 40
67.0
 40
68.0
 40
68.0
 40
68.0
 40
69.0
 40
69.0
 40
69.0
 40
70.0
 40
70.0
 40
70.0
 40
71.0
 40
71.0
 40
71.0
 40
72.0
 40
72.0
 40
72.0
 40
73.0
 40
73.0
 40
73.0
 40
74.0
 40
74.0
 40
74.0
 40
75.0
 40
75.0
 40
75.0
 40
76.0
 40
76.0
 40
76.0
 40
77.0
 40
77.0
 40
77.0
 40
78.0
 40
78.0
 40
78.0
 40
79.0
 40
79.0
 40
79.0
 40
80.0
 40
80.0
 40
80.0
 40
81.0
 40
81.0
 40
81.0
 40
82.0
 40
82.0
 40
82.0
 40
83.0
 40
83.0
 40
83.0
 40
84.0
 40
84.0
 40
84.0
 40
85.0
 40
85.0
 40
85.0
 40
86.0
 40
86.0
 40
86.0
 40
87.0
 40
87.0
 40
87.0
 40
87.0
 10
903.3046875
 20
-466.0380859375
 10
903.3046875
 20
-466.0380859375
 10
903.3046875
 20
-448.88330078125
 10
903.3046875
 20
-448.88330078125
 10
903.3046875
 20
-448.88330078125
 10
760.6513671875
 20
-448.88330078125
 10
760.6513671875
 20
-448.88330078125
 10
770.6904296875
 20
-443.912109375
 10
780.2734375
 20
-437.94384765625
 10
789.30078125
 20
-431.03125
 10
797.904296875
 20
-427.0498046875
 10
805.1396484375
 20
-424.0283203125
 10
812.888671875
 20
-424.0283203125
 10
816.5771484375
 20
-424.0283203125
 10
820.1611328125
 20
-424.71044921875
 10
823.853515625
 20
-426.12744140625
 10
828.3037109375
 20
-427.82177734375
 10
834.0810546875
 20
-430.1689453125
 10
839.2958984375
 20
-433.25048828125
 10
839.2958984375
 20
-433.25048828125
 10
841.21484375
 20
-434.4052734375
 10
841.21484375
 20
-434.4052734375
 10
845.046875
 20
-436.744140625
 10
848.66015625
 20
-438.94873046875
 10
854.673828125
 20
-439.11328125
 10
857.4814453125
 20
-439.11328125
 10
860.1171875
 20
-437.81640625
 10
861.9013671875
 20
-435.5595703125
 10
863.775390625
 20
-433.1826171875
 10
864.48828125
 20
-430.0263671875
 10
863.791015625
 20
-427.109375
 10
859.3896484375
 20
-408.68017578125
 10
834.458984375
 20
-407.248046875
 10
826.923828125
 20
-407.248046875
 10
824.4501953125
 20
-407.248046875
 10
822.04296875
 20
-407.37548828125
 10
819.771484375
 20
-407.63037109375
 10
817.916015625
 20
-407.8330078125
 10
815.6884765625
 20
-408.1474609375
 10
813.203125
 20
-408.63525390625
 10
814.2568359375
 20
-407.4052734375
 10
815.294921875
 20
-406.1533203125
 10
816.3076171875
 20
-404.87890625
 10
817.12890625
 20
-404.57861328125
 10
817.84765625
 20
-404.0537109375
 10
818.3916015625
 20
-403.333984375
 10
821.1806640625
 20
-399.6376953125
 10
824.044921875
 20
-395.6337890625
 10
827.013671875
 20
-391.4951171875
 10
845.5859375
 20
-365.560546875
 10
866.71484375
 20
-336.06396484375
 10
898.4384765625
 20
-338.38818359375
 10
898.8017578125
 20
-338.41845703125
 10
899.158203125
 20
-338.43310546875
 10
899.5029296875
 20
-338.43310546875
 10
899.5029296875
 20
-338.43310546875
 10
899.5029296875
 20
-338.43310546875
 10
899.5068359375
 20
-338.43310546875
 10
905.845703125
 20
-338.43310546875
 10
910.4873046875
 20
-333.8896484375
 10
910.787109375
 20
-327.38916015625
 10
911.076171875
 20
-321.19580078125
 10
907.0341796875
 20
-314.21533203125
 10
898.978515625
 20
-313.4658203125
 10
878.126953125
 20
-311.53125
 10
863.521484375
 20
-324.5849609375
 10
852.1689453125
 20
-337.30126953125
 10
849.6123046875
 20
-340.1650390625
 10
846.99609375
 20
-343.11181640625
 10
844.3681640625
 20
-346.14111328125
 10
849.458984375
 20
-320.91845703125
 10
845.96875
 20
-296.35546875
 10
834.091796875
 20
-275.5341796875
 10
830.927734375
 20
-269.9931640625
 10
827.0888671875
 20
-264.7373046875
 10
822.6767578125
 20
-259.9013671875
 10
822.544921875
 20
-257.2548828125
 10
822.2158203125
 20
-254.65283203125
 10
821.896484375
 20
-252.11865234375
 10
821.50390625
 20
-248.984375
 10
821.12890625
 20
-246.02294921875
 10
821.12109375
 20
-243.09130859375
 10
821.0908203125
 20
-234.2705078125
 10
823.115234375
 20
-226.55859375
 10
827.583984375
 20
-218.2509765625
 10
834.8720703125
 20
-238.6826171875
 10
841.080078125
 20
-263.82275390625
 10
846.2119140625
 20
-293.701171875
 10
846.2119140625
 20
-293.701171875
 10
871.498046875
 20
-293.701171875
 10
871.498046875
 20
-293.701171875
 10
871.498046875
 20
-293.701171875
 10
867.3828125
 20
-101.9755859375
 10
867.3828125
 20
-101.9755859375
 10
867.3828125
 20
-101.9755859375
 10
93.4228515625
 20
-101.9755859375
 10
93.4228515625
 20
-101.9755859375
 10
93.4228515625
 20
-101.9755859375
 10
89.306640625
 20
-293.701171875
 10
89.306640625
 20
-293.701171875
 10
89.306640625
 20
-293.701171875
 10
116.3603515625
 20
-293.701171875
 10
116.3603515625
 20
-293.701171875
 10
124.59326171875
 20
-243.12109375
 10
136.44921875
 20
-205.482421875
 10
151.94140625
 20
-180.77734375
 10
167.42626953125
 20
-156.07958984375
 10
183.994140625
 20
-141.2861328125
 10
201.63671875
 20
-136.37548828125
 10
219.28076171875
 20
-131.4794921875
 10
253.7783203125
 20
-129.02734375
 10
305.1455078125
 20
-129.02734375
 10
305.1455078125
 20
-129.02734375
 10
423.357421875
 20
-129.02734375
 10
423.357421875
 20
-129.02734375
 10
423.357421875
 20
-129.02734375
 10
423.357421875
 20
-389.71826171875
 10
423.357421875
 20
-389.71826171875
 10
419.83935546875
 20
-391.3037109375
 10
416.37158203125
 20
-392.919921875
 10
412.978515625
 20
-394.5390625
 10
400.9375
 20
-371.041015625
 10
384.00341796875
 20
-349.6201171875
 10
367.18994140625
 20
-336.73876953125
 10
347.7626953125
 20
-321.8408203125
 10
323.4775390625
 20
-313.63818359375
 10
298.81005859375
 20
-313.63818359375
 10
281.93603515625
 20
-313.63818359375
 10
265.107421875
 20
-317.54443359375
 10
250.1416015625
 20
-324.94482421875
 10
242.6552734375
 20
-328.6484375
 10
235.52490234375
 20
-333.46240234375
 10
228.5517578125
 20
-339.55810546875
 10
229.927734375
 20
-329.345703125
 10
230.34375
 20
-317.2744140625
 10
225.39892578125
 20
-307.1826171875
 10
223.5810546875
 20
-303.478515625
 10
220.162109375
 20
-301.34912109375
 10
216.0078125
 20
-301.34912109375
 10
212.435546875
 20
-301.34912109375
 10
208.8330078125
 20
-302.96875
 10
206.37353515625
 20
-305.66796875
 10
204.19921875
 20
-308.0595703125
 10
203.15673828125
 20
-311.06640625
 10
203.4453125
 20
-314.1181640625
 10
203.90283203125
 20
-319.01416015625
 10
205.1435546875
 20
-323.625
 10
206.34326171875
 20
-328.08642578125
 10
207.6591796875
 20
-332.98974609375
 10
208.90380859375
 20
-337.630859375
 10
209.1513671875
 20
-342.51220703125
 10
209.35009765625
 20
-346.4482421875
 10
208.623046875
 20
-350.4521484375
 10
207.85791015625
 20
-354.6884765625
 10
207.3408203125
 20
-357.5224609375
 10
206.80859375
 20
-360.44677734375
 10
206.564453125
 20
-363.408203125
 10
202.33984375
 20
-368.8291015625
 10
198.23828125
 20
-374.4677734375
 10
194.24951171875
 20
-380.0087890625
 10
194.197265625
 20
-372.6904296875
 10
193.1513671875
 20
-366.2353515625
 10
192.50244140625
 20
-362.9287109375
 10
191.6025390625
 20
-358.34765625
 10
187.92529296875
 20
-355.3857421875
 10
183.13037109375
 20
-355.3857421875
 10
179.3173828125
 20
-355.3857421875
 10
175.54248046875
 20
-357.2978515625
 10
173.5107421875
 20
-360.25927734375
 10
171.70361328125
 20
-362.8984375
 10
171.3740234375
 20
-366.07763671875
 10
172.5810546875
 20
-369.2119140625
 10
174.8525390625
 20
-375.08984375
 10
176.75341796875
 20
-380.443359375
 10
177.01220703125
 20
-386.486328125
 10
177.10205078125
 20
-388.7431640625
 10
177.0009765625
 20
-391.04541015625
 10
176.89208984375
 20
-393.4892578125
 10
176.74951171875
 20
-396.72119140625
 10
176.599609375
 20
-400.0498046875
 10
176.9296875
 20
-403.41650390625
 10
173.720703125
 20
-407.4580078125
 10
170.6728515625
 20
-411.0419921875
 10
167.6845703125
 20
-414.2958984375
 10
167.7373046875
 20
-406.36328125
 10
165.626953125
 20
-398.53564453125
 10
161.5966796875
 20
-392.80712890625
 10
159.572265625
 20
-389.9130859375
 10
155.62451171875
 20
-388.57861328125
 10
152.46044921875
 20
-389.8603515625
 10
151.11474609375
 20
-390.408203125
 10
150.2451171875
 20
-391.1201171875
 10
149.5927734375
 20
-391.7275390625
 10
147.478515625
 20
-393.662109375
 10
146.732421875
 20
-397.16357421875
 10
147.849609375
 20
-399.8701171875
 10
147.849609375
 20
-399.8701171875
 10
148.029296875
 20
-400.30517578125
 10
148.029296875
 20
-400.30517578125
 10
150.2109375
 20
-405.62109375
 10
152.0966796875
 20
-410.20947265625
 10
152.02197265625
 20
-415.67578125
 10
151.95068359375
 20
-421.3515625
 10
149.8173828125
 20
-426.71240234375
 10
147.666015625
 20
-431.953125
 10
146.30859375
 20
-432.8828125
 10
144.9365234375
 20
-433.78271484375
 10
143.51953125
 20
-434.6376953125
 10
133.599609375
 20
-440.62060546875
 10
121.52099609375
 20
-444.046875
 10
110.39453125
 20
-444.046875
 10
99.2451171875
 20
-444.046875
 10
79.49609375
 20
-440.62060546875
 10
72.5380859375
 20
-417.662109375
 10
68.369140625
 20
-403.9267578125
 10
73.3701171875
 20
-388.55615234375
 10
84.421875
 20
-381.10302734375
 10
91.18115234375
 20
-376.54443359375
 10
98.712890625
 20
-376.12451171875
 10
104.80078125
 20
-379.978515625
 10
108.00244140625
 20
-382.04052734375
 10
110.44287109375
 20
-384.76220703125
 10
112.31005859375
 20
-388.39111328125
 10
112.49365234375
 20
-388.73583984375
 10
112.666015625
 20
-389.0732421875
 10
112.81982421875
 20
-389.41064453125
 10
107.3427734375
 20
-389.3955078125
 10
101.962890625
 20
-391.89990234375
 10
98.72021484375
 20
-396.13623046875
 10
95.443359375
 20
-400.4326171875
 10
94.55126953125
 20
-406.1533203125
 10
96.2158203125
 20
-412.25634765625
 10
98.30029296875
 20
-419.91162109375
 10
104.755859375
 20
-424.8525390625
 10
112.662109375
 20
-424.8525390625
 10
115.47021484375
 20
-424.8525390625
 10
118.35693359375
 20
-424.21533203125
 10
121.0
 20
-422.9931640625
 10
132.8876953125
 20
-417.5126953125
 10
136.302734375
 20
-403.38671875
 10
135.61669921875
 20
-392.95703125
 10
134.251953125
 20
-371.96337890625
 10
116.6171875
 20
-354.890625
 10
96.3056640625
 20
-354.890625
 10
93.966796875
 20
-354.890625
 10
91.62353515625
 20
-355.123046875
 10
89.3369140625
 20
-355.58056640625
 10
67.86669921875
 20
-359.86181640625
 10
50.591796875
 20
-382.17529296875
 10
50.0146484375
 20
-406.37060546875
 10
49.4296875
 20
-430.56640625
 10
64.5751953125
 20
-453.359375
 10
86.85107421875
 20
-461.82421875
 10
90.8173828125
 20
-463.32421875
 10
94.97119140625
 20
-464.41845703125
 10
99.2373046875
 20
-465.0859375
 10
99.2373046875
 20
-465.0859375
 10
99.2373046875
 20
-466.0380859375
 10
99.2373046875
 20
-466.0380859375
 10
99.2373046875
 20
-466.0380859375
 10
903.3046875
 20
-466.0380859375
 10
903.3046875
 20
-466.0380859375
 97
        0
 92
        1
 93
        1
 72
     4
 94
        3
 73
     0
 74
     1
 95
       80
 96
       76
 40
0.0
 40
0.0
 40
0.0
 40
0.0
 40
1.0
 40
1.0
 40
1.0
 40
2.0
 40
2.0
 40
2.0
 40
3.0
 40
3.0
 40
3.0
 40
4.0
 40
4.0
 40
4.0
 40
5.0
 40
5.0
 40
5.0
 40
6.0
 40
6.0
 40
6.0
 40
7.0
 40
7.0
 40
7.0
 40
8.0
 40
8.0
 40
8.0
 40
9.0
 40
9.0
 40
9.0
 40
10.0
 40
10.0
 40
10.0
 40
11.0
 40
11.0
 40
11.0
 40
12.0
 40
12.0
 40
12.0
 40
13.0
 40
13.0
 40
13.0
 40
14.0
 40
14.0
 40
14.0
 40
15.0
 40
15.0
 40
15.0
 40
16.0
 40
16.0
 40
16.0
 40
17.0
 40
17.0
 40
17.0
 40
18.0
 40
18.0
 40
18.0
 40
19.0
 40
19.0
 40
19.0
 40
20.0
 40
20.0
 40
20.0
 40
21.0
 40
21.0
 40
21.0
 40
22.0
 40
22.0
 40
22.0
 40
23.0
 40
23.0
 40
23.0
 40
24.0
 40
24.0
 40
24.0
 40
25.0
 40
25.0
 40
25.0
 40
25.0
 10
258.92529296875
 20
-433.17529296875
 10
243.56982421875
 20
-424.68017578125
 10
237.091796875
 20
-407.052734375
 10
243.1728515625
 20
-390.29541015625
 10
246.43408203125
 20
-381.3056640625
 10
252.634765625
 20
-374.7373046875
 10
260.634765625
 20
-371.82080078125
 10
266.5546875
 20
-369.654296875
 10
270.92578125
 20
-369.3994140625
 10
274.23583984375
 20
-371.01123046875
 10
276.65771484375
 20
-372.1884765625
 10
279.58935546875
 20
-375.27734375
 10
280.09912109375
 20
-378.22412109375
 10
280.35400390625
 20
-379.68603515625
 10
279.95703125
 20
-380.90087890625
 10
278.84716796875
 20
-382.033203125
 10
274.4833984375
 20
-386.494140625
 10
273.25390625
 20
-392.08740234375
 10
275.48046875
 20
-397.380859375
 10
277.8125
 20
-402.92919921875
 10
283.4921875
 20
-406.8056640625
 10
289.28759765625
 20
-406.8056640625
 10
293.81640625
 20
-406.8056640625
 10
297.73779296875
 20
-404.49609375
 10
300.328125
 20
-400.29736328125
 10
306.65234375
 20
-390.0478515625
 10
307.6162109375
 20
-377.40673828125
 10
302.9072265625
 20
-366.47509765625
 10
298.22509765625
 20
-355.60302734375
 10
288.8115234375
 20
-347.970703125
 10
277.0849609375
 20
-345.541015625
 10
274.1982421875
 20
-344.94140625
 10
271.244140625
 20
-344.6416015625
 10
268.30517578125
 20
-344.6416015625
 10
247.611328125
 20
-344.6416015625
 10
227.05615234375
 20
-360.349609375
 10
219.42724609375
 20
-381.98779296875
 10
211.2060546875
 20
-405.34375
 10
217.77734375
 20
-431.3310546875
 10
235.77978515625
 20
-446.64892578125
 10
236.68701171875
 20
-447.4208984375
 10
237.61669921875
 20
-448.16357421875
 10
238.56884765625
 20
-448.88330078125
 10
238.56884765625
 20
-448.88330078125
 10
158.080078125
 20
-448.88330078125
 10
158.080078125
 20
-448.88330078125
 10
159.6171875
 20
-447.7958984375
 10
161.1357421875
 20
-446.65625
 10
162.62744140625
 20
-445.4794921875
 10
179.7939453125
 20
-431.86328125
 10
192.15771484375
 20
-413.6884765625
 10
204.11669921875
 20
-396.11376953125
 10
209.74755859375
 20
-387.8359375
 10
215.5693359375
 20
-379.28125
 10
221.79248046875
 20
-371.36328125
 10
242.265625
 20
-345.30126953125
 10
268.732421875
 20
-331.4677734375
 10
298.67138671875
 20
-331.36279296875
 10
327.84130859375
 20
-331.36279296875
 10
355.05859375
 20
-344.2890625
 10
375.294921875
 20
-367.7568359375
 10
383.025390625
 20
-376.716796875
 10
389.720703125
 20
-388.2783203125
 10
395.71142578125
 20
-403.0419921875
 10
393.255859375
 20
-404.27880859375
 10
390.830078125
 20
-405.5087890625
 10
388.4384765625
 20
-406.7158203125
 10
378.8564453125
 20
-411.57421875
 10
369.81396484375
 20
-416.1552734375
 10
361.57763671875
 20
-419.86669921875
 10
337.970703125
 20
-430.5283203125
 10
312.8681640625
 20
-440.38818359375
 10
289.205078125
 20
-440.38818359375
 10
277.77099609375
 20
-440.38818359375
 10
267.58544921875
 20
-437.958984375
 10
258.92529296875
 20
-433.17529296875
 97
        0
 92
        1
 93
        1
 72
     4
 94
        3
 73
     0
 74
     1
 95
       20
 96
       16
 40
0.0
 40
0.0
 40
0.0
 40
0.0
 40
1.0
 40
1.0
 40
1.0
 40
2.0
 40
2.0
 40
2.0
 40
3.0
 40
3.0
 40
3.0
 40
4.0
 40
4.0
 40
4.0
 40
5.0
 40
5.0
 40
5.0
 40
5.0
 10
346.45849609375
 20
-448.88330078125
 10
362.7587890625
 20
-442.142578125
 10
378.44384765625
 20
-433.7529296875
 10
393.76171875
 20
-425.56494140625
 10
396.5849609375
 20
-424.05078125
 10
399.40771484375
 20
-422.54345703125
 10
402.23046875
 20
-421.0439453125
 10
405.06103515625
 20
-429.7412109375
 10
407.587890625
 20
-438.5888671875
 10
410.03955078125
 20
-447.173828125
 10
410.03955078125
 20
-447.173828125
 10
410.53076171875
 20
-448.88330078125
 10
410.53076171875
 20
-448.88330078125
 10
410.53076171875
 20
-448.88330078125
 10
346.45849609375
 20
-448.88330078125
 10
346.45849609375
 20
-448.88330078125
 97
        0
 92
        1
 93
        1
 72
     4
 94
        3
 73
     0
 74
     1
 95
       14
 96
       10
 40
0.0
 40
0.0
 40
0.0
 40
0.0
 40
1.0
 40
1.0
 40
1.0
 40
2.0
 40
2.0
 40
2.0
 40
3.0
 40
3.0
 40
3.0
 40
3.0
 10
547.939453125
 20
-429.0966796875
 10
547.1220703125
 20
-435.61572265625
 10
543.78515625
 20
-440.654296875
 10
538.0419921875
 20
-444.095703125
 10
538.0419921875
 20
-444.095703125
 10
538.0419921875
 20
-402.39306640625
 10
538.0419921875
 20
-402.39306640625
 10
545.0673828125
 20
-409.58349609375
 10
549.048828125
 20
-420.26806640625
 10
547.939453125
 20
-429.0966796875
 97
        0
 92
        1
 93
        1
 72
     4
 94
        3
 73
     0
 74
     1
 95
       35
 96
       31
 40
0.0
 40
0.0
 40
0.0
 40
0.0
 40
1.0
 40
1.0
 40
1.0
 40
2.0
 40
2.0
 40
2.0
 40
3.0
 40
3.0
 40
3.0
 40
4.0
 40
4.0
 40
4.0
 40
5.0
 40
5.0
 40
5.0
 40
6.0
 40
6.0
 40
6.0
 40
7.0
 40
7.0
 40
7.0
 40
8.0
 40
8.0
 40
8.0
 40
9.0
 40
9.0
 40
9.0
 40
10.0
 40
10.0
 40
10.0
 40
10.0
 10
559.5302734375
 20
-448.88330078125
 10
560.8916015625
 20
-446.9638671875
 10
562.068359375
 20
-444.9169921875
 10
563.0546875
 20
-442.75
 10
572.958984375
 20
-420.93896484375
 10
560.955078125
 20
-395.5966796875
 10
543.6201171875
 20
-383.68994140625
 10
541.8056640625
 20
-382.4453125
 10
539.9462890625
 20
-381.29052734375
 10
538.0419921875
 20
-380.21484375
 10
538.0419921875
 20
-380.21484375
 10
538.0419921875
 20
-366.14501953125
 10
538.0419921875
 20
-366.14501953125
 10
539.4814453125
 20
-366.7109375
 10
540.8837890625
 20
-367.322265625
 10
542.345703125
 20
-367.8544921875
 10
572.3369140625
 20
-378.81640625
 10
603.220703125
 20
-382.87255859375
 10
633.083984375
 20
-386.7939453125
 10
642.9619140625
 20
-388.09130859375
 10
653.177734375
 20
-389.43310546875
 10
663.28515625
 20
-391.0078125
 10
665.271484375
 20
-391.3154296875
 10
667.2509765625
 20
-391.65234375
 10
669.2265625
 20
-392.02001953125
 10
686.2578125
 20
-411.61181640625
 10
695.5625
 20
-432.05810546875
 10
695.203125
 20
-448.88330078125
 10
695.203125
 20
-448.88330078125
 10
559.5302734375
 20
-448.88330078125
 10
559.5302734375
 20
-448.88330078125
 97
        0
 92
        1
 93
        1
 72
     4
 94
        3
 73
     0
 74
     1
 95
       20
 96
       16
 40
0.0
 40
0.0
 40
0.0
 40
0.0
 40
1.0
 40
1.0
 40
1.0
 40
2.0
 40
2.0
 40
2.0
 40
3.0
 40
3.0
 40
3.0
 40
4.0
 40
4.0
 40
4.0
 40
5.0
 40
5.0
 40
5.0
 40
5.0
 10
560.15625
 20
-353.9462890625
 10
579.572265625
 20
-349.32763671875
 10
600.1650390625
 20
-349.28271484375
 10
616.36328125
 20
-353.93115234375
 10
627.1904296875
 20
-357.04296875
 10
640.2666015625
 20
-364.89306640625
 10
652.708984375
 20
-375.59228515625
 10
650.07421875
 20
-375.2626953125
 10
647.45703125
 20
-374.955078125
 10
644.8779296875
 20
-374.6474609375
 10
641.1962890625
 20
-374.205078125
 10
637.541015625
 20
-373.7705078125
 10
633.923828125
 20
-373.3056640625
 10
606.515625
 20
-369.736328125
 10
581.75390625
 20
-363.23583984375
 10
560.15625
 20
-353.9462890625
 97
        0
 92
        1
 93
        1
 72
     4
 94
        3
 73
     0
 74
     1
 95
       23
 96
       19
 40
0.0
 40
0.0
 40
0.0
 40
0.0
 40
1.0
 40
1.0
 40
1.0
 40
2.0
 40
2.0
 40
2.0
 40
3.0
 40
3.0
 40
3.0
 40
4.0
 40
4.0
 40
4.0
 40
5.0
 40
5.0
 40
5.0
 40
6.0
 40
6.0
 40
6.0
 40
6.0
 10
719.9306640625
 20
-448.16357421875
 10
718.8212890625
 20
-448.4111328125
 10
717.71875
 20
-448.65087890625
 10
716.609375
 20
-448.88330078125
 10
716.609375
 20
-448.88330078125
 10
712.125
 20
-448.88330078125
 10
712.125
 20
-448.88330078125
 10
709.63671875
 20
-431.4208984375
 10
703.5556640625
 20
-414.4609375
 10
694.3369140625
 20
-399.150390625
 10
702.7236328125
 20
-402.6220703125
 10
709.80859375
 20
-407.015625
 10
715.814453125
 20
-412.4365234375
 10
724.662109375
 20
-420.40673828125
 10
729.947265625
 20
-429.486328125
 10
732.751953125
 20
-441.59521484375
 10
728.3203125
 20
-444.0771484375
 10
723.859375
 20
-446.27392578125
 10
719.9306640625
 20
-448.16357421875
 97
        0
 92
        1
 93
        1
 72
     4
 94
        3
 73
     0
 74
     1
 95
      152
 96
      148
 40
0.0
 40
0.0
 40
0.0
 40
0.0
 40
1.0
 40
1.0
 40
1.0
 40
2.0
 40
2.0
 40
2.0
 40
3.0
 40
3.0
 40
3.0
 40
4.0
 40
4.0
 40
4.0
 40
5.0
 40
5.0
 40
5.0
 40
6.0
 40
6.0
 40
6.0
 40
7.0
 40
7.0
 40
7.0
 40
8.0
 40
8.0
 40
8.0
 40
9.0
 40
9.0
 40
9.0
 40
10.0
 40
10.0
 40
10.0
 40
11.0
 40
11.0
 40
11.0
 40
12.0
 40
12.0
 40
12.0
 40
13.0
 40
13.0
 40
13.0
 40
14.0
 40
14.0
 40
14.0
 40
15.0
 40
15.0
 40
15.0
 40
16.0
 40
16.0
 40
16.0
 40
17.0
 40
17.0
 40
17.0
 40
18.0
 40
18.0
 40
18.0
 40
19.0
 40
19.0
 40
19.0
 40
20.0
 40
20.0
 40
20.0
 40
21.0
 40
21.0
 40
21.0
 40
22.0
 40
22.0
 40
22.0
 40
23.0
 40
23.0
 40
23.0
 40
24.0
 40
24.0
 40
24.0
 40
25.0
 40
25.0
 40
25.0
 40
26.0
 40
26.0
 40
26.0
 40
27.0
 40
27.0
 40
27.0
 40
28.0
 40
28.0
 40
28.0
 40
29.0
 40
29.0
 40
29.0
 40
30.0
 40
30.0
 40
30.0
 40
31.0
 40
31.0
 40
31.0
 40
32.0
 40
32.0
 40
32.0
 40
33.0
 40
33.0
 40
33.0
 40
34.0
 40
34.0
 40
34.0
 40
35.0
 40
35.0
 40
35.0
 40
36.0
 40
36.0
 40
36.0
 40
37.0
 40
37.0
 40
37.0
 40
38.0
 40
38.0
 40
38.0
 40
39.0
 40
39.0
 40
39.0
 40
40.0
 40
40.0
 40
40.0
 40
41.0
 40
41.0
 40
41.0
 40
42.0
 40
42.0
 40
42.0
 40
43.0
 40
43.0
 40
43.0
 40
44.0
 40
44.0
 40
44.0
 40
45.0
 40
45.0
 40
45.0
 40
46.0
 40
46.0
 40
46.0
 40
47.0
 40
47.0
 40
47.0
 40
48.0
 40
48.0
 40
48.0
 40
49.0
 40
49.0
 40
49.0
 40
49.0
 10
666.24609375
 20
-129.02734375
 10
709.771484375
 20
-129.02734375
 10
740.5419921875
 20
-131.67431640625
 10
758.58203125
 20
-136.9677734375
 10
776.6142578125
 20
-142.26123046875
 10
793.4765625
 20
-156.57421875
 10
809.162109375
 20
-179.89990234375
 10
811.1298828125
 20
-182.828125
 10
813.0458984375
 20
-185.98828125
 10
814.9052734375
 20
-189.376953125
 10
806.8603515625
 20
-198.7080078125
 10
805.0947265625
 20
-216.80419921875
 10
804.310546875
 20
-224.96923828125
 10
803.8232421875
 20
-230.0302734375
 10
803.15625
 20
-236.935546875
 10
803.4150390625
 20
-243.96875
 10
789.8740234375
 20
-235.66845703125
 10
774.4130859375
 20
-231.162109375
 10
759.099609375
 20
-231.162109375
 10
745.8427734375
 20
-231.162109375
 10
732.9130859375
 20
-234.5966796875
 10
721.63671875
 20
-241.08935546875
 10
716.0322265625
 20
-241.4794921875
 10
710.65625
 20
-241.0068359375
 10
705.7900390625
 20
-239.58984375
 10
702.685546875
 20
-238.6904296875
 10
699.58984375
 20
-236.23095703125
 10
696.3203125
 20
-233.62890625
 10
691.431640625
 20
-229.73779296875
 10
686.3779296875
 20
-225.7265625
 10
679.9111328125
 20
-225.7265625
 10
678.5546875
 20
-225.7265625
 10
677.185546875
 20
-225.9140625
 10
675.84375
 20
-226.28125
 10
671.7578125
 20
-227.40625
 10
668.826171875
 20
-231.20751953125
 10
668.720703125
 20
-235.53369140625
 10
668.255859375
 20
-252.943359375
 10
691.75390625
 20
-254.47314453125
 10
703.0458984375
 20
-255.2080078125
 10
703.0458984375
 20
-255.2080078125
 10
703.85546875
 20
-255.26025390625
 10
703.85546875
 20
-255.26025390625
 10
689.9765625
 20
-270.30078125
 10
680.1171875
 20
-293.19140625
 10
686.5654296875
 20
-315.490234375
 10
691.341796875
 20
-332.0224609375
 10
707.3046875
 20
-344.48388671875
 10
723.6875
 20
-344.48388671875
 10
730.5625
 20
-344.48388671875
 10
737.16015625
 20
-342.25732421875
 10
742.76171875
 20
-338.0361328125
 10
748.2275390625
 20
-333.92724609375
 10
750.37890625
 20
-327.63671875
 10
748.3701171875
 20
-321.630859375
 10
746.4619140625
 20
-315.9248046875
 10
741.16015625
 20
-312.09375
 10
735.181640625
 20
-312.09375
 10
733.0
 20
-312.09375
 10
730.787109375
 20
-312.5732421875
 10
728.60546875
 20
-313.533203125
 10
723.77734375
 20
-315.64013671875
 10
720.087890625
 20
-315.16748046875
 10
717.2314453125
 20
-311.861328125
 10
713.0546875
 20
-307.02490234375
 10
711.78125
 20
-297.79541015625
 10
712.6953125
 20
-291.572265625
 10
714.29296875
 20
-280.76025390625
 10
721.021484375
 20
-272.3251953125
 10
726.38671875
 20
-267.15185546875
 10
736.24609375
 20
-257.63720703125
 10
750.0341796875
 20
-252.1787109375
 10
764.212890625
 20
-252.1787109375
 10
768.955078125
 20
-252.1787109375
 10
773.6376953125
 20
-252.79345703125
 10
778.12109375
 20
-254.00048828125
 10
785.9189453125
 20
-256.0927734375
 10
793.0751953125
 20
-259.458984375
 10
799.5087890625
 20
-264.0478515625
 10
783.33984375
 20
-263.515625
 10
769.7236328125
 20
-270.7509765625
 10
763.6201171875
 20
-283.08447265625
 10
761.75390625
 20
-286.85595703125
 10
761.9970703125
 20
-291.13720703125
 10
764.291015625
 20
-294.826171875
 10
766.5966796875
 20
-298.53759765625
 10
770.5107421875
 20
-300.8466796875
 10
774.5068359375
 20
-300.8466796875
 10
777.607421875
 20
-300.8466796875
 10
780.52734375
 20
-299.4375
 10
782.720703125
 20
-296.8955078125
 10
789.2587890625
 20
-289.3154296875
 10
795.34375
 20
-282.89697265625
 10
803.6064453125
 20
-281.1953125
 10
808.9521484375
 20
-280.08544921875
 10
814.125
 20
-281.76513671875
 10
819.7412109375
 20
-286.43603515625
 10
829.5185546875
 20
-303.1787109375
 10
833.3349609375
 20
-324.1201171875
 10
830.2158203125
 20
-343.99658203125
 10
825.29296875
 20
-375.33740234375
 10
806.8671875
 20
-402.95166015625
 10
778.390625
 20
-422.73828125
 10
778.5673828125
 20
-422.4833984375
 10
778.7431640625
 20
-422.22119140625
 10
778.919921875
 20
-421.96630859375
 10
790.810546875
 20
-404.361328125
 10
794.2109375
 20
-377.89404296875
 10
777.08984375
 20
-363.513671875
 10
774.912109375
 20
-361.68408203125
 10
772.0927734375
 20
-360.67919921875
 10
769.154296875
 20
-360.67919921875
 10
765.10546875
 20
-360.67919921875
 10
761.37109375
 20
-362.486328125
 10
759.1513671875
 20
-365.51513671875
 10
757.1201171875
 20
-368.296875
 10
756.6171875
 20
-371.77587890625
 10
757.7421875
 20
-375.3076171875
 10
763.833984375
 20
-394.404296875
 10
768.2392578125
 20
-408.2001953125
 10
754.4765625
 20
-424.650390625
 10
751.78515625
 20
-427.8671875
 10
748.576171875
 20
-430.89599609375
 10
744.748046875
 20
-433.8203125
 10
741.021484375
 20
-419.162109375
 10
730.08984375
 20
-406.13818359375
 10
720.234375
 20
-398.2880859375
 10
709.681640625
 20
-389.890625
 10
697.0703125
 20
-384.1474609375
 10
680.634765625
 20
-380.27099609375
 10
656.1357421875
 20
-352.02685546875
 10
621.2822265625
 20
-335.85400390625
 10
584.7978515625
 20
-335.85400390625
 10
569.9638671875
 20
-335.85400390625
 10
554.859375
 20
-338.4560546875
 10
539.9013671875
 20
-343.57666015625
 10
539.9013671875
 20
-343.57666015625
 10
539.609375
 20
-343.681640625
 10
539.609375
 20
-343.681640625
 10
539.0615234375
 20
-343.36669921875
 10
538.57421875
 20
-343.0517578125
 10
538.0419921875
 20
-342.7373046875
 10
538.0419921875
 20
-342.7373046875
 10
538.0419921875
 20
-129.02734375
 10
538.0419921875
 20
-129.02734375
 10
538.0419921875
 20
-129.02734375
 10
666.24609375
 20
-129.02734375
 10
666.24609375
 20
-129.02734375
 97
        0
 92
        1
 93
        1
 72
     4
 94
        3
 73
     0
 74
     1
 95
       14
 96
       10
 40
0.0
 40
0.0
 40
0.0
 40
0.0
 40
1.0
 40
1.0
 40
1.0
 40
2.0
 40
2.0
 40
2.0
 40
3.0
 40
3.0
 40
3.0
 40
3.0
 10
423.357421875
 20
-410.2548828125
 10
423.357421875
 20
-410.2548828125
 10
423.357421875
 20
-419.1396484375
 10
423.357421875
 20
-419.1396484375
 10
422.51953125
 20
-416.6279296875
 10
421.67041015625
 20
-414.1123046875
 10
420.67138671875
 20
-411.5517578125
 10
421.548828125
 20
-411.12060546875
 10
422.46533203125
 20
-410.689453125
 10
423.357421875
 20
-410.2548828125
 97
        0
 75
     2
 76
     1
 98
        0
  0
ENDBLK
  5
3F
330
3C
100
AcDbEntity
  8
0
100
AcDbBlockEnd
  0
ENDSEC
  0
SECTION
  2
ENTITIES
  0
INSERT
  5
3D
330
1F
100
AcDbEntity
  8
Layer 1
100
AcDbBlockReference
  2
block 2
 10
0.0
 20
0.0
 30
0.0
  0
ENDSEC
  0
SECTION
  2
OBJECTS
  0
DICTIONARY
  5
C
330
0
100
AcDbDictionary
281
     1
  3
ACAD_GROUP
350
D
  3
ACAD_LAYOUT
350
1A
  3
ACAD_MLINESTYLE
350
17
  3
ACAD_PLOTSETTINGS
350
19
  3
ACAD_PLOTSTYLENAME
350
E
  3
ACAD_TABLESTYLE
350
5F
  3
ACAD_VISUALSTYLE
350
2A
  0
DICTIONARY
  5
D
102
{ACAD_REACTORS
330
C
102
}
330
C
100
AcDbDictionary
281
     1
  0
DICTIONARY
  5
1A
102
{ACAD_REACTORS
330
C
102
}
330
C
100
AcDbDictionary
281
     1
  3
Layout1
350
1E
  3
Layout2
350
26
  3
Model
350
22
  0
DICTIONARY
  5
17
102
{ACAD_REACTORS
330
C
102
}
330
C
100
AcDbDictionary
281
     1
  3
Standard
350
18
  0
DICTIONARY
  5
19
102
{ACAD_REACTORS
330
C
102
}
330
C
100
AcDbDictionary
281
     1
  0
ACDBDICTIONARYWDFLT
  5
E
102
{ACAD_REACTORS
330
C
102
}
330
C
100
AcDbDictionary
281
     1
  3
Normal
350
F
100
AcDbDictionaryWithDefault
340
F
  0
DICTIONARY
  5
5F
102
{ACAD_REACTORS
330
C
102
}
330
C
100
AcDbDictionary
281
     1
  0
DICTIONARY
  5
2A
102
{ACAD_REACTORS
330
C
102
}
330
C
100
AcDbDictionary
281
     1
  3
2dWireframe
350
2F
  3
3D Hidden
350
31
  3
3dWireframe
350
30
  3
Basic
350
32
  3
Brighten
350
36
  3
ColorChange
350
3A
  3
Conceptual
350
34
  3
Dim
350
35
  3
Facepattern
350
39
  3
Flat
350
2B
  3
FlatWithEdges
350
2C
  3
Gouraud
350
2D
  3
GouraudWithEdges
350
2E
  3
Linepattern
350
38
  3
Realistic
350
33
  3
Thicken
350
37
  0
LAYOUT
  5
1E
102
{ACAD_REACTORS
330
1A
102
}
330
1A
100
AcDbPlotSettings
  1

  2
none_device
  4

  6

 40
0.0
 41
0.0
 42
0.0
 43
0.0
 44
0.0
 45
0.0
 46
0.0
 47
0.0
 48
0.0
 49
0.0
140
0.0
141
0.0
142
1.0
143
1.0
 70
   688
 72
     0
 73
     0
 74
     5
  7

 75
    16
147
1.0
148
0.0
149
0.0
100
AcDbLayout
  1
Layout1
 70
     1
 71
     1
 10
0.0
 20
0.0
 11
12.0
 21
9.0
 12
0.0
 22
0.0
 32
0.0
 14
1.000000000000000E+20
 24
1.000000000000000E+20
 34
1.000000000000000E+20
 15
-1.000000000000000E+20
 25
-1.000000000000000E+20
 35
-1.000000000000000E+20
146
0.0
 13
0.0
 23
0.0
 33
0.0
 16
1.0
 26
0.0
 36
0.0
 17
0.0
 27
1.0
 37
0.0
 76
     0
330
1B
  0
LAYOUT
  5
26
102
{ACAD_REACTORS
330
1A
102
}
330
1A
100
AcDbPlotSettings
  1

  2
none_device
  4

  6

 40
0.0
 41
0.0
 42
0.0
 43
0.0
 44
0.0
 45
0.0
 46
0.0
 47
0.0
 48
0.0
 49
0.0
140
0.0
141
0.0
142
1.0
143
1.0
 70
   688
 72
     0
 73
     0
 74
     5
  7

 75
    16
147
1.0
148
0.0
149
0.0
100
AcDbLayout
  1
Layout2
 70
     1
 71
     2
 10
0.0
 20
0.0
 11
0.0
 21
0.0
 12
0.0
 22
0.0
 32
0.0
 14
0.0
 24
0.0
 34
0.0
 15
0.0
 25
0.0
 35
0.0
146
0.0
 13
0.0
 23
0.0
 33
0.0
 16
1.0
 26
0.0
 36
0.0
 17
0.0
 27
1.0
 37
0.0
 76
     0
330
23
  0
LAYOUT
  5
22
102
{ACAD_REACTORS
330
1A
102
}
330
1A
100
AcDbPlotSettings
  1

  2
none_device
  4

  6

 40
0.0
 41
0.0
 42
0.0
 43
0.0
 44
0.0
 45
0.0
 46
0.0
 47
0.0
 48
0.0
 49
0.0
140
0.0
141
0.0
142
1.0
143
1.0
 70
  1712
 72
     0
 73
     0
 74
     0
  7

 75
     0
147
1.0
148
0.0
149
0.0
100
AcDbLayout
  1
Model
 70
     1
 71
     0
 10
0.0
 20
0.0
 11
12.0
 21
9.0
 12
0.0
 22
0.0
 32
0.0
 14
1.000000000000000E+20
 24
1.000000000000000E+20
 34
1.000000000000000E+20
 15
-1.000000000000000E+20
 25
-1.000000000000000E+20
 35
-1.000000000000000E+20
146
0.0
 13
0.0
 23
0.0
 33
0.0
 16
1.0
 26
0.0
 36
0.0
 17
0.0
 27
1.0
 37
0.0
 76
     0
330
1F
331
29
  0
MLINESTYLE
  5
18
102
{ACAD_REACTORS
330
17
102
}
330
17
100
AcDbMlineStyle
  2
Standard
 70
     0
  3

 62
   256
 51
90.0
 52
90.0
 71
     2
 49
0.5
 62
   256
  6
BYLAYER
 49
-0.5
 62
   256
  6
BYLAYER
  0
ACDBPLACEHOLDER
  5
F
102
{ACAD_REACTORS
330
E
102
}
330
E
  0
VISUALSTYLE
  5
2F
102
{ACAD_REACTORS
330
2A
102
}
330
2A
100
AcDbVisualStyle
  2
2dWireframe
 70
     4
 71
     0
 72
     2
 73
     0
 90
        0
 40
-0.6
 41
-30.0
 62
     5
 63
     7
 74
     1
 91
        4
 64
     7
 65
   257
 75
     1
175
     1
 42
1.0
 92
        0
 66
   257
 43
1.0
 76
     1
 77
     6
 78
     2
 67
     7
 79
     5
170
     0
171
     0
290
     0
174
     0
 93
        1
 44
0.0
173
     0
291
     0
 45
0.0
1001
ACAD
1000
AcDbSavedByObjectVersion
1070
     0
  0
VISUALSTYLE
  5
31
102
{ACAD_REACTORS
330
2A
102
}
330
2A
100
AcDbVisualStyle
  2
3D Hidden
 70
     6
 71
     1
 72
     2
 73
     2
 90
        0
 40
-0.6
 41
-30.0
 62
     5
 63
     7
 74
     2
 91
        2
 64
     7
 65
   257
 75
     2
175
     1
 42
40.0
 92
        0
 66
   257
 43
1.0
 76
     1
 77
     6
 78
     2
 67
     7
 79
     3
170
     0
171
     0
290
     0
174
     0
 93
        1
 44
0.0
173
     0
291
     0
 45
0.0
1001
ACAD
1000
AcDbSavedByObjectVersion
1070
     0
  0
VISUALSTYLE
  5
30
102
{ACAD_REACTORS
330
2A
102
}
330
2A
100
AcDbVisualStyle
  2
3dWireframe
 70
     5
 71
     0
 72
     2
 73
     0
 90
        0
 40
-0.6
 41
-30.0
 62
     5
 63
     7
 74
     1
 91
        4
 64
     7
 65
   257
 75
     1
175
     1
 42
1.0
 92
        0
 66
   257
 43
1.0
 76
     1
 77
     6
 78
     2
 67
     7
 79
     5
170
     0
171
     0
290
     0
174
     0
 93
        1
 44
0.0
173
     0
291
     0
 45
0.0
1001
ACAD
1000
AcDbSavedByObjectVersion
1070
     0
  0
VISUALSTYLE
  5
32
102
{ACAD_REACTORS
330
2A
102
}
330
2A
100
AcDbVisualStyle
  2
Basic
 70
     7
 71
     1
 72
     0
 73
     1
 90
        0
 40
-0.6
 41
-30.0
 62
     5
 63
     7
 74
     0
 91
        4
 64
     7
 65
   257
 75
     1
175
     1
 42
1.0
 92
        8
 66
     7
 43
1.0
 76
     1
 77
     6
 78
     2
 67
     7
 79
     5
170
     0
171
     0
290
     0
174
     0
 93
        1
 44
0.0
173
     0
291
     1
 45
0.0
1001
ACAD
1000
AcDbSavedByObjectVersion
1070
     0
  0
VISUALSTYLE
  5
36
102
{ACAD_REACTORS
330
2A
102
}
330
2A
100
AcDbVisualStyle
  2
Brighten
 70
    12
 71
     2
 72
     2
 73
     0
 90
        0
 40
-0.6
 41
-30.0
 62
     5
 63
     7
 74
     1
 91
        4
 64
     7
 65
   257
 75
     1
175
     1
 42
1.0
 92
        8
 66
     7
 43
1.0
 76
     1
 77
     6
 78
     2
 67
     7
 79
     5
170
     0
171
     0
290
     0
174
     0
 93
        1
 44
50.0
173
     0
291
     1
 45
0.0
1001
ACAD
1000
AcDbSavedByObjectVersion
1070
     0
  0
VISUALSTYLE
  5
3A
102
{ACAD_REACTORS
330
2A
102
}
330
2A
100
AcDbVisualStyle
  2
ColorChange
 70
    16
 71
     2
 72
     2
 73
     3
 90
        0
 40
-0.6
 41
-30.0
 62
     5
 63
     8
 74
     1
 91
        4
 64
     7
 65
   257
 75
     1
175
     1
 42
1.0
 92
        8
 66
     8
 43
1.0
 76
     1
 77
     6
 78
     2
 67
     7
 79
     5
170
     0
171
     0
290
     0
174
     0
 93
        1
 44
0.0
173
     0
291
     1
 45
0.0
1001
ACAD
1000
AcDbSavedByObjectVersion
1070
     0
  0
VISUALSTYLE
  5
34
102
{ACAD_REACTORS
330
2A
102
}
330
2A
100
AcDbVisualStyle
  2
Conceptual
 70
     9
 71
     3
 72
     2
 73
     0
 90
        0
 40
-0.6
 41
-30.0
 62
     5
 63
     7
 74
     2
 91
        2
 64
     7
 65
   257
 75
     1
175
     1
 42
40.0
 92
        8
 66
     7
 43
1.0
 76
     1
 77
     6
 78
     2
 67
     7
 79
     3
170
     0
171
     0
290
     0
174
     0
 93
        1
 44
0.0
173
     0
291
     0
 45
0.0
1001
ACAD
1000
AcDbSavedByObjectVersion
1070
     0
  0
VISUALSTYLE
  5
35
102
{ACAD_REACTORS
330
2A
102
}
330
2A
100
AcDbVisualStyle
  2
Dim
 70
    11
 71
     2
 72
     2
 73
     0
 90
        0
 40
-0.6
 41
-30.0
 62
     5
 63
     7
 74
     1
 91
        4
 64
     7
 65
   257
 75
     1
175
     1
 42
1.0
 92
        8
 66
     7
 43
1.0
 76
     1
 77
     6
 78
     2
 67
     7
 79
     5
170
     0
171
     0
290
     0
174
     0
 93
        1
 44
-50.0
173
     0
291
     1
 45
0.0
1001
ACAD
1000
AcDbSavedByObjectVersion
1070
     0
  0
VISUALSTYLE
  5
39
102
{ACAD_REACTORS
330
2A
102
}
330
2A
100
AcDbVisualStyle
  2
Facepattern
 70
    15
 71
     2
 72
     2
 73
     0
 90
        0
 40
-0.6
 41
-30.0
 62
     5
 63
     7
 74
     1
 91
        4
 64
     7
 65
   257
 75
     1
175
     1
 42
1.0
 92
        8
 66
     7
 43
1.0
 76
     1
 77
     6
 78
     2
 67
     7
 79
     5
170
     0
171
     0
290
     0
174
     0
 93
        1
 44
0.0
173
     0
291
     1
 45
0.0
1001
ACAD
1000
AcDbSavedByObjectVersion
1070
     0
  0
VISUALSTYLE
  5
2B
102
{ACAD_REACTORS
330
2A
102
}
330
2A
100
AcDbVisualStyle
  2
Flat
 70
     0
 71
     2
 72
     1
 73
     1
 90
        2
 40
-0.6
 41
30.0
 62
     5
 63
     7
 74
     0
 91
        4
 64
     7
 65
   257
 75
     1
175
     1
 42
1.0
 92
        8
 66
     7
 43
1.0
 76
     1
 77
     6
 78
     2
 67
     7
 79
     5
170
     0
171
     0
290
     0
174
     0
 93
       13
 44
0.0
173
     0
291
     1
 45
0.0
1001
ACAD
1000
AcDbSavedByObjectVersion
1070
     0
  0
VISUALSTYLE
  5
2C
102
{ACAD_REACTORS
330
2A
102
}
330
2A
100
AcDbVisualStyle
  2
FlatWithEdges
 70
     1
 71
     2
 72
     1
 73
     1
 90
        2
 40
-0.6
 41
30.0
 62
     5
 63
     7
 74
     1
 91
        4
 64
     7
 65
   257
 75
     1
175
     1
 42
1.0
 92
        0
 66
   257
 43
1.0
 76
     1
 77
     6
 78
     2
 67
     7
 79
     5
170
     0
171
     0
290
     0
174
     0
 93
       13
 44
0.0
173
     0
291
     1
 45
0.0
1001
ACAD
1000
AcDbSavedByObjectVersion
1070
     0
  0
VISUALSTYLE
  5
2D
102
{ACAD_REACTORS
330
2A
102
}
330
2A
100
AcDbVisualStyle
  2
Gouraud
 70
     2
 71
     2
 72
     2
 73
     1
 90
        2
 40
-0.6
 41
30.0
 62
     5
 63
     7
 74
     0
 91
        4
 64
     7
 65
   257
 75
     1
175
     1
 42
1.0
 92
        0
 66
     7
 43
1.0
 76
     1
 77
     6
 78
     2
 67
     7
 79
     5
170
     0
171
     0
290
     0
174
     0
 93
       13
 44
0.0
173
     0
291
     1
 45
0.0
1001
ACAD
1000
AcDbSavedByObjectVersion
1070
     0
  0
VISUALSTYLE
  5
2E
102
{ACAD_REACTORS
330
2A
102
}
330
2A
100
AcDbVisualStyle
  2
GouraudWithEdges
 70
     3
 71
     2
 72
     2
 73
     1
 90
        2
 40
-0.6
 41
30.0
 62
     5
 63
     7
 74
     1
 91
        4
 64
     7
 65
   257
 75
     1
175
     1
 42
1.0
 92
        0
 66
   257
 43
1.0
 76
     1
 77
     6
 78
     2
 67
     7
 79
     5
170
     0
171
     0
290
     0
174
     0
 93
       13
 44
0.0
173
     0
291
     1
 45
0.0
1001
ACAD
1000
AcDbSavedByObjectVersion
1070
     0
  0
VISUALSTYLE
  5
38
102
{ACAD_REACTORS
330
2A
102
}
330
2A
100
AcDbVisualStyle
  2
Linepattern
 70
    14
 71
     2
 72
     2
 73
     0
 90
        0
 40
-0.6
 41
-30.0
 62
     5
 63
     7
 74
     1
 91
        4
 64
     7
 65
   257
 75
     7
175
     7
 42
1.0
 92
        8
 66
     7
 43
1.0
 76
     1
 77
     6
 78
     2
 67
     7
 79
     5
170
     0
171
     0
290
     0
174
     0
 93
        1
 44
0.0
173
     0
291
     1
 45
0.0
1001
ACAD
1000
AcDbSavedByObjectVersion
1070
     0
  0
VISUALSTYLE
  5
33
102
{ACAD_REACTORS
330
2A
102
}
330
2A
100
AcDbVisualStyle
  2
Realistic
 70
     8
 71
     2
 72
     2
 73
     0
 90
        0
 40
-0.6
 41
-30.0
 62
     5
 63
     7
 74
     1
 91
        0
 64
     7
 65
   257
 75
     1
175
     1
 42
1.0
 92
        8
 66
     8
 43
1.0
 76
     1
 77
     6
 78
     2
 67
     7
 79
     5
170
     0
171
     0
290
     0
174
     0
 93
       13
 44
0.0
173
     0
291
     0
 45
0.0
1001
ACAD
1000
AcDbSavedByObjectVersion
1070
     0
  0
VISUALSTYLE
  5
37
102
{ACAD_REACTORS
330
2A
102
}
330
2A
100
AcDbVisualStyle
  2
Thicken
 70
    13
 71
     2
 72
     2
 73
     0
 90
        0
 40
-0.6
 41
-30.0
 62
     5
 63
     7
 74
     1
 91
        4
 64
     7
 65
   257
 75
     1
175
     1
 42
1.0
 92
       12
 66
     7
 43
1.0
 76
     1
 77
     6
 78
     2
 67
     7
 79
     5
170
     0
171
     0
290
     0
174
     0
 93
        1
 44
0.0
173
     0
291
     1
 45
0.0
1001
ACAD
1000
AcDbSavedByObjectVersion
1070
     0
  0
ENDSEC
  0
EOF
