  0
SECTION
  2
HEADER
  9
$ACADVER
  1
AC1009
  9
$LIMMIN
 10
0.000000
 20
0.000000
  9
$LIMMAX
 10
42.607080
 20
52.470603
  0
ENDSEC
  0
SECTION
  2
TABLES
  0
TABLE
  2
LTYPE
 70
     4
  0
LTYPE
  2
CONTINUOUS
 70
     0
  3
Solid line
 72
     65
 73
     0
 40
0.000000
  0
LTYPE
  2
HIDDEN
 70
     0
  3
 _ _ _ _ _ _ _ _ _ _ _
 72
     65
 73
     2
 40
0.375000
 49
0.250000
 49
-0.125000
  0
LTYPE
  2
DASHED
 70
     0
  3
 ___ ___ ___ ___ ___ ___ ___ 
 72
     65
 73
     2
 40
0.750000
 49
0.500000
 49
-0.250000
  0
LTYPE
  2
CENTER
 70
     0
  3
___ _ ___ _ ___ _ ___
 72
     65
 73
     4
 40
2.000000
 49
1.250000
 49
-0.250000
 49
0.250000
 49
-0.250000
  0
LTYPE
  2
BORDER
 70
     0
  3
___ ___ . ___ ___ . ___ ___
 72
     65
 73
     6
 40
1.750000
 49
0.500000
 49
-0.250000
 49
0.500000
 49
-0.250000
 49
0.000000
 49
-0.250000
  0
LTYPE
  2
DOT
 70
     0
  3
.................
 72
     65
 73
     2
 40
0.250000
 49
0.000000
 49
-0.250000
  0
LTYPE
  2
DASHDOT
 70
     0
  3
__ . __ . __ . __
 72
     65
 73
     4
 40
1.000000
 49
0.500000
 49
-0.250000
 49
0.000000
 49
-0.250000
  0
LTYPE
  2
DIVIDE
 70
     0
  3
___ .. ___ .. ___ .. ___
 72
     65
 73
     6
 40
1.250000
 49
0.500000
 49
-0.250000
 49
0.000000
 49
-0.250000
 49
0.000000
 49
-0.250000
  0
ENDTAB
  0
TABLE
  2
LAYER
 70
     8
  0
LAYER
  2
BLACK
 70
     0
 62
     1
  6
CONTINUOUS
  0
LAYER
  2
WHITE
 70
     0
 62
     7
  6
CONTINUOUS
  0
LAYER
  2
RED
 70
     0
 62
     1
  6
CONTINUOUS
  0
LAYER
  2
YELLOW
 70
     0
 62
     2
  6
CONTINUOUS
  0
LAYER
  2
GREEN
 70
     0
 62
     3
  6
CONTINUOUS
  0
LAYER
  2
CYAN
 70
     0
 62
     4
  6
CONTINUOUS
  0
LAYER
  2
BLUE
 70
     0
 62
     5
  6
CONTINUOUS
  0
LAYER
  2
MAGENTA
 70
     0
 62
     6
  6
CONTINUOUS
  0
ENDTAB
  0
ENDSEC
  0
SECTION
  2
BLOCKS
  0
ENDSEC
  0
SECTION
  2
ENTITIES
  0
LINE
  8
WHITE
 10
39.607080
 20
0.000000
 30
0.000000
 11
3.000000
 21
0.000000
 31
0.000000
  6
CONTINUOUS
  0
ARC
  8
WHITE
 10
3.000000
 20
3.000000
 30
0.000000
 40
3.000000
 50
180.000000
 51
270.000000
  6
CONTINUOUS
  0
LINE
  8
WHITE
 10
0.000000
 20
3.000000
 30
0.000000
 11
0.000000
 21
49.470603
 31
0.000000
  6
CONTINUOUS
  0
ARC
  8
WHITE
 10
3.000000
 20
49.470603
 30
0.000000
 40
3.000000
 50
90.000000
 51
180.000000
  6
CONTINUOUS
  0
LINE
  8
WHITE
 10
3.000000
 20
52.470603
 30
0.000000
 11
39.607080
 21
52.470603
 31
0.000000
  6
CONTINUOUS
  0
ARC
  8
WHITE
 10
39.607080
 20
49.470603
 30
0.000000
 40
3.000000
 50
0.000000
 51
90.000000
  6
CONTINUOUS
  0
LINE
  8
WHITE
 10
42.607080
 20
49.470603
 30
0.000000
 11
42.607080
 21
3.000000
 31
0.000000
  6
CONTINUOUS
  0
ARC
  8
WHITE
 10
39.607080
 20
3.000000
 30
0.000000
 40
3.000000
 50
-90.000000
 51
0.000000
  6
CONTINUOUS
  0
LINE
  8
WHITE
 10
13.892155
 20
12.683096
 30
0.000000
 11
13.822454
 21
12.383791
 31
0.000000
  6
CONTINUOUS
  0
ARC
  8
WHITE
 10
14.145120
 20
8.663293
 30
0.000000
 40
3.734464
 50
94.956664
 51
104.346996
  6
CONTINUOUS
  0
ARC
  8
WHITE
 10
13.379124
 20
11.779039
 30
0.000000
 40
0.526932
 50
107.605974
 51
170.822448
  6
CONTINUOUS
  0
LINE
  8
WHITE
 10
12.858938
 20
11.863082
 30
0.000000
 11
11.944622
 21
7.791713
 31
0.000000
  6
CONTINUOUS
  0
ARC
  8
WHITE
 10
13.369396
 20
7.442797
 30
0.000000
 40
1.466875
 50
166.239528
 51
175.173850
  6
CONTINUOUS
  0
ARC
  8
WHITE
 10
12.196430
 20
7.550236
 30
0.000000
 40
0.289150
 50
176.833285
 51
241.717245
  6
CONTINUOUS
  0
ARC
  8
WHITE
 10
12.722645
 20
8.888286
 30
0.000000
 40
1.725252
 50
-112.607718
 51
-92.282497
  6
CONTINUOUS
  0
LINE
  8
WHITE
 10
12.653934
 20
7.164402
 30
0.000000
 11
12.584233
 21
6.865097
 31
0.000000
  6
CONTINUOUS
  0
LINE
  8
WHITE
 10
12.584233
 20
6.865097
 30
0.000000
 11
9.439479
 21
6.865097
 31
0.000000
  6
CONTINUOUS
  0
LINE
  8
WHITE
 10
9.439479
 20
6.865097
 30
0.000000
 11
9.509181
 21
7.164402
 31
0.000000
  6
CONTINUOUS
  0
ARC
  8
WHITE
 10
9.184933
 20
10.857198
 30
0.000000
 40
3.707004
 50
-84.981982
 51
-75.584634
  6
CONTINUOUS
  0
ARC
  8
WHITE
 10
9.953128
 20
7.791421
 30
0.000000
 40
0.546844
 50
-73.571004
 51
-9.027988
  6
CONTINUOUS
  0
LINE
  8
WHITE
 10
10.493198
 20
7.705612
 30
0.000000
 11
11.477214
 21
12.072186
 31
0.000000
  6
CONTINUOUS
  0
LINE
  8
WHITE
 10
11.477214
 20
12.072186
 30
0.000000
 11
11.436213
 21
12.072186
 31
0.000000
  6
CONTINUOUS
  0
LINE
  8
WHITE
 10
11.436213
 20
12.072186
 30
0.000000
 11
8.275060
 21
6.959399
 31
0.000000
  6
CONTINUOUS
  0
LINE
  8
WHITE
 10
8.275060
 20
6.959399
 30
0.000000
 11
7.758451
 21
6.959399
 31
0.000000
  6
CONTINUOUS
  0
ARC
  8
WHITE
 10
-17.464569
 20
4.406157
 30
0.000000
 40
25.351919
 50
5.780171
 51
8.469861
  6
CONTINUOUS
  0
LINE
  8
WHITE
 10
7.610849
 20
8.140219
 30
0.000000
 11
7.053239
 21
12.137787
 31
0.000000
  6
CONTINUOUS
  0
LINE
  8
WHITE
 10
7.053239
 20
12.137787
 30
0.000000
 11
7.012238
 21
12.137787
 31
0.000000
  6
CONTINUOUS
  0
LINE
  8
WHITE
 10
7.012238
 20
12.137787
 30
0.000000
 11
6.192224
 21
8.574826
 31
0.000000
  6
CONTINUOUS
  0
ARC
  8
WHITE
 10
9.523054
 20
7.718273
 30
0.000000
 40
3.439202
 50
165.578358
 51
178.161447
  6
CONTINUOUS
  0
ARC
  8
WHITE
 10
6.604638
 20
7.768703
 30
0.000000
 40
0.522462
 50
173.415382
 51
222.073962
  6
CONTINUOUS
  0
ARC
  8
WHITE
 10
6.742980
 20
8.063463
 30
0.000000
 40
0.832273
 50
-129.211919
 51
-104.209751
  6
CONTINUOUS
  0
ARC
  8
WHITE
 10
7.318268
 20
9.506905
 30
0.000000
 40
2.381468
 50
-109.108386
 51
-100.378752
  6
CONTINUOUS
  0
LINE
  8
WHITE
 10
6.889236
 20
7.164402
 30
0.000000
 11
6.819535
 21
6.865097
 31
0.000000
  6
CONTINUOUS
  0
LINE
  8
WHITE
 10
6.819535
 20
6.865097
 30
0.000000
 11
4.318493
 21
6.865097
 31
0.000000
  6
CONTINUOUS
  0
LINE
  8
WHITE
 10
4.318493
 20
6.865097
 30
0.000000
 11
4.388194
 21
7.164402
 31
0.000000
  6
CONTINUOUS
  0
ARC
  8
WHITE
 10
4.234431
 20
9.257361
 30
0.000000
 40
2.098600
 50
-85.798211
 51
-64.108996
  6
CONTINUOUS
  0
ARC
  8
WHITE
 10
4.677374
 20
8.063347
 30
0.000000
 40
0.840055
 50
-55.696735
 51
-21.999586
  6
CONTINUOUS
  0
ARC
  8
WHITE
 10
1.483183
 20
9.391588
 30
0.000000
 40
4.299367
 50
-22.465802
 51
-11.508245
  6
CONTINUOUS
  0
LINE
  8
WHITE
 10
5.696117
 20
8.533826
 30
0.000000
 11
6.360327
 21
11.407974
 31
0.000000
  6
CONTINUOUS
  0
ARC
  8
WHITE
 10
4.838140
 20
11.815435
 30
0.000000
 40
1.575778
 50
-14.985678
 51
-1.100124
  6
CONTINUOUS
  0
ARC
  8
WHITE
 10
5.902261
 20
11.818132
 30
0.000000
 40
0.512428
 50
-3.686910
 51
43.457294
  6
CONTINUOUS
  0
ARC
  8
WHITE
 10
5.659564
 20
11.392179
 30
0.000000
 40
0.991831
 50
51.703974
 51
91.204479
  6
CONTINUOUS
  0
LINE
  8
WHITE
 10
5.638715
 20
12.383791
 30
0.000000
 11
5.708416
 21
12.683096
 31
0.000000
  6
CONTINUOUS
  0
LINE
  8
WHITE
 10
5.708416
 20
12.683096
 30
0.000000
 11
8.369361
 21
12.683096
 31
0.000000
  6
CONTINUOUS
  0
LINE
  8
WHITE
 10
8.369361
 20
12.683096
 30
0.000000
 11
8.926971
 21
8.841331
 31
0.000000
  6
CONTINUOUS
  0
LINE
  8
WHITE
 10
8.926971
 20
8.841331
 30
0.000000
 11
10.833503
 21
11.961484
 31
0.000000
  6
CONTINUOUS
  0
ARC
  8
WHITE
 10
6.737348
 20
14.384703
 30
0.000000
 40
4.759252
 50
-30.607872
 51
-20.948989
  6
CONTINUOUS
  0
LINE
  8
WHITE
 10
11.182009
 20
12.683096
 30
0.000000
 11
13.892155
 21
12.683096
 31
0.000000
  6
CONTINUOUS
  0
LINE
  8
WHITE
 10
16.444244
 20
20.050000
 30
0.000000
 11
26.530183
 21
20.050000
 31
0.000000
  6
CONTINUOUS
  0
LINE
  8
WHITE
 10
26.530183
 20
20.050000
 30
0.000000
 11
26.530183
 21
17.950000
 31
0.000000
  6
CONTINUOUS
  0
LINE
  8
WHITE
 10
26.530183
 20
17.950000
 30
0.000000
 11
16.444244
 21
17.950000
 31
0.000000
  6
CONTINUOUS
  0
LINE
  8
WHITE
 10
16.444244
 20
17.950000
 30
0.000000
 11
16.444244
 21
20.050000
 31
0.000000
  6
CONTINUOUS
  0
ARC
  8
WHITE
 10
35.206552
 20
10.169431
 30
0.000000
 40
2.438001
 50
-14.902400
 51
0.007567
  6
CONTINUOUS
  0
ARC
  8
WHITE
 10
36.831431
 20
10.182009
 30
0.000000
 40
0.813214
 50
-0.863542
 51
46.980103
  6
CONTINUOUS
  0
ARC
  8
WHITE
 10
36.729510
 20
10.045786
 30
0.000000
 40
0.982518
 50
48.054467
 51
93.306820
  6
CONTINUOUS
  0
ARC
  8
WHITE
 10
36.639902
 20
9.238515
 30
0.000000
 40
1.788456
 50
88.944866
 51
117.581776
  6
CONTINUOUS
  0
ARC
  8
WHITE
 10
38.110763
 20
6.726760
 30
0.000000
 40
4.697890
 50
119.298274
 51
131.531583
  6
CONTINUOUS
  0
LINE
  8
WHITE
 10
34.995908
 20
10.243555
 30
0.000000
 11
34.967207
 21
10.243554
 31
0.000000
  6
CONTINUOUS
  0
ARC
  8
WHITE
 10
34.177283
 20
10.178684
 30
0.000000
 40
0.792583
 50
4.694732
 51
51.755942
  6
CONTINUOUS
  0
ARC
  8
WHITE
 10
34.018046
 20
9.981650
 30
0.000000
 40
1.045904
 50
51.586382
 51
92.359287
  6
CONTINUOUS
  0
ARC
  8
WHITE
 10
33.937209
 20
9.140805
 30
0.000000
 40
1.886241
 50
88.852282
 51
116.432034
  6
CONTINUOUS
  0
ARC
  8
WHITE
 10
34.854942
 20
7.574763
 30
0.000000
 40
3.699193
 50
118.363758
 51
133.549645
  6
CONTINUOUS
  0
LINE
  8
WHITE
 10
32.306262
 20
10.255855
 30
0.000000
 11
32.277562
 21
10.255855
 31
0.000000
  6
CONTINUOUS
  0
ARC
  8
WHITE
 10
31.218975
 20
9.979104
 30
0.000000
 40
1.094165
 50
14.651150
 51
46.945367
  6
CONTINUOUS
  0
ARC
  8
WHITE
 10
31.339169
 20
9.934380
 30
0.000000
 40
1.051471
 50
53.408574
 51
95.174163
  6
CONTINUOUS
  0
ARC
  8
WHITE
 10
31.267922
 20
9.083108
 30
0.000000
 40
1.898605
 50
90.711561
 51
108.345787
  6
CONTINUOUS
  0
ARC
  8
WHITE
 10
33.275939
 20
2.749550
 30
0.000000
 40
8.542730
 50
107.758675
 51
112.296553
  6
CONTINUOUS
  0
LINE
  8
WHITE
 10
30.034823
 20
10.653562
 30
0.000000
 11
29.944622
 21
10.284556
 31
0.000000
  6
CONTINUOUS
  0
ARC
  8
WHITE
 10
30.548088
 20
8.853961
 30
0.000000
 40
1.552666
 50
93.661541
 51
112.871414
  6
CONTINUOUS
  0
ARC
  8
WHITE
 10
30.509747
 20
9.883767
 30
0.000000
 40
0.523237
 50
55.563075
 51
96.674601
  6
CONTINUOUS
  0
ARC
  8
WHITE
 10
30.452256
 20
10.042702
 30
0.000000
 40
0.446308
 50
-6.335731
 51
37.647227
  6
CONTINUOUS
  0
ARC
  8
WHITE
 10
27.001968
 20
10.339136
 30
0.000000
 40
3.909185
 50
-14.102419
 51
-5.073245
  6
CONTINUOUS
  0
LINE
  8
WHITE
 10
30.793336
 20
9.386640
 30
0.000000
 11
30.211126
 21
6.865097
 31
0.000000
  6
CONTINUOUS
  0
LINE
  8
WHITE
 10
30.211126
 20
6.865097
 30
0.000000
 11
31.568249
 21
6.865097
 31
0.000000
  6
CONTINUOUS
  0
LINE
  8
WHITE
 10
31.568249
 20
6.865097
 30
0.000000
 11
32.244762
 21
9.825347
 31
0.000000
  6
CONTINUOUS
  0
ARC
  8
WHITE
 10
33.938840
 20
8.082931
 30
0.000000
 40
2.430209
 50
117.662881
 51
134.194129
  6
CONTINUOUS
  0
ARC
  8
WHITE
 10
33.242161
 20
9.408417
 30
0.000000
 40
0.932789
 50
94.857351
 51
117.560695
  6
CONTINUOUS
  0
ARC
  8
WHITE
 10
33.218959
 20
9.971858
 30
0.000000
 40
0.370225
 50
-8.106865
 51
98.665818
  6
CONTINUOUS
  0
ARC
  8
WHITE
 10
30.766779
 20
10.094889
 30
0.000000
 40
2.824147
 50
-14.953925
 51
-3.557523
  6
CONTINUOUS
  0
LINE
  8
WHITE
 10
33.495282
 20
9.366140
 30
0.000000
 11
32.921272
 21
6.865097
 31
0.000000
  6
CONTINUOUS
  0
LINE
  8
WHITE
 10
32.921272
 20
6.865097
 30
0.000000
 11
34.278395
 21
6.865097
 31
0.000000
  6
CONTINUOUS
  0
LINE
  8
WHITE
 10
34.278395
 20
6.865097
 30
0.000000
 11
34.954907
 21
9.825347
 31
0.000000
  6
CONTINUOUS
  0
ARC
  8
WHITE
 10
36.796792
 20
7.929744
 30
0.000000
 40
2.643076
 50
120.867111
 51
134.176549
  6
CONTINUOUS
  0
ARC
  8
WHITE
 10
35.910336
 20
9.496886
 30
0.000000
 40
0.844212
 50
95.022880
 51
123.795036
  6
CONTINUOUS
  0
ARC
  8
WHITE
 10
35.888879
 20
9.972106
 30
0.000000
 40
0.369493
 50
-8.161817
 51
98.161836
  6
CONTINUOUS
  0
ARC
  8
WHITE
 10
33.783061
 20
10.043320
 30
0.000000
 40
2.474660
 50
-15.782653
 51
-2.864537
  6
CONTINUOUS
  0
LINE
  8
WHITE
 10
36.164427
 20
9.370240
 30
0.000000
 11
35.869222
 21
8.279622
 31
0.000000
  6
CONTINUOUS
  0
ARC
  8
WHITE
 10
38.186584
 20
7.673028
 30
0.000000
 40
2.395438
 50
165.331346
 51
180.691687
  6
CONTINUOUS
  0
ARC
  8
WHITE
 10
36.572726
 20
7.630834
 30
0.000000
 40
0.781518
 50
179.026611
 51
229.186377
  6
CONTINUOUS
  0
ARC
  8
WHITE
 10
36.752804
 20
7.886282
 30
0.000000
 40
1.092980
 50
-129.205600
 51
-86.452238
  6
CONTINUOUS
  0
ARC
  8
WHITE
 10
36.851689
 20
8.505507
 30
0.000000
 40
1.710397
 50
-91.046911
 51
-71.932451
  6
CONTINUOUS
  0
ARC
  8
WHITE
 10
31.412062
 20
23.714881
 30
0.000000
 40
17.862635
 50
-70.474764
 51
-68.254266
  6
CONTINUOUS
  0
LINE
  8
WHITE
 10
38.029959
 20
7.123402
 30
0.000000
 11
38.120160
 21
7.492408
 31
0.000000
  6
CONTINUOUS
  0
ARC
  8
WHITE
 10
37.524295
 20
8.890764
 30
0.000000
 40
1.520018
 50
-86.546730
 51
-66.920269
  6
CONTINUOUS
  0
ARC
  8
WHITE
 10
37.560028
 20
7.960605
 30
0.000000
 40
0.589747
 50
-121.841342
 51
-84.568348
  6
CONTINUOUS
  0
ARC
  8
WHITE
 10
37.546282
 20
7.734426
 30
0.000000
 40
0.404924
 50
173.037166
 51
222.741402
  6
CONTINUOUS
  0
ARC
  8
WHITE
 10
40.098697
 20
7.577274
 30
0.000000
 40
2.961543
 50
164.065656
 51
176.006742
  6
CONTINUOUS
  0
LINE
  8
WHITE
 10
37.250946
 20
8.390323
 30
0.000000
 11
37.562552
 21
9.542442
 31
0.000000
  6
CONTINUOUS
  0
ARC
  8
WHITE
 10
17.872300
 20
9.083108
 30
0.000000
 40
1.898605
 50
90.711561
 51
108.345790
  6
CONTINUOUS
  0
ARC
  8
WHITE
 10
19.880317
 20
2.749550
 30
0.000000
 40
8.542729
 50
107.758676
 51
112.296553
  6
CONTINUOUS
  0
LINE
  8
WHITE
 10
16.639201
 20
10.653562
 30
0.000000
 11
16.549000
 21
10.284556
 31
0.000000
  6
CONTINUOUS
  0
ARC
  8
WHITE
 10
17.152466
 20
8.853961
 30
0.000000
 40
1.552666
 50
93.661563
 51
112.871414
  6
CONTINUOUS
  0
ARC
  8
WHITE
 10
17.112400
 20
9.873385
 30
0.000000
 40
0.533355
 50
56.347114
 51
96.360987
  6
CONTINUOUS
  0
ARC
  8
WHITE
 10
17.064508
 20
10.044446
 30
0.000000
 40
0.438682
 50
-6.675620
 51
38.470562
  6
CONTINUOUS
  0
ARC
  8
WHITE
 10
13.811823
 20
10.304427
 30
0.000000
 40
3.701479
 50
-14.356321
 51
-4.819342
  6
CONTINUOUS
  0
LINE
  8
WHITE
 10
17.397714
 20
9.386640
 30
0.000000
 11
16.831905
 21
6.865097
 31
0.000000
  6
CONTINUOUS
  0
LINE
  8
WHITE
 10
16.831905
 20
6.865097
 30
0.000000
 11
18.189028
 21
6.865097
 31
0.000000
  6
CONTINUOUS
  0
LINE
  8
WHITE
 10
18.189028
 20
6.865097
 30
0.000000
 11
18.836839
 21
9.767947
 31
0.000000
  6
CONTINUOUS
  0
ARC
  8
WHITE
 10
20.549007
 20
8.442246
 30
0.000000
 40
2.165410
 50
113.499952
 51
142.250022
  6
CONTINUOUS
  0
ARC
  8
WHITE
 10
39.240237
 20
1.984199
 30
0.000000
 40
21.299868
 50
156.644953
 51
157.769512
  6
CONTINUOUS
  0
ARC
  8
WHITE
 10
20.282198
 20
9.758478
 30
0.000000
 40
0.810077
 50
159.463915
 51
181.360406
  6
CONTINUOUS
  0
ARC
  8
WHITE
 10
19.915581
 20
9.753050
 30
0.000000
 40
0.443447
 50
-178.216118
 51
-127.009064
  6
CONTINUOUS
  0
ARC
  8
WHITE
 10
20.091388
 20
9.963579
 30
0.000000
 40
0.717518
 50
-128.100147
 51
-86.718460
  6
CONTINUOUS
  0
ARC
  8
WHITE
 10
20.196569
 20
9.937761
 30
0.000000
 40
0.693493
 50
-95.304167
 51
-36.841278
  6
CONTINUOUS
  0
ARC
  8
WHITE
 10
19.959905
 20
10.141671
 30
0.000000
 40
1.005385
 50
-38.054393
 51
1.834338
  6
CONTINUOUS
  0
ARC
  8
WHITE
 10
20.060915
 20
10.235781
 30
0.000000
 40
0.905978
 50
-3.919494
 51
39.112556
  6
CONTINUOUS
  0
ARC
  8
WHITE
 10
20.250655
 20
10.319597
 30
0.000000
 40
0.707996
 50
43.540673
 51
92.930275
  6
CONTINUOUS
  0
ARC
  8
WHITE
 10
20.211694
 20
9.869439
 30
0.000000
 40
1.157233
 50
89.862968
 51
121.464596
  6
CONTINUOUS
  0
ARC
  8
WHITE
 10
21.583021
 20
7.895965
 30
0.000000
 40
3.559065
 50
123.712427
 51
138.465978
  6
CONTINUOUS
  0
LINE
  8
WHITE
 10
18.918840
 20
10.255855
 30
0.000000
 11
18.890140
 21
10.255855
 31
0.000000
  6
CONTINUOUS
  0
ARC
  8
WHITE
 10
17.991337
 20
10.083965
 30
0.000000
 40
0.915092
 50
10.826683
 51
50.582908
  6
CONTINUOUS
  0
ARC
  8
WHITE
 10
17.933548
 20
9.834811
 30
0.000000
 40
1.149889
 50
56.250452
 51
94.230505
  6
CONTINUOUS
  0
ARC
  8
WHITE
 10
14.913357
 20
7.871907
 30
0.000000
 40
1.119666
 50
-128.384912
 51
-86.445545
  6
CONTINUOUS
  0
ARC
  8
WHITE
 10
15.014024
 20
8.464507
 30
0.000000
 40
1.710398
 50
-91.046917
 51
-71.932461
  6
CONTINUOUS
  0
ARC
  8
WHITE
 10
9.574397
 20
23.673880
 30
0.000000
 40
17.862635
 50
-70.474764
 51
-68.254266
  6
CONTINUOUS
  0
LINE
  8
WHITE
 10
16.192294
 20
7.082401
 30
0.000000
 11
16.282496
 21
7.451407
 31
0.000000
  6
CONTINUOUS
  0
ARC
  8
WHITE
 10
15.569092
 20
9.348290
 30
0.000000
 40
2.026601
 50
-84.077959
 51
-69.389088
  6
CONTINUOUS
  0
ARC
  8
WHITE
 10
15.722928
 20
7.929460
 30
0.000000
 40
0.599507
 50
-121.556674
 51
-84.711322
  6
CONTINUOUS
  0
ARC
  8
WHITE
 10
15.699855
 20
7.693766
 30
0.000000
 40
0.400255
 50
173.004719
 51
223.429417
  6
CONTINUOUS
  0
ARC
  8
WHITE
 10
18.256932
 20
7.536273
 30
0.000000
 40
2.961543
 50
164.065656
 51
176.006742
  6
CONTINUOUS
  0
LINE
  8
WHITE
 10
15.409181
 20
8.349322
 30
0.000000
 11
15.745387
 21
9.542442
 31
0.000000
  6
CONTINUOUS
  0
ARC
  8
WHITE
 10
13.114612
 20
10.222458
 30
0.000000
 40
2.717241
 50
-14.492876
 51
-0.938471
  6
CONTINUOUS
  0
ARC
  8
WHITE
 10
15.049194
 20
10.203970
 30
0.000000
 40
0.782726
 50
-1.904787
 51
48.579210
  6
CONTINUOUS
  0
ARC
  8
WHITE
 10
14.885850
 20
9.935437
 30
0.000000
 40
1.093550
 50
51.471041
 51
93.732030
  6
CONTINUOUS
  0
ARC
  8
WHITE
 10
14.838249
 20
9.128209
 30
0.000000
 40
1.898605
 50
90.711561
 51
108.345787
  6
CONTINUOUS
  0
ARC
  8
WHITE
 10
16.846266
 20
2.794651
 30
0.000000
 40
8.542730
 50
107.758675
 51
112.296555
  6
CONTINUOUS
  0
LINE
  8
WHITE
 10
13.605150
 20
10.698662
 30
0.000000
 11
13.514948
 21
10.329657
 31
0.000000
  6
CONTINUOUS
  0
ARC
  8
WHITE
 10
14.118414
 20
8.899062
 30
0.000000
 40
1.552666
 50
93.661544
 51
112.871414
  6
CONTINUOUS
  0
ARC
  8
WHITE
 10
14.078771
 20
9.919901
 30
0.000000
 40
0.531996
 50
55.504470
 51
96.423090
  6
CONTINUOUS
  0
ARC
  8
WHITE
 10
14.042867
 20
10.085121
 30
0.000000
 40
0.434003
 50
-6.159860
 51
39.018442
  6
CONTINUOUS
  0
ARC
  8
WHITE
 10
11.895928
 20
10.178751
 30
0.000000
 40
2.582245
 50
-16.815273
 51
-3.112333
  6
CONTINUOUS
  0
LINE
  8
WHITE
 10
14.367763
 20
9.431741
 30
0.000000
 11
14.031558
 21
8.234521
 31
0.000000
  6
CONTINUOUS
  0
ARC
  8
WHITE
 10
16.568853
 20
7.566950
 30
0.000000
 40
2.623646
 50
165.259365
 51
179.210317
  6
CONTINUOUS
  0
ARC
  8
WHITE
 10
14.720676
 20
7.584783
 30
0.000000
 40
0.775437
 50
178.645762
 51
229.601007
  6
CONTINUOUS
  0
ARC
  8
WHITE
 10
22.866352
 20
8.464507
 30
0.000000
 40
1.710397
 50
-91.046911
 51
-71.932461
  6
CONTINUOUS
  0
ARC
  8
WHITE
 10
17.426725
 20
23.673880
 30
0.000000
 40
17.862635
 50
-70.474764
 51
-68.254266
  6
CONTINUOUS
  0
LINE
  8
WHITE
 10
24.044622
 20
7.082401
 30
0.000000
 11
24.134824
 21
7.451407
 31
0.000000
  6
CONTINUOUS
  0
ARC
  8
WHITE
 10
23.421420
 20
9.348290
 30
0.000000
 40
2.026601
 50
-84.077959
 51
-69.389088
  6
CONTINUOUS
  0
ARC
  8
WHITE
 10
23.575256
 20
7.929460
 30
0.000000
 40
0.599507
 50
-121.556674
 51
-84.711322
  6
CONTINUOUS
  0
ARC
  8
WHITE
 10
23.552183
 20
7.693766
 30
0.000000
 40
0.400255
 50
173.004719
 51
223.429417
  6
CONTINUOUS
  0
ARC
  8
WHITE
 10
26.109260
 20
7.536273
 30
0.000000
 40
2.961543
 50
164.065656
 51
176.006742
  6
CONTINUOUS
  0
LINE
  8
WHITE
 10
23.261509
 20
8.349322
 30
0.000000
 11
23.597715
 21
9.542442
 31
0.000000
  6
CONTINUOUS
  0
ARC
  8
WHITE
 10
20.966940
 20
10.222458
 30
0.000000
 40
2.717241
 50
-14.492876
 51
-0.938471
  6
CONTINUOUS
  0
ARC
  8
WHITE
 10
22.901522
 20
10.203970
 30
0.000000
 40
0.782726
 50
-1.904787
 51
48.579210
  6
CONTINUOUS
  0
ARC
  8
WHITE
 10
22.738178
 20
9.935437
 30
0.000000
 40
1.093550
 50
51.471041
 51
93.732030
  6
CONTINUOUS
  0
ARC
  8
WHITE
 10
22.690577
 20
9.128209
 30
0.000000
 40
1.898605
 50
90.711561
 51
108.345787
  6
CONTINUOUS
  0
ARC
  8
WHITE
 10
24.698594
 20
2.794651
 30
0.000000
 40
8.542730
 50
107.758675
 51
112.296555
  6
CONTINUOUS
  0
LINE
  8
WHITE
 10
21.457478
 20
10.698662
 30
0.000000
 11
21.367276
 21
10.329657
 31
0.000000
  6
CONTINUOUS
  0
ARC
  8
WHITE
 10
21.970742
 20
8.899062
 30
0.000000
 40
1.552666
 50
93.661544
 51
112.871414
  6
CONTINUOUS
  0
ARC
  8
WHITE
 10
21.931099
 20
9.919901
 30
0.000000
 40
0.531996
 50
55.504470
 51
96.423090
  6
CONTINUOUS
  0
ARC
  8
WHITE
 10
21.895195
 20
10.085121
 30
0.000000
 40
0.434003
 50
-6.159860
 51
39.018442
  6
CONTINUOUS
  0
ARC
  8
WHITE
 10
19.748256
 20
10.178751
 30
0.000000
 40
2.582245
 50
-16.815273
 51
-3.112333
  6
CONTINUOUS
  0
LINE
  8
WHITE
 10
22.220091
 20
9.431741
 30
0.000000
 11
21.883886
 21
8.234521
 31
0.000000
  6
CONTINUOUS
  0
ARC
  8
WHITE
 10
24.421181
 20
7.566950
 30
0.000000
 40
2.623646
 50
165.259365
 51
179.210317
  6
CONTINUOUS
  0
ARC
  8
WHITE
 10
22.573004
 20
7.584783
 30
0.000000
 40
0.775437
 50
178.645762
 51
229.601007
  6
CONTINUOUS
  0
ARC
  8
WHITE
 10
22.765685
 20
7.871907
 30
0.000000
 40
1.119666
 50
-128.384912
 51
-86.445534
  6
CONTINUOUS
  0
ARC
  8
WHITE
 10
27.382745
 20
8.216683
 30
0.000000
 40
1.368060
 50
176.847327
 51
205.500347
  6
CONTINUOUS
  0
ARC
  8
WHITE
 10
26.619690
 20
7.906117
 30
0.000000
 40
0.547761
 50
-149.451802
 51
-75.193760
  6
CONTINUOUS
  0
LINE
  8
WHITE
 10
26.759671
 20
7.376544
 30
0.000000
 11
26.643694
 21
6.884549
 31
0.000000
  6
CONTINUOUS
  0
ARC
  8
WHITE
 10
25.967151
 20
8.371896
 30
0.000000
 40
1.633987
 50
-89.410769
 51
-65.540840
  6
CONTINUOUS
  0
ARC
  8
WHITE
 10
25.886747
 20
8.072555
 30
0.000000
 40
1.338095
 50
-136.898995
 51
-85.834004
  6
CONTINUOUS
  0
ARC
  8
WHITE
 10
26.253983
 20
8.211608
 30
0.000000
 40
1.707793
 50
176.753569
 51
218.082351
  6
CONTINUOUS
  0
ARC
  8
WHITE
 10
27.412139
 20
8.308429
 30
0.000000
 40
2.863208
 50
137.922825
 51
180.002154
  6
CONTINUOUS
  0
ARC
  8
WHITE
 10
27.073109
 20
8.629203
 30
0.000000
 40
2.396630
 50
77.158294
 51
138.183357
  6
CONTINUOUS
  0
LINE
  8
WHITE
 10
27.605780
 20
10.965889
 30
0.000000
 11
27.516975
 21
10.589163
 31
0.000000
  6
CONTINUOUS
  0
ARC
  8
WHITE
 10
27.309298
 20
9.827116
 30
0.000000
 40
0.789838
 50
74.755656
 51
131.144285
  6
CONTINUOUS
  0
ARC
  8
WHITE
 10
27.994922
 20
9.066829
 30
0.000000
 40
1.813559
 50
131.652174
 51
152.535186
  6
CONTINUOUS
  0
ARC
  8
WHITE
 10
29.554730
 20
8.329615
 30
0.000000
 40
3.538175
 50
153.592099
 51
180.610399
  6
CONTINUOUS
  0
LINE
  8
WHITE
 10
28.069870
 20
10.755417
 30
0.000000
 11
27.249276
 21
7.274312
 31
0.000000
  6
CONTINUOUS
  0
ARC
  8
WHITE
 10
28.454673
 20
8.506679
 30
0.000000
 40
1.723864
 50
-134.366124
 51
-72.004205
  6
CONTINUOUS
  0
ARC
  8
WHITE
 10
23.404708
 20
22.725852
 30
0.000000
 40
16.812595
 50
-70.607020
 51
-68.241280
  6
CONTINUOUS
  0
LINE
  8
WHITE
 10
29.637117
 20
7.111101
 30
0.000000
 11
29.727318
 21
7.480108
 31
0.000000
  6
CONTINUOUS
  0
ARC
  8
WHITE
 10
29.087257
 20
9.065916
 30
0.000000
 40
1.710107
 50
-85.446925
 51
-68.020107
  6
CONTINUOUS
  0
ARC
  8
WHITE
 10
29.168006
 20
7.947373
 30
0.000000
 40
0.588742
 50
-122.231782
 51
-84.639286
  6
CONTINUOUS
  0
ARC
  8
WHITE
 10
29.145697
 20
7.724551
 30
0.000000
 40
0.401020
 50
173.318098
 51
223.332756
  6
CONTINUOUS
  0
ARC
  8
WHITE
 10
32.202201
 20
7.477057
 30
0.000000
 40
3.467300
 50
164.939042
 51
175.133346
  6
CONTINUOUS
  0
LINE
  8
WHITE
 10
28.854003
 20
8.378023
 30
0.000000
 11
29.456714
 21
10.899566
 31
0.000000
  6
CONTINUOUS
  0
LINE
  8
WHITE
 10
29.456714
 20
10.899566
 30
0.000000
 11
29.399313
 21
10.965167
 31
0.000000
  6
CONTINUOUS
  0
LINE
  8
WHITE
 10
29.399313
 20
10.965167
 30
0.000000
 11
28.069870
 21
10.755417
 31
0.000000
  6
CONTINUOUS
  0
ARC
  8
WHITE
 10
15.538618
 20
12.488807
 30
0.000000
 40
0.781972
 50
-177.712253
 51
-88.067861
  6
CONTINUOUS
  0
ARC
  8
WHITE
 10
15.590813
 20
12.485121
 30
0.000000
 40
0.778270
 50
-91.901952
 51
-2.027098
  6
CONTINUOUS
  0
ARC
  8
WHITE
 10
15.587463
 20
12.430733
 30
0.000000
 40
0.781595
 50
1.969312
 51
91.648130
  6
CONTINUOUS
  0
ARC
  8
WHITE
 10
15.541969
 20
12.427049
 30
0.000000
 40
0.785294
 50
88.320618
 51
177.770980
  6
CONTINUOUS
  0
ARC
  8
WHITE
 10
23.390946
 20
12.488807
 30
0.000000
 40
0.781972
 50
-177.712253
 51
-88.067861
  6
CONTINUOUS
  0
ARC
  8
WHITE
 10
23.443141
 20
12.485121
 30
0.000000
 40
0.778270
 50
-91.901952
 51
-2.027098
  6
CONTINUOUS
  0
ARC
  8
WHITE
 10
23.439791
 20
12.430733
 30
0.000000
 40
0.781595
 50
1.969312
 51
91.648130
  6
CONTINUOUS
  0
ARC
  8
WHITE
 10
23.394297
 20
12.427049
 30
0.000000
 40
0.785294
 50
88.320618
 51
177.770980
  6
CONTINUOUS
  0
LINE
  8
WHITE
 10
4.000000
 20
24.000000
 30
0.000000
 11
4.000000
 21
22.000000
 31
0.000000
  6
CONTINUOUS
  0
ARC
  8
WHITE
 10
4.000000
 20
20.000000
 30
0.000000
 40
2.000000
 50
90.000000
 51
180.000000
  6
CONTINUOUS
  0
LINE
  8
WHITE
 10
2.000000
 20
20.000000
 30
0.000000
 11
2.000000
 21
4.000000
 31
0.000000
  6
CONTINUOUS
  0
ARC
  8
WHITE
 10
4.000000
 20
4.000000
 30
0.000000
 40
2.000000
 50
180.000000
 51
270.000000
  6
CONTINUOUS
  0
LINE
  8
WHITE
 10
4.000000
 20
2.000000
 30
0.000000
 11
38.607080
 21
2.000000
 31
0.000000
  6
CONTINUOUS
  0
ARC
  8
WHITE
 10
38.607080
 20
4.000000
 30
0.000000
 40
2.000000
 50
-90.000000
 51
0.000000
  6
CONTINUOUS
  0
LINE
  8
WHITE
 10
40.607080
 20
4.000000
 30
0.000000
 11
40.607080
 21
20.000000
 31
0.000000
  6
CONTINUOUS
  0
ARC
  8
WHITE
 10
38.607080
 20
20.000000
 30
0.000000
 40
2.000000
 50
0.000000
 51
90.000000
  6
CONTINUOUS
  0
LINE
  8
WHITE
 10
38.607080
 20
22.000000
 30
0.000000
 11
4.500000
 21
22.000000
 31
0.000000
  6
CONTINUOUS
  0
ARC
  8
WHITE
 10
15.004092
 20
25.796990
 30
0.000000
 40
3.710292
 50
120.774551
 51
152.677646
  6
CONTINUOUS
  0
ARC
  8
WHITE
 10
17.327356
 20
20.938492
 30
0.000000
 40
9.086586
 50
92.837418
 51
117.684687
  6
CONTINUOUS
  0
ARC
  8
WHITE
 10
11.326792
 20
29.101072
 30
0.000000
 40
5.625323
 50
9.339144
 51
26.262098
  6
CONTINUOUS
  0
ARC
  8
WHITE
 10
12.746830
 20
39.828776
 30
0.000000
 40
9.000715
 50
-76.699247
 51
-66.252593
  6
CONTINUOUS
  0
ARC
  8
WHITE
 10
13.995320
 20
35.156142
 30
0.000000
 40
4.168541
 50
-113.509436
 51
-78.623913
  6
CONTINUOUS
  0
ARC
  8
WHITE
 10
14.996124
 20
37.425502
 30
0.000000
 40
6.648763
 50
-139.213045
 51
-113.617015
  6
CONTINUOUS
  0
ARC
  8
WHITE
 10
4.848960
 20
28.882368
 30
0.000000
 40
6.616825
 50
39.399319
 51
58.131067
  6
CONTINUOUS
  0
ARC
  8
WHITE
 10
8.767066
 20
30.628168
 30
0.000000
 40
3.896790
 50
74.285108
 51
96.254995
  6
CONTINUOUS
  0
ARC
  8
WHITE
 10
10.806722
 20
42.384912
 30
0.000000
 40
8.065882
 50
-97.008759
 51
-72.636315
  6
CONTINUOUS
  0
ARC
  8
WHITE
 10
14.416350
 20
31.621540
 30
0.000000
 40
3.292493
 50
82.868431
 51
111.421019
  6
CONTINUOUS
  0
ARC
  8
WHITE
 10
8.891564
 20
30.075606
 30
0.000000
 40
7.640123
 50
39.047019
 51
58.093089
  6
CONTINUOUS
  0
ARC
  8
WHITE
 10
18.788762
 20
45.826042
 30
0.000000
 40
10.961890
 50
-134.880499
 51
-122.309708
  6
CONTINUOUS
  0
ARC
  8
WHITE
 10
10.867956
 20
37.984728
 30
0.000000
 40
0.199937
 50
21.703716
 51
123.204947
  6
CONTINUOUS
  0
ARC
  8
WHITE
 10
8.896282
 20
40.445442
 30
0.000000
 40
2.954237
 50
-132.363572
 51
-50.924583
  6
CONTINUOUS
  0
ARC
  8
WHITE
 10
12.860926
 20
44.788320
 30
0.000000
 40
8.834627
 50
-148.401603
 51
-132.383276
  6
CONTINUOUS
  0
ARC
  8
WHITE
 10
1.218084
 20
36.864990
 30
0.000000
 40
5.273582
 50
38.658978
 51
58.162006
  6
CONTINUOUS
  0
ARC
  8
WHITE
 10
6.129638
 20
36.583630
 30
0.000000
 40
5.216051
 50
91.688215
 51
114.097175
  6
CONTINUOUS
  0
ARC
  8
WHITE
 10
14.069592
 20
44.315162
 30
0.000000
 40
8.476188
 50
177.613028
 51
197.279751
  6
CONTINUOUS
  0
ARC
  8
WHITE
 10
8.672154
 20
49.307444
 30
0.000000
 40
5.563831
 50
-123.506312
 51
-97.280885
  6
CONTINUOUS
  0
ARC
  8
WHITE
 10
13.180814
 20
43.634808
 30
0.000000
 40
5.216049
 50
155.902816
 51
178.311793
  6
CONTINUOUS
  0
ARC
  8
WHITE
 10
12.899456
 20
48.546362
 30
0.000000
 40
5.273582
 50
-148.162000
 51
-128.658985
  6
CONTINUOUS
  0
ARC
  8
WHITE
 10
4.976126
 20
36.903520
 30
0.000000
 40
8.834626
 50
42.383272
 51
58.401607
  6
CONTINUOUS
  0
ARC
  8
WHITE
 10
9.319004
 20
40.868164
 30
0.000000
 40
2.954236
 50
-37.808947
 51
42.363560
  6
CONTINUOUS
  0
ARC
  8
WHITE
 10
11.848624
 20
38.911276
 30
0.000000
 40
0.243991
 50
143.289291
 51
198.532904
  6
CONTINUOUS
  0
ARC
  8
WHITE
 10
20.276072
 20
48.958060
 30
0.000000
 40
13.322040
 50
-130.538544
 51
-116.229941
  6
CONTINUOUS
  0
ARC
  8
WHITE
 10
15.918462
 20
37.398668
 30
0.000000
 40
1.579515
 50
136.298182
 51
194.326434
  6
CONTINUOUS
  0
ARC
  8
WHITE
 10
13.109526
 20
40.062292
 30
0.000000
 40
2.291552
 50
-43.325403
 51
-17.391401
  6
CONTINUOUS
  0
ARC
  8
WHITE
 10
18.233288
 20
38.501952
 30
0.000000
 40
3.064652
 50
149.113892
 51
163.402643
  6
CONTINUOUS
  0
ARC
  8
WHITE
 10
18.712766
 20
40.161280
 30
0.000000
 40
3.110723
 50
-178.413194
 51
-153.969854
  6
CONTINUOUS
  0
ARC
  8
WHITE
 10
23.845042
 20
43.208144
 30
0.000000
 40
9.072497
 50
-150.902098
 51
-142.257050
  6
CONTINUOUS
  0
ARC
  8
WHITE
 10
15.376474
 20
36.560724
 30
0.000000
 40
1.694732
 50
-28.379368
 51
40.203815
  6
CONTINUOUS
  0
ARC
  8
WHITE
 10
15.086156
 20
36.965398
 30
0.000000
 40
2.153571
 50
-56.535909
 51
-34.190545
  6
CONTINUOUS
  0
ARC
  8
WHITE
 10
9.005690
 20
29.775514
 30
0.000000
 40
9.050483
 50
2.225834
 51
36.577812
  6
CONTINUOUS
  0
ARC
  8
WHITE
 10
19.554492
 20
19.400790
 30
0.000000
 40
10.831319
 50
87.394260
 51
97.987817
  6
CONTINUOUS
  0
ARC
  8
WHITE
 10
20.054088
 20
30.991020
 30
0.000000
 40
0.770144
 50
-90.533505
 51
-46.685695
  6
CONTINUOUS
  0
ARC
  8
WHITE
 10
4.610226
 20
40.694602
 30
0.000000
 40
18.985759
 50
-32.725351
 51
-22.928836
  6
CONTINUOUS
  0
ARC
  8
WHITE
 10
20.752598
 20
33.633870
 30
0.000000
 40
1.384666
 50
-14.038437
 51
79.294762
  6
CONTINUOUS
  0
ARC
  8
WHITE
 10
20.205878
 20
31.061384
 30
0.000000
 40
4.014373
 50
78.447664
 51
84.530230
  6
CONTINUOUS
  0
ARC
  8
WHITE
 10
20.933510
 20
38.157288
 30
0.000000
 40
3.118947
 50
-171.180689
 51
-96.350351
  6
CONTINUOUS
  0
ARC
  8
WHITE
 10
13.309784
 20
36.778950
 30
0.000000
 40
4.630000
 50
11.210592
 51
39.073644
  6
CONTINUOUS
  0
ARC
  8
WHITE
 10
16.808304
 20
38.015742
 30
0.000000
 40
1.684317
 50
37.541944
 51
86.735381
  6
CONTINUOUS
  0
ARC
  8
WHITE
 10
20.564910
 20
41.644636
 30
0.000000
 40
3.554584
 50
-132.931194
 51
-101.129432
  6
CONTINUOUS
  0
ARC
  8
WHITE
 10
19.356980
 20
33.598032
 30
0.000000
 40
4.588633
 50
32.068908
 51
83.470408
  6
CONTINUOUS
  0
ARC
  8
WHITE
 10
18.526018
 20
38.563948
 30
0.000000
 40
5.354618
 50
-28.191540
 51
44.889215
  6
CONTINUOUS
  0
ARC
  8
WHITE
 10
22.136788
 20
42.181340
 30
0.000000
 40
0.243989
 50
41.466885
 51
96.710776
  6
CONTINUOUS
  0
ARC
  8
WHITE
 10
21.706882
 20
45.350498
 30
0.000000
 40
2.954237
 50
-162.363572
 51
-82.191031
  6
CONTINUOUS
  0
ARC
  8
WHITE
 10
27.311802
 20
47.129220
 30
0.000000
 40
8.834625
 50
-178.401603
 51
-162.383265
  6
CONTINUOUS
  0
ARC
  8
WHITE
 10
13.267142
 20
46.088834
 30
0.000000
 40
5.273582
 50
8.659001
 51
28.162002
  6
CONTINUOUS
  0
ARC
  8
WHITE
 10
17.379992
 20
43.389394
 30
0.000000
 40
5.216049
 50
61.688215
 51
84.097174
  6
CONTINUOUS
  0
ARC
  8
WHITE
 10
14.721676
 20
50.130328
 30
0.000000
 40
5.563830
 50
-22.719134
 51
3.506306
  6
CONTINUOUS
  0
ARC
  8
WHITE
 10
16.346400
 20
42.959866
 30
0.000000
 40
8.476189
 50
42.720247
 51
62.386986
  6
CONTINUOUS
  0
ARC
  8
WHITE
 10
27.012080
 20
45.970304
 30
0.000000
 40
5.216049
 50
125.902816
 51
148.311783
  6
CONTINUOUS
  0
ARC
  8
WHITE
 10
29.224192
 20
50.364514
 30
0.000000
 40
5.273580
 50
-178.161995
 51
-158.658985
  6
CONTINUOUS
  0
ARC
  8
WHITE
 10
16.540966
 20
44.243182
 30
0.000000
 40
8.834628
 50
12.383272
 51
28.401606
  6
CONTINUOUS
  0
ARC
  8
WHITE
 10
22.284330
 20
45.505226
 30
0.000000
 40
2.954236
 50
-66.797027
 51
12.363546
  6
CONTINUOUS
  0
ARC
  8
WHITE
 10
23.537124
 20
42.615170
 30
0.000000
 40
0.196064
 50
116.948991
 51
211.651979
  6
CONTINUOUS
  0
ARC
  8
WHITE
 10
18.340776
 20
37.825766
 30
0.000000
 40
6.874504
 50
-30.790186
 51
42.978552
  6
CONTINUOUS
  0
ARC
  8
WHITE
 10
23.492376
 20
37.239434
 30
0.000000
 40
3.028056
 50
-75.582806
 51
-20.397155
  6
CONTINUOUS
  0
ARC
  8
WHITE
 10
22.329581
 20
34.849358
 30
0.000000
 40
4.217749
 50
-89.964378
 51
18.448575
  6
CONTINUOUS
  0
ARC
  8
WHITE
 10
18.357786
 20
32.651879
 30
0.000000
 40
4.458417
 50
-40.712046
 51
-26.945077
  6
CONTINUOUS
  0
ARC
  8
WHITE
 10
24.234700
 20
34.657328
 30
0.000000
 40
5.511768
 50
-116.943501
 51
-90.029238
  6
CONTINUOUS
  0
ARC
  8
WHITE
 10
23.956310
 20
19.982293
 30
0.000000
 40
9.167411
 50
74.412705
 51
88.277398
  6
CONTINUOUS
  0
ARC
  8
WHITE
 10
20.616196
 20
32.273918
 30
0.000000
 40
6.757305
 50
-30.813242
 51
2.683649
  6
CONTINUOUS
  0
ARC
  8
WHITE
 10
41.841524
 20
33.037392
 30
0.000000
 40
14.482336
 50
166.206099
 51
181.769072
  6
CONTINUOUS
  0
ARC
  8
WHITE
 10
28.901798
 20
39.329566
 30
0.000000
 40
3.053891
 50
-140.703760
 51
-111.614580
  6
CONTINUOUS
  0
ARC
  8
WHITE
 10
28.922514
 20
38.801430
 30
0.000000
 40
2.767772
 50
163.805344
 51
210.529651
  6
CONTINUOUS
  0
ARC
  8
WHITE
 10
15.477936
 20
41.909006
 30
0.000000
 40
11.036605
 50
-12.217697
 51
-3.661847
  6
CONTINUOUS
  0
ARC
  8
WHITE
 10
31.228952
 20
43.661806
 30
0.000000
 40
5.336559
 50
-152.578229
 51
-132.576084
  6
CONTINUOUS
  0
ARC
  8
WHITE
 10
24.650000
 20
35.326268
 30
0.000000
 40
5.312488
 50
41.351128
 51
56.029951
  6
CONTINUOUS
  0
ARC
  8
WHITE
 10
37.551214
 20
33.899286
 30
0.000000
 40
10.189121
 50
130.087998
 51
151.019226
  6
CONTINUOUS
  0
ARC
  8
WHITE
 10
30.758458
 20
41.772088
 30
0.000000
 40
0.243988
 50
-18.532738
 51
36.710776
  6
CONTINUOUS
  0
ARC
  8
WHITE
 10
33.288078
 20
43.728978
 30
0.000000
 40
2.954239
 50
137.636428
 51
217.808972
  6
CONTINUOUS
  0
ARC
  8
WHITE
 10
37.630956
 20
39.764334
 30
0.000000
 40
8.834628
 50
121.598397
 51
137.616724
  6
CONTINUOUS
  0
ARC
  8
WHITE
 10
29.707624
 20
51.407176
 30
0.000000
 40
5.273583
 50
-51.341005
 51
-31.837998
  6
CONTINUOUS
  0
ARC
  8
WHITE
 10
29.426266
 20
46.495622
 30
0.000000
 40
5.216050
 50
1.688215
 51
24.097173
  6
CONTINUOUS
  0
ARC
  8
WHITE
 10
33.934928
 20
52.168258
 30
0.000000
 40
5.563830
 50
-82.719133
 51
-56.493694
  6
CONTINUOUS
  0
ARC
  8
WHITE
 10
28.537488
 20
47.175976
 30
0.000000
 40
8.476189
 50
-17.279753
 51
2.386977
  6
CONTINUOUS
  0
ARC
  8
WHITE
 10
36.477442
 20
39.444444
 30
0.000000
 40
5.216050
 50
65.902816
 51
88.311764
  6
CONTINUOUS
  0
ARC
  8
WHITE
 10
41.388998
 20
39.725804
 30
0.000000
 40
5.273582
 50
121.838012
 51
141.341015
  6
CONTINUOUS
  0
ARC
  8
WHITE
 10
29.746156
 20
47.649134
 30
0.000000
 40
8.834626
 50
-47.616728
 51
-31.598393
  6
CONTINUOUS
  0
ARC
  8
WHITE
 10
33.710798
 20
43.306256
 30
0.000000
 40
2.954237
 50
-129.075426
 51
-47.636411
  6
CONTINUOUS
  0
ARC
  8
WHITE
 10
31.739124
 20
40.845542
 30
0.000000
 40
0.199936
 50
56.795181
 51
158.296449
  6
CONTINUOUS
  0
ARC
  8
WHITE
 10
37.369504
 20
34.755672
 30
0.000000
 40
8.474671
 50
133.337714
 51
176.951510
  6
CONTINUOUS
  0
ARC
  8
WHITE
 10
26.331748
 20
39.027808
 30
0.000000
 40
4.608087
 50
-56.025953
 51
-30.550355
  6
CONTINUOUS
  0
ARC
  8
WHITE
 10
36.642382
 20
33.240898
 30
0.000000
 40
7.217300
 50
139.198605
 51
151.492387
  6
CONTINUOUS
  0
ARC
  8
WHITE
 10
42.380804
 20
36.604994
 30
0.000000
 40
11.283058
 50
173.118117
 51
189.500861
  6
CONTINUOUS
  0
ARC
  8
WHITE
 10
14.753878
 20
32.269168
 30
0.000000
 40
16.683008
 50
2.705142
 51
8.526084
  6
CONTINUOUS
  0
ARC
  8
WHITE
 10
28.343232
 20
33.088378
 30
0.000000
 40
3.075229
 50
-94.074323
 51
-0.593180
  6
CONTINUOUS
  0
ARC
  8
WHITE
 10
19.597334
 20
32.650858
 30
0.000000
 40
8.923740
 50
-28.807952
 51
-17.140286
  6
CONTINUOUS
  0
ARC
  8
WHITE
 10
102.276132
 20
246.769348
 30
0.000000
 40
230.890954
 50
-108.918325
 51
-107.855696
  6
CONTINUOUS
  0
LINE
  8
WHITE
 10
31.480185
 20
27.000000
 30
0.000000
 11
26.480183
 21
27.000000
 31
0.000000
  6
CONTINUOUS
  0
LINE
  8
WHITE
 10
26.480183
 20
27.000000
 30
0.000000
 11
26.480183
 21
25.000000
 31
0.000000
  6
CONTINUOUS
  0
LINE
  8
WHITE
 10
26.480183
 20
25.000000
 30
0.000000
 11
16.494244
 21
25.000000
 31
0.000000
  6
CONTINUOUS
  0
LINE
  8
WHITE
 10
16.494244
 20
25.000000
 30
0.000000
 11
16.494244
 21
27.000000
 31
0.000000
  6
CONTINUOUS
  0
LINE
  8
WHITE
 10
16.494244
 20
27.000000
 30
0.000000
 11
9.494244
 21
27.000000
 31
0.000000
  6
CONTINUOUS
  0
ENDSEC
  0
EOF
