  0
SECTION
  2
HEADER
  9
$ACADVER
  1
AC1009
  9
$DWGCODEPAGE
  3
ansi_1252
  9
$INSBASE
 10
0.0
 20
0.0
 30
0.0
  9
$EXTMIN
 10
3.155849783543757
 20
6.337397616711578
 30
0.0
  9
$EXTMAX
 10
20.82413670357157
 20
11.50133801161131
 30
0.0
  9
$LIMMIN
 10
0.0
 20
0.0
  9
$LIMMAX
 10
12.0
 20
9.0
  9
$ORTHOMODE
 70
     0
  9
$REGENMODE
 70
     1
  9
$FILLMODE
 70
     1
  9
$QTEXTMODE
 70
     0
  9
$MIRRTEXT
 70
     1
  9
$DRAGMODE
 70
     2
  9
$LTSCALE
 40
1.0
  9
$OSMODE
 70
    37
  9
$ATTMODE
 70
     1
  9
$TEXTSIZE
 40
0.2
  9
$TRACEWID
 40
0.05
  9
$TEXTSTYLE
  7
STANDARD
  9
$CLAYER
  8
0
  9
$CELTYPE
  6
BYLAYER
  9
$CECOLOR
 62
   256
  9
$DIMSCALE
 40
1.0
  9
$DIMASZ
 40
0.18
  9
$DIMEXO
 40
0.0625
  9
$DIMDLI
 40
0.38
  9
$DIMRND
 40
0.0
  9
$DIMDLE
 40
0.0
  9
$DIMEXE
 40
0.18
  9
$DIMTP
 40
0.0
  9
$DIMTM
 40
0.0
  9
$DIMTXT
 40
0.18
  9
$DIMCEN
 40
0.09
  9
$DIMTSZ
 40
0.0
  9
$DIMTOL
 70
     0
  9
$DIMLIM
 70
     0
  9
$DIMTIH
 70
     1
  9
$DIMTOH
 70
     1
  9
$DIMSE1
 70
     0
  9
$DIMSE2
 70
     0
  9
$DIMTAD
 70
     0
  9
$DIMZIN
 70
     0
  9
$DIMBLK
  1

  9
$DIMASO
 70
     1
  9
$DIMSHO
 70
     1
  9
$DIMPOST
  1

  9
$DIMAPOST
  1

  9
$DIMALT
 70
     0
  9
$DIMALTD
 70
     2
  9
$DIMALTF
 40
25.4
  9
$DIMLFAC
 40
1.0
  9
$DIMTOFL
 70
     0
  9
$DIMTVP
 40
0.0
  9
$DIMTIX
 70
     0
  9
$DIMSOXD
 70
     0
  9
$DIMSAH
 70
     0
  9
$DIMBLK1
  1

  9
$DIMBLK2
  1

  9
$DIMSTYLE
  2
STANDARD
  9
$DIMCLRD
 70
     0
  9
$DIMCLRE
 70
     0
  9
$DIMCLRT
 70
     0
  9
$DIMTFAC
 40
1.0
  9
$DIMGAP
 40
0.09
  9
$LUNITS
 70
     2
  9
$LUPREC
 70
     4
  9
$SKETCHINC
 40
0.1
  9
$FILLETRAD
 40
0.5
  9
$AUNITS
 70
     0
  9
$AUPREC
 70
     0
  9
$MENU
  1
.
  9
$ELEVATION
 40
0.0
  9
$PELEVATION
 40
0.0
  9
$THICKNESS
 40
0.0
  9
$LIMCHECK
 70
     0
  9
$CHAMFERA
 40
0.5
  9
$CHAMFERB
 40
0.5
  9
$SKPOLY
 70
     0
  9
$TDCREATE
 40
2454910.5
  9
$TDUPDATE
 40
2455678.806967338
  9
$TDINDWG
 40
0.0000000116
  9
$TDUSRTIMER
 40
0.0000000116
  9
$USRTIMER
 70
     1
  9
$ANGBASE
 50
0.0
  9
$ANGDIR
 70
     0
  9
$PDMODE
 70
     0
  9
$PDSIZE
 40
0.0
  9
$PLINEWID
 40
0.0
  9
$COORDS
 70
     1
  9
$SPLFRAME
 70
     0
  9
$SPLINETYPE
 70
     6
  9
$SPLINESEGS
 70
     8
  9
$ATTDIA
 70
     0
  9
$ATTREQ
 70
     1
  9
$HANDLING
 70
     1
  9
$HANDSEED
  5
D62
  9
$SURFTAB1
 70
     6
  9
$SURFTAB2
 70
     6
  9
$SURFTYPE
 70
     6
  9
$SURFU
 70
     6
  9
$SURFV
 70
     6
  9
$UCSNAME
  2

  9
$UCSORG
 10
0.0
 20
0.0
 30
0.0
  9
$UCSXDIR
 10
1.0
 20
0.0
 30
0.0
  9
$UCSYDIR
 10
0.0
 20
1.0
 30
0.0
  9
$PUCSNAME
  2

  9
$PUCSORG
 10
0.0
 20
0.0
 30
0.0
  9
$PUCSXDIR
 10
1.0
 20
0.0
 30
0.0
  9
$PUCSYDIR
 10
0.0
 20
1.0
 30
0.0
  9
$USERI1
 70
     0
  9
$USERI2
 70
     0
  9
$USERI3
 70
     0
  9
$USERI4
 70
     0
  9
$USERI5
 70
     0
  9
$USERR1
 40
0.0
  9
$USERR2
 40
0.0
  9
$USERR3
 40
0.0
  9
$USERR4
 40
0.0
  9
$USERR5
 40
0.0
  9
$WORLDVIEW
 70
     1
  9
$SHADEDGE
 70
     3
  9
$SHADEDIF
 70
    70
  9
$TILEMODE
 70
     1
  9
$MAXACTVP
 70
    64
  9
$PLIMCHECK
 70
     0
  9
$PEXTMIN
 10
1.000000000000000E 20
 20
1.000000000000000E 20
 30
1.000000000000000E 20
  9
$PEXTMAX
 10
-1.000000000000000E 20
 20
-1.000000000000000E 20
 30
-1.000000000000000E 20
  9
$PLIMMIN
 10
0.0
 20
0.0
  9
$PLIMMAX
 10
12.0
 20
9.0
  9
$UNITMODE
 70
     0
  9
$VISRETAIN
 70
     1
  9
$PLINEGEN
 70
     0
  9
$PSLTSCALE
 70
     1
  0
ENDSEC
  0
SECTION
  2
TABLES
  0
TABLE
  2
VPORT
 70
     1
  0
VPORT
  2
*ACTIVE
 70
     0
 10
0.0
 20
0.0
 11
1.0
 21
1.0
 12
10.42990654205607
 22
4.5
 13
0.0
 23
0.0
 14
0.5
 24
0.5
 15
0.5
 25
0.5
 16
0.0
 26
0.0
 36
1.0
 17
0.0
 27
0.0
 37
0.0
 40
9.0
 41
1.972972972850329
 42
50.0
 43
0.0
 44
0.0
 50
0.0
 51
0.0
 71
     0
 72
   100
 73
     1
 74
     3
 75
     0
 76
     0
 77
     0
 78
     0
  0
ENDTAB
  0
TABLE
  2
LTYPE
 70
     2
  0
LTYPE
  2
CONTINUOUS
 70
     0
  3
Solid line
 72
    65
 73
     0
 40
0.0
  0
LTYPE
  2
CONTINUOUS2
 70
     0
  3
Solid Line
 72
    65
 73
     0
 40
0.0
  0
ENDTAB
  0
TABLE
  2
LAYER
 70
     2
  0
LAYER
  2
0
 70
     0
 62
     7
  6
CONTINUOUS
  0
LAYER
  2
LAYER_1
 70
     0
 62
    18
  6
CONTINUOUS
  0
ENDTAB
  0
TABLE
  2
STYLE
 70
     1
  0
STYLE
  2
STANDARD
 70
     0
 40
0.0
 41
1.0
 50
0.0
 71
     0
 42
0.2
  3
txt
  4

  0
ENDTAB
  0
TABLE
  2
VIEW
 70
     0
  0
ENDTAB
  0
TABLE
  2
UCS
 70
     0
  0
ENDTAB
  0
TABLE
  2
APPID
 70
     1
  0
APPID
  2
ACAD
 70
     0
  0
ENDTAB
  0
TABLE
  2
DIMSTYLE
 70
     1
  0
DIMSTYLE
  2
STANDARD
 70
     0
  3

  4

  5

  6

  7

 40
1.0
 41
0.18
 42
0.0625
 43
0.38
 44
0.18
 45
0.0
 46
0.0
 47
0.0
 48
0.0
140
0.18
141
0.09
142
0.0
143
25.4
144
1.0
145
0.0
146
1.0
147
0.09
 71
     0
 72
     0
 73
     1
 74
     1
 75
     0
 76
     0
 77
     0
 78
     0
170
     0
171
     2
172
     0
173
     0
174
     0
175
     0
176
     0
177
     0
178
     0
  0
ENDTAB
  0
ENDSEC
  0
SECTION
  2
BLOCKS
  0
BLOCK
  8
0
  2
$MODEL_SPACE
 70
     0
 10
0.0
 20
0.0
 30
0.0
  3
$MODEL_SPACE
  1

  0
ENDBLK
  5
21
  8
0
  0
BLOCK
 67
     1
  8
0
  2
$PAPER_SPACE
 70
     0
 10
0.0
 20
0.0
 30
0.0
  3
$PAPER_SPACE
  1

  0
ENDBLK
  5
1D
 67
     1
  8
0
  0
ENDSEC
  0
SECTION
  2
ENTITIES
  0
POLYLINE
  5
41
  8
LAYER_1
 66
     1
 10
0.0
 20
0.0
 30
0.0
  0
VERTEX
  5
D6
  8
LAYER_1
 10
10.76553863060499
 20
11.31381951886122
 30
0.0
  0
VERTEX
  5
D7
  8
LAYER_1
 10
10.79327031394948
 20
11.32780801985288
 30
0.0
  0
VERTEX
  5
D8
  8
LAYER_1
 10
10.82126472651927
 20
11.3409482937077
 30
0.0
  0
VERTEX
  5
D9
  8
LAYER_1
 10
10.84952191934999
 20
11.35324036005477
 30
0.0
  0
VERTEX
  5
DA
  8
LAYER_1
 10
10.87804194347731
 20
11.36468423852317
 30
0.0
  0
VERTEX
  5
DB
  8
LAYER_1
 10
10.90682484993687
 20
11.37527994874202
 30
0.0
  0
VERTEX
  5
DC
  8
LAYER_1
 10
10.93587068976432
 20
11.38502751034041
 30
0.0
  0
VERTEX
  5
DD
  8
LAYER_1
 10
10.96517951399531
 20
11.39392694294743
 30
0.0
  0
VERTEX
  5
DE
  8
LAYER_1
 10
10.99475137366549
 20
11.40197826619218
 30
0.0
  0
VERTEX
  5
DF
  8
LAYER_1
 10
11.01848919937164
 20
11.40779289089857
 30
0.0
  0
VERTEX
  5
E0
  8
LAYER_1
 10
11.04234457123297
 20
11.41310231602041
 30
0.0
  0
VERTEX
  5
E1
  8
LAYER_1
 10
11.06630675306792
 20
11.41794312227777
 30
0.0
  0
VERTEX
  5
E2
  8
LAYER_1
 10
11.09036500869496
 20
11.42235189039073
 30
0.0
  0
VERTEX
  5
E3
  8
LAYER_1
 10
11.11450860193255
 20
11.42636520107937
 30
0.0
  0
VERTEX
  5
E4
  8
LAYER_1
 10
11.13872679659915
 20
11.43001963506376
 30
0.0
  0
VERTEX
  5
E5
  8
LAYER_1
 10
11.18734404549321
 20
11.43639819580009
 30
0.0
  0
VERTEX
  5
E6
  8
LAYER_1
 10
11.23613086592482
 20
11.44178021836035
 30
0.0
  0
VERTEX
  5
E7
  8
LAYER_1
 10
11.28500136844166
 20
11.44645834850514
 30
0.0
  0
VERTEX
  5
E8
  8
LAYER_1
 10
11.38264986192172
 20
11.45487351459075
 30
0.0
  0
VERTEX
  5
E9
  8
LAYER_1
 10
11.45896907133092
 20
11.46105037653668
 30
0.0
  0
VERTEX
  5
EA
  8
LAYER_1
 10
11.53536215174471
 20
11.46650598923135
 30
0.0
  0
VERTEX
  5
EB
  8
LAYER_1
 10
11.61182095087166
 20
11.47129713748313
 30
0.0
  0
VERTEX
  5
EC
  8
LAYER_1
 10
11.68833731642036
 20
11.47548060610037
 30
0.0
  0
VERTEX
  5
ED
  8
LAYER_1
 10
11.76490309609937
 20
11.47911317989143
 30
0.0
  0
VERTEX
  5
EE
  8
LAYER_1
 10
11.84151013761728
 20
11.48225164366467
 30
0.0
  0
VERTEX
  5
EF
  8
LAYER_1
 10
11.91815028868266
 20
11.48495278222846
 30
0.0
  0
VERTEX
  5
F0
  8
LAYER_1
 10
11.99481539700407
 20
11.48727338039114
 30
0.0
  0
VERTEX
  5
F1
  8
LAYER_1
 10
12.14818787624935
 20
11.49100009474666
 30
0.0
  0
VERTEX
  5
F2
  8
LAYER_1
 10
12.3015623570217
 20
11.49388606519809
 30
0.0
  0
VERTEX
  5
F3
  8
LAYER_1
 10
12.45487362098974
 20
11.49638557021233
 30
0.0
  0
VERTEX
  5
F4
  8
LAYER_1
 10
12.60805644982207
 20
11.49895288825623
 30
0.0
  0
VERTEX
  5
F5
  8
LAYER_1
 10
12.70801817306709
 20
11.50052076882188
 30
0.0
  0
VERTEX
  5
F6
  8
LAYER_1
 10
12.80807052205325
 20
11.50133801161131
 30
0.0
  0
VERTEX
  5
F7
  8
LAYER_1
 10
12.85810016186904
 20
11.50132704262079
 30
0.0
  0
VERTEX
  5
F8
  8
LAYER_1
 10
12.90811583492383
 20
11.50096269272321
 30
0.0
  0
VERTEX
  5
F9
  8
LAYER_1
 10
12.95810533348554
 20
11.50018972143091
 30
0.0
  0
VERTEX
  5
FA
  8
LAYER_1
 10
13.00805644982207
 20
11.49895288825623
 30
0.0
  0
VERTEX
  5
FB
  8
LAYER_1
 10
13.23019964650801
 20
11.49239290162043
 30
0.0
  0
VERTEX
  5
FC
  8
LAYER_1
 10
13.34137328853203
 20
11.48851078580138
 30
0.0
  0
VERTEX
  5
FD
  8
LAYER_1
 10
13.39695184792951
 20
11.48623302634023
 30
0.0
  0
VERTEX
  5
FE
  8
LAYER_1
 10
13.45251203385646
 20
11.48365987692034
 30
0.0
  0
VERTEX
  5
FF
  8
LAYER_1
 10
13.5080441970172
 20
11.48073814584847
 30
0.0
  0
VERTEX
  5
100
  8
LAYER_1
 10
13.56353868811609
 20
11.47741464143137
 30
0.0
  0
VERTEX
  5
101
  8
LAYER_1
 10
13.61898585785748
 20
11.47363617197581
 30
0.0
  0
VERTEX
  5
102
  8
LAYER_1
 10
13.67437605694572
 20
11.46934954578855
 30
0.0
  0
VERTEX
  5
103
  8
LAYER_1
 10
13.72969963608515
 20
11.46450157117635
 30
0.0
  0
VERTEX
  5
104
  8
LAYER_1
 10
13.78494694598012
 20
11.45903905644596
 30
0.0
  0
VERTEX
  5
105
  8
LAYER_1
 10
13.84010833733499
 20
11.45290880990414
 30
0.0
  0
VERTEX
  5
106
  8
LAYER_1
 10
13.8951741608541
 20
11.44605763985766
 30
0.0
  0
VERTEX
  5
107
  8
LAYER_1
 10
13.94428874647772
 20
11.43955902594449
 30
0.0
  0
VERTEX
  5
108
  8
LAYER_1
 10
13.99349991843136
 20
11.43273071946206
 30
0.0
  0
VERTEX
  5
109
  8
LAYER_1
 10
14.04266977289408
 20
11.4252491031005
 30
0.0
  0
VERTEX
  5
10A
  8
LAYER_1
 10
14.06719611112229
 20
11.42116217330571
 30
0.0
  0
VERTEX
  5
10B
  8
LAYER_1
 10
14.09166040604492
 20
11.41679055954992
 30
0.0
  0
VERTEX
  5
10C
  8
LAYER_1
 10
14.11604541968433
 20
11.41209380966941
 30
0.0
  0
VERTEX
  5
10D
  8
LAYER_1
 10
14.14033391406292
 20
11.40703147150044
 30
0.0
  0
VERTEX
  5
10E
  8
LAYER_1
 10
14.16450865120306
 20
11.40156309287928
 30
0.0
  0
VERTEX
  5
10F
  8
LAYER_1
 10
14.18855239312713
 20
11.39564822164218
 30
0.0
  0
VERTEX
  5
110
  8
LAYER_1
 10
14.21244790185751
 20
11.38924640562542
 30
0.0
  0
VERTEX
  5
111
  8
LAYER_1
 10
14.23617793941658
 20
11.38231719266526
 30
0.0
  0
VERTEX
  5
112
  8
LAYER_1
 10
14.25972526782673
 20
11.37482013059796
 30
0.0
  0
VERTEX
  5
113
  8
LAYER_1
 10
14.28307264911033
 20
11.36671476725979
 30
0.0
  0
VERTEX
  5
114
  8
LAYER_1
 10
14.29745824997405
 20
11.36128296680688
 30
0.0
  0
VERTEX
  5
115
  8
LAYER_1
 10
14.31169970460261
 20
11.35548529472988
 30
0.0
  0
VERTEX
  5
116
  8
LAYER_1
 10
14.32580425457687
 20
11.34934692716251
 30
0.0
  0
VERTEX
  5
117
  8
LAYER_1
 10
14.33977914147771
 20
11.34289304023849
 30
0.0
  0
VERTEX
  5
118
  8
LAYER_1
 10
14.36736889238264
 20
11.32913941285528
 30
0.0
  0
VERTEX
  5
119
  8
LAYER_1
 10
14.39452688996441
 20
11.31442582164991
 30
0.0
  0
VERTEX
  5
11A
  8
LAYER_1
 10
14.42131106687002
 20
11.29895367569204
 30
0.0
  0
VERTEX
  5
11B
  8
LAYER_1
 10
14.44777935574648
 20
11.28292438405133
 30
0.0
  0
VERTEX
  5
11C
  8
LAYER_1
 10
14.5
 20
11.25
 30
0.0
  0
VERTEX
  5
11D
  8
LAYER_1
 10
14.52588604086279
 20
11.23325652251152
 30
0.0
  0
VERTEX
  5
11E
  8
LAYER_1
 10
14.55157945258248
 20
11.21612469681807
 30
0.0
  0
VERTEX
  5
11F
  8
LAYER_1
 10
14.57700387892104
 20
11.19855202461454
 30
0.0
  0
VERTEX
  5
120
  8
LAYER_1
 10
14.60208296364045
 20
11.18048600759583
 30
0.0
  0
VERTEX
  5
121
  8
LAYER_1
 10
14.62674035050267
 20
11.16187414745682
 30
0.0
  0
VERTEX
  5
122
  8
LAYER_1
 10
14.65089968326966
 20
11.14266394589241
 30
0.0
  0
VERTEX
  5
123
  8
LAYER_1
 10
14.6744846057034
 20
11.12280290459747
 30
0.0
  0
VERTEX
  5
124
  8
LAYER_1
 10
14.69741876156584
 20
11.10223852526691
 30
0.0
  0
VERTEX
  5
125
  8
LAYER_1
 10
14.7333810292889
 20
11.06846957689213
 30
0.0
  0
VERTEX
  5
126
  8
LAYER_1
 10
14.76890090977552
 20
11.03427057101655
 30
0.0
  0
VERTEX
  5
127
  8
LAYER_1
 10
14.80400035962262
 20
10.99966242936988
 30
0.0
  0
VERTEX
  5
128
  8
LAYER_1
 10
14.83870133542708
 20
10.96466607368185
 30
0.0
  0
VERTEX
  5
129
  8
LAYER_1
 10
14.87302579378582
 20
10.92930242568218
 30
0.0
  0
VERTEX
  5
12A
  8
LAYER_1
 10
14.90699569129574
 20
10.89359240710059
 30
0.0
  0
VERTEX
  5
12B
  8
LAYER_1
 10
14.94063298455374
 20
10.8575569396668
 30
0.0
  0
VERTEX
  5
12C
  8
LAYER_1
 10
14.97395963015672
 20
10.82121694511055
 30
0.0
  0
VERTEX
  5
12D
  8
LAYER_1
 10
15.00699758470159
 20
10.78459334516155
 30
0.0
  0
VERTEX
  5
12E
  8
LAYER_1
 10
15.03976880478525
 20
10.74770706154952
 30
0.0
  0
VERTEX
  5
12F
  8
LAYER_1
 10
15.0722952470046
 20
10.71057901600419
 30
0.0
  0
VERTEX
  5
130
  8
LAYER_1
 10
15.10459886795655
 20
10.67323013025528
 30
0.0
  0
VERTEX
  5
131
  8
LAYER_1
 10
15.16862547244584
 20
10.59795352506562
 30
0.0
  0
VERTEX
  5
132
  8
LAYER_1
 10
15.23202427102835
 20
10.52204461981832
 30
0.0
  0
VERTEX
  5
133
  8
LAYER_1
 10
15.29497091647931
 20
10.44567078835116
 30
0.0
  0
VERTEX
  5
134
  8
LAYER_1
 10
15.35764106157393
 20
10.36899940450192
 30
0.0
  0
VERTEX
  5
135
  8
LAYER_1
 10
15.48285446179507
 20
10.21543347500838
 30
0.0
  0
VERTEX
  5
136
  8
LAYER_1
 10
15.54574902247203
 20
10.13887367703964
 30
0.0
  0
VERTEX
  5
137
  8
LAYER_1
 10
15.60906969389355
 20
10.06268582203996
 30
0.0
  0
VERTEX
  5
138
  8
LAYER_1
 10
15.67299212883486
 20
9.987037283847133
 30
0.0
  0
VERTEX
  5
139
  8
LAYER_1
 10
15.7052338991177
 20
9.949467562877594
 30
0.0
  0
VERTEX
  5
13A
  8
LAYER_1
 10
15.73769198007118
 20
9.912095436298937
 30
0.0
  0
SEQEND
  5
13B
  8
LAYER_1
  0
POLYLINE
  5
42
  8
LAYER_1
 66
     1
 10
0.0
 20
0.0
 30
0.0
  0
VERTEX
  5
13C
  8
LAYER_1
 10
9.437867895800723
 20
10.07386673765125
 30
0.0
  0
VERTEX
  5
13D
  8
LAYER_1
 10
10.74922926234877
 20
11.18687092270463
 30
0.0
  0
SEQEND
  5
13E
  8
LAYER_1
  0
POLYLINE
  5
43
  8
LAYER_1
 66
     1
 10
0.0
 20
0.0
 30
0.0
  0
VERTEX
  5
13F
  8
LAYER_1
 10
10.74922926234877
 20
11.18687092270463
 30
0.0
  0
VERTEX
  5
140
  8
LAYER_1
 10
10.75489106320246
 20
11.19297249525477
 30
0.0
  0
VERTEX
  5
141
  8
LAYER_1
 10
10.75974107462161
 20
11.19921360722227
 30
0.0
  0
VERTEX
  5
142
  8
LAYER_1
 10
10.76377930163036
 20
11.20559427034564
 30
0.0
  0
VERTEX
  5
143
  8
LAYER_1
 10
10.76700574925284
 20
11.21211449636339
 30
0.0
  0
VERTEX
  5
144
  8
LAYER_1
 10
10.76942042251322
 20
11.21877429701404
 30
0.0
  0
VERTEX
  5
145
  8
LAYER_1
 10
10.77102332643562
 20
11.2255736840361
 30
0.0
  0
VERTEX
  5
146
  8
LAYER_1
 10
10.77181446604421
 20
11.23251266916808
 30
0.0
  0
VERTEX
  5
147
  8
LAYER_1
 10
10.77179384636311
 20
11.2395912641485
 30
0.0
  0
VERTEX
  5
148
  8
LAYER_1
 10
10.77134772145297
 20
11.24263361052718
 30
0.0
  0
VERTEX
  5
149
  8
LAYER_1
 10
10.77042765069456
 20
11.24554087951145
 30
0.0
  0
VERTEX
  5
14A
  8
LAYER_1
 10
10.76910329748138
 20
11.24833241577176
 30
0.0
  0
VERTEX
  5
14B
  8
LAYER_1
 10
10.76744432520691
 20
11.25102756397858
 30
0.0
  0
VERTEX
  5
14C
  8
LAYER_1
 10
10.76340117704807
 20
11.25620607491362
 30
0.0
  0
VERTEX
  5
14D
  8
LAYER_1
 10
10.75885551336597
 20
11.26123116968029
 30
0.0
  0
VERTEX
  5
14E
  8
LAYER_1
 10
10.7543646413085
 20
11.26625760564232
 30
0.0
  0
VERTEX
  5
14F
  8
LAYER_1
 10
10.7504858680236
 20
11.27144014016341
 30
0.0
  0
VERTEX
  5
150
  8
LAYER_1
 10
10.74895017690458
 20
11.27413830605978
 30
0.0
  0
VERTEX
  5
151
  8
LAYER_1
 10
10.74777650065916
 20
11.27693353060731
 30
0.0
  0
VERTEX
  5
152
  8
LAYER_1
 10
10.74703450268084
 20
11.27984515847647
 30
0.0
  0
VERTEX
  5
153
  8
LAYER_1
 10
10.74679384636311
 20
11.28289253433772
 30
0.0
  0
VERTEX
  5
154
  8
LAYER_1
 10
10.747379306781
 20
11.28725511730276
 30
0.0
  0
VERTEX
  5
155
  8
LAYER_1
 10
10.74889638705323
 20
11.29135248311016
 30
0.0
  0
VERTEX
  5
156
  8
LAYER_1
 10
10.75113036834009
 20
11.29524628178167
 30
0.0
  0
VERTEX
  5
157
  8
LAYER_1
 10
10.75386653180192
 20
11.298998163339
 30
0.0
  0
VERTEX
  5
158
  8
LAYER_1
 10
10.75998652989168
 20
11.30632277519807
 30
0.0
  0
VERTEX
  5
159
  8
LAYER_1
 10
10.76294092684023
 20
11.31001880554327
 30
0.0
  0
VERTEX
  5
15A
  8
LAYER_1
 10
10.76553863060499
 20
11.31381951886122
 30
0.0
  0
SEQEND
  5
15B
  8
LAYER_1
  0
POLYLINE
  5
44
  8
LAYER_1
 66
     1
 10
0.0
 20
0.0
 30
0.0
  0
VERTEX
  5
15C
  8
LAYER_1
 10
10.74679384636311
 20
11.28289253433772
 30
0.0
  0
VERTEX
  5
15D
  8
LAYER_1
 10
10.75385534759387
 20
11.28719903836059
 30
0.0
  0
VERTEX
  5
15E
  8
LAYER_1
 10
10.76096909229242
 20
11.29082971798682
 30
0.0
  0
VERTEX
  5
15F
  8
LAYER_1
 10
10.76813509336292
 20
11.29378457667408
 30
0.0
  0
VERTEX
  5
160
  8
LAYER_1
 10
10.77535336370953
 20
11.29606361788002
 30
0.0
  0
VERTEX
  5
161
  8
LAYER_1
 10
10.78262391623643
 20
11.29766684506231
 30
0.0
  0
VERTEX
  5
162
  8
LAYER_1
 10
10.78994676384777
 20
11.29859426167861
 30
0.0
  0
VERTEX
  5
163
  8
LAYER_1
 10
10.79732191944772
 20
11.29884587118658
 30
0.0
  0
VERTEX
  5
164
  8
LAYER_1
 10
10.80474939594045
 20
11.29842167704387
 30
0.0
  0
VERTEX
  5
165
  8
LAYER_1
 10
10.81045945335936
 20
11.2976513636446
 30
0.0
  0
VERTEX
  5
166
  8
LAYER_1
 10
10.81610544806819
 20
11.29652991990664
 30
0.0
  0
VERTEX
  5
167
  8
LAYER_1
 10
10.82168545594238
 20
11.29508049396772
 30
0.0
  0
VERTEX
  5
168
  8
LAYER_1
 10
10.82719755285731
 20
11.29332623396557
 30
0.0
  0
VERTEX
  5
169
  8
LAYER_1
 10
10.83801031731109
 20
11.28899580432253
 30
0.0
  0
VERTEX
  5
16A
  8
LAYER_1
 10
10.84852834843281
 20
11.28372381607942
 30
0.0
  0
VERTEX
  5
16B
  8
LAYER_1
 10
10.85873625322576
 20
11.2776954543381
 30
0.0
  0
VERTEX
  5
16C
  8
LAYER_1
 10
10.86861863869321
 20
11.27109590420046
 30
0.0
  0
VERTEX
  5
16D
  8
LAYER_1
 10
10.87816011183845
 20
11.26411035076838
 30
0.0
  0
VERTEX
  5
16E
  8
LAYER_1
 10
10.88734527966475
 20
11.25692397914374
 30
0.0
  0
VERTEX
  5
16F
  8
LAYER_1
 10
10.89695209644439
 20
11.24877497956486
 30
0.0
  0
VERTEX
  5
170
  8
LAYER_1
 10
10.90615312074506
 20
11.24008439514769
 30
0.0
  0
VERTEX
  5
171
  8
LAYER_1
 10
10.91491372655766
 20
11.23089435365339
 30
0.0
  0
VERTEX
  5
172
  8
LAYER_1
 10
10.92319928787307
 20
11.22124698284311
 30
0.0
  0
VERTEX
  5
173
  8
LAYER_1
 10
10.93097517868218
 20
11.21118441047799
 30
0.0
  0
VERTEX
  5
174
  8
LAYER_1
 10
10.93820677297589
 20
11.2007487643192
 30
0.0
  0
VERTEX
  5
175
  8
LAYER_1
 10
10.94485944474508
 20
11.18998217212786
 30
0.0
  0
VERTEX
  5
176
  8
LAYER_1
 10
10.95089856798065
 20
11.17892676166514
 30
0.0
  0
VERTEX
  5
177
  8
LAYER_1
 10
10.95389758308246
 20
11.17202935695214
 30
0.0
  0
VERTEX
  5
178
  8
LAYER_1
 10
10.95615687889889
 20
11.16472944178714
 30
0.0
  0
VERTEX
  5
179
  8
LAYER_1
 10
10.95780474178355
 20
11.15710335301029
 30
0.0
  0
VERTEX
  5
17A
  8
LAYER_1
 10
10.95896945809008
 20
11.14922742746176
 30
0.0
  0
VERTEX
  5
17B
  8
LAYER_1
 10
10.96036259638322
 20
11.13303141341036
 30
0.0
  0
VERTEX
  5
17C
  8
LAYER_1
 10
10.9613625846073
 20
11.11675209435429
 30
0.0
  0
VERTEX
  5
17D
  8
LAYER_1
 10
10.9620358633275
 20
11.10877203754993
 30
0.0
  0
VERTEX
  5
17E
  8
LAYER_1
 10
10.96299571359132
 20
11.10100016501492
 30
0.0
  0
VERTEX
  5
17F
  8
LAYER_1
 10
10.96437042175236
 20
11.09351281358941
 30
0.0
  0
VERTEX
  5
180
  8
LAYER_1
 10
10.96628827416427
 20
11.08638632011358
 30
0.0
  0
VERTEX
  5
181
  8
LAYER_1
 10
10.96887755718065
 20
11.0796970214276
 30
0.0
  0
VERTEX
  5
182
  8
LAYER_1
 10
10.97226655715514
 20
11.07352125437164
 30
0.0
  0
VERTEX
  5
183
  8
LAYER_1
 10
10.97658356044137
 20
11.06793535578587
 30
0.0
  0
VERTEX
  5
184
  8
LAYER_1
 10
10.97913015281189
 20
11.06538746243185
 30
0.0
  0
VERTEX
  5
185
  8
LAYER_1
 10
10.98195685339295
 20
11.06301566251045
 30
0.0
  0
VERTEX
  5
186
  8
LAYER_1
 10
10.98706771757908
 20
11.05967498013239
 30
0.0
  0
VERTEX
  5
187
  8
LAYER_1
 10
10.99247295483057
 20
11.057195451434
 30
0.0
  0
VERTEX
  5
188
  8
LAYER_1
 10
10.99814203194237
 20
11.05548799155188
 30
0.0
  0
VERTEX
  5
189
  8
LAYER_1
 10
11.00404441570945
 20
11.05446351562261
 30
0.0
  0
VERTEX
  5
18A
  8
LAYER_1
 10
11.01014957292677
 20
11.05403293878277
 30
0.0
  0
VERTEX
  5
18B
  8
LAYER_1
 10
11.0164269703893
 20
11.05410717616895
 30
0.0
  0
VERTEX
  5
18C
  8
LAYER_1
 10
11.02937635322984
 20
11.0554137541657
 30
0.0
  0
VERTEX
  5
18D
  8
LAYER_1
 10
11.04264829859076
 20
11.05767057070555
 30
0.0
  0
VERTEX
  5
18E
  8
LAYER_1
 10
11.05599854083178
 20
11.06016494688117
 30
0.0
  0
VERTEX
  5
18F
  8
LAYER_1
 10
11.06918281431261
 20
11.06218420378524
 30
0.0
  0
VERTEX
  5
190
  8
LAYER_1
 10
11.07563637975536
 20
11.06279295035191
 30
0.0
  0
VERTEX
  5
191
  8
LAYER_1
 10
11.08195685339295
 20
11.06301566251045
 30
0.0
  0
VERTEX
  5
192
  8
LAYER_1
 10
11.25439659333854
 20
11.06355054042548
 30
0.0
  0
VERTEX
  5
193
  8
LAYER_1
 10
11.42696865991453
 20
11.06444200361719
 30
0.0
  0
VERTEX
  5
194
  8
LAYER_1
 10
11.51326111884792
 20
11.06468715599491
 30
0.0
  0
VERTEX
  5
195
  8
LAYER_1
 10
11.59953482322972
 20
11.06462029625554
 30
0.0
  0
VERTEX
  5
196
  8
LAYER_1
 10
11.68577249432353
 20
11.0641077049203
 30
0.0
  0
VERTEX
  5
197
  8
LAYER_1
 10
11.77195685339295
 20
11.06301566251045
 30
0.0
  0
VERTEX
  5
198
  8
LAYER_1
 10
11.94369273844375
 20
11.0597646340914
 30
0.0
  0
VERTEX
  5
199
  8
LAYER_1
 10
12.02961331893848
 20
11.057718660195
 30
0.0
  0
VERTEX
  5
19A
  8
LAYER_1
 10
12.1155390637948
 20
11.05529174143598
 30
0.0
  0
VERTEX
  5
19B
  8
LAYER_1
 10
12.20144752729927
 20
11.05240839901082
 30
0.0
  0
VERTEX
  5
19C
  8
LAYER_1
 10
12.28731626373843
 20
11.04899315411598
 30
0.0
  0
VERTEX
  5
19D
  8
LAYER_1
 10
12.37312282739883
 20
11.04497052794794
 30
0.0
  0
VERTEX
  5
19E
  8
LAYER_1
 10
12.45884477256701
 20
11.04026504170317
 30
0.0
  0
VERTEX
  5
19F
  8
LAYER_1
 10
12.51817378983819
 20
11.03668423508314
 30
0.0
  0
VERTEX
  5
1A0
  8
LAYER_1
 10
12.57752324599621
 20
11.03254021444803
 30
0.0
  0
VERTEX
  5
1A1
  8
LAYER_1
 10
12.60716202427204
 20
11.03006020276097
 30
0.0
  0
VERTEX
  5
1A2
  8
LAYER_1
 10
12.63675357500671
 20
11.02720323223354
 30
0.0
  0
VERTEX
  5
1A3
  8
LAYER_1
 10
12.66628045244592
 20
11.02389058442019
 30
0.0
  0
VERTEX
  5
1A4
  8
LAYER_1
 10
12.69572521083537
 20
11.02004354087539
 30
0.0
  0
VERTEX
  5
1A5
  8
LAYER_1
 10
12.74768937044731
 20
11.01306912815235
 30
0.0
  0
VERTEX
  5
1A6
  8
LAYER_1
 10
12.7737304055199
 20
11.00943192119716
 30
0.0
  0
VERTEX
  5
1A7
  8
LAYER_1
 10
12.79968753981678
 20
11.00535653580404
 30
0.0
  0
VERTEX
  5
1A8
  8
LAYER_1
 10
12.8254683701229
 20
11.00058933844137
 30
0.0
  0
VERTEX
  5
1A9
  8
LAYER_1
 10
12.85098049322315
 20
10.99487669557752
 30
0.0
  0
VERTEX
  5
1AA
  8
LAYER_1
 10
12.86360691356637
 20
10.99158657160402
 30
0.0
  0
VERTEX
  5
1AB
  8
LAYER_1
 10
12.87613150590247
 20
10.98796497368087
 30
0.0
  0
VERTEX
  5
1AC
  8
LAYER_1
 10
12.88854271982957
 20
10.98398019761662
 30
0.0
  0
VERTEX
  5
1AD
  8
LAYER_1
 10
12.90082900494577
 20
10.97960053921982
 30
0.0
  0
VERTEX
  5
1AE
  8
LAYER_1
 10
12.91469995012068
 20
10.97394026915182
 30
0.0
  0
VERTEX
  5
1AF
  8
LAYER_1
 10
12.92827100990153
 20
10.96755837976052
 30
0.0
  0
VERTEX
  5
1B0
  8
LAYER_1
 10
12.94156633211134
 20
10.96055286214586
 30
0.0
  0
VERTEX
  5
1B1
  8
LAYER_1
 10
12.95461006457311
 20
10.95302170740776
 30
0.0
  0
VERTEX
  5
1B2
  8
LAYER_1
 10
12.96742635510984
 20
10.94506290664618
 30
0.0
  0
VERTEX
  5
1B3
  8
LAYER_1
 10
12.98003935154455
 20
10.93677445096103
 30
0.0
  0
VERTEX
  5
1B4
  8
LAYER_1
 10
13.00475205339991
 20
10.91960053921981
 30
0.0
  0
VERTEX
  5
1B5
  8
LAYER_1
 10
13.02142578138126
 20
10.9075646702448
 30
0.0
  0
VERTEX
  5
1B6
  8
LAYER_1
 10
13.03794419918598
 20
10.89522418063036
 30
0.0
  0
VERTEX
  5
1B7
  8
LAYER_1
 10
13.05422248348213
 20
10.88253026236607
 30
0.0
  0
VERTEX
  5
1B8
  8
LAYER_1
 10
13.07017581093778
 20
10.86943410744152
 30
0.0
  0
VERTEX
  5
1B9
  8
LAYER_1
 10
13.08571935822098
 20
10.8558869078463
 30
0.0
  0
VERTEX
  5
1BA
  8
LAYER_1
 10
13.10076830199979
 20
10.84183985556999
 30
0.0
  0
VERTEX
  5
1BB
  8
LAYER_1
 10
13.11523781894228
 20
10.82724414260217
 30
0.0
  0
VERTEX
  5
1BC
  8
LAYER_1
 10
13.12904308571651
 20
10.81205096093244
 30
0.0
  0
VERTEX
  5
1BD
  8
LAYER_1
 10
13.15072313905378
 20
10.78641032849821
 30
0.0
  0
VERTEX
  5
1BE
  8
LAYER_1
 10
13.17187246728355
 20
10.76016723024399
 30
0.0
  0
VERTEX
  5
1BF
  8
LAYER_1
 10
13.19252126451886
 20
10.73336522182798
 30
0.0
  0
VERTEX
  5
1C0
  8
LAYER_1
 10
13.21269972487274
 20
10.70604785890836
 30
0.0
  0
VERTEX
  5
1C1
  8
LAYER_1
 10
13.23243804245821
 20
10.67825869714332
 30
0.0
  0
VERTEX
  5
1C2
  8
LAYER_1
 10
13.25176641138832
 20
10.65004129219103
 30
0.0
  0
VERTEX
  5
1C3
  8
LAYER_1
 10
13.2707150257761
 20
10.62143919970969
 30
0.0
  0
VERTEX
  5
1C4
  8
LAYER_1
 10
13.28931407973456
 20
10.59249597535747
 30
0.0
  0
VERTEX
  5
1C5
  8
LAYER_1
 10
13.30759376737675
 20
10.56325517479256
 30
0.0
  0
VERTEX
  5
1C6
  8
LAYER_1
 10
13.3255842828157
 20
10.53376035367314
 30
0.0
  0
VERTEX
  5
1C7
  8
LAYER_1
 10
13.360818573536
 20
10.47418287240352
 30
0.0
  0
VERTEX
  5
1C8
  8
LAYER_1
 10
13.3952585047997
 20
10.41411197681408
 30
0.0
  0
VERTEX
  5
1C9
  8
LAYER_1
 10
13.42914562951107
 20
10.35389611217029
 30
0.0
  0
VERTEX
  5
1CA
  8
LAYER_1
 10
13.46272150057435
 20
10.29388372373762
 30
0.0
  0
VERTEX
  5
1CB
  8
LAYER_1
 10
13.4962276708938
 20
10.23442325678154
 30
0.0
  0
VERTEX
  5
1CC
  8
LAYER_1
 10
13.52990569337367
 20
10.17586315656752
 30
0.0
  0
VERTEX
  5
1CD
  8
LAYER_1
 10
13.54688463445634
 20
10.14702963313424
 30
0.0
  0
VERTEX
  5
1CE
  8
LAYER_1
 10
13.56399712091821
 20
10.11855186836103
 30
0.0
  0
VERTEX
  5
1CF
  8
LAYER_1
 10
13.58127334687232
 20
10.09047341790607
 30
0.0
  0
VERTEX
  5
1D0
  8
LAYER_1
 10
13.59874350643168
 20
10.06283783742754
 30
0.0
  0
VERTEX
  5
1D1
  8
LAYER_1
 10
13.61643779370934
 20
10.03568868258363
 30
0.0
  0
VERTEX
  5
1D2
  8
LAYER_1
 10
13.63438640281833
 20
10.00906950903253
 30
0.0
  0
VERTEX
  5
1D3
  8
LAYER_1
 10
13.65261952787167
 20
9.983023872432408
 30
0.0
  0
VERTEX
  5
1D4
  8
LAYER_1
 10
13.6711673629824
 20
9.957595328441457
 30
0.0
  0
VERTEX
  5
1D5
  8
LAYER_1
 10
13.69006010226356
 20
9.93282743271786
 30
0.0
  0
VERTEX
  5
1D6
  8
LAYER_1
 10
13.70932793982816
 20
9.908763740919802
 30
0.0
  0
SEQEND
  5
1D7
  8
LAYER_1
  0
POLYLINE
  5
45
  8
LAYER_1
 66
     1
 10
0.0
 20
0.0
 30
0.0
  0
VERTEX
  5
1D8
  8
LAYER_1
 10
13.70932793982816
 20
9.908763740919802
 30
0.0
  0
VERTEX
  5
1D9
  8
LAYER_1
 10
15.81408532372919
 20
9.91230618724627
 30
0.0
  0
SEQEND
  5
1DA
  8
LAYER_1
  0
POLYLINE
  5
46
  8
LAYER_1
 66
     1
 10
0.0
 20
0.0
 30
0.0
 70
     1
  0
VERTEX
  5
1DB
  8
LAYER_1
 10
14.11218615214383
 20
10.95702198726627
 30
0.0
 42
0.4142135623730951
  0
VERTEX
  5
1DC
  8
LAYER_1
 10
13.80468615214383
 20
10.64952198726627
 30
0.0
 42
0.4142135623730951
  0
VERTEX
  5
1DD
  8
LAYER_1
 10
14.11218615214383
 20
10.34202198726627
 30
0.0
 42
0.4142135623730951
  0
VERTEX
  5
1DE
  8
LAYER_1
 10
14.41968615214383
 20
10.64952198726627
 30
0.0
 42
0.4142135623730951
  0
SEQEND
  5
1DF
  8
LAYER_1
  0
POLYLINE
  5
47
  8
LAYER_1
 66
     1
 10
0.0
 20
0.0
 30
0.0
  0
VERTEX
  5
1E0
  8
LAYER_1
 10
15.73769198007118
 20
9.912095436298937
 30
0.0
  0
VERTEX
  5
1E1
  8
LAYER_1
 10
20.43041924079109
 20
9.83988627679208
 30
0.0
  0
SEQEND
  5
1E2
  8
LAYER_1
  0
POLYLINE
  5
48
  8
LAYER_1
 66
     1
 10
0.0
 20
0.0
 30
0.0
  0
VERTEX
  5
1E3
  8
LAYER_1
 10
20.43041924079109
 20
9.83988627679208
 30
0.0
  0
VERTEX
  5
1E4
  8
LAYER_1
 10
20.44539169748515
 20
9.837393118791704
 30
0.0
  0
VERTEX
  5
1E5
  8
LAYER_1
 10
20.46004170582385
 20
9.833973894114743
 30
0.0
  0
VERTEX
  5
1E6
  8
LAYER_1
 10
20.4743693690405
 20
9.829628575099914
 30
0.0
  0
VERTEX
  5
1E7
  8
LAYER_1
 10
20.48837479036844
 20
9.82435713408593
 30
0.0
  0
VERTEX
  5
1E8
  8
LAYER_1
 10
20.4980425121901
 20
9.820703866207648
 30
0.0
  0
VERTEX
  5
1E9
  8
LAYER_1
 10
20.50781257670902
 20
9.81677142723317
 30
0.0
  0
VERTEX
  5
1EA
  8
LAYER_1
 10
20.51237318065817
 20
9.814410526248164
 30
0.0
  0
VERTEX
  5
1EB
  8
LAYER_1
 10
20.51652400209549
 20
9.811631841685074
 30
0.0
  0
VERTEX
  5
1EC
  8
LAYER_1
 10
20.52011991829228
 20
9.80831937660922
 30
0.0
  0
VERTEX
  5
1ED
  8
LAYER_1
 10
20.52301580651981
 20
9.80435713408593
 30
0.0
  0
VERTEX
  5
1EE
  8
LAYER_1
 10
20.52409358742399
 20
9.802141865788926
 30
0.0
  0
VERTEX
  5
1EF
  8
LAYER_1
 10
20.52486322003501
 20
9.799833296791244
 30
0.0
  0
VERTEX
  5
1F0
  8
LAYER_1
 10
20.52568077976844
 20
9.795004890702407
 30
0.0
  0
VERTEX
  5
1F1
  8
LAYER_1
 10
20.52584825301708
 20
9.784983444210786
 30
0.0
  0
VERTEX
  5
1F2
  8
LAYER_1
 10
20.52646552266735
 20
9.774560662098686
 30
0.0
  0
VERTEX
  5
1F3
  8
LAYER_1
 10
20.52725826820968
 20
9.763793832734782
 30
0.0
  0
VERTEX
  5
1F4
  8
LAYER_1
 10
20.52722400846766
 20
9.758525861414213
 30
0.0
  0
VERTEX
  5
1F5
  8
LAYER_1
 10
20.5266378945314
 20
9.753465231577668
 30
0.0
  0
VERTEX
  5
1F6
  8
LAYER_1
 10
20.52530135201181
 20
9.748709727657463
 30
0.0
  0
VERTEX
  5
1F7
  8
LAYER_1
 10
20.52301580651981
 20
9.74435713408593
 30
0.0
  0
VERTEX
  5
1F8
  8
LAYER_1
 10
20.52061716241389
 20
9.741435894326212
 30
0.0
  0
VERTEX
  5
1F9
  8
LAYER_1
 10
20.51783898720045
 20
9.739021519882812
 30
0.0
  0
VERTEX
  5
1FA
  8
LAYER_1
 10
20.51472769320602
 20
9.737048979825255
 30
0.0
  0
VERTEX
  5
1FB
  8
LAYER_1
 10
20.51132969275714
 20
9.735453243223073
 30
0.0
  0
VERTEX
  5
1FC
  8
LAYER_1
 10
20.50385922180215
 20
9.733132056662942
 30
0.0
  0
VERTEX
  5
1FD
  8
LAYER_1
 10
20.49579887294776
 20
9.73153771275865
 30
0.0
  0
VERTEX
  5
1FE
  8
LAYER_1
 10
20.48751994480622
 20
9.73014996406642
 30
0.0
  0
VERTEX
  5
1FF
  8
LAYER_1
 10
20.47939373598984
 20
9.728448563142486
 30
0.0
  0
VERTEX
  5
200
  8
LAYER_1
 10
20.47550393214491
 20
9.727317665767451
 30
0.0
  0
VERTEX
  5
201
  8
LAYER_1
 10
20.47179154511087
 20
9.725913262543074
 30
0.0
  0
VERTEX
  5
202
  8
LAYER_1
 10
20.46830298721424
 20
9.724170322538885
 30
0.0
  0
VERTEX
  5
203
  8
LAYER_1
 10
20.46508467078158
 20
9.722023814824412
 30
0.0
  0
VERTEX
  5
204
  8
LAYER_1
 10
20.46073407007458
 20
9.718403287928425
 30
0.0
  0
VERTEX
  5
205
  8
LAYER_1
 10
20.45666195811023
 20
9.714513893502673
 30
0.0
  0
VERTEX
  5
206
  8
LAYER_1
 10
20.44923203828718
 20
9.706044499323266
 30
0.0
  0
VERTEX
  5
207
  8
LAYER_1
 10
20.44255258706778
 20
9.696847626808971
 30
0.0
  0
VERTEX
  5
208
  8
LAYER_1
 10
20.43638128020739
 20
9.687155270482563
 30
0.0
  0
VERTEX
  5
209
  8
LAYER_1
 10
20.424593802585
 20
9.667212084484522
 30
0.0
  0
VERTEX
  5
20A
  8
LAYER_1
 10
20.41849298333371
 20
9.657425243858443
 30
0.0
  0
VERTEX
  5
20B
  8
LAYER_1
 10
20.41193101146283
 20
9.648070897511364
 30
0.0
  0
VERTEX
  5
20C
  8
LAYER_1
 10
20.40132664535925
 20
9.635150555223005
 30
0.0
  0
VERTEX
  5
20D
  8
LAYER_1
 10
20.38990706891925
 20
9.62271894338118
 30
0.0
  0
VERTEX
  5
20E
  8
LAYER_1
 10
20.37810913546909
 20
9.610520383340038
 30
0.0
  0
VERTEX
  5
20F
  8
LAYER_1
 10
20.36636969833505
 20
9.598299196453734
 30
0.0
  0
VERTEX
  5
210
  8
LAYER_1
 10
20.35512561084342
 20
9.585799704076415
 30
0.0
  0
VERTEX
  5
211
  8
LAYER_1
 10
20.34982583987796
 20
9.579365693751798
 30
0.0
  0
VERTEX
  5
212
  8
LAYER_1
 10
20.34481372632045
 20
9.572766227562235
 30
0.0
  0
VERTEX
  5
213
  8
LAYER_1
 10
20.34014387683668
 20
9.565969345676995
 30
0.0
  0
VERTEX
  5
214
  8
LAYER_1
 10
20.33587089809244
 20
9.558943088265343
 30
0.0
  0
VERTEX
  5
215
  8
LAYER_1
 10
20.3320493967535
 20
9.55165549549655
 30
0.0
  0
VERTEX
  5
216
  8
LAYER_1
 10
20.32873397948565
 20
9.54407460753989
 30
0.0
  0
VERTEX
  5
217
  8
LAYER_1
 10
20.32479029935085
 20
9.533205674616646
 30
0.0
  0
VERTEX
  5
218
  8
LAYER_1
 10
20.32141265496656
 20
9.522156390983824
 30
0.0
  0
VERTEX
  5
219
  8
LAYER_1
 10
20.31856766851153
 20
9.510945797210422
 30
0.0
  0
VERTEX
  5
21A
  8
LAYER_1
 10
20.31622196216451
 20
9.49959293386544
 30
0.0
  0
VERTEX
  5
21B
  8
LAYER_1
 10
20.31434215810425
 20
9.488116841517874
 30
0.0
  0
VERTEX
  5
21C
  8
LAYER_1
 10
20.31289487850949
 20
9.47653656073672
 30
0.0
  0
VERTEX
  5
21D
  8
LAYER_1
 10
20.311846745559
 20
9.464871132090977
 30
0.0
  0
VERTEX
  5
21E
  8
LAYER_1
 10
20.3111643814315
 20
9.453139596149642
 30
0.0
  0
VERTEX
  5
21F
  8
LAYER_1
 10
20.31076344836051
 20
9.42955436465618
 30
0.0
  0
VERTEX
  5
220
  8
LAYER_1
 10
20.31142505672652
 20
9.405933190808312
 30
0.0
  0
VERTEX
  5
221
  8
LAYER_1
 10
20.3128821839595
 20
9.382428399158016
 30
0.0
  0
VERTEX
  5
222
  8
LAYER_1
 10
20.31486780748946
 20
9.359192314257273
 30
0.0
  0
VERTEX
  5
223
  8
LAYER_1
 10
20.31634958348128
 20
9.34678469674931
 30
0.0
  0
VERTEX
  5
224
  8
LAYER_1
 10
20.31843101335561
 20
9.33443896345392
 30
0.0
  0
VERTEX
  5
225
  8
LAYER_1
 10
20.32106276475292
 20
9.322171821504725
 30
0.0
  0
VERTEX
  5
226
  8
LAYER_1
 10
20.32419550531364
 20
9.309999978035345
 30
0.0
  0
VERTEX
  5
227
  8
LAYER_1
 10
20.32777990267822
 20
9.297940140179398
 30
0.0
  0
VERTEX
  5
228
  8
LAYER_1
 10
20.33176662448713
 20
9.286009015070507
 30
0.0
  0
VERTEX
  5
229
  8
LAYER_1
 10
20.33610633838081
 20
9.27422330984229
 30
0.0
  0
VERTEX
  5
22A
  8
LAYER_1
 10
20.34074971199971
 20
9.262599731628367
 30
0.0
  0
VERTEX
  5
22B
  8
LAYER_1
 10
20.34593190368452
 20
9.251259993174605
 30
0.0
  0
VERTEX
  5
22C
  8
LAYER_1
 10
20.35179551587657
 20
9.240252809884016
 30
0.0
  0
VERTEX
  5
22D
  8
LAYER_1
 10
20.36481433694803
 20
9.218864953269698
 30
0.0
  0
VERTEX
  5
22E
  8
LAYER_1
 10
20.37830084554532
 20
9.197693850740103
 30
0.0
  0
VERTEX
  5
22F
  8
LAYER_1
 10
20.38474906714467
 20
9.186957610055419
 30
0.0
  0
VERTEX
  5
230
  8
LAYER_1
 10
20.39074971199971
 20
9.175997191249923
 30
0.0
  0
VERTEX
  5
231
  8
LAYER_1
 10
20.40215576242166
 20
9.154790898886393
 30
0.0
  0
VERTEX
  5
232
  8
LAYER_1
 10
20.41352393172323
 20
9.133453882361735
 30
0.0
  0
VERTEX
  5
233
  8
LAYER_1
 10
20.41874635890901
 20
9.122612468437609
 30
0.0
  0
VERTEX
  5
234
  8
LAYER_1
 10
20.42342237336088
 20
9.111589712551549
 30
0.0
  0
VERTEX
  5
235
  8
LAYER_1
 10
20.42737299426089
 20
9.100336061063011
 30
0.0
  0
VERTEX
  5
236
  8
LAYER_1
 10
20.43041924079109
 20
9.088801960331441
 30
0.0
  0
VERTEX
  5
237
  8
LAYER_1
 10
20.43247442386376
 20
9.077732552340656
 30
0.0
  0
VERTEX
  5
238
  8
LAYER_1
 10
20.4338939567186
 20
9.06652156512834
 30
0.0
  0
VERTEX
  5
239
  8
LAYER_1
 10
20.43470206688271
 20
9.055213989446802
 30
0.0
  0
VERTEX
  5
23A
  8
LAYER_1
 10
20.4349229818832
 20
9.043854816048349
 30
0.0
  0
VERTEX
  5
23B
  8
LAYER_1
 10
20.43458092924718
 20
9.032489035685277
 30
0.0
  0
VERTEX
  5
23C
  8
LAYER_1
 10
20.43370013650175
 20
9.021161639109902
 30
0.0
  0
VERTEX
  5
23D
  8
LAYER_1
 10
20.43230483117402
 20
9.009917617074521
 30
0.0
  0
VERTEX
  5
23E
  8
LAYER_1
 10
20.43041924079109
 20
8.998801960331441
 30
0.0
  0
VERTEX
  5
23F
  8
LAYER_1
 10
20.42770436635531
 20
8.986648355928448
 30
0.0
  0
VERTEX
  5
240
  8
LAYER_1
 10
20.42430749946602
 20
8.97464174688516
 30
0.0
  0
VERTEX
  5
241
  8
LAYER_1
 10
20.42029718165052
 20
8.962791806425429
 30
0.0
  0
VERTEX
  5
242
  8
LAYER_1
 10
20.41574195443608
 20
8.951108207773103
 30
0.0
  0
VERTEX
  5
243
  8
LAYER_1
 10
20.41071035934998
 20
8.939600624152032
 30
0.0
  0
VERTEX
  5
244
  8
LAYER_1
 10
20.40527093791951
 20
8.928278728786069
 30
0.0
  0
VERTEX
  5
245
  8
LAYER_1
 10
20.39949223167195
 20
8.917152194899058
 30
0.0
  0
VERTEX
  5
246
  8
LAYER_1
 10
20.39344278213457
 20
8.906230695714855
 30
0.0
  0
VERTEX
  5
247
  8
LAYER_1
 10
20.3908225709608
 20
8.902281176116425
 30
0.0
  0
VERTEX
  5
248
  8
LAYER_1
 10
20.38776742394983
 20
8.898590154114286
 30
0.0
  0
VERTEX
  5
249
  8
LAYER_1
 10
20.38106872285709
 20
8.891577520858378
 30
0.0
  0
VERTEX
  5
24A
  8
LAYER_1
 10
20.37778336899574
 20
8.888052868584351
 30
0.0
  0
VERTEX
  5
24B
  8
LAYER_1
 10
20.37477947973801
 20
8.884380631866104
 30
0.0
  0
VERTEX
  5
24C
  8
LAYER_1
 10
20.37223615519411
 20
8.880459290193507
 30
0.0
  0
VERTEX
  5
24D
  8
LAYER_1
 10
20.37033249547424
 20
8.87618732305643
 30
0.0
  0
VERTEX
  5
24E
  8
LAYER_1
 10
20.36833660851518
 20
8.86958439759657
 30
0.0
  0
VERTEX
  5
24F
  8
LAYER_1
 10
20.3667535403642
 20
8.862796403211725
 30
0.0
  0
VERTEX
  5
250
  8
LAYER_1
 10
20.36555544321008
 20
8.85584757732223
 30
0.0
  0
VERTEX
  5
251
  8
LAYER_1
 10
20.36471446924159
 20
8.848762157348414
 30
0.0
  0
VERTEX
  5
252
  8
LAYER_1
 10
20.36399249961654
 20
8.834278484829149
 30
0.0
  0
VERTEX
  5
253
  8
LAYER_1
 10
20.36436484899922
 20
8.819539285016589
 30
0.0
  0
VERTEX
  5
254
  8
LAYER_1
 10
20.36560873489977
 20
8.80473845727339
 30
0.0
  0
VERTEX
  5
255
  8
LAYER_1
 10
20.36750137482833
 20
8.79006990096221
 30
0.0
  0
VERTEX
  5
256
  8
LAYER_1
 10
20.37234178681013
 20
8.761905200086533
 30
0.0
  0
VERTEX
  5
257
  8
LAYER_1
 10
20.37319239088229
 20
8.755657783689589
 30
0.0
  0
VERTEX
  5
258
  8
LAYER_1
 10
20.37330383656394
 20
8.750070835578565
 30
0.0
  0
VERTEX
  5
259
  8
LAYER_1
 10
20.37276013698438
 20
8.745049873794466
 30
0.0
  0
VERTEX
  5
25A
  8
LAYER_1
 10
20.37164530527291
 20
8.740500416378302
 30
0.0
  0
VERTEX
  5
25B
  8
LAYER_1
 10
20.37004335455885
 20
8.736327981371083
 30
0.0
  0
VERTEX
  5
25C
  8
LAYER_1
 10
20.36803829797149
 20
8.732438086813815
 30
0.0
  0
VERTEX
  5
25D
  8
LAYER_1
 10
20.36315491969413
 20
8.725127991213174
 30
0.0
  0
VERTEX
  5
25E
  8
LAYER_1
 10
20.35766727547528
 20
8.717814273904452
 30
0.0
  0
VERTEX
  5
25F
  8
LAYER_1
 10
20.35224747034939
 20
8.709741079215718
 30
0.0
  0
VERTEX
  5
260
  8
LAYER_1
 10
20.34977304026957
 20
8.705183472956369
 30
0.0
  0
VERTEX
  5
261
  8
LAYER_1
 10
20.34756760935091
 20
8.700152551475044
 30
0.0
  0
VERTEX
  5
262
  8
LAYER_1
 10
20.34571519072271
 20
8.694553832812753
 30
0.0
  0
VERTEX
  5
263
  8
LAYER_1
 10
20.3442997975143
 20
8.688292835010504
 30
0.0
  0
VERTEX
  5
264
  8
LAYER_1
 10
20.34231658583224
 20
8.679086762682974
 30
0.0
  0
VERTEX
  5
265
  8
LAYER_1
 10
20.33975223866584
 20
8.67033026116412
 30
0.0
  0
VERTEX
  5
266
  8
LAYER_1
 10
20.3366928659161
 20
8.662028912777288
 30
0.0
  0
VERTEX
  5
267
  8
LAYER_1
 10
20.33322457748405
 20
8.654188299845837
 30
0.0
  0
VERTEX
  5
268
  8
LAYER_1
 10
20.32943348327069
 20
8.646814004693116
 30
0.0
  0
VERTEX
  5
269
  8
LAYER_1
 10
20.32540569317706
 20
8.639911609642482
 30
0.0
  0
VERTEX
  5
26A
  8
LAYER_1
 10
20.32122731710416
 20
8.633486697017288
 30
0.0
  0
VERTEX
  5
26B
  8
LAYER_1
 10
20.31698446495302
 20
8.627544849140886
 30
0.0
  0
VERTEX
  5
26C
  8
LAYER_1
 10
20.30864977202004
 20
8.617132676927872
 30
0.0
  0
VERTEX
  5
26D
  8
LAYER_1
 10
20.30109049358628
 20
8.608719751590266
 30
0.0
  0
VERTEX
  5
26E
  8
LAYER_1
 10
20.29499550885985
 20
8.602350731714896
 30
0.0
  0
VERTEX
  5
26F
  8
LAYER_1
 10
20.2910536970489
 20
8.598070275888587
 30
0.0
  0
VERTEX
  5
270
  8
LAYER_1
 10
20.27868722377374
 20
8.583886380782598
 30
0.0
  0
VERTEX
  5
271
  8
LAYER_1
 10
20.2665139236072
 20
8.571678675176793
 30
0.0
  0
VERTEX
  5
272
  8
LAYER_1
 10
20.25448431164797
 20
8.561204761051961
 30
0.0
  0
VERTEX
  5
273
  8
LAYER_1
 10
20.24254890299474
 20
8.552222240388897
 30
0.0
  0
VERTEX
  5
274
  8
LAYER_1
 10
20.2306582127462
 20
8.54448871516839
 30
0.0
  0
VERTEX
  5
275
  8
LAYER_1
 10
20.21876275600103
 20
8.537761787371231
 30
0.0
  0
VERTEX
  5
276
  8
LAYER_1
 10
20.20681304785793
 20
8.531799058978212
 30
0.0
  0
VERTEX
  5
277
  8
LAYER_1
 10
20.19475960341558
 20
8.526358131970124
 30
0.0
  0
VERTEX
  5
278
  8
LAYER_1
 10
20.1701435660279
 20
8.516072090031912
 30
0.0
  0
VERTEX
  5
279
  8
LAYER_1
 10
20.15748200327995
 20
8.51074217906337
 30
0.0
  0
VERTEX
  5
27A
  8
LAYER_1
 10
20.1445187646275
 20
8.504964477402925
 30
0.0
  0
VERTEX
  5
27B
  8
LAYER_1
 10
20.13120436516925
 20
8.49849658703137
 30
0.0
  0
VERTEX
  5
27C
  8
LAYER_1
 10
20.11748932000388
 20
8.491096109929495
 30
0.0
  0
VERTEX
  5
27D
  8
LAYER_1
 10
20.10332414423008
 20
8.482520648078093
 30
0.0
  0
VERTEX
  5
27E
  8
LAYER_1
 10
20.08865935294655
 20
8.472527803457956
 30
0.0
  0
VERTEX
  5
27F
  8
LAYER_1
 10
20.08638794648395
 20
8.47055093798254
 30
0.0
  0
VERTEX
  5
280
  8
LAYER_1
 10
20.08460561953181
 20
8.468294690933636
 30
0.0
  0
VERTEX
  5
281
  8
LAYER_1
 10
20.08326739560821
 20
8.465787513337425
 30
0.0
  0
VERTEX
  5
282
  8
LAYER_1
 10
20.08232829823122
 20
8.463057856220088
 30
0.0
  0
VERTEX
  5
283
  8
LAYER_1
 10
20.08174335091891
 20
8.460134170607807
 30
0.0
  0
VERTEX
  5
284
  8
LAYER_1
 10
20.08146757718935
 20
8.457044907526765
 30
0.0
  0
VERTEX
  5
285
  8
LAYER_1
 10
20.08166364455081
 20
8.45048345306312
 30
0.0
  0
VERTEX
  5
286
  8
LAYER_1
 10
20.08378689706207
 20
8.436625459662679
 30
0.0
  0
VERTEX
  5
287
  8
LAYER_1
 10
20.08499445850105
 20
8.42978413714479
 30
0.0
  0
VERTEX
  5
288
  8
LAYER_1
 10
20.08581956092173
 20
8.423304741694391
 30
0.0
  0
VERTEX
  5
289
  8
LAYER_1
 10
20.08605010675267
 20
8.41508257967264
 30
0.0
  0
VERTEX
  5
28A
  8
LAYER_1
 10
20.08582567716944
 20
8.405494110272222
 30
0.0
  0
VERTEX
  5
28B
  8
LAYER_1
 10
20.08557747409582
 20
8.395298352699783
 30
0.0
  0
VERTEX
  5
28C
  8
LAYER_1
 10
20.0857366994556
 20
8.385254326161967
 30
0.0
  0
VERTEX
  5
28D
  8
LAYER_1
 10
20.08610384839919
 20
8.380526405533121
 30
0.0
  0
VERTEX
  5
28E
  8
LAYER_1
 10
20.08673455517255
 20
8.376121049865425
 30
0.0
  0
VERTEX
  5
28F
  8
LAYER_1
 10
20.08768272001614
 20
8.37213313655971
 30
0.0
  0
VERTEX
  5
290
  8
LAYER_1
 10
20.08900224317045
 20
8.368657543016807
 30
0.0
  0
VERTEX
  5
291
  8
LAYER_1
 10
20.09074702487594
 20
8.365789146637548
 30
0.0
  0
VERTEX
  5
292
  8
LAYER_1
 10
20.09297096537308
 20
8.363622824822762
 30
0.0
  0
VERTEX
  5
293
  8
LAYER_1
 10
20.09572796490235
 20
8.362253454973281
 30
0.0
  0
VERTEX
  5
294
  8
LAYER_1
 10
20.09907192370423
 20
8.361775914489936
 30
0.0
  0
VERTEX
  5
295
  8
LAYER_1
 10
20.1614284541366
 20
8.361553558807941
 30
0.0
  0
VERTEX
  5
296
  8
LAYER_1
 10
20.22874809644733
 20
8.36169456628089
 30
0.0
  0
VERTEX
  5
297
  8
LAYER_1
 10
20.3398265576497
 20
8.363354136587798
 30
0.0
  0
VERTEX
  5
298
  8
LAYER_1
 10
20.45093546150354
 20
8.36573600883018
 30
0.0
  0
VERTEX
  5
299
  8
LAYER_1
 10
20.67343834895361
 20
8.370938680945022
 30
0.0
  0
SEQEND
  5
29A
  8
LAYER_1
  0
POLYLINE
  5
49
  8
LAYER_1
 66
     1
 10
0.0
 20
0.0
 30
0.0
  0
VERTEX
  5
29B
  8
LAYER_1
 10
20.67343834895361
 20
8.370938680945022
 30
0.0
  0
VERTEX
  5
29C
  8
LAYER_1
 10
20.68476488888262
 20
8.369110038508943
 30
0.0
  0
VERTEX
  5
29D
  8
LAYER_1
 10
20.69582250707582
 20
8.366738108751218
 30
0.0
  0
VERTEX
  5
29E
  8
LAYER_1
 10
20.70661122203231
 20
8.363822885027439
 30
0.0
  0
VERTEX
  5
29F
  8
LAYER_1
 10
20.71713105225114
 20
8.360364360693197
 30
0.0
  0
VERTEX
  5
2A0
  8
LAYER_1
 10
20.72738201623139
 20
8.35636252910408
 30
0.0
  0
VERTEX
  5
2A1
  8
LAYER_1
 10
20.73736413247212
 20
8.351817383615682
 30
0.0
  0
VERTEX
  5
2A2
  8
LAYER_1
 10
20.74707741947241
 20
8.346728917583592
 30
0.0
  0
VERTEX
  5
2A3
  8
LAYER_1
 10
20.75652189573134
 20
8.341097124363403
 30
0.0
  0
VERTEX
  5
2A4
  8
LAYER_1
 10
20.76382272855101
 20
8.33621435198787
 30
0.0
  0
VERTEX
  5
2A5
  8
LAYER_1
 10
20.77092190856312
 20
8.330935791273788
 30
0.0
  0
VERTEX
  5
2A6
  8
LAYER_1
 10
20.77776116953086
 20
8.325272991824741
 30
0.0
  0
VERTEX
  5
2A7
  8
LAYER_1
 10
20.78428224521736
 20
8.319237503244308
 30
0.0
  0
VERTEX
  5
2A8
  8
LAYER_1
 10
20.7904268693858
 20
8.312840875136072
 30
0.0
  0
VERTEX
  5
2A9
  8
LAYER_1
 10
20.79613677579935
 20
8.30609465710361
 30
0.0
  0
VERTEX
  5
2AA
  8
LAYER_1
 10
20.80135369822116
 20
8.299010398750507
 30
0.0
  0
VERTEX
  5
2AB
  8
LAYER_1
 10
20.80601937041439
 20
8.291599649680345
 30
0.0
  0
VERTEX
  5
2AC
  8
LAYER_1
 10
20.81011188798657
 20
8.283853965083443
 30
0.0
  0
VERTEX
  5
2AD
  8
LAYER_1
 10
20.81365668363647
 20
8.275794529976501
 30
0.0
  0
VERTEX
  5
2AE
  8
LAYER_1
 10
20.81666649676416
 20
8.267477338702664
 30
0.0
  0
VERTEX
  5
2AF
  8
LAYER_1
 10
20.8191540667697
 20
8.258958385605077
 30
0.0
  0
VERTEX
  5
2B0
  8
LAYER_1
 10
20.82113213305315
 20
8.25029366502688
 30
0.0
  0
VERTEX
  5
2B1
  8
LAYER_1
 10
20.82261343501457
 20
8.241539171311224
 30
0.0
  0
VERTEX
  5
2B2
  8
LAYER_1
 10
20.82361071205402
 20
8.232750898801253
 30
0.0
  0
VERTEX
  5
2B3
  8
LAYER_1
 10
20.82413670357157
 20
8.22398484184011
 30
0.0
  0
VERTEX
  5
2B4
  8
LAYER_1
 10
20.82402770465815
 20
8.21391335374808
 30
0.0
  0
VERTEX
  5
2B5
  8
LAYER_1
 10
20.82311318644037
 20
8.203880958533839
 30
0.0
  0
VERTEX
  5
2B6
  8
LAYER_1
 10
20.82153261086421
 20
8.193890373162901
 30
0.0
  0
VERTEX
  5
2B7
  8
LAYER_1
 10
20.81942543987565
 20
8.183944314600774
 30
0.0
  0
VERTEX
  5
2B8
  8
LAYER_1
 10
20.81418915944526
 20
8.164196645765005
 30
0.0
  0
VERTEX
  5
2B9
  8
LAYER_1
 10
20.80852004071707
 20
8.14465968775062
 30
0.0
  0
VERTEX
  5
2BA
  8
LAYER_1
 10
20.80181920721272
 20
8.12076031100249
 30
0.0
  0
VERTEX
  5
2BB
  8
LAYER_1
 10
20.79829958986551
 20
8.108800536231842
 30
0.0
  0
VERTEX
  5
2BC
  8
LAYER_1
 10
20.7944953425732
 20
8.096944628620022
 30
0.0
  0
VERTEX
  5
2BD
  8
LAYER_1
 10
20.79027759317446
 20
8.085275531734446
 30
0.0
  0
VERTEX
  5
2BE
  8
LAYER_1
 10
20.78551746950799
 20
8.073876189142528
 30
0.0
  0
VERTEX
  5
2BF
  8
LAYER_1
 10
20.78008609941247
 20
8.062829544411677
 30
0.0
  0
VERTEX
  5
2C0
  8
LAYER_1
 10
20.77385461072658
 20
8.052218541109312
 30
0.0
  0
VERTEX
  5
2C1
  8
LAYER_1
 10
20.76814995400552
 20
8.044022287251902
 30
0.0
  0
VERTEX
  5
2C2
  8
LAYER_1
 10
20.76190337684047
 20
8.03621102635889
 30
0.0
  0
VERTEX
  5
2C3
  8
LAYER_1
 10
20.75519063786902
 20
8.028753002811724
 30
0.0
  0
VERTEX
  5
2C4
  8
LAYER_1
 10
20.74808749572877
 20
8.021616460991858
 30
0.0
  0
VERTEX
  5
2C5
  8
LAYER_1
 10
20.74066970905731
 20
8.01476964528074
 30
0.0
  0
VERTEX
  5
2C6
  8
LAYER_1
 10
20.73301303649224
 20
8.00818080005982
 30
0.0
  0
VERTEX
  5
2C7
  8
LAYER_1
 10
20.71728606823166
 20
7.995649998614388
 30
0.0
  0
VERTEX
  5
2C8
  8
LAYER_1
 10
20.69319426625665
 20
7.977061271553055
 30
0.0
  0
VERTEX
  5
2C9
  8
LAYER_1
 10
20.68082361789687
 20
7.967942032262229
 30
0.0
  0
VERTEX
  5
2CA
  8
LAYER_1
 10
20.66815780853564
 20
7.959324639811559
 30
0.0
  0
VERTEX
  5
2CB
  8
LAYER_1
 10
20.65513784110804
 20
7.951497917211243
 30
0.0
  0
VERTEX
  5
2CC
  8
LAYER_1
 10
20.64847661153655
 20
7.947971314295654
 30
0.0
  0
VERTEX
  5
2CD
  8
LAYER_1
 10
20.64170471854911
 20
7.944750687471478
 30
0.0
  0
VERTEX
  5
2CE
  8
LAYER_1
 10
20.63481478751261
 20
7.941872139614988
 30
0.0
  0
VERTEX
  5
2CF
  8
LAYER_1
 10
20.62779944379393
 20
7.93937177360246
 30
0.0
  0
VERTEX
  5
2D0
  8
LAYER_1
 10
20.62065131275993
 20
7.937285692310168
 30
0.0
  0
VERTEX
  5
2D1
  8
LAYER_1
 10
20.61336301977753
 20
7.935649998614387
 30
0.0
  0
VERTEX
  5
2D2
  8
LAYER_1
 10
20.4492915149331
 20
7.903467199461794
 30
0.0
  0
VERTEX
  5
2D3
  8
LAYER_1
 10
20.36766295252153
 20
7.887166923910066
 30
0.0
  0
VERTEX
  5
2D4
  8
LAYER_1
 10
20.28616001562973
 20
7.871119441589513
 30
0.0
  0
VERTEX
  5
2D5
  8
LAYER_1
 10
20.20467332839218
 20
7.855618785411229
 30
0.0
  0
VERTEX
  5
2D6
  8
LAYER_1
 10
20.12309351494338
 20
7.840958988286312
 30
0.0
  0
VERTEX
  5
2D7
  8
LAYER_1
 10
20.0822345059318
 20
7.834036297153583
 30
0.0
  0
VERTEX
  5
2D8
  8
LAYER_1
 10
20.04131119941784
 20
7.827434083125855
 30
0.0
  0
VERTEX
  5
2D9
  8
LAYER_1
 10
20.00030992341832
 20
7.821189100317017
 30
0.0
  0
VERTEX
  5
2DA
  8
LAYER_1
 10
19.95921700595004
 20
7.815338102840956
 30
0.0
  0
VERTEX
  5
2DB
  8
LAYER_1
 10
19.9196661610645
 20
7.810475874700808
 30
0.0
  0
VERTEX
  5
2DC
  8
LAYER_1
 10
19.87998988452772
 20
7.806529228179582
 30
0.0
  0
VERTEX
  5
2DD
  8
LAYER_1
 10
19.80041477962469
 20
7.800266514384324
 30
0.0
  0
VERTEX
  5
2DE
  8
LAYER_1
 10
19.72079917748946
 20
7.79431763023603
 30
0.0
  0
VERTEX
  5
2DF
  8
LAYER_1
 10
19.68107227941243
 20
7.790763270773509
 30
0.0
  0
VERTEX
  5
2E0
  8
LAYER_1
 10
19.64145056437054
 20
7.786450244515547
 30
0.0
  0
VERTEX
  5
2E1
  8
LAYER_1
 10
19.59837033395897
 20
7.780962978007986
 30
0.0
  0
VERTEX
  5
2E2
  8
LAYER_1
 10
19.55533024007409
 20
7.774993925003339
 30
0.0
  0
VERTEX
  5
2E3
  8
LAYER_1
 10
19.46935278377531
 20
7.761995460145154
 30
0.0
  0
VERTEX
  5
2E4
  8
LAYER_1
 10
19.38348283925605
 20
7.74822485122573
 30
0.0
  0
VERTEX
  5
2E5
  8
LAYER_1
 10
19.29768505029817
 20
7.73445209952981
 30
0.0
  0
VERTEX
  5
2E6
  8
LAYER_1
 10
19.25353937090604
 20
7.727859863028215
 30
0.0
  0
VERTEX
  5
2E7
  8
LAYER_1
 10
19.20926227113901
 20
7.721748010175478
 30
0.0
  0
VERTEX
  5
2E8
  8
LAYER_1
 10
19.12062904862772
 20
7.709644843501858
 30
0.0
  0
VERTEX
  5
2E9
  8
LAYER_1
 10
19.07643054495717
 20
7.702993223723614
 30
0.0
  0
VERTEX
  5
2EA
  8
LAYER_1
 10
19.03241585905916
 20
7.695501375679509
 30
0.0
  0
VERTEX
  5
2EB
  8
LAYER_1
 10
19.01050207575512
 20
7.69133719325192
 30
0.0
  0
VERTEX
  5
2EC
  8
LAYER_1
 10
18.98866380047054
 20
7.686839146390861
 30
0.0
  0
VERTEX
  5
2ED
  8
LAYER_1
 10
18.96691088439753
 20
7.681965965973997
 30
0.0
  0
VERTEX
  5
2EE
  8
LAYER_1
 10
18.94525317872818
 20
7.676676382878992
 30
0.0
  0
VERTEX
  5
2EF
  8
LAYER_1
 10
18.92182075309414
 20
7.670379314514163
 30
0.0
  0
VERTEX
  5
2F0
  8
LAYER_1
 10
18.89854855701695
 20
7.663532296082087
 30
0.0
  0
VERTEX
  5
2F1
  8
LAYER_1
 10
18.87541661810839
 20
7.656203534961975
 30
0.0
  0
VERTEX
  5
2F2
  8
LAYER_1
 10
18.85240496398022
 20
7.648461238533041
 30
0.0
  0
VERTEX
  5
2F3
  8
LAYER_1
 10
18.8066626205121
 20
7.632008869265554
 30
0.0
  0
VERTEX
  5
2F4
  8
LAYER_1
 10
18.76116174750674
 20
7.614720847313322
 30
0.0
  0
VERTEX
  5
2F5
  8
LAYER_1
 10
18.71574256585827
 20
7.597142831710045
 30
0.0
  0
VERTEX
  5
2F6
  8
LAYER_1
 10
18.67024529646081
 20
7.579820481489421
 30
0.0
  0
VERTEX
  5
2F7
  8
LAYER_1
 10
18.64741744788563
 20
7.571425699345633
 30
0.0
  0
VERTEX
  5
2F8
  8
LAYER_1
 10
18.62451016020851
 20
7.563299455685147
 30
0.0
  0
VERTEX
  5
2F9
  8
LAYER_1
 10
18.6015034610412
 20
7.555509957887173
 30
0.0
  0
VERTEX
  5
2FA
  8
LAYER_1
 10
18.57837737799548
 20
7.548125413330922
 30
0.0
  0
VERTEX
  5
2FB
  8
LAYER_1
 10
18.50672534435749
 20
7.525626026199473
 30
0.0
  0
VERTEX
  5
2FC
  8
LAYER_1
 10
18.47079670374214
 20
7.514478518388577
 30
0.0
  0
VERTEX
  5
2FD
  8
LAYER_1
 10
18.43474872617611
 20
7.503756363178159
 30
0.0
  0
VERTEX
  5
2FE
  8
LAYER_1
 10
18.39854322084458
 20
7.493727482141164
 30
0.0
  0
VERTEX
  5
2FF
  8
LAYER_1
 10
18.36214199693273
 20
7.484659796850538
 30
0.0
  0
VERTEX
  5
300
  8
LAYER_1
 10
18.34385605587956
 20
7.480570128101658
 30
0.0
  0
VERTEX
  5
301
  8
LAYER_1
 10
18.32550686362574
 20
7.476821228879223
 30
0.0
  0
VERTEX
  5
302
  8
LAYER_1
 10
18.30708964631942
 20
7.473446589379854
 30
0.0
  0
VERTEX
  5
303
  8
LAYER_1
 10
18.28859963010876
 20
7.470479699800165
 30
0.0
  0
VERTEX
  5
304
  8
LAYER_1
 10
18.25066987498396
 20
7.465118199786567
 30
0.0
  0
VERTEX
  5
305
  8
LAYER_1
 10
18.21269285581852
 20
7.46027637702108
 30
0.0
  0
VERTEX
  5
306
  8
LAYER_1
 10
18.17467066138541
 20
7.45592866580388
 30
0.0
  0
VERTEX
  5
307
  8
LAYER_1
 10
18.13660538045762
 20
7.452049500435146
 30
0.0
  0
VERTEX
  5
308
  8
LAYER_1
 10
18.09849910180811
 20
7.448613315215058
 30
0.0
  0
VERTEX
  5
309
  8
LAYER_1
 10
18.06035391420986
 20
7.445594544443793
 30
0.0
  0
VERTEX
  5
30A
  8
LAYER_1
 10
18.02217190643585
 20
7.442967622421528
 30
0.0
  0
VERTEX
  5
30B
  8
LAYER_1
 10
17.98395516725904
 20
7.440706983448441
 30
0.0
  0
VERTEX
  5
30C
  8
LAYER_1
 10
17.94570578545242
 20
7.438787061824714
 30
0.0
  0
VERTEX
  5
30D
  8
LAYER_1
 10
17.90742584978895
 20
7.437182291850521
 30
0.0
  0
VERTEX
  5
30E
  8
LAYER_1
 10
17.83078267198339
 20
7.434815944051453
 30
0.0
  0
VERTEX
  5
30F
  8
LAYER_1
 10
17.75404234402615
 20
7.433403414452664
 30
0.0
  0
VERTEX
  5
310
  8
LAYER_1
 10
17.67722157610103
 20
7.43274017745558
 30
0.0
  0
VERTEX
  5
311
  8
LAYER_1
 10
17.5234055610823
 20
7.432843478872225
 30
0.0
  0
VERTEX
  5
312
  8
LAYER_1
 10
17.36946830839756
 20
7.433489643512788
 30
0.0
  0
VERTEX
  5
313
  8
LAYER_1
 10
17.29249599338993
 20
7.433504985545603
 30
0.0
  0
VERTEX
  5
314
  8
LAYER_1
 10
17.21554349951717
 20
7.433042466588672
 30
0.0
  0
VERTEX
  5
315
  8
LAYER_1
 10
17.1386275369631
 20
7.431897561043421
 30
0.0
  0
VERTEX
  5
316
  8
LAYER_1
 10
17.0617648159115
 20
7.429865743311278
 30
0.0
  0
SEQEND
  5
317
  8
LAYER_1
  0
POLYLINE
  5
4A
  8
LAYER_1
 66
     1
 10
0.0
 20
0.0
 30
0.0
  0
VERTEX
  5
318
  8
LAYER_1
 10
20.09907192370423
 20
8.361775914489936
 30
0.0
  0
VERTEX
  5
319
  8
LAYER_1
 10
20.0893285447398
 20
8.35288507604447
 30
0.0
  0
VERTEX
  5
31A
  8
LAYER_1
 10
20.07927607903117
 20
8.344748785134765
 30
0.0
  0
VERTEX
  5
31B
  8
LAYER_1
 10
20.06891450729574
 20
8.337367030628002
 30
0.0
  0
VERTEX
  5
31C
  8
LAYER_1
 10
20.05824381025093
 20
8.330739801391372
 30
0.0
  0
VERTEX
  5
31D
  8
LAYER_1
 10
20.04726396861412
 20
8.32486708629206
 30
0.0
  0
VERTEX
  5
31E
  8
LAYER_1
 10
20.03597496310272
 20
8.319748874197261
 30
0.0
  0
VERTEX
  5
31F
  8
LAYER_1
 10
20.02437677443415
 20
8.315385153974155
 30
0.0
  0
VERTEX
  5
320
  8
LAYER_1
 10
20.01246938332578
 20
8.311775914489935
 30
0.0
  0
VERTEX
  5
321
  8
LAYER_1
 10
20.00580056872017
 20
8.310277688483975
 30
0.0
  0
VERTEX
  5
322
  8
LAYER_1
 10
19.99906756593393
 20
8.309293340120767
 30
0.0
  0
VERTEX
  5
323
  8
LAYER_1
 10
19.99227823856594
 20
8.308755559219897
 30
0.0
  0
VERTEX
  5
324
  8
LAYER_1
 10
19.98544045021507
 20
8.30859703560094
 30
0.0
  0
VERTEX
  5
325
  8
LAYER_1
 10
19.97165094496009
 20
8.309148519487092
 30
0.0
  0
VERTEX
  5
326
  8
LAYER_1
 10
19.95776195895993
 20
8.31040931033586
 30
0.0
  0
VERTEX
  5
327
  8
LAYER_1
 10
19.9438364010055
 20
8.311840926703887
 30
0.0
  0
VERTEX
  5
328
  8
LAYER_1
 10
19.92993717988772
 20
8.312904887147816
 30
0.0
  0
VERTEX
  5
329
  8
LAYER_1
 10
19.92301710463974
 20
8.313130720947193
 30
0.0
  0
VERTEX
  5
32A
  8
LAYER_1
 10
19.91612720439751
 20
8.313062710224287
 30
0.0
  0
VERTEX
  5
32B
  8
LAYER_1
 10
19.9092753427599
 20
8.312633544798674
 30
0.0
  0
VERTEX
  5
32C
  8
LAYER_1
 10
19.90246938332578
 20
8.311775914489935
 30
0.0
  0
VERTEX
  5
32D
  8
LAYER_1
 10
19.89032908486617
 20
8.309617929212914
 30
0.0
  0
VERTEX
  5
32E
  8
LAYER_1
 10
19.87821241472254
 20
8.307038153144006
 30
0.0
  0
VERTEX
  5
32F
  8
LAYER_1
 10
19.86617349877489
 20
8.304002834228207
 30
0.0
  0
VERTEX
  5
330
  8
LAYER_1
 10
19.85426646290323
 20
8.300478220410502
 30
0.0
  0
VERTEX
  5
331
  8
LAYER_1
 10
19.84254543298757
 20
8.296430559635894
 30
0.0
  0
VERTEX
  5
332
  8
LAYER_1
 10
19.83106453490793
 20
8.291826099849372
 30
0.0
  0
VERTEX
  5
333
  8
LAYER_1
 10
19.81987789454431
 20
8.286631088995932
 30
0.0
  0
VERTEX
  5
334
  8
LAYER_1
 10
19.80903963777671
 20
8.280811775020565
 30
0.0
  0
VERTEX
  5
335
  8
LAYER_1
 10
19.79683513023961
 20
8.273504116538529
 30
0.0
  0
VERTEX
  5
336
  8
LAYER_1
 10
19.7908249127147
 20
8.269499669074943
 30
0.0
  0
VERTEX
  5
337
  8
LAYER_1
 10
19.78506761716092
 20
8.265190278357402
 30
0.0
  0
VERTEX
  5
338
  8
LAYER_1
 10
19.77970691693483
 20
8.260522546056723
 30
0.0
  0
VERTEX
  5
339
  8
LAYER_1
 10
19.77488648539298
 20
8.255443073843725
 30
0.0
  0
VERTEX
  5
33A
  8
LAYER_1
 10
19.7707499958919
 20
8.249898463389226
 30
0.0
  0
VERTEX
  5
33B
  8
LAYER_1
 10
19.76744112178812
 20
8.243835316364041
 30
0.0
  0
VERTEX
  5
33C
  8
LAYER_1
 10
19.76626613701974
 20
8.240339492361793
 30
0.0
  0
VERTEX
  5
33D
  8
LAYER_1
 10
19.76571461355704
 20
8.23670799589135
 30
0.0
  0
VERTEX
  5
33E
  8
LAYER_1
 10
19.76590644780494
 20
8.229164087054983
 30
0.0
  0
VERTEX
  5
33F
  8
LAYER_1
 10
19.76686561904442
 20
8.221455792873144
 30
0.0
  0
VERTEX
  5
340
  8
LAYER_1
 10
19.76744112178812
 20
8.213835316364042
 30
0.0
  0
VERTEX
  5
341
  8
LAYER_1
 10
19.76700104930991
 20
8.202647142405354
 30
0.0
  0
VERTEX
  5
342
  8
LAYER_1
 10
19.76603288985786
 20
8.190270159696244
 30
0.0
  0
VERTEX
  5
343
  8
LAYER_1
 10
19.7650647304058
 20
8.178515676987132
 30
0.0
  0
VERTEX
  5
344
  8
LAYER_1
 10
19.7646246579276
 20
8.169195003028447
 30
0.0
  0
SEQEND
  5
345
  8
LAYER_1
  0
POLYLINE
  5
4B
  8
LAYER_1
 66
     1
 10
0.0
 20
0.0
 30
0.0
  0
VERTEX
  5
346
  8
LAYER_1
 10
19.7646246579276
 20
8.169195003028447
 30
0.0
  0
VERTEX
  5
347
  8
LAYER_1
 10
19.76718840419088
 20
8.099612456413912
 30
0.0
  0
VERTEX
  5
348
  8
LAYER_1
 10
19.76895097974688
 20
8.057734359479133
 30
0.0
  0
VERTEX
  5
349
  8
LAYER_1
 10
19.76975215045415
 20
8.03122067908903
 30
0.0
  0
VERTEX
  5
34A
  8
LAYER_1
 10
19.76992647376269
 20
8.025814412813832
 30
0.0
  0
VERTEX
  5
34B
  8
LAYER_1
 10
19.77043179831301
 20
8.020810931159076
 30
0.0
  0
VERTEX
  5
34C
  8
LAYER_1
 10
19.77124165604219
 20
8.016158209881027
 30
0.0
  0
VERTEX
  5
34D
  8
LAYER_1
 10
19.77232957888731
 20
8.011804224735947
 30
0.0
  0
VERTEX
  5
34E
  8
LAYER_1
 10
19.77523374767367
 20
8.003784365869752
 30
0.0
  0
VERTEX
  5
34F
  8
LAYER_1
 10
19.77893256016871
 20
7.996335160610597
 30
0.0
  0
VERTEX
  5
350
  8
LAYER_1
 10
19.78786713827128
 20
7.981483935113845
 30
0.0
  0
VERTEX
  5
351
  8
LAYER_1
 10
19.79267941487203
 20
7.973249526976463
 30
0.0
  0
VERTEX
  5
352
  8
LAYER_1
 10
19.79743935716792
 20
7.963920996646555
 30
0.0
  0
VERTEX
  5
353
  8
LAYER_1
 10
19.80043949574638
 20
7.958241555673369
 30
0.0
  0
VERTEX
  5
354
  8
LAYER_1
 10
19.80404027691397
 20
7.952532660527854
 30
0.0
  0
VERTEX
  5
355
  8
LAYER_1
 10
19.81227407212619
 20
7.94108092684471
 30
0.0
  0
VERTEX
  5
356
  8
LAYER_1
 10
19.82060135302388
 20
7.929674633846857
 30
0.0
  0
VERTEX
  5
357
  8
LAYER_1
 10
19.82431899129831
 20
7.924022539557959
 30
0.0
  0
VERTEX
  5
358
  8
LAYER_1
 10
19.82748272982634
 20
7.918422619784036
 30
0.0
  0
VERTEX
  5
359
  8
LAYER_1
 10
19.83557946749175
 20
7.903708197943823
 30
0.0
  0
VERTEX
  5
35A
  8
LAYER_1
 10
19.84491743556759
 20
7.888777650504201
 30
0.0
  0
VERTEX
  5
35B
  8
LAYER_1
 10
19.85520242405153
 20
7.873777682075947
 30
0.0
  0
VERTEX
  5
35C
  8
LAYER_1
 10
19.86614022294126
 20
7.858854997269838
 30
0.0
  0
VERTEX
  5
35D
  8
LAYER_1
 10
19.88879741192886
 20
7.829828296967165
 30
0.0
  0
VERTEX
  5
35E
  8
LAYER_1
 10
19.91053532251189
 20
7.802871186482399
 30
0.0
  0
SEQEND
  5
35F
  8
LAYER_1
  0
POLYLINE
  5
4C
  8
LAYER_1
 66
     1
 10
0.0
 20
0.0
 30
0.0
  0
VERTEX
  5
360
  8
LAYER_1
 10
10.98195685339295
 20
11.06301566251045
 30
0.0
  0
VERTEX
  5
361
  8
LAYER_1
 10
11.30629718344568
 20
9.923204289111574
 30
0.0
  0
VERTEX
  5
362
  8
LAYER_1
 10
13.59475721016168
 20
9.891608194068157
 30
0.0
  0
VERTEX
  5
363
  8
LAYER_1
 10
13.14789815169051
 20
10.62283210793007
 30
0.0
  0
SEQEND
  5
364
  8
LAYER_1
  0
POLYLINE
  5
4D
  8
LAYER_1
 66
     1
 10
0.0
 20
0.0
 30
0.0
  0
VERTEX
  5
365
  8
LAYER_1
 10
11.1483167082286
 20
10.98393033699769
 30
0.0
  0
VERTEX
  5
366
  8
LAYER_1
 10
11.45976393079942
 20
9.914176833384882
 30
0.0
  0
SEQEND
  5
367
  8
LAYER_1
  0
POLYLINE
  5
4E
  8
LAYER_1
 66
     1
 10
0.0
 20
0.0
 30
0.0
  0
VERTEX
  5
368
  8
LAYER_1
 10
11.1483167082286
 20
10.98393033699769
 30
0.0
  0
VERTEX
  5
369
  8
LAYER_1
 10
12.317372224835
 20
10.96587542554431
 30
0.0
  0
SEQEND
  5
36A
  8
LAYER_1
  0
POLYLINE
  5
4F
  8
LAYER_1
 66
     1
 10
0.0
 20
0.0
 30
0.0
  0
VERTEX
  5
36B
  8
LAYER_1
 10
12.317372224835
 20
10.96587542554431
 30
0.0
  0
VERTEX
  5
36C
  8
LAYER_1
 10
12.35408992743929
 20
10.96395824385927
 30
0.0
  0
VERTEX
  5
36D
  8
LAYER_1
 10
12.39074343922719
 20
10.96158937251948
 30
0.0
  0
VERTEX
  5
36E
  8
LAYER_1
 10
12.42733282520274
 20
10.95876880529388
 30
0.0
  0
VERTEX
  5
36F
  8
LAYER_1
 10
12.46385815036997
 20
10.9554965359514
 30
0.0
  0
VERTEX
  5
370
  8
LAYER_1
 10
12.50031947973289
 20
10.95177255826099
 30
0.0
  0
VERTEX
  5
371
  8
LAYER_1
 10
12.53671687829555
 20
10.94759686599159
 30
0.0
  0
VERTEX
  5
372
  8
LAYER_1
 10
12.57305041106196
 20
10.94296945291213
 30
0.0
  0
VERTEX
  5
373
  8
LAYER_1
 10
12.60932014303616
 20
10.93789031279157
 30
0.0
  0
VERTEX
  5
374
  8
LAYER_1
 10
12.67223837646297
 20
10.92923437467251
 30
0.0
  0
VERTEX
  5
375
  8
LAYER_1
 10
12.70377998520997
 20
10.92480383213424
 30
0.0
  0
VERTEX
  5
376
  8
LAYER_1
 10
12.73522468115783
 20
10.91987675957624
 30
0.0
  0
VERTEX
  5
377
  8
LAYER_1
 10
12.76645853369039
 20
10.91413204622308
 30
0.0
  0
VERTEX
  5
378
  8
LAYER_1
 10
12.78196079035838
 20
10.91085272713099
 30
0.0
  0
VERTEX
  5
379
  8
LAYER_1
 10
12.79736761219149
 20
10.90724858129933
 30
0.0
  0
VERTEX
  5
37A
  8
LAYER_1
 10
12.81266475786269
 20
10.90327946988117
 30
0.0
  0
VERTEX
  5
37B
  8
LAYER_1
 10
12.82783798604497
 20
10.89890525402957
 30
0.0
  0
VERTEX
  5
37C
  8
LAYER_1
 10
12.84287305541131
 20
10.89408579489762
 30
0.0
  0
VERTEX
  5
37D
  8
LAYER_1
 10
12.85775572463468
 20
10.88878095363837
 30
0.0
  0
VERTEX
  5
37E
  8
LAYER_1
 10
12.87402244359231
 20
10.88228508772737
 30
0.0
  0
VERTEX
  5
37F
  8
LAYER_1
 10
12.89006140420251
 20
10.87510711219876
 30
0.0
  0
VERTEX
  5
380
  8
LAYER_1
 10
12.90582773215452
 20
10.86726606270579
 30
0.0
  0
VERTEX
  5
381
  8
LAYER_1
 10
12.92127655313755
 20
10.85878097490167
 30
0.0
  0
VERTEX
  5
382
  8
LAYER_1
 10
12.93636299284085
 20
10.84967088443964
 30
0.0
  0
VERTEX
  5
383
  8
LAYER_1
 10
12.95104217695362
 20
10.83995482697293
 30
0.0
  0
VERTEX
  5
384
  8
LAYER_1
 10
12.9652692311651
 20
10.82965183815476
 30
0.0
  0
VERTEX
  5
385
  8
LAYER_1
 10
12.9789992811645
 20
10.81878095363837
 30
0.0
  0
VERTEX
  5
386
  8
LAYER_1
 10
12.99121159200013
 20
10.80824648340433
 30
0.0
  0
VERTEX
  5
387
  8
LAYER_1
 10
13.00299452584807
 20
10.79727346945932
 30
0.0
  0
VERTEX
  5
388
  8
LAYER_1
 10
13.01439277402204
 20
10.78590696166647
 30
0.0
  0
VERTEX
  5
389
  8
LAYER_1
 10
13.02545102783576
 20
10.77419200988891
 30
0.0
  0
VERTEX
  5
38A
  8
LAYER_1
 10
13.03621397860292
 20
10.76217366398976
 30
0.0
  0
VERTEX
  5
38B
  8
LAYER_1
 10
13.04672631763724
 20
10.74989697383217
 30
0.0
  0
VERTEX
  5
38C
  8
LAYER_1
 10
13.0671779257622
 20
10.72474876019416
 30
0.0
  0
VERTEX
  5
38D
  8
LAYER_1
 10
13.08716338272032
 20
10.6991077678799
 30
0.0
  0
VERTEX
  5
38E
  8
LAYER_1
 10
13.10704021902129
 20
10.67333439579444
 30
0.0
  0
VERTEX
  5
38F
  8
LAYER_1
 10
13.12716596517479
 20
10.64778904284282
 30
0.0
  0
VERTEX
  5
390
  8
LAYER_1
 10
13.14789815169051
 20
10.62283210793007
 30
0.0
  0
SEQEND
  5
391
  8
LAYER_1
  0
POLYLINE
  5
50
  8
LAYER_1
 66
     1
 10
0.0
 20
0.0
 30
0.0
  0
VERTEX
  5
392
  8
LAYER_1
 10
10.78878276797362
 20
10.04605385615225
 30
0.0
  0
VERTEX
  5
393
  8
LAYER_1
 10
10.99996881037989
 20
10.03109741153492
 30
0.0
  0
SEQEND
  5
394
  8
LAYER_1
  0
POLYLINE
  5
51
  8
LAYER_1
 66
     1
 10
0.0
 20
0.0
 30
0.0
  0
VERTEX
  5
395
  8
LAYER_1
 10
7.088831967077644
 20
10.07705084087857
 30
0.0
  0
VERTEX
  5
396
  8
LAYER_1
 10
7.125642750013748
 20
10.08694193421577
 30
0.0
  0
VERTEX
  5
397
  8
LAYER_1
 10
7.162562311480352
 20
10.09597480553033
 30
0.0
  0
VERTEX
  5
398
  8
LAYER_1
 10
7.199590717725655
 20
10.10414946709043
 30
0.0
  0
VERTEX
  5
399
  8
LAYER_1
 10
7.236728034997856
 20
10.11146593116424
 30
0.0
  0
VERTEX
  5
39A
  8
LAYER_1
 10
7.273974329545156
 20
10.11792421001996
 30
0.0
  0
VERTEX
  5
39B
  8
LAYER_1
 10
7.311329667615753
 20
10.12352431592578
 30
0.0
  0
VERTEX
  5
39C
  8
LAYER_1
 10
7.348794115457846
 20
10.12826626114987
 30
0.0
  0
VERTEX
  5
39D
  8
LAYER_1
 10
7.386367739319635
 20
10.13215005796042
 30
0.0
  0
VERTEX
  5
39E
  8
LAYER_1
 10
7.405033406925408
 20
10.13365523093158
 30
0.0
  0
VERTEX
  5
39F
  8
LAYER_1
 10
7.423723001048359
 20
10.13477240375906
 30
0.0
  0
VERTEX
  5
3A0
  8
LAYER_1
 10
7.461163098390413
 20
10.13600330076659
 30
0.0
  0
VERTEX
  5
3A1
  8
LAYER_1
 10
7.498666290435028
 20
10.13616385255018
 30
0.0
  0
VERTEX
  5
3A2
  8
LAYER_1
 10
7.536210836271437
 20
10.13557516267701
 30
0.0
  0
VERTEX
  5
3A3
  8
LAYER_1
 10
7.61133702567656
 20
10.13343447222914
 30
0.0
  0
VERTEX
  5
3A4
  8
LAYER_1
 10
7.648875187423738
 20
10.1325246787888
 30
0.0
  0
VERTEX
  5
3A5
  8
LAYER_1
 10
7.686367739319635
 20
10.13215005796042
 30
0.0
  0
VERTEX
  5
3A6
  8
LAYER_1
 10
7.730089901839406
 20
10.13235296676359
 30
0.0
  0
VERTEX
  5
3A7
  8
LAYER_1
 10
7.773840375226784
 20
10.13290758415893
 30
0.0
  0
VERTEX
  5
3A8
  8
LAYER_1
 10
7.861405169572716
 20
10.13474729064104
 30
0.0
  0
VERTEX
  5
3A9
  8
LAYER_1
 10
7.949019952294162
 20
10.13701986923658
 30
0.0
  0
VERTEX
  5
3AA
  8
LAYER_1
 10
8.036642553327852
 20
10.13907601177541
 30
0.0
  0
VERTEX
  5
3AB
  8
LAYER_1
 10
8.080443607567016
 20
10.13982001072038
 30
0.0
  0
VERTEX
  5
3AC
  8
LAYER_1
 10
8.124230802610516
 20
10.14026641008736
 30
0.0
  0
VERTEX
  5
3AD
  8
LAYER_1
 10
8.167998867200438
 20
10.14033404635508
 30
0.0
  0
VERTEX
  5
3AE
  8
LAYER_1
 10
8.21174253007888
 20
10.13994175600228
 30
0.0
  0
VERTEX
  5
3AF
  8
LAYER_1
 10
8.255456519987927
 20
10.13900837550768
 30
0.0
  0
VERTEX
  5
3B0
  8
LAYER_1
 10
8.299135565669676
 20
10.13745274135002
 30
0.0
  0
VERTEX
  5
3B1
  8
LAYER_1
 10
8.342774395866215
 20
10.13519369000802
 30
0.0
  0
VERTEX
  5
3B2
  8
LAYER_1
 10
8.386367739319635
 20
10.13215005796042
 30
0.0
  0
VERTEX
  5
3B3
  8
LAYER_1
 10
8.4297510233802
 20
10.12813436510087
 30
0.0
  0
VERTEX
  5
3B4
  8
LAYER_1
 10
8.47305635427683
 20
10.12306667168731
 30
0.0
  0
VERTEX
  5
3B5
  8
LAYER_1
 10
8.516275469739929
 20
10.11706273381451
 30
0.0
  0
VERTEX
  5
3B6
  8
LAYER_1
 10
8.559400107499908
 20
10.11023830757723
 30
0.0
  0
VERTEX
  5
3B7
  8
LAYER_1
 10
8.602422005287174
 20
10.10270914907023
 30
0.0
  0
VERTEX
  5
3B8
  8
LAYER_1
 10
8.645332900832136
 20
10.09459101438827
 30
0.0
  0
VERTEX
  5
3B9
  8
LAYER_1
 10
8.688124531865201
 20
10.08599965962613
 30
0.0
  0
VERTEX
  5
3BA
  8
LAYER_1
 10
8.730788636116781
 20
10.07705084087857
 30
0.0
  0
VERTEX
  5
3BB
  8
LAYER_1
 10
8.76254263772251
 20
10.07009465898792
 30
0.0
  0
VERTEX
  5
3BC
  8
LAYER_1
 10
8.79421707178674
 20
10.06281385844525
 30
0.0
  0
VERTEX
  5
3BD
  8
LAYER_1
 10
8.857349236321857
 20
10.04739483033063
 30
0.0
  0
VERTEX
  5
3BE
  8
LAYER_1
 10
8.920229127784467
 20
10.03102661438821
 30
0.0
  0
VERTEX
  5
3BF
  8
LAYER_1
 10
8.982900744236895
 20
10.01394206847146
 30
0.0
  0
VERTEX
  5
3C0
  8
LAYER_1
 10
9.10779514436053
 20
9.978555418128973
 30
0.0
  0
VERTEX
  5
3C1
  8
LAYER_1
 10
9.232384421191396
 20
9.943097742131078
 30
0.0
  0
VERTEX
  5
3C2
  8
LAYER_1
 10
9.250831666882311
 20
9.940608603905524
 30
0.0
  0
VERTEX
  5
3C3
  8
LAYER_1
 10
9.268883927897672
 20
9.938868833780317
 30
0.0
  0
VERTEX
  5
3C4
  8
LAYER_1
 10
9.286578315343432
 20
9.937788435435799
 30
0.0
  0
VERTEX
  5
3C5
  8
LAYER_1
 10
9.303951940325534
 20
9.937277412552307
 30
0.0
  0
VERTEX
  5
3C6
  8
LAYER_1
 10
9.321041913949928
 20
9.937245768810179
 30
0.0
  0
VERTEX
  5
3C7
  8
LAYER_1
 10
9.337885347322564
 20
9.937603507889747
 30
0.0
  0
VERTEX
  5
3C8
  8
LAYER_1
 10
9.370981037736343
 20
9.939127149235333
 30
0.0
  0
VERTEX
  5
3C9
  8
LAYER_1
 10
9.403535900414457
 20
9.941128366031764
 30
0.0
  0
VERTEX
  5
3CA
  8
LAYER_1
 10
9.435846824204488
 20
9.942887187721741
 30
0.0
  0
VERTEX
  5
3CB
  8
LAYER_1
 10
9.452003586781341
 20
9.943450709602654
 30
0.0
  0
VERTEX
  5
3CC
  8
LAYER_1
 10
9.468210697954017
 20
9.943683643747965
 30
0.0
  0
VERTEX
  5
3CD
  8
LAYER_1
 10
9.484505268828466
 20
9.943495993838011
 30
0.0
  0
VERTEX
  5
3CE
  8
LAYER_1
 10
9.50092441051063
 20
9.94279776355313
 30
0.0
  0
VERTEX
  5
3CF
  8
LAYER_1
 10
9.529718046166387
 20
9.941283084996757
 30
0.0
  0
VERTEX
  5
3D0
  8
LAYER_1
 10
9.558320898680424
 20
9.940149155685749
 30
0.0
  0
VERTEX
  5
3D1
  8
LAYER_1
 10
9.615063273221455
 20
9.938805973802475
 30
0.0
  0
VERTEX
  5
3D2
  8
LAYER_1
 10
9.727457832922244
 20
9.938295320009445
 30
0.0
  0
VERTEX
  5
3D3
  8
LAYER_1
 10
9.78354609383451
 20
9.93825756411028
 30
0.0
  0
VERTEX
  5
3D4
  8
LAYER_1
 10
9.83985239262303
 20
9.937784666216412
 30
0.0
  0
VERTEX
  5
3D5
  8
LAYER_1
 10
9.89659476716406
 20
9.93644148433314
 30
0.0
  0
VERTEX
  5
3D6
  8
LAYER_1
 10
9.925197619678098
 20
9.935307555022131
 30
0.0
  0
VERTEX
  5
3D7
  8
LAYER_1
 10
9.953991255333857
 20
9.933792876465757
 30
0.0
  0
VERTEX
  5
3D8
  8
LAYER_1
 10
9.991402166168417
 20
9.931848437101733
 30
0.0
  0
VERTEX
  5
3D9
  8
LAYER_1
 10
10.02884052542358
 20
9.930435986640314
 30
0.0
  0
VERTEX
  5
3DA
  8
LAYER_1
 10
10.06630299669966
 20
9.929497082869911
 30
0.0
  0
VERTEX
  5
3DB
  8
LAYER_1
 10
10.10378624359696
 20
9.92897328357894
 30
0.0
  0
VERTEX
  5
3DC
  8
LAYER_1
 10
10.17880171865651
 20
9.92893722958895
 30
0.0
  0
VERTEX
  5
3DD
  8
LAYER_1
 10
10.2538602594047
 20
9.929860286977657
 30
0.0
  0
VERTEX
  5
3DE
  8
LAYER_1
 10
10.32893517464404
 20
9.931274918052377
 30
0.0
  0
VERTEX
  5
3DF
  8
LAYER_1
 10
10.40399977317702
 20
9.932713585120423
 30
0.0
  0
VERTEX
  5
3E0
  8
LAYER_1
 10
10.47902736380613
 20
9.933708750489112
 30
0.0
  0
VERTEX
  5
3E1
  8
LAYER_1
 10
10.51651894015751
 20
9.933893914507234
 30
0.0
  0
VERTEX
  5
3E2
  8
LAYER_1
 10
10.55399125533386
 20
9.933792876465757
 30
0.0
  0
VERTEX
  5
3E3
  8
LAYER_1
 10
10.74189926652575
 20
9.931891958450112
 30
0.0
  0
VERTEX
  5
3E4
  8
LAYER_1
 10
10.92986908321414
 20
9.92916366206247
 30
0.0
  0
VERTEX
  5
3E5
  8
LAYER_1
 10
11.11797646799034
 20
9.926102826037926
 30
0.0
  0
VERTEX
  5
3E6
  8
LAYER_1
 10
11.30629718344568
 20
9.923204289111574
 30
0.0
  0
SEQEND
  5
3E7
  8
LAYER_1
  0
POLYLINE
  5
52
  8
LAYER_1
 66
     1
 10
0.0
 20
0.0
 30
0.0
  0
VERTEX
  5
3E8
  8
LAYER_1
 10
9.437867895800723
 20
10.07386673765125
 30
0.0
  0
VERTEX
  5
3E9
  8
LAYER_1
 10
9.414740635003236
 20
10.05390267719907
 30
0.0
  0
VERTEX
  5
3EA
  8
LAYER_1
 10
9.391900624201837
 20
10.03365044690353
 30
0.0
  0
VERTEX
  5
3EB
  8
LAYER_1
 10
9.369347701683624
 20
10.01310990143985
 30
0.0
  0
VERTEX
  5
3EC
  8
LAYER_1
 10
9.347081705735699
 20
9.992280895483237
 30
0.0
  0
VERTEX
  5
3ED
  8
LAYER_1
 10
9.318715402745266
 20
9.965138519168496
 30
0.0
  0
VERTEX
  5
3EE
  8
LAYER_1
 10
9.290637141596516
 20
9.937625067531561
 30
0.0
  0
SEQEND
  5
3EF
  8
LAYER_1
  0
POLYLINE
  5
53
  8
LAYER_1
 66
     1
 10
0.0
 20
0.0
 30
0.0
  0
VERTEX
  5
3F0
  8
LAYER_1
 10
7.088831967077644
 20
10.07705084087857
 30
0.0
  0
VERTEX
  5
3F1
  8
LAYER_1
 10
7.032337784868075
 20
9.907082439474243
 30
0.0
  0
VERTEX
  5
3F2
  8
LAYER_1
 10
3.7753671705141
 20
9.822687012749348
 30
0.0
  0
SEQEND
  5
3F3
  8
LAYER_1
  0
POLYLINE
  5
54
  8
LAYER_1
 66
     1
 10
0.0
 20
0.0
 30
0.0
  0
VERTEX
  5
3F4
  8
LAYER_1
 10
3.7753671705141
 20
9.822687012749348
 30
0.0
  0
VERTEX
  5
3F5
  8
LAYER_1
 10
3.754362528242535
 20
9.821099272013413
 30
0.0
  0
VERTEX
  5
3F6
  8
LAYER_1
 10
3.733418898126195
 20
9.819176790234724
 30
0.0
  0
VERTEX
  5
3F7
  8
LAYER_1
 10
3.712536243130472
 20
9.816919562498153
 30
0.0
  0
VERTEX
  5
3F8
  8
LAYER_1
 10
3.691714526220758
 20
9.814327583888575
 30
0.0
  0
VERTEX
  5
3F9
  8
LAYER_1
 10
3.670953710362445
 20
9.811400849490864
 30
0.0
  0
VERTEX
  5
3FA
  8
LAYER_1
 10
3.650253758520925
 20
9.808139354389894
 30
0.0
  0
VERTEX
  5
3FB
  8
LAYER_1
 10
3.62961463366159
 20
9.804543093670539
 30
0.0
  0
VERTEX
  5
3FC
  8
LAYER_1
 10
3.60903629874983
 20
9.800612062417677
 30
0.0
  0
VERTEX
  5
3FD
  8
LAYER_1
 10
3.584352019327612
 20
9.795920415397589
 30
0.0
  0
VERTEX
  5
3FE
  8
LAYER_1
 10
3.571970273677691
 20
9.793498552248895
 30
0.0
  0
VERTEX
  5
3FF
  8
LAYER_1
 10
3.559654731737927
 20
9.790829373267385
 30
0.0
  0
VERTEX
  5
400
  8
LAYER_1
 10
3.547474849260344
 20
9.787765411397771
 30
0.0
  0
VERTEX
  5
401
  8
LAYER_1
 10
3.535500081996966
 20
9.784159199584765
 30
0.0
  0
VERTEX
  5
402
  8
LAYER_1
 10
3.523799885699818
 20
9.77986327077308
 30
0.0
  0
VERTEX
  5
403
  8
LAYER_1
 10
3.512443716120923
 20
9.774730157907426
 30
0.0
  0
VERTEX
  5
404
  8
LAYER_1
 10
3.495413565996454
 20
9.765929613732625
 30
0.0
  0
VERTEX
  5
405
  8
LAYER_1
 10
3.486960350223897
 20
9.7610691023166
 30
0.0
  0
VERTEX
  5
406
  8
LAYER_1
 10
3.478830080510887
 20
9.755776040169959
 30
0.0
  0
VERTEX
  5
407
  8
LAYER_1
 10
3.471234036757246
 20
9.749956133909045
 30
0.0
  0
VERTEX
  5
408
  8
LAYER_1
 10
3.464383498862796
 20
9.743515090150208
 30
0.0
  0
VERTEX
  5
409
  8
LAYER_1
 10
3.461303819581462
 20
9.740032175026677
 30
0.0
  0
VERTEX
  5
40A
  8
LAYER_1
 10
3.458489746727359
 20
9.736358615509795
 30
0.0
  0
VERTEX
  5
40B
  8
LAYER_1
 10
3.455967690287965
 20
9.732482624926606
 30
0.0
  0
VERTEX
  5
40C
  8
LAYER_1
 10
3.453764060250757
 20
9.728392416604153
 30
0.0
  0
VERTEX
  5
40D
  8
LAYER_1
 10
3.451299893653194
 20
9.72268968484974
 30
0.0
  0
VERTEX
  5
40E
  8
LAYER_1
 10
3.449328908089125
 20
9.716831170466822
 30
0.0
  0
VERTEX
  5
40F
  8
LAYER_1
 10
3.447815826668446
 20
9.710834619211639
 30
0.0
  0
VERTEX
  5
410
  8
LAYER_1
 10
3.446725372501052
 20
9.704717776840418
 30
0.0
  0
VERTEX
  5
411
  8
LAYER_1
 10
3.44602226869684
 20
9.698498389109398
 30
0.0
  0
VERTEX
  5
412
  8
LAYER_1
 10
3.445671238365706
 20
9.692194201774809
 30
0.0
  0
VERTEX
  5
413
  8
LAYER_1
 10
3.445884290562254
 20
9.679402411319867
 30
0.0
  0
VERTEX
  5
414
  8
LAYER_1
 10
3.447082313969865
 20
9.66648437152546
 30
0.0
  0
VERTEX
  5
415
  8
LAYER_1
 10
3.448983093467707
 20
9.653582048441457
 30
0.0
  0
VERTEX
  5
416
  8
LAYER_1
 10
3.453764060250757
 20
9.628392416604154
 30
0.0
  0
VERTEX
  5
417
  8
LAYER_1
 10
3.457805591149572
 20
9.6099874142895
 30
0.0
  0
VERTEX
  5
418
  8
LAYER_1
 10
3.462536383367476
 20
9.591767789486116
 30
0.0
  0
VERTEX
  5
419
  8
LAYER_1
 10
3.467899607584167
 20
9.573721187899647
 30
0.0
  0
VERTEX
  5
41A
  8
LAYER_1
 10
3.473838434479339
 20
9.555835255235738
 30
0.0
  0
VERTEX
  5
41B
  8
LAYER_1
 10
3.48029603473269
 20
9.538097637200032
 30
0.0
  0
VERTEX
  5
41C
  8
LAYER_1
 10
3.487215579023915
 20
9.520495979498175
 30
0.0
  0
VERTEX
  5
41D
  8
LAYER_1
 10
3.494540238032709
 20
9.503017927835813
 30
0.0
  0
VERTEX
  5
41E
  8
LAYER_1
 10
3.502213182438771
 20
9.48565112791859
 30
0.0
  0
VERTEX
  5
41F
  8
LAYER_1
 10
3.518376610161478
 20
9.451201866142135
 30
0.0
  0
VERTEX
  5
420
  8
LAYER_1
 10
3.535251227629604
 20
9.417049359813975
 30
0.0
  0
VERTEX
  5
421
  8
LAYER_1
 10
3.552382400280719
 20
9.383094774579263
 30
0.0
  0
VERTEX
  5
422
  8
LAYER_1
 10
3.569315493552393
 20
9.349239276083159
 30
0.0
  0
SEQEND
  5
423
  8
LAYER_1
  0
POLYLINE
  5
55
  8
LAYER_1
 66
     1
 10
0.0
 20
0.0
 30
0.0
  0
VERTEX
  5
424
  8
LAYER_1
 10
4.433473140216804
 20
8.319271985991115
 30
0.0
  0
VERTEX
  5
425
  8
LAYER_1
 10
4.44343852081064
 20
8.342644828341452
 30
0.0
  0
VERTEX
  5
426
  8
LAYER_1
 10
4.453741824682066
 20
8.365787998064967
 30
0.0
  0
VERTEX
  5
427
  8
LAYER_1
 10
4.464383057397493
 20
8.388701504802958
 30
0.0
  0
VERTEX
  5
428
  8
LAYER_1
 10
4.475362224523325
 20
8.411385358196721
 30
0.0
  0
VERTEX
  5
429
  8
LAYER_1
 10
4.486679331625969
 20
8.433839567887556
 30
0.0
  0
VERTEX
  5
42A
  8
LAYER_1
 10
4.49833438427183
 20
8.456064143516764
 30
0.0
  0
VERTEX
  5
42B
  8
LAYER_1
 10
4.510327388027316
 20
8.47805909472564
 30
0.0
  0
VERTEX
  5
42C
  8
LAYER_1
 10
4.522658348458832
 20
8.499824431155485
 30
0.0
  0
VERTEX
  5
42D
  8
LAYER_1
 10
4.535327271132785
 20
8.521360162447596
 30
0.0
  0
VERTEX
  5
42E
  8
LAYER_1
 10
4.548334161615581
 20
8.542666298243272
 30
0.0
  0
VERTEX
  5
42F
  8
LAYER_1
 10
4.561679025473626
 20
8.56374284818381
 30
0.0
  0
VERTEX
  5
430
  8
LAYER_1
 10
4.575361868273326
 20
8.584589821910509
 30
0.0
  0
VERTEX
  5
431
  8
LAYER_1
 10
4.589382695581087
 20
8.605207229064668
 30
0.0
  0
VERTEX
  5
432
  8
LAYER_1
 10
4.603741512963317
 20
8.625595079287587
 30
0.0
  0
VERTEX
  5
433
  8
LAYER_1
 10
4.618438325986419
 20
8.645753382220562
 30
0.0
  0
VERTEX
  5
434
  8
LAYER_1
 10
4.633473140216804
 20
8.66568214750489
 30
0.0
  0
VERTEX
  5
435
  8
LAYER_1
 10
4.65653315330449
 20
8.69544775510721
 30
0.0
  0
VERTEX
  5
436
  8
LAYER_1
 10
4.680221490701403
 20
8.725048196039312
 30
0.0
  0
VERTEX
  5
437
  8
LAYER_1
 10
4.692357412985664
 20
8.739667237041441
 30
0.0
  0
VERTEX
  5
438
  8
LAYER_1
 10
4.704717774711044
 20
8.754101896020906
 30
0.0
  0
VERTEX
  5
439
  8
LAYER_1
 10
4.717325028665483
 20
8.76830447619267
 30
0.0
  0
VERTEX
  5
43A
  8
LAYER_1
 10
4.730201627636918
 20
8.782227280771693
 30
0.0
  0
VERTEX
  5
43B
  8
LAYER_1
 10
4.743370024413286
 20
8.795822612972941
 30
0.0
  0
VERTEX
  5
43C
  8
LAYER_1
 10
4.756852671782525
 20
8.809042776011376
 30
0.0
  0
VERTEX
  5
43D
  8
LAYER_1
 10
4.770672022532573
 20
8.821840073101963
 30
0.0
  0
VERTEX
  5
43E
  8
LAYER_1
 10
4.784850529451369
 20
8.834166807459663
 30
0.0
  0
VERTEX
  5
43F
  8
LAYER_1
 10
4.799410645326848
 20
8.845975282299438
 30
0.0
  0
VERTEX
  5
440
  8
LAYER_1
 10
4.814374822946949
 20
8.857217800836253
 30
0.0
  0
VERTEX
  5
441
  8
LAYER_1
 10
4.829765515099609
 20
8.86784666628507
 30
0.0
  0
VERTEX
  5
442
  8
LAYER_1
 10
4.845605174572769
 20
8.877814181860854
 30
0.0
  0
VERTEX
  5
443
  8
LAYER_1
 10
4.868508831459263
 20
8.890867796441
 30
0.0
  0
VERTEX
  5
444
  8
LAYER_1
 10
4.891928166791503
 20
8.902966110403444
 30
0.0
  0
VERTEX
  5
445
  8
LAYER_1
 10
4.915820421465481
 20
8.9141590595678
 30
0.0
  0
VERTEX
  5
446
  8
LAYER_1
 10
4.940142836377183
 20
8.924496579753672
 30
0.0
  0
VERTEX
  5
447
  8
LAYER_1
 10
4.964852652422598
 20
8.934028606780672
 30
0.0
  0
VERTEX
  5
448
  8
LAYER_1
 10
4.989907110497716
 20
8.942805076468403
 30
0.0
  0
VERTEX
  5
449
  8
LAYER_1
 10
5.015263451498524
 20
8.95087592463648
 30
0.0
  0
VERTEX
  5
44A
  8
LAYER_1
 10
5.040878916321011
 20
8.958291087104508
 30
0.0
  0
VERTEX
  5
44B
  8
LAYER_1
 10
5.066710745861167
 20
8.965100499692097
 30
0.0
  0
VERTEX
  5
44C
  8
LAYER_1
 10
5.092716181014978
 20
8.971354098218853
 30
0.0
  0
VERTEX
  5
44D
  8
LAYER_1
 10
5.118852462678435
 20
8.977101818504387
 30
0.0
  0
VERTEX
  5
44E
  8
LAYER_1
 10
5.145076831747526
 20
8.982393596368304
 30
0.0
  0
VERTEX
  5
44F
  8
LAYER_1
 10
5.171346529118239
 20
8.987279367630215
 30
0.0
  0
VERTEX
  5
450
  8
LAYER_1
 10
5.197618795686562
 20
8.99180906810973
 30
0.0
  0
VERTEX
  5
451
  8
LAYER_1
 10
5.25
 20
9.0
 30
0.0
  0
VERTEX
  5
452
  8
LAYER_1
 10
5.274727405628707
 20
9.003480038074475
 30
0.0
  0
VERTEX
  5
453
  8
LAYER_1
 10
5.299494739477391
 20
9.006625501140528
 30
0.0
  0
VERTEX
  5
454
  8
LAYER_1
 10
5.324299767397416
 20
9.009447394840453
 30
0.0
  0
VERTEX
  5
455
  8
LAYER_1
 10
5.349140255240147
 20
9.011956724816553
 30
0.0
  0
VERTEX
  5
456
  8
LAYER_1
 10
5.398918674099193
 20
9.016081716166457
 30
0.0
  0
VERTEX
  5
457
  8
LAYER_1
 10
5.448812122865457
 20
9.019088520328616
 30
0.0
  0
VERTEX
  5
458
  8
LAYER_1
 10
5.49880272834986
 20
9.021065182441408
 30
0.0
  0
VERTEX
  5
459
  8
LAYER_1
 10
5.548872617363328
 20
9.02209974764321
 30
0.0
  0
VERTEX
  5
45A
  8
LAYER_1
 10
5.599003916716785
 20
9.022280261072403
 30
0.0
  0
VERTEX
  5
45B
  8
LAYER_1
 10
5.649178753221156
 20
9.021694767867363
 30
0.0
  0
VERTEX
  5
45C
  8
LAYER_1
 10
5.699379253687367
 20
9.020431313166466
 30
0.0
  0
VERTEX
  5
45D
  8
LAYER_1
 10
5.74958754492634
 20
9.018577942108093
 30
0.0
  0
VERTEX
  5
45E
  8
LAYER_1
 10
5.799785753749003
 20
9.016222699830621
 30
0.0
  0
VERTEX
  5
45F
  8
LAYER_1
 10
5.849956006966277
 20
9.013453631472428
 30
0.0
  0
VERTEX
  5
460
  8
LAYER_1
 10
5.950141153828364
 20
9.00702619706739
 30
0.0
  0
VERTEX
  5
461
  8
LAYER_1
 10
6.05
 20
9.0
 30
0.0
  0
VERTEX
  5
462
  8
LAYER_1
 10
6.106009114137558
 20
8.996232417037442
 30
0.0
  0
VERTEX
  5
463
  8
LAYER_1
 10
6.162269439825069
 20
8.992473598040707
 30
0.0
  0
VERTEX
  5
464
  8
LAYER_1
 10
6.218575164975673
 20
8.988124345523955
 30
0.0
  0
VERTEX
  5
465
  8
LAYER_1
 10
6.246680736072491
 20
8.98554105748125
 30
0.0
  0
VERTEX
  5
466
  8
LAYER_1
 10
6.274720477502512
 20
8.982585462001346
 30
0.0
  0
VERTEX
  5
467
  8
LAYER_1
 10
6.302668662754877
 20
8.97918265939852
 30
0.0
  0
VERTEX
  5
468
  8
LAYER_1
 10
6.330499565318729
 20
8.975257749987037
 30
0.0
  0
VERTEX
  5
469
  8
LAYER_1
 10
6.358187458683211
 20
8.970735834081172
 30
0.0
  0
VERTEX
  5
46A
  8
LAYER_1
 10
6.385706616337467
 20
8.965542011995188
 30
0.0
  0
VERTEX
  5
46B
  8
LAYER_1
 10
6.413031311770639
 20
8.959601384043358
 30
0.0
  0
VERTEX
  5
46C
  8
LAYER_1
 10
6.440135818471868
 20
8.952839050539955
 30
0.0
  0
VERTEX
  5
46D
  8
LAYER_1
 10
6.466994409930299
 20
8.945180111799246
 30
0.0
  0
VERTEX
  5
46E
  8
LAYER_1
 10
6.493581359635075
 20
8.936549668135502
 30
0.0
  0
VERTEX
  5
46F
  8
LAYER_1
 10
6.517061202710615
 20
8.92781635290461
 30
0.0
  0
VERTEX
  5
470
  8
LAYER_1
 10
6.540257466724652
 20
8.918008400597401
 30
0.0
  0
VERTEX
  5
471
  8
LAYER_1
 10
6.563118287147738
 20
8.90723381065986
 30
0.0
  0
VERTEX
  5
472
  8
LAYER_1
 10
6.58559179945042
 20
8.895600582537988
 30
0.0
  0
VERTEX
  5
473
  8
LAYER_1
 10
6.607626139103248
 20
8.883216715677772
 30
0.0
  0
VERTEX
  5
474
  8
LAYER_1
 10
6.629169441576769
 20
8.870190209525212
 30
0.0
  0
VERTEX
  5
475
  8
LAYER_1
 10
6.650169842341533
 20
8.856629063526295
 30
0.0
  0
VERTEX
  5
476
  8
LAYER_1
 10
6.670575476868089
 20
8.842641277127022
 30
0.0
  0
VERTEX
  5
477
  8
LAYER_1
 10
6.690334480626985
 20
8.82833484977338
 30
0.0
  0
VERTEX
  5
478
  8
LAYER_1
 10
6.709394989088771
 20
8.813817780911368
 30
0.0
  0
VERTEX
  5
479
  8
LAYER_1
 10
6.727705137723992
 20
8.799198069986979
 30
0.0
  0
VERTEX
  5
47A
  8
LAYER_1
 10
6.745213062003201
 20
8.784583716446203
 30
0.0
  0
VERTEX
  5
47B
  8
LAYER_1
 10
6.761866897396945
 20
8.770082719735036
 30
0.0
  0
VERTEX
  5
47C
  8
LAYER_1
 10
6.777614779375773
 20
8.755803079299476
 30
0.0
  0
VERTEX
  5
47D
  8
LAYER_1
 10
6.792404843410234
 20
8.741852794585512
 30
0.0
  0
VERTEX
  5
47E
  8
LAYER_1
 10
6.806185224970874
 20
8.728339865039136
 30
0.0
  0
SEQEND
  5
47F
  8
LAYER_1
  0
POLYLINE
  5
56
  8
LAYER_1
 66
     1
 10
0.0
 20
0.0
 30
0.0
 70
     1
  0
VERTEX
  5
480
  8
LAYER_1
 10
5.743
 20
8.3279
 30
0.0
 42
0.4142135623730951
  0
VERTEX
  5
481
  8
LAYER_1
 10
4.9965
 20
7.5814
 30
0.0
 42
0.4142135623730951
  0
VERTEX
  5
482
  8
LAYER_1
 10
5.743
 20
6.8349
 30
0.0
 42
0.4142135623730951
  0
VERTEX
  5
483
  8
LAYER_1
 10
6.4895
 20
7.5814
 30
0.0
 42
0.4142135623730951
  0
SEQEND
  5
484
  8
LAYER_1
  0
POLYLINE
  5
57
  8
LAYER_1
 66
     1
 10
0.0
 20
0.0
 30
0.0
 70
     1
  0
VERTEX
  5
485
  8
LAYER_1
 10
5.743
 20
8.5624
 30
0.0
 42
0.4142135623730951
  0
VERTEX
  5
486
  8
LAYER_1
 10
4.762
 20
7.5814
 30
0.0
 42
0.4142135623730951
  0
VERTEX
  5
487
  8
LAYER_1
 10
5.743
 20
6.6004
 30
0.0
 42
0.4142135623730951
  0
VERTEX
  5
488
  8
LAYER_1
 10
6.724
 20
7.5814
 30
0.0
 42
0.4142135623730951
  0
SEQEND
  5
489
  8
LAYER_1
  0
POLYLINE
  5
58
  8
LAYER_1
 66
     1
 10
0.0
 20
0.0
 30
0.0
 70
     1
  0
VERTEX
  5
48A
  8
LAYER_1
 10
5.238246599034292
 20
6.337397616711578
 30
0.0
  0
VERTEX
  5
48B
  8
LAYER_1
 10
6.357954131382862
 20
6.364709969832604
 30
0.0
  0
VERTEX
  5
48C
  8
LAYER_1
 10
6.378955263823327
 20
6.37509646770093
 30
0.0
  0
VERTEX
  5
48D
  8
LAYER_1
 10
6.399747583980478
 20
6.385833061349048
 30
0.0
  0
VERTEX
  5
48E
  8
LAYER_1
 10
6.420327190517618
 20
6.396915870275487
 30
0.0
  0
VERTEX
  5
48F
  8
LAYER_1
 10
6.440690182098052
 20
6.408341013978775
 30
0.0
  0
VERTEX
  5
490
  8
LAYER_1
 10
6.460832657385085
 20
6.420104611957438
 30
0.0
  0
VERTEX
  5
491
  8
LAYER_1
 10
6.48075071504202
 20
6.432202783710004
 30
0.0
  0
VERTEX
  5
492
  8
LAYER_1
 10
6.500440453732162
 20
6.444631648735001
 30
0.0
  0
VERTEX
  5
493
  8
LAYER_1
 10
6.519897972118816
 20
6.457387326530958
 30
0.0
  0
VERTEX
  5
494
  8
LAYER_1
 10
6.539119368865284
 20
6.4704659365964
 30
0.0
  0
VERTEX
  5
495
  8
LAYER_1
 10
6.558100742634871
 20
6.483863598429858
 30
0.0
  0
VERTEX
  5
496
  8
LAYER_1
 10
6.576838192090882
 20
6.497576431529858
 30
0.0
  0
VERTEX
  5
497
  8
LAYER_1
 10
6.595327815896622
 20
6.511600555394926
 30
0.0
  0
VERTEX
  5
498
  8
LAYER_1
 10
6.613565712715394
 20
6.525932089523592
 30
0.0
  0
VERTEX
  5
499
  8
LAYER_1
 10
6.631547981210501
 20
6.540567153414383
 30
0.0
  0
VERTEX
  5
49A
  8
LAYER_1
 10
6.649270720045249
 20
6.555501866565825
 30
0.0
  0
VERTEX
  5
49B
  8
LAYER_1
 10
6.666730027882942
 20
6.570732348476448
 30
0.0
  0
VERTEX
  5
49C
  8
LAYER_1
 10
6.683922003386884
 20
6.586254718644779
 30
0.0
  0
VERTEX
  5
49D
  8
LAYER_1
 10
6.700842745220379
 20
6.602065096569345
 30
0.0
  0
VERTEX
  5
49E
  8
LAYER_1
 10
6.717488352046732
 20
6.618159601748674
 30
0.0
  0
VERTEX
  5
49F
  8
LAYER_1
 10
6.733854922529245
 20
6.634534353681295
 30
0.0
  0
VERTEX
  5
4A0
  8
LAYER_1
 10
6.749938555331225
 20
6.651185471865734
 30
0.0
  0
VERTEX
  5
4A1
  8
LAYER_1
 10
6.765735349115975
 20
6.668109075800519
 30
0.0
  0
VERTEX
  5
4A2
  8
LAYER_1
 10
6.781241402546797
 20
6.685301284984179
 30
0.0
  0
VERTEX
  5
4A3
  8
LAYER_1
 10
6.796452814286999
 20
6.702758218915238
 30
0.0
  0
VERTEX
  5
4A4
  8
LAYER_1
 10
6.811365682999884
 20
6.720475997092226
 30
0.0
  0
VERTEX
  5
4A5
  8
LAYER_1
 10
6.825976107348755
 20
6.738450739013673
 30
0.0
  0
VERTEX
  5
4A6
  8
LAYER_1
 10
6.840280185996916
 20
6.756678564178104
 30
0.0
  0
VERTEX
  5
4A7
  8
LAYER_1
 10
6.854274017607675
 20
6.775155592084046
 30
0.0
  0
VERTEX
  5
4A8
  8
LAYER_1
 10
6.867953700844332
 20
6.793877942230028
 30
0.0
  0
VERTEX
  5
4A9
  8
LAYER_1
 10
6.881315334370193
 20
6.812841734114578
 30
0.0
  0
VERTEX
  5
4AA
  8
LAYER_1
 10
6.894355016848561
 20
6.832043087236223
 30
0.0
  0
VERTEX
  5
4AB
  8
LAYER_1
 10
6.907068846942742
 20
6.851478121093491
 30
0.0
  0
VERTEX
  5
4AC
  8
LAYER_1
 10
6.91945292331604
 20
6.87114295518491
 30
0.0
  0
VERTEX
  5
4AD
  8
LAYER_1
 10
6.931503344631757
 20
6.891033709009006
 30
0.0
  0
VERTEX
  5
4AE
  8
LAYER_1
 10
6.943216209553199
 20
6.911146502064308
 30
0.0
  0
VERTEX
  5
4AF
  8
LAYER_1
 10
6.95458761674367
 20
6.931477453849343
 30
0.0
  0
VERTEX
  5
4B0
  8
LAYER_1
 10
6.965613664866475
 20
6.952022683862639
 30
0.0
  0
VERTEX
  5
4B1
  8
LAYER_1
 10
6.976290452584917
 20
6.972778311602724
 30
0.0
  0
VERTEX
  5
4B2
  8
LAYER_1
 10
6.986614078562301
 20
6.993740456568126
 30
0.0
  0
VERTEX
  5
4B3
  8
LAYER_1
 10
6.99658064146193
 20
7.014905238257372
 30
0.0
  0
VERTEX
  5
4B4
  8
LAYER_1
 10
7.006186239947109
 20
7.036268776168988
 30
0.0
  0
VERTEX
  5
4B5
  8
LAYER_1
 10
7.015426972681142
 20
7.057827189801506
 30
0.0
  0
VERTEX
  5
4B6
  8
LAYER_1
 10
7.024298938327334
 20
7.07957659865345
 30
0.0
  0
VERTEX
  5
4B7
  8
LAYER_1
 10
7.032798235548989
 20
7.101513122223349
 30
0.0
  0
VERTEX
  5
4B8
  8
LAYER_1
 10
7.040920963009411
 20
7.12363288000973
 30
0.0
  0
VERTEX
  5
4B9
  8
LAYER_1
 10
7.048663219371903
 20
7.145931991511121
 30
0.0
  0
VERTEX
  5
4BA
  8
LAYER_1
 10
7.05602110329977
 20
7.168406576226049
 30
0.0
  0
VERTEX
  5
4BB
  8
LAYER_1
 10
7.062990713456317
 20
7.191052753653043
 30
0.0
  0
VERTEX
  5
4BC
  8
LAYER_1
 10
7.069568148504848
 20
7.21386664329063
 30
0.0
  0
VERTEX
  5
4BD
  8
LAYER_1
 10
7.075749507108666
 20
7.236844364637338
 30
0.0
  0
VERTEX
  5
4BE
  8
LAYER_1
 10
7.081530887931077
 20
7.259982037191694
 30
0.0
  0
VERTEX
  5
4BF
  8
LAYER_1
 10
7.086908389635385
 20
7.283275780452227
 30
0.0
  0
VERTEX
  5
4C0
  8
LAYER_1
 10
7.091878110884892
 20
7.306721713917463
 30
0.0
  0
VERTEX
  5
4C1
  8
LAYER_1
 10
7.096436150342905
 20
7.330315957085929
 30
0.0
  0
VERTEX
  5
4C2
  8
LAYER_1
 10
7.100578606672727
 20
7.354054629456156
 30
0.0
  0
VERTEX
  5
4C3
  8
LAYER_1
 10
7.104301578537662
 20
7.377933850526669
 30
0.0
  0
VERTEX
  5
4C4
  8
LAYER_1
 10
7.107601164601013
 20
7.401949739795997
 30
0.0
  0
VERTEX
  5
4C5
  8
LAYER_1
 10
7.110473463526088
 20
7.426098416762667
 30
0.0
  0
VERTEX
  5
4C6
  8
LAYER_1
 10
7.112914573976187
 20
7.450376000925205
 30
0.0
  0
VERTEX
  5
4C7
  8
LAYER_1
 10
7.114920594614616
 20
7.474778611782142
 30
0.0
  0
VERTEX
  5
4C8
  8
LAYER_1
 10
7.116487624104678
 20
7.499302368832003
 30
0.0
  0
VERTEX
  5
4C9
  8
LAYER_1
 10
7.117611761109681
 20
7.523943391573317
 30
0.0
  0
VERTEX
  5
4CA
  8
LAYER_1
 10
7.118289104292927
 20
7.548697799504612
 30
0.0
  0
VERTEX
  5
4CB
  8
LAYER_1
 10
7.118515752317719
 20
7.573561712124414
 30
0.0
  0
VERTEX
  5
4CC
  8
LAYER_1
 10
7.118074668962113
 20
7.608237338364049
 30
0.0
  0
VERTEX
  5
4CD
  8
LAYER_1
 10
7.116758490097935
 20
7.642696622611822
 30
0.0
  0
VERTEX
  5
4CE
  8
LAYER_1
 10
7.114577822529139
 20
7.676929013258583
 30
0.0
  0
VERTEX
  5
4CF
  8
LAYER_1
 10
7.111543273059684
 20
7.71092395869518
 30
0.0
  0
VERTEX
  5
4D0
  8
LAYER_1
 10
7.107665448493526
 20
7.744670907312466
 30
0.0
  0
VERTEX
  5
4D1
  8
LAYER_1
 10
7.102954955634621
 20
7.77815930750129
 30
0.0
  0
VERTEX
  5
4D2
  8
LAYER_1
 10
7.097422401286924
 20
7.811378607652502
 30
0.0
  0
VERTEX
  5
4D3
  8
LAYER_1
 10
7.091078392254392
 20
7.844318256156952
 30
0.0
  0
VERTEX
  5
4D4
  8
LAYER_1
 10
7.083933535340984
 20
7.876967701405491
 30
0.0
  0
VERTEX
  5
4D5
  8
LAYER_1
 10
7.075998437350653
 20
7.909316391788968
 30
0.0
  0
VERTEX
  5
4D6
  8
LAYER_1
 10
7.067283705087356
 20
7.941353775698234
 30
0.0
  0
VERTEX
  5
4D7
  8
LAYER_1
 10
7.057799945355053
 20
7.973069301524138
 30
0.0
  0
VERTEX
  5
4D8
  8
LAYER_1
 10
7.047557764957697
 20
8.004452417657532
 30
0.0
  0
VERTEX
  5
4D9
  8
LAYER_1
 10
7.036567770699246
 20
8.035492572489265
 30
0.0
  0
VERTEX
  5
4DA
  8
LAYER_1
 10
7.024840569383656
 20
8.06617921441019
 30
0.0
  0
VERTEX
  5
4DB
  8
LAYER_1
 10
7.012386767814882
 20
8.09650179181115
 30
0.0
  0
VERTEX
  5
4DC
  8
LAYER_1
 10
6.999216972796883
 20
8.126449753083001
 30
0.0
  0
VERTEX
  5
4DD
  8
LAYER_1
 10
6.985341791133614
 20
8.156012546616594
 30
0.0
  0
VERTEX
  5
4DE
  8
LAYER_1
 10
6.970771829629031
 20
8.185179620802774
 30
0.0
  0
VERTEX
  5
4DF
  8
LAYER_1
 10
6.955517695087092
 20
8.213940424032396
 30
0.0
  0
VERTEX
  5
4E0
  8
LAYER_1
 10
6.939589994311753
 20
8.242284404696306
 30
0.0
  0
VERTEX
  5
4E1
  8
LAYER_1
 10
6.92299933410697
 20
8.27020101118536
 30
0.0
  0
VERTEX
  5
4E2
  8
LAYER_1
 10
6.905756321276701
 20
8.297679691890401
 30
0.0
  0
VERTEX
  5
4E3
  8
LAYER_1
 10
6.887871562624899
 20
8.324709895202284
 30
0.0
  0
VERTEX
  5
4E4
  8
LAYER_1
 10
6.869355664955523
 20
8.351281069511858
 30
0.0
  0
VERTEX
  5
4E5
  8
LAYER_1
 10
6.85021923507253
 20
8.377382663209971
 30
0.0
  0
VERTEX
  5
4E6
  8
LAYER_1
 10
6.830472879779874
 20
8.403004124687477
 30
0.0
  0
VERTEX
  5
4E7
  8
LAYER_1
 10
6.810127205881514
 20
8.428134902335223
 30
0.0
  0
VERTEX
  5
4E8
  8
LAYER_1
 10
6.789192820181405
 20
8.452764444544062
 30
0.0
  0
VERTEX
  5
4E9
  8
LAYER_1
 10
6.767680329483506
 20
8.476882199704843
 30
0.0
  0
VERTEX
  5
4EA
  8
LAYER_1
 10
6.745600340591769
 20
8.500477616208414
 30
0.0
  0
VERTEX
  5
4EB
  8
LAYER_1
 10
6.722963460310153
 20
8.523540142445627
 30
0.0
  0
VERTEX
  5
4EC
  8
LAYER_1
 10
6.699780295442615
 20
8.546059226807333
 30
0.0
  0
VERTEX
  5
4ED
  8
LAYER_1
 10
6.676061452793109
 20
8.56802431768438
 30
0.0
  0
VERTEX
  5
4EE
  8
LAYER_1
 10
6.651817539165594
 20
8.58942486346762
 30
0.0
  0
VERTEX
  5
4EF
  8
LAYER_1
 10
6.627059161364027
 20
8.610250312547901
 30
0.0
  0
VERTEX
  5
4F0
  8
LAYER_1
 10
6.601796926192362
 20
8.630490113316075
 30
0.0
  0
VERTEX
  5
4F1
  8
LAYER_1
 10
6.576041440454557
 20
8.650133714162992
 30
0.0
  0
VERTEX
  5
4F2
  8
LAYER_1
 10
6.549803310954568
 20
8.669170563479502
 30
0.0
  0
VERTEX
  5
4F3
  8
LAYER_1
 10
6.523093144496351
 20
8.687590109656455
 30
0.0
  0
VERTEX
  5
4F4
  8
LAYER_1
 10
6.495921547883864
 20
8.705381801084698
 30
0.0
  0
VERTEX
  5
4F5
  8
LAYER_1
 10
6.468299127921061
 20
8.722535086155087
 30
0.0
  0
VERTEX
  5
4F6
  8
LAYER_1
 10
6.4402364914119
 20
8.73903941325847
 30
0.0
  0
VERTEX
  5
4F7
  8
LAYER_1
 10
6.411744245160339
 20
8.754884230785695
 30
0.0
  0
VERTEX
  5
4F8
  8
LAYER_1
 10
6.382832995970332
 20
8.770058987127616
 30
0.0
  0
VERTEX
  5
4F9
  8
LAYER_1
 10
6.353513350645837
 20
8.784553130675079
 30
0.0
  0
VERTEX
  5
4FA
  8
LAYER_1
 10
6.323795915990809
 20
8.798356109818936
 30
0.0
  0
VERTEX
  5
4FB
  8
LAYER_1
 10
6.293691298809206
 20
8.811457372950038
 30
0.0
  0
VERTEX
  5
4FC
  8
LAYER_1
 10
6.263210105904983
 20
8.823846368459233
 30
0.0
  0
VERTEX
  5
4FD
  8
LAYER_1
 10
6.232362944082097
 20
8.835512544737373
 30
0.0
  0
VERTEX
  5
4FE
  8
LAYER_1
 10
6.201160420144504
 20
8.846445350175308
 30
0.0
  0
VERTEX
  5
4FF
  8
LAYER_1
 10
6.169613140896162
 20
8.856634233163888
 30
0.0
  0
VERTEX
  5
500
  8
LAYER_1
 10
6.137731713141028
 20
8.866068642093962
 30
0.0
  0
VERTEX
  5
501
  8
LAYER_1
 10
6.105526743683055
 20
8.87473802535638
 30
0.0
  0
VERTEX
  5
502
  8
LAYER_1
 10
6.073008839326202
 20
8.882631831341994
 30
0.0
  0
VERTEX
  5
503
  8
LAYER_1
 10
6.040188606874425
 20
8.889739508441654
 30
0.0
  0
VERTEX
  5
504
  8
LAYER_1
 10
6.007076653131681
 20
8.896050505046208
 30
0.0
  0
VERTEX
  5
505
  8
LAYER_1
 10
5.973683584901925
 20
8.901554269546509
 30
0.0
  0
VERTEX
  5
506
  8
LAYER_1
 10
5.940020008989115
 20
8.906240250333404
 30
0.0
  0
VERTEX
  5
507
  8
LAYER_1
 10
5.906096532197206
 20
8.910097895797747
 30
0.0
  0
VERTEX
  5
508
  8
LAYER_1
 10
5.871923761330155
 20
8.913116654330384
 30
0.0
  0
VERTEX
  5
509
  8
LAYER_1
 10
5.83751230319192
 20
8.915285974322167
 30
0.0
  0
VERTEX
  5
50A
  8
LAYER_1
 10
5.802872764586456
 20
8.916595304163948
 30
0.0
  0
VERTEX
  5
50B
  8
LAYER_1
 10
5.768015752317718
 20
8.917034092246576
 30
0.0
  0
VERTEX
  5
50C
  8
LAYER_1
 10
5.733158740048981
 20
8.916595304163948
 30
0.0
  0
VERTEX
  5
50D
  8
LAYER_1
 10
5.698519201443517
 20
8.915285974322167
 30
0.0
  0
VERTEX
  5
50E
  8
LAYER_1
 10
5.664107743305282
 20
8.913116654330384
 30
0.0
  0
VERTEX
  5
50F
  8
LAYER_1
 10
5.629934972438231
 20
8.910097895797747
 30
0.0
  0
VERTEX
  5
510
  8
LAYER_1
 10
5.596011495646322
 20
8.906240250333404
 30
0.0
  0
VERTEX
  5
511
  8
LAYER_1
 10
5.562347919733512
 20
8.901554269546509
 30
0.0
  0
VERTEX
  5
512
  8
LAYER_1
 10
5.528954851503756
 20
8.896050505046208
 30
0.0
  0
VERTEX
  5
513
  8
LAYER_1
 10
5.495842897761012
 20
8.889739508441654
 30
0.0
  0
VERTEX
  5
514
  8
LAYER_1
 10
5.463022665309235
 20
8.882631831341994
 30
0.0
  0
VERTEX
  5
515
  8
LAYER_1
 10
5.430504760952382
 20
8.87473802535638
 30
0.0
  0
VERTEX
  5
516
  8
LAYER_1
 10
5.398299791494409
 20
8.866068642093962
 30
0.0
  0
VERTEX
  5
517
  8
LAYER_1
 10
5.366418363739275
 20
8.856634233163888
 30
0.0
  0
VERTEX
  5
518
  8
LAYER_1
 10
5.334871084490933
 20
8.846445350175308
 30
0.0
  0
VERTEX
  5
519
  8
LAYER_1
 10
5.30366856055334
 20
8.835512544737373
 30
0.0
  0
VERTEX
  5
51A
  8
LAYER_1
 10
5.272821398730454
 20
8.823846368459233
 30
0.0
  0
VERTEX
  5
51B
  8
LAYER_1
 10
5.242340205826231
 20
8.811457372950038
 30
0.0
  0
VERTEX
  5
51C
  8
LAYER_1
 10
5.212235588644628
 20
8.798356109818936
 30
0.0
  0
VERTEX
  5
51D
  8
LAYER_1
 10
5.1825181539896
 20
8.784553130675079
 30
0.0
  0
VERTEX
  5
51E
  8
LAYER_1
 10
5.153198508665104
 20
8.770058987127616
 30
0.0
  0
VERTEX
  5
51F
  8
LAYER_1
 10
5.124287259475098
 20
8.754884230785695
 30
0.0
  0
VERTEX
  5
520
  8
LAYER_1
 10
5.095795013223537
 20
8.73903941325847
 30
0.0
  0
VERTEX
  5
521
  8
LAYER_1
 10
5.067732376714376
 20
8.722535086155087
 30
0.0
  0
VERTEX
  5
522
  8
LAYER_1
 10
5.040109956751573
 20
8.705381801084698
 30
0.0
  0
VERTEX
  5
523
  8
LAYER_1
 10
5.012938360139086
 20
8.687590109656455
 30
0.0
  0
VERTEX
  5
524
  8
LAYER_1
 10
4.986228193680869
 20
8.669170563479502
 30
0.0
  0
VERTEX
  5
525
  8
LAYER_1
 10
4.95999006418088
 20
8.650133714162992
 30
0.0
  0
VERTEX
  5
526
  8
LAYER_1
 10
4.934234578443075
 20
8.630490113316075
 30
0.0
  0
VERTEX
  5
527
  8
LAYER_1
 10
4.90897234327141
 20
8.610250312547901
 30
0.0
  0
VERTEX
  5
528
  8
LAYER_1
 10
4.884213965469843
 20
8.58942486346762
 30
0.0
  0
VERTEX
  5
529
  8
LAYER_1
 10
4.859970051842327
 20
8.56802431768438
 30
0.0
  0
VERTEX
  5
52A
  8
LAYER_1
 10
4.836251209192822
 20
8.546059226807333
 30
0.0
  0
VERTEX
  5
52B
  8
LAYER_1
 10
4.813068044325284
 20
8.523540142445627
 30
0.0
  0
VERTEX
  5
52C
  8
LAYER_1
 10
4.790431164043667
 20
8.500477616208414
 30
0.0
  0
VERTEX
  5
52D
  8
LAYER_1
 10
4.768351175151931
 20
8.476882199704843
 30
0.0
  0
VERTEX
  5
52E
  8
LAYER_1
 10
4.746838684454032
 20
8.452764444544062
 30
0.0
  0
VERTEX
  5
52F
  8
LAYER_1
 10
4.725904298753923
 20
8.428134902335223
 30
0.0
  0
VERTEX
  5
530
  8
LAYER_1
 10
4.705558624855563
 20
8.403004124687477
 30
0.0
  0
VERTEX
  5
531
  8
LAYER_1
 10
4.685812269562907
 20
8.377382663209971
 30
0.0
  0
VERTEX
  5
532
  8
LAYER_1
 10
4.666675839679914
 20
8.351281069511858
 30
0.0
  0
VERTEX
  5
533
  8
LAYER_1
 10
4.648159942010538
 20
8.324709895202284
 30
0.0
  0
VERTEX
  5
534
  8
LAYER_1
 10
4.630275183358736
 20
8.297679691890401
 30
0.0
  0
VERTEX
  5
535
  8
LAYER_1
 10
4.613032170528466
 20
8.27020101118536
 30
0.0
  0
VERTEX
  5
536
  8
LAYER_1
 10
4.596441510323684
 20
8.242284404696306
 30
0.0
  0
VERTEX
  5
537
  8
LAYER_1
 10
4.580513809548345
 20
8.213940424032396
 30
0.0
  0
VERTEX
  5
538
  8
LAYER_1
 10
4.565259675006406
 20
8.185179620802774
 30
0.0
  0
VERTEX
  5
539
  8
LAYER_1
 10
4.550689713501823
 20
8.156012546616594
 30
0.0
  0
VERTEX
  5
53A
  8
LAYER_1
 10
4.536814531838554
 20
8.126449753083001
 30
0.0
  0
VERTEX
  5
53B
  8
LAYER_1
 10
4.523644736820555
 20
8.09650179181115
 30
0.0
  0
VERTEX
  5
53C
  8
LAYER_1
 10
4.511190935251781
 20
8.06617921441019
 30
0.0
  0
VERTEX
  5
53D
  8
LAYER_1
 10
4.49946373393619
 20
8.035492572489265
 30
0.0
  0
VERTEX
  5
53E
  8
LAYER_1
 10
4.488473739677739
 20
8.004452417657532
 30
0.0
  0
VERTEX
  5
53F
  8
LAYER_1
 10
4.478231559280384
 20
7.973069301524138
 30
0.0
  0
VERTEX
  5
540
  8
LAYER_1
 10
4.468747799548081
 20
7.941353775698234
 30
0.0
  0
VERTEX
  5
541
  8
LAYER_1
 10
4.460033067284784
 20
7.909316391788968
 30
0.0
  0
VERTEX
  5
542
  8
LAYER_1
 10
4.452097969294453
 20
7.876967701405491
 30
0.0
  0
VERTEX
  5
543
  8
LAYER_1
 10
4.444953112381045
 20
7.844318256156952
 30
0.0
  0
VERTEX
  5
544
  8
LAYER_1
 10
4.438609103348513
 20
7.811378607652502
 30
0.0
  0
VERTEX
  5
545
  8
LAYER_1
 10
4.433076549000816
 20
7.77815930750129
 30
0.0
  0
VERTEX
  5
546
  8
LAYER_1
 10
4.428366056141911
 20
7.744670907312466
 30
0.0
  0
VERTEX
  5
547
  8
LAYER_1
 10
4.424488231575753
 20
7.71092395869518
 30
0.0
  0
VERTEX
  5
548
  8
LAYER_1
 10
4.421453682106298
 20
7.676929013258583
 30
0.0
  0
VERTEX
  5
549
  8
LAYER_1
 10
4.419273014537502
 20
7.642696622611822
 30
0.0
  0
VERTEX
  5
54A
  8
LAYER_1
 10
4.417956835673324
 20
7.608237338364049
 30
0.0
  0
VERTEX
  5
54B
  8
LAYER_1
 10
4.417515752317718
 20
7.573561712124414
 30
0.0
  0
VERTEX
  5
54C
  8
LAYER_1
 10
4.417762732998774
 20
7.547607322970735
 30
0.0
  0
VERTEX
  5
54D
  8
LAYER_1
 10
4.418500715871199
 20
7.521772463077296
 30
0.0
  0
VERTEX
  5
54E
  8
LAYER_1
 10
4.419725262178881
 20
7.49606154742638
 30
0.0
  0
VERTEX
  5
54F
  8
LAYER_1
 10
4.421431933165707
 20
7.470478991000268
 30
0.0
  0
VERTEX
  5
550
  8
LAYER_1
 10
4.423616290075564
 20
7.445029208781241
 30
0.0
  0
VERTEX
  5
551
  8
LAYER_1
 10
4.426273894152342
 20
7.419716615751581
 30
0.0
  0
VERTEX
  5
552
  8
LAYER_1
 10
4.429400306639926
 20
7.394545626893571
 30
0.0
  0
VERTEX
  5
553
  8
LAYER_1
 10
4.432991088782204
 20
7.369520657189488
 30
0.0
  0
VERTEX
  5
554
  8
LAYER_1
 10
4.437041801823064
 20
7.344646121621619
 30
0.0
  0
VERTEX
  5
555
  8
LAYER_1
 10
4.441548007006394
 20
7.319926435172242
 30
0.0
  0
VERTEX
  5
556
  8
LAYER_1
 10
4.44650526557608
 20
7.29536601282364
 30
0.0
  0
VERTEX
  5
557
  8
LAYER_1
 10
4.45190913877601
 20
7.270969269558094
 30
0.0
  0
VERTEX
  5
558
  8
LAYER_1
 10
4.457755187850072
 20
7.246740620357885
 30
0.0
  0
VERTEX
  5
559
  8
LAYER_1
 10
4.464038974042154
 20
7.222684480205296
 30
0.0
  0
VERTEX
  5
55A
  8
LAYER_1
 10
4.470756058596141
 20
7.198805264082607
 30
0.0
  0
VERTEX
  5
55B
  8
LAYER_1
 10
4.477902002755924
 20
7.1751073869721
 30
0.0
  0
VERTEX
  5
55C
  8
LAYER_1
 10
4.485472367765388
 20
7.151595263856057
 30
0.0
  0
VERTEX
  5
55D
  8
LAYER_1
 10
4.493462714868421
 20
7.128273309716759
 30
0.0
  0
VERTEX
  5
55E
  8
LAYER_1
 10
4.501868605308911
 20
7.105145939536488
 30
0.0
  0
VERTEX
  5
55F
  8
LAYER_1
 10
4.510685600330746
 20
7.082217568297525
 30
0.0
  0
VERTEX
  5
560
  8
LAYER_1
 10
4.519909261177812
 20
7.059492610982151
 30
0.0
  0
VERTEX
  5
561
  8
LAYER_1
 10
4.529535149093997
 20
7.036975482572648
 30
0.0
  0
VERTEX
  5
562
  8
LAYER_1
 10
4.539558825323188
 20
7.014670598051299
 30
0.0
  0
VERTEX
  5
563
  8
LAYER_1
 10
4.549975851109273
 20
6.992582372400383
 30
0.0
  0
VERTEX
  5
564
  8
LAYER_1
 10
4.56078178769614
 20
6.970715220602184
 30
0.0
  0
VERTEX
  5
565
  8
LAYER_1
 10
4.571972196327676
 20
6.949073557638981
 30
0.0
  0
VERTEX
  5
566
  8
LAYER_1
 10
4.583542638247769
 20
6.927661798493057
 30
0.0
  0
VERTEX
  5
567
  8
LAYER_1
 10
4.595488674700307
 20
6.906484358146693
 30
0.0
  0
VERTEX
  5
568
  8
LAYER_1
 10
4.607805866929176
 20
6.885545651582172
 30
0.0
  0
VERTEX
  5
569
  8
LAYER_1
 10
4.620489776178264
 20
6.864850093781774
 30
0.0
  0
VERTEX
  5
56A
  8
LAYER_1
 10
4.633535963691458
 20
6.84440209972778
 30
0.0
  0
VERTEX
  5
56B
  8
LAYER_1
 10
4.646939990712647
 20
6.824206084402473
 30
0.0
  0
VERTEX
  5
56C
  8
LAYER_1
 10
4.660697418485717
 20
6.804266462788133
 30
0.0
  0
VERTEX
  5
56D
  8
LAYER_1
 10
4.674803808254557
 20
6.784587649867042
 30
0.0
  0
VERTEX
  5
56E
  8
LAYER_1
 10
4.689254721263053
 20
6.765174060621483
 30
0.0
  0
VERTEX
  5
56F
  8
LAYER_1
 10
4.704045718755093
 20
6.746030110033736
 30
0.0
  0
VERTEX
  5
570
  8
LAYER_1
 10
4.719172361974564
 20
6.727160213086083
 30
0.0
  0
VERTEX
  5
571
  8
LAYER_1
 10
4.734630212165354
 20
6.708568784760805
 30
0.0
  0
VERTEX
  5
572
  8
LAYER_1
 10
4.75041483057135
 20
6.690260240040185
 30
0.0
  0
VERTEX
  5
573
  8
LAYER_1
 10
4.766521778436441
 20
6.672238993906502
 30
0.0
  0
VERTEX
  5
574
  8
LAYER_1
 10
4.782946617004512
 20
6.654509461342039
 30
0.0
  0
VERTEX
  5
575
  8
LAYER_1
 10
4.799684907519453
 20
6.637076057329079
 30
0.0
  0
VERTEX
  5
576
  8
LAYER_1
 10
4.816732211225151
 20
6.619943196849901
 30
0.0
  0
VERTEX
  5
577
  8
LAYER_1
 10
4.834084089365493
 20
6.603115294886788
 30
0.0
  0
VERTEX
  5
578
  8
LAYER_1
 10
4.851736103184367
 20
6.586596766422019
 30
0.0
  0
VERTEX
  5
579
  8
LAYER_1
 10
4.869683813925659
 20
6.570392026437879
 30
0.0
  0
VERTEX
  5
57A
  8
LAYER_1
 10
4.887922782833257
 20
6.554505489916647
 30
0.0
  0
VERTEX
  5
57B
  8
LAYER_1
 10
4.906448571151049
 20
6.538941571840607
 30
0.0
  0
VERTEX
  5
57C
  8
LAYER_1
 10
4.925256740122922
 20
6.523704687192039
 30
0.0
  0
VERTEX
  5
57D
  8
LAYER_1
 10
4.944342850992765
 20
6.508799250953223
 30
0.0
  0
VERTEX
  5
57E
  8
LAYER_1
 10
4.963702465004465
 20
6.494229678106444
 30
0.0
  0
VERTEX
  5
57F
  8
LAYER_1
 10
4.983331143401908
 20
6.48000038363398
 30
0.0
  0
VERTEX
  5
580
  8
LAYER_1
 10
5.003224447428982
 20
6.466115782518115
 30
0.0
  0
VERTEX
  5
581
  8
LAYER_1
 10
5.023377938329576
 20
6.452580289741128
 30
0.0
  0
VERTEX
  5
582
  8
LAYER_1
 10
5.043787177347576
 20
6.439398320285303
 30
0.0
  0
VERTEX
  5
583
  8
LAYER_1
 10
5.064447725726868
 20
6.426574289132921
 30
0.0
  0
VERTEX
  5
584
  8
LAYER_1
 10
5.085355144711343
 20
6.414112611266263
 30
0.0
  0
VERTEX
  5
585
  8
LAYER_1
 10
5.106504995544887
 20
6.40201770166761
 30
0.0
  0
VERTEX
  5
586
  8
LAYER_1
 10
5.127892839471386
 20
6.390293975319246
 30
0.0
  0
VERTEX
  5
587
  8
LAYER_1
 10
5.14951423773473
 20
6.378945847203449
 30
0.0
  0
VERTEX
  5
588
  8
LAYER_1
 10
5.171364751578805
 20
6.367977732302502
 30
0.0
  0
VERTEX
  5
589
  8
LAYER_1
 10
5.193439942247498
 20
6.357394045598687
 30
0.0
  0
VERTEX
  5
58A
  8
LAYER_1
 10
5.215735370984699
 20
6.347199202074284
 30
0.0
  0
SEQEND
  5
58B
  8
LAYER_1
  0
POLYLINE
  5
59
  8
LAYER_1
 66
     1
 10
0.0
 20
0.0
 30
0.0
  0
VERTEX
  5
58C
  8
LAYER_1
 10
9.530393132103026
 20
9.087185322862272
 30
0.0
  0
VERTEX
  5
58D
  8
LAYER_1
 10
9.330393132103026
 20
9.087185322862272
 30
0.0
  0
SEQEND
  5
58E
  8
LAYER_1
  0
POLYLINE
  5
5A
  8
LAYER_1
 66
     1
 10
0.0
 20
0.0
 30
0.0
  0
VERTEX
  5
58F
  8
LAYER_1
 10
9.25595847801164
 20
9.025798623920778
 30
0.0
  0
VERTEX
  5
590
  8
LAYER_1
 10
9.25595847801164
 20
8.325798623920779
 30
0.0
  0
SEQEND
  5
591
  8
LAYER_1
  0
POLYLINE
  5
5B
  8
LAYER_1
 66
     1
 10
0.0
 20
0.0
 30
0.0
  0
VERTEX
  5
592
  8
LAYER_1
 10
9.32095615924381
 20
8.292769218913524
 30
0.0
  0
VERTEX
  5
593
  8
LAYER_1
 10
9.62095615924381
 20
8.292769218913524
 30
0.0
  0
SEQEND
  5
594
  8
LAYER_1
  0
POLYLINE
  5
5C
  8
LAYER_1
 66
     1
 10
0.0
 20
0.0
 30
0.0
  0
VERTEX
  5
595
  8
LAYER_1
 10
9.330393132103026
 20
9.087185322862272
 30
0.0
  0
VERTEX
  5
596
  8
LAYER_1
 10
9.306356253437942
 20
9.085855265216136
 30
0.0
  0
VERTEX
  5
597
  8
LAYER_1
 10
9.297223813687543
 20
9.08540929653272
 30
0.0
  0
VERTEX
  5
598
  8
LAYER_1
 10
9.289501767916413
 20
9.08467663972127
 30
0.0
  0
VERTEX
  5
599
  8
LAYER_1
 10
9.282804911817937
 20
9.083332748615927
 30
0.0
  0
VERTEX
  5
59A
  8
LAYER_1
 10
9.279720553550124
 20
9.082330169526218
 30
0.0
  0
VERTEX
  5
59B
  8
LAYER_1
 10
9.276748041085492
 20
9.08105307705084
 30
0.0
  0
VERTEX
  5
59C
  8
LAYER_1
 10
9.273839223885712
 20
9.079460902919061
 30
0.0
  0
VERTEX
  5
59D
  8
LAYER_1
 10
9.270945951412461
 20
9.077513078860152
 30
0.0
  0
VERTEX
  5
59E
  8
LAYER_1
 10
9.265013438492225
 20
9.072388207878008
 30
0.0
  0
VERTEX
  5
59F
  8
LAYER_1
 10
9.26083991407133
 20
9.067484348819974
 30
0.0
  0
VERTEX
  5
5A0
  8
LAYER_1
 10
9.258037785114734
 20
9.062451619531412
 30
0.0
  0
VERTEX
  5
5A1
  8
LAYER_1
 10
9.256355875941832
 20
9.05722304956521
 30
0.0
  0
VERTEX
  5
5A2
  8
LAYER_1
 10
9.255543010872021
 20
9.051731668474256
 30
0.0
  0
VERTEX
  5
5A3
  8
LAYER_1
 10
9.255519710319264
 20
9.039692591129668
 30
0.0
  0
VERTEX
  5
5A4
  8
LAYER_1
 10
9.25595847801164
 20
9.025798623920778
 30
0.0
  0
SEQEND
  5
5A5
  8
LAYER_1
  0
POLYLINE
  5
5D
  8
LAYER_1
 66
     1
 10
0.0
 20
0.0
 30
0.0
  0
VERTEX
  5
5A6
  8
LAYER_1
 10
9.25595847801164
 20
8.325798623920779
 30
0.0
  0
VERTEX
  5
5A7
  8
LAYER_1
 10
9.257685498892696
 20
8.321351449646158
 30
0.0
  0
VERTEX
  5
5A8
  8
LAYER_1
 10
9.25967757792936
 20
8.317213138484997
 30
0.0
  0
VERTEX
  5
5A9
  8
LAYER_1
 10
9.261934719850418
 20
8.313383684441254
 30
0.0
  0
VERTEX
  5
5AA
  8
LAYER_1
 10
9.264456929384659
 20
8.309863081518898
 30
0.0
  0
VERTEX
  5
5AB
  8
LAYER_1
 10
9.267244211260868
 20
8.306651323721892
 30
0.0
  0
VERTEX
  5
5AC
  8
LAYER_1
 10
9.27029657020783
 20
8.303748405054202
 30
0.0
  0
VERTEX
  5
5AD
  8
LAYER_1
 10
9.273614010954333
 20
8.301154319519789
 30
0.0
  0
VERTEX
  5
5AE
  8
LAYER_1
 10
9.277196538229166
 20
8.298869061122621
 30
0.0
  0
VERTEX
  5
5AF
  8
LAYER_1
 10
9.2821416088854
 20
8.296588826402406
 30
0.0
  0
VERTEX
  5
5B0
  8
LAYER_1
 10
9.287362844076949
 20
8.295114257552225
 30
0.0
  0
VERTEX
  5
5B1
  8
LAYER_1
 10
9.29279714467481
 20
8.294259343700507
 30
0.0
  0
VERTEX
  5
5B2
  8
LAYER_1
 10
9.298381411549983
 20
8.293838073975666
 30
0.0
  0
VERTEX
  5
5B3
  8
LAYER_1
 10
9.30974744761627
 20
8.293552423420309
 30
0.0
  0
VERTEX
  5
5B4
  8
LAYER_1
 10
9.315403018549382
 20
8.293316020846632
 30
0.0
  0
VERTEX
  5
5B5
  8
LAYER_1
 10
9.32095615924381
 20
8.292769218913524
 30
0.0
  0
SEQEND
  5
5B6
  8
LAYER_1
  0
POLYLINE
  5
5E
  8
LAYER_1
 66
     1
 10
0.0
 20
0.0
 30
0.0
  0
VERTEX
  5
5B7
  8
LAYER_1
 10
7.734468381586987
 20
9.516191162503425
 30
0.0
  0
VERTEX
  5
5B8
  8
LAYER_1
 10
7.94660041594295
 20
9.304059128147461
 30
0.0
  0
SEQEND
  5
5B9
  8
LAYER_1
  0
POLYLINE
  5
5F
  8
LAYER_1
 66
     1
 10
0.0
 20
0.0
 30
0.0
  0
VERTEX
  5
5BA
  8
LAYER_1
 10
7.853630797179298
 20
9.534246073956805
 30
0.0
  0
VERTEX
  5
5BB
  8
LAYER_1
 10
8.065762831535263
 20
9.32211403960084
 30
0.0
  0
SEQEND
  5
5BC
  8
LAYER_1
  0
POLYLINE
  5
60
  8
LAYER_1
 66
     1
 10
0.0
 20
0.0
 30
0.0
  0
VERTEX
  5
5BD
  8
LAYER_1
 10
7.97279321277161
 20
9.541468038538158
 30
0.0
  0
VERTEX
  5
5BE
  8
LAYER_1
 10
8.184925247127575
 20
9.329336004182194
 30
0.0
  0
SEQEND
  5
5BF
  8
LAYER_1
  0
POLYLINE
  5
61
  8
LAYER_1
 66
     1
 10
0.0
 20
0.0
 30
0.0
  0
VERTEX
  5
5C0
  8
LAYER_1
 10
8.102788575235952
 20
9.534246073956805
 30
0.0
  0
VERTEX
  5
5C1
  8
LAYER_1
 10
8.314920609591915
 20
9.32211403960084
 30
0.0
  0
SEQEND
  5
5C2
  8
LAYER_1
  0
POLYLINE
  5
62
  8
LAYER_1
 66
     1
 10
0.0
 20
0.0
 30
0.0
  0
VERTEX
  5
5C3
  8
LAYER_1
 10
8.229172955409615
 20
9.530635091666129
 30
0.0
  0
VERTEX
  5
5C4
  8
LAYER_1
 10
8.441304989765579
 20
9.318503057310165
 30
0.0
  0
SEQEND
  5
5C5
  8
LAYER_1
  0
POLYLINE
  5
63
  8
LAYER_1
 66
     1
 10
0.0
 20
0.0
 30
0.0
  0
VERTEX
  5
5C6
  8
LAYER_1
 10
8.344724388711251
 20
9.534246073956805
 30
0.0
  0
VERTEX
  5
5C7
  8
LAYER_1
 10
8.556856423067215
 20
9.32211403960084
 30
0.0
  0
SEQEND
  5
5C8
  8
LAYER_1
  0
POLYLINE
  5
64
  8
LAYER_1
 66
     1
 10
0.0
 20
0.0
 30
0.0
  0
VERTEX
  5
5C9
  8
LAYER_1
 10
8.463886804303563
 20
9.534246073956805
 30
0.0
  0
VERTEX
  5
5CA
  8
LAYER_1
 10
8.676018838659527
 20
9.32211403960084
 30
0.0
  0
SEQEND
  5
5CB
  8
LAYER_1
  0
POLYLINE
  5
65
  8
LAYER_1
 66
     1
 10
0.0
 20
0.0
 30
0.0
  0
VERTEX
  5
5CC
  8
LAYER_1
 10
8.590271184477228
 20
9.537857056247482
 30
0.0
  0
VERTEX
  5
5CD
  8
LAYER_1
 10
8.802403218833192
 20
9.325725021891518
 30
0.0
  0
SEQEND
  5
5CE
  8
LAYER_1
  0
POLYLINE
  5
66
  8
LAYER_1
 66
     1
 10
0.0
 20
0.0
 30
0.0
  0
VERTEX
  5
5CF
  8
LAYER_1
 10
8.72748851152292
 20
9.527024109375454
 30
0.0
  0
VERTEX
  5
5D0
  8
LAYER_1
 10
8.939620545878883
 20
9.31489207501949
 30
0.0
  0
SEQEND
  5
5D1
  8
LAYER_1
  0
POLYLINE
  5
67
  8
LAYER_1
 66
     1
 10
0.0
 20
0.0
 30
0.0
  0
VERTEX
  5
5D2
  8
LAYER_1
 10
13.22999982449176
 20
9.605936588213881
 30
0.0
  0
VERTEX
  5
5D3
  8
LAYER_1
 10
13.72999982449176
 20
9.605936588213881
 30
0.0
  0
SEQEND
  5
5D4
  8
LAYER_1
  0
POLYLINE
  5
68
  8
LAYER_1
 66
     1
 10
0.0
 20
0.0
 30
0.0
  0
VERTEX
  5
5D5
  8
LAYER_1
 10
13.26385278346685
 20
9.549514989922066
 30
0.0
  0
VERTEX
  5
5D6
  8
LAYER_1
 10
13.66385278346685
 20
9.549514989922066
 30
0.0
  0
SEQEND
  5
5D7
  8
LAYER_1
  0
POLYLINE
  5
69
  8
LAYER_1
 66
     1
 10
0.0
 20
0.0
 30
0.0
  0
VERTEX
  5
5D8
  8
LAYER_1
 10
13.72999982449176
 20
9.605936588213881
 30
0.0
  0
VERTEX
  5
5D9
  8
LAYER_1
 10
13.73177806238604
 20
9.612453406709824
 30
0.0
  0
VERTEX
  5
5DA
  8
LAYER_1
 10
13.73394107832058
 20
9.6186547317168
 30
0.0
  0
VERTEX
  5
5DB
  8
LAYER_1
 10
13.73648887786177
 20
9.62454057287611
 30
0.0
  0
VERTEX
  5
5DC
  8
LAYER_1
 10
13.73942146657602
 20
9.630110939829052
 30
0.0
  0
VERTEX
  5
5DD
  8
LAYER_1
 10
13.74273885002973
 20
9.635365842216924
 30
0.0
  0
VERTEX
  5
5DE
  8
LAYER_1
 10
13.74644103378933
 20
9.640305289681024
 30
0.0
  0
VERTEX
  5
5DF
  8
LAYER_1
 10
13.7505280234212
 20
9.64492929186265
 30
0.0
  0
VERTEX
  5
5E0
  8
LAYER_1
 10
13.75499982449176
 20
9.649237858403103
 30
0.0
  0
VERTEX
  5
5E1
  8
LAYER_1
 10
13.76608606481251
 20
9.659077102552423
 30
0.0
  0
VERTEX
  5
5E2
  8
LAYER_1
 10
13.7712999375416
 20
9.663389462919557
 30
0.0
  0
VERTEX
  5
5E3
  8
LAYER_1
 10
13.77655204342907
 20
9.667264885922684
 30
0.0
  0
VERTEX
  5
5E4
  8
LAYER_1
 10
13.78203568105933
 20
9.670679299392557
 30
0.0
  0
VERTEX
  5
5E5
  8
LAYER_1
 10
13.78794414901681
 20
9.67360863115993
 30
0.0
  0
VERTEX
  5
5E6
  8
LAYER_1
 10
13.79447074588594
 20
9.676028809055559
 30
0.0
  0
VERTEX
  5
5E7
  8
LAYER_1
 10
13.80180877025114
 20
9.677915760910198
 30
0.0
  0
VERTEX
  5
5E8
  8
LAYER_1
 10
13.80973912267287
 20
9.679201112039653
 30
0.0
  0
VERTEX
  5
5E9
  8
LAYER_1
 10
13.81863321641037
 20
9.680019674013316
 30
0.0
  0
VERTEX
  5
5EA
  8
LAYER_1
 10
13.82815870308429
 20
9.680360709746221
 30
0.0
  0
VERTEX
  5
5EB
  8
LAYER_1
 10
13.83798323431526
 20
9.680213482153388
 30
0.0
  0
VERTEX
  5
5EC
  8
LAYER_1
 10
13.84777446172391
 20
9.679567254149852
 30
0.0
  0
VERTEX
  5
5ED
  8
LAYER_1
 10
13.85720003693087
 20
9.678411288650635
 30
0.0
  0
VERTEX
  5
5EE
  8
LAYER_1
 10
13.86592761155679
 20
9.676734848570765
 30
0.0
  0
VERTEX
  5
5EF
  8
LAYER_1
 10
13.87362483722229
 20
9.674527196825276
 30
0.0
  0
VERTEX
  5
5F0
  8
LAYER_1
 10
13.88051854232604
 20
9.671742738548653
 30
0.0
  0
VERTEX
  5
5F1
  8
LAYER_1
 10
13.88719795265533
 20
9.668319705816607
 30
0.0
  0
VERTEX
  5
5F2
  8
LAYER_1
 10
13.89361231698683
 20
9.664314871706072
 30
0.0
  0
VERTEX
  5
5F3
  8
LAYER_1
 10
13.89971088409716
 20
9.659785009293982
 30
0.0
  0
VERTEX
  5
5F4
  8
LAYER_1
 10
13.90544290276297
 20
9.65478689165727
 30
0.0
  0
VERTEX
  5
5F5
  8
LAYER_1
 10
13.91075762176092
 20
9.649377291872872
 30
0.0
  0
VERTEX
  5
5F6
  8
LAYER_1
 10
13.91560428986764
 20
9.643612983017722
 30
0.0
  0
VERTEX
  5
5F7
  8
LAYER_1
 10
13.91993215585979
 20
9.637550738168752
 30
0.0
  0
VERTEX
  5
5F8
  8
LAYER_1
 10
13.92510647910271
 20
9.628918372778474
 30
0.0
  0
VERTEX
  5
5F9
  8
LAYER_1
 10
13.92965313982527
 20
9.619803553904966
 30
0.0
  0
VERTEX
  5
5FA
  8
LAYER_1
 10
13.93351652174594
 20
9.610300809308042
 30
0.0
  0
VERTEX
  5
5FB
  8
LAYER_1
 10
13.93664100858322
 20
9.600504666747513
 30
0.0
  0
VERTEX
  5
5FC
  8
LAYER_1
 10
13.93897098405557
 20
9.590509653983194
 30
0.0
  0
VERTEX
  5
5FD
  8
LAYER_1
 10
13.9404508318815
 20
9.580410298774897
 30
0.0
  0
VERTEX
  5
5FE
  8
LAYER_1
 10
13.94102493577948
 20
9.570301128882438
 30
0.0
  0
VERTEX
  5
5FF
  8
LAYER_1
 10
13.94063767946799
 20
9.560276672065626
 30
0.0
  0
VERTEX
  5
600
  8
LAYER_1
 10
13.93944662839288
 20
9.551502849198352
 30
0.0
  0
VERTEX
  5
601
  8
LAYER_1
 10
13.93745661990436
 20
9.54275883969643
 30
0.0
  0
VERTEX
  5
602
  8
LAYER_1
 10
13.93470246789355
 20
9.53414566367028
 30
0.0
  0
VERTEX
  5
603
  8
LAYER_1
 10
13.93121898625163
 20
9.52576434123032
 30
0.0
  0
VERTEX
  5
604
  8
LAYER_1
 10
13.92704098886973
 20
9.517715892486969
 30
0.0
  0
VERTEX
  5
605
  8
LAYER_1
 10
13.922203289639
 20
9.510101337550644
 30
0.0
  0
VERTEX
  5
606
  8
LAYER_1
 10
13.91674070245059
 20
9.503021696531768
 30
0.0
  0
VERTEX
  5
607
  8
LAYER_1
 10
13.91068804119566
 20
9.496577989540757
 30
0.0
  0
VERTEX
  5
608
  8
LAYER_1
 10
13.90448303357307
 20
9.491339509155821
 30
0.0
  0
VERTEX
  5
609
  8
LAYER_1
 10
13.89768666008541
 20
9.486860644638446
 30
0.0
  0
VERTEX
  5
60A
  8
LAYER_1
 10
13.89040805573066
 20
9.483055990336153
 30
0.0
  0
VERTEX
  5
60B
  8
LAYER_1
 10
13.88275635550675
 20
9.479840140596473
 30
0.0
  0
VERTEX
  5
60C
  8
LAYER_1
 10
13.87484069441166
 20
9.477127689766931
 30
0.0
  0
VERTEX
  5
60D
  8
LAYER_1
 10
13.86677020744333
 20
9.474833232195051
 30
0.0
  0
VERTEX
  5
60E
  8
LAYER_1
 10
13.85060129587881
 20
9.471156674214397
 30
0.0
  0
VERTEX
  5
60F
  8
LAYER_1
 10
13.84069241838818
 20
9.469735968826987
 30
0.0
  0
VERTEX
  5
610
  8
LAYER_1
 10
13.83063491546209
 20
9.469354011235186
 30
0.0
  0
VERTEX
  5
611
  8
LAYER_1
 10
13.82056060274435
 20
9.469873385132992
 30
0.0
  0
VERTEX
  5
612
  8
LAYER_1
 10
13.81060129587881
 20
9.471156674214397
 30
0.0
  0
VERTEX
  5
613
  8
LAYER_1
 10
13.79612841085754
 20
9.47364641890518
 30
0.0
  0
VERTEX
  5
614
  8
LAYER_1
 10
13.78885732190666
 20
9.47516154605454
 30
0.0
  0
VERTEX
  5
615
  8
LAYER_1
 10
13.781686258923
 20
9.476997015529935
 30
0.0
  0
VERTEX
  5
616
  8
LAYER_1
 10
13.77470756460212
 20
9.479257956673901
 30
0.0
  0
VERTEX
  5
617
  8
LAYER_1
 10
13.76801358163954
 20
9.482049498828985
 30
0.0
  0
VERTEX
  5
618
  8
LAYER_1
 10
13.76169665273081
 20
9.485476771337725
 30
0.0
  0
VERTEX
  5
619
  8
LAYER_1
 10
13.75584912057147
 20
9.48964490354266
 30
0.0
  0
VERTEX
  5
61A
  8
LAYER_1
 10
13.75256033965802
 20
9.492587468440838
 30
0.0
  0
VERTEX
  5
61B
  8
LAYER_1
 10
13.7494266260287
 20
9.495896730507965
 30
0.0
  0
VERTEX
  5
61C
  8
LAYER_1
 10
13.74648069135589
 20
9.499542718064633
 30
0.0
  0
VERTEX
  5
61D
  8
LAYER_1
 10
13.74375524731199
 20
9.503495459431445
 30
0.0
  0
VERTEX
  5
61E
  8
LAYER_1
 10
13.7412830055694
 20
9.507724982929
 30
0.0
  0
VERTEX
  5
61F
  8
LAYER_1
 10
13.73909667780051
 20
9.512201316877897
 30
0.0
  0
VERTEX
  5
620
  8
LAYER_1
 10
13.73722897567773
 20
9.516894489598739
 30
0.0
  0
VERTEX
  5
621
  8
LAYER_1
 10
13.73571261087343
 20
9.521774529412124
 30
0.0
  0
VERTEX
  5
622
  8
LAYER_1
 10
13.73352284563082
 20
9.531894701900029
 30
0.0
  0
VERTEX
  5
623
  8
LAYER_1
 10
13.73252395166439
 20
9.536694076251951
 30
0.0
  0
VERTEX
  5
624
  8
LAYER_1
 10
13.73133437520756
 20
9.541059071099728
 30
0.0
  0
VERTEX
  5
625
  8
LAYER_1
 10
13.7297631100651
 20
9.544794257761271
 30
0.0
  0
VERTEX
  5
626
  8
LAYER_1
 10
13.72761915004175
 20
9.547704207554485
 30
0.0
  0
VERTEX
  5
627
  8
LAYER_1
 10
13.72627272001374
 20
9.548788647162318
 30
0.0
  0
VERTEX
  5
628
  8
LAYER_1
 10
13.72471148894229
 20
9.549593491797284
 30
0.0
  0
VERTEX
  5
629
  8
LAYER_1
 10
13.722911581053
 20
9.55009431287412
 30
0.0
  0
VERTEX
  5
62A
  8
LAYER_1
 10
13.72084912057147
 20
9.55026668180757
 30
0.0
  0
VERTEX
  5
62B
  8
LAYER_1
 10
13.69198974324151
 20
9.549984985273476
 30
0.0
  0
VERTEX
  5
62C
  8
LAYER_1
 10
13.66385278346685
 20
9.549514989922066
 30
0.0
  0
SEQEND
  5
62D
  8
LAYER_1
  0
POLYLINE
  5
6A
  8
LAYER_1
 66
     1
 10
0.0
 20
0.0
 30
0.0
  0
VERTEX
  5
62E
  8
LAYER_1
 10
13.22999982449176
 20
9.605936588213881
 30
0.0
  0
VERTEX
  5
62F
  8
LAYER_1
 10
13.2175689711073
 20
9.603817445051515
 30
0.0
  0
VERTEX
  5
630
  8
LAYER_1
 10
13.2051337866267
 20
9.601732563135757
 30
0.0
  0
VERTEX
  5
631
  8
LAYER_1
 10
13.19284991211983
 20
9.599181577821135
 30
0.0
  0
VERTEX
  5
632
  8
LAYER_1
 10
13.18681335394088
 20
9.597574932437544
 30
0.0
  0
VERTEX
  5
633
  8
LAYER_1
 10
13.18087298865656
 20
9.595664124462187
 30
0.0
  0
VERTEX
  5
634
  8
LAYER_1
 10
13.17359099595201
 20
9.593428919480276
 30
0.0
  0
VERTEX
  5
635
  8
LAYER_1
 10
13.16598968775395
 20
9.590868082855721
 30
0.0
  0
VERTEX
  5
636
  8
LAYER_1
 10
13.16255835120093
 20
9.589217641058926
 30
0.0
  0
VERTEX
  5
637
  8
LAYER_1
 10
13.15963405880183
 20
9.587188297409238
 30
0.0
  0
VERTEX
  5
638
  8
LAYER_1
 10
13.15741243489909
 20
9.58468088725925
 30
0.0
  0
VERTEX
  5
639
  8
LAYER_1
 10
13.15608910383514
 20
9.58159624596155
 30
0.0
  0
VERTEX
  5
63A
  8
LAYER_1
 10
13.15595549822429
 20
9.579097515024898
 30
0.0
  0
VERTEX
  5
63B
  8
LAYER_1
 10
13.15665971914026
 20
9.576714910543018
 30
0.0
  0
VERTEX
  5
63C
  8
LAYER_1
 10
13.15803964564112
 20
9.574456801532886
 30
0.0
  0
VERTEX
  5
63D
  8
LAYER_1
 10
13.15993315678494
 20
9.572331557011479
 30
0.0
  0
VERTEX
  5
63E
  8
LAYER_1
 10
13.16461244923381
 20
9.568513137502757
 30
0.0
  0
VERTEX
  5
63F
  8
LAYER_1
 10
13.16940062895149
 20
9.565326604152679
 30
0.0
  0
VERTEX
  5
640
  8
LAYER_1
 10
13.17373563680589
 20
9.562903423522775
 30
0.0
  0
VERTEX
  5
641
  8
LAYER_1
 10
13.17831446131649
 20
9.560990945972112
 30
0.0
  0
VERTEX
  5
642
  8
LAYER_1
 10
13.18308585433763
 20
9.559495117875983
 30
0.0
  0
VERTEX
  5
643
  8
LAYER_1
 10
13.18799856772363
 20
9.558321885609681
 30
0.0
  0
VERTEX
  5
644
  8
LAYER_1
 10
13.19804296300758
 20
9.556566994067726
 30
0.0
  0
VERTEX
  5
645
  8
LAYER_1
 10
13.20803766200305
 20
9.554973842348579
 30
0.0
  0
VERTEX
  5
646
  8
LAYER_1
 10
13.22258758694685
 20
9.552819624062382
 30
0.0
  0
VERTEX
  5
647
  8
LAYER_1
 10
13.23583098674618
 20
9.551581788865006
 30
0.0
  0
VERTEX
  5
648
  8
LAYER_1
 10
13.24913150453989
 20
9.550675267302788
 30
0.0
  0
VERTEX
  5
649
  8
LAYER_1
 10
13.26385278346685
 20
9.549514989922066
 30
0.0
  0
SEQEND
  5
64A
  8
LAYER_1
  0
POLYLINE
  5
6B
  8
LAYER_1
 66
     1
 10
0.0
 20
0.0
 30
0.0
 70
     1
  0
VERTEX
  5
64B
  8
LAYER_1
 10
13.8269
 20
9.6311
 30
0.0
 42
0.4142135623730951
  0
VERTEX
  5
64C
  8
LAYER_1
 10
13.7694
 20
9.5736
 30
0.0
 42
0.4142135623730951
  0
VERTEX
  5
64D
  8
LAYER_1
 10
13.8269
 20
9.516100000000002
 30
0.0
 42
0.4142135623730951
  0
VERTEX
  5
64E
  8
LAYER_1
 10
13.8844
 20
9.5736
 30
0.0
 42
0.4142135623730951
  0
SEQEND
  5
64F
  8
LAYER_1
  0
POLYLINE
  5
6C
  8
LAYER_1
 66
     1
 10
0.0
 20
0.0
 30
0.0
 70
     1
  0
VERTEX
  5
650
  8
LAYER_1
 10
5.7675
 20
8.00964508854662
 30
0.0
 42
0.4142135623730951
  0
VERTEX
  5
651
  8
LAYER_1
 10
5.334
 20
7.576145088546619
 30
0.0
 42
0.4142135623730951
  0
VERTEX
  5
652
  8
LAYER_1
 10
5.7675
 20
7.14264508854662
 30
0.0
 42
0.4142135623730951
  0
VERTEX
  5
653
  8
LAYER_1
 10
6.201000000000001
 20
7.576145088546619
 30
0.0
 42
0.4142135623730951
  0
SEQEND
  5
654
  8
LAYER_1
  0
POLYLINE
  5
6D
  8
LAYER_1
 66
     1
 10
0.0
 20
0.0
 30
0.0
  0
VERTEX
  5
655
  8
LAYER_1
 10
15.66621292682197
 20
8.071018616043725
 30
0.0
  0
VERTEX
  5
656
  8
LAYER_1
 10
15.65131256170563
 20
8.064788774384622
 30
0.0
  0
VERTEX
  5
657
  8
LAYER_1
 10
15.63669959176222
 20
8.058026281698703
 30
0.0
  0
VERTEX
  5
658
  8
LAYER_1
 10
15.6223861906569
 20
8.050743311651136
 30
0.0
  0
VERTEX
  5
659
  8
LAYER_1
 10
15.60838453205483
 20
8.042952037907089
 30
0.0
  0
VERTEX
  5
65A
  8
LAYER_1
 10
15.5947067896212
 20
8.03466463413173
 30
0.0
  0
VERTEX
  5
65B
  8
LAYER_1
 10
15.58136513702116
 20
8.025893273990228
 30
0.0
  0
VERTEX
  5
65C
  8
LAYER_1
 10
15.56837174791988
 20
8.01665013114775
 30
0.0
  0
VERTEX
  5
65D
  8
LAYER_1
 10
15.55573879598253
 20
8.006947379269466
 30
0.0
  0
VERTEX
  5
65E
  8
LAYER_1
 10
15.54347845487429
 20
7.996797192020546
 30
0.0
  0
VERTEX
  5
65F
  8
LAYER_1
 10
15.53160289826032
 20
7.986211743066157
 30
0.0
  0
VERTEX
  5
660
  8
LAYER_1
 10
15.52012429980578
 20
7.975203206071468
 30
0.0
  0
VERTEX
  5
661
  8
LAYER_1
 10
15.50905483317585
 20
7.963783754701648
 30
0.0
  0
VERTEX
  5
662
  8
LAYER_1
 10
15.4984066720357
 20
7.951965562621865
 30
0.0
  0
VERTEX
  5
663
  8
LAYER_1
 10
15.4881919900505
 20
7.939760803497287
 30
0.0
  0
VERTEX
  5
664
  8
LAYER_1
 10
15.4784229608854
 20
7.927181650993083
 30
0.0
  0
VERTEX
  5
665
  8
LAYER_1
 10
15.46911175820559
 20
7.914240278774423
 30
0.0
  0
VERTEX
  5
666
  8
LAYER_1
 10
15.46027055567623
 20
7.900948860506475
 30
0.0
  0
VERTEX
  5
667
  8
LAYER_1
 10
15.45191152696248
 20
7.887319569854405
 30
0.0
  0
VERTEX
  5
668
  8
LAYER_1
 10
15.44404684572953
 20
7.873364580483385
 30
0.0
  0
VERTEX
  5
669
  8
LAYER_1
 10
15.43668868564253
 20
7.859096066058582
 30
0.0
  0
VERTEX
  5
66A
  8
LAYER_1
 10
15.42984922036665
 20
7.844526200245165
 30
0.0
  0
VERTEX
  5
66B
  8
LAYER_1
 10
15.42354062356707
 20
7.829667156708302
 30
0.0
  0
VERTEX
  5
66C
  8
LAYER_1
 10
15.41777506890895
 20
7.814531109113162
 30
0.0
  0
VERTEX
  5
66D
  8
LAYER_1
 10
15.41256473005746
 20
7.799130231124914
 30
0.0
  0
VERTEX
  5
66E
  8
LAYER_1
 10
15.40792178067777
 20
7.783476696408726
 30
0.0
  0
VERTEX
  5
66F
  8
LAYER_1
 10
15.40385839443504
 20
7.767582678629767
 30
0.0
  0
VERTEX
  5
670
  8
LAYER_1
 10
15.40038674499445
 20
7.751460351453203
 30
0.0
  0
VERTEX
  5
671
  8
LAYER_1
 10
15.39751900602117
 20
7.735121888544207
 30
0.0
  0
VERTEX
  5
672
  8
LAYER_1
 10
15.39526735118036
 20
7.718579463567946
 30
0.0
  0
VERTEX
  5
673
  8
LAYER_1
 10
15.39364395413719
 20
7.701845250189588
 30
0.0
  0
VERTEX
  5
674
  8
LAYER_1
 10
15.39266098855683
 20
7.684931422074301
 30
0.0
  0
VERTEX
  5
675
  8
LAYER_1
 10
15.39233062810445
 20
7.667850152887254
 30
0.0
 42
0.4142135623730951
  0
VERTEX
  5
676
  8
LAYER_1
 10
15.82583062810446
 20
7.234350152887255
 30
0.0
 42
0.4142135623730951
  0
VERTEX
  5
677
  8
LAYER_1
 10
16.25933062810446
 20
7.667850152887254
 30
0.0
  0
VERTEX
  5
678
  8
LAYER_1
 10
16.25900825001177
 20
7.684695601212047
 30
0.0
  0
VERTEX
  5
679
  8
LAYER_1
 10
16.2580487082854
 20
7.701386590441832
 30
0.0
  0
VERTEX
  5
67A
  8
LAYER_1
 10
16.25646339175285
 20
7.717910838330917
 30
0.0
  0
VERTEX
  5
67B
  8
LAYER_1
 10
16.25426368924165
 20
7.734256062633615
 30
0.0
  0
VERTEX
  5
67C
  8
LAYER_1
 10
16.25146098957933
 20
7.750409981104236
 30
0.0
  0
VERTEX
  5
67D
  8
LAYER_1
 10
16.24806668159339
 20
7.766360311497087
 30
0.0
  0
VERTEX
  5
67E
  8
LAYER_1
 10
16.24409215411136
 20
7.782094771566481
 30
0.0
  0
VERTEX
  5
67F
  8
LAYER_1
 10
16.23954879596077
 20
7.797601079066728
 30
0.0
  0
VERTEX
  5
680
  8
LAYER_1
 10
16.23444799596912
 20
7.812866951752136
 30
0.0
  0
VERTEX
  5
681
  8
LAYER_1
 10
16.22880114296395
 20
7.827880107377016
 30
0.0
  0
VERTEX
  5
682
  8
LAYER_1
 10
16.22261962577277
 20
7.84262826369568
 30
0.0
  0
VERTEX
  5
683
  8
LAYER_1
 10
16.21591483322311
 20
7.857099138462434
 30
0.0
  0
VERTEX
  5
684
  8
LAYER_1
 10
16.20869815414247
 20
7.871280449431593
 30
0.0
  0
VERTEX
  5
685
  8
LAYER_1
 10
16.2009809773584
 20
7.885159914357462
 30
0.0
  0
VERTEX
  5
686
  8
LAYER_1
 10
16.1927746916984
 20
7.898725250994356
 30
0.0
  0
VERTEX
  5
687
  8
LAYER_1
 10
16.18409068598999
 20
7.911964177096582
 30
0.0
  0
VERTEX
  5
688
  8
LAYER_1
 10
16.17494034906069
 20
7.92486441041845
 30
0.0
  0
VERTEX
  5
689
  8
LAYER_1
 10
16.16533506973803
 20
7.937413668714271
 30
0.0
  0
VERTEX
  5
68A
  8
LAYER_1
 10
16.15528623684953
 20
7.949599669738356
 30
0.0
  0
VERTEX
  5
68B
  8
LAYER_1
 10
16.14480523922271
 20
7.961410131245012
 30
0.0
  0
VERTEX
  5
68C
  8
LAYER_1
 10
16.13390346568509
 20
7.972832770988553
 30
0.0
  0
VERTEX
  5
68D
  8
LAYER_1
 10
16.12259230506418
 20
7.983855306723286
 30
0.0
  0
VERTEX
  5
68E
  8
LAYER_1
 10
16.11088314618751
 20
7.994465456203522
 30
0.0
  0
VERTEX
  5
68F
  8
LAYER_1
 10
16.0987873778826
 20
8.004650937183571
 30
0.0
  0
VERTEX
  5
690
  8
LAYER_1
 10
16.08631638897698
 20
8.014399467417743
 30
0.0
  0
VERTEX
  5
691
  8
LAYER_1
 10
16.07348156829815
 20
8.023698764660349
 30
0.0
  0
VERTEX
  5
692
  8
LAYER_1
 10
16.06029430467363
 20
8.032536546665698
 30
0.0
  0
VERTEX
  5
693
  8
LAYER_1
 10
16.04676598693096
 20
8.0409005311881
 30
0.0
  0
VERTEX
  5
694
  8
LAYER_1
 10
16.03290800389766
 20
8.048778435981866
 30
0.0
  0
VERTEX
  5
695
  8
LAYER_1
 10
16.01873174440123
 20
8.056157978801306
 30
0.0
  0
VERTEX
  5
696
  8
LAYER_1
 10
16.00424859726921
 20
8.06302687740073
 30
0.0
  0
VERTEX
  5
697
  8
LAYER_1
 10
15.98946995132911
 20
8.06937284953445
 30
0.0
  0
SEQEND
  5
698
  8
LAYER_1
  0
POLYLINE
  5
6E
  8
LAYER_1
 66
     1
 10
0.0
 20
0.0
 30
0.0
  0
VERTEX
  5
699
  8
LAYER_1
 10
15.17517604080561
 20
8.056626130063206
 30
0.0
  0
VERTEX
  5
69A
  8
LAYER_1
 10
15.16404293592818
 20
8.036145625002764
 30
0.0
  0
VERTEX
  5
69B
  8
LAYER_1
 10
15.15353664919136
 20
8.01528524206434
 30
0.0
  0
VERTEX
  5
69C
  8
LAYER_1
 10
15.14366979861024
 20
7.994057599263053
 30
0.0
  0
VERTEX
  5
69D
  8
LAYER_1
 10
15.13445500219996
 20
7.972475314614019
 30
0.0
  0
VERTEX
  5
69E
  8
LAYER_1
 10
15.12590487797564
 20
7.950551006132354
 30
0.0
  0
VERTEX
  5
69F
  8
LAYER_1
 10
15.11803204395238
 20
7.928297291833175
 30
0.0
  0
VERTEX
  5
6A0
  8
LAYER_1
 10
15.1108491181453
 20
7.905726789731599
 30
0.0
  0
VERTEX
  5
6A1
  8
LAYER_1
 10
15.10436871856952
 20
7.882852117842743
 30
0.0
  0
VERTEX
  5
6A2
  8
LAYER_1
 10
15.09860346324017
 20
7.859685894181724
 30
0.0
  0
VERTEX
  5
6A3
  8
LAYER_1
 10
15.09356597017235
 20
7.83624073676366
 30
0.0
  0
VERTEX
  5
6A4
  8
LAYER_1
 10
15.08926885738118
 20
7.812529263603666
 30
0.0
  0
VERTEX
  5
6A5
  8
LAYER_1
 10
15.08572474288178
 20
7.788564092716859
 30
0.0
  0
VERTEX
  5
6A6
  8
LAYER_1
 10
15.08294624468926
 20
7.764357842118357
 30
0.0
  0
VERTEX
  5
6A7
  8
LAYER_1
 10
15.08094598081875
 20
7.739923129823276
 30
0.0
  0
VERTEX
  5
6A8
  8
LAYER_1
 10
15.07973656928536
 20
7.715272573846732
 30
0.0
  0
VERTEX
  5
6A9
  8
LAYER_1
 10
15.0793306281042
 20
7.690418792203845
 30
0.0
 42
0.4142135623730951
  0
VERTEX
  5
6AA
  8
LAYER_1
 10
15.8258306281042
 20
6.943918792203845
 30
0.0
 42
0.4142135623730951
  0
VERTEX
  5
6AB
  8
LAYER_1
 10
16.5723306281042
 20
7.690418792203845
 30
0.0
  0
VERTEX
  5
6AC
  8
LAYER_1
 10
16.57193955675416
 20
7.714632594258552
 30
0.0
  0
VERTEX
  5
6AD
  8
LAYER_1
 10
16.57077251719317
 20
7.73871392190385
 30
0.0
  0
VERTEX
  5
6AE
  8
LAYER_1
 10
16.56883877115498
 20
7.762647509073635
 30
0.0
  0
VERTEX
  5
6AF
  8
LAYER_1
 10
16.56614758037332
 20
7.786418089701798
 30
0.0
  0
VERTEX
  5
6B0
  8
LAYER_1
 10
16.56270820658191
 20
7.810010397722234
 30
0.0
  0
VERTEX
  5
6B1
  8
LAYER_1
 10
16.55852991151449
 20
7.833409167068831
 30
0.0
  0
VERTEX
  5
6B2
  8
LAYER_1
 10
16.55362195690481
 20
7.856599131675488
 30
0.0
  0
VERTEX
  5
6B3
  8
LAYER_1
 10
16.54799360448657
 20
7.879565025476091
 30
0.0
  0
VERTEX
  5
6B4
  8
LAYER_1
 10
16.54165411599352
 20
7.902291582404539
 30
0.0
  0
VERTEX
  5
6B5
  8
LAYER_1
 10
16.5346127531594
 20
7.924763536394719
 30
0.0
  0
VERTEX
  5
6B6
  8
LAYER_1
 10
16.52687877771793
 20
7.946965621380528
 30
0.0
  0
VERTEX
  5
6B7
  8
LAYER_1
 10
16.51846145140285
 20
7.968882571295858
 30
0.0
  0
VERTEX
  5
6B8
  8
LAYER_1
 10
16.50937003594789
 20
7.990499120074601
 30
0.0
  0
VERTEX
  5
6B9
  8
LAYER_1
 10
16.49961379308677
 20
8.011800001650649
 30
0.0
  0
VERTEX
  5
6BA
  8
LAYER_1
 10
16.48920198455325
 20
8.032769949957896
 30
0.0
  0
VERTEX
  5
6BB
  8
LAYER_1
 10
16.47814387208103
 20
8.053393698930234
 30
0.0
  0
SEQEND
  5
6BC
  8
LAYER_1
  0
POLYLINE
  5
6F
  8
LAYER_1
 66
     1
 10
0.0
 20
0.0
 30
0.0
  0
VERTEX
  5
6BD
  8
LAYER_1
 10
14.91647854807311
 20
8.036562477056986
 30
0.0
  0
VERTEX
  5
6BE
  8
LAYER_1
 10
14.9080603217459
 20
8.015095699640167
 30
0.0
  0
VERTEX
  5
6BF
  8
LAYER_1
 10
14.90013536674488
 20
7.993386463659812
 30
0.0
  0
VERTEX
  5
6C0
  8
LAYER_1
 10
14.89271056010957
 20
7.971441646155427
 30
0.0
  0
VERTEX
  5
6C1
  8
LAYER_1
 10
14.88579277887945
 20
7.94926812416652
 30
0.0
  0
VERTEX
  5
6C2
  8
LAYER_1
 10
14.87938890009405
 20
7.926872774732596
 30
0.0
  0
VERTEX
  5
6C3
  8
LAYER_1
 10
14.87350580079286
 20
7.904262474893162
 30
0.0
  0
VERTEX
  5
6C4
  8
LAYER_1
 10
14.8681503580154
 20
7.881444101687727
 30
0.0
  0
VERTEX
  5
6C5
  8
LAYER_1
 10
14.86332944880117
 20
7.858424532155794
 30
0.0
  0
VERTEX
  5
6C6
  8
LAYER_1
 10
14.85904995018968
 20
7.835210643336872
 30
0.0
  0
VERTEX
  5
6C7
  8
LAYER_1
 10
14.85531873922044
 20
7.811809312270465
 30
0.0
  0
VERTEX
  5
6C8
  8
LAYER_1
 10
14.85214269293294
 20
7.788227415996081
 30
0.0
  0
VERTEX
  5
6C9
  8
LAYER_1
 10
14.8495286883667
 20
7.764471831553228
 30
0.0
  0
VERTEX
  5
6CA
  8
LAYER_1
 10
14.84748360256122
 20
7.740549435981412
 30
0.0
  0
VERTEX
  5
6CB
  8
LAYER_1
 10
14.84601431255602
 20
7.716467106320136
 30
0.0
  0
VERTEX
  5
6CC
  8
LAYER_1
 10
14.84512769539059
 20
7.692231719608911
 30
0.0
  0
VERTEX
  5
6CD
  8
LAYER_1
 10
14.84483062810445
 20
7.667850152887243
 30
0.0
 42
0.4142135623730951
  0
VERTEX
  5
6CE
  8
LAYER_1
 10
15.82583062810445
 20
6.686850152887243
 30
0.0
 42
0.4142135623730951
  0
VERTEX
  5
6CF
  8
LAYER_1
 10
16.80683062810445
 20
7.667850152887243
 30
0.0
  0
VERTEX
  5
6D0
  8
LAYER_1
 10
16.80653276147084
 20
7.692086610843394
 30
0.0
  0
VERTEX
  5
6D1
  8
LAYER_1
 10
16.80564282602966
 20
7.716221777963012
 30
0.0
  0
VERTEX
  5
6D2
  8
LAYER_1
 10
16.80416631847035
 20
7.740246943935707
 30
0.0
  0
VERTEX
  5
6D3
  8
LAYER_1
 10
16.80210873548234
 20
7.764153398451087
 30
0.0
  0
VERTEX
  5
6D4
  8
LAYER_1
 10
16.79947557375509
 20
7.787932431198757
 30
0.0
  0
VERTEX
  5
6D5
  8
LAYER_1
 10
16.79627232997803
 20
7.811575331868326
 30
0.0
  0
VERTEX
  5
6D6
  8
LAYER_1
 10
16.79250450084061
 20
7.835073390149402
 30
0.0
  0
VERTEX
  5
6D7
  8
LAYER_1
 10
16.78817758303228
 20
7.858417895731593
 30
0.0
  0
VERTEX
  5
6D8
  8
LAYER_1
 10
16.78329707324247
 20
7.881600138304505
 30
0.0
  0
VERTEX
  5
6D9
  8
LAYER_1
 10
16.77786846816063
 20
7.904611407557748
 30
0.0
  0
VERTEX
  5
6DA
  8
LAYER_1
 10
16.7718972644762
 20
7.927442993180929
 30
0.0
  0
VERTEX
  5
6DB
  8
LAYER_1
 10
16.76538895887863
 20
7.950086184863656
 30
0.0
  0
VERTEX
  5
6DC
  8
LAYER_1
 10
16.75834904805737
 20
7.972532272295535
 30
0.0
  0
VERTEX
  5
6DD
  8
LAYER_1
 10
16.75078302870184
 20
7.994772545166175
 30
0.0
  0
VERTEX
  5
6DE
  8
LAYER_1
 10
16.7426963975015
 20
8.016798293165184
 30
0.0
  0
VERTEX
  5
6DF
  8
LAYER_1
 10
16.7340946511458
 20
8.038600805982165
 30
0.0
  0
SEQEND
  5
6E0
  8
LAYER_1
  0
POLYLINE
  5
70
  8
LAYER_1
 66
     1
 10
0.0
 20
0.0
 30
0.0
  0
VERTEX
  5
6E1
  8
LAYER_1
 10
10.57736754751454
 20
9.995500879069384
 30
0.0
  0
VERTEX
  5
6E2
  8
LAYER_1
 10
10.73263978601362
 20
10.18327195818454
 30
0.0
  0
SEQEND
  5
6E3
  8
LAYER_1
  0
POLYLINE
  5
71
  8
LAYER_1
 66
     1
 10
0.0
 20
0.0
 30
0.0
  0
VERTEX
  5
6E4
  8
LAYER_1
 10
10.76874960892038
 20
10.00994480823209
 30
0.0
  0
VERTEX
  5
6E5
  8
LAYER_1
 10
10.86874960892038
 20
10.18314988898898
 30
0.0
  0
SEQEND
  5
6E6
  8
LAYER_1
  0
POLYLINE
  5
72
  8
LAYER_1
 66
     1
 10
0.0
 20
0.0
 30
0.0
  0
VERTEX
  5
6E7
  8
LAYER_1
 10
10.76874960892038
 20
10.00994480823209
 30
0.0
  0
VERTEX
  5
6E8
  8
LAYER_1
 10
10.94568774116351
 20
9.991889896778707
 30
0.0
  0
SEQEND
  5
6E9
  8
LAYER_1
  0
POLYLINE
  5
73
  8
LAYER_1
 66
     1
 10
0.0
 20
0.0
 30
0.0
  0
VERTEX
  5
6EA
  8
LAYER_1
 10
10.57736754751454
 20
9.995500879069384
 30
0.0
  0
VERTEX
  5
6EB
  8
LAYER_1
 10
10.57283279856711
 20
9.994427125865073
 30
0.0
  0
VERTEX
  5
6EC
  8
LAYER_1
 10
10.56867036904068
 20
9.992807279918516
 30
0.0
  0
VERTEX
  5
6ED
  8
LAYER_1
 10
10.56488023060412
 20
9.990641327742763
 30
0.0
  0
VERTEX
  5
6EE
  8
LAYER_1
 10
10.56146235492631
 20
9.987929255850856
 30
0.0
  0
VERTEX
  5
6EF
  8
LAYER_1
 10
10.55807831709887
 20
9.984221138955718
 30
0.0
  0
VERTEX
  5
6F0
  8
LAYER_1
 10
10.5552741439009
 20
9.979986790528617
 30
0.0
  0
VERTEX
  5
6F1
  8
LAYER_1
 10
10.55306407621564
 20
9.975393547743714
 30
0.0
  0
VERTEX
  5
6F2
  8
LAYER_1
 10
10.55146235492631
 20
9.970608747775167
 30
0.0
  0
VERTEX
  5
6F3
  8
LAYER_1
 10
10.55089230919793
 20
9.968109591391524
 30
0.0
  0
VERTEX
  5
6F4
  8
LAYER_1
 10
10.5505886335491
 20
9.965523397169944
 30
0.0
  0
VERTEX
  5
6F5
  8
LAYER_1
 10
10.55072181858888
 20
9.962979878250975
 30
0.0
  0
VERTEX
  5
6F6
  8
LAYER_1
 10
10.55146235492631
 20
9.960608747775167
 30
0.0
  0
VERTEX
  5
6F7
  8
LAYER_1
 10
10.55350806861642
 20
9.956939982051313
 30
0.0
  0
VERTEX
  5
6F8
  8
LAYER_1
 10
10.55600449049936
 20
9.953354792008305
 30
0.0
  0
VERTEX
  5
6F9
  8
LAYER_1
 10
10.55889661439063
 20
9.949978189212615
 30
0.0
  0
VERTEX
  5
6FA
  8
LAYER_1
 10
10.56212943410573
 20
9.946935185230718
 30
0.0
  0
VERTEX
  5
6FB
  8
LAYER_1
 10
10.56564794346017
 20
9.944350791629084
 30
0.0
  0
VERTEX
  5
6FC
  8
LAYER_1
 10
10.56939713626945
 20
9.94235001997419
 30
0.0
  0
VERTEX
  5
6FD
  8
LAYER_1
 10
10.57332200634907
 20
9.941057881832508
 30
0.0
  0
VERTEX
  5
6FE
  8
LAYER_1
 10
10.57736754751454
 20
9.940599388770508
 30
0.0
  0
VERTEX
  5
6FF
  8
LAYER_1
 10
10.66739371299657
 20
9.940193472142901
 30
0.0
  0
VERTEX
  5
700
  8
LAYER_1
 10
10.71239698368182
 20
9.94014273256445
 30
0.0
  0
VERTEX
  5
701
  8
LAYER_1
 10
10.75736754751454
 20
9.940599388770508
 30
0.0
  0
VERTEX
  5
702
  8
LAYER_1
 10
10.79679960328524
 20
9.94042227150541
 30
0.0
  0
VERTEX
  5
703
  8
LAYER_1
 10
10.83634383957729
 20
9.939891020999468
 30
0.0
  0
VERTEX
  5
704
  8
LAYER_1
 10
10.8560622683579
 20
9.940157662387048
 30
0.0
  0
VERTEX
  5
705
  8
LAYER_1
 10
10.87569383379575
 20
9.941133850391457
 30
0.0
  0
VERTEX
  5
706
  8
LAYER_1
 10
10.89520023306648
 20
9.943085611655043
 30
0.0
  0
VERTEX
  5
707
  8
LAYER_1
 10
10.90489452575656
 20
9.944510465584758
 30
0.0
  0
VERTEX
  5
708
  8
LAYER_1
 10
10.91454316334572
 20
9.94627897282015
 30
0.0
  0
VERTEX
  5
709
  8
LAYER_1
 10
10.92527784863684
 20
9.948354313059971
 30
0.0
  0
VERTEX
  5
70A
  8
LAYER_1
 10
10.93072116585221
 20
9.94953546300944
 30
0.0
  0
VERTEX
  5
70B
  8
LAYER_1
 10
10.93606855791631
 20
9.950963883486398
 30
0.0
  0
VERTEX
  5
70C
  8
LAYER_1
 10
10.94121009368081
 20
9.952753287471682
 30
0.0
  0
VERTEX
  5
70D
  8
LAYER_1
 10
10.94603584199735
 20
9.95501738794613
 30
0.0
  0
VERTEX
  5
70E
  8
LAYER_1
 10
10.95043587171761
 20
9.957869897890578
 30
0.0
  0
VERTEX
  5
70F
  8
LAYER_1
 10
10.95430025169321
 20
9.96142453028586
 30
0.0
  0
VERTEX
  5
710
  8
LAYER_1
 10
10.95570021509948
 20
9.96351146404243
 30
0.0
  0
VERTEX
  5
711
  8
LAYER_1
 10
10.95657566034168
 20
9.965940744974358
 30
0.0
  0
VERTEX
  5
712
  8
LAYER_1
 10
10.95696044887239
 20
9.968526733127758
 30
0.0
  0
VERTEX
  5
713
  8
LAYER_1
 10
10.95688844214424
 20
9.971083788548752
 30
0.0
  0
VERTEX
  5
714
  8
LAYER_1
 10
10.95629907785409
 20
9.973936733752716
 30
0.0
  0
VERTEX
  5
715
  8
LAYER_1
 10
10.95528013387408
 20
9.97665475365893
 30
0.0
  0
VERTEX
  5
716
  8
LAYER_1
 10
10.9523493957485
 20
9.981811764359193
 30
0.0
  0
VERTEX
  5
717
  8
LAYER_1
 10
10.94888800557561
 20
9.986806314211723
 30
0.0
  0
VERTEX
  5
718
  8
LAYER_1
 10
10.94568774116351
 20
9.991889896778707
 30
0.0
  0
SEQEND
  5
719
  8
LAYER_1
  0
POLYLINE
  5
74
  8
LAYER_1
 66
     1
 10
0.0
 20
0.0
 30
0.0
  0
VERTEX
  5
71A
  8
LAYER_1
 10
10.73263978601362
 20
10.18327195818454
 30
0.0
  0
VERTEX
  5
71B
  8
LAYER_1
 10
10.73166738831799
 20
10.189069701168
 30
0.0
  0
VERTEX
  5
71C
  8
LAYER_1
 10
10.72983549901059
 20
10.19422336634475
 30
0.0
  0
VERTEX
  5
71D
  8
LAYER_1
 10
10.72714410197715
 20
10.19873298814039
 30
0.0
  0
VERTEX
  5
71E
  8
LAYER_1
 10
10.7235931811034
 20
10.20259860098049
 30
0.0
  0
VERTEX
  5
71F
  8
LAYER_1
 10
10.72156380458218
 20
10.20413076124249
 30
0.0
  0
VERTEX
  5
720
  8
LAYER_1
 10
10.71933529687249
 20
10.20534191798018
 30
0.0
  0
VERTEX
  5
721
  8
LAYER_1
 10
10.71440459236351
 20
10.20699423211245
 30
0.0
  0
VERTEX
  5
722
  8
LAYER_1
 10
10.70351435831789
 20
10.20856994161308
 30
0.0
  0
VERTEX
  5
723
  8
LAYER_1
 10
10.69804964668455
 20
10.20926538190065
 30
0.0
  0
VERTEX
  5
724
  8
LAYER_1
 10
10.69290175057971
 20
10.21041390915919
 30
0.0
  0
VERTEX
  5
725
  8
LAYER_1
 10
10.69052392364787
 20
10.21127871242119
 30
0.0
  0
VERTEX
  5
726
  8
LAYER_1
 10
10.68831807895502
 20
10.2124015458483
 30
0.0
  0
VERTEX
  5
727
  8
LAYER_1
 10
10.68631514262011
 20
10.21383066224794
 30
0.0
  0
VERTEX
  5
728
  8
LAYER_1
 10
10.68454604076211
 20
10.21561431442758
 30
0.0
  0
VERTEX
  5
729
  8
LAYER_1
 10
10.68205283156494
 20
10.21919651830265
 30
0.0
  0
VERTEX
  5
72A
  8
LAYER_1
 10
10.68010096806894
 20
10.2232110840604
 30
0.0
  0
VERTEX
  5
72B
  8
LAYER_1
 10
10.67869143254617
 20
10.22754284009221
 30
0.0
  0
VERTEX
  5
72C
  8
LAYER_1
 10
10.67782520726875
 20
10.23207661478949
 30
0.0
  0
VERTEX
  5
72D
  8
LAYER_1
 10
10.67750327450874
 20
10.23669723654361
 30
0.0
  0
VERTEX
  5
72E
  8
LAYER_1
 10
10.67772661653823
 20
10.24128953374595
 30
0.0
  0
VERTEX
  5
72F
  8
LAYER_1
 10
10.67849621562932
 20
10.24573833478789
 30
0.0
  0
VERTEX
  5
730
  8
LAYER_1
 10
10.67981305405408
 20
10.24992846806084
 30
0.0
  0
VERTEX
  5
731
  8
LAYER_1
 10
10.68161576253002
 20
10.25343691225087
 30
0.0
  0
VERTEX
  5
732
  8
LAYER_1
 10
10.68401334062639
 20
10.25656838788083
 30
0.0
  0
VERTEX
  5
733
  8
LAYER_1
 10
10.68689454125459
 20
10.25936937280198
 30
0.0
  0
VERTEX
  5
734
  8
LAYER_1
 10
10.69014811732598
 20
10.2618863448656
 30
0.0
  0
VERTEX
  5
735
  8
LAYER_1
 10
10.69732740744392
 20
10.26625416182527
 30
0.0
  0
VERTEX
  5
736
  8
LAYER_1
 10
10.70466123427126
 20
10.27004366156999
 30
0.0
  0
VERTEX
  5
737
  8
LAYER_1
 10
10.71597658604119
 20
10.27531731594122
 30
0.0
  0
VERTEX
  5
738
  8
LAYER_1
 10
10.72762882559293
 20
10.27985335285346
 30
0.0
  0
VERTEX
  5
739
  8
LAYER_1
 10
10.73955789775825
 20
10.28372937870659
 30
0.0
  0
VERTEX
  5
73A
  8
LAYER_1
 10
10.75170374736891
 20
10.28702299990044
 30
0.0
  0
VERTEX
  5
73B
  8
LAYER_1
 10
10.76400631925667
 20
10.28981182283487
 30
0.0
  0
VERTEX
  5
73C
  8
LAYER_1
 10
10.77640555825329
 20
10.29217345390975
 30
0.0
  0
VERTEX
  5
73D
  8
LAYER_1
 10
10.80125381690017
 20
10.29592556608024
 30
0.0
  0
VERTEX
  5
73E
  8
LAYER_1
 10
10.81302778749487
 20
10.29728650717465
 30
0.0
  0
VERTEX
  5
73F
  8
LAYER_1
 10
10.82482503039183
 20
10.29829662789805
 30
0.0
  0
VERTEX
  5
740
  8
LAYER_1
 10
10.84848093162261
 20
10.29940957528192
 30
0.0
  0
VERTEX
  5
741
  8
LAYER_1
 10
10.87220471765271
 20
10.29955474233199
 30
0.0
  0
VERTEX
  5
742
  8
LAYER_1
 10
10.89597958554234
 20
10.2990224631484
 30
0.0
  0
VERTEX
  5
743
  8
LAYER_1
 10
10.94361535514098
 20
10.2970869024808
 30
0.0
  0
VERTEX
  5
744
  8
LAYER_1
 10
10.9674426509704
 20
10.29626428919707
 30
0.0
  0
VERTEX
  5
745
  8
LAYER_1
 10
10.99125381690017
 20
10.29592556608024
 30
0.0
  0
SEQEND
  5
746
  8
LAYER_1
  0
POLYLINE
  5
75
  8
LAYER_1
 66
     1
 10
0.0
 20
0.0
 30
0.0
 70
     1
  0
VERTEX
  5
747
  8
LAYER_1
 10
10.98166604897465
 20
10.19953690973851
 30
0.0
  0
VERTEX
  5
748
  8
LAYER_1
 10
10.98274801064204
 20
10.19703426511415
 30
0.0
  0
VERTEX
  5
749
  8
LAYER_1
 10
10.98409119152374
 20
10.19480579956174
 30
0.0
  0
VERTEX
  5
74A
  8
LAYER_1
 10
10.98567735565473
 20
10.19283300692984
 30
0.0
  0
VERTEX
  5
74B
  8
LAYER_1
 10
10.98748826707
 20
10.19109738106699
 30
0.0
  0
VERTEX
  5
74C
  8
LAYER_1
 10
10.99171138789326
 20
10.18826360504273
 30
0.0
  0
VERTEX
  5
74D
  8
LAYER_1
 10
10.99661466627338
 20
10.18615642227741
 30
0.0
  0
VERTEX
  5
74E
  8
LAYER_1
 10
11.00205221449017
 20
10.18462778355951
 30
0.0
  0
VERTEX
  5
74F
  8
LAYER_1
 10
11.00787814482349
 20
10.1835296396775
 30
0.0
  0
VERTEX
  5
750
  8
LAYER_1
 10
11.02011160095903
 20
10.18203263957498
 30
0.0
  0
VERTEX
  5
751
  8
LAYER_1
 10
11.03214793291868
 20
10.18048102827758
 30
0.0
  0
VERTEX
  5
752
  8
LAYER_1
 10
11.03772745803214
 20
10.17931462040197
 30
0.0
  0
VERTEX
  5
753
  8
LAYER_1
 10
11.04282003894113
 20
10.17769041209304
 30
0.0
  0
VERTEX
  5
754
  8
LAYER_1
 10
11.0472797879255
 20
10.17546035413925
 30
0.0
  0
VERTEX
  5
755
  8
LAYER_1
 10
11.0492267605334
 20
10.17407186616693
 30
0.0
  0
VERTEX
  5
756
  8
LAYER_1
 10
11.05096081726508
 20
10.17247639732907
 30
0.0
  0
VERTEX
  5
757
  8
LAYER_1
 10
11.05246372215552
 20
10.17065544147424
 30
0.0
  0
VERTEX
  5
758
  8
LAYER_1
 10
11.0537172392397
 20
10.16859049245098
 30
0.0
  0
VERTEX
  5
759
  8
LAYER_1
 10
11.05470313255261
 20
10.16626304410785
 30
0.0
  0
VERTEX
  5
75A
  8
LAYER_1
 10
11.05540316612921
 20
10.16365459029342
 30
0.0
  0
VERTEX
  5
75B
  8
LAYER_1
 10
11.0572013664708
 20
10.15591565239698
 30
0.0
  0
VERTEX
  5
75C
  8
LAYER_1
 10
11.05946650798217
 20
10.14823395655243
 30
0.0
  0
VERTEX
  5
75D
  8
LAYER_1
 10
11.06216343518395
 20
10.14061701057328
 30
0.0
  0
VERTEX
  5
75E
  8
LAYER_1
 10
11.06525699259677
 20
10.13307232227307
 30
0.0
  0
VERTEX
  5
75F
  8
LAYER_1
 10
11.06871202474126
 20
10.12560739946532
 30
0.0
  0
VERTEX
  5
760
  8
LAYER_1
 10
11.07249337613804
 20
10.11822974996354
 30
0.0
  0
VERTEX
  5
761
  8
LAYER_1
 10
11.08089441477098
 20
10.10376630213204
 30
0.0
  0
VERTEX
  5
762
  8
LAYER_1
 10
11.09017886466063
 20
10.08974204128677
 30
0.0
  0
VERTEX
  5
763
  8
LAYER_1
 10
11.10006548197202
 20
10.07621702993593
 30
0.0
  0
VERTEX
  5
764
  8
LAYER_1
 10
11.11027302287015
 20
10.0632513305877
 30
0.0
  0
VERTEX
  5
765
  8
LAYER_1
 10
11.12052024352004
 20
10.05090500575031
 30
0.0
  0
VERTEX
  5
766
  8
LAYER_1
 10
11.12397670925954
 20
10.04701879163409
 30
0.0
  0
VERTEX
  5
767
  8
LAYER_1
 10
11.1278239807486
 20
10.04314820459254
 30
0.0
  0
VERTEX
  5
768
  8
LAYER_1
 10
11.13187929232988
 20
10.03963540245239
 30
0.0
  0
VERTEX
  5
769
  8
LAYER_1
 10
11.13595987834604
 20
10.03682254304034
 30
0.0
  0
VERTEX
  5
76A
  8
LAYER_1
 10
11.13988297313976
 20
10.03505178418311
 30
0.0
  0
VERTEX
  5
76B
  8
LAYER_1
 10
11.14172834706029
 20
10.03466411678341
 30
0.0
  0
VERTEX
  5
76C
  8
LAYER_1
 10
11.1434658110537
 20
10.03466528370742
 30
0.0
  0
VERTEX
  5
76D
  8
LAYER_1
 10
11.14507251941283
 20
10.0350980546835
 30
0.0
  0
VERTEX
  5
76E
  8
LAYER_1
 10
11.14652562643052
 20
10.03600519943998
 30
0.0
  0
VERTEX
  5
76F
  8
LAYER_1
 10
11.1478022863996
 20
10.0374294877052
 30
0.0
  0
VERTEX
  5
770
  8
LAYER_1
 10
11.1488796536129
 20
10.0394136892075
 30
0.0
  0
VERTEX
  5
771
  8
LAYER_1
 10
11.15258187601752
 20
10.04862686773772
 30
0.0
  0
VERTEX
  5
772
  8
LAYER_1
 10
11.15548668505402
 20
10.05701359535823
 30
0.0
  0
VERTEX
  5
773
  8
LAYER_1
 10
11.15768771268909
 20
10.064809205766
 30
0.0
  0
VERTEX
  5
774
  8
LAYER_1
 10
11.15927859088943
 20
10.07224903265797
 30
0.0
  0
VERTEX
  5
775
  8
LAYER_1
 10
11.16035295162174
 20
10.07956840973111
 30
0.0
  0
VERTEX
  5
776
  8
LAYER_1
 10
11.16100442685272
 20
10.08700267068236
 30
0.0
  0
VERTEX
  5
777
  8
LAYER_1
 10
11.16141324867746
 20
10.10315717900701
 30
0.0
  0
VERTEX
  5
778
  8
LAYER_1
 10
11.16175191120598
 20
10.14167236355849
 30
0.0
  0
VERTEX
  5
779
  8
LAYER_1
 10
11.1619753861046
 20
10.17841958323779
 30
0.0
  0
VERTEX
  5
77A
  8
LAYER_1
 10
11.16167243787071
 20
10.19665598719953
 30
0.0
  0
VERTEX
  5
77B
  8
LAYER_1
 10
11.16089490434294
 20
10.21508133708221
 30
0.0
  0
VERTEX
  5
77C
  8
LAYER_1
 10
11.15949418939252
 20
10.23390594526551
 30
0.0
  0
VERTEX
  5
77D
  8
LAYER_1
 10
11.15732169689062
 20
10.25334012412906
 30
0.0
  0
VERTEX
  5
77E
  8
LAYER_1
 10
11.15515366081554
 20
10.26762497420666
 30
0.0
  0
VERTEX
  5
77F
  8
LAYER_1
 10
11.1524756785332
 20
10.28090644051858
 30
0.0
  0
VERTEX
  5
780
  8
LAYER_1
 10
11.14915913398673
 20
10.29339530092657
 30
0.0
  0
VERTEX
  5
781
  8
LAYER_1
 10
11.14507541111923
 20
10.30530233329238
 30
0.0
  0
VERTEX
  5
782
  8
LAYER_1
 10
11.14009589387382
 20
10.31683831547776
 30
0.0
  0
VERTEX
  5
783
  8
LAYER_1
 10
11.13409196619361
 20
10.32821402534447
 30
0.0
  0
VERTEX
  5
784
  8
LAYER_1
 10
11.12693501202172
 20
10.33964024075425
 30
0.0
  0
VERTEX
  5
785
  8
LAYER_1
 10
11.11849641530127
 20
10.35132773956885
 30
0.0
  0
VERTEX
  5
786
  8
LAYER_1
 10
11.1126208474902
 20
10.35871631439845
 30
0.0
  0
VERTEX
  5
787
  8
LAYER_1
 10
11.10703972544386
 20
10.36522678805863
 30
0.0
  0
VERTEX
  5
788
  8
LAYER_1
 10
11.09605598685695
 20
10.3767891253331
 30
0.0
  0
VERTEX
  5
789
  8
LAYER_1
 10
11.08413553596376
 20
10.38836613831699
 30
0.0
  0
VERTEX
  5
78A
  8
LAYER_1
 10
11.06986870918751
 20
10.40230921393504
 30
0.0
  0
VERTEX
  5
78B
  8
LAYER_1
 10
11.06158122134323
 20
10.40969909104944
 30
0.0
  0
VERTEX
  5
78C
  8
LAYER_1
 10
11.05118263953244
 20
10.41755069232686
 30
0.0
  0
VERTEX
  5
78D
  8
LAYER_1
 10
11.0396642250946
 20
10.42509153391231
 30
0.0
  0
VERTEX
  5
78E
  8
LAYER_1
 10
11.02801723936914
 20
10.43154913195078
 30
0.0
  0
VERTEX
  5
78F
  8
LAYER_1
 10
11.02245530144213
 20
10.43413031343521
 30
0.0
  0
VERTEX
  5
790
  8
LAYER_1
 10
11.0172329436955
 20
10.43615100258727
 30
0.0
  0
VERTEX
  5
791
  8
LAYER_1
 10
11.01247407379669
 20
10.43751463892509
 30
0.0
  0
VERTEX
  5
792
  8
LAYER_1
 10
11.00830259941312
 20
10.43812466196679
 30
0.0
  0
VERTEX
  5
793
  8
LAYER_1
 10
11.00484242821222
 20
10.4378845112305
 30
0.0
  0
VERTEX
  5
794
  8
LAYER_1
 10
11.00341780245135
 20
10.43741544554502
 30
0.0
  0
VERTEX
  5
795
  8
LAYER_1
 10
11.00221746786143
 20
10.43669762623434
 30
0.0
  0
VERTEX
  5
796
  8
LAYER_1
 10
11.0012569129009
 20
10.43571898323822
 30
0.0
  0
VERTEX
  5
797
  8
LAYER_1
 10
11.00055162602818
 20
10.43446744649644
 30
0.0
  0
VERTEX
  5
798
  8
LAYER_1
 10
11.0001170957017
 20
10.43293094594875
 30
0.0
  0
VERTEX
  5
799
  8
LAYER_1
 10
10.99996881037989
 20
10.43109741153492
 30
0.0
  0
VERTEX
  5
79A
  8
LAYER_1
 10
11.00036982256968
 20
10.40857407127425
 30
0.0
  0
VERTEX
  5
79B
  8
LAYER_1
 10
11.00103817621932
 20
10.3860351708398
 30
0.0
  0
VERTEX
  5
79C
  8
LAYER_1
 10
11.00117184694925
 20
10.36352739075291
 30
0.0
  0
VERTEX
  5
79D
  8
LAYER_1
 10
11.0007875436007
 20
10.35229975850272
 30
0.0
  0
VERTEX
  5
79E
  8
LAYER_1
 10
10.99996881037989
 20
10.34109741153492
 30
0.0
  0
VERTEX
  5
79F
  8
LAYER_1
 10
10.99830313967594
 20
10.32973742524194
 30
0.0
  0
VERTEX
  5
7A0
  8
LAYER_1
 10
10.99589401728963
 20
10.31847737764624
 30
0.0
  0
VERTEX
  5
7A1
  8
LAYER_1
 10
10.99334354307852
 20
10.30723438563122
 30
0.0
  0
VERTEX
  5
7A2
  8
LAYER_1
 10
10.99125381690017
 20
10.29592556608024
 30
0.0
  0
VERTEX
  5
7A3
  8
LAYER_1
 10
10.98905983485698
 20
10.2838657948242
 30
0.0
  0
VERTEX
  5
7A4
  8
LAYER_1
 10
10.98626523676766
 20
10.27167101320343
 30
0.0
  0
VERTEX
  5
7A5
  8
LAYER_1
 10
10.9833125465199
 20
10.25941032485933
 30
0.0
  0
VERTEX
  5
7A6
  8
LAYER_1
 10
10.98064428800143
 20
10.24715283343333
 30
0.0
  0
VERTEX
  5
7A7
  8
LAYER_1
 10
10.97870298509996
 20
10.23496764256683
 30
0.0
  0
VERTEX
  5
7A8
  8
LAYER_1
 10
10.9781432307205
 20
10.22892375473134
 30
0.0
  0
VERTEX
  5
7A9
  8
LAYER_1
 10
10.97793116170319
 20
10.22292385590126
 30
0.0
  0
VERTEX
  5
7AA
  8
LAYER_1
 10
10.97812209353399
 20
10.21697658403176
 30
0.0
  0
VERTEX
  5
7AB
  8
LAYER_1
 10
10.97877134169886
 20
10.21109057707801
 30
0.0
  0
VERTEX
  5
7AC
  8
LAYER_1
 10
10.97993422168376
 20
10.2052744729952
 30
0.0
  0
SEQEND
  5
7AD
  8
LAYER_1
  0
POLYLINE
  5
76
  8
LAYER_1
 66
     1
 10
0.0
 20
0.0
 30
0.0
  0
VERTEX
  5
7AE
  8
LAYER_1
 10
10.98166809718042
 20
10.19953787197313
 30
0.0
  0
VERTEX
  5
7AF
  8
LAYER_1
 10
10.97459693067739
 20
10.19634222965785
 30
0.0
  0
VERTEX
  5
7B0
  8
LAYER_1
 10
10.96738664197194
 20
10.19350265079308
 30
0.0
  0
VERTEX
  5
7B1
  8
LAYER_1
 10
10.95791025709918
 20
10.1902520233113
 30
0.0
  0
VERTEX
  5
7B2
  8
LAYER_1
 10
10.94831243820479
 20
10.18730935904455
 30
0.0
  0
VERTEX
  5
7B3
  8
LAYER_1
 10
10.93859246293109
 20
10.18487515020104
 30
0.0
  0
VERTEX
  5
7B4
  8
LAYER_1
 10
10.92874960892038
 20
10.18314988898898
 30
0.0
  0
VERTEX
  5
7B5
  8
LAYER_1
 10
10.91385706142211
 20
10.18168293774616
 30
0.0
  0
VERTEX
  5
7B6
  8
LAYER_1
 10
10.89889295017269
 20
10.18119395399856
 30
0.0
  0
VERTEX
  5
7B7
  8
LAYER_1
 10
10.88385716829711
 20
10.18168293774616
 30
0.0
  0
VERTEX
  5
7B8
  8
LAYER_1
 10
10.86874960892038
 20
10.18314988898898
 30
0.0
  0
SEQEND
  5
7B9
  8
LAYER_1
  0
POLYLINE
  5
77
  8
LAYER_1
 66
     1
 10
0.0
 20
0.0
 30
0.0
  0
VERTEX
  5
7BA
  8
LAYER_1
 10
10.9999688103808
 20
10.43109741152442
 30
0.0
  0
VERTEX
  5
7BB
  8
LAYER_1
 10
10.99996881037989
 20
10.43109741153492
 30
0.0
  0
VERTEX
  5
7BC
  8
LAYER_1
 10
10.99779911058704
 20
10.45376076008413
 30
0.0
  0
VERTEX
  5
7BD
  8
LAYER_1
 10
10.99527999172542
 20
10.47639220952774
 30
0.0
  0
VERTEX
  5
7BE
  8
LAYER_1
 10
10.98928804824401
 20
10.52156144644355
 30
0.0
  0
VERTEX
  5
7BF
  8
LAYER_1
 10
10.98218208283193
 20
10.5666091929731
 30
0.0
  0
VERTEX
  5
7C0
  8
LAYER_1
 10
10.97415119838546
 20
10.61153951980717
 30
0.0
  0
VERTEX
  5
7C1
  8
LAYER_1
 10
10.96538449780086
 20
10.65635649763653
 30
0.0
  0
VERTEX
  5
7C2
  8
LAYER_1
 10
10.95607108397442
 20
10.70106419715196
 30
0.0
  0
VERTEX
  5
7C3
  8
LAYER_1
 10
10.93656052818111
 20
10.79016804400406
 30
0.0
  0
VERTEX
  5
7C4
  8
LAYER_1
 10
10.92121772409824
 20
10.8638491482234
 30
0.0
  0
VERTEX
  5
7C5
  8
LAYER_1
 10
10.9135789181001
 20
10.90082416655379
 30
0.0
  0
VERTEX
  5
7C6
  8
LAYER_1
 10
10.90540197500109
 20
10.93765222474727
 30
0.0
  0
VERTEX
  5
7C7
  8
LAYER_1
 10
10.90098048302398
 20
10.95595568966358
 30
0.0
  0
VERTEX
  5
7C8
  8
LAYER_1
 10
10.89626699395392
 20
10.97415586959076
 30
0.0
  0
VERTEX
  5
7C9
  8
LAYER_1
 10
10.89120902018498
 20
10.99223058287718
 30
0.0
  0
VERTEX
  5
7CA
  8
LAYER_1
 10
10.88575407411127
 20
11.01015764787121
 30
0.0
  0
VERTEX
  5
7CB
  8
LAYER_1
 10
10.87984966812686
 20
11.02791488292122
 30
0.0
  0
VERTEX
  5
7CC
  8
LAYER_1
 10
10.87344331462584
 20
11.04548010637557
 30
0.0
  0
VERTEX
  5
7CD
  8
LAYER_1
 10
10.86648252600231
 20
11.06283113658264
 30
0.0
  0
VERTEX
  5
7CE
  8
LAYER_1
 10
10.85891481465035
 20
11.07994579189078
 30
0.0
  0
VERTEX
  5
7CF
  8
LAYER_1
 10
10.8500707218626
 20
11.0979648781965
 30
0.0
  0
VERTEX
  5
7D0
  8
LAYER_1
 10
10.84047108703541
 20
11.11555590614681
 30
0.0
  0
VERTEX
  5
7D1
  8
LAYER_1
 10
10.83011588970465
 20
11.13271890516988
 30
0.0
  0
VERTEX
  5
7D2
  8
LAYER_1
 10
10.81900510940619
 20
11.14945390469391
 30
0.0
  0
VERTEX
  5
7D3
  8
LAYER_1
 10
10.80713872567591
 20
11.16576093414709
 30
0.0
  0
VERTEX
  5
7D4
  8
LAYER_1
 10
10.79451671804968
 20
11.18164002295761
 30
0.0
  0
VERTEX
  5
7D5
  8
LAYER_1
 10
10.78113906606337
 20
11.19709120055364
 30
0.0
  0
VERTEX
  5
7D6
  8
LAYER_1
 10
10.76700574925284
 20
11.21211449636339
 30
0.0
  0
SEQEND
  5
7D7
  8
LAYER_1
  0
POLYLINE
  5
78
  8
LAYER_1
 66
     1
 10
0.0
 20
0.0
 30
0.0
  0
VERTEX
  5
7D8
  8
LAYER_1
 10
10.99996881037989
 20
10.18537419438097
 30
0.0
  0
VERTEX
  5
7D9
  8
LAYER_1
 10
10.99996881037989
 20
10.03109741153492
 30
0.0
  0
SEQEND
  5
7DA
  8
LAYER_1
  0
POLYLINE
  5
79
  8
LAYER_1
 66
     1
 10
0.0
 20
0.0
 30
0.0
 70
     1
  0
VERTEX
  5
7DB
  8
LAYER_1
 10
13.92666708568145
 20
9.25276751209068
 30
0.0
  0
VERTEX
  5
7DC
  8
LAYER_1
 10
13.91209266340296
 20
9.249977618352098
 30
0.0
  0
VERTEX
  5
7DD
  8
LAYER_1
 10
13.90484517979952
 20
9.248205461962122
 30
0.0
  0
VERTEX
  5
7DE
  8
LAYER_1
 10
13.8976808352428
 20
9.246133192047255
 30
0.0
  0
VERTEX
  5
7DF
  8
LAYER_1
 10
13.89064212024998
 20
9.24372432822417
 30
0.0
  0
VERTEX
  5
7E0
  8
LAYER_1
 10
13.8837715253382
 20
9.240942390109538
 30
0.0
  0
VERTEX
  5
7E1
  8
LAYER_1
 10
13.87711154102463
 20
9.237750897320035
 30
0.0
  0
VERTEX
  5
7E2
  8
LAYER_1
 10
13.87070465782641
 20
9.234113369472334
 30
0.0
  0
VERTEX
  5
7E3
  8
LAYER_1
 10
13.86705982853224
 20
9.23158688455285
 30
0.0
  0
VERTEX
  5
7E4
  8
LAYER_1
 10
13.86374420637114
 20
9.228736023671612
 30
0.0
  0
VERTEX
  5
7E5
  8
LAYER_1
 10
13.86075373978541
 20
9.22558809668675
 30
0.0
  0
VERTEX
  5
7E6
  8
LAYER_1
 10
13.85808437721738
 20
9.222170413456395
 30
0.0
  0
VERTEX
  5
7E7
  8
LAYER_1
 10
13.85573206710935
 20
9.218510283838679
 30
0.0
  0
VERTEX
  5
7E8
  8
LAYER_1
 10
13.85369275790364
 20
9.214635017691736
 30
0.0
  0
VERTEX
  5
7E9
  8
LAYER_1
 10
13.85196239804257
 20
9.210571924873694
 30
0.0
  0
VERTEX
  5
7EA
  8
LAYER_1
 10
13.85053693596844
 20
9.206348315242689
 30
0.0
  0
VERTEX
  5
7EB
  8
LAYER_1
 10
13.84923654968895
 20
9.200077140713027
 30
0.0
  0
VERTEX
  5
7EC
  8
LAYER_1
 10
13.84898735343555
 20
9.19384277660065
 30
0.0
  0
VERTEX
  5
7ED
  8
LAYER_1
 10
13.84967692454515
 20
9.187673729015197
 30
0.0
  0
VERTEX
  5
7EE
  8
LAYER_1
 10
13.85119284035462
 20
9.181598504066304
 30
0.0
  0
VERTEX
  5
7EF
  8
LAYER_1
 10
13.85342267820087
 20
9.17564560786361
 30
0.0
  0
VERTEX
  5
7F0
  8
LAYER_1
 10
13.85625401542079
 20
9.169843546516748
 30
0.0
  0
VERTEX
  5
7F1
  8
LAYER_1
 10
13.85957442935128
 20
9.164220826135356
 30
0.0
  0
VERTEX
  5
7F2
  8
LAYER_1
 10
13.86327149732923
 20
9.158805952829072
 30
0.0
  0
VERTEX
  5
7F3
  8
LAYER_1
 10
13.86751629299086
 20
9.153810648857785
 30
0.0
  0
VERTEX
  5
7F4
  8
LAYER_1
 10
13.8723097819812
 20
9.149644244026003
 30
0.0
  0
VERTEX
  5
7F5
  8
LAYER_1
 10
13.8775822885328
 20
9.146221213742574
 30
0.0
  0
VERTEX
  5
7F6
  8
LAYER_1
 10
13.88326413687823
 20
9.143456033416346
 30
0.0
  0
VERTEX
  5
7F7
  8
LAYER_1
 10
13.88928565125005
 20
9.141263178456168
 30
0.0
  0
VERTEX
  5
7F8
  8
LAYER_1
 10
13.89557715588081
 20
9.139557124270883
 30
0.0
  0
VERTEX
  5
7F9
  8
LAYER_1
 10
13.90206897500306
 20
9.138252346269345
 30
0.0
  0
VERTEX
  5
7FA
  8
LAYER_1
 10
13.90869143284938
 20
9.1372633198604
 30
0.0
  0
VERTEX
  5
7FB
  8
LAYER_1
 10
13.92532151362881
 20
9.135177700812637
 30
0.0
  0
VERTEX
  5
7FC
  8
LAYER_1
 10
13.93184265868971
 20
9.134550290562055
 30
0.0
  0
VERTEX
  5
7FD
  8
LAYER_1
 10
13.93769011219337
 20
9.13425634942095
 30
0.0
  0
VERTEX
  5
7FE
  8
LAYER_1
 10
13.94325555313623
 20
9.134338279584775
 30
0.0
  0
VERTEX
  5
7FF
  8
LAYER_1
 10
13.94893066051477
 20
9.134838483248988
 30
0.0
  0
VERTEX
  5
800
  8
LAYER_1
 10
13.95510711332544
 20
9.135799362609044
 30
0.0
  0
VERTEX
  5
801
  8
LAYER_1
 10
13.9621765905647
 20
9.1372633198604
 30
0.0
  0
VERTEX
  5
802
  8
LAYER_1
 10
13.97703592269017
 20
9.140605433073613
 30
0.0
  0
VERTEX
  5
803
  8
LAYER_1
 10
13.984112998603
 20
9.142472185168437
 30
0.0
  0
VERTEX
  5
804
  8
LAYER_1
 10
13.99088805875247
 20
9.144711787606823
 30
0.0
  0
VERTEX
  5
805
  8
LAYER_1
 10
13.997310886391
 20
9.147506030402333
 30
0.0
  0
VERTEX
  5
806
  8
LAYER_1
 10
14.00333126477102
 20
9.151036703568526
 30
0.0
  0
VERTEX
  5
807
  8
LAYER_1
 10
14.00889897714496
 20
9.155485597118965
 30
0.0
  0
VERTEX
  5
808
  8
LAYER_1
 10
14.01149739084604
 20
9.158111185917512
 30
0.0
  0
VERTEX
  5
809
  8
LAYER_1
 10
14.01396380676525
 20
9.161034501067208
 30
0.0
  0
VERTEX
  5
80A
  8
LAYER_1
 10
14.01703334691834
 20
9.165235944491442
 30
0.0
  0
VERTEX
  5
80B
  8
LAYER_1
 10
14.01972500803498
 20
9.169520616115841
 30
0.0
  0
VERTEX
  5
80C
  8
LAYER_1
 10
14.02199388649054
 20
9.173904268969036
 30
0.0
  0
VERTEX
  5
80D
  8
LAYER_1
 10
14.02379507866039
 20
9.178402656079648
 30
0.0
  0
VERTEX
  5
80E
  8
LAYER_1
 10
14.02508368091988
 20
9.183031530476308
 30
0.0
  0
VERTEX
  5
80F
  8
LAYER_1
 10
14.0258147896444
 20
9.187806645187642
 30
0.0
  0
VERTEX
  5
810
  8
LAYER_1
 10
14.0259435012093
 20
9.192743753242272
 30
0.0
  0
VERTEX
  5
811
  8
LAYER_1
 10
14.02542491198996
 20
9.19785860766883
 30
0.0
  0
VERTEX
  5
812
  8
LAYER_1
 10
14.02378146624086
 20
9.206685790360517
 30
0.0
  0
VERTEX
  5
813
  8
LAYER_1
 10
14.02140884116344
 20
9.215230940307256
 30
0.0
  0
VERTEX
  5
814
  8
LAYER_1
 10
14.01978407409821
 20
9.219278297262475
 30
0.0
  0
VERTEX
  5
815
  8
LAYER_1
 10
14.01777899746683
 20
9.223111799144904
 30
0.0
  0
VERTEX
  5
816
  8
LAYER_1
 10
14.01532760635795
 20
9.226683663659028
 30
0.0
  0
VERTEX
  5
817
  8
LAYER_1
 10
14.0123638958602
 20
9.229946108509324
 30
0.0
  0
VERTEX
  5
818
  8
LAYER_1
 10
14.00767928921685
 20
9.234051192684102
 30
0.0
  0
VERTEX
  5
819
  8
LAYER_1
 10
14.00265534694461
 20
9.237788817748331
 30
0.0
  0
VERTEX
  5
81A
  8
LAYER_1
 10
13.99734090995135
 20
9.241163797724843
 30
0.0
  0
VERTEX
  5
81B
  8
LAYER_1
 10
13.99178481914491
 20
9.244180946636467
 30
0.0
  0
VERTEX
  5
81C
  8
LAYER_1
 10
13.98603591543315
 20
9.246845078506034
 30
0.0
  0
VERTEX
  5
81D
  8
LAYER_1
 10
13.98014303972391
 20
9.24916100735637
 30
0.0
  0
VERTEX
  5
81E
  8
LAYER_1
 10
13.97415503292506
 20
9.25113354721031
 30
0.0
  0
VERTEX
  5
81F
  8
LAYER_1
 10
13.96812073594444
 20
9.25276751209068
 30
0.0
  0
VERTEX
  5
820
  8
LAYER_1
 10
13.96304694189077
 20
9.25379301107038
 30
0.0
  0
VERTEX
  5
821
  8
LAYER_1
 10
13.95790045461566
 20
9.254452050730961
 30
0.0
  0
VERTEX
  5
822
  8
LAYER_1
 10
13.94747312271303
 20
9.254817671316037
 30
0.0
  0
VERTEX
  5
823
  8
LAYER_1
 10
13.93700618486035
 20
9.254158212288432
 30
0.0
  0
SEQEND
  5
824
  8
LAYER_1
  0
POLYLINE
  5
7A
  8
LAYER_1
 66
     1
 10
0.0
 20
0.0
 30
0.0
  0
VERTEX
  5
825
  8
LAYER_1
 10
14.39326491783374
 20
7.965735811295377
 30
0.0
  0
VERTEX
  5
826
  8
LAYER_1
 10
14.39678516515571
 20
7.983440301270345
 30
0.0
  0
VERTEX
  5
827
  8
LAYER_1
 10
14.40110509616166
 20
8.000728999166205
 30
0.0
  0
VERTEX
  5
828
  8
LAYER_1
 10
14.40622472210771
 20
8.017601933927233
 30
0.0
  0
VERTEX
  5
829
  8
LAYER_1
 10
14.41214405424997
 20
8.034059134497712
 30
0.0
  0
VERTEX
  5
82A
  8
LAYER_1
 10
14.41886310384454
 20
8.05010062982192
 30
0.0
  0
VERTEX
  5
82B
  8
LAYER_1
 10
14.42638188214752
 20
8.065726448844135
 30
0.0
  0
VERTEX
  5
82C
  8
LAYER_1
 10
14.43470040041504
 20
8.080936620508641
 30
0.0
  0
VERTEX
  5
82D
  8
LAYER_1
 10
14.4438186699032
 20
8.095731173759717
 30
0.0
  0
VERTEX
  5
82E
  8
LAYER_1
 10
14.45030474609489
 20
8.105283038972138
 30
0.0
  0
VERTEX
  5
82F
  8
LAYER_1
 10
14.45636628393528
 20
8.113124869882324
 30
0.0
  0
VERTEX
  5
830
  8
LAYER_1
 10
14.46238042192518
 20
8.119410036886748
 30
0.0
  0
VERTEX
  5
831
  8
LAYER_1
 10
14.46548757175771
 20
8.122016799673197
 30
0.0
  0
VERTEX
  5
832
  8
LAYER_1
 10
14.46872429856543
 20
8.124291910381885
 30
0.0
  0
VERTEX
  5
833
  8
LAYER_1
 10
14.47213774466094
 20
8.126254540312368
 30
0.0
  0
VERTEX
  5
834
  8
LAYER_1
 10
14.47577505235684
 20
8.127923860764207
 30
0.0
  0
VERTEX
  5
835
  8
LAYER_1
 10
14.47968336396574
 20
8.129319043036961
 30
0.0
  0
VERTEX
  5
836
  8
LAYER_1
 10
14.48390982180024
 20
8.130459258430186
 30
0.0
  0
VERTEX
  5
837
  8
LAYER_1
 10
14.49350574539647
 20
8.132051473776297
 30
0.0
  0
VERTEX
  5
838
  8
LAYER_1
 10
14.50493996164633
 20
8.132853877199011
 30
0.0
  0
VERTEX
  5
839
  8
LAYER_1
 10
14.55633255246196
 20
8.134551582012886
 30
0.0
  0
VERTEX
  5
83A
  8
LAYER_1
 10
14.60771327609542
 20
8.135880829438262
 30
0.0
  0
VERTEX
  5
83B
  8
LAYER_1
 10
14.65888033496283
 20
8.136855274137691
 30
0.0
  0
VERTEX
  5
83C
  8
LAYER_1
 10
14.70963193148025
 20
8.13748857077372
 30
0.0
  0
VERTEX
  5
83D
  8
LAYER_1
 10
14.7597662680638
 20
8.1377943740089
 30
0.0
  0
VERTEX
  5
83E
  8
LAYER_1
 10
14.80908154712955
 20
8.137786338505778
 30
0.0
  0
VERTEX
  5
83F
  8
LAYER_1
 10
14.90444774237206
 20
8.136883369934836
 30
0.0
  0
VERTEX
  5
840
  8
LAYER_1
 10
14.99411613653651
 20
8.134888902361288
 30
0.0
  0
VERTEX
  5
841
  8
LAYER_1
 10
15.03630916425469
 20
8.133516493104912
 30
0.0
  0
VERTEX
  5
842
  8
LAYER_1
 10
15.07647234895163
 20
8.13191217308553
 30
0.0
  0
VERTEX
  5
843
  8
LAYER_1
 10
15.11440389304343
 20
8.130089596965696
 30
0.0
  0
VERTEX
  5
844
  8
LAYER_1
 10
15.14990199894617
 20
8.128062419407959
 30
0.0
  0
VERTEX
  5
845
  8
LAYER_1
 10
15.18276486907594
 20
8.125844295074868
 30
0.0
  0
VERTEX
  5
846
  8
LAYER_1
 10
15.21279070584884
 20
8.123448878628974
 30
0.0
  0
VERTEX
  5
847
  8
LAYER_1
 10
15.21447438659846
 20
8.123116560111999
 30
0.0
  0
VERTEX
  5
848
  8
LAYER_1
 10
15.2160141139161
 20
8.122442954590962
 30
0.0
  0
VERTEX
  5
849
  8
LAYER_1
 10
15.21740210071744
 20
8.121456178113476
 30
0.0
  0
VERTEX
  5
84A
  8
LAYER_1
 10
15.21863055991818
 20
8.120184346727143
 30
0.0
  0
VERTEX
  5
84B
  8
LAYER_1
 10
15.22057774718064
 20
8.116897983418369
 30
0.0
  0
VERTEX
  5
84C
  8
LAYER_1
 10
15.22179337902901
 20
8.112808793045495
 30
0.0
  0
VERTEX
  5
84D
  8
LAYER_1
 10
15.22221515878883
 20
8.108141703989386
 30
0.0
  0
VERTEX
  5
84E
  8
LAYER_1
 10
15.22178078978566
 20
8.103121644630892
 30
0.0
  0
VERTEX
  5
84F
  8
LAYER_1
 10
15.22042797534504
 20
8.097973543350875
 30
0.0
  0
VERTEX
  5
850
  8
LAYER_1
 10
15.2180944187925
 20
8.092922328530186
 30
0.0
  0
VERTEX
  5
851
  8
LAYER_1
 10
15.21573484109039
 20
8.0894600053504
 30
0.0
  0
VERTEX
  5
852
  8
LAYER_1
 10
15.21276834194281
 20
8.086069500126136
 30
0.0
  0
VERTEX
  5
853
  8
LAYER_1
 10
15.2093157524903
 20
8.082769532174803
 30
0.0
  0
VERTEX
  5
854
  8
LAYER_1
 10
15.20549790387341
 20
8.079578820813802
 30
0.0
  0
VERTEX
  5
855
  8
LAYER_1
 10
15.19724975370865
 20
8.073600045132423
 30
0.0
  0
VERTEX
  5
856
  8
LAYER_1
 10
15.18899054057283
 20
8.068282927621237
 30
0.0
  0
VERTEX
  5
857
  8
LAYER_1
 10
15.18168691359029
 20
8.063777222819484
 30
0.0
  0
VERTEX
  5
858
  8
LAYER_1
 10
15.17630552188535
 20
8.060232685266403
 30
0.0
  0
VERTEX
  5
859
  8
LAYER_1
 10
15.17463774211334
 20
8.058867652501625
 30
0.0
  0
VERTEX
  5
85A
  8
LAYER_1
 10
15.17381301458235
 20
8.057799069501229
 30
0.0
  0
VERTEX
  5
85B
  8
LAYER_1
 10
15.17395217043293
 20
8.05704565558262
 30
0.0
  0
VERTEX
  5
85C
  8
LAYER_1
 10
15.17517604080561
 20
8.056626130063206
 30
0.0
  0
SEQEND
  5
85D
  8
LAYER_1
  0
POLYLINE
  5
7B
  8
LAYER_1
 66
     1
 10
0.0
 20
0.0
 30
0.0
  0
VERTEX
  5
85E
  8
LAYER_1
 10
7.032337784868075
 20
9.907082439474243
 30
0.0
  0
VERTEX
  5
85F
  8
LAYER_1
 10
9.370981037736343
 20
9.939127149235333
 30
0.0
  0
SEQEND
  5
860
  8
LAYER_1
  0
POLYLINE
  5
7C
  8
LAYER_1
 66
     1
 10
0.0
 20
0.0
 30
0.0
  0
VERTEX
  5
861
  8
LAYER_1
 10
17.07707278154723
 20
7.946809153798968
 30
0.0
  0
VERTEX
  5
862
  8
LAYER_1
 10
17.08249545244403
 20
7.916259809613138
 30
0.0
  0
VERTEX
  5
863
  8
LAYER_1
 10
17.08722214866478
 20
7.885477145032178
 30
0.0
  0
VERTEX
  5
864
  8
LAYER_1
 10
17.09124453346321
 20
7.854469453420315
 30
0.0
  0
VERTEX
  5
865
  8
LAYER_1
 10
17.094554270093
 20
7.823245028141773
 30
0.0
  0
VERTEX
  5
866
  8
LAYER_1
 10
17.09714302180787
 20
7.79181216256078
 30
0.0
  0
VERTEX
  5
867
  8
LAYER_1
 10
17.09900245186153
 20
7.760179150041559
 30
0.0
  0
VERTEX
  5
868
  8
LAYER_1
 10
17.10012422350767
 20
7.728354283948336
 30
0.0
  0
VERTEX
  5
869
  8
LAYER_1
 10
17.1005
 20
7.696345857645337
 30
0.0
  0
VERTEX
  5
86A
  8
LAYER_1
 10
17.1002733519752
 20
7.671481945025534
 30
0.0
  0
VERTEX
  5
86B
  8
LAYER_1
 10
17.09959600879196
 20
7.64672753709424
 30
0.0
  0
VERTEX
  5
86C
  8
LAYER_1
 10
17.09847187178696
 20
7.622086514352926
 30
0.0
  0
VERTEX
  5
86D
  8
LAYER_1
 10
17.09690484229689
 20
7.597562757303065
 30
0.0
  0
VERTEX
  5
86E
  8
LAYER_1
 10
17.09489882165846
 20
7.573160146446128
 30
0.0
  0
VERTEX
  5
86F
  8
LAYER_1
 10
17.09245771120837
 20
7.548882562283589
 30
0.0
  0
VERTEX
  5
870
  8
LAYER_1
 10
17.0895854122833
 20
7.52473388531692
 30
0.0
  0
VERTEX
  5
871
  8
LAYER_1
 10
17.08628582621994
 20
7.500717996047592
 30
0.0
  0
VERTEX
  5
872
  8
LAYER_1
 10
17.08256285435501
 20
7.476838774977079
 30
0.0
  0
VERTEX
  5
873
  8
LAYER_1
 10
17.07842039802519
 20
7.453100102606852
 30
0.0
  0
VERTEX
  5
874
  8
LAYER_1
 10
17.07386235856718
 20
7.429505859438385
 30
0.0
  0
VERTEX
  5
875
  8
LAYER_1
 10
17.06889263731767
 20
7.40605992597315
 30
0.0
  0
VERTEX
  5
876
  8
LAYER_1
 10
17.06351513561336
 20
7.382766182712617
 30
0.0
  0
VERTEX
  5
877
  8
LAYER_1
 10
17.05773375479095
 20
7.35962851015826
 30
0.0
  0
VERTEX
  5
878
  8
LAYER_1
 10
17.05155239618713
 20
7.336650788811553
 30
0.0
  0
VERTEX
  5
879
  8
LAYER_1
 10
17.0449749611386
 20
7.313836899173966
 30
0.0
  0
VERTEX
  5
87A
  8
LAYER_1
 10
17.03800535098205
 20
7.291190721746972
 30
0.0
  0
VERTEX
  5
87B
  8
LAYER_1
 10
17.03064746705419
 20
7.268716137032044
 30
0.0
  0
VERTEX
  5
87C
  8
LAYER_1
 10
17.02290521069169
 20
7.246417025530652
 30
0.0
  0
VERTEX
  5
87D
  8
LAYER_1
 10
17.01478248323127
 20
7.224297267744271
 30
0.0
  0
VERTEX
  5
87E
  8
LAYER_1
 10
17.00628318600962
 20
7.202360744174372
 30
0.0
  0
VERTEX
  5
87F
  8
LAYER_1
 10
16.99741122036342
 20
7.180611335322428
 30
0.0
  0
VERTEX
  5
880
  8
LAYER_1
 10
16.98817048762939
 20
7.159052921689911
 30
0.0
  0
VERTEX
  5
881
  8
LAYER_1
 10
16.97856488914421
 20
7.137689383778294
 30
0.0
  0
VERTEX
  5
882
  8
LAYER_1
 10
16.96859832624459
 20
7.116524602089049
 30
0.0
  0
VERTEX
  5
883
  8
LAYER_1
 10
16.9582747002672
 20
7.095562457123647
 30
0.0
  0
VERTEX
  5
884
  8
LAYER_1
 10
16.94759791254876
 20
7.074806829383562
 30
0.0
  0
VERTEX
  5
885
  8
LAYER_1
 10
16.93657186442596
 20
7.054261599370266
 30
0.0
  0
VERTEX
  5
886
  8
LAYER_1
 10
16.92520045723548
 20
7.033930647585231
 30
0.0
  0
VERTEX
  5
887
  8
LAYER_1
 10
16.91348759231404
 20
7.013817854529929
 30
0.0
  0
VERTEX
  5
888
  8
LAYER_1
 10
16.90143717099832
 20
6.993927100705832
 30
0.0
  0
VERTEX
  5
889
  8
LAYER_1
 10
16.88905309462503
 20
6.974262266614414
 30
0.0
  0
VERTEX
  5
88A
  8
LAYER_1
 10
16.87633926453085
 20
6.954827232757146
 30
0.0
  0
VERTEX
  5
88B
  8
LAYER_1
 10
16.86329958205248
 20
6.9356258796355
 30
0.0
  0
VERTEX
  5
88C
  8
LAYER_1
 10
16.84993794852662
 20
6.916662087750951
 30
0.0
  0
VERTEX
  5
88D
  8
LAYER_1
 10
16.83625826528996
 20
6.897939737604968
 30
0.0
  0
VERTEX
  5
88E
  8
LAYER_1
 10
16.8222644336792
 20
6.879462709699027
 30
0.0
  0
VERTEX
  5
88F
  8
LAYER_1
 10
16.80796035503104
 20
6.861234884534595
 30
0.0
  0
VERTEX
  5
890
  8
LAYER_1
 10
16.79334993068217
 20
6.843260142613149
 30
0.0
  0
VERTEX
  5
891
  8
LAYER_1
 10
16.77843706196928
 20
6.825542364436161
 30
0.0
  0
VERTEX
  5
892
  8
LAYER_1
 10
16.76322565022908
 20
6.808085430505102
 30
0.0
  0
VERTEX
  5
893
  8
LAYER_1
 10
16.74771959679826
 20
6.790893221321442
 30
0.0
  0
VERTEX
  5
894
  8
LAYER_1
 10
16.73192280301351
 20
6.773969617386657
 30
0.0
  0
VERTEX
  5
895
  8
LAYER_1
 10
16.71583917021153
 20
6.757318499202218
 30
0.0
  0
VERTEX
  5
896
  8
LAYER_1
 10
16.69947259972902
 20
6.740943747269597
 30
0.0
  0
VERTEX
  5
897
  8
LAYER_1
 10
16.68282699290266
 20
6.724849242090268
 30
0.0
  0
VERTEX
  5
898
  8
LAYER_1
 10
16.66590625106917
 20
6.709038864165701
 30
0.0
  0
VERTEX
  5
899
  8
LAYER_1
 10
16.64871427556523
 20
6.693516493997371
 30
0.0
  0
VERTEX
  5
89A
  8
LAYER_1
 10
16.63125496772753
 20
6.678286012086748
 30
0.0
  0
VERTEX
  5
89B
  8
LAYER_1
 10
16.61353222889279
 20
6.663351298935305
 30
0.0
  0
VERTEX
  5
89C
  8
LAYER_1
 10
16.59554996039768
 20
6.648716235044515
 30
0.0
  0
VERTEX
  5
89D
  8
LAYER_1
 10
16.57731206357891
 20
6.634384700915849
 30
0.0
  0
VERTEX
  5
89E
  8
LAYER_1
 10
16.55882243977317
 20
6.62036057705078
 30
0.0
  0
VERTEX
  5
89F
  8
LAYER_1
 10
16.54008499031715
 20
6.606647743950781
 30
0.0
  0
VERTEX
  5
8A0
  8
LAYER_1
 10
16.52110361654757
 20
6.593250082117323
 30
0.0
  0
VERTEX
  5
8A1
  8
LAYER_1
 10
16.5018822198011
 20
6.58017147205188
 30
0.0
  0
VERTEX
  5
8A2
  8
LAYER_1
 10
16.48242470141444
 20
6.567415794255924
 30
0.0
  0
VERTEX
  5
8A3
  8
LAYER_1
 10
16.4627349627243
 20
6.554986929230926
 30
0.0
  0
VERTEX
  5
8A4
  8
LAYER_1
 10
16.44281690506737
 20
6.542888757478361
 30
0.0
  0
VERTEX
  5
8A5
  8
LAYER_1
 10
16.42267442978034
 20
6.531125159499697
 30
0.0
  0
VERTEX
  5
8A6
  8
LAYER_1
 10
16.4023114381999
 20
6.51970001579641
 30
0.0
  0
VERTEX
  5
8A7
  8
LAYER_1
 10
16.38173183166275
 20
6.508617206869971
 30
0.0
  0
VERTEX
  5
8A8
  8
LAYER_1
 10
16.36093951150561
 20
6.497880613221852
 30
0.0
  0
VERTEX
  5
8A9
  8
LAYER_1
 10
16.33993837906514
 20
6.487494115353527
 30
0.0
  0
VERTEX
  5
8AA
  8
LAYER_1
 10
15.22023084671657
 20
6.460181762232501
 30
0.0
  0
VERTEX
  5
8AB
  8
LAYER_1
 10
15.20156028883477
 20
6.468276437760803
 30
0.0
  0
VERTEX
  5
8AC
  8
LAYER_1
 10
15.18303741254959
 20
6.476641709180339
 30
0.0
  0
VERTEX
  5
8AD
  8
LAYER_1
 10
15.16466474410307
 20
6.485275063779525
 30
0.0
  0
VERTEX
  5
8AE
  8
LAYER_1
 10
15.14644480973728
 20
6.494173988846783
 30
0.0
  0
VERTEX
  5
8AF
  8
LAYER_1
 10
15.12838013569425
 20
6.503335971670529
 30
0.0
  0
VERTEX
  5
8B0
  8
LAYER_1
 10
15.11047324821604
 20
6.512758499539183
 30
0.0
  0
VERTEX
  5
8B1
  8
LAYER_1
 10
15.0927266735447
 20
6.522439059741163
 30
0.0
  0
VERTEX
  5
8B2
  8
LAYER_1
 10
15.07514293792228
 20
6.532375139564888
 30
0.0
  0
VERTEX
  5
8B3
  8
LAYER_1
 10
15.05772456759083
 20
6.542564226298778
 30
0.0
  0
VERTEX
  5
8B4
  8
LAYER_1
 10
15.0404740887924
 20
6.553003807231249
 30
0.0
  0
VERTEX
  5
8B5
  8
LAYER_1
 10
15.0064869107628
 20
6.574624400845615
 30
0.0
  0
VERTEX
  5
8B6
  8
LAYER_1
 10
14.97320161376987
 20
6.597216818715334
 30
0.0
  0
VERTEX
  5
8B7
  8
LAYER_1
 10
14.94063840775003
 20
6.620760959147759
 30
0.0
  0
VERTEX
  5
8B8
  8
LAYER_1
 10
14.90881750263968
 20
6.645236720450238
 30
0.0
  0
VERTEX
  5
8B9
  8
LAYER_1
 10
14.87775910837521
 20
6.670624000930118
 30
0.0
  0
VERTEX
  5
8BA
  8
LAYER_1
 10
14.84748343489303
 20
6.696902698894753
 30
0.0
  0
VERTEX
  5
8BB
  8
LAYER_1
 10
14.81801069212953
 20
6.724052712651492
 30
0.0
  0
VERTEX
  5
8BC
  8
LAYER_1
 10
14.78936109002112
 20
6.752053940507683
 30
0.0
  0
VERTEX
  5
8BD
  8
LAYER_1
 10
14.76155483850421
 20
6.780886280770677
 30
0.0
  0
VERTEX
  5
8BE
  8
LAYER_1
 10
14.73461214751519
 20
6.810529631747822
 30
0.0
  0
VERTEX
  5
8BF
  8
LAYER_1
 10
14.70855322699047
 20
6.840963891746469
 30
0.0
  0
VERTEX
  5
8C0
  8
LAYER_1
 10
14.68339828686644
 20
6.872168959073967
 30
0.0
  0
VERTEX
  5
8C1
  8
LAYER_1
 10
14.65916753707951
 20
6.904124732037667
 30
0.0
  0
VERTEX
  5
8C2
  8
LAYER_1
 10
14.63588118756608
 20
6.936811108944918
 30
0.0
  0
VERTEX
  5
8C3
  8
LAYER_1
 10
14.62459847851705
 20
6.953421992098422
 30
0.0
  0
VERTEX
  5
8C4
  8
LAYER_1
 10
14.61355944826255
 20
6.970207988103069
 30
0.0
  0
VERTEX
  5
8C5
  8
LAYER_1
 10
14.60276662304462
 20
6.987166584247278
 30
0.0
  0
VERTEX
  5
8C6
  8
LAYER_1
 10
14.59222252910532
 20
7.004295267819471
 30
0.0
  0
VERTEX
  5
8C7
  8
LAYER_1
 10
14.5819296926867
 20
7.021591526108062
 30
0.0
  0
VERTEX
  5
8C8
  8
LAYER_1
 10
14.5718906400308
 20
7.039052846401471
 30
0.0
  0
VERTEX
  5
8C9
  8
LAYER_1
 10
14.56210789737968
 20
7.056676715988118
 30
0.0
  0
VERTEX
  5
8CA
  8
LAYER_1
 10
14.55258399097538
 20
7.074460622156422
 30
0.0
  0
VERTEX
  5
8CB
  8
LAYER_1
 10
14.54332144705996
 20
7.092402052194799
 30
0.0
  0
VERTEX
  5
8CC
  8
LAYER_1
 10
14.53432279187547
 20
7.110498493391671
 30
0.0
  0
VERTEX
  5
8CD
  8
LAYER_1
 10
14.52559055166396
 20
7.128747433035455
 30
0.0
  0
VERTEX
  5
8CE
  8
LAYER_1
 10
14.51712725266747
 20
7.14714635841457
 30
0.0
  0
VERTEX
  5
8CF
  8
LAYER_1
 10
14.50893542112806
 20
7.165692756817434
 30
0.0
  0
VERTEX
  5
8D0
  8
LAYER_1
 10
14.50101758328778
 20
7.184384115532467
 30
0.0
  0
VERTEX
  5
8D1
  8
LAYER_1
 10
14.49337626538868
 20
7.203217921848086
 30
0.0
  0
VERTEX
  5
8D2
  8
LAYER_1
 10
14.4860139936728
 20
7.222191663052712
 30
0.0
  0
VERTEX
  5
8D3
  8
LAYER_1
 10
14.4789332943822
 20
7.241302826434763
 30
0.0
  0
VERTEX
  5
8D4
  8
LAYER_1
 10
14.47213669375894
 20
7.260548899282656
 30
0.0
  0
VERTEX
  5
8D5
  8
LAYER_1
 10
14.46562671804505
 20
7.279927368884811
 30
0.0
  0
VERTEX
  5
8D6
  8
LAYER_1
 10
14.45940589348259
 20
7.299435722529648
 30
0.0
  0
VERTEX
  5
8D7
  8
LAYER_1
 10
14.4534767463136
 20
7.319071447505584
 30
0.0
  0
VERTEX
  5
8D8
  8
LAYER_1
 10
14.44784180278015
 20
7.338832031101036
 30
0.0
  0
VERTEX
  5
8D9
  8
LAYER_1
 10
14.44250358912428
 20
7.358714960604427
 30
0.0
  0
VERTEX
  5
8DA
  8
LAYER_1
 10
14.43746463158804
 20
7.378717723304173
 30
0.0
  0
VERTEX
  5
8DB
  8
LAYER_1
 10
14.43272745641347
 20
7.398837806488693
 30
0.0
  0
VERTEX
  5
8DC
  8
LAYER_1
 10
14.42829458984264
 20
7.419072697446405
 30
0.0
  0
SEQEND
  5
8DD
  8
LAYER_1
  0
POLYLINE
  5
7D
  8
LAYER_1
 66
     1
 10
0.0
 20
0.0
 30
0.0
  0
VERTEX
  5
8DE
  8
LAYER_1
 10
17.3904024705276
 20
7.433415032986654
 30
0.0
  0
VERTEX
  5
8DF
  8
LAYER_1
 10
17.3863117986233
 20
7.483194876107584
 30
0.0
  0
VERTEX
  5
8E0
  8
LAYER_1
 10
17.38165192816379
 20
7.533049803652576
 30
0.0
  0
VERTEX
  5
8E1
  8
LAYER_1
 10
17.37641098791079
 20
7.582999632311257
 30
0.0
  0
VERTEX
  5
8E2
  8
LAYER_1
 10
17.37057710662604
 20
7.633064178773255
 30
0.0
  0
VERTEX
  5
8E3
  8
LAYER_1
 10
17.36413841307125
 20
7.683263259728196
 30
0.0
  0
VERTEX
  5
8E4
  8
LAYER_1
 10
17.35708303600816
 20
7.733616691865706
 30
0.0
  0
VERTEX
  5
8E5
  8
LAYER_1
 10
17.34939910419849
 20
7.784144291875412
 30
0.0
  0
VERTEX
  5
8E6
  8
LAYER_1
 10
17.34107474640396
 20
7.834865876446941
 30
0.0
  0
VERTEX
  5
8E7
  8
LAYER_1
 10
17.3320980913863
 20
7.885801262269919
 30
0.0
  0
VERTEX
  5
8E8
  8
LAYER_1
 10
17.32245726790724
 20
7.936970266033974
 30
0.0
  0
VERTEX
  5
8E9
  8
LAYER_1
 10
17.31214040472849
 20
7.988392704428732
 30
0.0
  0
VERTEX
  5
8EA
  8
LAYER_1
 10
17.3011356306118
 20
8.040088394143819
 30
0.0
  0
VERTEX
  5
8EB
  8
LAYER_1
 10
17.28943107431887
 20
8.092077151868864
 30
0.0
  0
VERTEX
  5
8EC
  8
LAYER_1
 10
17.27701486461145
 20
8.144378794293491
 30
0.0
  0
VERTEX
  5
8ED
  8
LAYER_1
 10
17.26387513025125
 20
8.197013138107327
 30
0.0
  0
VERTEX
  5
8EE
  8
LAYER_1
 10
17.25
 20
8.25
 30
0.0
  0
VERTEX
  5
8EF
  8
LAYER_1
 10
17.23672560010484
 20
8.302401259499993
 30
0.0
  0
VERTEX
  5
8F0
  8
LAYER_1
 10
17.22420030280825
 20
8.355350998218178
 30
0.0
  0
VERTEX
  5
8F1
  8
LAYER_1
 10
17.21158545847194
 20
8.40841377752474
 30
0.0
  0
VERTEX
  5
8F2
  8
LAYER_1
 10
17.20498237815194
 20
8.43485148282684
 30
0.0
  0
VERTEX
  5
8F3
  8
LAYER_1
 10
17.19804241745764
 20
8.461154158789856
 30
0.0
  0
VERTEX
  5
8F4
  8
LAYER_1
 10
17.19066074518428
 20
8.487267375585057
 30
0.0
  0
VERTEX
  5
8F5
  8
LAYER_1
 10
17.18273253012706
 20
8.513136703383715
 30
0.0
  0
VERTEX
  5
8F6
  8
LAYER_1
 10
17.1741529410812
 20
8.538707712357104
 30
0.0
  0
VERTEX
  5
8F7
  8
LAYER_1
 10
17.16481714684192
 20
8.563925972676493
 30
0.0
  0
VERTEX
  5
8F8
  8
LAYER_1
 10
17.15462031620442
 20
8.58873705451316
 30
0.0
  0
VERTEX
  5
8F9
  8
LAYER_1
 10
17.14345761796393
 20
8.613086528038375
 30
0.0
  0
VERTEX
  5
8FA
  8
LAYER_1
 10
17.13748130874107
 20
8.625071152362711
 30
0.0
  0
VERTEX
  5
8FB
  8
LAYER_1
 10
17.13122422091566
 20
8.636919963423413
 30
0.0
  0
VERTEX
  5
8FC
  8
LAYER_1
 10
17.12467325058712
 20
8.648626157491886
 30
0.0
  0
VERTEX
  5
8FD
  8
LAYER_1
 10
17.11781529385483
 20
8.660182930839543
 30
0.0
  0
VERTEX
  5
8FE
  8
LAYER_1
 10
17.10779846072532
 20
8.67606388456859
 30
0.0
  0
VERTEX
  5
8FF
  8
LAYER_1
 10
17.09729180186094
 20
8.691722903945951
 30
0.0
  0
VERTEX
  5
900
  8
LAYER_1
 10
17.08630766794722
 20
8.707132612001795
 30
0.0
  0
VERTEX
  5
901
  8
LAYER_1
 10
17.07485840966969
 20
8.722265631766287
 30
0.0
  0
VERTEX
  5
902
  8
LAYER_1
 10
17.06295637771391
 20
8.737094586269595
 30
0.0
  0
VERTEX
  5
903
  8
LAYER_1
 10
17.05061392276539
 20
8.751592098541884
 30
0.0
  0
VERTEX
  5
904
  8
LAYER_1
 10
17.0378433955097
 20
8.765730791613326
 30
0.0
  0
VERTEX
  5
905
  8
LAYER_1
 10
17.02465714663235
 20
8.77948328851408
 30
0.0
  0
VERTEX
  5
906
  8
LAYER_1
 10
17.01106752681889
 20
8.792822212274316
 30
0.0
  0
VERTEX
  5
907
  8
LAYER_1
 10
16.99708688675486
 20
8.805720185924205
 30
0.0
  0
VERTEX
  5
908
  8
LAYER_1
 10
16.9827275771258
 20
8.818149832493908
 30
0.0
  0
VERTEX
  5
909
  8
LAYER_1
 10
16.96800194861725
 20
8.830083775013595
 30
0.0
  0
VERTEX
  5
90A
  8
LAYER_1
 10
16.95292235191474
 20
8.841494636513431
 30
0.0
  0
VERTEX
  5
90B
  8
LAYER_1
 10
16.93750113770381
 20
8.852355040023584
 30
0.0
  0
VERTEX
  5
90C
  8
LAYER_1
 10
16.92175065667001
 20
8.86263760857422
 30
0.0
  0
VERTEX
  5
90D
  8
LAYER_1
 10
16.90568325949886
 20
8.872314965195507
 30
0.0
  0
VERTEX
  5
90E
  8
LAYER_1
 10
16.88925508964496
 20
8.881243870213114
 30
0.0
  0
VERTEX
  5
90F
  8
LAYER_1
 10
16.87243761566004
 20
8.889340581129499
 30
0.0
  0
VERTEX
  5
910
  8
LAYER_1
 10
16.85526617587534
 20
8.896666966740014
 30
0.0
  0
VERTEX
  5
911
  8
LAYER_1
 10
16.8377761086221
 20
8.903284895840006
 30
0.0
  0
VERTEX
  5
912
  8
LAYER_1
 10
16.82000275223159
 20
8.909256237224826
 30
0.0
  0
VERTEX
  5
913
  8
LAYER_1
 10
16.80198144503504
 20
8.91464285968982
 30
0.0
  0
VERTEX
  5
914
  8
LAYER_1
 10
16.7837475253637
 20
8.919506632030343
 30
0.0
  0
VERTEX
  5
915
  8
LAYER_1
 10
16.76533633154882
 20
8.923909423041737
 30
0.0
  0
VERTEX
  5
916
  8
LAYER_1
 10
16.74678320192166
 20
8.927913101519355
 30
0.0
  0
VERTEX
  5
917
  8
LAYER_1
 10
16.72812347481345
 20
8.931579536258546
 30
0.0
  0
VERTEX
  5
918
  8
LAYER_1
 10
16.69062558147888
 20
8.93814814970304
 30
0.0
  0
VERTEX
  5
919
  8
LAYER_1
 10
16.65312535819512
 20
8.944110213738014
 30
0.0
  0
VERTEX
  5
91A
  8
LAYER_1
 10
16.61590551161214
 20
8.949960678726264
 30
0.0
  0
VERTEX
  5
91B
  8
LAYER_1
 10
16.56236293159191
 20
8.958080707990387
 30
0.0
  0
VERTEX
  5
91C
  8
LAYER_1
 10
16.50867588807775
 20
8.965251030258525
 30
0.0
  0
VERTEX
  5
91D
  8
LAYER_1
 10
16.45485886569107
 20
8.971532509267401
 30
0.0
  0
VERTEX
  5
91E
  8
LAYER_1
 10
16.40092634905324
 20
8.976986008753741
 30
0.0
  0
VERTEX
  5
91F
  8
LAYER_1
 10
16.34689282278569
 20
8.981672392454271
 30
0.0
  0
VERTEX
  5
920
  8
LAYER_1
 10
16.2927727715098
 20
8.985652524105715
 30
0.0
  0
VERTEX
  5
921
  8
LAYER_1
 10
16.23858067984697
 20
8.988987267444799
 30
0.0
  0
VERTEX
  5
922
  8
LAYER_1
 10
16.1843310324186
 20
8.991737486208248
 30
0.0
  0
VERTEX
  5
923
  8
LAYER_1
 10
16.13003831384608
 20
8.993964044132785
 30
0.0
  0
VERTEX
  5
924
  8
LAYER_1
 10
16.07571700875083
 20
8.99572780495514
 30
0.0
  0
VERTEX
  5
925
  8
LAYER_1
 10
16.02138160175423
 20
8.997089632412035
 30
0.0
  0
VERTEX
  5
926
  8
LAYER_1
 10
15.96704657747768
 20
8.998110390240194
 30
0.0
  0
VERTEX
  5
927
  8
LAYER_1
 10
15.85843561557034
 20
8.999372151957214
 30
0.0
  0
VERTEX
  5
928
  8
LAYER_1
 10
15.75
 20
9.0
 30
0.0
  0
VERTEX
  5
929
  8
LAYER_1
 10
15.66291830650871
 20
9.000297753974795
 30
0.0
  0
VERTEX
  5
92A
  8
LAYER_1
 10
15.57568230605402
 20
9.00014639838589
 30
0.0
  0
VERTEX
  5
92B
  8
LAYER_1
 10
15.48838706485833
 20
8.99911893868169
 30
0.0
  0
VERTEX
  5
92C
  8
LAYER_1
 10
15.44474693717711
 20
8.99814323398898
 30
0.0
  0
VERTEX
  5
92D
  8
LAYER_1
 10
15.40112764914403
 20
8.996788380310596
 30
0.0
  0
VERTEX
  5
92E
  8
LAYER_1
 10
15.3575410840369
 20
8.995001003327591
 30
0.0
  0
VERTEX
  5
92F
  8
LAYER_1
 10
15.31399912513353
 20
8.992727728721011
 30
0.0
  0
VERTEX
  5
930
  8
LAYER_1
 10
15.27051365571169
 20
8.98991518217191
 30
0.0
  0
VERTEX
  5
931
  8
LAYER_1
 10
15.2270965590492
 20
8.98650998936134
 30
0.0
  0
VERTEX
  5
932
  8
LAYER_1
 10
15.18375971842386
 20
8.982458775970347
 30
0.0
  0
VERTEX
  5
933
  8
LAYER_1
 10
15.14051501711346
 20
8.977708167679985
 30
0.0
  0
VERTEX
  5
934
  8
LAYER_1
 10
15.09737433839581
 20
8.9722047901713
 30
0.0
  0
VERTEX
  5
935
  8
LAYER_1
 10
15.05434956554869
 20
8.965895269125348
 30
0.0
  0
VERTEX
  5
936
  8
LAYER_1
 10
15.01721924857809
 20
8.959966563535325
 30
0.0
  0
VERTEX
  5
937
  8
LAYER_1
 10
14.97997498034446
 20
8.953572024200717
 30
0.0
  0
VERTEX
  5
938
  8
LAYER_1
 10
14.94280346483429
 20
8.946404995336486
 30
0.0
  0
VERTEX
  5
939
  8
LAYER_1
 10
14.92430333434627
 20
8.942435967397936
 30
0.0
  0
VERTEX
  5
93A
  8
LAYER_1
 10
14.90589140603405
 20
8.93815882115759
 30
0.0
  0
VERTEX
  5
93B
  8
LAYER_1
 10
14.88759101789593
 20
8.933535224642318
 30
0.0
  0
VERTEX
  5
93C
  8
LAYER_1
 10
14.86942550793022
 20
8.928526845878991
 30
0.0
  0
VERTEX
  5
93D
  8
LAYER_1
 10
14.85141821413523
 20
8.92309535289448
 30
0.0
  0
VERTEX
  5
93E
  8
LAYER_1
 10
14.83359247450928
 20
8.917202413715653
 30
0.0
  0
VERTEX
  5
93F
  8
LAYER_1
 10
14.81597162705066
 20
8.91080969636938
 30
0.0
  0
VERTEX
  5
940
  8
LAYER_1
 10
14.7985790097577
 20
8.903878868882531
 30
0.0
  0
VERTEX
  5
941
  8
LAYER_1
 10
14.7814379606287
 20
8.896371599281977
 30
0.0
  0
VERTEX
  5
942
  8
LAYER_1
 10
14.76457181766197
 20
8.88824955559459
 30
0.0
  0
VERTEX
  5
943
  8
LAYER_1
 10
14.7389501995654
 20
8.87481143102194
 30
0.0
  0
VERTEX
  5
944
  8
LAYER_1
 10
14.72620505140081
 20
8.867697555950668
 30
0.0
  0
VERTEX
  5
945
  8
LAYER_1
 10
14.71355960697367
 20
8.860302994660628
 30
0.0
  0
VERTEX
  5
946
  8
LAYER_1
 10
14.70105581364525
 20
8.852614638880224
 30
0.0
  0
VERTEX
  5
947
  8
LAYER_1
 10
14.6887356187768
 20
8.844619380337857
 30
0.0
  0
VERTEX
  5
948
  8
LAYER_1
 10
14.67664096972957
 20
8.836304110761922
 30
0.0
  0
VERTEX
  5
949
  8
LAYER_1
 10
14.6648138138648
 20
8.827655721880824
 30
0.0
  0
VERTEX
  5
94A
  8
LAYER_1
 10
14.65329609854376
 20
8.818661105422962
 30
0.0
  0
VERTEX
  5
94B
  8
LAYER_1
 10
14.64212977112769
 20
8.809307153116736
 30
0.0
  0
VERTEX
  5
94C
  8
LAYER_1
 10
14.63135677897785
 20
8.799580756690547
 30
0.0
  0
VERTEX
  5
94D
  8
LAYER_1
 10
14.62101906945548
 20
8.789468807872794
 30
0.0
  0
VERTEX
  5
94E
  8
LAYER_1
 10
14.61115858992185
 20
8.778958198391878
 30
0.0
  0
VERTEX
  5
94F
  8
LAYER_1
 10
14.60181728773819
 20
8.768035819976198
 30
0.0
  0
VERTEX
  5
950
  8
LAYER_1
 10
14.59303711026577
 20
8.756688564354159
 30
0.0
  0
VERTEX
  5
951
  8
LAYER_1
 10
14.58486000486584
 20
8.744903323254157
 30
0.0
  0
VERTEX
  5
952
  8
LAYER_1
 10
14.57489043422495
 20
8.72909070967605
 30
0.0
  0
VERTEX
  5
953
  8
LAYER_1
 10
14.56548535545228
 20
8.71300446860425
 30
0.0
  0
VERTEX
  5
954
  8
LAYER_1
 10
14.55662133041614
 20
8.696657133783837
 30
0.0
  0
VERTEX
  5
955
  8
LAYER_1
 10
14.54827492098482
 20
8.680061238959892
 30
0.0
  0
VERTEX
  5
956
  8
LAYER_1
 10
14.54042268902666
 20
8.663229317877494
 30
0.0
  0
VERTEX
  5
957
  8
LAYER_1
 10
14.53304119640995
 20
8.646173904281722
 30
0.0
  0
VERTEX
  5
958
  8
LAYER_1
 10
14.526107005003
 20
8.628907531917658
 30
0.0
  0
VERTEX
  5
959
  8
LAYER_1
 10
14.51959667667412
 20
8.611442734530382
 30
0.0
  0
VERTEX
  5
95A
  8
LAYER_1
 10
14.51348677329161
 20
8.593792045864975
 30
0.0
  0
VERTEX
  5
95B
  8
LAYER_1
 10
14.5077538567238
 20
8.575967999666513
 30
0.0
  0
VERTEX
  5
95C
  8
LAYER_1
 10
14.50237448883898
 20
8.557983129680082
 30
0.0
  0
VERTEX
  5
95D
  8
LAYER_1
 10
14.49732523150546
 20
8.53984996965076
 30
0.0
  0
VERTEX
  5
95E
  8
LAYER_1
 10
14.48812329596558
 20
8.503188914443765
 30
0.0
  0
VERTEX
  5
95F
  8
LAYER_1
 10
14.47996054505061
 20
8.466085104006163
 30
0.0
  0
VERTEX
  5
960
  8
LAYER_1
 10
14.47264947370704
 20
8.428638808298604
 30
0.0
  0
VERTEX
  5
961
  8
LAYER_1
 10
14.46600257688132
 20
8.390950297281726
 30
0.0
  0
VERTEX
  5
962
  8
LAYER_1
 10
14.45395128656934
 20
8.315247709162582
 30
0.0
  0
VERTEX
  5
963
  8
LAYER_1
 10
14.44230663368642
 20
8.239779499333867
 30
0.0
  0
VERTEX
  5
964
  8
LAYER_1
 10
14.43616803364704
 20
8.202383961180026
 30
0.0
  0
VERTEX
  5
965
  8
LAYER_1
 10
14.42956857780432
 20
8.165347827480716
 30
0.0
  0
VERTEX
  5
966
  8
LAYER_1
 10
14.4204381708907
 20
8.11523968490906
 30
0.0
  0
VERTEX
  5
967
  8
LAYER_1
 10
14.41179050678811
 20
8.065053896061066
 30
0.0
  0
VERTEX
  5
968
  8
LAYER_1
 10
14.40362558304292
 20
8.014790438363274
 30
0.0
  0
VERTEX
  5
969
  8
LAYER_1
 10
14.39594339720148
 20
7.964449289242225
 30
0.0
  0
VERTEX
  5
96A
  8
LAYER_1
 10
14.38874394681016
 20
7.914030426124457
 30
0.0
  0
VERTEX
  5
96B
  8
LAYER_1
 10
14.38202722941532
 20
7.863533826436511
 30
0.0
  0
VERTEX
  5
96C
  8
LAYER_1
 10
14.37579324256333
 20
7.812959467604923
 30
0.0
  0
VERTEX
  5
96D
  8
LAYER_1
 10
14.37004198380055
 20
7.762307327056236
 30
0.0
  0
VERTEX
  5
96E
  8
LAYER_1
 10
14.36477345067333
 20
7.711577382216989
 30
0.0
  0
VERTEX
  5
96F
  8
LAYER_1
 10
14.35998764072806
 20
7.660769610513721
 30
0.0
  0
VERTEX
  5
970
  8
LAYER_1
 10
14.35568455151108
 20
7.60988398937297
 30
0.0
  0
VERTEX
  5
971
  8
LAYER_1
 10
14.35186418056876
 20
7.558920496221278
 30
0.0
  0
VERTEX
  5
972
  8
LAYER_1
 10
14.34852652544747
 20
7.507879108485183
 30
0.0
  0
VERTEX
  5
973
  8
LAYER_1
 10
14.34567158369357
 20
7.456759803591226
 30
0.0
  0
VERTEX
  5
974
  8
LAYER_1
 10
14.34329935285341
 20
7.405562558965945
 30
0.0
  0
VERTEX
  5
975
  8
LAYER_1
 10
14.34140983047336
 20
7.354287352035881
 30
0.0
  0
SEQEND
  5
976
  8
LAYER_1
  0
POLYLINE
  5
7E
  8
LAYER_1
 66
     1
 10
0.0
 20
0.0
 30
0.0
  0
VERTEX
  5
977
  8
LAYER_1
 10
17.35121880228309
 20
7.433419652658298
 30
0.0
  0
VERTEX
  5
978
  8
LAYER_1
 10
17.34758966944617
 20
7.468623078188412
 30
0.0
  0
VERTEX
  5
979
  8
LAYER_1
 10
17.34459574916581
 20
7.503978778854483
 30
0.0
  0
VERTEX
  5
97A
  8
LAYER_1
 10
17.34166290845766
 20
7.539334362093991
 30
0.0
  0
VERTEX
  5
97B
  8
LAYER_1
 10
17.33821701433733
 20
7.574537435344416
 30
0.0
  0
VERTEX
  5
97C
  8
LAYER_1
 10
17.33612225568999
 20
7.592034158047934
 30
0.0
  0
VERTEX
  5
97D
  8
LAYER_1
 10
17.33368393382047
 20
7.609435606043236
 30
0.0
  0
VERTEX
  5
97E
  8
LAYER_1
 10
17.33083028210572
 20
7.626722730260006
 30
0.0
  0
VERTEX
  5
97F
  8
LAYER_1
 10
17.32748953392269
 20
7.643876481627931
 30
0.0
  0
VERTEX
  5
980
  8
LAYER_1
 10
17.32358992264835
 20
7.660877811076695
 30
0.0
  0
VERTEX
  5
981
  8
LAYER_1
 10
17.31905968165965
 20
7.677707669535982
 30
0.0
  0
VERTEX
  5
982
  8
LAYER_1
 10
17.31382704433353
 20
7.694347007935479
 30
0.0
  0
VERTEX
  5
983
  8
LAYER_1
 10
17.30782024404696
 20
7.710776777204868
 30
0.0
  0
VERTEX
  5
984
  8
LAYER_1
 10
17.30330733005729
 20
7.721840935904925
 30
0.0
  0
VERTEX
  5
985
  8
LAYER_1
 10
17.29849530034754
 20
7.732834079273095
 30
0.0
  0
VERTEX
  5
986
  8
LAYER_1
 10
17.29338576112038
 20
7.743737414051951
 30
0.0
  0
VERTEX
  5
987
  8
LAYER_1
 10
17.28798031857848
 20
7.754532146984071
 30
0.0
  0
VERTEX
  5
988
  8
LAYER_1
 10
17.28228057892448
 20
7.765199484812032
 30
0.0
  0
VERTEX
  5
989
  8
LAYER_1
 10
17.27628814836104
 20
7.77572063427841
 30
0.0
  0
VERTEX
  5
98A
  8
LAYER_1
 10
17.27000463309083
 20
7.78607680212578
 30
0.0
  0
VERTEX
  5
98B
  8
LAYER_1
 10
17.26343163931649
 20
7.796249195096721
 30
0.0
  0
VERTEX
  5
98C
  8
LAYER_1
 10
17.2565707732407
 20
7.806219019933809
 30
0.0
  0
VERTEX
  5
98D
  8
LAYER_1
 10
17.24942364106611
 20
7.815967483379619
 30
0.0
  0
VERTEX
  5
98E
  8
LAYER_1
 10
17.24199184899536
 20
7.825475792176729
 30
0.0
  0
VERTEX
  5
98F
  8
LAYER_1
 10
17.23427700323113
 20
7.834725153067715
 30
0.0
  0
VERTEX
  5
990
  8
LAYER_1
 10
17.22628070997608
 20
7.843696772795153
 30
0.0
  0
VERTEX
  5
991
  8
LAYER_1
 10
17.21800457543285
 20
7.85237185810162
 30
0.0
  0
VERTEX
  5
992
  8
LAYER_1
 10
17.2094502058041
 20
7.860731615729693
 30
0.0
  0
VERTEX
  5
993
  8
LAYER_1
 10
17.20061920729251
 20
7.868757252421949
 30
0.0
  0
VERTEX
  5
994
  8
LAYER_1
 10
17.18673358638911
 20
7.880376898548253
 30
0.0
  0
VERTEX
  5
995
  8
LAYER_1
 10
17.17236431092292
 20
7.891386902740477
 30
0.0
  0
VERTEX
  5
996
  8
LAYER_1
 10
17.15754829005439
 20
7.901817644231015
 30
0.0
  0
VERTEX
  5
997
  8
LAYER_1
 10
17.14232243294396
 20
7.911699502252256
 30
0.0
  0
VERTEX
  5
998
  8
LAYER_1
 10
17.12672364875206
 20
7.921062856036597
 30
0.0
  0
VERTEX
  5
999
  8
LAYER_1
 10
17.11078884663914
 20
7.929938084816428
 30
0.0
  0
VERTEX
  5
99A
  8
LAYER_1
 10
17.09455493576563
 20
7.938355567824143
 30
0.0
  0
VERTEX
  5
99B
  8
LAYER_1
 10
17.07805882529198
 20
7.946345684292135
 30
0.0
  0
VERTEX
  5
99C
  8
LAYER_1
 10
17.06133742437862
 20
7.953938813452796
 30
0.0
  0
VERTEX
  5
99D
  8
LAYER_1
 10
17.04442764218599
 20
7.961165334538517
 30
0.0
  0
VERTEX
  5
99E
  8
LAYER_1
 10
17.02736638787453
 20
7.968055626781693
 30
0.0
  0
VERTEX
  5
99F
  8
LAYER_1
 10
17.01019057060468
 20
7.974640069414715
 30
0.0
  0
VERTEX
  5
9A0
  8
LAYER_1
 10
16.97564288383156
 20
7.987012922779869
 30
0.0
  0
VERTEX
  5
9A1
  8
LAYER_1
 10
16.94107985515016
 20
7.998526928493122
 30
0.0
  0
VERTEX
  5
9A2
  8
LAYER_1
 10
16.92447491928638
 20
8.003684326428038
 30
0.0
  0
VERTEX
  5
9A3
  8
LAYER_1
 10
16.90774529609097
 20
8.00845344353295
 30
0.0
  0
VERTEX
  5
9A4
  8
LAYER_1
 10
16.8909014954093
 20
8.012850730899425
 30
0.0
  0
VERTEX
  5
9A5
  8
LAYER_1
 10
16.87395402708673
 20
8.01689263961902
 30
0.0
  0
VERTEX
  5
9A6
  8
LAYER_1
 10
16.85691340096862
 20
8.020595620783302
 30
0.0
  0
VERTEX
  5
9A7
  8
LAYER_1
 10
16.83979012690033
 20
8.023976125483834
 30
0.0
  0
VERTEX
  5
9A8
  8
LAYER_1
 10
16.80533767429464
 20
8.029835509859891
 30
0.0
  0
VERTEX
  5
9A9
  8
LAYER_1
 10
16.77068074803255
 20
8.034602401479695
 30
0.0
  0
VERTEX
  5
9AA
  8
LAYER_1
 10
16.73590342687693
 20
8.038408409075743
 30
0.0
  0
VERTEX
  5
9AB
  8
LAYER_1
 10
16.70108978959067
 20
8.041385141380534
 30
0.0
  0
VERTEX
  5
9AC
  8
LAYER_1
 10
16.66632391493665
 20
8.043664207126575
 30
0.0
  0
VERTEX
  5
9AD
  8
LAYER_1
 10
16.56017749991557
 20
8.04941656538992
 30
0.0
  0
VERTEX
  5
9AE
  8
LAYER_1
 10
16.45396755970731
 20
8.054579670586104
 30
0.0
  0
VERTEX
  5
9AF
  8
LAYER_1
 10
16.34770474728115
 20
8.059115438136283
 30
0.0
  0
VERTEX
  5
9B0
  8
LAYER_1
 10
16.24139971560637
 20
8.062985783461608
 30
0.0
  0
VERTEX
  5
9B1
  8
LAYER_1
 10
16.13506311765226
 20
8.066152621983232
 30
0.0
  0
VERTEX
  5
9B2
  8
LAYER_1
 10
16.02870560638811
 20
8.068577869122306
 30
0.0
  0
VERTEX
  5
9B3
  8
LAYER_1
 10
15.92233783478319
 20
8.070223440299985
 30
0.0
  0
VERTEX
  5
9B4
  8
LAYER_1
 10
15.8159704558068
 20
8.071051250937423
 30
0.0
  0
VERTEX
  5
9B5
  8
LAYER_1
 10
15.70961412242821
 20
8.071023216455773
 30
0.0
  0
VERTEX
  5
9B6
  8
LAYER_1
 10
15.60327948761672
 20
8.070101252276183
 30
0.0
  0
VERTEX
  5
9B7
  8
LAYER_1
 10
15.4969772043416
 20
8.068247273819814
 30
0.0
  0
VERTEX
  5
9B8
  8
LAYER_1
 10
15.39071792557215
 20
8.065423196507814
 30
0.0
  0
VERTEX
  5
9B9
  8
LAYER_1
 10
15.28451230427764
 20
8.061590935761338
 30
0.0
  0
VERTEX
  5
9BA
  8
LAYER_1
 10
15.17837099342737
 20
8.056712407001537
 30
0.0
  0
VERTEX
  5
9BB
  8
LAYER_1
 10
15.07230464599061
 20
8.050749525649564
 30
0.0
  0
VERTEX
  5
9BC
  8
LAYER_1
 10
14.96632391493665
 20
8.043664207126575
 30
0.0
  0
VERTEX
  5
9BD
  8
LAYER_1
 10
14.94686957711793
 20
8.041666377622848
 30
0.0
  0
VERTEX
  5
9BE
  8
LAYER_1
 10
14.92725114284717
 20
8.038551657863758
 30
0.0
  0
VERTEX
  5
9BF
  8
LAYER_1
 10
14.90758148770864
 20
8.03444441541857
 30
0.0
  0
VERTEX
  5
9C0
  8
LAYER_1
 10
14.88797348728662
 20
8.02946901785655
 30
0.0
  0
VERTEX
  5
9C1
  8
LAYER_1
 10
14.86854001716535
 20
8.023749832746962
 30
0.0
  0
VERTEX
  5
9C2
  8
LAYER_1
 10
14.84939395292911
 20
8.017411227659071
 30
0.0
  0
VERTEX
  5
9C3
  8
LAYER_1
 10
14.83064817016216
 20
8.010577570162141
 30
0.0
  0
VERTEX
  5
9C4
  8
LAYER_1
 10
14.81241554444877
 20
8.003373227825438
 30
0.0
  0
VERTEX
  5
9C5
  8
LAYER_1
 10
14.79026929698808
 20
7.994217886620549
 30
0.0
  0
VERTEX
  5
9C6
  8
LAYER_1
 10
14.76820722972121
 20
7.984755214190765
 30
0.0
  0
VERTEX
  5
9C7
  8
LAYER_1
 10
14.74639144112755
 20
7.974789192909807
 30
0.0
  0
VERTEX
  5
9C8
  8
LAYER_1
 10
14.72498402968652
 20
7.964123805151396
 30
0.0
  0
VERTEX
  5
9C9
  8
LAYER_1
 10
14.71448412117305
 20
7.958467593334935
 30
0.0
  0
VERTEX
  5
9CA
  8
LAYER_1
 10
14.70414709387752
 20
7.952563033289255
 30
0.0
  0
VERTEX
  5
9CB
  8
LAYER_1
 10
14.69399321010984
 20
7.946385622811075
 30
0.0
  0
VERTEX
  5
9CC
  8
LAYER_1
 10
14.68404273217996
 20
7.939910859697106
 30
0.0
  0
VERTEX
  5
9CD
  8
LAYER_1
 10
14.67431592239778
 20
7.933114241744066
 30
0.0
  0
VERTEX
  5
9CE
  8
LAYER_1
 10
14.66483304307325
 20
7.92597126674867
 30
0.0
  0
VERTEX
  5
9CF
  8
LAYER_1
 10
14.65561435651628
 20
7.918457432507633
 30
0.0
  0
VERTEX
  5
9D0
  8
LAYER_1
 10
14.6466801250368
 20
7.91054823681767
 30
0.0
  0
VERTEX
  5
9D1
  8
LAYER_1
 10
14.63332231508706
 20
7.897473782423413
 30
0.0
  0
VERTEX
  5
9D2
  8
LAYER_1
 10
14.62073371792376
 20
7.883708377297051
 30
0.0
  0
VERTEX
  5
9D3
  8
LAYER_1
 10
14.60886329680552
 20
7.869309695968989
 30
0.0
  0
VERTEX
  5
9D4
  8
LAYER_1
 10
14.59766001499095
 20
7.854335412969626
 30
0.0
  0
VERTEX
  5
9D5
  8
LAYER_1
 10
14.58707283573866
 20
7.838843202829366
 30
0.0
  0
VERTEX
  5
9D6
  8
LAYER_1
 10
14.57705072230726
 20
7.822890740078613
 30
0.0
  0
VERTEX
  5
9D7
  8
LAYER_1
 10
14.56754263795537
 20
7.806535699247767
 30
0.0
  0
VERTEX
  5
9D8
  8
LAYER_1
 10
14.55849754594158
 20
7.78983575486723
 30
0.0
  0
VERTEX
  5
9D9
  8
LAYER_1
 10
14.54986440952453
 20
7.772848581467406
 30
0.0
  0
VERTEX
  5
9DA
  8
LAYER_1
 10
14.54159219196281
 20
7.755631853578693
 30
0.0
  0
VERTEX
  5
9DB
  8
LAYER_1
 10
14.52592636643983
 20
7.720740432456221
 30
0.0
  0
VERTEX
  5
9DC
  8
LAYER_1
 10
14.51109177544153
 20
7.68562288774303
 30
0.0
  0
VERTEX
  5
9DD
  8
LAYER_1
 10
14.4966801250368
 20
7.650740615682338
 30
0.0
  0
VERTEX
  5
9DE
  8
LAYER_1
 10
14.48965669651859
 20
7.633384861679897
 30
0.0
  0
VERTEX
  5
9DF
  8
LAYER_1
 10
14.48292268760822
 20
7.615928431282541
 30
0.0
  0
VERTEX
  5
9E0
  8
LAYER_1
 10
14.47647809614466
 20
7.598371316425165
 30
0.0
  0
VERTEX
  5
9E1
  8
LAYER_1
 10
14.47032291996688
 20
7.580713509042669
 30
0.0
  0
VERTEX
  5
9E2
  8
LAYER_1
 10
14.46445715691383
 20
7.562955001069946
 30
0.0
  0
VERTEX
  5
9E3
  8
LAYER_1
 10
14.45888080482449
 20
7.545095784441897
 30
0.0
  0
VERTEX
  5
9E4
  8
LAYER_1
 10
14.4535938615378
 20
7.527135851093416
 30
0.0
  0
VERTEX
  5
9E5
  8
LAYER_1
 10
14.44859632489273
 20
7.509075192959401
 30
0.0
  0
VERTEX
  5
9E6
  8
LAYER_1
 10
14.44388819272825
 20
7.490913801974747
 30
0.0
  0
VERTEX
  5
9E7
  8
LAYER_1
 10
14.43946946288331
 20
7.472651670074351
 30
0.0
  0
VERTEX
  5
9E8
  8
LAYER_1
 10
14.43534013319688
 20
7.454288789193109
 30
0.0
  0
VERTEX
  5
9E9
  8
LAYER_1
 10
14.43150020150793
 20
7.435825151265921
 30
0.0
  0
VERTEX
  5
9EA
  8
LAYER_1
 10
14.4279496656554
 20
7.41726074822768
 30
0.0
  0
VERTEX
  5
9EB
  8
LAYER_1
 10
14.42468852347827
 20
7.398595572013285
 30
0.0
  0
VERTEX
  5
9EC
  8
LAYER_1
 10
14.4217167728155
 20
7.379829614557632
 30
0.0
  0
VERTEX
  5
9ED
  8
LAYER_1
 10
14.41903441150605
 20
7.360962867795617
 30
0.0
  0
SEQEND
  5
9EE
  8
LAYER_1
  0
POLYLINE
  5
7F
  8
LAYER_1
 66
     1
 10
0.0
 20
0.0
 30
0.0
  0
VERTEX
  5
9EF
  8
LAYER_1
 10
4.430472017045947
 20
7.388345143230609
 30
0.0
  0
VERTEX
  5
9F0
  8
LAYER_1
 10
4.400715505829083
 20
7.384196908940545
 30
0.0
  0
VERTEX
  5
9F1
  8
LAYER_1
 10
4.385973435673407
 20
7.382462685459882
 30
0.0
  0
VERTEX
  5
9F2
  8
LAYER_1
 10
4.371168603889078
 20
7.381245016726952
 30
0.0
  0
VERTEX
  5
9F3
  8
LAYER_1
 10
4.35618584652823
 20
7.380761371970371
 30
0.0
  0
VERTEX
  5
9F4
  8
LAYER_1
 10
4.340909999642991
 20
7.381229220418756
 30
0.0
  0
VERTEX
  5
9F5
  8
LAYER_1
 10
4.333126178895018
 20
7.381887913728752
 30
0.0
  0
VERTEX
  5
9F6
  8
LAYER_1
 10
4.325225899285496
 20
7.382866031300719
 30
0.0
  0
VERTEX
  5
9F7
  8
LAYER_1
 10
4.317194765320943
 20
7.384190756788237
 30
0.0
  0
VERTEX
  5
9F8
  8
LAYER_1
 10
4.309018381507876
 20
7.385889273844881
 30
0.0
  0
VERTEX
  5
9F9
  8
LAYER_1
 10
4.300607163699643
 20
7.388133397578344
 30
0.0
  0
VERTEX
  5
9FA
  8
LAYER_1
 10
4.292340114862816
 20
7.390935101926324
 30
0.0
  0
VERTEX
  5
9FB
  8
LAYER_1
 10
4.284227110134792
 20
7.394237568314903
 30
0.0
  0
VERTEX
  5
9FC
  8
LAYER_1
 10
4.276278024652967
 20
7.397983978170163
 30
0.0
  0
VERTEX
  5
9FD
  8
LAYER_1
 10
4.268502733554737
 20
7.402117512918186
 30
0.0
  0
VERTEX
  5
9FE
  8
LAYER_1
 10
4.260911111977497
 20
7.406581353985054
 30
0.0
  0
VERTEX
  5
9FF
  8
LAYER_1
 10
4.246318377935571
 20
7.416272680779655
 30
0.0
  0
VERTEX
  5
A00
  8
LAYER_1
 10
4.239280348746007
 20
7.421621616435774
 30
0.0
  0
VERTEX
  5
A01
  8
LAYER_1
 10
4.232392021980306
 20
7.427476026755588
 30
0.0
  0
VERTEX
  5
A02
  8
LAYER_1
 10
4.218944895174125
 20
7.44035093329526
 30
0.0
  0
VERTEX
  5
A03
  8
LAYER_1
 10
4.205737836424285
 20
7.454196724216575
 30
0.0
  0
VERTEX
  5
A04
  8
LAYER_1
 10
4.192531684638052
 20
7.468312723337439
 30
0.0
  0
VERTEX
  5
A05
  8
LAYER_1
 10
4.179087278722683
 20
7.481998254475755
 30
0.0
  0
VERTEX
  5
A06
  8
LAYER_1
 10
4.172200992625092
 20
7.488460633244554
 30
0.0
  0
VERTEX
  5
A07
  8
LAYER_1
 10
4.165165457585442
 20
7.494552641449429
 30
0.0
  0
VERTEX
  5
A08
  8
LAYER_1
 10
4.157950778467137
 20
7.500186694567621
 30
0.0
  0
VERTEX
  5
A09
  8
LAYER_1
 10
4.150527060133587
 20
7.505275208076366
 30
0.0
  0
VERTEX
  5
A0A
  8
LAYER_1
 10
4.142864407448199
 20
7.509730597452903
 30
0.0
  0
VERTEX
  5
A0B
  8
LAYER_1
 10
4.134932925274381
 20
7.51346527817447
 30
0.0
  0
VERTEX
  5
A0C
  8
LAYER_1
 10
4.128915402120453
 20
7.515691855044579
 30
0.0
  0
VERTEX
  5
A0D
  8
LAYER_1
 10
4.122479540320819
 20
7.517597723231674
 30
0.0
  0
VERTEX
  5
A0E
  8
LAYER_1
 10
4.115744982875341
 20
7.51919022814339
 30
0.0
  0
VERTEX
  5
A0F
  8
LAYER_1
 10
4.108831372783887
 20
7.520476715187366
 30
0.0
  0
VERTEX
  5
A10
  8
LAYER_1
 10
4.094945566662514
 20
7.522161017302642
 30
0.0
  0
VERTEX
  5
A11
  8
LAYER_1
 10
4.081779265955627
 20
7.522709392838602
 30
0.0
  0
VERTEX
  5
A12
  8
LAYER_1
 10
4.058988800286691
 20
7.522389629597894
 30
0.0
  0
VERTEX
  5
A13
  8
LAYER_1
 10
4.037672260114038
 20
7.521546617417847
 30
0.0
  0
VERTEX
  5
A14
  8
LAYER_1
 10
3.997075097262541
 20
7.518988511492187
 30
0.0
  0
VERTEX
  5
A15
  8
LAYER_1
 10
3.955216059411044
 20
7.516430405566526
 30
0.0
  0
VERTEX
  5
A16
  8
LAYER_1
 10
3.932322175488392
 20
7.515587393386479
 30
0.0
  0
VERTEX
  5
A17
  8
LAYER_1
 10
3.907323428569455
 20
7.515267630145772
 30
0.0
  0
VERTEX
  5
A18
  8
LAYER_1
 10
3.90357358197008
 20
7.515576318522488
 30
0.0
  0
VERTEX
  5
A19
  8
LAYER_1
 10
3.899854215567011
 20
7.516459918865944
 30
0.0
  0
VERTEX
  5
A1A
  8
LAYER_1
 10
3.896221839452836
 20
7.517854733996094
 30
0.0
  0
VERTEX
  5
A1B
  8
LAYER_1
 10
3.892732963720142
 20
7.519697066732897
 30
0.0
  0
VERTEX
  5
A1C
  8
LAYER_1
 10
3.889444098461517
 20
7.521923219896309
 30
0.0
  0
VERTEX
  5
A1D
  8
LAYER_1
 10
3.886411753769547
 20
7.524469496306287
 30
0.0
  0
VERTEX
  5
A1E
  8
LAYER_1
 10
3.883692439736819
 20
7.527272198782789
 30
0.0
  0
VERTEX
  5
A1F
  8
LAYER_1
 10
3.881342666455922
 20
7.530267630145771
 30
0.0
  0
VERTEX
  5
A20
  8
LAYER_1
 10
3.879549813285031
 20
7.533416416877932
 30
0.0
  0
VERTEX
  5
A21
  8
LAYER_1
 10
3.878310101607239
 20
7.536830736717837
 30
0.0
  0
VERTEX
  5
A22
  8
LAYER_1
 10
3.877538213433698
 20
7.540466895301215
 30
0.0
  0
VERTEX
  5
A23
  8
LAYER_1
 10
3.877148830775561
 20
7.544281198263789
 30
0.0
  0
VERTEX
  5
A24
  8
LAYER_1
 10
3.87717631005011
 20
7.552269459869439
 30
0.0
  0
VERTEX
  5
A25
  8
LAYER_1
 10
3.877709995520109
 20
7.5604459666206
 30
0.0
  0
VERTEX
  5
A26
  8
LAYER_1
 10
3.878067343274782
 20
7.568461163603082
 30
0.0
  0
VERTEX
  5
A27
  8
LAYER_1
 10
3.877966595536753
 20
7.572299035020386
 30
0.0
  0
VERTEX
  5
A28
  8
LAYER_1
 10
3.877565809403351
 20
7.5759654959027
 30
0.0
  0
VERTEX
  5
A29
  8
LAYER_1
 10
3.876779666885728
 20
7.579416851885751
 30
0.0
  0
VERTEX
  5
A2A
  8
LAYER_1
 10
3.875522849995039
 20
7.582609408605265
 30
0.0
  0
VERTEX
  5
A2B
  8
LAYER_1
 10
3.873710040742436
 20
7.585499471696969
 30
0.0
  0
VERTEX
  5
A2C
  8
LAYER_1
 10
3.87125592113907
 20
7.58804334679659
 30
0.0
  0
VERTEX
  5
A2D
  8
LAYER_1
 10
3.868772838392081
 20
7.589770438924411
 30
0.0
  0
VERTEX
  5
A2E
  8
LAYER_1
 10
3.866115808801172
 20
7.590975891846046
 30
0.0
  0
VERTEX
  5
A2F
  8
LAYER_1
 10
3.8633037661971
 20
7.591722139902027
 30
0.0
  0
VERTEX
  5
A30
  8
LAYER_1
 10
3.860355644410617
 20
7.592071617432882
 30
0.0
  0
VERTEX
  5
A31
  8
LAYER_1
 10
3.854126898613432
 20
7.591829998281344
 30
0.0
  0
VERTEX
  5
A32
  8
LAYER_1
 10
3.847581042055645
 20
7.590750509115673
 30
0.0
  0
VERTEX
  5
A33
  8
LAYER_1
 10
3.840869545383288
 20
7.589332624660117
 30
0.0
  0
VERTEX
  5
A34
  8
LAYER_1
 10
3.834143879242387
 20
7.588075819638922
 30
0.0
  0
VERTEX
  5
A35
  8
LAYER_1
 10
3.827555514278971
 20
7.587479568776331
 30
0.0
  0
VERTEX
  5
A36
  8
LAYER_1
 10
3.824360154315705
 20
7.587585237005839
 30
0.0
  0
VERTEX
  5
A37
  8
LAYER_1
 10
3.821255921139071
 20
7.58804334679659
 30
0.0
  0
VERTEX
  5
A38
  8
LAYER_1
 10
3.81467975920575
 20
7.590154445659206
 30
0.0
  0
VERTEX
  5
A39
  8
LAYER_1
 10
3.807470157734675
 20
7.593551717587827
 30
0.0
  0
VERTEX
  5
A3A
  8
LAYER_1
 10
3.792003992709813
 20
7.602527393828817
 30
0.0
  0
VERTEX
  5
A3B
  8
LAYER_1
 10
3.784174107421302
 20
7.607267104734055
 30
0.0
  0
VERTEX
  5
A3C
  8
LAYER_1
 10
3.77656413912559
 20
7.611615601891033
 30
0.0
  0
VERTEX
  5
A3D
  8
LAYER_1
 10
3.769387426955313
 20
7.615153538596184
 30
0.0
  0
VERTEX
  5
A3E
  8
LAYER_1
 10
3.762857310043112
 20
7.617461568145943
 30
0.0
  0
VERTEX
  5
A3F
  8
LAYER_1
 10
3.751427823770948
 20
7.619895169743909
 30
0.0
  0
VERTEX
  5
A40
  8
LAYER_1
 10
3.740129252357947
 20
7.62145726566167
 30
0.0
  0
VERTEX
  5
A41
  8
LAYER_1
 10
3.728943445240565
 20
7.622274445657615
 30
0.0
  0
VERTEX
  5
A42
  8
LAYER_1
 10
3.717852251855259
 20
7.622473299490133
 30
0.0
  0
VERTEX
  5
A43
  8
LAYER_1
 10
3.706837521638487
 20
7.622180416917615
 30
0.0
  0
VERTEX
  5
A44
  8
LAYER_1
 10
3.695881104026703
 20
7.621522387698452
 30
0.0
  0
VERTEX
  5
A45
  8
LAYER_1
 10
3.67407060436393
 20
7.619617248353746
 30
0.0
  0
VERTEX
  5
A46
  8
LAYER_1
 10
3.652275548358594
 20
7.617770599523136
 30
0.0
  0
VERTEX
  5
A47
  8
LAYER_1
 10
3.641338435318606
 20
7.617185683446592
 30
0.0
  0
VERTEX
  5
A48
  8
LAYER_1
 10
3.630350731502348
 20
7.616995159273742
 30
0.0
  0
VERTEX
  5
A49
  8
LAYER_1
 10
3.619294286346274
 20
7.617325616762975
 30
0.0
  0
VERTEX
  5
A4A
  8
LAYER_1
 10
3.608150949286843
 20
7.618303645672682
 30
0.0
  0
VERTEX
  5
A4B
  8
LAYER_1
 10
3.59690256976051
 20
7.620055835761255
 30
0.0
  0
VERTEX
  5
A4C
  8
LAYER_1
 10
3.585530997203732
 20
7.62270877678708
 30
0.0
  0
VERTEX
  5
A4D
  8
LAYER_1
 10
3.574981697663049
 20
7.625860097200547
 30
0.0
  0
VERTEX
  5
A4E
  8
LAYER_1
 10
3.564526801203333
 20
7.629501204474654
 30
0.0
  0
VERTEX
  5
A4F
  8
LAYER_1
 10
3.554223024528393
 20
7.633638578822202
 30
0.0
  0
VERTEX
  5
A50
  8
LAYER_1
 10
3.544127084342036
 20
7.638278700455995
 30
0.0
  0
VERTEX
  5
A51
  8
LAYER_1
 10
3.534295697348072
 20
7.643428049588834
 30
0.0
  0
VERTEX
  5
A52
  8
LAYER_1
 10
3.52478558025031
 20
7.649093106433519
 30
0.0
  0
VERTEX
  5
A53
  8
LAYER_1
 10
3.515653449752556
 20
7.655280351202852
 30
0.0
  0
VERTEX
  5
A54
  8
LAYER_1
 10
3.50695602255862
 20
7.661996264109637
 30
0.0
  0
VERTEX
  5
A55
  8
LAYER_1
 10
3.495107665590288
 20
7.672312978882298
 30
0.0
  0
VERTEX
  5
A56
  8
LAYER_1
 10
3.483749450667635
 20
7.683320706405798
 30
0.0
  0
VERTEX
  5
A57
  8
LAYER_1
 10
3.47296707301367
 20
7.694974663777184
 30
0.0
  0
VERTEX
  5
A58
  8
LAYER_1
 10
3.462846227851404
 20
7.707230068093502
 30
0.0
  0
VERTEX
  5
A59
  8
LAYER_1
 10
3.453472610403848
 20
7.720042136451799
 30
0.0
  0
VERTEX
  5
A5A
  8
LAYER_1
 10
3.444931915894012
 20
7.733366085949124
 30
0.0
  0
VERTEX
  5
A5B
  8
LAYER_1
 10
3.437309839544906
 20
7.747157133682523
 30
0.0
  0
VERTEX
  5
A5C
  8
LAYER_1
 10
3.43069207657954
 20
7.761370496749044
 30
0.0
  0
VERTEX
  5
A5D
  8
LAYER_1
 10
3.428185579810444
 20
7.767878970925687
 30
0.0
  0
VERTEX
  5
A5E
  8
LAYER_1
 10
3.426084134808855
 20
7.774500825665839
 30
0.0
  0
VERTEX
  5
A5F
  8
LAYER_1
 10
3.424343671102526
 20
7.781223896900793
 30
0.0
  0
VERTEX
  5
A60
  8
LAYER_1
 10
3.422920118219212
 20
7.788036020561835
 30
0.0
  0
VERTEX
  5
A61
  8
LAYER_1
 10
3.420847463032649
 20
7.801878768887342
 30
0.0
  0
VERTEX
  5
A62
  8
LAYER_1
 10
3.419513605471202
 20
7.815931758092677
 30
0.0
  0
VERTEX
  5
A63
  8
LAYER_1
 10
3.417652028111804
 20
7.844279208944097
 30
0.0
  0
VERTEX
  5
A64
  8
LAYER_1
 10
3.416419180757926
 20
7.85837904549081
 30
0.0
  0
VERTEX
  5
A65
  8
LAYER_1
 10
3.414514875917311
 20
7.872299872718615
 30
0.0
  0
VERTEX
  5
A66
  8
LAYER_1
 10
3.409652399787729
 20
7.901953095556337
 30
0.0
  0
VERTEX
  5
A67
  8
LAYER_1
 10
3.404674180554601
 20
7.931628775907138
 30
0.0
  0
VERTEX
  5
A68
  8
LAYER_1
 10
3.401909954499151
 20
7.946405883395123
 30
0.0
  0
VERTEX
  5
A69
  8
LAYER_1
 10
3.398838737337746
 20
7.961105620155594
 30
0.0
  0
VERTEX
  5
A6A
  8
LAYER_1
 10
3.395367843960365
 20
7.975700324486624
 30
0.0
  0
VERTEX
  5
A6B
  8
LAYER_1
 10
3.391404589256983
 20
7.990162334686284
 30
0.0
  0
VERTEX
  5
A6C
  8
LAYER_1
 10
3.384078235054253
 20
8.013735052584613
 30
0.0
  0
VERTEX
  5
A6D
  8
LAYER_1
 10
3.380073104598464
 20
8.025441511056943
 30
0.0
  0
VERTEX
  5
A6E
  8
LAYER_1
 10
3.375782085825006
 20
8.037044844918414
 30
0.0
  0
VERTEX
  5
A6F
  8
LAYER_1
 10
3.371161739172837
 20
8.048507660949301
 30
0.0
  0
VERTEX
  5
A70
  8
LAYER_1
 10
3.366168625080918
 20
8.059792565929875
 30
0.0
  0
VERTEX
  5
A71
  8
LAYER_1
 10
3.360759303988208
 20
8.07086216664041
 30
0.0
  0
VERTEX
  5
A72
  8
LAYER_1
 10
3.354890336333666
 20
8.08167906986118
 30
0.0
  0
VERTEX
  5
A73
  8
LAYER_1
 10
3.348099661732985
 20
8.09285349638943
 30
0.0
  0
VERTEX
  5
A74
  8
LAYER_1
 10
3.340783832601592
 20
8.103700638100348
 30
0.0
  0
VERTEX
  5
A75
  8
LAYER_1
 10
3.33302814050534
 20
8.114265319779026
 30
0.0
  0
VERTEX
  5
A76
  8
LAYER_1
 10
3.324917877010081
 20
8.124592366210562
 30
0.0
  0
VERTEX
  5
A77
  8
LAYER_1
 10
3.307974802085947
 20
8.144712852472566
 30
0.0
  0
VERTEX
  5
A78
  8
LAYER_1
 10
3.290636940356009
 20
8.164420695167099
 30
0.0
  0
VERTEX
  5
A79
  8
LAYER_1
 10
3.273773867570288
 20
8.182869776109921
 30
0.0
  0
VERTEX
  5
A7A
  8
LAYER_1
 10
3.256297568979186
 20
8.200781287959906
 30
0.0
  0
VERTEX
  5
A7B
  8
LAYER_1
 10
3.23831328654683
 20
8.218190172943151
 30
0.0
  0
VERTEX
  5
A7C
  8
LAYER_1
 10
3.219926262237355
 20
8.235131373285753
 30
0.0
  0
VERTEX
  5
A7D
  8
LAYER_1
 10
3.212421223144561
 20
8.24112960788445
 30
0.0
  0
VERTEX
  5
A7E
  8
LAYER_1
 10
3.20426653600958
 20
8.246573134879034
 30
0.0
  0
VERTEX
  5
A7F
  8
LAYER_1
 10
3.187370226475426
 20
8.256905605453387
 30
0.0
  0
VERTEX
  5
A80
  8
LAYER_1
 10
3.179309608507435
 20
8.262349318731921
 30
0.0
  0
VERTEX
  5
A81
  8
LAYER_1
 10
3.171961351359626
 20
8.26834786380387
 30
0.0
  0
VERTEX
  5
A82
  8
LAYER_1
 10
3.168660765035662
 20
8.271641881027806
 30
0.0
  0
VERTEX
  5
A83
  8
LAYER_1
 10
3.165665957247589
 20
8.275178625518615
 30
0.0
  0
VERTEX
  5
A84
  8
LAYER_1
 10
3.163019490772358
 20
8.278992770382468
 30
0.0
  0
VERTEX
  5
A85
  8
LAYER_1
 10
3.160763928386917
 20
8.283118988725539
 30
0.0
  0
VERTEX
  5
A86
  8
LAYER_1
 10
3.15846392999932
 20
8.28894501193404
 30
0.0
  0
VERTEX
  5
A87
  8
LAYER_1
 10
3.156906822590302
 20
8.295085456624847
 30
0.0
  0
VERTEX
  5
A88
  8
LAYER_1
 10
3.156049731868801
 20
8.301443680169875
 30
0.0
  0
VERTEX
  5
A89
  8
LAYER_1
 10
3.155849783543757
 20
8.307923039941048
 30
0.0
  0
VERTEX
  5
A8A
  8
LAYER_1
 10
3.156264103324108
 20
8.314426893310282
 30
0.0
  0
VERTEX
  5
A8B
  8
LAYER_1
 10
3.157249816918792
 20
8.320858597649496
 30
0.0
  0
VERTEX
  5
A8C
  8
LAYER_1
 10
3.158764050036749
 20
8.32712151033061
 30
0.0
  0
VERTEX
  5
A8D
  8
LAYER_1
 10
3.160763928386917
 20
8.33311898872554
 30
0.0
  0
VERTEX
  5
A8E
  8
LAYER_1
 10
3.163212547206485
 20
8.338445602907447
 30
0.0
  0
VERTEX
  5
A8F
  8
LAYER_1
 10
3.166288673741477
 20
8.343447631216431
 30
0.0
  0
VERTEX
  5
A90
  8
LAYER_1
 10
3.169890001264564
 20
8.348153700915178
 30
0.0
  0
VERTEX
  5
A91
  8
LAYER_1
 10
3.17391422304842
 20
8.35259243926637
 30
0.0
  0
VERTEX
  5
A92
  8
LAYER_1
 10
3.182822122489123
 20
8.360782430976819
 30
0.0
  0
VERTEX
  5
A93
  8
LAYER_1
 10
3.192193918244962
 20
8.368246624449238
 30
0.0
  0
VERTEX
  5
A94
  8
LAYER_1
 10
3.19829731592839
 20
8.372507430096665
 30
0.0
  0
VERTEX
  5
A95
  8
LAYER_1
 10
3.204718320359766
 20
8.376268355594204
 30
0.0
  0
VERTEX
  5
A96
  8
LAYER_1
 10
3.218197157284544
 20
8.38279171229083
 30
0.0
  0
VERTEX
  5
A97
  8
LAYER_1
 10
3.23199844465566
 20
8.388818986841521
 30
0.0
  0
VERTEX
  5
A98
  8
LAYER_1
 10
3.238822512144957
 20
8.391959809656644
 30
0.0
  0
VERTEX
  5
A99
  8
LAYER_1
 10
3.245490198109474
 20
8.395352471548685
 30
0.0
  0
VERTEX
  5
A9A
  8
LAYER_1
 10
3.262733233447167
 20
8.405527834568906
 30
0.0
  0
VERTEX
  5
A9B
  8
LAYER_1
 10
3.279682814610227
 20
8.416293011462663
 30
0.0
  0
VERTEX
  5
A9C
  8
LAYER_1
 10
3.288209326751252
 20
8.42156550391508
 30
0.0
  0
VERTEX
  5
A9D
  8
LAYER_1
 10
3.296856595598599
 20
8.42658791839943
 30
0.0
  0
VERTEX
  5
A9E
  8
LAYER_1
 10
3.30568932790226
 20
8.431227744436907
 30
0.0
  0
VERTEX
  5
A9F
  8
LAYER_1
 10
3.314772230412229
 20
8.435352471548685
 30
0.0
  0
VERTEX
  5
AA0
  8
LAYER_1
 10
3.328777651740163
 20
8.44062391256267
 30
0.0
  0
VERTEX
  5
AA1
  8
LAYER_1
 10
3.343105314956817
 20
8.444969231577499
 30
0.0
  0
VERTEX
  5
AA2
  8
LAYER_1
 10
3.357755323295512
 20
8.44838845625446
 30
0.0
  0
VERTEX
  5
AA3
  8
LAYER_1
 10
3.372727779989574
 20
8.450881614254836
 30
0.0
  0
SEQEND
  5
AA4
  8
LAYER_1
  0
POLYLINE
  5
80
  8
LAYER_1
 66
     1
 10
0.0
 20
0.0
 30
0.0
  0
VERTEX
  5
AA5
  8
LAYER_1
 10
10.62224399007278
 20
10.04977006541889
 30
0.0
  0
VERTEX
  5
AA6
  8
LAYER_1
 10
9.437867895800723
 20
10.07386673765125
 30
0.0
  0
SEQEND
  5
AA7
  8
LAYER_1
  0
POLYLINE
  5
81
  8
LAYER_1
 66
     1
 10
0.0
 20
0.0
 30
0.0
  0
VERTEX
  5
AA8
  8
LAYER_1
 10
13.92395975741422
 20
9.908727694564895
 30
0.0
  0
VERTEX
  5
AA9
  8
LAYER_1
 10
13.95320444697721
 20
9.851333924998269
 30
0.0
  0
VERTEX
  5
AAA
  8
LAYER_1
 10
13.98315505665196
 20
9.794287030843547
 30
0.0
  0
VERTEX
  5
AAB
  8
LAYER_1
 10
14.01331830845694
 20
9.737368248131615
 30
0.0
  0
VERTEX
  5
AAC
  8
LAYER_1
 10
14.04320092441059
 20
9.680358812893362
 30
0.0
  0
VERTEX
  5
AAD
  8
LAYER_1
 10
14.07230962653135
 20
9.623039961159677
 30
0.0
  0
VERTEX
  5
AAE
  8
LAYER_1
 10
14.08641961053517
 20
9.594196140366702
 30
0.0
  0
VERTEX
  5
AAF
  8
LAYER_1
 10
14.10015113683769
 20
9.565192928961451
 30
0.0
  0
VERTEX
  5
AB0
  8
LAYER_1
 10
14.11344254569121
 20
9.536002981447787
 30
0.0
  0
VERTEX
  5
AB1
  8
LAYER_1
 10
14.12623217734804
 20
9.506598952329572
 30
0.0
  0
VERTEX
  5
AB2
  8
LAYER_1
 10
14.13845837206049
 20
9.476953496110664
 30
0.0
  0
VERTEX
  5
AB3
  8
LAYER_1
 10
14.15005947008086
 20
9.447039267294928
 30
0.0
  0
VERTEX
  5
AB4
  8
LAYER_1
 10
14.15862294869957
 20
9.423577631365323
 30
0.0
  0
VERTEX
  5
AB5
  8
LAYER_1
 10
14.16679570255138
 20
9.399971762561385
 30
0.0
  0
VERTEX
  5
AB6
  8
LAYER_1
 10
14.17460165830088
 20
9.37623295336397
 30
0.0
  0
VERTEX
  5
AB7
  8
LAYER_1
 10
14.18206474261267
 20
9.352372496253935
 30
0.0
  0
VERTEX
  5
AB8
  8
LAYER_1
 10
14.18920888215131
 20
9.328401683712128
 30
0.0
  0
VERTEX
  5
AB9
  8
LAYER_1
 10
14.19605800358142
 20
9.304331808219402
 30
0.0
  0
VERTEX
  5
ABA
  8
LAYER_1
 10
14.20896689877434
 20
9.255940038304608
 30
0.0
  0
VERTEX
  5
ABB
  8
LAYER_1
 10
14.22098284150814
 20
9.207287526356378
 30
0.0
  0
VERTEX
  5
ABC
  8
LAYER_1
 10
14.23229724509953
 20
9.158464612221534
 30
0.0
  0
VERTEX
  5
ABD
  8
LAYER_1
 10
14.25358708812187
 20
9.060668936779301
 30
0.0
  0
VERTEX
  5
ABE
  8
LAYER_1
 10
14.26432954868768
 20
9.009220474556935
 30
0.0
  0
VERTEX
  5
ABF
  8
LAYER_1
 10
14.27462113128217
 20
8.957615403142746
 30
0.0
  0
VERTEX
  5
AC0
  8
LAYER_1
 10
14.28432887353505
 20
8.905864827017835
 30
0.0
  0
VERTEX
  5
AC1
  8
LAYER_1
 10
14.29331981307604
 20
8.853979850663302
 30
0.0
  0
VERTEX
  5
AC2
  8
LAYER_1
 10
14.30146098753485
 20
8.801971578560247
 30
0.0
  0
VERTEX
  5
AC3
  8
LAYER_1
 10
14.3086194345412
 20
8.749851115189767
 30
0.0
  0
VERTEX
  5
AC4
  8
LAYER_1
 10
14.31178858450898
 20
8.723752281929587
 30
0.0
  0
VERTEX
  5
AC5
  8
LAYER_1
 10
14.31466219172478
 20
8.697629565032964
 30
0.0
  0
VERTEX
  5
AC6
  8
LAYER_1
 10
14.31722363589233
 20
8.671484352560034
 30
0.0
  0
VERTEX
  5
AC7
  8
LAYER_1
 10
14.31945629671533
 20
8.645318032570934
 30
0.0
  0
VERTEX
  5
AC8
  8
LAYER_1
 10
14.3231736714105
 20
8.59542229272364
 30
0.0
  0
VERTEX
  5
AC9
  8
LAYER_1
 10
14.32631565799526
 20
8.545368946339583
 30
0.0
  0
VERTEX
  5
ACA
  8
LAYER_1
 10
14.32863889699694
 20
8.495221902379617
 30
0.0
  0
VERTEX
  5
ACB
  8
LAYER_1
 10
14.32941743631892
 20
8.470133215358935
 30
0.0
  0
VERTEX
  5
ACC
  8
LAYER_1
 10
14.32990002894286
 20
8.445045069804593
 30
0.0
  0
VERTEX
  5
ACD
  8
LAYER_1
 10
14.3300562549347
 20
8.4199654543367
 30
0.0
  0
VERTEX
  5
ACE
  8
LAYER_1
 10
14.32985569436034
 20
8.39490235757536
 30
0.0
  0
VERTEX
  5
ACF
  8
LAYER_1
 10
14.3292679272857
 20
8.369863768140682
 30
0.0
  0
VERTEX
  5
AD0
  8
LAYER_1
 10
14.3282625337767
 20
8.344857674652772
 30
0.0
  0
VERTEX
  5
AD1
  8
LAYER_1
 10
14.32680909389924
 20
8.319892065731736
 30
0.0
  0
VERTEX
  5
AD2
  8
LAYER_1
 10
14.32487718771925
 20
8.294974929997679
 30
0.0
  0
VERTEX
  5
AD3
  8
LAYER_1
 10
14.32243639530264
 20
8.270114256070709
 30
0.0
  0
VERTEX
  5
AD4
  8
LAYER_1
 10
14.31945629671533
 20
8.245318032570934
 30
0.0
  0
VERTEX
  5
AD5
  8
LAYER_1
 10
14.31602998496587
 20
8.220465040986502
 30
0.0
  0
VERTEX
  5
AD6
  8
LAYER_1
 10
14.31213660275556
 20
8.195524911282295
 30
0.0
  0
VERTEX
  5
AD7
  8
LAYER_1
 10
14.30757480468938
 20
8.170641904793516
 30
0.0
  0
VERTEX
  5
AD8
  8
LAYER_1
 10
14.3021432453723
 20
8.145960282855368
 30
0.0
  0
VERTEX
  5
AD9
  8
LAYER_1
 10
14.29903838480874
 20
8.13374007276003
 30
0.0
  0
VERTEX
  5
ADA
  8
LAYER_1
 10
14.29564057940933
 20
8.121624306803053
 30
0.0
  0
VERTEX
  5
ADB
  8
LAYER_1
 10
14.29192466099968
 20
8.109631017651331
 30
0.0
  0
VERTEX
  5
ADC
  8
LAYER_1
 10
14.28786546140543
 20
8.09777823797177
 30
0.0
  0
VERTEX
  5
ADD
  8
LAYER_1
 10
14.2834378124522
 20
8.086084000431267
 30
0.0
  0
VERTEX
  5
ADE
  8
LAYER_1
 10
14.2786165459656
 20
8.074566337696725
 30
0.0
  0
VERTEX
  5
ADF
  8
LAYER_1
 10
14.27337649377127
 20
8.063243282435042
 30
0.0
  0
VERTEX
  5
AE0
  8
LAYER_1
 10
14.26769248769482
 20
8.05213286731312
 30
0.0
  0
VERTEX
  5
AE1
  8
LAYER_1
 10
14.25997987941166
 20
8.038192826211473
 30
0.0
  0
VERTEX
  5
AE2
  8
LAYER_1
 10
14.25188424063105
 20
8.024365632450944
 30
0.0
  0
VERTEX
  5
AE3
  8
LAYER_1
 10
14.24340685287799
 20
8.01068546834999
 30
0.0
  0
VERTEX
  5
AE4
  8
LAYER_1
 10
14.23454899767746
 20
7.997186516227073
 30
0.0
  0
VERTEX
  5
AE5
  8
LAYER_1
 10
14.22531195655443
 20
7.983902958400647
 30
0.0
  0
VERTEX
  5
AE6
  8
LAYER_1
 10
14.21569701103388
 20
7.970868977189175
 30
0.0
  0
VERTEX
  5
AE7
  8
LAYER_1
 10
14.20570544264079
 20
7.958118754911114
 30
0.0
  0
VERTEX
  5
AE8
  8
LAYER_1
 10
14.19533853290015
 20
7.945686473884922
 30
0.0
  0
VERTEX
  5
AE9
  8
LAYER_1
 10
14.18459756333693
 20
7.933606316429058
 30
0.0
  0
VERTEX
  5
AEA
  8
LAYER_1
 10
14.17348381547612
 20
7.921912464861983
 30
0.0
  0
VERTEX
  5
AEB
  8
LAYER_1
 10
14.16199857084269
 20
7.910639101502154
 30
0.0
  0
VERTEX
  5
AEC
  8
LAYER_1
 10
14.15014311096161
 20
7.899820408668029
 30
0.0
  0
VERTEX
  5
AED
  8
LAYER_1
 10
14.13791871735789
 20
7.889490568678069
 30
0.0
  0
VERTEX
  5
AEE
  8
LAYER_1
 10
14.12532667155648
 20
7.87968376385073
 30
0.0
  0
VERTEX
  5
AEF
  8
LAYER_1
 10
14.11236825508237
 20
7.870434176504474
 30
0.0
  0
VERTEX
  5
AF0
  8
LAYER_1
 10
14.09904474946055
 20
7.861775988957757
 30
0.0
  0
VERTEX
  5
AF1
  8
LAYER_1
 10
14.08288539415053
 20
7.852266883344642
 30
0.0
  0
VERTEX
  5
AF2
  8
LAYER_1
 10
14.06629486475801
 20
7.843433961494002
 30
0.0
  0
VERTEX
  5
AF3
  8
LAYER_1
 10
14.04930979133115
 20
7.835265362557234
 30
0.0
  0
VERTEX
  5
AF4
  8
LAYER_1
 10
14.03196680391813
 20
7.827749225685734
 30
0.0
  0
VERTEX
  5
AF5
  8
LAYER_1
 10
14.01430253256711
 20
7.820873690030899
 30
0.0
  0
VERTEX
  5
AF6
  8
LAYER_1
 10
13.99635360732625
 20
7.814626894744126
 30
0.0
  0
VERTEX
  5
AF7
  8
LAYER_1
 10
13.97815665824373
 20
7.808996978976811
 30
0.0
  0
VERTEX
  5
AF8
  8
LAYER_1
 10
13.95974831536772
 20
7.803972081880351
 30
0.0
  0
VERTEX
  5
AF9
  8
LAYER_1
 10
13.94116520874637
 20
7.799540342606142
 30
0.0
  0
VERTEX
  5
AFA
  8
LAYER_1
 10
13.92244396842787
 20
7.79568990030558
 30
0.0
  0
VERTEX
  5
AFB
  8
LAYER_1
 10
13.90362122446037
 20
7.792408894130061
 30
0.0
  0
VERTEX
  5
AFC
  8
LAYER_1
 10
13.88473360689204
 20
7.789685463230983
 30
0.0
  0
VERTEX
  5
AFD
  8
LAYER_1
 10
13.86581774577106
 20
7.78750774675974
 30
0.0
  0
VERTEX
  5
AFE
  8
LAYER_1
 10
13.84691027114558
 20
7.785863883867732
 30
0.0
  0
VERTEX
  5
AFF
  8
LAYER_1
 10
13.82804781306378
 20
7.784742013706355
 30
0.0
  0
VERTEX
  5
B00
  8
LAYER_1
 10
13.80926700157383
 20
7.784130275427001
 30
0.0
  0
VERTEX
  5
B01
  8
LAYER_1
 10
13.38176985085213
 20
7.775488067749421
 30
0.0
  0
VERTEX
  5
B02
  8
LAYER_1
 10
12.96350176953968
 20
7.766549222621308
 30
0.0
  0
VERTEX
  5
B03
  8
LAYER_1
 10
12.55069340682082
 20
7.757760328613479
 30
0.0
  0
VERTEX
  5
B04
  8
LAYER_1
 10
12.1395754118799
 20
7.749567974296752
 30
0.0
  0
VERTEX
  5
B05
  8
LAYER_1
 10
11.93347238019628
 20
7.745835058450934
 30
0.0
  0
VERTEX
  5
B06
  8
LAYER_1
 10
11.72637843390126
 20
7.742418748241948
 30
0.0
  0
VERTEX
  5
B07
  8
LAYER_1
 10
11.5178224041429
 20
7.739374867241147
 30
0.0
  0
VERTEX
  5
B08
  8
LAYER_1
 10
11.30733312206924
 20
7.736759239019884
 30
0.0
  0
VERTEX
  5
B09
  8
LAYER_1
 10
11.09443941882831
 20
7.73462768714951
 30
0.0
  0
VERTEX
  5
B0A
  8
LAYER_1
 10
10.87867012556817
 20
7.733036035201378
 30
0.0
  0
VERTEX
  5
B0B
  8
LAYER_1
 10
10.65955407343686
 20
7.732040106746841
 30
0.0
  0
VERTEX
  5
B0C
  8
LAYER_1
 10
10.43662009358241
 20
7.73169572535725
 30
0.0
  0
VERTEX
  5
B0D
  8
LAYER_1
 10
10.42594480158318
 20
7.731932720411715
 30
0.0
  0
VERTEX
  5
B0E
  8
LAYER_1
 10
10.41506219346215
 20
7.732633656904451
 30
0.0
  0
VERTEX
  5
B0F
  8
LAYER_1
 10
10.40401700697265
 20
7.733783461829473
 30
0.0
  0
VERTEX
  5
B10
  8
LAYER_1
 10
10.39285397986804
 20
7.735367062180798
 30
0.0
  0
VERTEX
  5
B11
  8
LAYER_1
 10
10.38161784990163
 20
7.737369384952439
 30
0.0
  0
VERTEX
  5
B12
  8
LAYER_1
 10
10.37035335482678
 20
7.739775357138411
 30
0.0
  0
VERTEX
  5
B13
  8
LAYER_1
 10
10.35910523239681
 20
7.742569905732731
 30
0.0
  0
VERTEX
  5
B14
  8
LAYER_1
 10
10.34791822036507
 20
7.745737957729413
 30
0.0
  0
VERTEX
  5
B15
  8
LAYER_1
 10
10.3368370564849
 20
7.749264440122472
 30
0.0
  0
VERTEX
  5
B16
  8
LAYER_1
 10
10.32590647850963
 20
7.753134279905924
 30
0.0
  0
VERTEX
  5
B17
  8
LAYER_1
 10
10.3151712241926
 20
7.757332404073782
 30
0.0
  0
VERTEX
  5
B18
  8
LAYER_1
 10
10.30467603128715
 20
7.761843739620062
 30
0.0
  0
VERTEX
  5
B19
  8
LAYER_1
 10
10.29446563754662
 20
7.766653213538779
 30
0.0
  0
VERTEX
  5
B1A
  8
LAYER_1
 10
10.28458478072433
 20
7.771745752823949
 30
0.0
  0
VERTEX
  5
B1B
  8
LAYER_1
 10
10.27507819857365
 20
7.777106284469586
 30
0.0
  0
VERTEX
  5
B1C
  8
LAYER_1
 10
10.26599062884789
 20
7.782719735469706
 30
0.0
  0
VERTEX
  5
B1D
  8
LAYER_1
 10
10.23493905197024
 20
7.802818974707481
 30
0.0
  0
VERTEX
  5
B1E
  8
LAYER_1
 10
10.21952055633189
 20
7.813313217808945
 30
0.0
  0
VERTEX
  5
B1F
  8
LAYER_1
 10
10.20452794911643
 20
7.824326605638014
 30
0.0
  0
VERTEX
  5
B20
  8
LAYER_1
 10
10.1902270002408
 20
7.836026184999102
 30
0.0
  0
VERTEX
  5
B21
  8
LAYER_1
 10
10.18341895077945
 20
7.842185498630533
 30
0.0
  0
VERTEX
  5
B22
  8
LAYER_1
 10
10.17688347962191
 20
7.848579002696626
 30
0.0
  0
VERTEX
  5
B23
  8
LAYER_1
 10
10.17065380800779
 20
7.855227578047932
 30
0.0
  0
VERTEX
  5
B24
  8
LAYER_1
 10
10.16476315717671
 20
7.862152105535002
 30
0.0
  0
VERTEX
  5
B25
  8
LAYER_1
 10
10.15924474836829
 20
7.86937346600839
 30
0.0
  0
VERTEX
  5
B26
  8
LAYER_1
 10
10.15413180282213
 20
7.876912540318645
 30
0.0
  0
VERTEX
  5
B27
  8
LAYER_1
 10
10.14775698285229
 20
7.887618306009826
 30
0.0
  0
VERTEX
  5
B28
  8
LAYER_1
 10
10.14200419323486
 20
7.898641021471803
 30
0.0
  0
VERTEX
  5
B29
  8
LAYER_1
 10
10.13682984409164
 20
7.90995186338619
 30
0.0
  0
VERTEX
  5
B2A
  8
LAYER_1
 10
10.13219034554443
 20
7.921522008434598
 30
0.0
  0
VERTEX
  5
B2B
  8
LAYER_1
 10
10.12804210771503
 20
7.933322633298642
 30
0.0
  0
VERTEX
  5
B2C
  8
LAYER_1
 10
10.12434154072524
 20
7.945324914659934
 30
0.0
  0
VERTEX
  5
B2D
  8
LAYER_1
 10
10.12104505469686
 20
7.957500029200087
 30
0.0
  0
VERTEX
  5
B2E
  8
LAYER_1
 10
10.11810905975168
 20
7.969819153600717
 30
0.0
  0
VERTEX
  5
B2F
  8
LAYER_1
 10
10.11314418359814
 20
7.994774138709855
 30
0.0
  0
VERTEX
  5
B30
  8
LAYER_1
 10
10.10909819323903
 20
8.019959283440254
 30
0.0
  0
VERTEX
  5
B31
  8
LAYER_1
 10
10.10236799380163
 20
8.070097705576458
 30
0.0
  0
VERTEX
  5
B32
  8
LAYER_1
 10
10.09725061743766
 20
8.11348527001729
 30
0.0
  0
VERTEX
  5
B33
  8
LAYER_1
 10
10.09324654022307
 20
8.15697552312049
 30
0.0
  0
VERTEX
  5
B34
  8
LAYER_1
 10
10.09026340880767
 20
8.200556815474386
 30
0.0
  0
VERTEX
  5
B35
  8
LAYER_1
 10
10.08820886984129
 20
8.244217497667307
 30
0.0
  0
VERTEX
  5
B36
  8
LAYER_1
 10
10.08699056997374
 20
8.287945920287573
 30
0.0
  0
VERTEX
  5
B37
  8
LAYER_1
 10
10.08651615585484
 20
8.331730433923513
 30
0.0
  0
VERTEX
  5
B38
  8
LAYER_1
 10
10.0866932741344
 20
8.375559389163449
 30
0.0
  0
VERTEX
  5
B39
  8
LAYER_1
 10
10.08742957146226
 20
8.419421136595709
 30
0.0
  0
VERTEX
  5
B3A
  8
LAYER_1
 10
10.08863269448822
 20
8.463304026808615
 30
0.0
  0
VERTEX
  5
B3B
  8
LAYER_1
 10
10.09021028986211
 20
8.507196410390499
 30
0.0
  0
VERTEX
  5
B3C
  8
LAYER_1
 10
10.09411948425292
 20
8.594963060014484
 30
0.0
  0
VERTEX
  5
B3D
  8
LAYER_1
 10
10.09841832783324
 20
8.68262789017427
 30
0.0
  0
VERTEX
  5
B3E
  8
LAYER_1
 10
10.10236799380163
 20
8.770097705576458
 30
0.0
  0
VERTEX
  5
B3F
  8
LAYER_1
 10
10.10548416951483
 20
8.847969309540186
 30
0.0
  0
VERTEX
  5
B40
  8
LAYER_1
 10
10.10878658752127
 20
8.925945655841497
 30
0.0
  0
VERTEX
  5
B41
  8
LAYER_1
 10
10.11263512913615
 20
9.003947006504728
 30
0.0
  0
VERTEX
  5
B42
  8
LAYER_1
 10
10.11738967567469
 20
9.081893623554217
 30
0.0
  0
VERTEX
  5
B43
  8
LAYER_1
 10
10.12021916370134
 20
9.120821488856416
 30
0.0
  0
VERTEX
  5
B44
  8
LAYER_1
 10
10.12341010845211
 20
9.159705769014304
 30
0.0
  0
VERTEX
  5
B45
  8
LAYER_1
 10
10.12700749509141
 20
9.198536496780925
 30
0.0
  0
VERTEX
  5
B46
  8
LAYER_1
 10
10.13105630878362
 20
9.237303704909325
 30
0.0
  0
VERTEX
  5
B47
  8
LAYER_1
 10
10.13560153469317
 20
9.275997426152541
 30
0.0
  0
VERTEX
  5
B48
  8
LAYER_1
 10
10.14068815798445
 20
9.314607693263618
 30
0.0
  0
VERTEX
  5
B49
  8
LAYER_1
 10
10.14636116382186
 20
9.353124538995598
 30
0.0
  0
VERTEX
  5
B4A
  8
LAYER_1
 10
10.1526655373698
 20
9.391537996101524
 30
0.0
  0
VERTEX
  5
B4B
  8
LAYER_1
 10
10.15932255828257
 20
9.428466353637575
 30
0.0
  0
VERTEX
  5
B4C
  8
LAYER_1
 10
10.1666049894884
 20
9.46536532118251
 30
0.0
  0
VERTEX
  5
B4D
  8
LAYER_1
 10
10.17463565345198
 20
9.502148716724719
 30
0.0
  0
VERTEX
  5
B4E
  8
LAYER_1
 10
10.18353737263801
 20
9.538730358252579
 30
0.0
  0
VERTEX
  5
B4F
  8
LAYER_1
 10
10.19343296951119
 20
9.57502406375448
 30
0.0
  0
VERTEX
  5
B50
  8
LAYER_1
 10
10.19879185410067
 20
9.593036008617062
 30
0.0
  0
VERTEX
  5
B51
  8
LAYER_1
 10
10.2044452665362
 20
9.6109436512188
 30
0.0
  0
VERTEX
  5
B52
  8
LAYER_1
 10
10.21040855962587
 20
9.628736218808239
 30
0.0
  0
VERTEX
  5
B53
  8
LAYER_1
 10
10.21669708617776
 20
9.646402938633928
 30
0.0
  0
VERTEX
  5
B54
  8
LAYER_1
 10
10.22332619899996
 20
9.663933037944414
 30
0.0
  0
VERTEX
  5
B55
  8
LAYER_1
 10
10.23031125090056
 20
9.681315743988245
 30
0.0
  0
VERTEX
  5
B56
  8
LAYER_1
 10
10.23983933698165
 20
9.704660759471494
 30
0.0
  0
VERTEX
  5
B57
  8
LAYER_1
 10
10.24953555366505
 20
9.728291434022296
 30
0.0
  0
VERTEX
  5
B58
  8
LAYER_1
 10
10.25974039478087
 20
9.751822883765637
 30
0.0
  0
VERTEX
  5
B59
  8
LAYER_1
 10
10.26513995382285
 20
9.76343112312357
 30
0.0
  0
VERTEX
  5
B5A
  8
LAYER_1
 10
10.27079435415923
 20
9.774870224826511
 30
0.0
  0
VERTEX
  5
B5B
  8
LAYER_1
 10
10.27674615751878
 20
9.786092078390082
 30
0.0
  0
VERTEX
  5
B5C
  8
LAYER_1
 10
10.28303792563026
 20
9.797048573329908
 30
0.0
  0
VERTEX
  5
B5D
  8
LAYER_1
 10
10.28971222022244
 20
9.807691599161611
 30
0.0
  0
VERTEX
  5
B5E
  8
LAYER_1
 10
10.29681160302408
 20
9.817973045400816
 30
0.0
  0
VERTEX
  5
B5F
  8
LAYER_1
 10
10.30437863576394
 20
9.827844801563147
 30
0.0
  0
VERTEX
  5
B60
  8
LAYER_1
 10
10.3124558801708
 20
9.837258757164228
 30
0.0
  0
VERTEX
  5
B61
  8
LAYER_1
 10
10.32108589797342
 20
9.846166801719683
 30
0.0
  0
VERTEX
  5
B62
  8
LAYER_1
 10
10.33031125090056
 20
9.854520824745132
 30
0.0
  0
VERTEX
  5
B63
  8
LAYER_1
 10
10.34044907323747
 20
9.862708836779584
 30
0.0
  0
VERTEX
  5
B64
  8
LAYER_1
 10
10.35109070103858
 20
9.870565259555487
 30
0.0
  0
VERTEX
  5
B65
  8
LAYER_1
 10
10.36220443718357
 20
9.878069016353583
 30
0.0
  0
VERTEX
  5
B66
  8
LAYER_1
 10
10.37375858455211
 20
9.885199030454611
 30
0.0
  0
VERTEX
  5
B67
  8
LAYER_1
 10
10.3857214460239
 20
9.891934225139316
 30
0.0
  0
VERTEX
  5
B68
  8
LAYER_1
 10
10.39806132447861
 20
9.898253523688435
 30
0.0
  0
VERTEX
  5
B69
  8
LAYER_1
 10
10.41074652279593
 20
9.904135849382712
 30
0.0
  0
VERTEX
  5
B6A
  8
LAYER_1
 10
10.42374534385554
 20
9.909560125502887
 30
0.0
  0
VERTEX
  5
B6B
  8
LAYER_1
 10
10.43702609053712
 20
9.914505275329702
 30
0.0
  0
VERTEX
  5
B6C
  8
LAYER_1
 10
10.45055706572037
 20
9.918950222143899
 30
0.0
  0
VERTEX
  5
B6D
  8
LAYER_1
 10
10.46430657228496
 20
9.922873889226217
 30
0.0
  0
VERTEX
  5
B6E
  8
LAYER_1
 10
10.47824291311058
 20
9.926255199857401
 30
0.0
  0
VERTEX
  5
B6F
  8
LAYER_1
 10
10.4923343910769
 20
9.929073077318188
 30
0.0
  0
VERTEX
  5
B70
  8
LAYER_1
 10
10.50654930906362
 20
9.931306444889323
 30
0.0
  0
VERTEX
  5
B71
  8
LAYER_1
 10
10.52085596995041
 20
9.932934225851545
 30
0.0
  0
VERTEX
  5
B72
  8
LAYER_1
 10
10.53522267661696
 20
9.933935343485594
 30
0.0
  0
SEQEND
  5
B73
  8
LAYER_1
  0
POLYLINE
  5
82
  8
LAYER_1
 66
     1
 10
0.0
 20
0.0
 30
0.0
  0
VERTEX
  5
B74
  8
LAYER_1
 10
7.62868103633021
 20
7.29244924641645
 30
0.0
  0
VERTEX
  5
B75
  8
LAYER_1
 10
14.41903441150605
 20
7.360962867795617
 30
0.0
  0
SEQEND
  5
B76
  8
LAYER_1
  0
POLYLINE
  5
83
  8
LAYER_1
 66
     1
 10
0.0
 20
0.0
 30
0.0
  0
VERTEX
  5
B77
  8
LAYER_1
 10
6.807593688522392
 20
6.721979433558575
 30
0.0
  0
VERTEX
  5
B78
  8
LAYER_1
 10
6.836553321299895
 20
6.726604793408915
 30
0.0
  0
VERTEX
  5
B79
  8
LAYER_1
 10
6.866331057409159
 20
6.732161426222516
 30
0.0
  0
VERTEX
  5
B7A
  8
LAYER_1
 10
6.896762386712995
 20
6.738611350238922
 30
0.0
  0
VERTEX
  5
B7B
  8
LAYER_1
 10
6.927682799074214
 20
6.745916583697682
 30
0.0
  0
VERTEX
  5
B7C
  8
LAYER_1
 10
6.95892778435563
 20
6.754039144838343
 30
0.0
  0
VERTEX
  5
B7D
  8
LAYER_1
 10
6.990332832420058
 20
6.762941051900453
 30
0.0
  0
VERTEX
  5
B7E
  8
LAYER_1
 10
7.021733433130308
 20
6.772584323123561
 30
0.0
  0
VERTEX
  5
B7F
  8
LAYER_1
 10
7.052965076349195
 20
6.782930976747213
 30
0.0
  0
VERTEX
  5
B80
  8
LAYER_1
 10
7.083863251939531
 20
6.793943031010958
 30
0.0
  0
VERTEX
  5
B81
  8
LAYER_1
 10
7.114263449764127
 20
6.805582504154343
 30
0.0
  0
VERTEX
  5
B82
  8
LAYER_1
 10
7.144001159685796
 20
6.817811414416915
 30
0.0
  0
VERTEX
  5
B83
  8
LAYER_1
 10
7.172911871567354
 20
6.830591780038223
 30
0.0
  0
VERTEX
  5
B84
  8
LAYER_1
 10
7.200831075271612
 20
6.843885619257813
 30
0.0
  0
VERTEX
  5
B85
  8
LAYER_1
 10
7.227594260661381
 20
6.857654950315235
 30
0.0
  0
VERTEX
  5
B86
  8
LAYER_1
 10
7.253036917599476
 20
6.871861791450035
 30
0.0
  0
VERTEX
  5
B87
  8
LAYER_1
 10
7.27699453594871
 20
6.88646816090176
 30
0.0
  0
VERTEX
  5
B88
  8
LAYER_1
 10
7.292504937300716
 20
6.896768597339294
 30
0.0
  0
VERTEX
  5
B89
  8
LAYER_1
 10
7.307491554373452
 20
6.907489582842064
 30
0.0
  0
VERTEX
  5
B8A
  8
LAYER_1
 10
7.321994887652315
 20
6.918609863216824
 30
0.0
  0
VERTEX
  5
B8B
  8
LAYER_1
 10
7.336055437622705
 20
6.930108184270329
 30
0.0
  0
VERTEX
  5
B8C
  8
LAYER_1
 10
7.349713704770021
 20
6.941963291809332
 30
0.0
  0
VERTEX
  5
B8D
  8
LAYER_1
 10
7.363010189579661
 20
6.954153931640583
 30
0.0
  0
VERTEX
  5
B8E
  8
LAYER_1
 10
7.375985392537025
 20
6.96665884957084
 30
0.0
  0
VERTEX
  5
B8F
  8
LAYER_1
 10
7.388679814127512
 20
6.979456791406855
 30
0.0
  0
VERTEX
  5
B90
  8
LAYER_1
 10
7.401133954836519
 20
6.992526502955379
 30
0.0
  0
VERTEX
  5
B91
  8
LAYER_1
 10
7.413388315149444
 20
7.005846730023168
 30
0.0
  0
VERTEX
  5
B92
  8
LAYER_1
 10
7.437459696528651
 20
7.033153713943551
 30
0.0
  0
VERTEX
  5
B93
  8
LAYER_1
 10
7.484987115891649
 20
7.089838683512635
 30
0.0
  0
VERTEX
  5
B94
  8
LAYER_1
 10
7.502590489042202
 20
7.111696630234436
 30
0.0
  0
VERTEX
  5
B95
  8
LAYER_1
 10
7.520976747858082
 20
7.135593504598776
 30
0.0
  0
VERTEX
  5
B96
  8
LAYER_1
 10
7.539805593320521
 20
7.161005886351504
 30
0.0
  0
VERTEX
  5
B97
  8
LAYER_1
 10
7.558736726410743
 20
7.187410355238468
 30
0.0
  0
VERTEX
  5
B98
  8
LAYER_1
 10
7.577429848109979
 20
7.214283491005515
 30
0.0
  0
VERTEX
  5
B99
  8
LAYER_1
 10
7.595544659399457
 20
7.241101873398493
 30
0.0
  0
VERTEX
  5
B9A
  8
LAYER_1
 10
7.612740861260404
 20
7.26734208216325
 30
0.0
  0
VERTEX
  5
B9B
  8
LAYER_1
 10
7.628678154674049
 20
7.292480697045633
 30
0.0
  0
VERTEX
  5
B9C
  8
LAYER_1
 10
7.607591083307581
 20
7.29823157753484
 30
0.0
  0
VERTEX
  5
B9D
  8
LAYER_1
 10
7.597517845840235
 20
7.301542958321471
 30
0.0
  0
VERTEX
  5
B9E
  8
LAYER_1
 10
7.587859120369925
 20
7.305418149847364
 30
0.0
  0
VERTEX
  5
B9F
  8
LAYER_1
 10
7.578690641786486
 20
7.31006203989595
 30
0.0
  0
VERTEX
  5
BA0
  8
LAYER_1
 10
7.574313912230416
 20
7.312736274298576
 30
0.0
  0
VERTEX
  5
BA1
  8
LAYER_1
 10
7.570088144979752
 20
7.315679516250662
 30
0.0
  0
VERTEX
  5
BA2
  8
LAYER_1
 10
7.566022806895722
 20
7.318917376725137
 30
0.0
  0
VERTEX
  5
BA3
  8
LAYER_1
 10
7.562127364839555
 20
7.322475466694931
 30
0.0
  0
VERTEX
  5
BA4
  8
LAYER_1
 10
7.558411285672482
 20
7.326379397132971
 30
0.0
  0
VERTEX
  5
BA5
  8
LAYER_1
 10
7.554884036255729
 20
7.330654779012188
 30
0.0
  0
VERTEX
  5
BA6
  8
LAYER_1
 10
7.547351894390583
 20
7.341461709629097
 30
0.0
  0
VERTEX
  5
BA7
  8
LAYER_1
 10
7.540058534487144
 20
7.353795787303442
 30
0.0
  0
VERTEX
  5
BA8
  8
LAYER_1
 10
7.533152830049178
 20
7.367247940281299
 30
0.0
  0
VERTEX
  5
BA9
  8
LAYER_1
 10
7.52678365458045
 20
7.38140909680875
 30
0.0
  0
VERTEX
  5
BAA
  8
LAYER_1
 10
7.521099881584726
 20
7.395870185131875
 30
0.0
  0
VERTEX
  5
BAB
  8
LAYER_1
 10
7.516250384565769
 20
7.410222133496752
 30
0.0
  0
VERTEX
  5
BAC
  8
LAYER_1
 10
7.512384037027346
 20
7.424055870149463
 30
0.0
  0
VERTEX
  5
BAD
  8
LAYER_1
 10
7.509649712473218
 20
7.436962323336086
 30
0.0
  0
VERTEX
  5
BAE
  8
LAYER_1
 10
7.507492836812587
 20
7.448339822173067
 30
0.0
  0
VERTEX
  5
BAF
  8
LAYER_1
 10
7.504973326962604
 20
7.459635704470275
 30
0.0
  0
VERTEX
  5
BB0
  8
LAYER_1
 10
7.502119687128932
 20
7.470854721938576
 30
0.0
  0
VERTEX
  5
BB1
  8
LAYER_1
 10
7.498960421517236
 20
7.482001626288838
 30
0.0
  0
VERTEX
  5
BB2
  8
LAYER_1
 10
7.491839029782415
 20
7.504098102478716
 30
0.0
  0
VERTEX
  5
BB3
  8
LAYER_1
 10
7.483837185403448
 20
7.525963146726848
 30
0.0
  0
VERTEX
  5
BB4
  8
LAYER_1
 10
7.47518292202564
 20
7.547634772720174
 30
0.0
  0
VERTEX
  5
BB5
  8
LAYER_1
 10
7.466104273294297
 20
7.569150994145634
 30
0.0
  0
VERTEX
  5
BB6
  8
LAYER_1
 10
7.447585954352221
 20
7.611869278040711
 30
0.0
  0
VERTEX
  5
BB7
  8
LAYER_1
 10
7.436634330265441
 20
7.636757410987025
 30
0.0
  0
VERTEX
  5
BB8
  8
LAYER_1
 10
7.4252853791155
 20
7.661468120239443
 30
0.0
  0
VERTEX
  5
BB9
  8
LAYER_1
 10
7.413584313899927
 20
7.686021426223119
 30
0.0
  0
VERTEX
  5
BBA
  8
LAYER_1
 10
7.401576347616249
 20
7.710437349363206
 30
0.0
  0
VERTEX
  5
BBB
  8
LAYER_1
 10
7.376820563834691
 20
7.758937128813223
 30
0.0
  0
VERTEX
  5
BBC
  8
LAYER_1
 10
7.351379731751045
 20
7.807127621990718
 30
0.0
  0
VERTEX
  5
BBD
  8
LAYER_1
 10
7.299889738598374
 20
7.903221403133049
 30
0.0
  0
VERTEX
  5
BBE
  8
LAYER_1
 10
7.27456398548979
 20
7.951445017900335
 30
0.0
  0
VERTEX
  5
BBF
  8
LAYER_1
 10
7.25
 20
8.0
 30
0.0
  0
VERTEX
  5
BC0
  8
LAYER_1
 10
7.237550709337413
 20
8.025744321619149
 30
0.0
  0
VERTEX
  5
BC1
  8
LAYER_1
 10
7.225447747505117
 20
8.051684141751327
 30
0.0
  0
VERTEX
  5
BC2
  8
LAYER_1
 10
7.201996981454799
 20
8.103990899028446
 30
0.0
  0
VERTEX
  5
BC3
  8
LAYER_1
 10
7.179080044095847
 20
8.156601514778707
 30
0.0
  0
VERTEX
  5
BC4
  8
LAYER_1
 10
7.156129277675058
 20
8.209197231949464
 30
0.0
  0
VERTEX
  5
BC5
  8
LAYER_1
 10
7.132577024439231
 20
8.261459293488066
 30
0.0
  0
VERTEX
  5
BC6
  8
LAYER_1
 10
7.120397947217803
 20
8.287365591816357
 30
0.0
  0
VERTEX
  5
BC7
  8
LAYER_1
 10
7.107855626635166
 20
8.313068942341868
 30
0.0
  0
VERTEX
  5
BC8
  8
LAYER_1
 10
7.094879105472169
 20
8.338529500433015
 30
0.0
  0
VERTEX
  5
BC9
  8
LAYER_1
 10
7.081397426509663
 20
8.363707421458221
 30
0.0
  0
VERTEX
  5
BCA
  8
LAYER_1
 10
7.067339632528497
 20
8.388562860785903
 30
0.0
  0
VERTEX
  5
BCB
  8
LAYER_1
 10
7.05263476630952
 20
8.413055973784477
 30
0.0
  0
VERTEX
  5
BCC
  8
LAYER_1
 10
7.039336611888074
 20
8.43420080347528
 30
0.0
  0
VERTEX
  5
BCD
  8
LAYER_1
 10
7.025757830554557
 20
8.455153647351139
 30
0.0
  0
VERTEX
  5
BCE
  8
LAYER_1
 10
7.01189841544978
 20
8.475914514187043
 30
0.0
  0
VERTEX
  5
BCF
  8
LAYER_1
 10
6.997758359714551
 20
8.49648341275799
 30
0.0
  0
VERTEX
  5
BD0
  8
LAYER_1
 10
6.983337656489677
 20
8.516860351838965
 30
0.0
  0
VERTEX
  5
BD1
  8
LAYER_1
 10
6.968636298915969
 20
8.537045340204962
 30
0.0
  0
VERTEX
  5
BD2
  8
LAYER_1
 10
6.953654280134234
 20
8.557038386630971
 30
0.0
  0
VERTEX
  5
BD3
  8
LAYER_1
 10
6.938391593285283
 20
8.576839499891982
 30
0.0
  0
VERTEX
  5
BD4
  8
LAYER_1
 10
6.922848231509922
 20
8.596448688762989
 30
0.0
  0
VERTEX
  5
BD5
  8
LAYER_1
 10
6.907024187948961
 20
8.61586596201898
 30
0.0
  0
VERTEX
  5
BD6
  8
LAYER_1
 10
6.890919455743209
 20
8.63509132843495
 30
0.0
  0
VERTEX
  5
BD7
  8
LAYER_1
 10
6.874534028033473
 20
8.654124796785887
 30
0.0
  0
VERTEX
  5
BD8
  8
LAYER_1
 10
6.857867897960563
 20
8.672966375846784
 30
0.0
  0
VERTEX
  5
BD9
  8
LAYER_1
 10
6.840921058665288
 20
8.69161607439263
 30
0.0
  0
VERTEX
  5
BDA
  8
LAYER_1
 10
6.823693503288455
 20
8.710073901198417
 30
0.0
  0
VERTEX
  5
BDB
  8
LAYER_1
 10
6.806185224970874
 20
8.728339865039136
 30
0.0
  0
SEQEND
  5
BDC
  8
LAYER_1
  0
POLYLINE
  5
84
  8
LAYER_1
 66
     1
 10
0.0
 20
0.0
 30
0.0
  0
VERTEX
  5
BDD
  8
LAYER_1
 10
4.0226607442674
 20
8.487266940967114
 30
0.0
  0
VERTEX
  5
BDE
  8
LAYER_1
 10
4.059189164817946
 20
8.486694099424591
 30
0.0
  0
VERTEX
  5
BDF
  8
LAYER_1
 10
4.095637357712022
 20
8.485303068155364
 30
0.0
  0
VERTEX
  5
BE0
  8
LAYER_1
 10
4.132005338455757
 20
8.483093847159434
 30
0.0
  0
VERTEX
  5
BE1
  8
LAYER_1
 10
4.168293122555283
 20
8.4800664364368
 30
0.0
  0
VERTEX
  5
BE2
  8
LAYER_1
 10
4.204500725516731
 20
8.476220835987466
 30
0.0
  0
VERTEX
  5
BE3
  8
LAYER_1
 10
4.24062816284623
 20
8.471557045811423
 30
0.0
  0
VERTEX
  5
BE4
  8
LAYER_1
 10
4.276675450049913
 20
8.46607506590868
 30
0.0
  0
VERTEX
  5
BE5
  8
LAYER_1
 10
4.312642602633909
 20
8.459774896279233
 30
0.0
  0
VERTEX
  5
BE6
  8
LAYER_1
 10
4.325116509086433
 20
8.456887015334466
 30
0.0
  0
VERTEX
  5
BE7
  8
LAYER_1
 10
4.331276630595574
 20
8.455024786408485
 30
0.0
  0
VERTEX
  5
BE8
  8
LAYER_1
 10
4.33734880184671
 20
8.452878272060941
 30
0.0
  0
VERTEX
  5
BE9
  8
LAYER_1
 10
4.343305476004898
 20
8.45044340245246
 30
0.0
  0
VERTEX
  5
BEA
  8
LAYER_1
 10
4.349119106235191
 20
8.44771610774367
 30
0.0
  0
VERTEX
  5
BEB
  8
LAYER_1
 10
4.354762145702648
 20
8.444692318095196
 30
0.0
  0
VERTEX
  5
BEC
  8
LAYER_1
 10
4.360207047572324
 20
8.441367963667668
 30
0.0
  0
VERTEX
  5
BED
  8
LAYER_1
 10
4.370733941370401
 20
8.434373409886256
 30
0.0
  0
VERTEX
  5
BEE
  8
LAYER_1
 10
4.38123514653315
 20
8.426978424652882
 30
0.0
  0
VERTEX
  5
BEF
  8
LAYER_1
 10
4.391482356087773
 20
8.419119754981608
 30
0.0
  0
VERTEX
  5
BF0
  8
LAYER_1
 10
4.401247263061467
 20
8.410734147886501
 30
0.0
  0
VERTEX
  5
BF1
  8
LAYER_1
 10
4.410301560481434
 20
8.401758350381622
 30
0.0
  0
VERTEX
  5
BF2
  8
LAYER_1
 10
4.41449088467977
 20
8.397029363667414
 30
0.0
  0
VERTEX
  5
BF3
  8
LAYER_1
 10
4.418416941374876
 20
8.39212910948104
 30
0.0
  0
VERTEX
  5
BF4
  8
LAYER_1
 10
4.422051192195149
 20
8.387049681199253
 30
0.0
  0
VERTEX
  5
BF5
  8
LAYER_1
 10
4.425365098768991
 20
8.381783172198816
 30
0.0
  0
VERTEX
  5
BF6
  8
LAYER_1
 10
4.4283301227248
 20
8.376321675856481
 30
0.0
  0
VERTEX
  5
BF7
  8
LAYER_1
 10
4.430917725690978
 20
8.370657285549013
 30
0.0
  0
VERTEX
  5
BF8
  8
LAYER_1
 10
4.43297740779423
 20
8.364777131869173
 30
0.0
  0
VERTEX
  5
BF9
  8
LAYER_1
 10
4.434418239582007
 20
8.358690670575902
 30
0.0
  0
VERTEX
  5
BFA
  8
LAYER_1
 10
4.435301038313828
 20
8.352423482795214
 30
0.0
  0
VERTEX
  5
BFB
  8
LAYER_1
 10
4.435686621249213
 20
8.346001149653127
 30
0.0
  0
VERTEX
  5
BFC
  8
LAYER_1
 10
4.435635805647685
 20
8.339449252275656
 30
0.0
  0
VERTEX
  5
BFD
  8
LAYER_1
 10
4.43520940876876
 20
8.33279337178882
 30
0.0
  0
VERTEX
  5
BFE
  8
LAYER_1
 10
4.433473140216804
 20
8.319271985991115
 30
0.0
  0
VERTEX
  5
BFF
  8
LAYER_1
 10
4.428169587203036
 20
8.292106986628042
 30
0.0
  0
VERTEX
  5
C00
  8
LAYER_1
 10
4.425575378893545
 20
8.278872671078938
 30
0.0
  0
VERTEX
  5
C01
  8
LAYER_1
 10
4.423668266817196
 20
8.266143343628967
 30
0.0
  0
VERTEX
  5
C02
  8
LAYER_1
 10
4.419631445603701
 20
8.233863566167942
 30
0.0
  0
VERTEX
  5
C03
  8
LAYER_1
 10
4.414851381777872
 20
8.201468407377984
 30
0.0
  0
VERTEX
  5
C04
  8
LAYER_1
 10
4.409404815955408
 20
8.168942644687277
 30
0.0
  0
VERTEX
  5
C05
  8
LAYER_1
 10
4.403368488752009
 20
8.13627105552401
 30
0.0
  0
VERTEX
  5
C06
  8
LAYER_1
 10
4.396819140783374
 20
8.103438417316367
 30
0.0
  0
VERTEX
  5
C07
  8
LAYER_1
 10
4.389833512665203
 20
8.070429507492536
 30
0.0
  0
VERTEX
  5
C08
  8
LAYER_1
 10
4.374860378443049
 20
8.00382198270906
 30
0.0
  0
VERTEX
  5
C09
  8
LAYER_1
 10
4.359063011011147
 20
7.936326700599075
 30
0.0
  0
VERTEX
  5
C0A
  8
LAYER_1
 10
4.343055335295087
 20
7.867821880588082
 30
0.0
  0
VERTEX
  5
C0B
  8
LAYER_1
 10
4.32745127622047
 20
7.798185742101573
 30
0.0
  0
VERTEX
  5
C0C
  8
LAYER_1
 10
4.319992454462952
 20
7.762905372000469
 30
0.0
  0
VERTEX
  5
C0D
  8
LAYER_1
 10
4.312864758712892
 20
7.727296504565047
 30
0.0
  0
VERTEX
  5
C0E
  8
LAYER_1
 10
4.310499602168889
 20
7.717724899042594
 30
0.0
  0
VERTEX
  5
C0F
  8
LAYER_1
 10
4.307343700415547
 20
7.709156754471733
 30
0.0
  0
VERTEX
  5
C10
  8
LAYER_1
 10
4.303436285699348
 20
7.701534465604976
 30
0.0
  0
VERTEX
  5
C11
  8
LAYER_1
 10
4.298816590266771
 20
7.694800427194829
 30
0.0
  0
VERTEX
  5
C12
  8
LAYER_1
 10
4.293523846364295
 20
7.688897033993802
 30
0.0
  0
VERTEX
  5
C13
  8
LAYER_1
 10
4.287597286238397
 20
7.683766680754404
 30
0.0
  0
VERTEX
  5
C14
  8
LAYER_1
 10
4.281076142135559
 20
7.679351762229146
 30
0.0
  0
VERTEX
  5
C15
  8
LAYER_1
 10
4.27399964630226
 20
7.675594673170536
 30
0.0
  0
VERTEX
  5
C16
  8
LAYER_1
 10
4.266407030984976
 20
7.672437808331082
 30
0.0
  0
VERTEX
  5
C17
  8
LAYER_1
 10
4.258337528430189
 20
7.669823562463296
 30
0.0
  0
VERTEX
  5
C18
  8
LAYER_1
 10
4.249830370884379
 20
7.667694330319685
 30
0.0
  0
VERTEX
  5
C19
  8
LAYER_1
 10
4.240924790594022
 20
7.665992506652759
 30
0.0
  0
VERTEX
  5
C1A
  8
LAYER_1
 10
4.2316600198056
 20
7.664660486215027
 30
0.0
  0
VERTEX
  5
C1B
  8
LAYER_1
 10
4.222075290765591
 20
7.663640663759
 30
0.0
  0
VERTEX
  5
C1C
  8
LAYER_1
 10
4.20210288691673
 20
7.662307191802092
 30
0.0
  0
SEQEND
  5
C1D
  8
LAYER_1
  0
POLYLINE
  5
85
  8
LAYER_1
 66
     1
 10
0.0
 20
0.0
 30
0.0
  0
VERTEX
  5
C1E
  8
LAYER_1
 10
3.72095762140098
 20
8.470359610025758
 30
0.0
  0
VERTEX
  5
C1F
  8
LAYER_1
 10
3.723059738169887
 20
8.475609149348724
 30
0.0
  0
VERTEX
  5
C20
  8
LAYER_1
 10
3.724485863614672
 20
8.481242516428892
 30
0.0
  0
VERTEX
  5
C21
  8
LAYER_1
 10
3.725343085824296
 20
8.487202535683277
 30
0.0
  0
VERTEX
  5
C22
  8
LAYER_1
 10
3.725738492887724
 20
8.49343203152888
 30
0.0
  0
VERTEX
  5
C23
  8
LAYER_1
 10
3.725572213931844
 20
8.50647075066179
 30
0.0
  0
VERTEX
  5
C24
  8
LAYER_1
 10
3.724843731458739
 20
8.5199012691637
 30
0.0
  0
VERTEX
  5
C25
  8
LAYER_1
 10
3.724409750180115
 20
8.533266182370678
 30
0.0
  0
VERTEX
  5
C26
  8
LAYER_1
 10
3.724570917711142
 20
8.539781098031092
 30
0.0
  0
VERTEX
  5
C27
  8
LAYER_1
 10
3.725126974807679
 20
8.546108085618801
 30
0.0
  0
VERTEX
  5
C28
  8
LAYER_1
 10
3.726185009558691
 20
8.552189969550817
 30
0.0
  0
VERTEX
  5
C29
  8
LAYER_1
 10
3.72785211005314
 20
8.557969574244144
 30
0.0
  0
VERTEX
  5
C2A
  8
LAYER_1
 10
3.730235364379991
 20
8.563389724115792
 30
0.0
  0
VERTEX
  5
C2B
  8
LAYER_1
 10
3.733441860628204
 20
8.568393243582772
 30
0.0
  0
VERTEX
  5
C2C
  8
LAYER_1
 10
3.736661819489063
 20
8.57184635872097
 30
0.0
  0
VERTEX
  5
C2D
  8
LAYER_1
 10
3.740422535411751
 20
8.57467420142633
 30
0.0
  0
VERTEX
  5
C2E
  8
LAYER_1
 10
3.74460944997566
 20
8.576996556799426
 30
0.0
  0
VERTEX
  5
C2F
  8
LAYER_1
 10
3.749108004760179
 20
8.578933209940836
 30
0.0
  0
VERTEX
  5
C30
  8
LAYER_1
 10
3.75858180130861
 20
8.582128549930886
 30
0.0
  0
VERTEX
  5
C31
  8
LAYER_1
 10
3.767927457692169
 20
8.585218502201078
 30
0.0
  0
VERTEX
  5
C32
  8
LAYER_1
 10
3.775125099451938
 20
8.58741710370289
 30
0.0
  0
VERTEX
  5
C33
  8
LAYER_1
 10
3.782595776252216
 20
8.588958645133923
 30
0.0
  0
VERTEX
  5
C34
  8
LAYER_1
 10
3.79783690885751
 20
8.591237548688905
 30
0.0
  0
VERTEX
  5
C35
  8
LAYER_1
 10
3.805347701604131
 20
8.592558411265475
 30
0.0
  0
VERTEX
  5
C36
  8
LAYER_1
 10
3.81261220327447
 20
8.594389214676513
 30
0.0
  0
VERTEX
  5
C37
  8
LAYER_1
 10
3.81950058233933
 20
8.597021709148327
 30
0.0
  0
VERTEX
  5
C38
  8
LAYER_1
 10
3.822763153541831
 20
8.598729762477749
 30
0.0
  0
VERTEX
  5
C39
  8
LAYER_1
 10
3.825883007269513
 20
8.60074764490723
 30
0.0
  0
VERTEX
  5
C3A
  8
LAYER_1
 10
3.831577866236573
 20
8.605329692799117
 30
0.0
  0
VERTEX
  5
C3B
  8
LAYER_1
 10
3.836811319145573
 20
8.610511560759779
 30
0.0
  0
VERTEX
  5
C3C
  8
LAYER_1
 10
3.841578274911042
 20
8.616206945257835
 30
0.0
  0
VERTEX
  5
C3D
  8
LAYER_1
 10
3.84587364244751
 20
8.622329542761907
 30
0.0
  0
VERTEX
  5
C3E
  8
LAYER_1
 10
3.849692330669507
 20
8.628793049740615
 30
0.0
  0
VERTEX
  5
C3F
  8
LAYER_1
 10
3.853029248491564
 20
8.635511162662581
 30
0.0
  0
VERTEX
  5
C40
  8
LAYER_1
 10
3.855879304828208
 20
8.642397577996423
 30
0.0
  0
VERTEX
  5
C41
  8
LAYER_1
 10
3.858237408593971
 20
8.649365992210768
 30
0.0
  0
VERTEX
  5
C42
  8
LAYER_1
 10
3.860173160825834
 20
8.656663378296848
 30
0.0
  0
VERTEX
  5
C43
  8
LAYER_1
 10
3.861621893391585
 20
8.664163457136574
 30
0.0
  0
VERTEX
  5
C44
  8
LAYER_1
 10
3.862550580091157
 20
8.671793827197973
 30
0.0
  0
VERTEX
  5
C45
  8
LAYER_1
 10
3.862926194724483
 20
8.679482086949063
 30
0.0
  0
VERTEX
  5
C46
  8
LAYER_1
 10
3.862715711091495
 20
8.687155834857865
 30
0.0
  0
VERTEX
  5
C47
  8
LAYER_1
 10
3.861886102992125
 20
8.694742669392404
 30
0.0
  0
VERTEX
  5
C48
  8
LAYER_1
 10
3.860404344226306
 20
8.702170189020697
 30
0.0
  0
VERTEX
  5
C49
  8
LAYER_1
 10
3.858237408593971
 20
8.709365992210769
 30
0.0
  0
VERTEX
  5
C4A
  8
LAYER_1
 10
3.854883152858464
 20
8.717347101696825
 30
0.0
  0
VERTEX
  5
C4B
  8
LAYER_1
 10
3.85071197639291
 20
8.724984037626173
 30
0.0
  0
VERTEX
  5
C4C
  8
LAYER_1
 10
3.84582741994143
 20
8.7322661544408
 30
0.0
  0
VERTEX
  5
C4D
  8
LAYER_1
 10
3.840333024248144
 20
8.739182806582697
 30
0.0
  0
VERTEX
  5
C4E
  8
LAYER_1
 10
3.834332330057173
 20
8.74572334849385
 30
0.0
  0
VERTEX
  5
C4F
  8
LAYER_1
 10
3.827928878112636
 20
8.751877134616247
 30
0.0
  0
VERTEX
  5
C50
  8
LAYER_1
 10
3.821226209158655
 20
8.757633519391877
 30
0.0
  0
VERTEX
  5
C51
  8
LAYER_1
 10
3.81432786393935
 20
8.762981857262728
 30
0.0
  0
VERTEX
  5
C52
  8
LAYER_1
 10
3.809327056378769
 20
8.766463602792923
 30
0.0
  0
VERTEX
  5
C53
  8
LAYER_1
 10
3.804164444183712
 20
8.76966785448545
 30
0.0
  0
VERTEX
  5
C54
  8
LAYER_1
 10
3.793416928414441
 20
8.775347932005317
 30
0.0
  0
VERTEX
  5
C55
  8
LAYER_1
 10
3.782211561680078
 20
8.780230201117948
 30
0.0
  0
VERTEX
  5
C56
  8
LAYER_1
 10
3.770674589029166
 20
8.784522773118965
 30
0.0
  0
VERTEX
  5
C57
  8
LAYER_1
 10
3.747110806171863
 20
8.792171270968625
 30
0.0
  0
VERTEX
  5
C58
  8
LAYER_1
 10
3.735336486062556
 20
8.795943419408507
 30
0.0
  0
VERTEX
  5
C59
  8
LAYER_1
 10
3.723735540230867
 20
8.799958315919252
 30
0.0
  0
VERTEX
  5
C5A
  8
LAYER_1
 10
3.718690693571553
 20
8.801469740521632
 30
0.0
  0
VERTEX
  5
C5B
  8
LAYER_1
 10
3.713404735120317
 20
8.802572411668448
 30
0.0
  0
VERTEX
  5
C5C
  8
LAYER_1
 10
3.702648314112899
 20
8.804426980305635
 30
0.0
  0
VERTEX
  5
C5D
  8
LAYER_1
 10
3.697447267192126
 20
8.80561662115112
 30
0.0
  0
VERTEX
  5
C5E
  8
LAYER_1
 10
3.692543939750249
 20
8.80727299525128
 30
0.0
  0
VERTEX
  5
C5F
  8
LAYER_1
 10
3.688073039604973
 20
8.809614974283669
 30
0.0
  0
VERTEX
  5
C60
  8
LAYER_1
 10
3.686041845961594
 20
8.81111146304869
 30
0.0
  0
VERTEX
  5
C61
  8
LAYER_1
 10
3.684169274574004
 20
8.81286142992585
 30
0.0
  0
VERTEX
  5
C62
  8
LAYER_1
 10
3.680571363951534
 20
8.817098650053424
 30
0.0
  0
VERTEX
  5
C63
  8
LAYER_1
 10
3.677478172410948
 20
8.821634023064387
 30
0.0
  0
VERTEX
  5
C64
  8
LAYER_1
 10
3.674842747391664
 20
8.826437833702162
 30
0.0
  0
VERTEX
  5
C65
  8
LAYER_1
 10
3.672618136333099
 20
8.83148036671018
 30
0.0
  0
VERTEX
  5
C66
  8
LAYER_1
 10
3.670757386674674
 20
8.836731906831861
 30
0.0
  0
VERTEX
  5
C67
  8
LAYER_1
 10
3.669213545855805
 20
8.842162738810632
 30
0.0
  0
VERTEX
  5
C68
  8
LAYER_1
 10
3.666888780494411
 20
8.853443417313148
 30
0.0
  0
VERTEX
  5
C69
  8
LAYER_1
 10
3.663976243180711
 20
8.87684880531397
 30
0.0
  0
VERTEX
  5
C6A
  8
LAYER_1
 10
3.6626372302591
 20
8.888498070707083
 30
0.0
  0
VERTEX
  5
C6B
  8
LAYER_1
 10
3.660875560514777
 20
8.899794754291866
 30
0.0
  0
VERTEX
  5
C6C
  8
LAYER_1
 10
3.658115307315232
 20
8.915822729054339
 30
0.0
  0
VERTEX
  5
C6D
  8
LAYER_1
 10
3.655834980883616
 20
8.931932976679434
 30
0.0
  0
VERTEX
  5
C6E
  8
LAYER_1
 10
3.652275072083581
 20
8.964321016734962
 30
0.0
  0
VERTEX
  5
C6F
  8
LAYER_1
 10
3.649317761633491
 20
8.9968003268934
 30
0.0
  0
VERTEX
  5
C70
  8
LAYER_1
 10
3.646084977052167
 20
9.029212359589698
 30
0.0
  0
VERTEX
  5
C71
  8
LAYER_1
 10
3.64403514897087
 20
9.049813484847018
 30
0.0
  0
VERTEX
  5
C72
  8
LAYER_1
 10
3.642384303610074
 20
9.070495869392563
 30
0.0
  0
VERTEX
  5
C73
  8
LAYER_1
 10
3.639332338131992
 20
9.111923057697794
 30
0.0
  0
VERTEX
  5
C74
  8
LAYER_1
 10
3.637457606555709
 20
9.132577182132227
 30
0.0
  0
VERTEX
  5
C75
  8
LAYER_1
 10
3.635034634781933
 20
9.153131207204362
 30
0.0
  0
VERTEX
  5
C76
  8
LAYER_1
 10
3.631826617081164
 20
9.173539793251573
 30
0.0
  0
VERTEX
  5
C77
  8
LAYER_1
 10
3.627596747723906
 20
9.193757600611228
 30
0.0
  0
VERTEX
  5
C78
  8
LAYER_1
 10
3.622457003224916
 20
9.21383029362153
 30
0.0
  0
VERTEX
  5
C79
  8
LAYER_1
 10
3.616704309744312
 20
9.233720779229238
 30
0.0
  0
VERTEX
  5
C7A
  8
LAYER_1
 10
3.610338654305408
 20
9.253429092053317
 30
0.0
  0
VERTEX
  5
C7B
  8
LAYER_1
 10
3.603360023931518
 20
9.272955266712739
 30
0.0
  0
VERTEX
  5
C7C
  8
LAYER_1
 10
3.595768405645958
 20
9.292299337826467
 30
0.0
  0
VERTEX
  5
C7D
  8
LAYER_1
 10
3.58756378647204
 20
9.311461340013468
 30
0.0
  0
VERTEX
  5
C7E
  8
LAYER_1
 10
3.57874615343308
 20
9.330441307892709
 30
0.0
  0
VERTEX
  5
C7F
  8
LAYER_1
 10
3.569315493552393
 20
9.349239276083159
 30
0.0
  0
SEQEND
  5
C80
  8
LAYER_1
  0
POLYLINE
  5
86
  8
LAYER_1
 66
     1
 10
0.0
 20
0.0
 30
0.0
  0
VERTEX
  5
C81
  8
LAYER_1
 10
3.372727779989574
 20
8.450881614254836
 30
0.0
  0
VERTEX
  5
C82
  8
LAYER_1
 10
4.0226607442674
 20
8.487266940967114
 30
0.0
  0
SEQEND
  5
C83
  8
LAYER_1
  0
POLYLINE
  5
87
  8
LAYER_1
 66
     1
 10
0.0
 20
0.0
 30
0.0
  0
VERTEX
  5
C84
  8
LAYER_1
 10
3.70996138426851
 20
7.622264925963006
 30
0.0
  0
VERTEX
  5
C85
  8
LAYER_1
 10
4.20210288691673
 20
7.662307191802092
 30
0.0
  0
SEQEND
  5
C86
  8
LAYER_1
  0
POLYLINE
  5
88
  8
LAYER_1
 66
     1
 10
0.0
 20
0.0
 30
0.0
  0
VERTEX
  5
C87
  8
LAYER_1
 10
5.746861003390846
 20
7.096733514894919
 30
0.0
  0
VERTEX
  5
C88
  8
LAYER_1
 10
5.746861003390846
 20
6.896733514894919
 30
0.0
  0
SEQEND
  5
C89
  8
LAYER_1
  0
POLYLINE
  5
89
  8
LAYER_1
 66
     1
 10
0.0
 20
0.0
 30
0.0
  0
VERTEX
  5
C8A
  8
LAYER_1
 10
5.672125664031927
 20
7.105863962183159
 30
0.0
  0
VERTEX
  5
C8B
  8
LAYER_1
 10
5.640838771023881
 20
6.908326294064131
 30
0.0
  0
SEQEND
  5
C8C
  8
LAYER_1
  0
POLYLINE
  5
8A
  8
LAYER_1
 66
     1
 10
0.0
 20
0.0
 30
0.0
  0
VERTEX
  5
C8D
  8
LAYER_1
 10
5.599738757353816
 20
7.126573181346386
 30
0.0
  0
VERTEX
  5
C8E
  8
LAYER_1
 10
5.537935358478826
 20
6.936361878087354
 30
0.0
  0
SEQEND
  5
C8F
  8
LAYER_1
  0
POLYLINE
  5
8B
  8
LAYER_1
 66
     1
 10
0.0
 20
0.0
 30
0.0
  0
VERTEX
  5
C90
  8
LAYER_1
 10
5.531482689237296
 20
7.15835124267884
 30
0.0
  0
VERTEX
  5
C91
  8
LAYER_1
 10
5.440684589289387
 20
6.980149937841166
 30
0.0
  0
SEQEND
  5
C92
  8
LAYER_1
  0
POLYLINE
  5
8C
  8
LAYER_1
 66
     1
 10
0.0
 20
0.0
 30
0.0
  0
VERTEX
  5
C93
  8
LAYER_1
 10
5.469038150608301
 20
7.200415664845179
 30
0.0
  0
VERTEX
  5
C94
  8
LAYER_1
 10
5.351481100149807
 20
7.03861226597019
 30
0.0
  0
SEQEND
  5
C95
  8
LAYER_1
  0
POLYLINE
  5
8D
  8
LAYER_1
 66
     1
 10
0.0
 20
0.0
 30
0.0
  0
VERTEX
  5
C96
  8
LAYER_1
 10
5.413942733249417
 20
7.251730682167857
 30
0.0
  0
VERTEX
  5
C97
  8
LAYER_1
 10
5.272521377012108
 20
7.110309325930547
 30
0.0
  0
SEQEND
  5
C98
  8
LAYER_1
  0
POLYLINE
  5
8E
  8
LAYER_1
 66
     1
 10
0.0
 20
0.0
 30
0.0
  0
VERTEX
  5
C99
  8
LAYER_1
 10
5.367553069187228
 20
7.311032748615607
 30
0.0
  0
VERTEX
  5
C9A
  8
LAYER_1
 10
5.205749670312239
 20
7.193475698157112
 30
0.0
  0
SEQEND
  5
C9B
  8
LAYER_1
  0
POLYLINE
  5
8F
  8
LAYER_1
 66
     1
 10
0.0
 20
0.0
 30
0.0
  0
VERTEX
  5
C9C
  8
LAYER_1
 10
5.331011425909415
 20
7.376861650500214
 30
0.0
  0
VERTEX
  5
C9D
  8
LAYER_1
 10
5.152810121071742
 20
7.286063550552304
 30
0.0
  0
SEQEND
  5
C9E
  8
LAYER_1
  0
POLYLINE
  5
90
  8
LAYER_1
 66
     1
 10
0.0
 20
0.0
 30
0.0
  0
VERTEX
  5
C9F
  8
LAYER_1
 10
5.305217579948232
 20
7.447596461783675
 30
0.0
  0
VERTEX
  5
CA0
  8
LAYER_1
 10
5.115006276689202
 20
7.385793062908686
 30
0.0
  0
SEQEND
  5
CA1
  8
LAYER_1
  0
POLYLINE
  5
91
  8
LAYER_1
 66
     1
 10
0.0
 20
0.0
 30
0.0
  0
VERTEX
  5
CA2
  8
LAYER_1
 10
5.290806661396118
 20
7.521495456656815
 30
0.0
  0
VERTEX
  5
CA3
  8
LAYER_1
 10
5.09326899327709
 20
7.490208563648769
 30
0.0
  0
SEQEND
  5
CA4
  8
LAYER_1
  0
POLYLINE
  5
92
  8
LAYER_1
 66
     1
 10
0.0
 20
0.0
 30
0.0
  0
VERTEX
  5
CA5
  8
LAYER_1
 10
5.288133514894918
 20
7.596738996609153
 30
0.0
  0
VERTEX
  5
CA6
  8
LAYER_1
 10
5.088133514894918
 20
7.596738996609153
 30
0.0
  0
SEQEND
  5
CA7
  8
LAYER_1
  0
POLYLINE
  5
93
  8
LAYER_1
 66
     1
 10
0.0
 20
0.0
 30
0.0
  0
VERTEX
  5
CA8
  8
LAYER_1
 10
5.297263962183159
 20
7.671474335968073
 30
0.0
  0
VERTEX
  5
CA9
  8
LAYER_1
 10
5.099726294064131
 20
7.70276122897612
 30
0.0
  0
SEQEND
  5
CAA
  8
LAYER_1
  0
POLYLINE
  5
94
  8
LAYER_1
 66
     1
 10
0.0
 20
0.0
 30
0.0
  0
VERTEX
  5
CAB
  8
LAYER_1
 10
5.317973181346385
 20
7.743861242646185
 30
0.0
  0
VERTEX
  5
CAC
  8
LAYER_1
 10
5.127761878087354
 20
7.805664641521174
 30
0.0
  0
SEQEND
  5
CAD
  8
LAYER_1
  0
POLYLINE
  5
95
  8
LAYER_1
 66
     1
 10
0.0
 20
0.0
 30
0.0
  0
VERTEX
  5
CAE
  8
LAYER_1
 10
5.349751242678841
 20
7.812117310762707
 30
0.0
  0
VERTEX
  5
CAF
  8
LAYER_1
 10
5.171549937841167
 20
7.902915410710616
 30
0.0
  0
SEQEND
  5
CB0
  8
LAYER_1
  0
POLYLINE
  5
96
  8
LAYER_1
 66
     1
 10
0.0
 20
0.0
 30
0.0
  0
VERTEX
  5
CB1
  8
LAYER_1
 10
5.391815664845178
 20
7.8745618493917
 30
0.0
  0
VERTEX
  5
CB2
  8
LAYER_1
 10
5.230012265970188
 20
7.992118899850196
 30
0.0
  0
SEQEND
  5
CB3
  8
LAYER_1
  0
POLYLINE
  5
97
  8
LAYER_1
 66
     1
 10
0.0
 20
0.0
 30
0.0
  0
VERTEX
  5
CB4
  8
LAYER_1
 10
5.443130682167856
 20
7.929657266750585
 30
0.0
  0
VERTEX
  5
CB5
  8
LAYER_1
 10
5.301709325930546
 20
8.071078622987894
 30
0.0
  0
SEQEND
  5
CB6
  8
LAYER_1
  0
POLYLINE
  5
98
  8
LAYER_1
 66
     1
 10
0.0
 20
0.0
 30
0.0
  0
VERTEX
  5
CB7
  8
LAYER_1
 10
5.502432748615607
 20
7.976046930812773
 30
0.0
  0
VERTEX
  5
CB8
  8
LAYER_1
 10
5.384875698157113
 20
8.137850329687762
 30
0.0
  0
SEQEND
  5
CB9
  8
LAYER_1
  0
POLYLINE
  5
99
  8
LAYER_1
 66
     1
 10
0.0
 20
0.0
 30
0.0
  0
VERTEX
  5
CBA
  8
LAYER_1
 10
5.568261650500213
 20
8.012588574090584
 30
0.0
  0
VERTEX
  5
CBB
  8
LAYER_1
 10
5.477463550552304
 20
8.190789878928257
 30
0.0
  0
SEQEND
  5
CBC
  8
LAYER_1
  0
POLYLINE
  5
9A
  8
LAYER_1
 66
     1
 10
0.0
 20
0.0
 30
0.0
  0
VERTEX
  5
CBD
  8
LAYER_1
 10
5.638996461783673
 20
8.038382420051768
 30
0.0
  0
VERTEX
  5
CBE
  8
LAYER_1
 10
5.577193062908684
 20
8.228593723310798
 30
0.0
  0
SEQEND
  5
CBF
  8
LAYER_1
  0
POLYLINE
  5
9B
  8
LAYER_1
 66
     1
 10
0.0
 20
0.0
 30
0.0
  0
VERTEX
  5
CC0
  8
LAYER_1
 10
5.712895456656816
 20
8.052793338603884
 30
0.0
  0
VERTEX
  5
CC1
  8
LAYER_1
 10
5.68160856364877
 20
8.250331006722911
 30
0.0
  0
SEQEND
  5
CC2
  8
LAYER_1
  0
POLYLINE
  5
9C
  8
LAYER_1
 66
     1
 10
0.0
 20
0.0
 30
0.0
  0
VERTEX
  5
CC3
  8
LAYER_1
 10
5.788138996609153
 20
8.05546648510508
 30
0.0
  0
VERTEX
  5
CC4
  8
LAYER_1
 10
5.788138996609153
 20
8.255466485105082
 30
0.0
  0
SEQEND
  5
CC5
  8
LAYER_1
  0
POLYLINE
  5
9D
  8
LAYER_1
 66
     1
 10
0.0
 20
0.0
 30
0.0
  0
VERTEX
  5
CC6
  8
LAYER_1
 10
5.862874335968073
 20
8.046336037816841
 30
0.0
  0
VERTEX
  5
CC7
  8
LAYER_1
 10
5.894161228976118
 20
8.243873705935869
 30
0.0
  0
SEQEND
  5
CC8
  8
LAYER_1
  0
POLYLINE
  5
9E
  8
LAYER_1
 66
     1
 10
0.0
 20
0.0
 30
0.0
  0
VERTEX
  5
CC9
  8
LAYER_1
 10
5.935261242646185
 20
8.025626818653617
 30
0.0
  0
VERTEX
  5
CCA
  8
LAYER_1
 10
5.997064641521174
 20
8.215838121912649
 30
0.0
  0
SEQEND
  5
CCB
  8
LAYER_1
  0
POLYLINE
  5
9F
  8
LAYER_1
 66
     1
 10
0.0
 20
0.0
 30
0.0
  0
VERTEX
  5
CCC
  8
LAYER_1
 10
6.003517310762703
 20
7.993848757321162
 30
0.0
  0
VERTEX
  5
CCD
  8
LAYER_1
 10
6.094315410710614
 20
8.172050062158835
 30
0.0
  0
SEQEND
  5
CCE
  8
LAYER_1
  0
POLYLINE
  5
A0
  8
LAYER_1
 66
     1
 10
0.0
 20
0.0
 30
0.0
  0
VERTEX
  5
CCF
  8
LAYER_1
 10
6.065961849391698
 20
7.951784335154819
 30
0.0
  0
VERTEX
  5
CD0
  8
LAYER_1
 10
6.183518899850194
 20
8.113587734029808
 30
0.0
  0
SEQEND
  5
CD1
  8
LAYER_1
  0
POLYLINE
  5
A1
  8
LAYER_1
 66
     1
 10
0.0
 20
0.0
 30
0.0
  0
VERTEX
  5
CD2
  8
LAYER_1
 10
6.121057266750581
 20
7.900469317832142
 30
0.0
  0
VERTEX
  5
CD3
  8
LAYER_1
 10
6.26247862298789
 20
8.041890674069453
 30
0.0
  0
SEQEND
  5
CD4
  8
LAYER_1
  0
POLYLINE
  5
A2
  8
LAYER_1
 66
     1
 10
0.0
 20
0.0
 30
0.0
  0
VERTEX
  5
CD5
  8
LAYER_1
 10
6.167446930812773
 20
7.841167251384396
 30
0.0
  0
VERTEX
  5
CD6
  8
LAYER_1
 10
6.329250329687762
 20
7.95872430184289
 30
0.0
  0
SEQEND
  5
CD7
  8
LAYER_1
  0
POLYLINE
  5
A3
  8
LAYER_1
 66
     1
 10
0.0
 20
0.0
 30
0.0
  0
VERTEX
  5
CD8
  8
LAYER_1
 10
6.203988574090586
 20
7.775338349499789
 30
0.0
  0
VERTEX
  5
CD9
  8
LAYER_1
 10
6.382189878928259
 20
7.866136449447699
 30
0.0
  0
SEQEND
  5
CDA
  8
LAYER_1
  0
POLYLINE
  5
A4
  8
LAYER_1
 66
     1
 10
0.0
 20
0.0
 30
0.0
  0
VERTEX
  5
CDB
  8
LAYER_1
 10
6.229782420051766
 20
7.704603538216324
 30
0.0
  0
VERTEX
  5
CDC
  8
LAYER_1
 10
6.419993723310798
 20
7.766406937091314
 30
0.0
  0
SEQEND
  5
CDD
  8
LAYER_1
  0
POLYLINE
  5
A5
  8
LAYER_1
 66
     1
 10
0.0
 20
0.0
 30
0.0
  0
VERTEX
  5
CDE
  8
LAYER_1
 10
6.244193338603881
 20
7.630704543343183
 30
0.0
  0
VERTEX
  5
CDF
  8
LAYER_1
 10
6.441731006722909
 20
7.66199143635123
 30
0.0
  0
SEQEND
  5
CE0
  8
LAYER_1
  0
POLYLINE
  5
A6
  8
LAYER_1
 66
     1
 10
0.0
 20
0.0
 30
0.0
  0
VERTEX
  5
CE1
  8
LAYER_1
 10
6.246866485105082
 20
7.555461003390847
 30
0.0
  0
VERTEX
  5
CE2
  8
LAYER_1
 10
6.446866485105082
 20
7.555461003390847
 30
0.0
  0
SEQEND
  5
CE3
  8
LAYER_1
  0
POLYLINE
  5
A7
  8
LAYER_1
 66
     1
 10
0.0
 20
0.0
 30
0.0
  0
VERTEX
  5
CE4
  8
LAYER_1
 10
6.237736037816841
 20
7.480725664031927
 30
0.0
  0
VERTEX
  5
CE5
  8
LAYER_1
 10
6.435273705935869
 20
7.44943877102388
 30
0.0
  0
SEQEND
  5
CE6
  8
LAYER_1
  0
POLYLINE
  5
A8
  8
LAYER_1
 66
     1
 10
0.0
 20
0.0
 30
0.0
  0
VERTEX
  5
CE7
  8
LAYER_1
 10
6.217026818653615
 20
7.408338757353816
 30
0.0
  0
VERTEX
  5
CE8
  8
LAYER_1
 10
6.407238121912646
 20
7.346535358478826
 30
0.0
  0
SEQEND
  5
CE9
  8
LAYER_1
  0
POLYLINE
  5
A9
  8
LAYER_1
 66
     1
 10
0.0
 20
0.0
 30
0.0
  0
VERTEX
  5
CEA
  8
LAYER_1
 10
6.18524875732116
 20
7.340082689237295
 30
0.0
  0
VERTEX
  5
CEB
  8
LAYER_1
 10
6.363450062158833
 20
7.249284589289388
 30
0.0
  0
SEQEND
  5
CEC
  8
LAYER_1
  0
POLYLINE
  5
AA
  8
LAYER_1
 66
     1
 10
0.0
 20
0.0
 30
0.0
  0
VERTEX
  5
CED
  8
LAYER_1
 10
6.143184335154821
 20
7.277638150608301
 30
0.0
  0
VERTEX
  5
CEE
  8
LAYER_1
 10
6.304987734029811
 20
7.160081100149806
 30
0.0
  0
SEQEND
  5
CEF
  8
LAYER_1
  0
POLYLINE
  5
AB
  8
LAYER_1
 66
     1
 10
0.0
 20
0.0
 30
0.0
  0
VERTEX
  5
CF0
  8
LAYER_1
 10
6.091869317832145
 20
7.222542733249417
 30
0.0
  0
VERTEX
  5
CF1
  8
LAYER_1
 10
6.233290674069455
 20
7.081121377012108
 30
0.0
  0
SEQEND
  5
CF2
  8
LAYER_1
  0
POLYLINE
  5
AC
  8
LAYER_1
 66
     1
 10
0.0
 20
0.0
 30
0.0
  0
VERTEX
  5
CF3
  8
LAYER_1
 10
6.032567251384394
 20
7.17615306918723
 30
0.0
  0
VERTEX
  5
CF4
  8
LAYER_1
 10
6.150124301842888
 20
7.01434967031224
 30
0.0
  0
SEQEND
  5
CF5
  8
LAYER_1
  0
POLYLINE
  5
AD
  8
LAYER_1
 66
     1
 10
0.0
 20
0.0
 30
0.0
  0
VERTEX
  5
CF6
  8
LAYER_1
 10
5.966738349499788
 20
7.139611425909415
 30
0.0
  0
VERTEX
  5
CF7
  8
LAYER_1
 10
6.057536449447698
 20
6.96141012107174
 30
0.0
  0
SEQEND
  5
CF8
  8
LAYER_1
  0
POLYLINE
  5
AE
  8
LAYER_1
 66
     1
 10
0.0
 20
0.0
 30
0.0
  0
VERTEX
  5
CF9
  8
LAYER_1
 10
5.896003538216325
 20
7.113817579948234
 30
0.0
  0
VERTEX
  5
CFA
  8
LAYER_1
 10
5.957806937091314
 20
6.923606276689203
 30
0.0
  0
SEQEND
  5
CFB
  8
LAYER_1
  0
POLYLINE
  5
AF
  8
LAYER_1
 66
     1
 10
0.0
 20
0.0
 30
0.0
  0
VERTEX
  5
CFC
  8
LAYER_1
 10
5.822104543343185
 20
7.099406661396119
 30
0.0
  0
VERTEX
  5
CFD
  8
LAYER_1
 10
5.853391436351231
 20
6.901868993277091
 30
0.0
  0
SEQEND
  5
CFE
  8
LAYER_1
  0
POLYLINE
  5
B0
  8
LAYER_1
 66
     1
 10
0.0
 20
0.0
 30
0.0
  0
VERTEX
  5
CFF
  8
LAYER_1
 10
15.80516300954299
 20
7.183717562094804
 30
0.0
  0
VERTEX
  5
D00
  8
LAYER_1
 10
15.80516300954299
 20
6.983717562094804
 30
0.0
  0
SEQEND
  5
D01
  8
LAYER_1
  0
POLYLINE
  5
B1
  8
LAYER_1
 66
     1
 10
0.0
 20
0.0
 30
0.0
  0
VERTEX
  5
D02
  8
LAYER_1
 10
15.73042767018407
 20
7.192848009383044
 30
0.0
  0
VERTEX
  5
D03
  8
LAYER_1
 10
15.69914077717603
 20
6.995310341264016
 30
0.0
  0
SEQEND
  5
D04
  8
LAYER_1
  0
POLYLINE
  5
B2
  8
LAYER_1
 66
     1
 10
0.0
 20
0.0
 30
0.0
  0
VERTEX
  5
D05
  8
LAYER_1
 10
15.65804076350596
 20
7.213557228546271
 30
0.0
  0
VERTEX
  5
D06
  8
LAYER_1
 10
15.59623736463097
 20
7.023345925287239
 30
0.0
  0
SEQEND
  5
D07
  8
LAYER_1
  0
POLYLINE
  5
B3
  8
LAYER_1
 66
     1
 10
0.0
 20
0.0
 30
0.0
  0
VERTEX
  5
D08
  8
LAYER_1
 10
15.58978469538944
 20
7.245335289878725
 30
0.0
  0
VERTEX
  5
D09
  8
LAYER_1
 10
15.49898659544154
 20
7.067133985041051
 30
0.0
  0
SEQEND
  5
D0A
  8
LAYER_1
  0
POLYLINE
  5
B4
  8
LAYER_1
 66
     1
 10
0.0
 20
0.0
 30
0.0
  0
VERTEX
  5
D0B
  8
LAYER_1
 10
15.52734015676045
 20
7.287399712045064
 30
0.0
  0
VERTEX
  5
D0C
  8
LAYER_1
 10
15.40978310630195
 20
7.125596313170075
 30
0.0
  0
SEQEND
  5
D0D
  8
LAYER_1
  0
POLYLINE
  5
B5
  8
LAYER_1
 66
     1
 10
0.0
 20
0.0
 30
0.0
  0
VERTEX
  5
D0E
  8
LAYER_1
 10
15.47224473940157
 20
7.338714729367742
 30
0.0
  0
VERTEX
  5
D0F
  8
LAYER_1
 10
15.33082338316426
 20
7.197293373130432
 30
0.0
  0
SEQEND
  5
D10
  8
LAYER_1
  0
POLYLINE
  5
B6
  8
LAYER_1
 66
     1
 10
0.0
 20
0.0
 30
0.0
  0
VERTEX
  5
D11
  8
LAYER_1
 10
15.42585507533938
 20
7.398016795815492
 30
0.0
  0
VERTEX
  5
D12
  8
LAYER_1
 10
15.26405167646439
 20
7.280459745356997
 30
0.0
  0
SEQEND
  5
D13
  8
LAYER_1
  0
POLYLINE
  5
B7
  8
LAYER_1
 66
     1
 10
0.0
 20
0.0
 30
0.0
  0
VERTEX
  5
D14
  8
LAYER_1
 10
15.38931343206156
 20
7.463845697700099
 30
0.0
  0
VERTEX
  5
D15
  8
LAYER_1
 10
15.21111212722389
 20
7.373047597752189
 30
0.0
  0
SEQEND
  5
D16
  8
LAYER_1
  0
POLYLINE
  5
B8
  8
LAYER_1
 66
     1
 10
0.0
 20
0.0
 30
0.0
  0
VERTEX
  5
D17
  8
LAYER_1
 10
15.36351958610038
 20
7.53458050898356
 30
0.0
  0
VERTEX
  5
D18
  8
LAYER_1
 10
15.17330828284135
 20
7.472777110108571
 30
0.0
  0
SEQEND
  5
D19
  8
LAYER_1
  0
POLYLINE
  5
B9
  8
LAYER_1
 66
     1
 10
0.0
 20
0.0
 30
0.0
  0
VERTEX
  5
D1A
  8
LAYER_1
 10
15.34910866754827
 20
7.6084795038567
 30
0.0
  0
VERTEX
  5
D1B
  8
LAYER_1
 10
15.15157099942924
 20
7.577192610848654
 30
0.0
  0
SEQEND
  5
D1C
  8
LAYER_1
  0
POLYLINE
  5
BA
  8
LAYER_1
 66
     1
 10
0.0
 20
0.0
 30
0.0
  0
VERTEX
  5
D1D
  8
LAYER_1
 10
15.34643552104707
 20
7.683723043809038
 30
0.0
  0
VERTEX
  5
D1E
  8
LAYER_1
 10
15.14643552104707
 20
7.683723043809038
 30
0.0
  0
SEQEND
  5
D1F
  8
LAYER_1
  0
POLYLINE
  5
BB
  8
LAYER_1
 66
     1
 10
0.0
 20
0.0
 30
0.0
  0
VERTEX
  5
D20
  8
LAYER_1
 10
15.35556596833531
 20
7.758458383167958
 30
0.0
  0
VERTEX
  5
D21
  8
LAYER_1
 10
15.15802830021628
 20
7.789745276176005
 30
0.0
  0
SEQEND
  5
D22
  8
LAYER_1
  0
POLYLINE
  5
BC
  8
LAYER_1
 66
     1
 10
0.0
 20
0.0
 30
0.0
  0
VERTEX
  5
D23
  8
LAYER_1
 10
15.37627518749853
 20
7.83084528984607
 30
0.0
  0
VERTEX
  5
D24
  8
LAYER_1
 10
15.1860638842395
 20
7.892648688721059
 30
0.0
  0
SEQEND
  5
D25
  8
LAYER_1
  0
POLYLINE
  5
BD
  8
LAYER_1
 66
     1
 10
0.0
 20
0.0
 30
0.0
  0
VERTEX
  5
D26
  8
LAYER_1
 10
15.40805324883099
 20
7.899101357962592
 30
0.0
  0
VERTEX
  5
D27
  8
LAYER_1
 10
15.22985194399332
 20
7.989899457910501
 30
0.0
  0
SEQEND
  5
D28
  8
LAYER_1
  0
POLYLINE
  5
BE
  8
LAYER_1
 66
     1
 10
0.0
 20
0.0
 30
0.0
  0
VERTEX
  5
D29
  8
LAYER_1
 10
16.22574893696492
 20
7.928151298584281
 30
0.0
  0
VERTEX
  5
D2A
  8
LAYER_1
 10
16.38755233583991
 20
8.045708349042776
 30
0.0
  0
SEQEND
  5
D2B
  8
LAYER_1
  0
POLYLINE
  5
BF
  8
LAYER_1
 66
     1
 10
0.0
 20
0.0
 30
0.0
  0
VERTEX
  5
D2C
  8
LAYER_1
 10
16.26229058024273
 20
7.862322396699674
 30
0.0
  0
VERTEX
  5
D2D
  8
LAYER_1
 10
16.44049188508041
 20
7.953120496647584
 30
0.0
  0
SEQEND
  5
D2E
  8
LAYER_1
  0
POLYLINE
  5
C0
  8
LAYER_1
 66
     1
 10
0.0
 20
0.0
 30
0.0
  0
VERTEX
  5
D2F
  8
LAYER_1
 10
16.28808442620392
 20
7.79158758541621
 30
0.0
  0
VERTEX
  5
D30
  8
LAYER_1
 10
16.47829572946295
 20
7.853390984291199
 30
0.0
  0
SEQEND
  5
D31
  8
LAYER_1
  0
POLYLINE
  5
C1
  8
LAYER_1
 66
     1
 10
0.0
 20
0.0
 30
0.0
  0
VERTEX
  5
D32
  8
LAYER_1
 10
16.30249534475603
 20
7.717688590543069
 30
0.0
  0
VERTEX
  5
D33
  8
LAYER_1
 10
16.50003301287506
 20
7.748975483551115
 30
0.0
  0
SEQEND
  5
D34
  8
LAYER_1
  0
POLYLINE
  5
C2
  8
LAYER_1
 66
     1
 10
0.0
 20
0.0
 30
0.0
  0
VERTEX
  5
D35
  8
LAYER_1
 10
16.30516849125723
 20
7.642445050590732
 30
0.0
  0
VERTEX
  5
D36
  8
LAYER_1
 10
16.50516849125723
 20
7.642445050590732
 30
0.0
  0
SEQEND
  5
D37
  8
LAYER_1
  0
POLYLINE
  5
C3
  8
LAYER_1
 66
     1
 10
0.0
 20
0.0
 30
0.0
  0
VERTEX
  5
D38
  8
LAYER_1
 10
16.29603804396899
 20
7.567709711231812
 30
0.0
  0
VERTEX
  5
D39
  8
LAYER_1
 10
16.49357571208802
 20
7.536422818223765
 30
0.0
  0
SEQEND
  5
D3A
  8
LAYER_1
  0
POLYLINE
  5
C4
  8
LAYER_1
 66
     1
 10
0.0
 20
0.0
 30
0.0
  0
VERTEX
  5
D3B
  8
LAYER_1
 10
16.27532882480576
 20
7.495322804553701
 30
0.0
  0
VERTEX
  5
D3C
  8
LAYER_1
 10
16.4655401280648
 20
7.433519405678711
 30
0.0
  0
SEQEND
  5
D3D
  8
LAYER_1
  0
POLYLINE
  5
C5
  8
LAYER_1
 66
     1
 10
0.0
 20
0.0
 30
0.0
  0
VERTEX
  5
D3E
  8
LAYER_1
 10
16.24355076347331
 20
7.427066736437181
 30
0.0
  0
VERTEX
  5
D3F
  8
LAYER_1
 10
16.42175206831098
 20
7.336268636489273
 30
0.0
  0
SEQEND
  5
D40
  8
LAYER_1
  0
POLYLINE
  5
C6
  8
LAYER_1
 66
     1
 10
0.0
 20
0.0
 30
0.0
  0
VERTEX
  5
D41
  8
LAYER_1
 10
16.20148634130697
 20
7.364622197808186
 30
0.0
  0
VERTEX
  5
D42
  8
LAYER_1
 10
16.36328974018196
 20
7.247065147349691
 30
0.0
  0
SEQEND
  5
D43
  8
LAYER_1
  0
POLYLINE
  5
C7
  8
LAYER_1
 66
     1
 10
0.0
 20
0.0
 30
0.0
  0
VERTEX
  5
D44
  8
LAYER_1
 10
16.15017132398429
 20
7.309526780449302
 30
0.0
  0
VERTEX
  5
D45
  8
LAYER_1
 10
16.2915926802216
 20
7.168105424211993
 30
0.0
  0
SEQEND
  5
D46
  8
LAYER_1
  0
POLYLINE
  5
C8
  8
LAYER_1
 66
     1
 10
0.0
 20
0.0
 30
0.0
  0
VERTEX
  5
D47
  8
LAYER_1
 10
16.09086925753654
 20
7.263137116387115
 30
0.0
  0
VERTEX
  5
D48
  8
LAYER_1
 10
16.20842630799504
 20
7.101333717512125
 30
0.0
  0
SEQEND
  5
D49
  8
LAYER_1
  0
POLYLINE
  5
C9
  8
LAYER_1
 66
     1
 10
0.0
 20
0.0
 30
0.0
  0
VERTEX
  5
D4A
  8
LAYER_1
 10
16.02504035565194
 20
7.2265954731093
 30
0.0
  0
VERTEX
  5
D4B
  8
LAYER_1
 10
16.11583845559985
 20
7.048394168271625
 30
0.0
  0
SEQEND
  5
D4C
  8
LAYER_1
  0
POLYLINE
  5
CA
  8
LAYER_1
 66
     1
 10
0.0
 20
0.0
 30
0.0
  0
VERTEX
  5
D4D
  8
LAYER_1
 10
15.95430554436847
 20
7.200801627148119
 30
0.0
  0
VERTEX
  5
D4E
  8
LAYER_1
 10
16.01610894324346
 20
7.010590323889088
 30
0.0
  0
SEQEND
  5
D4F
  8
LAYER_1
  0
POLYLINE
  5
CB
  8
LAYER_1
 66
     1
 10
0.0
 20
0.0
 30
0.0
  0
VERTEX
  5
D50
  8
LAYER_1
 10
15.88040654949533
 20
7.186390708596004
 30
0.0
  0
VERTEX
  5
D51
  8
LAYER_1
 10
15.91169344250338
 20
6.988853040476976
 30
0.0
  0
SEQEND
  5
D52
  8
LAYER_1
  0
POLYLINE
  5
CC
  8
LAYER_1
 66
     1
 10
0.0
 20
0.0
 30
0.0
  0
VERTEX
  5
D53
  8
LAYER_1
 10
16.2544177323898
 20
8.062511824519103
 30
0.0
  0
VERTEX
  5
D54
  8
LAYER_1
 10
16.17935927290273
 20
7.987453365032027
 30
0.0
  0
SEQEND
  5
D55
  8
LAYER_1
  0
POLYLINE
  5
CD
  8
LAYER_1
 66
     1
 10
0.0
 20
0.0
 30
0.0
  0
VERTEX
  5
D56
  8
LAYER_1
 10
16.14396701346405
 20
8.065887452692259
 30
0.0
  0
VERTEX
  5
D57
  8
LAYER_1
 10
16.12426385554384
 20
8.038768382354704
 30
0.0
  0
SEQEND
  5
D58
  8
LAYER_1
  0
POLYLINE
  5
CE
  8
LAYER_1
 66
     1
 10
0.0
 20
0.0
 30
0.0
  0
VERTEX
  5
D59
  8
LAYER_1
 10
15.55619453014191
 20
8.069280061102546
 30
0.0
  0
VERTEX
  5
D5A
  8
LAYER_1
 10
15.56073475476776
 20
8.063030978012659
 30
0.0
  0
SEQEND
  5
D5B
  8
LAYER_1
  0
POLYLINE
  5
CF
  8
LAYER_1
 66
     1
 10
0.0
 20
0.0
 30
0.0
  0
VERTEX
  5
D5C
  8
LAYER_1
 10
15.45104741503395
 20
8.067026587236526
 30
0.0
  0
VERTEX
  5
D5D
  8
LAYER_1
 10
15.50143268832
 20
8.016641313950469
 30
0.0
  0
SEQEND
  5
D5E
  8
LAYER_1
  0
POLYLINE
  5
D0
  8
LAYER_1
 66
     1
 10
0.0
 20
0.0
 30
0.0
  0
VERTEX
  5
D5F
  8
LAYER_1
 10
15.31109716281105
 20
8.062550208053834
 30
0.0
  0
VERTEX
  5
D60
  8
LAYER_1
 10
15.45011767099733
 20
7.961545896591585
 30
0.0
  0
SEQEND
  5
D61
  8
LAYER_1
  0
ENDSEC
  0
EOF
