  0
SECTION
  2
HEADER
  9
$ACADVER
  1
AC1014
  9
$HANDSEED
  5
FFFF
  9
$MEASUREMENT
 70
     1
  0
ENDSEC
  0
SECTION
  2
TABLES
  0
TABLE
  2
VPORT
  5
8
330
0
100
AcDbSymbolTable
 70
     4
  0
VPORT
  5
2E
330
8
100
AcDbSymbolTableRecord
100
AcDbViewportTableRecord
  2
*ACTIVE
 70
     0
 10
0.0
 20
0.0
 11
1.0
 21
1.0
 12
210.0
 22
148.5
 13
0.0
 23
0.0
 14
10.0
 24
10.0
 15
10.0
 25
10.0
 16
0.0
 26
0.0
 36
1.0
 17
0.0
 27
0.0
 37
0.0
 40
341.0
 41
1.24
 42
50.0
 43
0.0
 44
0.0
 50
0.0
 51
0.0
 71
     0
 72
   100
 73
     1
 74
     3
 75
     0
 76
     0
 77
     0
 78
     0
  0
ENDTAB
  0
TABLE
  2
LTYPE
  5
5
330
0
100
AcDbSymbolTable
 70
     1
  0
LTYPE
  5
14
330
5
100
AcDbSymbolTableRecord
100
AcDbLinetypeTableRecord
  2
BYBLOCK
 70
     0
  3

 72
    65
 73
     0
 40
0.0
  0
LTYPE
  5
15
330
5
100
AcDbSymbolTableRecord
100
AcDbLinetypeTableRecord
  2
BYLAYER
 70
     0
  3

 72
    65
 73
     0
 40
0.0
  0
LTYPE
  5
16
330
5
100
AcDbSymbolTableRecord
100
AcDbLinetypeTableRecord
  2
CONTINUOUS
 70
     0
  3
Solid line
 72
    65
 73
     0
 40
0.0
  0
ENDTAB
  0
TABLE
  2
LAYER
  5
2
100
AcDbSymbolTable
 70
1
  0
LAYER
  5
50
100
AcDbSymbolTableRecord
100
AcDbLayerTableRecord
  2
0
 70
0
  6
CONTINUOUS
  0
ENDTAB
  0
TABLE
  2
STYLE
  5
3
330
0
100
AcDbSymbolTable
 70
     1
  0
STYLE
  5
11
330
3
100
AcDbSymbolTableRecord
100
AcDbTextStyleTableRecord
  2
STANDARD
 70
     0
 40
0.0
 41
1.0
 50
0.0
 71
     0
 42
2.5
  3
txt
  4

  0
ENDTAB
  0
TABLE
  2
VIEW
  5
6
330
0
100
AcDbSymbolTable
 70
     0
  0
ENDTAB
  0
TABLE
  2
UCS
  5
7
330
0
100
AcDbSymbolTable
 70
     0
  0
ENDTAB
  0
TABLE
  2
APPID
  5
9
330
0
100
AcDbSymbolTable
 70
     2
  0
APPID
  5
12
330
9
100
AcDbSymbolTableRecord
100
AcDbRegAppTableRecord
  2
ACAD
 70
     0
  0
ENDTAB
  0
TABLE
  2
DIMSTYLE
  5
A
330
0
100
AcDbSymbolTable
 70
     1
  0
DIMSTYLE
105
27
330
A
100
AcDbSymbolTableRecord
100
AcDbDimStyleTableRecord
  2
ISO-25
 70
     0
  3

  4

  5

  6

  7

 40
1.0
 41
2.5
 42
0.625
 43
3.75
 44
1.25
 45
0.0
 46
0.0
 47
0.0
 48
0.0
140
2.5
141
2.5
142
0.0
143
0.03937007874016
144
1.0
145
0.0
146
1.0
147
0.625
 71
     0
 72
     0
 73
     0
 74
     0
 75
     0
 76
     0
 77
     1
 78
     8
170
     0
171
     3
172
     1
173
     0
174
     0
175
     0
176
     0
177
     0
178
     0
270
     2
271
     2
272
     2
273
     2
274
     3
340
11
275
     0
280
     0
281
     0
282
     0
283
     0
284
     8
285
     0
286
     0
287
     3
288
     0
  0
ENDTAB
  0
TABLE
  2
BLOCK_RECORD
  5
1
330
0
100
AcDbSymbolTable
 70
     1
  0
BLOCK_RECORD
  5
1F
330
1
100
AcDbSymbolTableRecord
100
AcDbBlockTableRecord
  2
*MODEL_SPACE
  0
BLOCK_RECORD
  5
1B
330
1
100
AcDbSymbolTableRecord
100
AcDbBlockTableRecord
  2
*PAPER_SPACE
  0
ENDTAB
  0
ENDSEC
  0
SECTION
  2
BLOCKS
  0
BLOCK
  5
20
330
1F
100
AcDbEntity
  8
0
100
AcDbBlockBegin
  2
*MODEL_SPACE
 70
     0
 10
0.0
 20
0.0
 30
0.0
  3
*MODEL_SPACE
  1

  0
ENDBLK
  5
21
330
1F
100
AcDbEntity
  8
0
100
AcDbBlockEnd
  0
BLOCK
  5
1C
330
1B
100
AcDbEntity
 67
     1
  8
0
100
AcDbBlockBegin
  2
*PAPER_SPACE
  1

  0
ENDBLK
  5
1D
330
1B
100
AcDbEntity
 67
     1
  8
0
100
AcDbBlockEnd
  0
ENDSEC
  0
SECTION
  2
ENTITIES
  0
SPLINE
  5
100
100
AcDbEntity
  8
0
 62
7
100
AcDbSpline
 70
8
 71
3
 72
8
 73
4
 74
0
 40
0
 40
0
 40
0
 40
0
 40
1
 40
1
 40
1
 40
1
 10
108.801016
 20
6.019271
 30
0.0
 10
107.615620
 20
7.292578
 30
0.0
 10
106.286490
 20
8.883991
 30
0.0
 10
105.847393
 20
9.555742
 30
0.0
  0
SPLINE
  5
101
100
AcDbEntity
  8
0
 62
7
100
AcDbSpline
 70
8
 71
3
 72
8
 73
4
 74
0
 40
0
 40
0
 40
0
 40
0
 40
1
 40
1
 40
1
 40
1
 10
105.847393
 20
9.555742
 30
0.0
 10
104.856111
 20
11.072257
 30
0.0
 10
104.404165
 20
11.218683
 30
0.0
 10
99.006858
 20
11.772014
 30
0.0
  0
SPLINE
  5
102
100
AcDbEntity
  8
0
 62
7
100
AcDbSpline
 70
8
 71
3
 72
8
 73
4
 74
0
 40
0
 40
0
 40
0
 40
0
 40
1
 40
1
 40
1
 40
1
 10
99.006858
 20
11.772014
 30
0.0
 10
93.493799
 20
12.337211
 30
0.0
 10
91.956961
 20
12.595400
 30
0.0
 10
89.516156
 20
13.366448
 30
0.0
  0
SPLINE
  5
103
100
AcDbEntity
  8
0
 62
7
100
AcDbSpline
 70
8
 71
3
 72
8
 73
4
 74
0
 40
0
 40
0
 40
0
 40
0
 40
1
 40
1
 40
1
 40
1
 10
89.516156
 20
13.366448
 30
0.0
 10
86.964673
 20
14.172462
 30
0.0
 10
85.245086
 20
15.433061
 30
0.0
 10
84.446348
 20
17.083032
 30
0.0
  0
SPLINE
  5
104
100
AcDbEntity
  8
0
 62
7
100
AcDbSpline
 70
8
 71
3
 72
8
 73
4
 74
0
 40
0
 40
0
 40
0
 40
0
 40
1
 40
1
 40
1
 40
1
 10
84.446348
 20
17.083032
 30
0.0
 10
83.935946
 20
18.137383
 30
0.0
 10
83.875049
 20
18.576719
 30
0.0
 10
84.013043
 20
20.209166
 30
0.0
  0
SPLINE
  5
105
100
AcDbEntity
  8
0
 62
7
100
AcDbSpline
 70
8
 71
3
 72
8
 73
4
 74
0
 40
0
 40
0
 40
0
 40
0
 40
1
 40
1
 40
1
 40
1
 10
84.013043
 20
20.209166
 30
0.0
 10
84.232128
 20
22.800937
 30
0.0
 10
85.193172
 20
25.970037
 30
0.0
 10
87.125791
 20
30.473624
 30
0.0
  0
SPLINE
  5
106
100
AcDbEntity
  8
0
 62
7
100
AcDbSpline
 70
8
 71
3
 72
8
 73
4
 74
0
 40
0
 40
0
 40
0
 40
0
 40
1
 40
1
 40
1
 40
1
 10
87.125791
 20
30.473624
 30
0.0
 10
88.527617
 20
33.740312
 30
0.0
 10
89.746442
 20
36.881811
 30
0.0
 10
89.746442
 20
37.228314
 30
0.0
  0
SPLINE
  5
107
100
AcDbEntity
  8
0
 62
7
100
AcDbSpline
 70
8
 71
3
 72
8
 73
4
 74
0
 40
0
 40
0
 40
0
 40
0
 40
1
 40
1
 40
1
 40
1
 10
89.746442
 20
37.228314
 30
0.0
 10
89.746442
 20
37.285409
 30
0.0
 10
89.257304
 20
37.551117
 30
0.0
 10
88.659470
 20
37.818774
 30
0.0
  0
SPLINE
  5
108
100
AcDbEntity
  8
0
 62
7
100
AcDbSpline
 70
8
 71
3
 72
8
 73
4
 74
0
 40
0
 40
0
 40
0
 40
0
 40
1
 40
1
 40
1
 40
1
 10
85.947491
 20
37.569505
 30
0.0
 10
85.053736
 20
37.164748
 30
0.0
 10
81.881702
 20
36.099991
 30
0.0
 10
78.898525
 20
35.203376
 30
0.0
  0
SPLINE
  5
109
100
AcDbEntity
  8
0
 62
7
100
AcDbSpline
 70
8
 71
3
 72
8
 73
4
 74
0
 40
0
 40
0
 40
0
 40
0
 40
1
 40
1
 40
1
 40
1
 10
78.898525
 20
35.203376
 30
0.0
 10
75.915348
 20
34.306761
 30
0.0
 10
72.781787
 20
33.192723
 30
0.0
 10
71.935054
 20
32.727731
 30
0.0
  0
SPLINE
  5
10a
100
AcDbEntity
  8
0
 62
7
100
AcDbSpline
 70
8
 71
3
 72
8
 73
4
 74
0
 40
0
 40
0
 40
0
 40
0
 40
1
 40
1
 40
1
 40
1
 10
71.935054
 20
32.727731
 30
0.0
 10
69.315050
 20
31.288926
 30
0.0
 10
69.388133
 20
31.805957
 30
0.0
 10
70.366821
 20
21.633421
 30
0.0
  0
SPLINE
  5
10b
100
AcDbEntity
  8
0
 62
7
100
AcDbSpline
 70
8
 71
3
 72
8
 73
4
 74
0
 40
0
 40
0
 40
0
 40
0
 40
1
 40
1
 40
1
 40
1
 10
70.366821
 20
21.633421
 30
0.0
 10
71.538177
 20
9.458301
 30
0.0
 10
71.575409
 20
8.925287
 30
0.0
 10
71.369574
 20
7.277838
 30
0.0
  0
SPLINE
  5
10c
100
AcDbEntity
  8
0
 62
7
100
AcDbSpline
 70
8
 71
3
 72
8
 73
4
 74
0
 40
0
 40
0
 40
0
 40
0
 40
1
 40
1
 40
1
 40
1
 10
71.369574
 20
7.277838
 30
0.0
 10
71.122871
 20
5.303308
 30
0.0
 10
70.628259
 20
5.040712
 30
0.0
 10
68.768055
 20
5.896660
 30
0.0
  0
SPLINE
  5
10d
100
AcDbEntity
  8
0
 62
7
100
AcDbSpline
 70
8
 71
3
 72
8
 73
4
 74
0
 40
0
 40
0
 40
0
 40
0
 40
1
 40
1
 40
1
 40
1
 10
68.768055
 20
5.896660
 30
0.0
 10
66.376995
 20
6.996872
 30
0.0
 10
59.461969
 20
12.661897
 30
0.0
 10
59.932311
 20
13.135203
 30
0.0
  0
SPLINE
  5
10e
100
AcDbEntity
  8
0
 62
7
100
AcDbSpline
 70
8
 71
3
 72
8
 73
4
 74
0
 40
0
 40
0
 40
0
 40
0
 40
1
 40
1
 40
1
 40
1
 10
59.932311
 20
13.135203
 30
0.0
 10
60.196563
 20
13.401119
 30
0.0
 10
62.370655
 20
13.399773
 30
0.0
 10
65.509190
 20
13.131736
 30
0.0
  0
LWPOLYLINE
  5
10f
100
AcDbEntity
  8
0
 62
7
100
AcDbPolyline
 90
3
 70
0
 10
88.659470
 20
37.818774
 30
0.0
 10
87.572498
 20
38.305425
 30
0.0
 10
85.947491
 20
37.569505
 30
0.0
  0
SPLINE
  5
110
100
AcDbEntity
  8
0
 62
7
100
AcDbSpline
 70
8
 71
3
 72
8
 73
4
 74
0
 40
0
 40
0
 40
0
 40
0
 40
1
 40
1
 40
1
 40
1
 10
67.682168
 20
14.691524
 30
0.0
 10
67.494393
 20
16.524322
 30
0.0
 10
65.887103
 20
24.991227
 30
0.0
 10
64.757186
 20
30.099791
 30
0.0
  0
SPLINE
  5
111
100
AcDbEntity
  8
0
 62
7
100
AcDbSpline
 70
8
 71
3
 72
8
 73
4
 74
0
 40
0
 40
0
 40
0
 40
0
 40
1
 40
1
 40
1
 40
1
 10
64.757186
 20
30.099791
 30
0.0
 10
64.136336
 20
32.906756
 30
0.0
 10
64.124292
 20
33.120965
 30
0.0
 10
64.512513
 20
34.451557
 30
0.0
  0
SPLINE
  5
112
100
AcDbEntity
  8
0
 62
7
100
AcDbSpline
 70
8
 71
3
 72
8
 73
4
 74
0
 40
0
 40
0
 40
0
 40
0
 40
1
 40
1
 40
1
 40
1
 10
64.512513
 20
34.451557
 30
0.0
 10
65.226417
 20
36.898395
 30
0.0
 10
67.393921
 20
40.149039
 30
0.0
 10
70.727350
 20
43.772053
 30
0.0
  0
SPLINE
  5
113
100
AcDbEntity
  8
0
 62
7
100
AcDbSpline
 70
8
 71
3
 72
8
 73
4
 74
0
 40
0
 40
0
 40
0
 40
0
 40
1
 40
1
 40
1
 40
1
 10
70.727350
 20
43.772053
 30
0.0
 10
72.822591
 20
46.049319
 30
0.0
 10
77.968012
 20
50.477801
 30
0.0
 10
79.015516
 20
50.905391
 30
0.0
  0
LWPOLYLINE
  5
114
100
AcDbEntity
  8
0
 62
7
100
AcDbPolyline
 90
3
 70
0
 10
65.509190
 20
13.131736
 30
0.0
 10
67.862564
 20
12.930762
 30
0.0
 10
67.682168
 20
14.691524
 30
0.0
  0
SPLINE
  5
115
100
AcDbEntity
  8
0
 62
7
100
AcDbSpline
 70
8
 71
3
 72
8
 73
4
 74
0
 40
0
 40
0
 40
0
 40
0
 40
1
 40
1
 40
1
 40
1
 10
78.817078
 20
51.826901
 30
0.0
 10
78.279792
 20
52.158971
 30
0.0
 10
77.840192
 20
52.531986
 30
0.0
 10
77.840192
 20
52.655832
 30
0.0
  0
SPLINE
  5
116
100
AcDbEntity
  8
0
 62
7
100
AcDbSpline
 70
8
 71
3
 72
8
 73
4
 74
0
 40
0
 40
0
 40
0
 40
0
 40
1
 40
1
 40
1
 40
1
 10
77.840192
 20
52.655832
 30
0.0
 10
77.840192
 20
53.072911
 30
0.0
 10
78.873001
 20
53.213183
 30
0.0
 10
79.881627
 20
52.933087
 30
0.0
  0
SPLINE
  5
117
100
AcDbEntity
  8
0
 62
7
100
AcDbSpline
 70
8
 71
3
 72
8
 73
4
 74
0
 40
0
 40
0
 40
0
 40
0
 40
1
 40
1
 40
1
 40
1
 10
79.881627
 20
52.933087
 30
0.0
 10
80.432325
 20
52.780158
 30
0.0
 10
81.121025
 20
52.659137
 30
0.0
 10
81.412067
 20
52.664151
 30
0.0
  0
SPLINE
  5
118
100
AcDbEntity
  8
0
 62
7
100
AcDbSpline
 70
8
 71
3
 72
8
 73
4
 74
0
 40
0
 40
0
 40
0
 40
0
 40
1
 40
1
 40
1
 40
1
 10
81.412067
 20
52.664151
 30
0.0
 10
81.856771
 20
52.671824
 30
0.0
 10
81.825097
 20
52.736274
 30
0.0
 10
81.213629
 20
53.068000
 30
0.0
  0
SPLINE
  5
119
100
AcDbEntity
  8
0
 62
7
100
AcDbSpline
 70
8
 71
3
 72
8
 73
4
 74
0
 40
0
 40
0
 40
0
 40
0
 40
1
 40
1
 40
1
 40
1
 10
81.213629
 20
53.068000
 30
0.0
 10
80.153666
 20
53.643041
 30
0.0
 10
80.312207
 20
53.881218
 30
0.0
 10
81.875088
 20
54.061709
 30
0.0
  0
SPLINE
  5
11a
100
AcDbEntity
  8
0
 62
7
100
AcDbSpline
 70
8
 71
3
 72
8
 73
4
 74
0
 40
0
 40
0
 40
0
 40
0
 40
1
 40
1
 40
1
 40
1
 10
81.875088
 20
54.061709
 30
0.0
 10
83.225886
 20
54.217708
 30
0.0
 10
83.341001
 20
54.300715
 30
0.0
 10
86.054041
 20
57.075126
 30
0.0
  0
SPLINE
  5
11b
100
AcDbEntity
  8
0
 62
7
100
AcDbSpline
 70
8
 71
3
 72
8
 73
4
 74
0
 40
0
 40
0
 40
0
 40
0
 40
1
 40
1
 40
1
 40
1
 10
86.054041
 20
57.075126
 30
0.0
 10
89.149486
 20
60.240590
 30
0.0
 10
91.154343
 20
62.677252
 30
0.0
 10
93.354456
 20
65.947899
 30
0.0
  0
SPLINE
  5
11c
100
AcDbEntity
  8
0
 62
7
100
AcDbSpline
 70
8
 71
3
 72
8
 73
4
 74
0
 40
0
 40
0
 40
0
 40
0
 40
1
 40
1
 40
1
 40
1
 10
93.354456
 20
65.947899
 30
0.0
 10
96.361266
 20
70.417767
 30
0.0
 10
99.231463
 20
77.168753
 30
0.0
 10
98.892717
 20
78.974434
 30
0.0
  0
SPLINE
  5
11d
100
AcDbEntity
  8
0
 62
7
100
AcDbSpline
 70
8
 71
3
 72
8
 73
4
 74
0
 40
0
 40
0
 40
0
 40
0
 40
1
 40
1
 40
1
 40
1
 10
98.892717
 20
78.974434
 30
0.0
 10
98.785307
 20
79.546969
 30
0.0
 10
98.917297
 20
80.232549
 30
0.0
 10
99.302610
 20
81.103626
 30
0.0
  0
SPLINE
  5
11e
100
AcDbEntity
  8
0
 62
7
100
AcDbSpline
 70
8
 71
3
 72
8
 73
4
 74
0
 40
0
 40
0
 40
0
 40
0
 40
1
 40
1
 40
1
 40
1
 10
99.302610
 20
81.103626
 30
0.0
 10
99.821706
 20
82.277135
 30
0.0
 10
99.858391
 20
82.698955
 30
0.0
 10
99.726253
 20
85.974923
 30
0.0
  0
SPLINE
  5
11f
100
AcDbEntity
  8
0
 62
7
100
AcDbSpline
 70
8
 71
3
 72
8
 73
4
 74
0
 40
0
 40
0
 40
0
 40
0
 40
1
 40
1
 40
1
 40
1
 10
99.726253
 20
85.974923
 30
0.0
 10
99.511599
 20
91.296628
 30
0.0
 10
98.277529
 20
95.384776
 30
0.0
 10
95.448863
 20
100.144792
 30
0.0
  0
SPLINE
  5
120
100
AcDbEntity
  8
0
 62
7
100
AcDbSpline
 70
8
 71
3
 72
8
 73
4
 74
0
 40
0
 40
0
 40
0
 40
0
 40
1
 40
1
 40
1
 40
1
 10
95.448863
 20
100.144792
 30
0.0
 10
92.770185
 20
104.652408
 30
0.0
 10
90.389215
 20
107.126357
 30
0.0
 10
85.338100
 20
110.650388
 30
0.0
  0
SPLINE
  5
121
100
AcDbEntity
  8
0
 62
7
100
AcDbSpline
 70
8
 71
3
 72
8
 73
4
 74
0
 40
0
 40
0
 40
0
 40
0
 40
1
 40
1
 40
1
 40
1
 10
85.338100
 20
110.650388
 30
0.0
 10
82.456549
 20
112.660769
 30
0.0
 10
82.440185
 20
112.666322
 30
0.0
 10
83.238710
 20
111.362845
 30
0.0
  0
SPLINE
  5
122
100
AcDbEntity
  8
0
 62
7
100
AcDbSpline
 70
8
 71
3
 72
8
 73
4
 74
0
 40
0
 40
0
 40
0
 40
0
 40
1
 40
1
 40
1
 40
1
 10
83.238710
 20
111.362845
 30
0.0
 10
84.488552
 20
109.322664
 30
0.0
 10
86.334605
 20
105.541789
 30
0.0
 10
87.222428
 20
103.203851
 30
0.0
  0
SPLINE
  5
123
100
AcDbEntity
  8
0
 62
7
100
AcDbSpline
 70
8
 71
3
 72
8
 73
4
 74
0
 40
0
 40
0
 40
0
 40
0
 40
1
 40
1
 40
1
 40
1
 10
87.222428
 20
103.203851
 30
0.0
 10
88.725489
 20
99.245785
 30
0.0
 10
90.271470
 20
92.395532
 30
0.0
 10
90.274545
 20
89.679902
 30
0.0
  0
LWPOLYLINE
  5
124
100
AcDbEntity
  8
0
 62
7
100
AcDbPolyline
 90
3
 70
0
 10
79.015516
 20
50.905391
 30
0.0
 10
79.793965
 20
51.223153
 30
0.0
 10
78.817078
 20
51.826901
 30
0.0
  0
SPLINE
  5
125
100
AcDbEntity
  8
0
 62
7
100
AcDbSpline
 70
8
 71
3
 72
8
 73
4
 74
0
 40
0
 40
0
 40
0
 40
0
 40
1
 40
1
 40
1
 40
1
 10
87.974104
 20
89.490145
 30
0.0
 10
83.855160
 20
90.832644
 30
0.0
 10
79.679236
 20
91.555882
 30
0.0
 10
75.056230
 20
91.727425
 30
0.0
  0
SPLINE
  5
126
100
AcDbEntity
  8
0
 62
7
100
AcDbSpline
 70
8
 71
3
 72
8
 73
4
 74
0
 40
0
 40
0
 40
0
 40
0
 40
1
 40
1
 40
1
 40
1
 10
75.056230
 20
91.727425
 30
0.0
 10
69.834974
 20
91.921166
 30
0.0
 10
65.538548
 20
91.488284
 30
0.0
 10
65.058840
 20
90.720151
 30
0.0
  0
SPLINE
  5
127
100
AcDbEntity
  8
0
 62
7
100
AcDbSpline
 70
8
 71
3
 72
8
 73
4
 74
0
 40
0
 40
0
 40
0
 40
0
 40
1
 40
1
 40
1
 40
1
 10
65.058840
 20
90.720151
 30
0.0
 10
64.888052
 20
90.446672
 30
0.0
 10
64.552716
 20
90.222917
 30
0.0
 10
64.313649
 20
90.222917
 30
0.0
  0
SPLINE
  5
128
100
AcDbEntity
  8
0
 62
7
100
AcDbSpline
 70
8
 71
3
 72
8
 73
4
 74
0
 40
0
 40
0
 40
0
 40
0
 40
1
 40
1
 40
1
 40
1
 10
64.313649
 20
90.222917
 30
0.0
 10
64.074585
 20
90.222917
 30
0.0
 10
63.816717
 20
89.984792
 30
0.0
 10
63.740607
 20
89.693750
 30
0.0
  0
SPLINE
  5
129
100
AcDbEntity
  8
0
 62
7
100
AcDbSpline
 70
8
 71
3
 72
8
 73
4
 74
0
 40
0
 40
0
 40
0
 40
0
 40
1
 40
1
 40
1
 40
1
 10
63.740607
 20
89.693750
 30
0.0
 10
63.564228
 20
89.019277
 30
0.0
 10
62.603364
 20
88.997208
 30
0.0
 10
62.190601
 20
89.658150
 30
0.0
  0
SPLINE
  5
12a
100
AcDbEntity
  8
0
 62
7
100
AcDbSpline
 70
8
 71
3
 72
8
 73
4
 74
0
 40
0
 40
0
 40
0
 40
0
 40
1
 40
1
 40
1
 40
1
 10
62.190601
 20
89.658150
 30
0.0
 10
61.910135
 20
90.107243
 30
0.0
 10
60.902961
 20
90.162965
 30
0.0
 10
60.909303
 20
89.729037
 30
0.0
  0
SPLINE
  5
12b
100
AcDbEntity
  8
0
 62
7
100
AcDbSpline
 70
8
 71
3
 72
8
 73
4
 74
0
 40
0
 40
0
 40
0
 40
0
 40
1
 40
1
 40
1
 40
1
 10
60.909303
 20
89.729037
 30
0.0
 10
60.910626
 20
89.636870
 30
0.0
 10
61.714322
 20
89.104113
 30
0.0
 10
62.695241
 20
88.545136
 30
0.0
  0
SPLINE
  5
12c
100
AcDbEntity
  8
0
 62
7
100
AcDbSpline
 70
8
 71
3
 72
8
 73
4
 74
0
 40
0
 40
0
 40
0
 40
0
 40
1
 40
1
 40
1
 40
1
 10
62.695241
 20
88.545136
 30
0.0
 10
63.676160
 20
87.986161
 30
0.0
 10
67.429703
 20
85.855971
 30
0.0
 10
71.036450
 20
83.811383
 30
0.0
  0
LWPOLYLINE
  5
12d
100
AcDbEntity
  8
0
 62
7
100
AcDbPolyline
 90
3
 70
0
 10
90.274545
 20
89.679902
 30
0.0
 10
90.275603
 20
88.740009
 30
0.0
 10
87.974104
 20
89.490145
 30
0.0
  0
SPLINE
  5
12e
100
AcDbEntity
  8
0
 62
7
100
AcDbSpline
 70
8
 71
3
 72
8
 73
4
 74
0
 40
0
 40
0
 40
0
 40
0
 40
1
 40
1
 40
1
 40
1
 10
78.218432
 20
80.680414
 30
0.0
 10
78.932857
 20
81.351583
 30
0.0
 10
79.366589
 20
81.016568
 30
0.0
 10
78.851353
 20
80.191546
 30
0.0
  0
SPLINE
  5
12f
100
AcDbEntity
  8
0
 62
7
100
AcDbSpline
 70
8
 71
3
 72
8
 73
4
 74
0
 40
0
 40
0
 40
0
 40
0
 40
1
 40
1
 40
1
 40
1
 10
78.851353
 20
80.191546
 30
0.0
 10
78.670031
 20
79.901203
 30
0.0
 10
78.576702
 20
79.620213
 30
0.0
 10
78.643951
 20
79.567127
 30
0.0
  0
SPLINE
  5
130
100
AcDbEntity
  8
0
 62
7
100
AcDbSpline
 70
8
 71
3
 72
8
 73
4
 74
0
 40
0
 40
0
 40
0
 40
0
 40
1
 40
1
 40
1
 40
1
 10
78.643951
 20
79.567127
 30
0.0
 10
78.711203
 20
79.514039
 30
0.0
 10
79.201444
 20
79.221632
 30
0.0
 10
79.733375
 20
78.917332
 30
0.0
  0
SPLINE
  5
131
100
AcDbEntity
  8
0
 62
7
100
AcDbSpline
 70
8
 71
3
 72
8
 73
4
 74
0
 40
0
 40
0
 40
0
 40
0
 40
1
 40
1
 40
1
 40
1
 10
79.733375
 20
78.917332
 30
0.0
 10
80.601415
 20
78.420756
 30
0.0
 10
80.757363
 20
78.403873
 30
0.0
 10
81.255195
 20
78.752568
 30
0.0
  0
SPLINE
  5
132
100
AcDbEntity
  8
0
 62
7
100
AcDbSpline
 70
8
 71
3
 72
8
 73
4
 74
0
 40
0
 40
0
 40
0
 40
0
 40
1
 40
1
 40
1
 40
1
 10
81.255195
 20
78.752568
 30
0.0
 10
81.919022
 20
79.217528
 30
0.0
 10
82.517485
 20
78.983906
 30
0.0
 10
82.063590
 20
78.436994
 30
0.0
  0
SPLINE
  5
133
100
AcDbEntity
  8
0
 62
7
100
AcDbSpline
 70
8
 71
3
 72
8
 73
4
 74
0
 40
0
 40
0
 40
0
 40
0
 40
1
 40
1
 40
1
 40
1
 10
82.063590
 20
78.436994
 30
0.0
 10
81.488370
 20
77.743897
 30
0.0
 10
82.077798
 20
77.489936
 30
0.0
 10
82.901078
 20
78.076158
 30
0.0
  0
SPLINE
  5
134
100
AcDbEntity
  8
0
 62
7
100
AcDbSpline
 70
8
 71
3
 72
8
 73
4
 74
0
 40
0
 40
0
 40
0
 40
0
 40
1
 40
1
 40
1
 40
1
 10
82.901078
 20
78.076158
 30
0.0
 10
83.853377
 20
78.754253
 30
0.0
 10
84.155164
 20
78.574138
 30
0.0
 10
83.568048
 20
77.678084
 30
0.0
  0
SPLINE
  5
135
100
AcDbEntity
  8
0
 62
7
100
AcDbSpline
 70
8
 71
3
 72
8
 73
4
 74
0
 40
0
 40
0
 40
0
 40
0
 40
1
 40
1
 40
1
 40
1
 10
83.568048
 20
77.678084
 30
0.0
 10
83.141984
 20
77.027831
 30
0.0
 10
83.148495
 20
77.017719
 30
0.0
 10
84.448618
 20
76.310104
 30
0.0
  0
LWPOLYLINE
  5
136
100
AcDbEntity
  8
0
 62
7
100
AcDbPolyline
 90
3
 70
0
 10
71.036450
 20
83.811383
 30
0.0
 10
77.594169
 20
80.093952
 30
0.0
 10
78.218432
 20
80.680414
 30
0.0
  0
SPLINE
  5
137
100
AcDbEntity
  8
0
 62
7
100
AcDbSpline
 70
8
 71
3
 72
8
 73
4
 74
0
 40
0
 40
0
 40
0
 40
0
 40
1
 40
1
 40
1
 40
1
 10
85.172743
 20
74.868212
 30
0.0
 10
83.523714
 20
72.815646
 30
0.0
 10
79.534544
 20
68.291834
 30
0.0
 10
79.361541
 20
68.278171
 30
0.0
  0
SPLINE
  5
138
100
AcDbEntity
  8
0
 62
7
100
AcDbSpline
 70
8
 71
3
 72
8
 73
4
 74
0
 40
0
 40
0
 40
0
 40
0
 40
1
 40
1
 40
1
 40
1
 10
79.361541
 20
68.278171
 30
0.0
 10
79.252400
 20
68.269546
 30
0.0
 10
79.162659
 20
68.411328
 30
0.0
 10
79.162114
 20
68.593229
 30
0.0
  0
SPLINE
  5
139
100
AcDbEntity
  8
0
 62
7
100
AcDbSpline
 70
8
 71
3
 72
8
 73
4
 74
0
 40
0
 40
0
 40
0
 40
0
 40
1
 40
1
 40
1
 40
1
 10
79.162114
 20
68.593229
 30
0.0
 10
79.161584
 20
68.775130
 30
0.0
 10
78.909595
 20
69.336563
 30
0.0
 10
78.602173
 20
69.840853
 30
0.0
  0
LWPOLYLINE
  5
13a
100
AcDbEntity
  8
0
 62
7
100
AcDbPolyline
 90
3
 70
0
 10
84.448618
 20
76.310104
 30
0.0
 10
85.758425
 20
75.597216
 30
0.0
 10
85.172743
 20
74.868212
 30
0.0
  0
SPLINE
  5
13b
100
AcDbEntity
  8
0
 62
7
100
AcDbSpline
 70
8
 71
3
 72
8
 73
4
 74
0
 40
0
 40
0
 40
0
 40
0
 40
1
 40
1
 40
1
 40
1
 10
77.436028
 20
70.051845
 30
0.0
 10
76.701571
 20
69.197990
 30
0.0
 10
76.382115
 20
69.647914
 30
0.0
 10
76.823610
 20
70.914384
 30
0.0
  0
SPLINE
  5
13c
100
AcDbEntity
  8
0
 62
7
100
AcDbSpline
 70
8
 71
3
 72
8
 73
4
 74
0
 40
0
 40
0
 40
0
 40
0
 40
1
 40
1
 40
1
 40
1
 10
76.823610
 20
70.914384
 30
0.0
 10
77.186467
 20
71.955279
 30
0.0
 10
77.003005
 20
72.123768
 30
0.0
 10
76.129766
 20
71.551602
 30
0.0
  0
SPLINE
  5
13d
100
AcDbEntity
  8
0
 62
7
100
AcDbSpline
 70
8
 71
3
 72
8
 73
4
 74
0
 40
0
 40
0
 40
0
 40
0
 40
1
 40
1
 40
1
 40
1
 10
76.129766
 20
71.551602
 30
0.0
 10
75.122109
 20
70.891360
 30
0.0
 10
74.703771
 20
71.371071
 30
0.0
 10
75.167895
 20
72.654583
 30
0.0
  0
SPLINE
  5
13e
100
AcDbEntity
  8
0
 62
7
100
AcDbSpline
 70
8
 71
3
 72
8
 73
4
 74
0
 40
0
 40
0
 40
0
 40
0
 40
1
 40
1
 40
1
 40
1
 10
75.167895
 20
72.654583
 30
0.0
 10
75.430962
 20
73.382084
 30
0.0
 10
75.439058
 20
73.678568
 30
0.0
 10
75.202203
 20
73.911182
 30
0.0
  0
SPLINE
  5
13f
100
AcDbEntity
  8
0
 62
7
100
AcDbSpline
 70
8
 71
3
 72
8
 73
4
 74
0
 40
0
 40
0
 40
0
 40
0
 40
1
 40
1
 40
1
 40
1
 10
75.202203
 20
73.911182
 30
0.0
 10
74.882327
 20
74.225330
 30
0.0
 10
74.652603
 20
74.028096
 30
0.0
 10
73.536948
 20
72.481472
 30
0.0
  0
LWPOLYLINE
  5
140
100
AcDbEntity
  8
0
 62
7
100
AcDbPolyline
 90
3
 70
0
 10
78.602173
 20
69.840853
 30
0.0
 10
78.043220
 20
70.757751
 30
0.0
 10
77.436028
 20
70.051845
 30
0.0
  0
SPLINE
  5
141
100
AcDbEntity
  8
0
 62
7
100
AcDbSpline
 70
8
 71
3
 72
8
 73
4
 74
0
 40
0
 40
0
 40
0
 40
0
 40
1
 40
1
 40
1
 40
1
 10
73.178350
 20
73.157292
 30
0.0
 10
73.237849
 20
73.884896
 30
0.0
 10
73.328837
 20
74.710711
 30
0.0
 10
73.380547
 20
74.992434
 30
0.0
  0
SPLINE
  5
142
100
AcDbEntity
  8
0
 62
7
100
AcDbSpline
 70
8
 71
3
 72
8
 73
4
 74
0
 40
0
 40
0
 40
0
 40
0
 40
1
 40
1
 40
1
 40
1
 10
73.380547
 20
74.992434
 30
0.0
 10
73.449971
 20
75.370690
 30
0.0
 10
72.678750
 20
76.192258
 30
0.0
 10
70.431853
 20
78.133617
 30
0.0
  0
SPLINE
  5
143
100
AcDbEntity
  8
0
 62
7
100
AcDbSpline
 70
8
 71
3
 72
8
 73
4
 74
0
 40
0
 40
0
 40
0
 40
0
 40
1
 40
1
 40
1
 40
1
 10
70.431853
 20
78.133617
 30
0.0
 10
67.816643
 20
80.393209
 30
0.0
 10
61.584393
 20
85.338182
 30
0.0
 10
58.874808
 20
87.303546
 30
0.0
  0
LWPOLYLINE
  5
144
100
AcDbEntity
  8
0
 62
7
100
AcDbPolyline
 90
3
 70
0
 10
73.536948
 20
72.481472
 30
0.0
 10
73.070167
 20
71.834375
 30
0.0
 10
73.178350
 20
73.157292
 30
0.0
  0
SPLINE
  5
145
100
AcDbEntity
  8
0
 62
7
100
AcDbSpline
 70
8
 71
3
 72
8
 73
4
 74
0
 40
0
 40
0
 40
0
 40
0
 40
1
 40
1
 40
1
 40
1
 10
56.722693
 20
86.951722
 30
0.0
 10
56.001817
 20
86.422545
 30
0.0
 10
55.162810
 20
85.989583
 30
0.0
 10
54.858240
 20
85.989583
 30
0.0
  0
SPLINE
  5
146
100
AcDbEntity
  8
0
 62
7
100
AcDbSpline
 70
8
 71
3
 72
8
 73
4
 74
0
 40
0
 40
0
 40
0
 40
0
 40
1
 40
1
 40
1
 40
1
 10
54.858240
 20
85.989583
 30
0.0
 10
53.912566
 20
85.989583
 30
0.0
 10
53.371718
 20
87.192183
 30
0.0
 10
53.318193
 20
89.413956
 30
0.0
  0
SPLINE
  5
147
100
AcDbEntity
  8
0
 62
7
100
AcDbSpline
 70
8
 71
3
 72
8
 73
4
 74
0
 40
0
 40
0
 40
0
 40
0
 40
1
 40
1
 40
1
 40
1
 10
53.318193
 20
89.413956
 30
0.0
 10
53.274037
 20
91.246859
 30
0.0
 10
53.211095
 20
91.455113
 30
0.0
 10
52.539440
 20
91.990672
 30
0.0
  0
LWPOLYLINE
  5
148
100
AcDbEntity
  8
0
 62
7
100
AcDbPolyline
 90
3
 70
0
 10
58.874808
 20
87.303546
 30
0.0
 10
58.033388
 20
87.913861
 30
0.0
 10
56.722693
 20
86.951722
 30
0.0
  0
SPLINE
  5
149
100
AcDbEntity
  8
0
 62
7
100
AcDbSpline
 70
8
 71
3
 72
8
 73
4
 74
0
 40
0
 40
0
 40
0
 40
0
 40
1
 40
1
 40
1
 40
1
 10
50.800781
 20
91.662702
 30
0.0
 10
48.888428
 20
89.935005
 30
0.0
 10
47.516682
 20
90.521689
 30
0.0
 10
46.510054
 20
93.497810
 30
0.0
  0
SPLINE
  5
14a
100
AcDbEntity
  8
0
 62
7
100
AcDbSpline
 70
8
 71
3
 72
8
 73
4
 74
0
 40
0
 40
0
 40
0
 40
0
 40
1
 40
1
 40
1
 40
1
 10
46.510054
 20
93.497810
 30
0.0
 10
46.117325
 20
94.658918
 30
0.0
 10
46.113980
 20
94.850024
 30
0.0
 10
46.476700
 20
95.403601
 30
0.0
  0
SPLINE
  5
14b
100
AcDbEntity
  8
0
 62
7
100
AcDbSpline
 70
8
 71
3
 72
8
 73
4
 74
0
 40
0
 40
0
 40
0
 40
0
 40
1
 40
1
 40
1
 40
1
 10
46.476700
 20
95.403601
 30
0.0
 10
46.873925
 20
96.009844
 30
0.0
 10
46.836174
 20
96.049319
 30
0.0
 10
43.905329
 20
98.092342
 30
0.0
  0
SPLINE
  5
14c
100
AcDbEntity
  8
0
 62
7
100
AcDbSpline
 70
8
 71
3
 72
8
 73
4
 74
0
 40
0
 40
0
 40
0
 40
0
 40
1
 40
1
 40
1
 40
1
 10
43.905329
 20
98.092342
 30
0.0
 10
42.269347
 20
99.232746
 30
0.0
 10
40.791130
 20
100.251752
 30
0.0
 10
40.620400
 20
100.356797
 30
0.0
  0
SPLINE
  5
14d
100
AcDbEntity
  8
0
 62
7
100
AcDbSpline
 70
8
 71
3
 72
8
 73
4
 74
0
 40
0
 40
0
 40
0
 40
0
 40
1
 40
1
 40
1
 40
1
 10
40.620400
 20
100.356797
 30
0.0
 10
40.449669
 20
100.461842
 30
0.0
 10
39.913888
 20
100.315130
 30
0.0
 10
39.429775
 20
100.030769
 30
0.0
  0
SPLINE
  5
14e
100
AcDbEntity
  8
0
 62
7
100
AcDbSpline
 70
8
 71
3
 72
8
 73
4
 74
0
 40
0
 40
0
 40
0
 40
0
 40
1
 40
1
 40
1
 40
1
 10
39.429775
 20
100.030769
 30
0.0
 10
38.945661
 20
99.746409
 30
0.0
 10
37.418473
 20
99.122524
 30
0.0
 10
36.036025
 20
98.644358
 30
0.0
  0
SPLINE
  5
14f
100
AcDbEntity
  8
0
 62
7
100
AcDbSpline
 70
8
 71
3
 72
8
 73
4
 74
0
 40
0
 40
0
 40
0
 40
0
 40
1
 40
1
 40
1
 40
1
 10
36.036025
 20
98.644358
 30
0.0
 10
33.722297
 20
97.844081
 30
0.0
 10
33.259570
 20
97.774514
 30
0.0
 10
30.215192
 20
97.769254
 30
0.0
  0
SPLINE
  5
150
100
AcDbEntity
  8
0
 62
7
100
AcDbSpline
 70
8
 71
3
 72
8
 73
4
 74
0
 40
0
 40
0
 40
0
 40
0
 40
1
 40
1
 40
1
 40
1
 10
30.215192
 20
97.769254
 30
0.0
 10
27.345770
 20
97.764306
 30
0.0
 10
26.738726
 20
97.841620
 30
0.0
 10
25.630095
 20
98.353282
 30
0.0
  0
SPLINE
  5
151
100
AcDbEntity
  8
0
 62
7
100
AcDbSpline
 70
8
 71
3
 72
8
 73
4
 74
0
 40
0
 40
0
 40
0
 40
0
 40
1
 40
1
 40
1
 40
1
 10
25.630095
 20
98.353282
 30
0.0
 10
22.858638
 20
99.632378
 30
0.0
 10
21.378349
 20
101.383682
 30
0.0
 10
20.393205
 20
104.548964
 30
0.0
  0
SPLINE
  5
152
100
AcDbEntity
  8
0
 62
7
100
AcDbSpline
 70
8
 71
3
 72
8
 73
4
 74
0
 40
0
 40
0
 40
0
 40
0
 40
1
 40
1
 40
1
 40
1
 10
20.393205
 20
104.548964
 30
0.0
 10
19.997994
 20
105.818776
 30
0.0
 10
19.561710
 20
106.497019
 30
0.0
 10
18.314403
 20
107.780638
 30
0.0
  0
SPLINE
  5
153
100
AcDbEntity
  8
0
 62
7
100
AcDbSpline
 70
8
 71
3
 72
8
 73
4
 74
0
 40
0
 40
0
 40
0
 40
0
 40
1
 40
1
 40
1
 40
1
 10
18.314403
 20
107.780638
 30
0.0
 10
11.645453
 20
114.643733
 30
0.0
 10
5.982298
 20
125.071166
 30
0.0
 10
4.017709
 20
134.104801
 30
0.0
  0
SPLINE
  5
154
100
AcDbEntity
  8
0
 62
7
100
AcDbSpline
 70
8
 71
3
 72
8
 73
4
 74
0
 40
0
 40
0
 40
0
 40
0
 40
1
 40
1
 40
1
 40
1
 10
4.017709
 20
134.104801
 30
0.0
 10
3.220080
 20
137.772484
 30
0.0
 10
2.921503
 20
140.864111
 30
0.0
 10
2.930517
 20
145.362168
 30
0.0
  0
SPLINE
  5
155
100
AcDbEntity
  8
0
 62
7
100
AcDbSpline
 70
8
 71
3
 72
8
 73
4
 74
0
 40
0
 40
0
 40
0
 40
0
 40
1
 40
1
 40
1
 40
1
 10
2.930517
 20
145.362168
 30
0.0
 10
2.938058
 20
149.122474
 30
0.0
 10
2.884834
 20
149.637920
 30
0.0
 10
2.429280
 20
150.217065
 30
0.0
  0
SPLINE
  5
156
100
AcDbEntity
  8
0
 62
7
100
AcDbSpline
 70
8
 71
3
 72
8
 73
4
 74
0
 40
0
 40
0
 40
0
 40
0
 40
1
 40
1
 40
1
 40
1
 10
2.429280
 20
150.217065
 30
0.0
 10
1.955361
 20
150.819553
 30
0.0
 10
1.947815
 20
150.932504
 30
0.0
 10
2.321695
 20
151.827328
 30
0.0
  0
SPLINE
  5
157
100
AcDbEntity
  8
0
 62
7
100
AcDbSpline
 70
8
 71
3
 72
8
 73
4
 74
0
 40
0
 40
0
 40
0
 40
0
 40
1
 40
1
 40
1
 40
1
 10
2.321695
 20
151.827328
 30
0.0
 10
3.076422
 20
153.633642
 30
0.0
 10
4.258215
 20
154.438643
 30
0.0
 10
5.026859
 20
153.670000
 30
0.0
  0
SPLINE
  5
158
100
AcDbEntity
  8
0
 62
7
100
AcDbSpline
 70
8
 71
3
 72
8
 73
4
 74
0
 40
0
 40
0
 40
0
 40
0
 40
1
 40
1
 40
1
 40
1
 10
5.026859
 20
153.670000
 30
0.0
 10
5.476926
 20
153.219932
 30
0.0
 10
5.420606
 20
150.713403
 30
0.0
 10
4.934270
 20
149.549441
 30
0.0
  0
SPLINE
  5
159
100
AcDbEntity
  8
0
 62
7
100
AcDbSpline
 70
8
 71
3
 72
8
 73
4
 74
0
 40
0
 40
0
 40
0
 40
0
 40
1
 40
1
 40
1
 40
1
 10
4.934270
 20
149.549441
 30
0.0
 10
4.581213
 20
148.704453
 30
0.0
 10
4.564613
 20
148.091657
 30
0.0
 10
4.814912
 20
145.142966
 30
0.0
  0
SPLINE
  5
15a
100
AcDbEntity
  8
0
 62
7
100
AcDbSpline
 70
8
 71
3
 72
8
 73
4
 74
0
 40
0
 40
0
 40
0
 40
0
 40
1
 40
1
 40
1
 40
1
 10
4.814912
 20
145.142966
 30
0.0
 10
5.930837
 20
131.996511
 30
0.0
 10
9.741755
 20
121.861239
 30
0.0
 10
16.117216
 20
115.084085
 30
0.0
  0
SPLINE
  5
15b
100
AcDbEntity
  8
0
 62
7
100
AcDbSpline
 70
8
 71
3
 72
8
 73
4
 74
0
 40
0
 40
0
 40
0
 40
0
 40
1
 40
1
 40
1
 40
1
 10
16.117216
 20
115.084085
 30
0.0
 10
19.079628
 20
111.935022
 30
0.0
 10
19.127502
 20
111.936982
 30
0.0
 10
18.389505
 20
115.177197
 30
0.0
  0
SPLINE
  5
15c
100
AcDbEntity
  8
0
 62
7
100
AcDbSpline
 70
8
 71
3
 72
8
 73
4
 74
0
 40
0
 40
0
 40
0
 40
0
 40
1
 40
1
 40
1
 40
1
 10
18.389505
 20
115.177197
 30
0.0
 10
16.253640
 20
124.554811
 30
0.0
 10
16.131437
 20
136.497422
 30
0.0
 10
18.079350
 20
145.488133
 30
0.0
  0
SPLINE
  5
15d
100
AcDbEntity
  8
0
 62
7
100
AcDbSpline
 70
8
 71
3
 72
8
 73
4
 74
0
 40
0
 40
0
 40
0
 40
0
 40
1
 40
1
 40
1
 40
1
 10
18.079350
 20
145.488133
 30
0.0
 10
19.688395
 20
152.914780
 30
0.0
 10
22.612610
 20
160.055971
 30
0.0
 10
26.572430
 20
166.228981
 30
0.0
  0
SPLINE
  5
15e
100
AcDbEntity
  8
0
 62
7
100
AcDbSpline
 70
8
 71
3
 72
8
 73
4
 74
0
 40
0
 40
0
 40
0
 40
0
 40
1
 40
1
 40
1
 40
1
 10
26.572430
 20
166.228981
 30
0.0
 10
27.686296
 20
167.965402
 30
0.0
 10
27.861451
 20
168.401054
 30
0.0
 10
27.640595
 20
168.885801
 30
0.0
  0
SPLINE
  5
15f
100
AcDbEntity
  8
0
 62
7
100
AcDbSpline
 70
8
 71
3
 72
8
 73
4
 74
0
 40
0
 40
0
 40
0
 40
0
 40
1
 40
1
 40
1
 40
1
 10
27.640595
 20
168.885801
 30
0.0
 10
27.255454
 20
169.731135
 30
0.0
 10
27.630382
 20
170.451230
 30
0.0
 10
28.889550
 20
171.284499
 30
0.0
  0
SPLINE
  5
160
100
AcDbEntity
  8
0
 62
7
100
AcDbSpline
 70
8
 71
3
 72
8
 73
4
 74
0
 40
0
 40
0
 40
0
 40
0
 40
1
 40
1
 40
1
 40
1
 10
28.889550
 20
171.284499
 30
0.0
 10
32.398864
 20
173.606854
 30
0.0
 10
33.314140
 20
171.233021
 30
0.0
 10
30.195020
 20
167.898670
 30
0.0
  0
SPLINE
  5
161
100
AcDbEntity
  8
0
 62
7
100
AcDbSpline
 70
8
 71
3
 72
8
 73
4
 74
0
 40
0
 40
0
 40
0
 40
0
 40
1
 40
1
 40
1
 40
1
 10
30.195020
 20
167.898670
 30
0.0
 10
28.945507
 20
166.562938
 30
0.0
 10
28.260442
 20
165.464938
 30
0.0
 10
26.937152
 20
162.677072
 30
0.0
  0
SPLINE
  5
162
100
AcDbEntity
  8
0
 62
7
100
AcDbSpline
 70
8
 71
3
 72
8
 73
4
 74
0
 40
0
 40
0
 40
0
 40
0
 40
1
 40
1
 40
1
 40
1
 10
26.937152
 20
162.677072
 30
0.0
 10
20.448156
 20
149.006246
 30
0.0
 10
18.064483
 20
135.964996
 30
0.0
 10
20.168029
 20
125.642725
 30
0.0
  0
SPLINE
  5
163
100
AcDbEntity
  8
0
 62
7
100
AcDbSpline
 70
8
 71
3
 72
8
 73
4
 74
0
 40
0
 40
0
 40
0
 40
0
 40
1
 40
1
 40
1
 40
1
 10
20.168029
 20
125.642725
 30
0.0
 10
20.824542
 20
122.421153
 30
0.0
 10
22.840143
 20
117.018951
 30
0.0
 10
23.549102
 20
116.580790
 30
0.0
  0
SPLINE
  5
164
100
AcDbEntity
  8
0
 62
7
100
AcDbSpline
 70
8
 71
3
 72
8
 73
4
 74
0
 40
0
 40
0
 40
0
 40
0
 40
1
 40
1
 40
1
 40
1
 10
23.549102
 20
116.580790
 30
0.0
 10
23.665355
 20
116.508943
 30
0.0
 10
23.676584
 20
117.246294
 30
0.0
 10
23.574052
 20
118.219350
 30
0.0
  0
SPLINE
  5
165
100
AcDbEntity
  8
0
 62
7
100
AcDbSpline
 70
8
 71
3
 72
8
 73
4
 74
0
 40
0
 40
0
 40
0
 40
0
 40
1
 40
1
 40
1
 40
1
 10
23.574052
 20
118.219350
 30
0.0
 10
22.861231
 20
124.984364
 30
0.0
 10
23.086288
 20
132.774526
 30
0.0
 10
24.154469
 20
138.309977
 30
0.0
  0
SPLINE
  5
166
100
AcDbEntity
  8
0
 62
7
100
AcDbSpline
 70
8
 71
3
 72
8
 73
4
 74
0
 40
0
 40
0
 40
0
 40
0
 40
1
 40
1
 40
1
 40
1
 10
24.154469
 20
138.309977
 30
0.0
 10
24.821857
 20
141.768473
 30
0.0
 10
26.619142
 20
147.322484
 30
0.0
 10
28.079073
 20
150.437901
 30
0.0
  0
SPLINE
  5
167
100
AcDbEntity
  8
0
 62
7
100
AcDbSpline
 70
8
 71
3
 72
8
 73
4
 74
0
 40
0
 40
0
 40
0
 40
0
 40
1
 40
1
 40
1
 40
1
 10
28.079073
 20
150.437901
 30
0.0
 10
29.531130
 20
153.536507
 30
0.0
 10
31.835206
 20
156.940231
 30
0.0
 10
33.833149
 20
158.938173
 30
0.0
  0
SPLINE
  5
168
100
AcDbEntity
  8
0
 62
7
100
AcDbSpline
 70
8
 71
3
 72
8
 73
4
 74
0
 40
0
 40
0
 40
0
 40
0
 40
1
 40
1
 40
1
 40
1
 10
33.833149
 20
158.938173
 30
0.0
 10
34.738437
 20
159.843461
 30
0.0
 10
35.893790
 20
161.232373
 30
0.0
 10
36.400600
 20
162.024645
 30
0.0
  0
SPLINE
  5
169
100
AcDbEntity
  8
0
 62
7
100
AcDbSpline
 70
8
 71
3
 72
8
 73
4
 74
0
 40
0
 40
0
 40
0
 40
0
 40
1
 40
1
 40
1
 40
1
 10
36.400600
 20
162.024645
 30
0.0
 10
37.462690
 20
163.684961
 30
0.0
 10
38.061990
 20
163.974397
 30
0.0
 10
39.209274
 20
163.381115
 30
0.0
  0
SPLINE
  5
16a
100
AcDbEntity
  8
0
 62
7
100
AcDbSpline
 70
8
 71
3
 72
8
 73
4
 74
0
 40
0
 40
0
 40
0
 40
0
 40
1
 40
1
 40
1
 40
1
 10
39.209274
 20
163.381115
 30
0.0
 10
40.388768
 20
162.771175
 30
0.0
 10
40.762812
 20
161.825199
 30
0.0
 10
40.112900
 20
161.095808
 30
0.0
  0
SPLINE
  5
16b
100
AcDbEntity
  8
0
 62
7
100
AcDbSpline
 70
8
 71
3
 72
8
 73
4
 74
0
 40
0
 40
0
 40
0
 40
0
 40
1
 40
1
 40
1
 40
1
 10
40.112900
 20
161.095808
 30
0.0
 10
39.835151
 20
160.784091
 30
0.0
 10
39.246217
 20
160.375850
 30
0.0
 10
38.804159
 20
160.188604
 30
0.0
  0
SPLINE
  5
16c
100
AcDbEntity
  8
0
 62
7
100
AcDbSpline
 70
8
 71
3
 72
8
 73
4
 74
0
 40
0
 40
0
 40
0
 40
0
 40
1
 40
1
 40
1
 40
1
 10
38.804159
 20
160.188604
 30
0.0
 10
37.446569
 20
159.613561
 30
0.0
 10
34.888641
 20
157.585767
 30
0.0
 10
33.621525
 20
156.080081
 30
0.0
  0
SPLINE
  5
16d
100
AcDbEntity
  8
0
 62
7
100
AcDbSpline
 70
8
 71
3
 72
8
 73
4
 74
0
 40
0
 40
0
 40
0
 40
0
 40
1
 40
1
 40
1
 40
1
 10
33.621525
 20
156.080081
 30
0.0
 10
31.820242
 20
153.939652
 30
0.0
 10
30.816322
 20
152.359525
 30
0.0
 10
29.548328
 20
149.669027
 30
0.0
  0
SPLINE
  5
16e
100
AcDbEntity
  8
0
 62
7
100
AcDbSpline
 70
8
 71
3
 72
8
 73
4
 74
0
 40
0
 40
0
 40
0
 40
0
 40
1
 40
1
 40
1
 40
1
 10
29.548328
 20
149.669027
 30
0.0
 10
27.099046
 20
144.472006
 30
0.0
 10
26.189385
 20
139.525552
 30
0.0
 10
26.303949
 20
132.027083
 30
0.0
  0
LWPOLYLINE
  5
16f
100
AcDbEntity
  8
0
 62
7
100
AcDbPolyline
 90
3
 70
0
 10
52.539440
 20
91.990672
 30
0.0
 10
51.808727
 20
92.573322
 30
0.0
 10
50.800781
 20
91.662702
 30
0.0
  0
SPLINE
  5
170
100
AcDbEntity
  8
0
 62
7
100
AcDbSpline
 70
8
 71
3
 72
8
 73
4
 74
0
 40
0
 40
0
 40
0
 40
0
 40
1
 40
1
 40
1
 40
1
 10
26.727737
 20
129.381250
 30
0.0
 10
27.732596
 20
135.856496
 30
0.0
 10
29.687314
 20
141.021210
 30
0.0
 10
32.892090
 20
145.668553
 30
0.0
  0
SPLINE
  5
171
100
AcDbEntity
  8
0
 62
7
100
AcDbSpline
 70
8
 71
3
 72
8
 73
4
 74
0
 40
0
 40
0
 40
0
 40
0
 40
1
 40
1
 40
1
 40
1
 10
32.892090
 20
145.668553
 30
0.0
 10
34.040694
 20
147.334179
 30
0.0
 10
35.143406
 20
148.473389
 30
0.0
 10
40.845261
 20
153.884942
 30
0.0
  0
SPLINE
  5
172
100
AcDbEntity
  8
0
 62
7
100
AcDbSpline
 70
8
 71
3
 72
8
 73
4
 74
0
 40
0
 40
0
 40
0
 40
0
 40
1
 40
1
 40
1
 40
1
 10
40.845261
 20
153.884942
 30
0.0
 10
42.471441
 20
155.428328
 30
0.0
 10
43.306201
 20
155.664817
 30
0.0
 10
44.086071
 20
154.803069
 30
0.0
  0
SPLINE
  5
173
100
AcDbEntity
  8
0
 62
7
100
AcDbSpline
 70
8
 71
3
 72
8
 73
4
 74
0
 40
0
 40
0
 40
0
 40
0
 40
1
 40
1
 40
1
 40
1
 10
44.086071
 20
154.803069
 30
0.0
 10
44.892148
 20
153.912363
 30
0.0
 10
44.529579
 20
153.136602
 30
0.0
 10
43.047483
 20
152.580887
 30
0.0
  0
SPLINE
  5
174
100
AcDbEntity
  8
0
 62
7
100
AcDbSpline
 70
8
 71
3
 72
8
 73
4
 74
0
 40
0
 40
0
 40
0
 40
0
 40
1
 40
1
 40
1
 40
1
 10
43.047483
 20
152.580887
 30
0.0
 10
39.399763
 20
151.213165
 30
0.0
 10
36.855982
 20
149.067412
 30
0.0
 10
34.749780
 20
145.581526
 30
0.0
  0
SPLINE
  5
175
100
AcDbEntity
  8
0
 62
7
100
AcDbSpline
 70
8
 71
3
 72
8
 73
4
 74
0
 40
0
 40
0
 40
0
 40
0
 40
1
 40
1
 40
1
 40
1
 10
34.749780
 20
145.581526
 30
0.0
 10
31.701571
 20
140.536565
 30
0.0
 10
30.370359
 20
135.615802
 30
0.0
 10
30.080820
 20
128.322917
 30
0.0
  0
SPLINE
  5
176
100
AcDbEntity
  8
0
 62
7
100
AcDbSpline
 70
8
 71
3
 72
8
 73
4
 74
0
 40
0
 40
0
 40
0
 40
0
 40
1
 40
1
 40
1
 40
1
 10
30.080820
 20
128.322917
 30
0.0
 10
29.967748
 20
125.474889
 30
0.0
 10
30.001813
 20
124.885088
 30
0.0
 10
30.248908
 20
125.412500
 30
0.0
  0
SPLINE
  5
177
100
AcDbEntity
  8
0
 62
7
100
AcDbSpline
 70
8
 71
3
 72
8
 73
4
 74
0
 40
0
 40
0
 40
0
 40
0
 40
1
 40
1
 40
1
 40
1
 10
30.248908
 20
125.412500
 30
0.0
 10
33.954342
 20
133.321541
 30
0.0
 10
34.833396
 20
134.755252
 30
0.0
 10
38.015653
 20
138.079832
 30
0.0
  0
SPLINE
  5
178
100
AcDbEntity
  8
0
 62
7
100
AcDbSpline
 70
8
 71
3
 72
8
 73
4
 74
0
 40
0
 40
0
 40
0
 40
0
 40
1
 40
1
 40
1
 40
1
 10
38.015653
 20
138.079832
 30
0.0
 10
41.630690
 20
141.856547
 30
0.0
 10
45.146685
 20
144.185251
 30
0.0
 10
49.871334
 20
145.932054
 30
0.0
  0
SPLINE
  5
179
100
AcDbEntity
  8
0
 62
7
100
AcDbSpline
 70
8
 71
3
 72
8
 73
4
 74
0
 40
0
 40
0
 40
0
 40
0
 40
1
 40
1
 40
1
 40
1
 10
49.871334
 20
145.932054
 30
0.0
 10
51.516439
 20
146.540284
 30
0.0
 10
52.869222
 20
147.224049
 30
0.0
 10
53.331483
 20
147.680987
 30
0.0
  0
SPLINE
  5
17a
100
AcDbEntity
  8
0
 62
7
100
AcDbSpline
 70
8
 71
3
 72
8
 73
4
 74
0
 40
0
 40
0
 40
0
 40
0
 40
1
 40
1
 40
1
 40
1
 10
53.331483
 20
147.680987
 30
0.0
 10
53.748932
 20
148.093631
 30
0.0
 10
54.307727
 20
148.431250
 30
0.0
 10
54.573249
 20
148.431250
 30
0.0
  0
SPLINE
  5
17b
100
AcDbEntity
  8
0
 62
7
100
AcDbSpline
 70
8
 71
3
 72
8
 73
4
 74
0
 40
0
 40
0
 40
0
 40
0
 40
1
 40
1
 40
1
 40
1
 10
54.573249
 20
148.431250
 30
0.0
 10
55.233123
 20
148.431250
 30
0.0
 10
55.879775
 20
147.432379
 30
0.0
 10
55.879775
 20
146.413093
 30
0.0
  0
LWPOLYLINE
  5
17c
100
AcDbEntity
  8
0
 62
7
100
AcDbPolyline
 90
3
 70
0
 10
26.303949
 20
132.027083
 30
0.0
 10
26.378734
 20
127.132292
 30
0.0
 10
26.727737
 20
129.381250
 30
0.0
  0
SPLINE
  5
17d
100
AcDbEntity
  8
0
 62
7
100
AcDbSpline
 70
8
 71
3
 72
8
 73
4
 74
0
 40
0
 40
0
 40
0
 40
0
 40
1
 40
1
 40
1
 40
1
 10
54.358421
 20
145.702777
 30
0.0
 10
48.582821
 20
146.202995
 30
0.0
 10
39.644921
 20
139.220453
 30
0.0
 10
35.522257
 20
130.987427
 30
0.0
  0
SPLINE
  5
17e
100
AcDbEntity
  8
0
 62
7
100
AcDbSpline
 70
8
 71
3
 72
8
 73
4
 74
0
 40
0
 40
0
 40
0
 40
0
 40
1
 40
1
 40
1
 40
1
 10
35.522257
 20
130.987427
 30
0.0
 10
33.642403
 20
127.233328
 30
0.0
 10
31.008942
 20
118.700987
 30
0.0
 10
31.008942
 20
116.364414
 30
0.0
  0
SPLINE
  5
17f
100
AcDbEntity
  8
0
 62
7
100
AcDbSpline
 70
8
 71
3
 72
8
 73
4
 74
0
 40
0
 40
0
 40
0
 40
0
 40
1
 40
1
 40
1
 40
1
 10
31.008942
 20
116.364414
 30
0.0
 10
31.008942
 20
115.051298
 30
0.0
 10
31.948146
 20
115.435618
 30
0.0
 10
34.331984
 20
117.724200
 30
0.0
  0
SPLINE
  5
180
100
AcDbEntity
  8
0
 62
7
100
AcDbSpline
 70
8
 71
3
 72
8
 73
4
 74
0
 40
0
 40
0
 40
0
 40
0
 40
1
 40
1
 40
1
 40
1
 10
34.331984
 20
117.724200
 30
0.0
 10
41.578453
 20
124.681099
 30
0.0
 10
51.750849
 20
129.608564
 30
0.0
 10
61.700608
 20
130.981439
 30
0.0
  0
SPLINE
  5
181
100
AcDbEntity
  8
0
 62
7
100
AcDbSpline
 70
8
 71
3
 72
8
 73
4
 74
0
 40
0
 40
0
 40
0
 40
0
 40
1
 40
1
 40
1
 40
1
 10
61.700608
 20
130.981439
 30
0.0
 10
64.325741
 20
131.343657
 30
0.0
 10
70.499510
 20
131.341349
 30
0.0
 10
73.474567
 20
130.977047
 30
0.0
  0
SPLINE
  5
182
100
AcDbEntity
  8
0
 62
7
100
AcDbSpline
 70
8
 71
3
 72
8
 73
4
 74
0
 40
0
 40
0
 40
0
 40
0
 40
1
 40
1
 40
1
 40
1
 10
73.474567
 20
130.977047
 30
0.0
 10
82.998762
 20
129.810756
 30
0.0
 10
94.128357
 20
124.954662
 30
0.0
 10
101.520659
 20
118.739907
 30
0.0
  0
SPLINE
  5
183
100
AcDbEntity
  8
0
 62
7
100
AcDbSpline
 70
8
 71
3
 72
8
 73
4
 74
0
 40
0
 40
0
 40
0
 40
0
 40
1
 40
1
 40
1
 40
1
 10
101.520659
 20
118.739907
 30
0.0
 10
109.913047
 20
111.684372
 30
0.0
 10
116.156753
 20
101.149155
 30
0.0
 10
118.299881
 20
90.427757
 30
0.0
  0
SPLINE
  5
184
100
AcDbEntity
  8
0
 62
7
100
AcDbSpline
 70
8
 71
3
 72
8
 73
4
 74
0
 40
0
 40
0
 40
0
 40
0
 40
1
 40
1
 40
1
 40
1
 10
118.299881
 20
90.427757
 30
0.0
 10
119.086543
 20
86.492350
 30
0.0
 10
119.375145
 20
83.458955
 30
0.0
 10
119.377606
 20
79.100225
 30
0.0
  0
SPLINE
  5
185
100
AcDbEntity
  8
0
 62
7
100
AcDbSpline
 70
8
 71
3
 72
8
 73
4
 74
0
 40
0
 40
0
 40
0
 40
0
 40
1
 40
1
 40
1
 40
1
 10
119.377606
 20
79.100225
 30
0.0
 10
119.379458
 20
75.778654
 30
0.0
 10
119.452009
 20
75.111883
 30
0.0
 10
119.908942
 20
74.215636
 30
0.0
  0
SPLINE
  5
186
100
AcDbEntity
  8
0
 62
7
100
AcDbSpline
 70
8
 71
3
 72
8
 73
4
 74
0
 40
0
 40
0
 40
0
 40
0
 40
1
 40
1
 40
1
 40
1
 10
119.908942
 20
74.215636
 30
0.0
 10
120.590289
 20
72.879215
 30
0.0
 10
120.615070
 20
71.702094
 30
0.0
 10
119.961858
 20
71.702094
 30
0.0
  0
SPLINE
  5
187
100
AcDbEntity
  8
0
 62
7
100
AcDbSpline
 70
8
 71
3
 72
8
 73
4
 74
0
 40
0
 40
0
 40
0
 40
0
 40
1
 40
1
 40
1
 40
1
 10
119.961858
 20
71.702094
 30
0.0
 10
119.699921
 20
71.702094
 30
0.0
 10
119.342733
 20
71.844969
 30
0.0
 10
119.168108
 20
72.019594
 30
0.0
  0
SPLINE
  5
188
100
AcDbEntity
  8
0
 62
7
100
AcDbSpline
 70
8
 71
3
 72
8
 73
4
 74
0
 40
0
 40
0
 40
0
 40
0
 40
1
 40
1
 40
1
 40
1
 10
119.168108
 20
72.019594
 30
0.0
 10
118.921165
 20
72.266537
 30
0.0
 10
118.850421
 20
72.163644
 30
0.0
 10
118.849764
 20
71.556573
 30
0.0
  0
SPLINE
  5
189
100
AcDbEntity
  8
0
 62
7
100
AcDbSpline
 70
8
 71
3
 72
8
 73
4
 74
0
 40
0
 40
0
 40
0
 40
0
 40
1
 40
1
 40
1
 40
1
 10
118.849764
 20
71.556573
 30
0.0
 10
118.848441
 20
70.330338
 30
0.0
 10
118.104798
 20
66.310830
 30
0.0
 10
117.236870
 20
62.838552
 30
0.0
  0
SPLINE
  5
18a
100
AcDbEntity
  8
0
 62
7
100
AcDbSpline
 70
8
 71
3
 72
8
 73
4
 74
0
 40
0
 40
0
 40
0
 40
0
 40
1
 40
1
 40
1
 40
1
 10
117.236870
 20
62.838552
 30
0.0
 10
115.535395
 20
56.031551
 30
0.0
 10
112.975022
 20
49.306358
 30
0.0
 10
109.279156
 20
41.936469
 30
0.0
  0
SPLINE
  5
18b
100
AcDbEntity
  8
0
 62
7
100
AcDbSpline
 70
8
 71
3
 72
8
 73
4
 74
0
 40
0
 40
0
 40
0
 40
0
 40
1
 40
1
 40
1
 40
1
 10
109.279156
 20
41.936469
 30
0.0
 10
107.319662
 20
38.029063
 30
0.0
 10
107.178615
 20
37.640578
 30
0.0
 10
107.447162
 20
36.890600
 30
0.0
  0
SPLINE
  5
18c
100
AcDbEntity
  8
0
 62
7
100
AcDbSpline
 70
8
 71
3
 72
8
 73
4
 74
0
 40
0
 40
0
 40
0
 40
0
 40
1
 40
1
 40
1
 40
1
 10
107.447162
 20
36.890600
 30
0.0
 10
107.862227
 20
35.731434
 30
0.0
 10
107.811136
 20
35.570657
 30
0.0
 10
107.202690
 20
36.121292
 30
0.0
  0
SPLINE
  5
18d
100
AcDbEntity
  8
0
 62
7
100
AcDbSpline
 70
8
 71
3
 72
8
 73
4
 74
0
 40
0
 40
0
 40
0
 40
0
 40
1
 40
1
 40
1
 40
1
 10
107.202690
 20
36.121292
 30
0.0
 10
106.794869
 20
36.490365
 30
0.0
 10
106.593738
 20
36.532307
 30
0.0
 10
106.358709
 20
36.297277
 30
0.0
  0
SPLINE
  5
18e
100
AcDbEntity
  8
0
 62
7
100
AcDbSpline
 70
8
 71
3
 72
8
 73
4
 74
0
 40
0
 40
0
 40
0
 40
0
 40
1
 40
1
 40
1
 40
1
 10
106.358709
 20
36.297277
 30
0.0
 10
106.123682
 20
36.062251
 30
0.0
 10
106.194736
 20
35.731455
 30
0.0
 10
106.656862
 20
34.909215
 30
0.0
  0
SPLINE
  5
18f
100
AcDbEntity
  8
0
 62
7
100
AcDbSpline
 70
8
 71
3
 72
8
 73
4
 74
0
 40
0
 40
0
 40
0
 40
0
 40
1
 40
1
 40
1
 40
1
 10
106.656862
 20
34.909215
 30
0.0
 10
107.072091
 20
34.170414
 30
0.0
 10
107.222346
 20
33.564153
 30
0.0
 10
107.132938
 20
32.988298
 30
0.0
  0
SPLINE
  5
190
100
AcDbEntity
  8
0
 62
7
100
AcDbSpline
 70
8
 71
3
 72
8
 73
4
 74
0
 40
0
 40
0
 40
0
 40
0
 40
1
 40
1
 40
1
 40
1
 10
107.132938
 20
32.988298
 30
0.0
 10
107.045964
 20
32.428130
 30
0.0
 10
107.178089
 20
31.857220
 30
0.0
 10
107.528225
 20
31.280275
 30
0.0
  0
SPLINE
  5
191
100
AcDbEntity
  8
0
 62
7
100
AcDbSpline
 70
8
 71
3
 72
8
 73
4
 74
0
 40
0
 40
0
 40
0
 40
0
 40
1
 40
1
 40
1
 40
1
 10
107.528225
 20
31.280275
 30
0.0
 10
107.817483
 20
30.803636
 30
0.0
 10
107.983253
 20
30.228900
 30
0.0
 10
107.896596
 20
30.003078
 30
0.0
  0
SPLINE
  5
192
100
AcDbEntity
  8
0
 62
7
100
AcDbSpline
 70
8
 71
3
 72
8
 73
4
 74
0
 40
0
 40
0
 40
0
 40
0
 40
1
 40
1
 40
1
 40
1
 10
107.896596
 20
30.003078
 30
0.0
 10
107.773070
 20
29.681178
 30
0.0
 10
107.359730
 20
29.907336
 30
0.0
 10
105.982916
 20
31.050151
 30
0.0
  0
LWPOLYLINE
  5
193
100
AcDbEntity
  8
0
 62
7
100
AcDbPolyline
 90
3
 70
0
 10
55.879775
 20
146.413093
 30
0.0
 10
55.879775
 20
145.571014
 30
0.0
 10
54.358421
 20
145.702777
 30
0.0
  0
SPLINE
  5
194
100
AcDbEntity
  8
0
 62
7
100
AcDbSpline
 70
8
 71
3
 72
8
 73
4
 74
0
 40
0
 40
0
 40
0
 40
0
 40
1
 40
1
 40
1
 40
1
 10
102.580771
 20
30.475261
 30
0.0
 10
100.694945
 20
28.146600
 30
0.0
 10
98.177339
 20
25.843762
 30
0.0
 10
95.153753
 20
23.681812
 30
0.0
  0
SPLINE
  5
195
100
AcDbEntity
  8
0
 62
7
100
AcDbSpline
 70
8
 71
3
 72
8
 73
4
 74
0
 40
0
 40
0
 40
0
 40
0
 40
1
 40
1
 40
1
 40
1
 10
95.153753
 20
23.681812
 30
0.0
 10
90.518081
 20
20.367175
 30
0.0
 10
90.595492
 20
20.143301
 30
0.0
 10
96.890192
 20
18.659949
 30
0.0
  0
SPLINE
  5
196
100
AcDbEntity
  8
0
 62
7
100
AcDbSpline
 70
8
 71
3
 72
8
 73
4
 74
0
 40
0
 40
0
 40
0
 40
0
 40
1
 40
1
 40
1
 40
1
 10
96.890192
 20
18.659949
 30
0.0
 10
104.486128
 20
16.869958
 30
0.0
 10
107.867424
 20
15.675221
 30
0.0
 10
108.625330
 20
14.513489
 30
0.0
  0
SPLINE
  5
197
100
AcDbEntity
  8
0
 62
7
100
AcDbSpline
 70
8
 71
3
 72
8
 73
4
 74
0
 40
0
 40
0
 40
0
 40
0
 40
1
 40
1
 40
1
 40
1
 10
108.625330
 20
14.513489
 30
0.0
 10
109.234060
 20
13.580417
 30
0.0
 10
111.381352
 20
8.116713
 30
0.0
 10
111.849770
 20
6.309021
 30
0.0
  0
SPLINE
  5
198
100
AcDbEntity
  8
0
 62
7
100
AcDbSpline
 70
8
 71
3
 72
8
 73
4
 74
0
 40
0
 40
0
 40
0
 40
0
 40
1
 40
1
 40
1
 40
1
 10
111.849770
 20
6.309021
 30
0.0
 10
112.712881
 20
2.978176
 30
0.0
 10
111.720000
 20
2.883818
 30
0.0
 10
108.801016
 20
6.019281
 30
0.0
  0
LWPOLYLINE
  5
199
100
AcDbEntity
  8
0
 62
7
100
AcDbPolyline
 90
3
 70
0
 10
105.982916
 20
31.050151
 30
0.0
 10
104.226789
 20
32.507806
 30
0.0
 10
102.580771
 20
30.475261
 30
0.0
  0
SPLINE
  5
19a
100
AcDbEntity
  8
0
 62
7
100
AcDbSpline
 70
8
 71
3
 72
8
 73
4
 74
0
 40
0
 40
0
 40
0
 40
0
 40
1
 40
1
 40
1
 40
1
 10
105.721690
 20
32.399557
 30
0.0
 10
105.160061
 20
33.863134
 30
0.0
 10
86.103468
 20
48.831323
 30
0.0
 10
83.339204
 20
49.980099
 30
0.0
  0
SPLINE
  5
19b
100
AcDbEntity
  8
0
 62
7
100
AcDbSpline
 70
8
 71
3
 72
8
 73
4
 74
0
 40
0
 40
0
 40
0
 40
0
 40
1
 40
1
 40
1
 40
1
 10
83.339204
 20
49.980099
 30
0.0
 10
82.643080
 20
50.269394
 30
0.0
 10
82.073525
 20
50.463609
 30
0.0
 10
82.073525
 20
50.411687
 30
0.0
  0
SPLINE
  5
19c
100
AcDbEntity
  8
0
 62
7
100
AcDbSpline
 70
8
 71
3
 72
8
 73
4
 74
0
 40
0
 40
0
 40
0
 40
0
 40
1
 40
1
 40
1
 40
1
 10
82.073525
 20
50.411687
 30
0.0
 10
82.073525
 20
50.359765
 30
0.0
 10
82.877197
 20
49.749144
 30
0.0
 10
83.859463
 20
49.054753
 30
0.0
  0
SPLINE
  5
19d
100
AcDbEntity
  8
0
 62
7
100
AcDbSpline
 70
8
 71
3
 72
8
 73
4
 74
0
 40
0
 40
0
 40
0
 40
0
 40
1
 40
1
 40
1
 40
1
 10
83.859463
 20
49.054753
 30
0.0
 10
89.097302
 20
45.351970
 30
0.0
 10
100.024711
 20
36.881263
 30
0.0
 10
105.061430
 20
32.619410
 30
0.0
  0
SPLINE
  5
19e
100
AcDbEntity
  8
0
 62
7
100
AcDbSpline
 70
8
 71
3
 72
8
 73
4
 74
0
 40
0
 40
0
 40
0
 40
0
 40
1
 40
1
 40
1
 40
1
 10
105.061430
 20
32.619410
 30
0.0
 10
105.892349
 20
31.916322
 30
0.0
 10
105.909287
 20
31.910684
 30
0.0
 10
105.721690
 20
32.399557
 30
0.0
  0
LWPOLYLINE
  5
19f
100
AcDbEntity
  8
0
 62
7
100
AcDbPolyline
 90
1
 70
1
 10
108.801016
 20
6.019281
 30
0.0
  0
SPLINE
  5
1a0
100
AcDbEntity
  8
0
 62
7
100
AcDbSpline
 70
8
 71
3
 72
8
 73
4
 74
0
 40
0
 40
0
 40
0
 40
0
 40
1
 40
1
 40
1
 40
1
 10
106.292502
 20
34.280070
 30
0.0
 10
105.780901
 20
35.230054
 30
0.0
 10
101.352527
 20
39.645447
 30
0.0
 10
98.746286
 20
41.804167
 30
0.0
  0
SPLINE
  5
1a1
100
AcDbEntity
  8
0
 62
7
100
AcDbSpline
 70
8
 71
3
 72
8
 73
4
 74
0
 40
0
 40
0
 40
0
 40
0
 40
1
 40
1
 40
1
 40
1
 10
98.746286
 20
41.804167
 30
0.0
 10
97.955687
 20
42.459010
 30
0.0
 10
98.922687
 20
41.387448
 30
0.0
 10
100.895174
 20
39.422917
 30
0.0
  0
SPLINE
  5
1a2
100
AcDbEntity
  8
0
 62
7
100
AcDbSpline
 70
8
 71
3
 72
8
 73
4
 74
0
 40
0
 40
0
 40
0
 40
0
 40
1
 40
1
 40
1
 40
1
 10
100.895174
 20
39.422917
 30
0.0
 10
102.982776
 20
37.343734
 30
0.0
 10
104.854714
 20
35.217592
 30
0.0
 10
105.374546
 20
34.335254
 30
0.0
  0
SPLINE
  5
1a3
100
AcDbEntity
  8
0
 62
7
100
AcDbSpline
 70
8
 71
3
 72
8
 73
4
 74
0
 40
0
 40
0
 40
0
 40
0
 40
1
 40
1
 40
1
 40
1
 10
105.374546
 20
34.335254
 30
0.0
 10
105.967969
 20
33.328009
 30
0.0
 10
106.356057
 20
32.907949
 30
0.0
 10
106.531307
 20
33.083198
 30
0.0
  0
SPLINE
  5
1a4
100
AcDbEntity
  8
0
 62
7
100
AcDbSpline
 70
8
 71
3
 72
8
 73
4
 74
0
 40
0
 40
0
 40
0
 40
0
 40
1
 40
1
 40
1
 40
1
 10
106.531307
 20
33.083198
 30
0.0
 10
106.706554
 20
33.258445
 30
0.0
 10
106.626438
 20
33.659990
 30
0.0
 10
106.292502
 20
34.280070
 30
0.0
  0
LWPOLYLINE
  5
1a5
100
AcDbEntity
  8
0
 62
7
100
AcDbPolyline
 90
1
 70
1
 10
105.721690
 20
32.399557
 30
0.0
  0
SPLINE
  5
1a6
100
AcDbEntity
  8
0
 62
7
100
AcDbSpline
 70
8
 71
3
 72
8
 73
4
 74
0
 40
0
 40
0
 40
0
 40
0
 40
1
 40
1
 40
1
 40
1
 10
99.932900
 20
43.568644
 30
0.0
 10
97.296044
 20
46.044948
 30
0.0
 10
93.340404
 20
49.178440
 30
0.0
 10
91.049136
 20
50.605992
 30
0.0
  0
SPLINE
  5
1a7
100
AcDbEntity
  8
0
 62
7
100
AcDbSpline
 70
8
 71
3
 72
8
 73
4
 74
0
 40
0
 40
0
 40
0
 40
0
 40
1
 40
1
 40
1
 40
1
 10
91.049136
 20
50.605992
 30
0.0
 10
87.865765
 20
52.589359
 30
0.0
 10
86.179033
 20
53.239371
 30
0.0
 10
83.925608
 20
53.351176
 30
0.0
  0
SPLINE
  5
1a8
100
AcDbEntity
  8
0
 62
7
100
AcDbSpline
 70
8
 71
3
 72
8
 73
4
 74
0
 40
0
 40
0
 40
0
 40
0
 40
1
 40
1
 40
1
 40
1
 10
83.925608
 20
53.351176
 30
0.0
 10
82.014489
 20
53.445997
 30
0.0
 10
81.975523
 20
53.436232
 30
0.0
 10
82.870103
 20
53.086630
 30
0.0
  0
SPLINE
  5
1a9
100
AcDbEntity
  8
0
 62
7
100
AcDbSpline
 70
8
 71
3
 72
8
 73
4
 74
0
 40
0
 40
0
 40
0
 40
0
 40
1
 40
1
 40
1
 40
1
 10
82.870103
 20
53.086630
 30
0.0
 10
85.630541
 20
52.007847
 30
0.0
 10
93.032868
 20
47.670768
 30
0.0
 10
98.477692
 20
43.942024
 30
0.0
  0
SPLINE
  5
1aa
100
AcDbEntity
  8
0
 62
7
100
AcDbSpline
 70
8
 71
3
 72
8
 73
4
 74
0
 40
0
 40
0
 40
0
 40
0
 40
1
 40
1
 40
1
 40
1
 10
98.477692
 20
43.942024
 30
0.0
 10
100.151181
 20
42.795981
 30
0.0
 10
101.579931
 20
41.851786
 30
0.0
 10
101.652692
 20
41.843820
 30
0.0
  0
SPLINE
  5
1ab
100
AcDbEntity
  8
0
 62
7
100
AcDbSpline
 70
8
 71
3
 72
8
 73
4
 74
0
 40
0
 40
0
 40
0
 40
0
 40
1
 40
1
 40
1
 40
1
 10
101.652692
 20
41.843820
 30
0.0
 10
101.725452
 20
41.835856
 30
0.0
 10
100.951546
 20
42.612022
 30
0.0
 10
99.932900
 20
43.568644
 30
0.0
  0
LWPOLYLINE
  5
1ac
100
AcDbEntity
  8
0
 62
7
100
AcDbPolyline
 90
1
 70
1
 10
106.292502
 20
34.280070
 30
0.0
  0
SPLINE
  5
1ad
100
AcDbEntity
  8
0
 62
7
100
AcDbSpline
 70
8
 71
3
 72
8
 73
4
 74
0
 40
0
 40
0
 40
0
 40
0
 40
1
 40
1
 40
1
 40
1
 10
97.154775
 20
42.953784
 30
0.0
 10
97.154775
 20
43.003991
 30
0.0
 10
96.886884
 20
43.271882
 30
0.0
 10
96.559463
 20
43.549096
 30
0.0
  0
LWPOLYLINE
  5
1ae
100
AcDbEntity
  8
0
 62
7
100
AcDbPolyline
 90
1
 70
1
 10
99.932900
 20
43.568644
 30
0.0
  0
SPLINE
  5
1af
100
AcDbEntity
  8
0
 62
7
100
AcDbSpline
 70
8
 71
3
 72
8
 73
4
 74
0
 40
0
 40
0
 40
0
 40
0
 40
1
 40
1
 40
1
 40
1
 10
96.468179
 20
43.457813
 30
0.0
 10
96.941841
 20
42.898367
 30
0.0
 10
97.154775
 20
42.742051
 30
0.0
 10
97.154775
 20
42.953784
 30
0.0
  0
LWPOLYLINE
  5
1b0
100
AcDbEntity
  8
0
 62
7
100
AcDbPolyline
 90
3
 70
0
 10
96.559463
 20
43.549096
 30
0.0
 10
95.964150
 20
44.053125
 30
0.0
 10
96.468179
 20
43.457813
 30
0.0
  0
SPLINE
  5
1b1
100
AcDbEntity
  8
0
 62
7
100
AcDbSpline
 70
8
 71
3
 72
8
 73
4
 74
0
 40
0
 40
0
 40
0
 40
0
 40
1
 40
1
 40
1
 40
1
 10
79.060757
 20
72.946525
 30
0.0
 10
79.621608
 20
73.630970
 30
0.0
 10
79.942304
 20
74.105566
 30
0.0
 10
79.773412
 20
74.001188
 30
0.0
  0
SPLINE
  5
1b2
100
AcDbEntity
  8
0
 62
7
100
AcDbSpline
 70
8
 71
3
 72
8
 73
4
 74
0
 40
0
 40
0
 40
0
 40
0
 40
1
 40
1
 40
1
 40
1
 10
79.773412
 20
74.001188
 30
0.0
 10
79.413544
 20
73.778777
 30
0.0
 10
77.737962
 20
71.702083
 30
0.0
 10
77.918379
 20
71.702083
 30
0.0
  0
SPLINE
  5
1b3
100
AcDbEntity
  8
0
 62
7
100
AcDbSpline
 70
8
 71
3
 72
8
 73
4
 74
0
 40
0
 40
0
 40
0
 40
0
 40
1
 40
1
 40
1
 40
1
 10
77.918379
 20
71.702083
 30
0.0
 10
77.985837
 20
71.702083
 30
0.0
 10
78.499907
 20
72.262082
 30
0.0
 10
79.060757
 20
72.946525
 30
0.0
  0
LWPOLYLINE
  5
1b4
100
AcDbEntity
  8
0
 62
7
100
AcDbPolyline
 90
1
 70
1
 10
97.154775
 20
42.953784
 30
0.0
  0
SPLINE
  5
1b5
100
AcDbEntity
  8
0
 62
7
100
AcDbSpline
 70
8
 71
3
 72
8
 73
4
 74
0
 40
0
 40
0
 40
0
 40
0
 40
1
 40
1
 40
1
 40
1
 10
76.814516
 20
72.958854
 30
0.0
 10
77.328107
 20
73.504557
 30
0.0
 10
78.334537
 20
74.660527
 30
0.0
 10
79.051026
 20
75.527673
 30
0.0
  0
SPLINE
  5
1b6
100
AcDbEntity
  8
0
 62
7
100
AcDbSpline
 70
8
 71
3
 72
8
 73
4
 74
0
 40
0
 40
0
 40
0
 40
0
 40
1
 40
1
 40
1
 40
1
 10
79.051026
 20
75.527673
 30
0.0
 10
80.123239
 20
76.825345
 30
0.0
 10
80.213150
 20
77.005942
 30
0.0
 10
79.559187
 20
76.548377
 30
0.0
  0
SPLINE
  5
1b7
100
AcDbEntity
  8
0
 62
7
100
AcDbSpline
 70
8
 71
3
 72
8
 73
4
 74
0
 40
0
 40
0
 40
0
 40
0
 40
1
 40
1
 40
1
 40
1
 10
79.559187
 20
76.548377
 30
0.0
 10
78.570709
 20
75.856759
 30
0.0
 10
76.177878
 20
73.344799
 30
0.0
 10
75.755185
 20
72.554989
 30
0.0
  0
SPLINE
  5
1b8
100
AcDbEntity
  8
0
 62
7
100
AcDbSpline
 70
8
 71
3
 72
8
 73
4
 74
0
 40
0
 40
0
 40
0
 40
0
 40
1
 40
1
 40
1
 40
1
 10
75.755185
 20
72.554989
 30
0.0
 10
75.277184
 20
71.661838
 30
0.0
 10
75.771007
 20
71.850110
 30
0.0
 10
76.814516
 20
72.958854
 30
0.0
  0
LWPOLYLINE
  5
1b9
100
AcDbEntity
  8
0
 62
7
100
AcDbPolyline
 90
1
 70
1
 10
79.060757
 20
72.946525
 30
0.0
  0
SPLINE
  5
1ba
100
AcDbEntity
  8
0
 62
7
100
AcDbSpline
 70
8
 71
3
 72
8
 73
4
 74
0
 40
0
 40
0
 40
0
 40
0
 40
1
 40
1
 40
1
 40
1
 10
119.757272
 20
73.091146
 30
0.0
 10
119.487849
 20
73.947348
 30
0.0
 10
117.726153
 20
76.461670
 30
0.0
 10
116.745658
 20
77.389374
 30
0.0
  0
LWPOLYLINE
  5
1bb
100
AcDbEntity
  8
0
 62
7
100
AcDbPolyline
 90
1
 70
1
 10
76.814516
 20
72.958854
 30
0.0
  0
SPLINE
  5
1bc
100
AcDbEntity
  8
0
 62
7
100
AcDbSpline
 70
8
 71
3
 72
8
 73
4
 74
0
 40
0
 40
0
 40
0
 40
0
 40
1
 40
1
 40
1
 40
1
 10
114.758711
 20
76.860207
 30
0.0
 10
114.126571
 20
76.133291
 30
0.0
 10
113.552158
 20
75.598073
 30
0.0
 10
113.482242
 20
75.670833
 30
0.0
  0
SPLINE
  5
1bd
100
AcDbEntity
  8
0
 62
7
100
AcDbSpline
 70
8
 71
3
 72
8
 73
4
 74
0
 40
0
 40
0
 40
0
 40
0
 40
1
 40
1
 40
1
 40
1
 10
113.482242
 20
75.670833
 30
0.0
 10
113.412326
 20
75.743594
 30
0.0
 10
113.095688
 20
76.815156
 30
0.0
 10
112.778606
 20
78.052083
 30
0.0
  0
SPLINE
  5
1be
100
AcDbEntity
  8
0
 62
7
100
AcDbSpline
 70
8
 71
3
 72
8
 73
4
 74
0
 40
0
 40
0
 40
0
 40
0
 40
1
 40
1
 40
1
 40
1
 10
112.778606
 20
78.052083
 30
0.0
 10
112.461522
 20
79.289010
 30
0.0
 10
112.104731
 20
80.400081
 30
0.0
 10
111.985740
 20
80.521130
 30
0.0
  0
SPLINE
  5
1bf
100
AcDbEntity
  8
0
 62
7
100
AcDbSpline
 70
8
 71
3
 72
8
 73
4
 74
0
 40
0
 40
0
 40
0
 40
0
 40
1
 40
1
 40
1
 40
1
 10
111.985740
 20
80.521130
 30
0.0
 10
111.794332
 20
80.715845
 30
0.0
 10
111.090705
 20
79.982624
 30
0.0
 10
109.370675
 20
77.796080
 30
0.0
  0
SPLINE
  5
1c0
100
AcDbEntity
  8
0
 62
7
100
AcDbSpline
 70
8
 71
3
 72
8
 73
4
 74
0
 40
0
 40
0
 40
0
 40
0
 40
1
 40
1
 40
1
 40
1
 10
109.370675
 20
77.796080
 30
0.0
 10
108.661097
 20
76.894050
 30
0.0
 10
108.197145
 20
77.337642
 30
0.0
 10
107.573845
 20
79.514070
 30
0.0
  0
SPLINE
  5
1c1
100
AcDbEntity
  8
0
 62
7
100
AcDbSpline
 70
8
 71
3
 72
8
 73
4
 74
0
 40
0
 40
0
 40
0
 40
0
 40
1
 40
1
 40
1
 40
1
 10
107.573845
 20
79.514070
 30
0.0
 10
107.304022
 20
80.456228
 30
0.0
 10
107.001998
 20
81.227083
 30
0.0
 10
106.902681
 20
81.227083
 30
0.0
  0
SPLINE
  5
1c2
100
AcDbEntity
  8
0
 62
7
100
AcDbSpline
 70
8
 71
3
 72
8
 73
4
 74
0
 40
0
 40
0
 40
0
 40
0
 40
1
 40
1
 40
1
 40
1
 10
106.902681
 20
81.227083
 30
0.0
 10
106.803362
 20
81.227083
 30
0.0
 10
106.124589
 20
80.556690
 30
0.0
 10
105.394297
 20
79.737320
 30
0.0
  0
SPLINE
  5
1c3
100
AcDbEntity
  8
0
 62
7
100
AcDbSpline
 70
8
 71
3
 72
8
 73
4
 74
0
 40
0
 40
0
 40
0
 40
0
 40
1
 40
1
 40
1
 40
1
 10
105.394297
 20
79.737320
 30
0.0
 10
104.553253
 20
78.793689
 30
0.0
 10
103.925333
 20
78.301728
 30
0.0
 10
103.681427
 20
78.395325
 30
0.0
  0
SPLINE
  5
1c4
100
AcDbEntity
  8
0
 62
7
100
AcDbSpline
 70
8
 71
3
 72
8
 73
4
 74
0
 40
0
 40
0
 40
0
 40
0
 40
1
 40
1
 40
1
 40
1
 10
103.681427
 20
78.395325
 30
0.0
 10
103.469638
 20
78.476597
 30
0.0
 10
102.970081
 20
79.533940
 30
0.0
 10
102.571299
 20
80.744983
 30
0.0
  0
SPLINE
  5
1c5
100
AcDbEntity
  8
0
 62
7
100
AcDbSpline
 70
8
 71
3
 72
8
 73
4
 74
0
 40
0
 40
0
 40
0
 40
0
 40
1
 40
1
 40
1
 40
1
 10
102.571299
 20
80.744983
 30
0.0
 10
102.172519
 20
81.956024
 30
0.0
 10
101.792093
 20
83.041953
 30
0.0
 10
101.725913
 20
83.158161
 30
0.0
  0
SPLINE
  5
1c6
100
AcDbEntity
  8
0
 62
7
100
AcDbSpline
 70
8
 71
3
 72
8
 73
4
 74
0
 40
0
 40
0
 40
0
 40
0
 40
1
 40
1
 40
1
 40
1
 10
101.725913
 20
83.158161
 30
0.0
 10
101.505798
 20
83.544653
 30
0.0
 10
100.825054
 20
82.732441
 30
0.0
 10
100.009804
 20
81.110622
 30
0.0
  0
SPLINE
  5
1c7
100
AcDbEntity
  8
0
 62
7
100
AcDbSpline
 70
8
 71
3
 72
8
 73
4
 74
0
 40
0
 40
0
 40
0
 40
0
 40
1
 40
1
 40
1
 40
1
 10
100.009804
 20
81.110622
 30
0.0
 10
99.332894
 20
79.764014
 30
0.0
 10
99.292280
 20
79.586450
 30
0.0
 10
99.756151
 20
80.001671
 30
0.0
  0
SPLINE
  5
1c8
100
AcDbEntity
  8
0
 62
7
100
AcDbSpline
 70
8
 71
3
 72
8
 73
4
 74
0
 40
0
 40
0
 40
0
 40
0
 40
1
 40
1
 40
1
 40
1
 10
99.756151
 20
80.001671
 30
0.0
 10
100.880003
 20
81.007659
 30
0.0
 10
102.334549
 20
79.731865
 30
0.0
 10
103.030523
 20
77.129693
 30
0.0
  0
SPLINE
  5
1c9
100
AcDbEntity
  8
0
 62
7
100
AcDbSpline
 70
8
 71
3
 72
8
 73
4
 74
0
 40
0
 40
0
 40
0
 40
0
 40
1
 40
1
 40
1
 40
1
 10
103.030523
 20
77.129693
 30
0.0
 10
103.206203
 20
76.472841
 30
0.0
 10
103.420243
 20
75.935417
 30
0.0
 10
103.506167
 20
75.935417
 30
0.0
  0
SPLINE
  5
1ca
100
AcDbEntity
  8
0
 62
7
100
AcDbSpline
 70
8
 71
3
 72
8
 73
4
 74
0
 40
0
 40
0
 40
0
 40
0
 40
1
 40
1
 40
1
 40
1
 10
103.506167
 20
75.935417
 30
0.0
 10
103.592090
 20
75.935417
 30
0.0
 10
104.117500
 20
76.649792
 30
0.0
 10
104.673744
 20
77.522917
 30
0.0
  0
SPLINE
  5
1cb
100
AcDbEntity
  8
0
 62
7
100
AcDbSpline
 70
8
 71
3
 72
8
 73
4
 74
0
 40
0
 40
0
 40
0
 40
0
 40
1
 40
1
 40
1
 40
1
 10
104.673744
 20
77.522917
 30
0.0
 10
105.299052
 20
78.504455
 30
0.0
 10
105.867602
 20
79.110417
 30
0.0
 10
106.163232
 20
79.110417
 30
0.0
  0
SPLINE
  5
1cc
100
AcDbEntity
  8
0
 62
7
100
AcDbSpline
 70
8
 71
3
 72
8
 73
4
 74
0
 40
0
 40
0
 40
0
 40
0
 40
1
 40
1
 40
1
 40
1
 10
106.163232
 20
79.110417
 30
0.0
 10
106.823936
 20
79.110417
 30
0.0
 10
107.696765
 20
77.921437
 30
0.0
 10
108.041713
 20
76.551517
 30
0.0
  0
SPLINE
  5
1cd
100
AcDbEntity
  8
0
 62
7
100
AcDbSpline
 70
8
 71
3
 72
8
 73
4
 74
0
 40
0
 40
0
 40
0
 40
0
 40
1
 40
1
 40
1
 40
1
 10
108.041713
 20
76.551517
 30
0.0
 10
108.200322
 20
75.921621
 30
0.0
 10
108.422215
 20
75.406250
 30
0.0
 10
108.534809
 20
75.406250
 30
0.0
  0
SPLINE
  5
1ce
100
AcDbEntity
  8
0
 62
7
100
AcDbSpline
 70
8
 71
3
 72
8
 73
4
 74
0
 40
0
 40
0
 40
0
 40
0
 40
1
 40
1
 40
1
 40
1
 10
108.534809
 20
75.406250
 30
0.0
 10
108.647402
 20
75.406250
 30
0.0
 10
109.193515
 20
76.001563
 30
0.0
 10
109.748391
 20
76.729167
 30
0.0
  0
SPLINE
  5
1cf
100
AcDbEntity
  8
0
 62
7
100
AcDbSpline
 70
8
 71
3
 72
8
 73
4
 74
0
 40
0
 40
0
 40
0
 40
0
 40
1
 40
1
 40
1
 40
1
 10
109.748391
 20
76.729167
 30
0.0
 10
111.204211
 20
78.638162
 30
0.0
 10
111.820389
 20
78.492239
 30
0.0
 10
112.756778
 20
76.016720
 30
0.0
  0
SPLINE
  5
1d0
100
AcDbEntity
  8
0
 62
7
100
AcDbSpline
 70
8
 71
3
 72
8
 73
4
 74
0
 40
0
 40
0
 40
0
 40
0
 40
1
 40
1
 40
1
 40
1
 10
112.756778
 20
76.016720
 30
0.0
 10
113.371868
 20
74.390618
 30
0.0
 10
114.037002
 20
74.234204
 30
0.0
 10
115.150863
 20
75.453727
 30
0.0
  0
LWPOLYLINE
  5
1d1
100
AcDbEntity
  8
0
 62
7
100
AcDbPolyline
 90
3
 70
0
 10
116.745658
 20
77.389374
 30
0.0
 10
115.908061
 20
78.181869
 30
0.0
 10
114.758711
 20
76.860207
 30
0.0
  0
SPLINE
  5
1d2
100
AcDbEntity
  8
0
 62
7
100
AcDbSpline
 70
8
 71
3
 72
8
 73
4
 74
0
 40
0
 40
0
 40
0
 40
0
 40
1
 40
1
 40
1
 40
1
 10
117.732241
 20
74.424122
 30
0.0
 10
119.607634
 20
72.414524
 30
0.0
 10
120.064900
 20
72.113529
 30
0.0
 10
119.757272
 20
73.091146
 30
0.0
  0
LWPOLYLINE
  5
1d3
100
AcDbEntity
  8
0
 62
7
100
AcDbPolyline
 90
3
 70
0
 10
115.150863
 20
75.453727
 30
0.0
 10
115.952418
 20
76.331315
 30
0.0
 10
117.732241
 20
74.424122
 30
0.0
  0
SPLINE
  5
1d4
100
AcDbEntity
  8
0
 62
7
100
AcDbSpline
 70
8
 71
3
 72
8
 73
4
 74
0
 40
0
 40
0
 40
0
 40
0
 40
1
 40
1
 40
1
 40
1
 10
75.138423
 20
75.869271
 30
0.0
 10
76.523990
 20
77.931597
 30
0.0
 10
76.718144
 20
78.365043
 30
0.0
 10
75.760628
 20
77.258333
 30
0.0
  0
SPLINE
  5
1d5
100
AcDbEntity
  8
0
 62
7
100
AcDbSpline
 70
8
 71
3
 72
8
 73
4
 74
0
 40
0
 40
0
 40
0
 40
0
 40
1
 40
1
 40
1
 40
1
 10
75.760628
 20
77.258333
 30
0.0
 10
74.927534
 20
76.295433
 30
0.0
 10
73.733977
 20
74.347917
 30
0.0
 10
73.976944
 20
74.347917
 30
0.0
  0
SPLINE
  5
1d6
100
AcDbEntity
  8
0
 62
7
100
AcDbSpline
 70
8
 71
3
 72
8
 73
4
 74
0
 40
0
 40
0
 40
0
 40
0
 40
1
 40
1
 40
1
 40
1
 10
73.976944
 20
74.347917
 30
0.0
 10
74.053594
 20
74.347917
 30
0.0
 10
74.576260
 20
75.032526
 30
0.0
 10
75.138423
 20
75.869271
 30
0.0
  0
LWPOLYLINE
  5
1d7
100
AcDbEntity
  8
0
 62
7
100
AcDbPolyline
 90
1
 70
1
 10
119.757272
 20
73.091146
 30
0.0
  0
SPLINE
  5
1d8
100
AcDbEntity
  8
0
 62
7
100
AcDbSpline
 70
8
 71
3
 72
8
 73
4
 74
0
 40
0
 40
0
 40
0
 40
0
 40
1
 40
1
 40
1
 40
1
 10
63.288108
 20
89.834540
 30
0.0
 10
63.288108
 20
90.152514
 30
0.0
 10
62.486807
 20
91.861730
 30
0.0
 10
62.080209
 20
92.411045
 30
0.0
  0
SPLINE
  5
1d9
100
AcDbEntity
  8
0
 62
7
100
AcDbSpline
 70
8
 71
3
 72
8
 73
4
 74
0
 40
0
 40
0
 40
0
 40
0
 40
1
 40
1
 40
1
 40
1
 10
62.080209
 20
92.411045
 30
0.0
 10
61.645501
 20
92.998335
 30
0.0
 10
61.644332
 20
92.997401
 30
0.0
 10
61.824748
 20
92.207292
 30
0.0
  0
SPLINE
  5
1da
100
AcDbEntity
  8
0
 62
7
100
AcDbSpline
 70
8
 71
3
 72
8
 73
4
 74
0
 40
0
 40
0
 40
0
 40
0
 40
1
 40
1
 40
1
 40
1
 10
61.824748
 20
92.207292
 30
0.0
 10
62.073838
 20
91.116454
 30
0.0
 10
62.769427
 20
89.693750
 30
0.0
 10
63.053672
 20
89.693750
 30
0.0
  0
SPLINE
  5
1db
100
AcDbEntity
  8
0
 62
7
100
AcDbSpline
 70
8
 71
3
 72
8
 73
4
 74
0
 40
0
 40
0
 40
0
 40
0
 40
1
 40
1
 40
1
 40
1
 10
63.053672
 20
89.693750
 30
0.0
 10
63.182611
 20
89.693750
 30
0.0
 10
63.288108
 20
89.757104
 30
0.0
 10
63.288108
 20
89.834540
 30
0.0
  0
LWPOLYLINE
  5
1dc
100
AcDbEntity
  8
0
 62
7
100
AcDbPolyline
 90
1
 70
1
 10
75.138423
 20
75.869271
 30
0.0
  0
SPLINE
  5
1dd
100
AcDbEntity
  8
0
 62
7
100
AcDbSpline
 70
8
 71
3
 72
8
 73
4
 74
0
 40
0
 40
0
 40
0
 40
0
 40
1
 40
1
 40
1
 40
1
 10
64.372556
 20
92.723110
 30
0.0
 10
63.959417
 20
94.569217
 30
0.0
 10
63.552692
 20
94.854644
 30
0.0
 10
63.552692
 20
93.298465
 30
0.0
  0
SPLINE
  5
1de
100
AcDbEntity
  8
0
 62
7
100
AcDbSpline
 70
8
 71
3
 72
8
 73
4
 74
0
 40
0
 40
0
 40
0
 40
0
 40
1
 40
1
 40
1
 40
1
 10
63.552692
 20
93.298465
 30
0.0
 10
63.552692
 20
91.752944
 30
0.0
 10
63.988558
 20
90.552950
 30
0.0
 10
64.400353
 20
90.964745
 30
0.0
  0
SPLINE
  5
1df
100
AcDbEntity
  8
0
 62
7
100
AcDbSpline
 70
8
 71
3
 72
8
 73
4
 74
0
 40
0
 40
0
 40
0
 40
0
 40
1
 40
1
 40
1
 40
1
 10
64.400353
 20
90.964745
 30
0.0
 10
64.622407
 20
91.186799
 30
0.0
 10
64.615266
 20
91.638572
 30
0.0
 10
64.372556
 20
92.723110
 30
0.0
  0
LWPOLYLINE
  5
1e0
100
AcDbEntity
  8
0
 62
7
100
AcDbPolyline
 90
1
 70
1
 10
63.288108
 20
89.834540
 30
0.0
  0
SPLINE
  5
1e1
100
AcDbEntity
  8
0
 62
7
100
AcDbSpline
 70
8
 71
3
 72
8
 73
4
 74
0
 40
0
 40
0
 40
0
 40
0
 40
1
 40
1
 40
1
 40
1
 10
60.326577
 20
93.026786
 30
0.0
 10
60.782930
 20
93.119631
 30
0.0
 10
60.897037
 20
93.276632
 30
0.0
 10
60.778837
 20
93.649046
 30
0.0
  0
SPLINE
  5
1e2
100
AcDbEntity
  8
0
 62
7
100
AcDbSpline
 70
8
 71
3
 72
8
 73
4
 74
0
 40
0
 40
0
 40
0
 40
0
 40
1
 40
1
 40
1
 40
1
 10
60.778837
 20
93.649046
 30
0.0
 10
60.543919
 20
94.389210
 30
0.0
 10
61.128624
 20
94.586200
 30
0.0
 10
61.786341
 20
93.988480
 30
0.0
  0
SPLINE
  5
1e3
100
AcDbEntity
  8
0
 62
7
100
AcDbSpline
 70
8
 71
3
 72
8
 73
4
 74
0
 40
0
 40
0
 40
0
 40
0
 40
1
 40
1
 40
1
 40
1
 10
61.786341
 20
93.988480
 30
0.0
 10
62.531009
 20
93.311739
 30
0.0
 10
63.023525
 20
93.506735
 30
0.0
 10
63.023525
 20
94.478298
 30
0.0
  0
SPLINE
  5
1e4
100
AcDbEntity
  8
0
 62
7
100
AcDbSpline
 70
8
 71
3
 72
8
 73
4
 74
0
 40
0
 40
0
 40
0
 40
0
 40
1
 40
1
 40
1
 40
1
 10
63.023525
 20
94.478298
 30
0.0
 10
63.023525
 20
95.492702
 30
0.0
 10
63.953316
 20
95.557020
 30
0.0
 10
64.401388
 20
94.573611
 30
0.0
  0
SPLINE
  5
1e5
100
AcDbEntity
  8
0
 62
7
100
AcDbSpline
 70
8
 71
3
 72
8
 73
4
 74
0
 40
0
 40
0
 40
0
 40
0
 40
1
 40
1
 40
1
 40
1
 10
64.401388
 20
94.573611
 30
0.0
 10
64.670368
 20
93.983260
 30
0.0
 10
64.829515
 20
93.915709
 30
0.0
 10
65.652486
 20
94.042563
 30
0.0
  0
SPLINE
  5
1e6
100
AcDbEntity
  8
0
 62
7
100
AcDbSpline
 70
8
 71
3
 72
8
 73
4
 74
0
 40
0
 40
0
 40
0
 40
0
 40
1
 40
1
 40
1
 40
1
 10
65.652486
 20
94.042563
 30
0.0
 10
69.160409
 20
94.583290
 30
0.0
 10
72.212435
 20
94.800830
 30
0.0
 10
78.369358
 20
94.948986
 30
0.0
  0
LWPOLYLINE
  5
1e7
100
AcDbEntity
  8
0
 62
7
100
AcDbPolyline
 90
1
 70
1
 10
64.372556
 20
92.723110
 30
0.0
  0
SPLINE
  5
1e8
100
AcDbEntity
  8
0
 62
7
100
AcDbSpline
 70
8
 71
3
 72
8
 73
4
 74
0
 40
0
 40
0
 40
0
 40
0
 40
1
 40
1
 40
1
 40
1
 10
85.338108
 20
96.011598
 30
0.0
 10
85.237230
 20
98.122917
 30
0.0
 10
81.578077
 20
103.742397
 30
0.0
 10
76.659864
 20
109.339063
 30
0.0
  0
SPLINE
  5
1e9
100
AcDbEntity
  8
0
 62
7
100
AcDbSpline
 70
8
 71
3
 72
8
 73
4
 74
0
 40
0
 40
0
 40
0
 40
0
 40
1
 40
1
 40
1
 40
1
 10
76.659864
 20
109.339063
 30
0.0
 10
74.973492
 20
111.258064
 30
0.0
 10
74.493004
 20
111.654167
 30
0.0
 10
73.851548
 20
111.654167
 30
0.0
  0
SPLINE
  5
1ea
100
AcDbEntity
  8
0
 62
7
100
AcDbSpline
 70
8
 71
3
 72
8
 73
4
 74
0
 40
0
 40
0
 40
0
 40
0
 40
1
 40
1
 40
1
 40
1
 10
73.851548
 20
111.654167
 30
0.0
 10
73.028768
 20
111.654167
 30
0.0
 10
72.801999
 20
112.094148
 30
0.0
 10
73.488920
 20
112.357744
 30
0.0
  0
SPLINE
  5
1eb
100
AcDbEntity
  8
0
 62
7
100
AcDbSpline
 70
8
 71
3
 72
8
 73
4
 74
0
 40
0
 40
0
 40
0
 40
0
 40
1
 40
1
 40
1
 40
1
 10
73.488920
 20
112.357744
 30
0.0
 10
74.127498
 20
112.602788
 30
0.0
 10
72.885779
 20
113.829558
 30
0.0
 10
72.214743
 20
113.616579
 30
0.0
  0
SPLINE
  5
1ec
100
AcDbEntity
  8
0
 62
7
100
AcDbSpline
 70
8
 71
3
 72
8
 73
4
 74
0
 40
0
 40
0
 40
0
 40
0
 40
1
 40
1
 40
1
 40
1
 10
72.214743
 20
113.616579
 30
0.0
 10
71.825310
 20
113.492979
 30
0.0
 10
71.732659
 20
113.572036
 30
0.0
 10
71.800138
 20
113.970348
 30
0.0
  0
SPLINE
  5
1ed
100
AcDbEntity
  8
0
 62
7
100
AcDbSpline
 70
8
 71
3
 72
8
 73
4
 74
0
 40
0
 40
0
 40
0
 40
0
 40
1
 40
1
 40
1
 40
1
 10
71.800138
 20
113.970348
 30
0.0
 10
71.926889
 20
114.718536
 30
0.0
 10
71.275186
 20
115.358333
 30
0.0
 10
70.386324
 20
115.358333
 30
0.0
  0
SPLINE
  5
1ee
100
AcDbEntity
  8
0
 62
7
100
AcDbSpline
 70
8
 71
3
 72
8
 73
4
 74
0
 40
0
 40
0
 40
0
 40
0
 40
1
 40
1
 40
1
 40
1
 10
70.386324
 20
115.358333
 30
0.0
 10
69.397414
 20
115.358333
 30
0.0
 10
68.050608
 20
116.048782
 30
0.0
 10
68.050608
 20
116.555753
 30
0.0
  0
SPLINE
  5
1ef
100
AcDbEntity
  8
0
 62
7
100
AcDbSpline
 70
8
 71
3
 72
8
 73
4
 74
0
 40
0
 40
0
 40
0
 40
0
 40
1
 40
1
 40
1
 40
1
 10
68.050608
 20
116.555753
 30
0.0
 10
68.050608
 20
116.770298
 30
0.0
 10
68.288733
 20
116.945833
 30
0.0
 10
68.579775
 20
116.945833
 30
0.0
  0
SPLINE
  5
1f0
100
AcDbEntity
  8
0
 62
7
100
AcDbSpline
 70
8
 71
3
 72
8
 73
4
 74
0
 40
0
 40
0
 40
0
 40
0
 40
1
 40
1
 40
1
 40
1
 10
68.579775
 20
116.945833
 30
0.0
 10
68.870817
 20
116.945833
 30
0.0
 10
69.108942
 20
117.042504
 30
0.0
 10
69.108942
 20
117.160659
 30
0.0
  0
SPLINE
  5
1f1
100
AcDbEntity
  8
0
 62
7
100
AcDbSpline
 70
8
 71
3
 72
8
 73
4
 74
0
 40
0
 40
0
 40
0
 40
0
 40
1
 40
1
 40
1
 40
1
 10
69.108942
 20
117.160659
 30
0.0
 10
69.108942
 20
117.439974
 30
0.0
 10
67.629820
 20
118.533333
 30
0.0
 10
67.251958
 20
118.533333
 30
0.0
  0
SPLINE
  5
1f2
100
AcDbEntity
  8
0
 62
7
100
AcDbSpline
 70
8
 71
3
 72
8
 73
4
 74
0
 40
0
 40
0
 40
0
 40
0
 40
1
 40
1
 40
1
 40
1
 10
67.251958
 20
118.533333
 30
0.0
 10
67.091957
 20
118.533333
 30
0.0
 10
67.026581
 20
118.639373
 30
0.0
 10
67.106681
 20
118.768977
 30
0.0
  0
SPLINE
  5
1f3
100
AcDbEntity
  8
0
 62
7
100
AcDbSpline
 70
8
 71
3
 72
8
 73
4
 74
0
 40
0
 40
0
 40
0
 40
0
 40
1
 40
1
 40
1
 40
1
 10
67.106681
 20
118.768977
 30
0.0
 10
67.287352
 20
119.061309
 30
0.0
 10
66.236630
 20
119.770197
 30
0.0
 10
65.258947
 20
120.015582
 30
0.0
  0
SPLINE
  5
1f4
100
AcDbEntity
  8
0
 62
7
100
AcDbSpline
 70
8
 71
3
 72
8
 73
4
 74
0
 40
0
 40
0
 40
0
 40
0
 40
1
 40
1
 40
1
 40
1
 10
65.258947
 20
120.015582
 30
0.0
 10
64.604061
 20
120.179947
 30
0.0
 10
64.713014
 20
119.983541
 30
0.0
 10
66.316415
 20
118.109309
 30
0.0
  0
SPLINE
  5
1f5
100
AcDbEntity
  8
0
 62
7
100
AcDbSpline
 70
8
 71
3
 72
8
 73
4
 74
0
 40
0
 40
0
 40
0
 40
0
 40
1
 40
1
 40
1
 40
1
 10
66.316415
 20
118.109309
 30
0.0
 10
71.204153
 20
112.395984
 30
0.0
 10
76.252692
 20
103.015251
 30
0.0
 10
76.252692
 20
99.646626
 30
0.0
  0
SPLINE
  5
1f6
100
AcDbEntity
  8
0
 62
7
100
AcDbSpline
 70
8
 71
3
 72
8
 73
4
 74
0
 40
0
 40
0
 40
0
 40
0
 40
1
 40
1
 40
1
 40
1
 10
76.252692
 20
99.646626
 30
0.0
 10
76.252692
 20
99.185010
 30
0.0
 10
76.079686
 20
98.560326
 30
0.0
 10
75.868234
 20
98.258437
 30
0.0
  0
SPLINE
  5
1f7
100
AcDbEntity
  8
0
 62
7
100
AcDbSpline
 70
8
 71
3
 72
8
 73
4
 74
0
 40
0
 40
0
 40
0
 40
0
 40
1
 40
1
 40
1
 40
1
 10
75.868234
 20
98.258437
 30
0.0
 10
75.513155
 20
97.751490
 30
0.0
 10
75.144172
 20
97.697875
 30
0.0
 10
71.039588
 20
97.556836
 30
0.0
  0
SPLINE
  5
1f8
100
AcDbEntity
  8
0
 62
7
100
AcDbSpline
 70
8
 71
3
 72
8
 73
4
 74
0
 40
0
 40
0
 40
0
 40
0
 40
1
 40
1
 40
1
 40
1
 10
71.039588
 20
97.556836
 30
0.0
 10
66.332544
 20
97.395096
 30
0.0
 10
62.153472
 20
96.784763
 30
0.0
 10
57.599567
 20
95.593990
 30
0.0
  0
SPLINE
  5
1f9
100
AcDbEntity
  8
0
 62
7
100
AcDbSpline
 70
8
 71
3
 72
8
 73
4
 74
0
 40
0
 40
0
 40
0
 40
0
 40
1
 40
1
 40
1
 40
1
 10
57.599567
 20
95.593990
 30
0.0
 10
54.957004
 20
94.903004
 30
0.0
 10
53.092533
 20
94.244782
 30
0.0
 10
53.271489
 20
94.066035
 30
0.0
  0
SPLINE
  5
1fa
100
AcDbEntity
  8
0
 62
7
100
AcDbSpline
 70
8
 71
3
 72
8
 73
4
 74
0
 40
0
 40
0
 40
0
 40
0
 40
1
 40
1
 40
1
 40
1
 10
53.271489
 20
94.066035
 30
0.0
 10
53.323598
 20
94.013986
 30
0.0
 10
53.900935
 20
93.667718
 30
0.0
 10
54.554461
 20
93.296547
 30
0.0
  0
SPLINE
  5
1fb
100
AcDbEntity
  8
0
 62
7
100
AcDbSpline
 70
8
 71
3
 72
8
 73
4
 74
0
 40
0
 40
0
 40
0
 40
0
 40
1
 40
1
 40
1
 40
1
 10
54.554461
 20
93.296547
 30
0.0
 10
55.623103
 20
92.689614
 30
0.0
 10
55.942648
 20
92.635829
 30
0.0
 10
57.729461
 20
92.762149
 30
0.0
  0
SPLINE
  5
1fc
100
AcDbEntity
  8
0
 62
7
100
AcDbSpline
 70
8
 71
3
 72
8
 73
4
 74
0
 40
0
 40
0
 40
0
 40
0
 40
1
 40
1
 40
1
 40
1
 10
57.729461
 20
92.762149
 30
0.0
 10
58.822185
 20
92.839402
 30
0.0
 10
59.990889
 20
92.958486
 30
0.0
 10
60.326577
 20
93.026786
 30
0.0
  0
LWPOLYLINE
  5
1fd
100
AcDbEntity
  8
0
 62
7
100
AcDbPolyline
 90
3
 70
0
 10
78.369358
 20
94.948986
 30
0.0
 10
85.380817
 20
95.117708
 30
0.0
 10
85.338108
 20
96.011598
 30
0.0
  0
SPLINE
  5
1fe
100
AcDbEntity
  8
0
 62
7
100
AcDbSpline
 70
8
 71
3
 72
8
 73
4
 74
0
 40
0
 40
0
 40
0
 40
0
 40
1
 40
1
 40
1
 40
1
 10
52.101287
 20
97.249337
 30
0.0
 10
56.435376
 20
98.673378
 30
0.0
 10
60.512219
 20
99.319149
 30
0.0
 10
67.905672
 20
99.752745
 30
0.0
  0
SPLINE
  5
1ff
100
AcDbEntity
  8
0
 62
7
100
AcDbSpline
 70
8
 71
3
 72
8
 73
4
 74
0
 40
0
 40
0
 40
0
 40
0
 40
1
 40
1
 40
1
 40
1
 10
67.905672
 20
99.752745
 30
0.0
 10
70.518091
 20
99.905955
 30
0.0
 10
72.707413
 20
100.083191
 30
0.0
 10
72.770828
 20
100.146607
 30
0.0
  0
SPLINE
  5
200
100
AcDbEntity
  8
0
 62
7
100
AcDbSpline
 70
8
 71
3
 72
8
 73
4
 74
0
 40
0
 40
0
 40
0
 40
0
 40
1
 40
1
 40
1
 40
1
 10
72.770828
 20
100.146607
 30
0.0
 10
73.098589
 20
100.474370
 30
0.0
 10
72.031775
 20
102.946922
 30
0.0
 10
70.683935
 20
104.983399
 30
0.0
  0
SPLINE
  5
201
100
AcDbEntity
  8
0
 62
7
100
AcDbSpline
 70
8
 71
3
 72
8
 73
4
 74
0
 40
0
 40
0
 40
0
 40
0
 40
1
 40
1
 40
1
 40
1
 10
70.683935
 20
104.983399
 30
0.0
 10
67.211924
 20
110.229314
 30
0.0
 10
61.541070
 20
115.414660
 30
0.0
 10
56.486541
 20
117.965286
 30
0.0
  0
SPLINE
  5
202
100
AcDbEntity
  8
0
 62
7
100
AcDbSpline
 70
8
 71
3
 72
8
 73
4
 74
0
 40
0
 40
0
 40
0
 40
0
 40
1
 40
1
 40
1
 40
1
 10
56.486541
 20
117.965286
 30
0.0
 10
55.583336
 20
118.421063
 30
0.0
 10
54.436523
 20
119.152046
 30
0.0
 10
53.938069
 20
119.589693
 30
0.0
  0
SPLINE
  5
203
100
AcDbEntity
  8
0
 62
7
100
AcDbSpline
 70
8
 71
3
 72
8
 73
4
 74
0
 40
0
 40
0
 40
0
 40
0
 40
1
 40
1
 40
1
 40
1
 10
53.938069
 20
119.589693
 30
0.0
 10
53.439618
 20
120.027340
 30
0.0
 10
52.809386
 20
120.385115
 30
0.0
 10
52.537553
 20
120.384750
 30
0.0
  0
SPLINE
  5
204
100
AcDbEntity
  8
0
 62
7
100
AcDbSpline
 70
8
 71
3
 72
8
 73
4
 74
0
 40
0
 40
0
 40
0
 40
0
 40
1
 40
1
 40
1
 40
1
 10
52.537553
 20
120.384750
 30
0.0
 10
51.378842
 20
120.383162
 30
0.0
 10
46.845204
 20
118.952481
 30
0.0
 10
44.542676
 20
117.861763
 30
0.0
  0
SPLINE
  5
205
100
AcDbEntity
  8
0
 62
7
100
AcDbSpline
 70
8
 71
3
 72
8
 73
4
 74
0
 40
0
 40
0
 40
0
 40
0
 40
1
 40
1
 40
1
 40
1
 10
44.542676
 20
117.861763
 30
0.0
 10
42.805326
 20
117.038771
 30
0.0
 10
41.709176
 20
116.681250
 30
0.0
 10
40.923260
 20
116.681250
 30
0.0
  0
SPLINE
  5
206
100
AcDbEntity
  8
0
 62
7
100
AcDbSpline
 70
8
 71
3
 72
8
 73
4
 74
0
 40
0
 40
0
 40
0
 40
0
 40
1
 40
1
 40
1
 40
1
 10
40.923260
 20
116.681250
 30
0.0
 10
39.332744
 20
116.681250
 30
0.0
 10
36.589994
 20
115.775034
 30
0.0
 10
35.256171
 20
114.808818
 30
0.0
  0
SPLINE
  5
207
100
AcDbEntity
  8
0
 62
7
100
AcDbSpline
 70
8
 71
3
 72
8
 73
4
 74
0
 40
0
 40
0
 40
0
 40
0
 40
1
 40
1
 40
1
 40
1
 10
35.256171
 20
114.808818
 30
0.0
 10
33.906270
 20
113.830952
 30
0.0
 10
34.064041
 20
113.527925
 30
0.0
 10
36.086251
 20
113.214486
 30
0.0
  0
SPLINE
  5
208
100
AcDbEntity
  8
0
 62
7
100
AcDbSpline
 70
8
 71
3
 72
8
 73
4
 74
0
 40
0
 40
0
 40
0
 40
0
 40
1
 40
1
 40
1
 40
1
 10
36.086251
 20
113.214486
 30
0.0
 10
39.335504
 20
112.710860
 30
0.0
 10
44.289713
 20
109.350461
 30
0.0
 10
45.166087
 20
107.055711
 30
0.0
  0
SPLINE
  5
209
100
AcDbEntity
  8
0
 62
7
100
AcDbSpline
 70
8
 71
3
 72
8
 73
4
 74
0
 40
0
 40
0
 40
0
 40
0
 40
1
 40
1
 40
1
 40
1
 10
45.166087
 20
107.055711
 30
0.0
 10
45.588603
 20
105.949369
 30
0.0
 10
45.584560
 20
105.858384
 30
0.0
 10
45.067892
 20
104.845631
 30
0.0
  0
SPLINE
  5
20a
100
AcDbEntity
  8
0
 62
7
100
AcDbSpline
 70
8
 71
3
 72
8
 73
4
 74
0
 40
0
 40
0
 40
0
 40
0
 40
1
 40
1
 40
1
 40
1
 10
45.067892
 20
104.845631
 30
0.0
 10
44.771522
 20
104.264698
 30
0.0
 10
43.911253
 20
103.233950
 30
0.0
 10
43.156182
 20
102.555074
 30
0.0
  0
SPLINE
  5
20b
100
AcDbEntity
  8
0
 62
7
100
AcDbSpline
 70
8
 71
3
 72
8
 73
4
 74
0
 40
0
 40
0
 40
0
 40
0
 40
1
 40
1
 40
1
 40
1
 10
43.156182
 20
102.555074
 30
0.0
 10
42.401109
 20
101.876201
 30
0.0
 10
41.829633
 20
101.280558
 30
0.0
 10
41.886238
 20
101.231422
 30
0.0
  0
SPLINE
  5
20c
100
AcDbEntity
  8
0
 62
7
100
AcDbSpline
 70
8
 71
3
 72
8
 73
4
 74
0
 40
0
 40
0
 40
0
 40
0
 40
1
 40
1
 40
1
 40
1
 10
41.886238
 20
101.231422
 30
0.0
 10
41.942840
 20
101.182289
 30
0.0
 10
43.060713
 20
100.436259
 30
0.0
 10
44.370400
 20
99.573580
 30
0.0
  0
SPLINE
  5
20d
100
AcDbEntity
  8
0
 62
7
100
AcDbSpline
 70
8
 71
3
 72
8
 73
4
 74
0
 40
0
 40
0
 40
0
 40
0
 40
1
 40
1
 40
1
 40
1
 10
44.370400
 20
99.573580
 30
0.0
 10
45.680088
 20
98.710898
 30
0.0
 10
47.227900
 20
97.689993
 30
0.0
 10
47.809983
 20
97.304897
 30
0.0
  0
SPLINE
  5
20e
100
AcDbEntity
  8
0
 62
7
100
AcDbSpline
 70
8
 71
3
 72
8
 73
4
 74
0
 40
0
 40
0
 40
0
 40
0
 40
1
 40
1
 40
1
 40
1
 10
47.809983
 20
97.304897
 30
0.0
 10
49.143335
 20
96.422779
 30
0.0
 10
49.568878
 20
96.417270
 30
0.0
 10
52.101287
 20
97.249337
 30
0.0
  0
LWPOLYLINE
  5
20f
100
AcDbEntity
  8
0
 62
7
100
AcDbPolyline
 90
1
 70
1
 10
60.326577
 20
93.026786
 30
0.0
  0
SPLINE
  5
210
100
AcDbEntity
  8
0
 62
7
100
AcDbSpline
 70
8
 71
3
 72
8
 73
4
 74
0
 40
0
 40
0
 40
0
 40
0
 40
1
 40
1
 40
1
 40
1
 10
80.593330
 20
114.318598
 30
0.0
 10
81.440922
 20
114.333150
 30
0.0
 10
81.561506
 20
114.386672
 30
0.0
 10
81.147483
 20
114.564583
 30
0.0
  0
SPLINE
  5
211
100
AcDbEntity
  8
0
 62
7
100
AcDbSpline
 70
8
 71
3
 72
8
 73
4
 74
0
 40
0
 40
0
 40
0
 40
0
 40
1
 40
1
 40
1
 40
1
 10
81.147483
 20
114.564583
 30
0.0
 10
80.329913
 20
114.915905
 30
0.0
 10
77.365889
 20
114.845314
 30
0.0
 10
75.458942
 20
114.429103
 30
0.0
  0
LWPOLYLINE
  5
212
100
AcDbEntity
  8
0
 62
7
100
AcDbPolyline
 90
1
 70
1
 10
52.101287
 20
97.249337
 30
0.0
  0
SPLINE
  5
213
100
AcDbEntity
  8
0
 62
7
100
AcDbSpline
 70
8
 71
3
 72
8
 73
4
 74
0
 40
0
 40
0
 40
0
 40
0
 40
1
 40
1
 40
1
 40
1
 10
76.624580
 20
114.176871
 30
0.0
 10
78.211566
 20
114.244594
 30
0.0
 10
79.997504
 20
114.308369
 30
0.0
 10
80.593330
 20
114.318598
 30
0.0
  0
LWPOLYLINE
  5
214
100
AcDbEntity
  8
0
 62
7
100
AcDbPolyline
 90
3
 70
0
 10
75.458942
 20
114.429103
 30
0.0
 10
73.739150
 20
114.053744
 30
0.0
 10
76.624580
 20
114.176871
 30
0.0
  0
SPLINE
  5
215
100
AcDbEntity
  8
0
 62
7
100
AcDbSpline
 70
8
 71
3
 72
8
 73
4
 74
0
 40
0
 40
0
 40
0
 40
0
 40
1
 40
1
 40
1
 40
1
 10
80.626492
 20
115.769035
 30
0.0
 10
79.599634
 20
116.545344
 30
0.0
 10
77.979124
 20
116.808634
 30
0.0
 10
74.268317
 20
116.802072
 30
0.0
  0
SPLINE
  5
216
100
AcDbEntity
  8
0
 62
7
100
AcDbSpline
 70
8
 71
3
 72
8
 73
4
 74
0
 40
0
 40
0
 40
0
 40
0
 40
1
 40
1
 40
1
 40
1
 10
74.268317
 20
116.802072
 30
0.0
 10
68.008254
 20
116.791012
 30
0.0
 10
67.066708
 20
116.077772
 30
0.0
 10
73.159131
 20
115.961859
 30
0.0
  0
SPLINE
  5
217
100
AcDbEntity
  8
0
 62
7
100
AcDbSpline
 70
8
 71
3
 72
8
 73
4
 74
0
 40
0
 40
0
 40
0
 40
0
 40
1
 40
1
 40
1
 40
1
 10
73.159131
 20
115.961859
 30
0.0
 10
75.224391
 20
115.922563
 30
0.0
 10
77.628525
 20
115.786307
 30
0.0
 10
78.501650
 20
115.659064
 30
0.0
  0
SPLINE
  5
218
100
AcDbEntity
  8
0
 62
7
100
AcDbSpline
 70
8
 71
3
 72
8
 73
4
 74
0
 40
0
 40
0
 40
0
 40
0
 40
1
 40
1
 40
1
 40
1
 10
78.501650
 20
115.659064
 30
0.0
 10
79.374775
 20
115.531823
 30
0.0
 10
80.327275
 20
115.415891
 30
0.0
 10
80.618317
 20
115.401439
 30
0.0
  0
SPLINE
  5
219
100
AcDbEntity
  8
0
 62
7
100
AcDbSpline
 70
8
 71
3
 72
8
 73
4
 74
0
 40
0
 40
0
 40
0
 40
0
 40
1
 40
1
 40
1
 40
1
 10
80.618317
 20
115.401439
 30
0.0
 10
81.143761
 20
115.375351
 30
0.0
 10
81.143816
 20
115.377944
 30
0.0
 10
80.626492
 20
115.769035
 30
0.0
  0
LWPOLYLINE
  5
21a
100
AcDbEntity
  8
0
 62
7
100
AcDbPolyline
 90
1
 70
1
 10
80.593330
 20
114.318598
 30
0.0
  0
SPLINE
  5
21b
100
AcDbEntity
  8
0
 62
7
100
AcDbSpline
 70
8
 71
3
 72
8
 73
4
 74
0
 40
0
 40
0
 40
0
 40
0
 40
1
 40
1
 40
1
 40
1
 10
77.972483
 20
118.585901
 30
0.0
 10
75.829649
 20
119.716399
 30
0.0
 10
72.293901
 20
120.187998
 30
0.0
 10
70.431858
 20
119.591667
 30
0.0
  0
SPLINE
  5
21c
100
AcDbEntity
  8
0
 62
7
100
AcDbSpline
 70
8
 71
3
 72
8
 73
4
 74
0
 40
0
 40
0
 40
0
 40
0
 40
1
 40
1
 40
1
 40
1
 10
70.431858
 20
119.591667
 30
0.0
 10
69.630174
 20
119.334923
 30
0.0
 10
69.573563
 20
119.350764
 30
0.0
 10
72.018559
 20
119.147632
 30
0.0
  0
SPLINE
  5
21d
100
AcDbEntity
  8
0
 62
7
100
AcDbSpline
 70
8
 71
3
 72
8
 73
4
 74
0
 40
0
 40
0
 40
0
 40
0
 40
1
 40
1
 40
1
 40
1
 10
72.018559
 20
119.147632
 30
0.0
 10
73.109526
 20
119.056994
 30
0.0
 10
74.954995
 20
118.779044
 30
0.0
 10
76.119601
 20
118.529968
 30
0.0
  0
SPLINE
  5
21e
100
AcDbEntity
  8
0
 62
7
100
AcDbSpline
 70
8
 71
3
 72
8
 73
4
 74
0
 40
0
 40
0
 40
0
 40
0
 40
1
 40
1
 40
1
 40
1
 10
76.119601
 20
118.529968
 30
0.0
 10
78.960615
 20
117.922355
 30
0.0
 10
79.215628
 20
117.930054
 30
0.0
 10
77.972483
 20
118.585901
 30
0.0
  0
LWPOLYLINE
  5
21f
100
AcDbEntity
  8
0
 62
7
100
AcDbPolyline
 90
1
 70
1
 10
80.626492
 20
115.769035
 30
0.0
  0
SPLINE
  5
220
100
AcDbEntity
  8
0
 62
7
100
AcDbSpline
 70
8
 71
3
 72
8
 73
4
 74
0
 40
0
 40
0
 40
0
 40
0
 40
1
 40
1
 40
1
 40
1
 10
33.981472
 20
32.009263
 30
0.0
 10
32.641947
 20
32.617267
 30
0.0
 10
32.420801
 20
33.055343
 30
0.0
 10
32.874469
 20
34.202148
 30
0.0
  0
SPLINE
  5
221
100
AcDbEntity
  8
0
 62
7
100
AcDbSpline
 70
8
 71
3
 72
8
 73
4
 74
0
 40
0
 40
0
 40
0
 40
0
 40
1
 40
1
 40
1
 40
1
 10
32.874469
 20
34.202148
 30
0.0
 10
33.665001
 20
36.200490
 30
0.0
 10
34.563494
 20
36.474159
 30
0.0
 10
35.691691
 20
35.060234
 30
0.0
  0
SPLINE
  5
222
100
AcDbEntity
  8
0
 62
7
100
AcDbSpline
 70
8
 71
3
 72
8
 73
4
 74
0
 40
0
 40
0
 40
0
 40
0
 40
1
 40
1
 40
1
 40
1
 10
35.691691
 20
35.060234
 30
0.0
 10
37.882695
 20
32.314335
 30
0.0
 10
36.955106
 20
30.659549
 30
0.0
 10
33.981472
 20
32.009263
 30
0.0
  0
LWPOLYLINE
  5
223
100
AcDbEntity
  8
0
 62
7
100
AcDbPolyline
 90
1
 70
1
 10
77.972483
 20
118.585901
 30
0.0
  0
SPLINE
  5
224
100
AcDbEntity
  8
0
 62
7
100
AcDbSpline
 70
8
 71
3
 72
8
 73
4
 74
0
 40
0
 40
0
 40
0
 40
0
 40
1
 40
1
 40
1
 40
1
 10
23.130314
 20
35.072294
 30
0.0
 10
22.326651
 20
35.635203
 30
0.0
 10
22.381692
 20
36.612362
 30
0.0
 10
23.255790
 20
37.299926
 30
0.0
  0
SPLINE
  5
225
100
AcDbEntity
  8
0
 62
7
100
AcDbSpline
 70
8
 71
3
 72
8
 73
4
 74
0
 40
0
 40
0
 40
0
 40
0
 40
1
 40
1
 40
1
 40
1
 10
23.255790
 20
37.299926
 30
0.0
 10
24.329504
 20
38.144511
 30
0.0
 10
25.388451
 20
37.930317
 30
0.0
 10
26.156034
 20
36.713298
 30
0.0
  0
LWPOLYLINE
  5
226
100
AcDbEntity
  8
0
 62
7
100
AcDbPolyline
 90
1
 70
1
 10
33.981472
 20
32.009263
 30
0.0
  0
SPLINE
  5
227
100
AcDbEntity
  8
0
 62
7
100
AcDbSpline
 70
8
 71
3
 72
8
 73
4
 74
0
 40
0
 40
0
 40
0
 40
0
 40
1
 40
1
 40
1
 40
1
 10
26.248802
 20
35.191943
 30
0.0
 10
25.600062
 20
34.543204
 30
0.0
 10
23.974727
 20
34.480844
 30
0.0
 10
23.130314
 20
35.072294
 30
0.0
  0
LWPOLYLINE
  5
228
100
AcDbEntity
  8
0
 62
7
100
AcDbPolyline
 90
3
 70
0
 10
26.156034
 20
36.713298
 30
0.0
 10
26.780326
 20
35.723468
 30
0.0
 10
26.248802
 20
35.191943
 30
0.0
  0
SPLINE
  5
229
100
AcDbEntity
  8
0
 62
7
100
AcDbSpline
 70
8
 71
3
 72
8
 73
4
 74
0
 40
0
 40
0
 40
0
 40
0
 40
1
 40
1
 40
1
 40
1
 10
29.818317
 20
36.470071
 30
0.0
 10
28.066582
 20
37.091710
 30
0.0
 10
27.177624
 20
37.669354
 30
0.0
 10
24.645083
 20
39.831624
 30
0.0
  0
SPLINE
  5
22a
100
AcDbEntity
  8
0
 62
7
100
AcDbSpline
 70
8
 71
3
 72
8
 73
4
 74
0
 40
0
 40
0
 40
0
 40
0
 40
1
 40
1
 40
1
 40
1
 10
24.645083
 20
39.831624
 30
0.0
 10
22.335437
 20
41.803590
 30
0.0
 10
21.060595
 20
43.484586
 30
0.0
 10
20.793009
 20
44.910939
 30
0.0
  0
SPLINE
  5
22b
100
AcDbEntity
  8
0
 62
7
100
AcDbSpline
 70
8
 71
3
 72
8
 73
4
 74
0
 40
0
 40
0
 40
0
 40
0
 40
1
 40
1
 40
1
 40
1
 10
20.793009
 20
44.910939
 30
0.0
 10
20.490257
 20
46.524741
 30
0.0
 10
20.875191
 20
48.594634
 30
0.0
 10
21.858084
 20
50.638154
 30
0.0
  0
SPLINE
  5
22c
100
AcDbEntity
  8
0
 62
7
100
AcDbSpline
 70
8
 71
3
 72
8
 73
4
 74
0
 40
0
 40
0
 40
0
 40
0
 40
1
 40
1
 40
1
 40
1
 10
21.858084
 20
50.638154
 30
0.0
 10
24.157840
 20
55.419540
 30
0.0
 10
27.891809
 20
57.159633
 30
0.0
 10
32.449214
 20
55.573800
 30
0.0
  0
SPLINE
  5
22d
100
AcDbEntity
  8
0
 62
7
100
AcDbSpline
 70
8
 71
3
 72
8
 73
4
 74
0
 40
0
 40
0
 40
0
 40
0
 40
1
 40
1
 40
1
 40
1
 10
32.449214
 20
55.573800
 30
0.0
 10
34.558232
 20
54.839928
 30
0.0
 10
39.816733
 20
51.761324
 30
0.0
 10
40.647371
 20
50.774163
 30
0.0
  0
SPLINE
  5
22e
100
AcDbEntity
  8
0
 62
7
100
AcDbSpline
 70
8
 71
3
 72
8
 73
4
 74
0
 40
0
 40
0
 40
0
 40
0
 40
1
 40
1
 40
1
 40
1
 10
40.647371
 20
50.774163
 30
0.0
 10
42.437013
 20
48.647297
 30
0.0
 10
41.989994
 20
45.541343
 30
0.0
 10
39.312538
 20
41.499531
 30
0.0
  0
SPLINE
  5
22f
100
AcDbEntity
  8
0
 62
7
100
AcDbSpline
 70
8
 71
3
 72
8
 73
4
 74
0
 40
0
 40
0
 40
0
 40
0
 40
1
 40
1
 40
1
 40
1
 10
39.312538
 20
41.499531
 30
0.0
 10
37.592296
 20
38.902704
 30
0.0
 10
35.543421
 20
36.929436
 30
0.0
 10
34.032939
 20
36.414763
 30
0.0
  0
SPLINE
  5
230
100
AcDbEntity
  8
0
 62
7
100
AcDbSpline
 70
8
 71
3
 72
8
 73
4
 74
0
 40
0
 40
0
 40
0
 40
0
 40
1
 40
1
 40
1
 40
1
 10
34.032939
 20
36.414763
 30
0.0
 10
32.430074
 20
35.868613
 30
0.0
 10
31.477979
 20
35.881106
 30
0.0
 10
29.818317
 20
36.470071
 30
0.0
  0
LWPOLYLINE
  5
231
100
AcDbEntity
  8
0
 62
7
100
AcDbPolyline
 90
1
 70
1
 10
23.130314
 20
35.072294
 30
0.0
  0
SPLINE
  5
232
100
AcDbEntity
  8
0
 62
7
100
AcDbSpline
 70
8
 71
3
 72
8
 73
4
 74
0
 40
0
 40
0
 40
0
 40
0
 40
1
 40
1
 40
1
 40
1
 10
32.699762
 20
39.790635
 30
0.0
 10
33.994889
 20
40.331774
 30
0.0
 10
34.644571
 20
41.135165
 30
0.0
 10
35.950424
 20
43.810367
 30
0.0
  0
SPLINE
  5
233
100
AcDbEntity
  8
0
 62
7
100
AcDbSpline
 70
8
 71
3
 72
8
 73
4
 74
0
 40
0
 40
0
 40
0
 40
0
 40
1
 40
1
 40
1
 40
1
 10
35.950424
 20
43.810367
 30
0.0
 10
37.243324
 20
46.459032
 30
0.0
 10
37.679339
 20
48.726868
 30
0.0
 10
37.050938
 20
49.534440
 30
0.0
  0
SPLINE
  5
234
100
AcDbEntity
  8
0
 62
7
100
AcDbSpline
 70
8
 71
3
 72
8
 73
4
 74
0
 40
0
 40
0
 40
0
 40
0
 40
1
 40
1
 40
1
 40
1
 10
37.050938
 20
49.534440
 30
0.0
 10
36.588155
 20
50.129170
 30
0.0
 10
33.935935
 20
50.800000
 30
0.0
 10
32.047368
 20
50.800000
 30
0.0
  0
SPLINE
  5
235
100
AcDbEntity
  8
0
 62
7
100
AcDbSpline
 70
8
 71
3
 72
8
 73
4
 74
0
 40
0
 40
0
 40
0
 40
0
 40
1
 40
1
 40
1
 40
1
 10
32.047368
 20
50.800000
 30
0.0
 10
30.912927
 20
50.800000
 30
0.0
 10
30.374733
 20
50.661242
 30
0.0
 10
29.821595
 20
50.226143
 30
0.0
  0
SPLINE
  5
236
100
AcDbEntity
  8
0
 62
7
100
AcDbSpline
 70
8
 71
3
 72
8
 73
4
 74
0
 40
0
 40
0
 40
0
 40
0
 40
1
 40
1
 40
1
 40
1
 10
29.821595
 20
50.226143
 30
0.0
 10
29.148085
 20
49.696359
 30
0.0
 10
29.103077
 20
49.545473
 30
0.0
 10
29.235580
 20
48.261627
 30
0.0
  0
SPLINE
  5
237
100
AcDbEntity
  8
0
 62
7
100
AcDbSpline
 70
8
 71
3
 72
8
 73
4
 74
0
 40
0
 40
0
 40
0
 40
0
 40
1
 40
1
 40
1
 40
1
 10
29.235580
 20
48.261627
 30
0.0
 10
29.434060
 20
46.338540
 30
0.0
 10
30.298819
 20
44.450000
 30
0.0
 10
30.980917
 20
44.450000
 30
0.0
  0
SPLINE
  5
238
100
AcDbEntity
  8
0
 62
7
100
AcDbSpline
 70
8
 71
3
 72
8
 73
4
 74
0
 40
0
 40
0
 40
0
 40
0
 40
1
 40
1
 40
1
 40
1
 10
30.980917
 20
44.450000
 30
0.0
 10
31.981577
 20
44.450000
 30
0.0
 10
32.098475
 20
45.270650
 30
0.0
 10
31.237494
 20
46.251252
 30
0.0
  0
SPLINE
  5
239
100
AcDbEntity
  8
0
 62
7
100
AcDbSpline
 70
8
 71
3
 72
8
 73
4
 74
0
 40
0
 40
0
 40
0
 40
0
 40
1
 40
1
 40
1
 40
1
 10
31.237494
 20
46.251252
 30
0.0
 10
30.296387
 20
47.323113
 30
0.0
 10
30.474931
 20
47.671299
 30
0.0
 10
32.215585
 20
48.158651
 30
0.0
  0
SPLINE
  5
23a
100
AcDbEntity
  8
0
 62
7
100
AcDbSpline
 70
8
 71
3
 72
8
 73
4
 74
0
 40
0
 40
0
 40
0
 40
0
 40
1
 40
1
 40
1
 40
1
 10
32.215585
 20
48.158651
 30
0.0
 10
34.808274
 20
48.884560
 30
0.0
 10
35.895362
 20
46.953580
 30
0.0
 10
34.455904
 20
44.179191
 30
0.0
  0
SPLINE
  5
23b
100
AcDbEntity
  8
0
 62
7
100
AcDbSpline
 70
8
 71
3
 72
8
 73
4
 74
0
 40
0
 40
0
 40
0
 40
0
 40
1
 40
1
 40
1
 40
1
 10
34.455904
 20
44.179191
 30
0.0
 10
33.477396
 20
42.293230
 30
0.0
 10
32.539821
 20
42.040469
 30
0.0
 10
30.118373
 20
43.009841
 30
0.0
  0
SPLINE
  5
23c
100
AcDbEntity
  8
0
 62
7
100
AcDbSpline
 70
8
 71
3
 72
8
 73
4
 74
0
 40
0
 40
0
 40
0
 40
0
 40
1
 40
1
 40
1
 40
1
 10
30.118373
 20
43.009841
 30
0.0
 10
26.688166
 20
44.383047
 30
0.0
 10
26.308529
 20
45.784566
 30
0.0
 10
28.230817
 20
49.978191
 30
0.0
  0
SPLINE
  5
23d
100
AcDbEntity
  8
0
 62
7
100
AcDbSpline
 70
8
 71
3
 72
8
 73
4
 74
0
 40
0
 40
0
 40
0
 40
0
 40
1
 40
1
 40
1
 40
1
 10
28.230817
 20
49.978191
 30
0.0
 10
29.386567
 20
52.499554
 30
0.0
 10
29.652270
 20
53.445833
 30
0.0
 10
29.204483
 20
53.445833
 30
0.0
  0
SPLINE
  5
23e
100
AcDbEntity
  8
0
 62
7
100
AcDbSpline
 70
8
 71
3
 72
8
 73
4
 74
0
 40
0
 40
0
 40
0
 40
0
 40
1
 40
1
 40
1
 40
1
 10
29.204483
 20
53.445833
 30
0.0
 10
28.616675
 20
53.445833
 30
0.0
 10
26.723194
 20
51.407706
 30
0.0
 10
26.064131
 20
50.065583
 30
0.0
  0
SPLINE
  5
23f
100
AcDbEntity
  8
0
 62
7
100
AcDbSpline
 70
8
 71
3
 72
8
 73
4
 74
0
 40
0
 40
0
 40
0
 40
0
 40
1
 40
1
 40
1
 40
1
 10
26.064131
 20
50.065583
 30
0.0
 10
25.407356
 20
48.728117
 30
0.0
 10
25.320400
 20
48.257169
 30
0.0
 10
25.320400
 20
46.037500
 30
0.0
  0
SPLINE
  5
240
100
AcDbEntity
  8
0
 62
7
100
AcDbSpline
 70
8
 71
3
 72
8
 73
4
 74
0
 40
0
 40
0
 40
0
 40
0
 40
1
 40
1
 40
1
 40
1
 10
25.320400
 20
46.037500
 30
0.0
 10
25.320400
 20
42.291024
 30
0.0
 10
26.192544
 20
40.740195
 30
0.0
 10
28.828532
 20
39.799400
 30
0.0
  0
SPLINE
  5
241
100
AcDbEntity
  8
0
 62
7
100
AcDbSpline
 70
8
 71
3
 72
8
 73
4
 74
0
 40
0
 40
0
 40
0
 40
0
 40
1
 40
1
 40
1
 40
1
 10
28.828532
 20
39.799400
 30
0.0
 10
30.124056
 20
39.337025
 30
0.0
 10
31.606085
 20
39.333667
 30
0.0
 10
32.699762
 20
39.790643
 30
0.0
  0
LWPOLYLINE
  5
242
100
AcDbEntity
  8
0
 62
7
100
AcDbPolyline
 90
1
 70
1
 10
29.818317
 20
36.470071
 30
0.0
  0
SPLINE
  5
243
100
AcDbEntity
  8
0
 62
7
100
AcDbSpline
 70
8
 71
3
 72
8
 73
4
 74
0
 40
0
 40
0
 40
0
 40
0
 40
1
 40
1
 40
1
 40
1
 10
40.864671
 20
37.996820
 30
0.0
 10
39.807393
 20
38.467633
 30
0.0
 10
41.626361
 20
42.333333
 30
0.0
 10
42.905175
 20
42.333333
 30
0.0
  0
SPLINE
  5
244
100
AcDbEntity
  8
0
 62
7
100
AcDbSpline
 70
8
 71
3
 72
8
 73
4
 74
0
 40
0
 40
0
 40
0
 40
0
 40
1
 40
1
 40
1
 40
1
 10
42.905175
 20
42.333333
 30
0.0
 10
43.364896
 20
42.333333
 30
0.0
 10
45.296442
 20
39.666844
 30
0.0
 10
45.296442
 20
39.032201
 30
0.0
  0
SPLINE
  5
245
100
AcDbEntity
  8
0
 62
7
100
AcDbSpline
 70
8
 71
3
 72
8
 73
4
 74
0
 40
0
 40
0
 40
0
 40
0
 40
1
 40
1
 40
1
 40
1
 10
45.296442
 20
39.032201
 30
0.0
 10
45.296442
 20
38.820773
 30
0.0
 10
45.082251
 20
38.533152
 30
0.0
 10
44.820462
 20
38.393047
 30
0.0
  0
SPLINE
  5
246
100
AcDbEntity
  8
0
 62
7
100
AcDbSpline
 70
8
 71
3
 72
8
 73
4
 74
0
 40
0
 40
0
 40
0
 40
0
 40
1
 40
1
 40
1
 40
1
 10
44.820462
 20
38.393047
 30
0.0
 10
44.242717
 20
38.083847
 30
0.0
 10
41.325430
 20
37.791641
 30
0.0
 10
40.864671
 20
37.996820
 30
0.0
  0
LWPOLYLINE
  5
247
100
AcDbEntity
  8
0
 62
7
100
AcDbPolyline
 90
1
 70
1
 10
32.699762
 20
39.790643
 30
0.0
  0
SPLINE
  5
248
100
AcDbEntity
  8
0
 62
7
100
AcDbSpline
 70
8
 71
3
 72
8
 73
4
 74
0
 40
0
 40
0
 40
0
 40
0
 40
1
 40
1
 40
1
 40
1
 10
17.250609
 20
43.391667
 30
0.0
 10
16.923031
 20
43.719247
 30
0.0
 10
16.721442
 20
44.273610
 30
0.0
 10
16.721442
 20
44.846875
 30
0.0
  0
SPLINE
  5
249
100
AcDbEntity
  8
0
 62
7
100
AcDbSpline
 70
8
 71
3
 72
8
 73
4
 74
0
 40
0
 40
0
 40
0
 40
0
 40
1
 40
1
 40
1
 40
1
 10
16.721442
 20
44.846875
 30
0.0
 10
16.721442
 20
45.420140
 30
0.0
 10
16.923031
 20
45.974503
 30
0.0
 10
17.250609
 20
46.302083
 30
0.0
  0
SPLINE
  5
24a
100
AcDbEntity
  8
0
 62
7
100
AcDbSpline
 70
8
 71
3
 72
8
 73
4
 74
0
 40
0
 40
0
 40
0
 40
0
 40
1
 40
1
 40
1
 40
1
 10
17.250609
 20
46.302083
 30
0.0
 10
17.904209
 20
46.955684
 30
0.0
 10
18.091748
 20
46.959652
 30
0.0
 10
18.861715
 20
46.336172
 30
0.0
  0
SPLINE
  5
24b
100
AcDbEntity
  8
0
 62
7
100
AcDbSpline
 70
8
 71
3
 72
8
 73
4
 74
0
 40
0
 40
0
 40
0
 40
0
 40
1
 40
1
 40
1
 40
1
 10
18.861715
 20
46.336172
 30
0.0
 10
19.304215
 20
45.977858
 30
0.0
 10
19.473109
 20
45.566446
 30
0.0
 10
19.473109
 20
44.846875
 30
0.0
  0
SPLINE
  5
24c
100
AcDbEntity
  8
0
 62
7
100
AcDbSpline
 70
8
 71
3
 72
8
 73
4
 74
0
 40
0
 40
0
 40
0
 40
0
 40
1
 40
1
 40
1
 40
1
 10
19.473109
 20
44.846875
 30
0.0
 10
19.473109
 20
44.127304
 30
0.0
 10
19.304215
 20
43.715892
 30
0.0
 10
18.861715
 20
43.357578
 30
0.0
  0
SPLINE
  5
24d
100
AcDbEntity
  8
0
 62
7
100
AcDbSpline
 70
8
 71
3
 72
8
 73
4
 74
0
 40
0
 40
0
 40
0
 40
0
 40
1
 40
1
 40
1
 40
1
 10
18.861715
 20
43.357578
 30
0.0
 10
18.091748
 20
42.734098
 30
0.0
 10
17.904209
 20
42.738066
 30
0.0
 10
17.250609
 20
43.391667
 30
0.0
  0
LWPOLYLINE
  5
24e
100
AcDbEntity
  8
0
 62
7
100
AcDbPolyline
 90
1
 70
1
 10
40.864671
 20
37.996820
 30
0.0
  0
SPLINE
  5
24f
100
AcDbEntity
  8
0
 62
7
100
AcDbSpline
 70
8
 71
3
 72
8
 73
4
 74
0
 40
0
 40
0
 40
0
 40
0
 40
1
 40
1
 40
1
 40
1
 10
42.082461
 20
52.650358
 30
0.0
 10
40.997188
 20
53.735634
 30
0.0
 10
41.111853
 20
54.652407
 30
0.0
 10
42.325912
 20
54.596789
 30
0.0
  0
SPLINE
  5
250
100
AcDbEntity
  8
0
 62
7
100
AcDbSpline
 70
8
 71
3
 72
8
 73
4
 74
0
 40
0
 40
0
 40
0
 40
0
 40
1
 40
1
 40
1
 40
1
 10
42.325912
 20
54.596789
 30
0.0
 10
44.122840
 20
54.514472
 30
0.0
 10
45.061095
 20
53.239445
 30
0.0
 10
44.018838
 20
52.296216
 30
0.0
  0
SPLINE
  5
251
100
AcDbEntity
  8
0
 62
7
100
AcDbSpline
 70
8
 71
3
 72
8
 73
4
 74
0
 40
0
 40
0
 40
0
 40
0
 40
1
 40
1
 40
1
 40
1
 10
44.018838
 20
52.296216
 30
0.0
 10
43.338623
 20
51.680629
 30
0.0
 10
42.988079
 20
51.744740
 30
0.0
 10
42.082461
 20
52.650358
 30
0.0
  0
LWPOLYLINE
  5
252
100
AcDbEntity
  8
0
 62
7
100
AcDbPolyline
 90
1
 70
1
 10
17.250609
 20
43.391667
 30
0.0
  0
SPLINE
  5
253
100
AcDbEntity
  8
0
 62
7
100
AcDbSpline
 70
8
 71
3
 72
8
 73
4
 74
0
 40
0
 40
0
 40
0
 40
0
 40
1
 40
1
 40
1
 40
1
 10
21.278231
 20
55.180627
 30
0.0
 10
20.498335
 20
55.726888
 30
0.0
 10
20.516856
 20
56.759642
 30
0.0
 10
21.315937
 20
57.283223
 30
0.0
  0
SPLINE
  5
254
100
AcDbEntity
  8
0
 62
7
100
AcDbSpline
 70
8
 71
3
 72
8
 73
4
 74
0
 40
0
 40
0
 40
0
 40
0
 40
1
 40
1
 40
1
 40
1
 10
21.315937
 20
57.283223
 30
0.0
 10
22.679248
 20
58.176499
 30
0.0
 10
24.274534
 20
56.481139
 30
0.0
 10
23.194087
 20
55.287257
 30
0.0
  0
SPLINE
  5
255
100
AcDbEntity
  8
0
 62
7
100
AcDbSpline
 70
8
 71
3
 72
8
 73
4
 74
0
 40
0
 40
0
 40
0
 40
0
 40
1
 40
1
 40
1
 40
1
 10
23.194087
 20
55.287257
 30
0.0
 10
22.627892
 20
54.661620
 30
0.0
 10
22.064022
 20
54.630238
 30
0.0
 10
21.278231
 20
55.180627
 30
0.0
  0
LWPOLYLINE
  5
256
100
AcDbEntity
  8
0
 62
7
100
AcDbPolyline
 90
1
 70
1
 10
42.082461
 20
52.650358
 30
0.0
  0
SPLINE
  5
257
100
AcDbEntity
  8
0
 62
7
100
AcDbSpline
 70
8
 71
3
 72
8
 73
4
 74
0
 40
0
 40
0
 40
0
 40
0
 40
1
 40
1
 40
1
 40
1
 10
30.910300
 20
57.745313
 30
0.0
 10
30.245905
 20
58.798849
 30
0.0
 10
30.135751
 20
59.517373
 30
0.0
 10
30.610696
 20
59.699628
 30
0.0
  0
SPLINE
  5
258
100
AcDbEntity
  8
0
 62
7
100
AcDbSpline
 70
8
 71
3
 72
8
 73
4
 74
0
 40
0
 40
0
 40
0
 40
0
 40
1
 40
1
 40
1
 40
1
 10
30.610696
 20
59.699628
 30
0.0
 10
31.229824
 20
59.937208
 30
0.0
 10
32.308808
 20
59.372960
 30
0.0
 10
32.572907
 20
58.673505
 30
0.0
  0
SPLINE
  5
259
100
AcDbEntity
  8
0
 62
7
100
AcDbSpline
 70
8
 71
3
 72
8
 73
4
 74
0
 40
0
 40
0
 40
0
 40
0
 40
1
 40
1
 40
1
 40
1
 10
32.572907
 20
58.673505
 30
0.0
 10
33.070496
 20
57.355658
 30
0.0
 10
31.654538
 20
56.565168
 30
0.0
 10
30.910300
 20
57.745313
 30
0.0
  0
LWPOLYLINE
  5
25a
100
AcDbEntity
  8
0
 62
7
100
AcDbPolyline
 90
1
 70
1
 10
21.278231
 20
55.180627
 30
0.0
  0
LWPOLYLINE
  5
25b
100
AcDbEntity
  8
0
 62
7
100
AcDbPolyline
 90
1
 70
1
 10
30.910300
 20
57.745313
 30
0.0
  0
ENDSEC
  0
SECTION
  2
OBJECTS
  0
DICTIONARY
  5
C
330
0
100
AcDbDictionary
  3
ACAD_GROUP
350
D
  3
ACAD_MLINESTYLE
350
17
  0
DICTIONARY
  5
D
330
C
100
AcDbDictionary
  0
DICTIONARY
  5
1A
330
C
100
AcDbDictionary
  0
DICTIONARY
  5
17
330
C
100
AcDbDictionary
  3
STANDARD
350
18
  0
DICTIONARY
  5
19
330
C
100
AcDbDictionary
  0
ENDSEC
  0
EOF
