  0
SECTION
  2
HEADER
  9
$ACADVER
  1
AC1014
  9
$HANDSEED
  5
FFFF
  9
$MEASUREMENT
 70
     1
  0
ENDSEC
  0
SECTION
  2
TABLES
  0
TABLE
  2
VPORT
  5
8
330
0
100
AcDbSymbolTable
 70
     4
  0
VPORT
  5
2E
330
8
100
AcDbSymbolTableRecord
100
AcDbViewportTableRecord
  2
*ACTIVE
 70
     0
 10
0.0
 20
0.0
 11
1.0
 21
1.0
 12
210.0
 22
148.5
 13
0.0
 23
0.0
 14
10.0
 24
10.0
 15
10.0
 25
10.0
 16
0.0
 26
0.0
 36
1.0
 17
0.0
 27
0.0
 37
0.0
 40
341.0
 41
1.24
 42
50.0
 43
0.0
 44
0.0
 50
0.0
 51
0.0
 71
     0
 72
   100
 73
     1
 74
     3
 75
     0
 76
     0
 77
     0
 78
     0
  0
ENDTAB
  0
TABLE
  2
LTYPE
  5
5
330
0
100
AcDbSymbolTable
 70
     1
  0
LTYPE
  5
14
330
5
100
AcDbSymbolTableRecord
100
AcDbLinetypeTableRecord
  2
BYBLOCK
 70
     0
  3

 72
    65
 73
     0
 40
0.0
  0
LTYPE
  5
15
330
5
100
AcDbSymbolTableRecord
100
AcDbLinetypeTableRecord
  2
BYLAYER
 70
     0
  3

 72
    65
 73
     0
 40
0.0
  0
LTYPE
  5
16
330
5
100
AcDbSymbolTableRecord
100
AcDbLinetypeTableRecord
  2
CONTINUOUS
 70
     0
  3
Solid line
 72
    65
 73
     0
 40
0.0
  0
ENDTAB
  0
TABLE
  2
LAYER
  5
2
100
AcDbSymbolTable
 70
1
  0
LAYER
  5
50
100
AcDbSymbolTableRecord
100
AcDbLayerTableRecord
  2
0
 70
0
  6
CONTINUOUS
  0
ENDTAB
  0
TABLE
  2
STYLE
  5
3
330
0
100
AcDbSymbolTable
 70
     1
  0
STYLE
  5
11
330
3
100
AcDbSymbolTableRecord
100
AcDbTextStyleTableRecord
  2
STANDARD
 70
     0
 40
0.0
 41
1.0
 50
0.0
 71
     0
 42
2.5
  3
txt
  4

  0
ENDTAB
  0
TABLE
  2
VIEW
  5
6
330
0
100
AcDbSymbolTable
 70
     0
  0
ENDTAB
  0
TABLE
  2
UCS
  5
7
330
0
100
AcDbSymbolTable
 70
     0
  0
ENDTAB
  0
TABLE
  2
APPID
  5
9
330
0
100
AcDbSymbolTable
 70
     2
  0
APPID
  5
12
330
9
100
AcDbSymbolTableRecord
100
AcDbRegAppTableRecord
  2
ACAD
 70
     0
  0
ENDTAB
  0
TABLE
  2
DIMSTYLE
  5
A
330
0
100
AcDbSymbolTable
 70
     1
  0
DIMSTYLE
105
27
330
A
100
AcDbSymbolTableRecord
100
AcDbDimStyleTableRecord
  2
ISO-25
 70
     0
  3

  4

  5

  6

  7

 40
1.0
 41
2.5
 42
0.625
 43
3.75
 44
1.25
 45
0.0
 46
0.0
 47
0.0
 48
0.0
140
2.5
141
2.5
142
0.0
143
0.03937007874016
144
1.0
145
0.0
146
1.0
147
0.625
 71
     0
 72
     0
 73
     0
 74
     0
 75
     0
 76
     0
 77
     1
 78
     8
170
     0
171
     3
172
     1
173
     0
174
     0
175
     0
176
     0
177
     0
178
     0
270
     2
271
     2
272
     2
273
     2
274
     3
340
11
275
     0
280
     0
281
     0
282
     0
283
     0
284
     8
285
     0
286
     0
287
     3
288
     0
  0
ENDTAB
  0
TABLE
  2
BLOCK_RECORD
  5
1
330
0
100
AcDbSymbolTable
 70
     1
  0
BLOCK_RECORD
  5
1F
330
1
100
AcDbSymbolTableRecord
100
AcDbBlockTableRecord
  2
*MODEL_SPACE
  0
BLOCK_RECORD
  5
1B
330
1
100
AcDbSymbolTableRecord
100
AcDbBlockTableRecord
  2
*PAPER_SPACE
  0
ENDTAB
  0
ENDSEC
  0
SECTION
  2
BLOCKS
  0
BLOCK
  5
20
330
1F
100
AcDbEntity
  8
0
100
AcDbBlockBegin
  2
*MODEL_SPACE
 70
     0
 10
0.0
 20
0.0
 30
0.0
  3
*MODEL_SPACE
  1

  0
ENDBLK
  5
21
330
1F
100
AcDbEntity
  8
0
100
AcDbBlockEnd
  0
BLOCK
  5
1C
330
1B
100
AcDbEntity
 67
     1
  8
0
100
AcDbBlockBegin
  2
*PAPER_SPACE
  1

  0
ENDBLK
  5
1D
330
1B
100
AcDbEntity
 67
     1
  8
0
100
AcDbBlockEnd
  0
ENDSEC
  0
SECTION
  2
ENTITIES
  0
SPLINE
  5
100
100
AcDbEntity
  8
0
 62
7
100
AcDbSpline
 70
8
 71
3
 72
8
 73
4
 74
0
 40
0
 40
0
 40
0
 40
0
 40
1
 40
1
 40
1
 40
1
 10
130.997899
 20
3.804888
 30
0.0
 10
130.063322
 20
4.318683
 30
0.0
 10
128.454094
 20
5.983200
 30
0.0
 10
127.951931
 20
6.955512
 30
0.0
  0
SPLINE
  5
101
100
AcDbEntity
  8
0
 62
7
100
AcDbSpline
 70
8
 71
3
 72
8
 73
4
 74
0
 40
0
 40
0
 40
0
 40
0
 40
1
 40
1
 40
1
 40
1
 10
127.951931
 20
6.955512
 30
0.0
 10
127.322016
 20
8.175188
 30
0.0
 10
125.676610
 20
9.652868
 30
0.0
 10
124.005441
 20
10.499712
 30
0.0
  0
SPLINE
  5
102
100
AcDbEntity
  8
0
 62
7
100
AcDbSpline
 70
8
 71
3
 72
8
 73
4
 74
0
 40
0
 40
0
 40
0
 40
0
 40
1
 40
1
 40
1
 40
1
 10
124.005441
 20
10.499712
 30
0.0
 10
121.900807
 20
11.566210
 30
0.0
 10
121.677443
 20
12.396806
 30
0.0
 10
122.958434
 20
14.393058
 30
0.0
  0
SPLINE
  5
103
100
AcDbEntity
  8
0
 62
7
100
AcDbSpline
 70
8
 71
3
 72
8
 73
4
 74
0
 40
0
 40
0
 40
0
 40
0
 40
1
 40
1
 40
1
 40
1
 10
122.958434
 20
14.393058
 30
0.0
 10
123.706789
 20
15.559270
 30
0.0
 10
123.752605
 20
15.749471
 30
0.0
 10
123.457041
 20
16.463023
 30
0.0
  0
SPLINE
  5
104
100
AcDbEntity
  8
0
 62
7
100
AcDbSpline
 70
8
 71
3
 72
8
 73
4
 74
0
 40
0
 40
0
 40
0
 40
0
 40
1
 40
1
 40
1
 40
1
 10
123.457041
 20
16.463023
 30
0.0
 10
123.043775
 20
17.460738
 30
0.0
 10
120.820540
 20
19.756697
 30
0.0
 10
119.051380
 20
21.012796
 30
0.0
  0
SPLINE
  5
105
100
AcDbEntity
  8
0
 62
7
100
AcDbSpline
 70
8
 71
3
 72
8
 73
4
 74
0
 40
0
 40
0
 40
0
 40
0
 40
1
 40
1
 40
1
 40
1
 10
117.536233
 20
21.139790
 30
0.0
 10
117.363288
 20
20.182784
 30
0.0
 10
117.251057
 20
11.758261
 30
0.0
 10
117.403869
 20
11.203871
 30
0.0
  0
SPLINE
  5
106
100
AcDbEntity
  8
0
 62
7
100
AcDbSpline
 70
8
 71
3
 72
8
 73
4
 74
0
 40
0
 40
0
 40
0
 40
0
 40
1
 40
1
 40
1
 40
1
 10
117.403869
 20
11.203871
 30
0.0
 10
117.582609
 20
10.555422
 30
0.0
 10
116.929368
 20
10.602862
 30
0.0
 10
116.102821
 20
11.298354
 30
0.0
  0
SPLINE
  5
107
100
AcDbEntity
  8
0
 62
7
100
AcDbSpline
 70
8
 71
3
 72
8
 73
4
 74
0
 40
0
 40
0
 40
0
 40
0
 40
1
 40
1
 40
1
 40
1
 10
116.102821
 20
11.298354
 30
0.0
 10
114.797615
 20
12.396613
 30
0.0
 10
113.932274
 20
14.427700
 30
0.0
 10
113.932274
 20
16.392962
 30
0.0
  0
SPLINE
  5
108
100
AcDbEntity
  8
0
 62
7
100
AcDbSpline
 70
8
 71
3
 72
8
 73
4
 74
0
 40
0
 40
0
 40
0
 40
0
 40
1
 40
1
 40
1
 40
1
 10
113.932274
 20
16.392962
 30
0.0
 10
113.932274
 20
17.755746
 30
0.0
 10
113.777559
 20
18.368920
 30
0.0
 10
113.110111
 20
19.651379
 30
0.0
  0
SPLINE
  5
109
100
AcDbEntity
  8
0
 62
7
100
AcDbSpline
 70
8
 71
3
 72
8
 73
4
 74
0
 40
0
 40
0
 40
0
 40
0
 40
1
 40
1
 40
1
 40
1
 10
113.110111
 20
19.651379
 30
0.0
 10
112.299829
 20
21.208280
 30
0.0
 10
112.294802
 20
21.241591
 30
0.0
 10
112.762310
 20
21.955646
 30
0.0
  0
SPLINE
  5
10a
100
AcDbEntity
  8
0
 62
7
100
AcDbSpline
 70
8
 71
3
 72
8
 73
4
 74
0
 40
0
 40
0
 40
0
 40
0
 40
1
 40
1
 40
1
 40
1
 10
112.762310
 20
21.955646
 30
0.0
 10
113.023211
 20
22.354135
 30
0.0
 10
113.512248
 20
22.897174
 30
0.0
 10
113.849057
 20
23.162398
 30
0.0
  0
SPLINE
  5
10b
100
AcDbEntity
  8
0
 62
7
100
AcDbSpline
 70
8
 71
3
 72
8
 73
4
 74
0
 40
0
 40
0
 40
0
 40
0
 40
1
 40
1
 40
1
 40
1
 10
113.849057
 20
23.162398
 30
0.0
 10
114.726852
 20
23.853622
 30
0.0
 10
114.663463
 20
25.816012
 30
0.0
 10
113.685159
 20
28.236423
 30
0.0
  0
LWPOLYLINE
  5
10c
100
AcDbEntity
  8
0
 62
7
100
AcDbPolyline
 90
3
 70
0
 10
119.051380
 20
21.012796
 30
0.0
 10
117.688193
 20
21.980655
 30
0.0
 10
117.536233
 20
21.139790
 30
0.0
  0
SPLINE
  5
10d
100
AcDbEntity
  8
0
 62
7
100
AcDbSpline
 70
8
 71
3
 72
8
 73
4
 74
0
 40
0
 40
0
 40
0
 40
0
 40
1
 40
1
 40
1
 40
1
 10
111.679744
 20
30.170575
 30
0.0
 10
110.628837
 20
30.239195
 30
0.0
 10
109.995904
 20
30.047838
 30
0.0
 10
107.816555
 20
29.002590
 30
0.0
  0
LWPOLYLINE
  5
10e
100
AcDbEntity
  8
0
 62
7
100
AcDbPolyline
 90
3
 70
0
 10
113.685159
 20
28.236423
 30
0.0
 10
112.936568
 20
30.088507
 30
0.0
 10
111.679744
 20
30.170575
 30
0.0
  0
SPLINE
  5
10f
100
AcDbEntity
  8
0
 62
7
100
AcDbSpline
 70
8
 71
3
 72
8
 73
4
 74
0
 40
0
 40
0
 40
0
 40
0
 40
1
 40
1
 40
1
 40
1
 10
104.411854
 20
26.046546
 30
0.0
 10
103.502651
 20
24.103624
 30
0.0
 10
103.410594
 20
23.221540
 30
0.0
 10
104.076545
 20
22.833658
 30
0.0
  0
SPLINE
  5
110
100
AcDbEntity
  8
0
 62
7
100
AcDbSpline
 70
8
 71
3
 72
8
 73
4
 74
0
 40
0
 40
0
 40
0
 40
0
 40
1
 40
1
 40
1
 40
1
 10
104.076545
 20
22.833658
 30
0.0
 10
104.476108
 20
22.600933
 30
0.0
 10
104.444284
 20
22.562870
 30
0.0
 10
103.844357
 20
22.555928
 30
0.0
  0
SPLINE
  5
111
100
AcDbEntity
  8
0
 62
7
100
AcDbSpline
 70
8
 71
3
 72
8
 73
4
 74
0
 40
0
 40
0
 40
0
 40
0
 40
1
 40
1
 40
1
 40
1
 10
103.844357
 20
22.555928
 30
0.0
 10
102.751057
 20
22.543281
 30
0.0
 10
102.457324
 20
23.126525
 30
0.0
 10
102.646327
 20
24.934799
 30
0.0
  0
SPLINE
  5
112
100
AcDbEntity
  8
0
 62
7
100
AcDbSpline
 70
8
 71
3
 72
8
 73
4
 74
0
 40
0
 40
0
 40
0
 40
0
 40
1
 40
1
 40
1
 40
1
 10
102.646327
 20
24.934799
 30
0.0
 10
102.737261
 20
25.804807
 30
0.0
 10
102.720095
 20
26.516632
 30
0.0
 10
102.608182
 20
26.516632
 30
0.0
  0
SPLINE
  5
113
100
AcDbEntity
  8
0
 62
7
100
AcDbSpline
 70
8
 71
3
 72
8
 73
4
 74
0
 40
0
 40
0
 40
0
 40
0
 40
1
 40
1
 40
1
 40
1
 10
102.608182
 20
26.516632
 30
0.0
 10
102.233227
 20
26.516632
 30
0.0
 10
101.518434
 20
25.024890
 30
0.0
 10
101.328807
 20
23.846631
 30
0.0
  0
LWPOLYLINE
  5
114
100
AcDbEntity
  8
0
 62
7
100
AcDbPolyline
 90
3
 70
0
 10
107.816555
 20
29.002590
 30
0.0
 10
105.210184
 20
27.752537
 30
0.0
 10
104.411854
 20
26.046546
 30
0.0
  0
SPLINE
  5
115
100
AcDbEntity
  8
0
 62
7
100
AcDbSpline
 70
8
 71
3
 72
8
 73
4
 74
0
 40
0
 40
0
 40
0
 40
0
 40
1
 40
1
 40
1
 40
1
 10
100.664447
 20
23.738507
 30
0.0
 10
100.402300
 20
24.320590
 30
0.0
 10
100.184696
 20
24.592449
 30
0.0
 10
100.180878
 20
24.342638
 30
0.0
  0
SPLINE
  5
116
100
AcDbEntity
  8
0
 62
7
100
AcDbSpline
 70
8
 71
3
 72
8
 73
4
 74
0
 40
0
 40
0
 40
0
 40
0
 40
1
 40
1
 40
1
 40
1
 10
100.180878
 20
24.342638
 30
0.0
 10
100.170480
 20
23.662383
 30
0.0
 10
98.545187
 20
22.165905
 30
0.0
 10
96.111899
 20
20.596169
 30
0.0
  0
SPLINE
  5
117
100
AcDbEntity
  8
0
 62
7
100
AcDbSpline
 70
8
 71
3
 72
8
 73
4
 74
0
 40
0
 40
0
 40
0
 40
0
 40
1
 40
1
 40
1
 40
1
 10
96.111899
 20
20.596169
 30
0.0
 10
93.247578
 20
18.748372
 30
0.0
 10
92.506864
 20
17.542272
 30
0.0
 10
93.126380
 20
15.734861
 30
0.0
  0
SPLINE
  5
118
100
AcDbEntity
  8
0
 62
7
100
AcDbSpline
 70
8
 71
3
 72
8
 73
4
 74
0
 40
0
 40
0
 40
0
 40
0
 40
1
 40
1
 40
1
 40
1
 10
93.126380
 20
15.734861
 30
0.0
 10
93.433257
 20
14.839569
 30
0.0
 10
92.882879
 20
15.011419
 30
0.0
 10
92.502535
 20
15.929652
 30
0.0
  0
SPLINE
  5
119
100
AcDbEntity
  8
0
 62
7
100
AcDbSpline
 70
8
 71
3
 72
8
 73
4
 74
0
 40
0
 40
0
 40
0
 40
0
 40
1
 40
1
 40
1
 40
1
 10
92.502535
 20
15.929652
 30
0.0
 10
92.101019
 20
16.898993
 30
0.0
 10
92.331455
 20
18.691728
 30
0.0
 10
92.997245
 20
19.778374
 30
0.0
  0
SPLINE
  5
11a
100
AcDbEntity
  8
0
 62
7
100
AcDbSpline
 70
8
 71
3
 72
8
 73
4
 74
0
 40
0
 40
0
 40
0
 40
0
 40
1
 40
1
 40
1
 40
1
 10
92.997245
 20
19.778374
 30
0.0
 10
93.261823
 20
20.210198
 30
0.0
 10
94.219215
 20
21.378717
 30
0.0
 10
95.124783
 20
22.375085
 30
0.0
  0
SPLINE
  5
11b
100
AcDbEntity
  8
0
 62
7
100
AcDbSpline
 70
8
 71
3
 72
8
 73
4
 74
0
 40
0
 40
0
 40
0
 40
0
 40
1
 40
1
 40
1
 40
1
 10
95.124783
 20
22.375085
 30
0.0
 10
96.030352
 20
23.371453
 30
0.0
 10
96.718112
 20
24.239821
 30
0.0
 10
96.653141
 20
24.304794
 30
0.0
  0
SPLINE
  5
11c
100
AcDbEntity
  8
0
 62
7
100
AcDbSpline
 70
8
 71
3
 72
8
 73
4
 74
0
 40
0
 40
0
 40
0
 40
0
 40
1
 40
1
 40
1
 40
1
 10
96.653141
 20
24.304794
 30
0.0
 10
96.588167
 20
24.369765
 30
0.0
 10
96.032243
 20
24.268930
 30
0.0
 10
95.417754
 20
24.080716
 30
0.0
  0
SPLINE
  5
11d
100
AcDbEntity
  8
0
 62
7
100
AcDbSpline
 70
8
 71
3
 72
8
 73
4
 74
0
 40
0
 40
0
 40
0
 40
0
 40
1
 40
1
 40
1
 40
1
 10
95.417754
 20
24.080716
 30
0.0
 10
94.250685
 20
23.723248
 30
0.0
 10
93.117800
 20
22.519116
 30
0.0
 10
93.447164
 20
21.986195
 30
0.0
  0
SPLINE
  5
11e
100
AcDbEntity
  8
0
 62
7
100
AcDbSpline
 70
8
 71
3
 72
8
 73
4
 74
0
 40
0
 40
0
 40
0
 40
0
 40
1
 40
1
 40
1
 40
1
 10
93.447164
 20
21.986195
 30
0.0
 10
93.560381
 20
21.803008
 30
0.0
 10
93.489367
 20
21.732722
 30
0.0
 10
93.265458
 20
21.806358
 30
0.0
  0
SPLINE
  5
11f
100
AcDbEntity
  8
0
 62
7
100
AcDbSpline
 70
8
 71
3
 72
8
 73
4
 74
0
 40
0
 40
0
 40
0
 40
0
 40
1
 40
1
 40
1
 40
1
 10
93.265458
 20
21.806358
 30
0.0
 10
93.063301
 20
21.872837
 30
0.0
 10
92.861836
 20
22.228773
 30
0.0
 10
92.817760
 20
22.597324
 30
0.0
  0
LWPOLYLINE
  5
120
100
AcDbEntity
  8
0
 62
7
100
AcDbPolyline
 90
3
 70
0
 10
101.328807
 20
23.846631
 30
0.0
 10
101.141075
 20
22.680173
 30
0.0
 10
100.664447
 20
23.738507
 30
0.0
  0
SPLINE
  5
121
100
AcDbEntity
  8
0
 62
7
100
AcDbSpline
 70
8
 71
3
 72
8
 73
4
 74
0
 40
0
 40
0
 40
0
 40
0
 40
1
 40
1
 40
1
 40
1
 10
90.410030
 20
22.790004
 30
0.0
 10
84.891967
 20
21.658199
 30
0.0
 10
81.930613
 20
21.377291
 30
0.0
 10
75.567691
 20
21.382098
 30
0.0
  0
SPLINE
  5
122
100
AcDbEntity
  8
0
 62
7
100
AcDbSpline
 70
8
 71
3
 72
8
 73
4
 74
0
 40
0
 40
0
 40
0
 40
0
 40
1
 40
1
 40
1
 40
1
 10
75.567691
 20
21.382098
 30
0.0
 10
67.072925
 20
21.388528
 30
0.0
 10
61.577765
 20
22.201137
 30
0.0
 10
54.224039
 20
24.538382
 30
0.0
  0
SPLINE
  5
123
100
AcDbEntity
  8
0
 62
7
100
AcDbSpline
 70
8
 71
3
 72
8
 73
4
 74
0
 40
0
 40
0
 40
0
 40
0
 40
1
 40
1
 40
1
 40
1
 10
54.224039
 20
24.538382
 30
0.0
 10
46.700239
 20
26.929678
 30
0.0
 10
40.193820
 20
30.278274
 30
0.0
 10
33.763524
 20
35.068597
 30
0.0
  0
SPLINE
  5
124
100
AcDbEntity
  8
0
 62
7
100
AcDbSpline
 70
8
 71
3
 72
8
 73
4
 74
0
 40
0
 40
0
 40
0
 40
0
 40
1
 40
1
 40
1
 40
1
 10
33.763524
 20
35.068597
 30
0.0
 10
31.078466
 20
37.068861
 30
0.0
 10
24.275335
 20
43.688746
 30
0.0
 10
22.431076
 20
46.095798
 30
0.0
  0
SPLINE
  5
125
100
AcDbEntity
  8
0
 62
7
100
AcDbSpline
 70
8
 71
3
 72
8
 73
4
 74
0
 40
0
 40
0
 40
0
 40
0
 40
1
 40
1
 40
1
 40
1
 10
22.431076
 20
46.095798
 30
0.0
 10
16.219485
 20
54.202915
 30
0.0
 10
12.128714
 20
63.469785
 30
0.0
 10
10.576105
 20
72.951007
 30
0.0
  0
SPLINE
  5
126
100
AcDbEntity
  8
0
 62
7
100
AcDbSpline
 70
8
 71
3
 72
8
 73
4
 74
0
 40
0
 40
0
 40
0
 40
0
 40
1
 40
1
 40
1
 40
1
 10
10.576105
 20
72.951007
 30
0.0
 10
9.906087
 20
77.042563
 30
0.0
 10
9.907217
 20
86.341479
 30
0.0
 10
10.578221
 20
90.395018
 30
0.0
  0
SPLINE
  5
127
100
AcDbEntity
  8
0
 62
7
100
AcDbSpline
 70
8
 71
3
 72
8
 73
4
 74
0
 40
0
 40
0
 40
0
 40
0
 40
1
 40
1
 40
1
 40
1
 10
10.578221
 20
90.395018
 30
0.0
 10
12.814813
 20
103.906185
 30
0.0
 10
19.880855
 20
116.339453
 30
0.0
 10
30.565058
 20
125.563451
 30
0.0
  0
SPLINE
  5
128
100
AcDbEntity
  8
0
 62
7
100
AcDbSpline
 70
8
 71
3
 72
8
 73
4
 74
0
 40
0
 40
0
 40
0
 40
0
 40
1
 40
1
 40
1
 40
1
 10
30.565058
 20
125.563451
 30
0.0
 10
36.154889
 20
130.389321
 30
0.0
 10
41.445849
 20
133.648824
 30
0.0
 10
48.580188
 20
136.661690
 30
0.0
  0
SPLINE
  5
129
100
AcDbEntity
  8
0
 62
7
100
AcDbSpline
 70
8
 71
3
 72
8
 73
4
 74
0
 40
0
 40
0
 40
0
 40
0
 40
1
 40
1
 40
1
 40
1
 10
48.580188
 20
136.661690
 30
0.0
 10
61.085016
 20
141.942538
 30
0.0
 10
75.646388
 20
143.324335
 30
0.0
 10
89.803401
 20
140.573554
 30
0.0
  0
SPLINE
  5
12a
100
AcDbEntity
  8
0
 62
7
100
AcDbSpline
 70
8
 71
3
 72
8
 73
4
 74
0
 40
0
 40
0
 40
0
 40
0
 40
1
 40
1
 40
1
 40
1
 10
89.803401
 20
140.573554
 30
0.0
 10
92.394016
 20
140.070185
 30
0.0
 10
99.618699
 20
138.016632
 30
0.0
 10
99.963698
 20
137.685580
 30
0.0
  0
SPLINE
  5
12b
100
AcDbEntity
  8
0
 62
7
100
AcDbSpline
 70
8
 71
3
 72
8
 73
4
 74
0
 40
0
 40
0
 40
0
 40
0
 40
1
 40
1
 40
1
 40
1
 10
99.963698
 20
137.685580
 30
0.0
 10
100.066345
 20
137.587078
 30
0.0
 10
99.213032
 20
137.549055
 30
0.0
 10
98.067442
 20
137.601077
 30
0.0
  0
SPLINE
  5
12c
100
AcDbEntity
  8
0
 62
7
100
AcDbSpline
 70
8
 71
3
 72
8
 73
4
 74
0
 40
0
 40
0
 40
0
 40
0
 40
1
 40
1
 40
1
 40
1
 10
98.067442
 20
137.601077
 30
0.0
 10
92.303510
 20
137.862832
 30
0.0
 10
81.420417
 20
136.422493
 30
0.0
 10
75.038522
 20
134.553281
 30
0.0
  0
SPLINE
  5
12d
100
AcDbEntity
  8
0
 62
7
100
AcDbSpline
 70
8
 71
3
 72
8
 73
4
 74
0
 40
0
 40
0
 40
0
 40
0
 40
1
 40
1
 40
1
 40
1
 10
75.038522
 20
134.553281
 30
0.0
 10
59.387555
 20
129.969226
 30
0.0
 10
46.654350
 20
121.140482
 30
0.0
 10
38.691606
 20
109.351638
 30
0.0
  0
SPLINE
  5
12e
100
AcDbEntity
  8
0
 62
7
100
AcDbSpline
 70
8
 71
3
 72
8
 73
4
 74
0
 40
0
 40
0
 40
0
 40
0
 40
1
 40
1
 40
1
 40
1
 10
38.691606
 20
109.351638
 30
0.0
 10
36.900064
 20
106.699259
 30
0.0
 10
34.050147
 20
100.992604
 30
0.0
 10
33.131797
 20
98.218715
 30
0.0
  0
SPLINE
  5
12f
100
AcDbEntity
  8
0
 62
7
100
AcDbSpline
 70
8
 71
3
 72
8
 73
4
 74
0
 40
0
 40
0
 40
0
 40
0
 40
1
 40
1
 40
1
 40
1
 10
33.131797
 20
98.218715
 30
0.0
 10
28.518295
 20
84.283545
 30
0.0
 10
30.528530
 20
70.073708
 30
0.0
 10
38.877306
 20
57.605173
 30
0.0
  0
SPLINE
  5
130
100
AcDbEntity
  8
0
 62
7
100
AcDbSpline
 70
8
 71
3
 72
8
 73
4
 74
0
 40
0
 40
0
 40
0
 40
0
 40
1
 40
1
 40
1
 40
1
 10
38.877306
 20
57.605173
 30
0.0
 10
41.099248
 20
54.286798
 30
0.0
 10
42.146982
 20
53.042002
 30
0.0
 10
45.793512
 20
49.388130
 30
0.0
  0
SPLINE
  5
131
100
AcDbEntity
  8
0
 62
7
100
AcDbSpline
 70
8
 71
3
 72
8
 73
4
 74
0
 40
0
 40
0
 40
0
 40
0
 40
1
 40
1
 40
1
 40
1
 10
45.793512
 20
49.388130
 30
0.0
 10
49.818761
 20
45.354780
 30
0.0
 10
53.827389
 20
42.290235
 30
0.0
 10
58.921497
 20
39.351958
 30
0.0
  0
SPLINE
  5
132
100
AcDbEntity
  8
0
 62
7
100
AcDbSpline
 70
8
 71
3
 72
8
 73
4
 74
0
 40
0
 40
0
 40
0
 40
0
 40
1
 40
1
 40
1
 40
1
 10
58.921497
 20
39.351958
 30
0.0
 10
62.456788
 20
37.312804
 30
0.0
 10
69.130302
 20
34.374497
 30
0.0
 10
72.524980
 20
33.362429
 30
0.0
  0
SPLINE
  5
133
100
AcDbEntity
  8
0
 62
7
100
AcDbSpline
 70
8
 71
3
 72
8
 73
4
 74
0
 40
0
 40
0
 40
0
 40
0
 40
1
 40
1
 40
1
 40
1
 10
72.524980
 20
33.362429
 30
0.0
 10
73.542139
 20
33.059179
 30
0.0
 10
77.308911
 20
33.587320
 30
0.0
 10
77.827486
 20
34.105895
 30
0.0
  0
SPLINE
  5
134
100
AcDbEntity
  8
0
 62
7
100
AcDbSpline
 70
8
 71
3
 72
8
 73
4
 74
0
 40
0
 40
0
 40
0
 40
0
 40
1
 40
1
 40
1
 40
1
 10
77.827486
 20
34.105895
 30
0.0
 10
78.347443
 20
34.625849
 30
0.0
 10
78.895993
 20
36.632788
 30
0.0
 10
79.549826
 20
40.407257
 30
0.0
  0
SPLINE
  5
135
100
AcDbEntity
  8
0
 62
7
100
AcDbSpline
 70
8
 71
3
 72
8
 73
4
 74
0
 40
0
 40
0
 40
0
 40
0
 40
1
 40
1
 40
1
 40
1
 10
79.549826
 20
40.407257
 30
0.0
 10
79.852322
 20
42.153507
 30
0.0
 10
80.162392
 20
43.939444
 30
0.0
 10
80.238873
 20
44.376007
 30
0.0
  0
LWPOLYLINE
  5
136
100
AcDbEntity
  8
0
 62
7
100
AcDbPolyline
 90
3
 70
0
 10
92.817760
 20
22.597324
 30
0.0
 10
92.737620
 20
23.267416
 30
0.0
 10
90.410030
 20
22.790004
 30
0.0
  0
SPLINE
  5
137
100
AcDbEntity
  8
0
 62
7
100
AcDbSpline
 70
8
 71
3
 72
8
 73
4
 74
0
 40
0
 40
0
 40
0
 40
0
 40
1
 40
1
 40
1
 40
1
 10
78.955506
 20
45.166714
 30
0.0
 10
77.860710
 20
45.164333
 30
0.0
 10
77.389913
 20
45.030274
 30
0.0
 10
76.911504
 20
44.584570
 30
0.0
  0
SPLINE
  5
138
100
AcDbEntity
  8
0
 62
7
100
AcDbSpline
 70
8
 71
3
 72
8
 73
4
 74
0
 40
0
 40
0
 40
0
 40
0
 40
1
 40
1
 40
1
 40
1
 10
76.911504
 20
44.584570
 30
0.0
 10
76.124096
 20
43.850986
 30
0.0
 10
75.069369
 20
43.615335
 30
0.0
 10
74.145521
 20
43.966582
 30
0.0
  0
SPLINE
  5
139
100
AcDbEntity
  8
0
 62
7
100
AcDbSpline
 70
8
 71
3
 72
8
 73
4
 74
0
 40
0
 40
0
 40
0
 40
0
 40
1
 40
1
 40
1
 40
1
 10
74.145521
 20
43.966582
 30
0.0
 10
73.564324
 20
44.187552
 30
0.0
 10
73.287115
 20
44.143568
 30
0.0
 10
72.710492
 20
43.738887
 30
0.0
  0
SPLINE
  5
13a
100
AcDbEntity
  8
0
 62
7
100
AcDbSpline
 70
8
 71
3
 72
8
 73
4
 74
0
 40
0
 40
0
 40
0
 40
0
 40
1
 40
1
 40
1
 40
1
 10
72.710492
 20
43.738887
 30
0.0
 10
72.129211
 20
43.330934
 30
0.0
 10
71.353804
 20
43.211483
 30
0.0
 10
68.556230
 20
43.098918
 30
0.0
  0
SPLINE
  5
13b
100
AcDbEntity
  8
0
 62
7
100
AcDbSpline
 70
8
 71
3
 72
8
 73
4
 74
0
 40
0
 40
0
 40
0
 40
0
 40
1
 40
1
 40
1
 40
1
 10
68.556230
 20
43.098918
 30
0.0
 10
65.289144
 20
42.967463
 30
0.0
 10
65.147521
 20
42.982748
 30
0.0
 10
65.732271
 20
43.403689
 30
0.0
  0
SPLINE
  5
13c
100
AcDbEntity
  8
0
 62
7
100
AcDbSpline
 70
8
 71
3
 72
8
 73
4
 74
0
 40
0
 40
0
 40
0
 40
0
 40
1
 40
1
 40
1
 40
1
 10
65.732271
 20
43.403689
 30
0.0
 10
67.335429
 20
44.557744
 30
0.0
 10
70.066567
 20
46.995437
 30
0.0
 10
70.854967
 20
47.975980
 30
0.0
  0
SPLINE
  5
13d
100
AcDbEntity
  8
0
 62
7
100
AcDbSpline
 70
8
 71
3
 72
8
 73
4
 74
0
 40
0
 40
0
 40
0
 40
0
 40
1
 40
1
 40
1
 40
1
 10
70.854967
 20
47.975980
 30
0.0
 10
71.336911
 20
48.575383
 30
0.0
 10
72.564667
 20
50.007070
 30
0.0
 10
73.583313
 20
51.157510
 30
0.0
  0
SPLINE
  5
13e
100
AcDbEntity
  8
0
 62
7
100
AcDbSpline
 70
8
 71
3
 72
8
 73
4
 74
0
 40
0
 40
0
 40
0
 40
0
 40
1
 40
1
 40
1
 40
1
 10
73.583313
 20
51.157510
 30
0.0
 10
77.555265
 20
55.643357
 30
0.0
 10
78.760455
 20
57.116700
 30
0.0
 10
79.319329
 20
58.169760
 30
0.0
  0
LWPOLYLINE
  5
13f
100
AcDbEntity
  8
0
 62
7
100
AcDbPolyline
 90
3
 70
0
 10
80.238873
 20
44.376007
 30
0.0
 10
80.377930
 20
45.169757
 30
0.0
 10
78.955506
 20
45.166714
 30
0.0
  0
SPLINE
  5
140
100
AcDbEntity
  8
0
 62
7
100
AcDbSpline
 70
8
 71
3
 72
8
 73
4
 74
0
 40
0
 40
0
 40
0
 40
0
 40
1
 40
1
 40
1
 40
1
 10
79.199475
 20
60.095778
 30
0.0
 10
78.814303
 20
60.553531
 30
0.0
 10
78.423236
 20
61.332774
 30
0.0
 10
78.330438
 20
61.827429
 30
0.0
  0
SPLINE
  5
141
100
AcDbEntity
  8
0
 62
7
100
AcDbSpline
 70
8
 71
3
 72
8
 73
4
 74
0
 40
0
 40
0
 40
0
 40
0
 40
1
 40
1
 40
1
 40
1
 10
78.330438
 20
61.827429
 30
0.0
 10
78.178599
 20
62.636792
 30
0.0
 10
78.051768
 20
62.745271
 30
0.0
 10
77.063140
 20
62.911352
 30
0.0
  0
SPLINE
  5
142
100
AcDbEntity
  8
0
 62
7
100
AcDbSpline
 70
8
 71
3
 72
8
 73
4
 74
0
 40
0
 40
0
 40
0
 40
0
 40
1
 40
1
 40
1
 40
1
 10
77.063140
 20
62.911352
 30
0.0
 10
75.753246
 20
63.131401
 30
0.0
 10
73.849357
 20
64.865814
 30
0.0
 10
73.579609
 20
66.084789
 30
0.0
  0
SPLINE
  5
143
100
AcDbEntity
  8
0
 62
7
100
AcDbSpline
 70
8
 71
3
 72
8
 73
4
 74
0
 40
0
 40
0
 40
0
 40
0
 40
1
 40
1
 40
1
 40
1
 10
73.579609
 20
66.084789
 30
0.0
 10
73.279034
 20
67.443070
 30
0.0
 10
73.217614
 20
67.527048
 30
0.0
 10
72.524787
 20
67.527048
 30
0.0
  0
SPLINE
  5
144
100
AcDbEntity
  8
0
 62
7
100
AcDbSpline
 70
8
 71
3
 72
8
 73
4
 74
0
 40
0
 40
0
 40
0
 40
0
 40
1
 40
1
 40
1
 40
1
 10
72.524787
 20
67.527048
 30
0.0
 10
69.802245
 20
67.527048
 30
0.0
 10
66.948373
 20
70.871220
 30
0.0
 10
67.133504
 20
73.844565
 30
0.0
  0
SPLINE
  5
145
100
AcDbEntity
  8
0
 62
7
100
AcDbSpline
 70
8
 71
3
 72
8
 73
4
 74
0
 40
0
 40
0
 40
0
 40
0
 40
1
 40
1
 40
1
 40
1
 10
67.133504
 20
73.844565
 30
0.0
 10
67.242415
 20
75.593752
 30
0.0
 10
66.982441
 20
76.109407
 30
0.0
 10
65.433456
 20
77.216590
 30
0.0
  0
SPLINE
  5
146
100
AcDbEntity
  8
0
 62
7
100
AcDbSpline
 70
8
 71
3
 72
8
 73
4
 74
0
 40
0
 40
0
 40
0
 40
0
 40
1
 40
1
 40
1
 40
1
 10
65.433456
 20
77.216590
 30
0.0
 10
61.637159
 20
79.930101
 30
0.0
 10
61.239551
 20
80.808579
 30
0.0
 10
61.662508
 20
85.548171
 30
0.0
  0
SPLINE
  5
147
100
AcDbEntity
  8
0
 62
7
100
AcDbSpline
 70
8
 71
3
 72
8
 73
4
 74
0
 40
0
 40
0
 40
0
 40
0
 40
1
 40
1
 40
1
 40
1
 10
61.662508
 20
85.548171
 30
0.0
 10
61.865161
 20
87.819084
 30
0.0
 10
61.863102
 20
87.830350
 30
0.0
 10
61.036912
 20
88.970874
 30
0.0
  0
SPLINE
  5
148
100
AcDbEntity
  8
0
 62
7
100
AcDbSpline
 70
8
 71
3
 72
8
 73
4
 74
0
 40
0
 40
0
 40
0
 40
0
 40
1
 40
1
 40
1
 40
1
 10
61.036912
 20
88.970874
 30
0.0
 10
59.317729
 20
91.344136
 30
0.0
 10
58.968793
 20
95.184632
 30
0.0
 10
60.172640
 20
98.483298
 30
0.0
  0
SPLINE
  5
149
100
AcDbEntity
  8
0
 62
7
100
AcDbSpline
 70
8
 71
3
 72
8
 73
4
 74
0
 40
0
 40
0
 40
0
 40
0
 40
1
 40
1
 40
1
 40
1
 10
60.172640
 20
98.483298
 30
0.0
 10
60.569060
 20
99.569529
 30
0.0
 10
60.740824
 20
100.877719
 30
0.0
 10
60.850060
 20
103.642673
 30
0.0
  0
SPLINE
  5
14a
100
AcDbEntity
  8
0
 62
7
100
AcDbSpline
 70
8
 71
3
 72
8
 73
4
 74
0
 40
0
 40
0
 40
0
 40
0
 40
1
 40
1
 40
1
 40
1
 10
60.850060
 20
103.642673
 30
0.0
 10
60.930549
 20
105.679965
 30
0.0
 10
61.210288
 20
108.417445
 30
0.0
 10
61.471702
 20
109.725963
 30
0.0
  0
LWPOLYLINE
  5
14b
100
AcDbEntity
  8
0
 62
7
100
AcDbPolyline
 90
3
 70
0
 10
79.319329
 20
58.169760
 30
0.0
 10
79.899790
 20
59.263500
 30
0.0
 10
79.199475
 20
60.095778
 30
0.0
  0
SPLINE
  5
14c
100
AcDbEntity
  8
0
 62
7
100
AcDbSpline
 70
8
 71
3
 72
8
 73
4
 74
0
 40
0
 40
0
 40
0
 40
0
 40
1
 40
1
 40
1
 40
1
 10
62.443455
 20
109.990546
 30
0.0
 10
63.238838
 20
106.602810
 30
0.0
 10
64.354562
 20
103.983435
 30
0.0
 10
67.341808
 20
98.490736
 30
0.0
  0
SPLINE
  5
14d
100
AcDbEntity
  8
0
 62
7
100
AcDbSpline
 70
8
 71
3
 72
8
 73
4
 74
0
 40
0
 40
0
 40
0
 40
0
 40
1
 40
1
 40
1
 40
1
 10
67.341808
 20
98.490736
 30
0.0
 10
70.554514
 20
92.583482
 30
0.0
 10
70.795362
 20
92.558399
 30
0.0
 10
69.639984
 20
98.251396
 30
0.0
  0
SPLINE
  5
14e
100
AcDbEntity
  8
0
 62
7
100
AcDbSpline
 70
8
 71
3
 72
8
 73
4
 74
0
 40
0
 40
0
 40
0
 40
0
 40
1
 40
1
 40
1
 40
1
 10
69.639984
 20
98.251396
 30
0.0
 10
68.638555
 20
103.185830
 30
0.0
 10
68.622220
 20
103.690600
 30
0.0
 10
69.342968
 20
107.428837
 30
0.0
  0
SPLINE
  5
14f
100
AcDbEntity
  8
0
 62
7
100
AcDbSpline
 70
8
 71
3
 72
8
 73
4
 74
0
 40
0
 40
0
 40
0
 40
0
 40
1
 40
1
 40
1
 40
1
 10
69.342968
 20
107.428837
 30
0.0
 10
69.699016
 20
109.275510
 30
0.0
 10
70.024982
 20
111.084080
 30
0.0
 10
70.067339
 20
111.447882
 30
0.0
  0
SPLINE
  5
150
100
AcDbEntity
  8
0
 62
7
100
AcDbSpline
 70
8
 71
3
 72
8
 73
4
 74
0
 40
0
 40
0
 40
0
 40
0
 40
1
 40
1
 40
1
 40
1
 10
70.067339
 20
111.447882
 30
0.0
 10
70.115708
 20
111.863291
 30
0.0
 10
70.964544
 20
109.845689
 30
0.0
 10
72.349286
 20
106.023923
 30
0.0
  0
SPLINE
  5
151
100
AcDbEntity
  8
0
 62
7
100
AcDbSpline
 70
8
 71
3
 72
8
 73
4
 74
0
 40
0
 40
0
 40
0
 40
0
 40
1
 40
1
 40
1
 40
1
 10
72.349286
 20
106.023923
 30
0.0
 10
74.678826
 20
99.594599
 30
0.0
 10
76.418940
 20
95.359455
 30
0.0
 10
78.871924
 20
90.148923
 30
0.0
  0
SPLINE
  5
152
100
AcDbEntity
  8
0
 62
7
100
AcDbSpline
 70
8
 71
3
 72
8
 73
4
 74
0
 40
0
 40
0
 40
0
 40
0
 40
1
 40
1
 40
1
 40
1
 10
78.871924
 20
90.148923
 30
0.0
 10
80.023335
 20
87.703133
 30
0.0
 10
83.063734
 20
80.517309
 30
0.0
 10
85.280942
 20
75.001527
 30
0.0
  0
SPLINE
  5
153
100
AcDbEntity
  8
0
 62
7
100
AcDbSpline
 70
8
 71
3
 72
8
 73
4
 74
0
 40
0
 40
0
 40
0
 40
0
 40
1
 40
1
 40
1
 40
1
 10
85.280942
 20
75.001527
 30
0.0
 10
85.354062
 20
74.819626
 30
0.0
 10
85.493135
 20
74.670798
 30
0.0
 10
85.589994
 20
74.670798
 30
0.0
  0
SPLINE
  5
154
100
AcDbEntity
  8
0
 62
7
100
AcDbSpline
 70
8
 71
3
 72
8
 73
4
 74
0
 40
0
 40
0
 40
0
 40
0
 40
1
 40
1
 40
1
 40
1
 10
85.589994
 20
74.670798
 30
0.0
 10
85.977505
 20
74.670798
 30
0.0
 10
86.645070
 20
76.478434
 30
0.0
 10
86.795377
 20
77.934733
 30
0.0
  0
SPLINE
  5
155
100
AcDbEntity
  8
0
 62
7
100
AcDbSpline
 70
8
 71
3
 72
8
 73
4
 74
0
 40
0
 40
0
 40
0
 40
0
 40
1
 40
1
 40
1
 40
1
 10
86.795377
 20
77.934733
 30
0.0
 10
87.061278
 20
80.511015
 30
0.0
 10
88.221743
 20
82.292566
 30
0.0
 10
90.729173
 20
83.973919
 30
0.0
  0
SPLINE
  5
156
100
AcDbEntity
  8
0
 62
7
100
AcDbSpline
 70
8
 71
3
 72
8
 73
4
 74
0
 40
0
 40
0
 40
0
 40
0
 40
1
 40
1
 40
1
 40
1
 10
90.729173
 20
83.973919
 30
0.0
 10
92.099921
 20
84.893073
 30
0.0
 10
92.629003
 20
85.090646
 30
0.0
 10
93.956230
 20
85.178971
 30
0.0
  0
SPLINE
  5
157
100
AcDbEntity
  8
0
 62
7
100
AcDbSpline
 70
8
 71
3
 72
8
 73
4
 74
0
 40
0
 40
0
 40
0
 40
0
 40
1
 40
1
 40
1
 40
1
 10
93.956230
 20
85.178971
 30
0.0
 10
94.829355
 20
85.237079
 30
0.0
 10
95.974487
 20
85.348482
 30
0.0
 10
96.500969
 20
85.426534
 30
0.0
  0
SPLINE
  5
158
100
AcDbEntity
  8
0
 62
7
100
AcDbSpline
 70
8
 71
3
 72
8
 73
4
 74
0
 40
0
 40
0
 40
0
 40
0
 40
1
 40
1
 40
1
 40
1
 10
96.500969
 20
85.426534
 30
0.0
 10
97.653171
 20
85.597352
 30
0.0
 10
98.468085
 20
85.212917
 30
0.0
 10
100.551739
 20
83.515584
 30
0.0
  0
SPLINE
  5
159
100
AcDbEntity
  8
0
 62
7
100
AcDbSpline
 70
8
 71
3
 72
8
 73
4
 74
0
 40
0
 40
0
 40
0
 40
0
 40
1
 40
1
 40
1
 40
1
 10
100.551739
 20
83.515584
 30
0.0
 10
102.059137
 20
82.287668
 30
0.0
 10
102.073136
 20
82.263356
 30
0.0
 10
101.894153
 20
81.184742
 30
0.0
  0
SPLINE
  5
15a
100
AcDbEntity
  8
0
 62
7
100
AcDbSpline
 70
8
 71
3
 72
8
 73
4
 74
0
 40
0
 40
0
 40
0
 40
0
 40
1
 40
1
 40
1
 40
1
 10
101.894153
 20
81.184742
 30
0.0
 10
101.794675
 20
80.585249
 30
0.0
 10
101.673499
 20
79.261319
 30
0.0
 10
101.624871
 20
78.242673
 30
0.0
  0
SPLINE
  5
15b
100
AcDbEntity
  8
0
 62
7
100
AcDbSpline
 70
8
 71
3
 72
8
 73
4
 74
0
 40
0
 40
0
 40
0
 40
0
 40
1
 40
1
 40
1
 40
1
 10
101.624871
 20
78.242673
 30
0.0
 10
101.576246
 20
77.224027
 30
0.0
 10
101.481977
 20
75.973871
 30
0.0
 10
101.415384
 20
75.464548
 30
0.0
  0
SPLINE
  5
15c
100
AcDbEntity
  8
0
 62
7
100
AcDbSpline
 70
8
 71
3
 72
8
 73
4
 74
0
 40
0
 40
0
 40
0
 40
0
 40
1
 40
1
 40
1
 40
1
 10
101.415384
 20
75.464548
 30
0.0
 10
101.346603
 20
74.938464
 30
0.0
 10
101.460591
 20
74.213940
 30
0.0
 10
101.679309
 20
73.787021
 30
0.0
  0
SPLINE
  5
15d
100
AcDbEntity
  8
0
 62
7
100
AcDbSpline
 70
8
 71
3
 72
8
 73
4
 74
0
 40
0
 40
0
 40
0
 40
0
 40
1
 40
1
 40
1
 40
1
 10
101.679309
 20
73.787021
 30
0.0
 10
102.112609
 20
72.941259
 30
0.0
 10
101.979243
 20
72.289548
 30
0.0
 10
101.372866
 20
72.289548
 30
0.0
  0
SPLINE
  5
15e
100
AcDbEntity
  8
0
 62
7
100
AcDbSpline
 70
8
 71
3
 72
8
 73
4
 74
0
 40
0
 40
0
 40
0
 40
0
 40
1
 40
1
 40
1
 40
1
 10
101.372866
 20
72.289548
 30
0.0
 10
101.150018
 20
72.289548
 30
0.0
 10
100.967688
 20
72.109338
 30
0.0
 10
100.967688
 20
71.889083
 30
0.0
  0
SPLINE
  5
15f
100
AcDbEntity
  8
0
 62
7
100
AcDbSpline
 70
8
 71
3
 72
8
 73
4
 74
0
 40
0
 40
0
 40
0
 40
0
 40
1
 40
1
 40
1
 40
1
 10
100.967688
 20
71.889083
 30
0.0
 10
100.967688
 20
71.668828
 30
0.0
 10
100.848676
 20
71.281875
 30
0.0
 10
100.703219
 20
71.029187
 30
0.0
  0
SPLINE
  5
160
100
AcDbEntity
  8
0
 62
7
100
AcDbSpline
 70
8
 71
3
 72
8
 73
4
 74
0
 40
0
 40
0
 40
0
 40
0
 40
1
 40
1
 40
1
 40
1
 10
100.703219
 20
71.029187
 30
0.0
 10
100.557761
 20
70.776499
 30
0.0
 10
100.322584
 20
70.242335
 30
0.0
 10
100.180600
 20
69.842152
 30
0.0
  0
SPLINE
  5
161
100
AcDbEntity
  8
0
 62
7
100
AcDbSpline
 70
8
 71
3
 72
8
 73
4
 74
0
 40
0
 40
0
 40
0
 40
0
 40
1
 40
1
 40
1
 40
1
 10
100.180600
 20
69.842152
 30
0.0
 10
99.966870
 20
69.239739
 30
0.0
 10
99.773372
 20
69.119086
 30
0.0
 10
99.056007
 20
69.140922
 30
0.0
  0
SPLINE
  5
162
100
AcDbEntity
  8
0
 62
7
100
AcDbSpline
 70
8
 71
3
 72
8
 73
4
 74
0
 40
0
 40
0
 40
0
 40
0
 40
1
 40
1
 40
1
 40
1
 10
99.056007
 20
69.140922
 30
0.0
 10
98.579464
 20
69.155421
 30
0.0
 10
97.891907
 20
69.252809
 30
0.0
 10
97.528105
 20
69.357327
 30
0.0
  0
SPLINE
  5
163
100
AcDbEntity
  8
0
 62
7
100
AcDbSpline
 70
8
 71
3
 72
8
 73
4
 74
0
 40
0
 40
0
 40
0
 40
0
 40
1
 40
1
 40
1
 40
1
 10
97.528105
 20
69.357327
 30
0.0
 10
96.145435
 20
69.754554
 30
0.0
 10
95.565452
 20
69.204377
 30
0.0
 10
95.852718
 20
67.768041
 30
0.0
  0
SPLINE
  5
164
100
AcDbEntity
  8
0
 62
7
100
AcDbSpline
 70
8
 71
3
 72
8
 73
4
 74
0
 40
0
 40
0
 40
0
 40
0
 40
1
 40
1
 40
1
 40
1
 10
95.852718
 20
67.768041
 30
0.0
 10
95.956980
 20
67.246738
 30
0.0
 10
96.238698
 20
66.871450
 30
0.0
 10
96.640417
 20
66.718714
 30
0.0
  0
SPLINE
  5
165
100
AcDbEntity
  8
0
 62
7
100
AcDbSpline
 70
8
 71
3
 72
8
 73
4
 74
0
 40
0
 40
0
 40
0
 40
0
 40
1
 40
1
 40
1
 40
1
 10
96.640417
 20
66.718714
 30
0.0
 10
96.984381
 20
66.587941
 30
0.0
 10
97.652245
 20
65.914934
 30
0.0
 10
98.124560
 20
65.223144
 30
0.0
  0
SPLINE
  5
166
100
AcDbEntity
  8
0
 62
7
100
AcDbSpline
 70
8
 71
3
 72
8
 73
4
 74
0
 40
0
 40
0
 40
0
 40
0
 40
1
 40
1
 40
1
 40
1
 10
98.124560
 20
65.223144
 30
0.0
 10
98.596873
 20
64.531354
 30
0.0
 10
99.906048
 20
62.989513
 30
0.0
 10
101.033834
 20
61.796829
 30
0.0
  0
SPLINE
  5
167
100
AcDbEntity
  8
0
 62
7
100
AcDbSpline
 70
8
 71
3
 72
8
 73
4
 74
0
 40
0
 40
0
 40
0
 40
0
 40
1
 40
1
 40
1
 40
1
 10
101.033834
 20
61.796829
 30
0.0
 10
102.298357
 20
60.459541
 30
0.0
 10
103.095581
 20
59.392690
 30
0.0
 10
103.113642
 20
59.013617
 30
0.0
  0
SPLINE
  5
168
100
AcDbEntity
  8
0
 62
7
100
AcDbSpline
 70
8
 71
3
 72
8
 73
4
 74
0
 40
0
 40
0
 40
0
 40
0
 40
1
 40
1
 40
1
 40
1
 10
103.113642
 20
59.013617
 30
0.0
 10
103.172146
 20
57.785688
 30
0.0
 10
103.027266
 20
57.066865
 30
0.0
 10
102.632021
 20
56.624048
 30
0.0
  0
SPLINE
  5
169
100
AcDbEntity
  8
0
 62
7
100
AcDbSpline
 70
8
 71
3
 72
8
 73
4
 74
0
 40
0
 40
0
 40
0
 40
0
 40
1
 40
1
 40
1
 40
1
 10
102.632021
 20
56.624048
 30
0.0
 10
102.265869
 20
56.213830
 30
0.0
 10
102.306834
 20
56.073331
 30
0.0
 10
103.075592
 20
55.102694
 30
0.0
  0
SPLINE
  5
16a
100
AcDbEntity
  8
0
 62
7
100
AcDbSpline
 70
8
 71
3
 72
8
 73
4
 74
0
 40
0
 40
0
 40
0
 40
0
 40
1
 40
1
 40
1
 40
1
 10
103.075592
 20
55.102694
 30
0.0
 10
103.541430
 20
54.514528
 30
0.0
 10
103.966857
 20
54.033298
 30
0.0
 10
104.020985
 20
54.033298
 30
0.0
  0
SPLINE
  5
16b
100
AcDbEntity
  8
0
 62
7
100
AcDbSpline
 70
8
 71
3
 72
8
 73
4
 74
0
 40
0
 40
0
 40
0
 40
0
 40
1
 40
1
 40
1
 40
1
 10
104.020985
 20
54.033298
 30
0.0
 10
104.075114
 20
54.033298
 30
0.0
 10
104.693146
 20
54.371589
 30
0.0
 10
105.394390
 20
54.785059
 30
0.0
  0
SPLINE
  5
16c
100
AcDbEntity
  8
0
 62
7
100
AcDbSpline
 70
8
 71
3
 72
8
 73
4
 74
0
 40
0
 40
0
 40
0
 40
0
 40
1
 40
1
 40
1
 40
1
 10
105.394390
 20
54.785059
 30
0.0
 10
106.095633
 20
55.198526
 30
0.0
 10
107.499856
 20
55.866496
 30
0.0
 10
108.514888
 20
56.269432
 30
0.0
  0
SPLINE
  5
16d
100
AcDbEntity
  8
0
 62
7
100
AcDbSpline
 70
8
 71
3
 72
8
 73
4
 74
0
 40
0
 40
0
 40
0
 40
0
 40
1
 40
1
 40
1
 40
1
 10
108.514888
 20
56.269432
 30
0.0
 10
109.529917
 20
56.672372
 30
0.0
 10
111.779034
 20
57.733062
 30
0.0
 10
113.512928
 20
58.626526
 30
0.0
  0
LWPOLYLINE
  5
16e
100
AcDbEntity
  8
0
 62
7
100
AcDbPolyline
 90
3
 70
0
 10
61.471702
 20
109.725963
 30
0.0
 10
61.946999
 20
112.105085
 30
0.0
 10
62.443455
 20
109.990546
 30
0.0
  0
SPLINE
  5
16f
100
AcDbEntity
  8
0
 62
7
100
AcDbSpline
 70
8
 71
3
 72
8
 73
4
 74
0
 40
0
 40
0
 40
0
 40
0
 40
1
 40
1
 40
1
 40
1
 10
119.196776
 20
60.167189
 30
0.0
 10
120.741932
 20
60.116027
 30
0.0
 10
121.801787
 20
59.964132
 30
0.0
 10
121.917256
 20
59.777299
 30
0.0
  0
SPLINE
  5
170
100
AcDbEntity
  8
0
 62
7
100
AcDbSpline
 70
8
 71
3
 72
8
 73
4
 74
0
 40
0
 40
0
 40
0
 40
0
 40
1
 40
1
 40
1
 40
1
 10
121.917256
 20
59.777299
 30
0.0
 10
122.189118
 20
59.337416
 30
0.0
 10
121.632348
 20
59.070306
 30
0.0
 10
120.414563
 20
59.056386
 30
0.0
  0
SPLINE
  5
171
100
AcDbEntity
  8
0
 62
7
100
AcDbSpline
 70
8
 71
3
 72
8
 73
4
 74
0
 40
0
 40
0
 40
0
 40
0
 40
1
 40
1
 40
1
 40
1
 10
120.414563
 20
59.056386
 30
0.0
 10
119.524425
 20
59.046226
 30
0.0
 10
119.434668
 20
58.998715
 30
0.0
 10
119.849778
 20
58.757521
 30
0.0
  0
SPLINE
  5
172
100
AcDbEntity
  8
0
 62
7
100
AcDbSpline
 70
8
 71
3
 72
8
 73
4
 74
0
 40
0
 40
0
 40
0
 40
0
 40
1
 40
1
 40
1
 40
1
 10
119.849778
 20
58.757521
 30
0.0
 10
120.155123
 20
58.580105
 30
0.0
 10
120.911829
 20
58.539269
 30
0.0
 10
121.834153
 20
58.650428
 30
0.0
  0
SPLINE
  5
173
100
AcDbEntity
  8
0
 62
7
100
AcDbSpline
 70
8
 71
3
 72
8
 73
4
 74
0
 40
0
 40
0
 40
0
 40
0
 40
1
 40
1
 40
1
 40
1
 10
121.834153
 20
58.650428
 30
0.0
 10
126.693393
 20
59.236068
 30
0.0
 10
126.850140
 20
59.133041
 30
0.0
 10
123.248571
 20
57.720783
 30
0.0
  0
LWPOLYLINE
  5
174
100
AcDbEntity
  8
0
 62
7
100
AcDbPolyline
 90
3
 70
0
 10
113.512928
 20
58.626526
 30
0.0
 10
116.665457
 20
60.251007
 30
0.0
 10
119.196776
 20
60.167189
 30
0.0
  0
SPLINE
  5
175
100
AcDbEntity
  8
0
 62
7
100
AcDbSpline
 70
8
 71
3
 72
8
 73
4
 74
0
 40
0
 40
0
 40
0
 40
0
 40
1
 40
1
 40
1
 40
1
 10
118.461674
 20
57.204131
 30
0.0
 10
117.035069
 20
57.392948
 30
0.0
 10
115.429596
 20
57.465219
 30
0.0
 10
114.893953
 20
57.364733
 30
0.0
  0
SPLINE
  5
176
100
AcDbEntity
  8
0
 62
7
100
AcDbSpline
 70
8
 71
3
 72
8
 73
4
 74
0
 40
0
 40
0
 40
0
 40
0
 40
1
 40
1
 40
1
 40
1
 10
114.893953
 20
57.364733
 30
0.0
 10
114.266901
 20
57.247097
 30
0.0
 10
112.972255
 20
56.456434
 30
0.0
 10
111.258742
 20
55.144644
 30
0.0
  0
SPLINE
  5
177
100
AcDbEntity
  8
0
 62
7
100
AcDbSpline
 70
8
 71
3
 72
8
 73
4
 74
0
 40
0
 40
0
 40
0
 40
0
 40
1
 40
1
 40
1
 40
1
 10
111.258742
 20
55.144644
 30
0.0
 10
104.387610
 20
49.884407
 30
0.0
 10
103.412017
 20
49.351052
 30
0.0
 10
102.160864
 20
50.170839
 30
0.0
  0
LWPOLYLINE
  5
178
100
AcDbEntity
  8
0
 62
7
100
AcDbPolyline
 90
3
 70
0
 10
123.248571
 20
57.720783
 30
0.0
 10
121.055495
 20
56.860826
 30
0.0
 10
118.461674
 20
57.204131
 30
0.0
  0
SPLINE
  5
179
100
AcDbEntity
  8
0
 62
7
100
AcDbSpline
 70
8
 71
3
 72
8
 73
4
 74
0
 40
0
 40
0
 40
0
 40
0
 40
1
 40
1
 40
1
 40
1
 10
100.929207
 20
49.377719
 30
0.0
 10
100.438947
 20
48.269403
 30
0.0
 10
100.400517
 20
47.842667
 30
0.0
 10
100.568731
 20
45.374766
 30
0.0
  0
LWPOLYLINE
  5
17a
100
AcDbEntity
  8
0
 62
7
100
AcDbPolyline
 90
3
 70
0
 10
102.160864
 20
50.170839
 30
0.0
 10
101.477969
 20
50.618287
 30
0.0
 10
100.929207
 20
49.377719
 30
0.0
  0
SPLINE
  5
17b
100
AcDbEntity
  8
0
 62
7
100
AcDbSpline
 70
8
 71
3
 72
8
 73
4
 74
0
 40
0
 40
0
 40
0
 40
0
 40
1
 40
1
 40
1
 40
1
 10
101.457665
 20
42.782191
 30
0.0
 10
101.843020
 20
42.875586
 30
0.0
 10
102.575032
 20
43.185255
 30
0.0
 10
103.084355
 20
43.470341
 30
0.0
  0
SPLINE
  5
17c
100
AcDbEntity
  8
0
 62
7
100
AcDbSpline
 70
8
 71
3
 72
8
 73
4
 74
0
 40
0
 40
0
 40
0
 40
0
 40
1
 40
1
 40
1
 40
1
 10
103.084355
 20
43.470341
 30
0.0
 10
106.798044
 20
45.549032
 30
0.0
 10
111.615503
 20
47.220502
 30
0.0
 10
114.017044
 20
47.263558
 30
0.0
  0
SPLINE
  5
17d
100
AcDbEntity
  8
0
 62
7
100
AcDbSpline
 70
8
 71
3
 72
8
 73
4
 74
0
 40
0
 40
0
 40
0
 40
0
 40
1
 40
1
 40
1
 40
1
 10
114.017044
 20
47.263558
 30
0.0
 10
115.187185
 20
47.284539
 30
0.0
 10
115.378246
 20
47.194467
 30
0.0
 10
116.332148
 20
46.172189
 30
0.0
  0
LWPOLYLINE
  5
17e
100
AcDbEntity
  8
0
 62
7
100
AcDbPolyline
 90
3
 70
0
 10
100.568731
 20
45.374766
 30
0.0
 10
100.757014
 20
42.612379
 30
0.0
 10
101.457665
 20
42.782191
 30
0.0
  0
SPLINE
  5
17f
100
AcDbEntity
  8
0
 62
7
100
AcDbSpline
 70
8
 71
3
 72
8
 73
4
 74
0
 40
0
 40
0
 40
0
 40
0
 40
1
 40
1
 40
1
 40
1
 10
118.330406
 20
31.925025
 30
0.0
 10
122.590322
 20
24.939149
 30
0.0
 10
125.812844
 20
19.136093
 30
0.0
 10
127.283826
 20
15.801864
 30
0.0
  0
SPLINE
  5
180
100
AcDbEntity
  8
0
 62
7
100
AcDbSpline
 70
8
 71
3
 72
8
 73
4
 74
0
 40
0
 40
0
 40
0
 40
0
 40
1
 40
1
 40
1
 40
1
 10
127.283826
 20
15.801864
 30
0.0
 10
127.668822
 20
14.929210
 30
0.0
 10
128.327243
 20
13.679054
 30
0.0
 10
128.746986
 20
13.023739
 30
0.0
  0
SPLINE
  5
181
100
AcDbEntity
  8
0
 62
7
100
AcDbSpline
 70
8
 71
3
 72
8
 73
4
 74
0
 40
0
 40
0
 40
0
 40
0
 40
1
 40
1
 40
1
 40
1
 10
128.746986
 20
13.023739
 30
0.0
 10
129.166726
 20
12.368424
 30
0.0
 10
129.769325
 20
10.879757
 30
0.0
 10
130.086092
 20
9.715590
 30
0.0
  0
SPLINE
  5
182
100
AcDbEntity
  8
0
 62
7
100
AcDbSpline
 70
8
 71
3
 72
8
 73
4
 74
0
 40
0
 40
0
 40
0
 40
0
 40
1
 40
1
 40
1
 40
1
 10
130.086092
 20
9.715590
 30
0.0
 10
130.402859
 20
8.551423
 30
0.0
 10
130.781655
 20
7.360798
 30
0.0
 10
130.927859
 20
7.069757
 30
0.0
  0
SPLINE
  5
183
100
AcDbEntity
  8
0
 62
7
100
AcDbSpline
 70
8
 71
3
 72
8
 73
4
 74
0
 40
0
 40
0
 40
0
 40
0
 40
1
 40
1
 40
1
 40
1
 10
130.927859
 20
7.069757
 30
0.0
 10
131.327618
 20
6.273975
 30
0.0
 10
132.774108
 20
4.820798
 30
0.0
 10
133.166466
 20
4.820798
 30
0.0
  0
SPLINE
  5
184
100
AcDbEntity
  8
0
 62
7
100
AcDbSpline
 70
8
 71
3
 72
8
 73
4
 74
0
 40
0
 40
0
 40
0
 40
0
 40
1
 40
1
 40
1
 40
1
 10
133.166466
 20
4.820798
 30
0.0
 10
133.694286
 20
4.820798
 30
0.0
 10
133.576581
 20
4.080531
 30
0.0
 10
132.999665
 20
3.771773
 30
0.0
  0
SPLINE
  5
185
100
AcDbEntity
  8
0
 62
7
100
AcDbSpline
 70
8
 71
3
 72
8
 73
4
 74
0
 40
0
 40
0
 40
0
 40
0
 40
1
 40
1
 40
1
 40
1
 10
132.999665
 20
3.771773
 30
0.0
 10
132.349399
 20
3.423761
 30
0.0
 10
131.670735
 20
3.434988
 30
0.0
 10
130.997896
 20
3.804888
 30
0.0
  0
LWPOLYLINE
  5
186
100
AcDbEntity
  8
0
 62
7
100
AcDbPolyline
 90
5
 70
0
 10
116.332148
 20
46.172189
 30
0.0
 10
117.371855
 20
45.057957
 30
0.0
 10
117.371855
 20
39.277457
 30
0.0
 10
117.371855
 20
33.496959
 30
0.0
 10
118.330406
 20
31.925025
 30
0.0
  0
SPLINE
  5
187
100
AcDbEntity
  8
0
 62
7
100
AcDbSpline
 70
8
 71
3
 72
8
 73
4
 74
0
 40
0
 40
0
 40
0
 40
0
 40
1
 40
1
 40
1
 40
1
 10
87.886297
 20
34.520277
 30
0.0
 10
87.669780
 20
39.662428
 30
0.0
 10
87.804927
 20
40.255550
 30
0.0
 10
89.977775
 20
43.699165
 30
0.0
  0
SPLINE
  5
188
100
AcDbEntity
  8
0
 62
7
100
AcDbSpline
 70
8
 71
3
 72
8
 73
4
 74
0
 40
0
 40
0
 40
0
 40
0
 40
1
 40
1
 40
1
 40
1
 10
89.977775
 20
43.699165
 30
0.0
 10
91.182145
 20
45.607896
 30
0.0
 10
91.504357
 20
46.355090
 30
0.0
 10
91.606574
 20
47.476262
 30
0.0
  0
SPLINE
  5
189
100
AcDbEntity
  8
0
 62
7
100
AcDbSpline
 70
8
 71
3
 72
8
 73
4
 74
0
 40
0
 40
0
 40
0
 40
0
 40
1
 40
1
 40
1
 40
1
 10
91.606574
 20
47.476262
 30
0.0
 10
91.764562
 20
49.209203
 30
0.0
 10
91.491538
 20
49.721744
 30
0.0
 10
90.650266
 20
49.271507
 30
0.0
  0
SPLINE
  5
18a
100
AcDbEntity
  8
0
 62
7
100
AcDbSpline
 70
8
 71
3
 72
8
 73
4
 74
0
 40
0
 40
0
 40
0
 40
0
 40
1
 40
1
 40
1
 40
1
 10
90.650266
 20
49.271507
 30
0.0
 10
90.322940
 20
49.096327
 30
0.0
 10
89.742251
 20
49.014361
 30
0.0
 10
89.359846
 20
49.089360
 30
0.0
  0
SPLINE
  5
18b
100
AcDbEntity
  8
0
 62
7
100
AcDbSpline
 70
8
 71
3
 72
8
 73
4
 74
0
 40
0
 40
0
 40
0
 40
0
 40
1
 40
1
 40
1
 40
1
 10
89.359846
 20
49.089360
 30
0.0
 10
88.780617
 20
49.202959
 30
0.0
 10
88.595203
 20
49.085947
 30
0.0
 10
88.248995
 20
48.388363
 30
0.0
  0
SPLINE
  5
18c
100
AcDbEntity
  8
0
 62
7
100
AcDbSpline
 70
8
 71
3
 72
8
 73
4
 74
0
 40
0
 40
0
 40
0
 40
0
 40
1
 40
1
 40
1
 40
1
 10
88.248995
 20
48.388363
 30
0.0
 10
87.982060
 20
47.850499
 30
0.0
 10
87.532557
 20
47.460464
 30
0.0
 10
86.992225
 20
47.297853
 30
0.0
  0
SPLINE
  5
18d
100
AcDbEntity
  8
0
 62
7
100
AcDbSpline
 70
8
 71
3
 72
8
 73
4
 74
0
 40
0
 40
0
 40
0
 40
0
 40
1
 40
1
 40
1
 40
1
 10
86.992225
 20
47.297853
 30
0.0
 10
86.360762
 20
47.107822
 30
0.0
 10
86.151024
 20
46.891302
 30
0.0
 10
86.151024
 20
46.429459
 30
0.0
  0
SPLINE
  5
18e
100
AcDbEntity
  8
0
 62
7
100
AcDbSpline
 70
8
 71
3
 72
8
 73
4
 74
0
 40
0
 40
0
 40
0
 40
0
 40
1
 40
1
 40
1
 40
1
 10
86.151024
 20
46.429459
 30
0.0
 10
86.151024
 20
45.515358
 30
0.0
 10
85.641161
 20
44.446246
 30
0.0
 10
83.546080
 20
40.967247
 30
0.0
  0
SPLINE
  5
18f
100
AcDbEntity
  8
0
 62
7
100
AcDbSpline
 70
8
 71
3
 72
8
 73
4
 74
0
 40
0
 40
0
 40
0
 40
0
 40
1
 40
1
 40
1
 40
1
 10
83.546080
 20
40.967247
 30
0.0
 10
81.589933
 20
37.718960
 30
0.0
 10
81.041679
 20
36.324712
 30
0.0
 10
80.577047
 20
33.416793
 30
0.0
  0
SPLINE
  5
190
100
AcDbEntity
  8
0
 62
7
100
AcDbSpline
 70
8
 71
3
 72
8
 73
4
 74
0
 40
0
 40
0
 40
0
 40
0
 40
1
 40
1
 40
1
 40
1
 10
80.577047
 20
33.416793
 30
0.0
 10
80.427756
 20
32.482454
 30
0.0
 10
80.251406
 20
31.630292
 30
0.0
 10
80.185159
 20
31.523099
 30
0.0
  0
SPLINE
  5
191
100
AcDbEntity
  8
0
 62
7
100
AcDbSpline
 70
8
 71
3
 72
8
 73
4
 74
0
 40
0
 40
0
 40
0
 40
0
 40
1
 40
1
 40
1
 40
1
 10
80.185159
 20
31.523099
 30
0.0
 10
80.118910
 20
31.415908
 30
0.0
 10
81.225768
 20
31.130333
 30
0.0
 10
82.644845
 20
30.888493
 30
0.0
  0
SPLINE
  5
192
100
AcDbEntity
  8
0
 62
7
100
AcDbSpline
 70
8
 71
3
 72
8
 73
4
 74
0
 40
0
 40
0
 40
0
 40
0
 40
1
 40
1
 40
1
 40
1
 10
82.644845
 20
30.888493
 30
0.0
 10
84.063919
 20
30.646650
 30
0.0
 10
85.403576
 20
30.411293
 30
0.0
 10
85.621857
 20
30.365480
 30
0.0
  0
SPLINE
  5
193
100
AcDbEntity
  8
0
 62
7
100
AcDbSpline
 70
8
 71
3
 72
8
 73
4
 74
0
 40
0
 40
0
 40
0
 40
0
 40
1
 40
1
 40
1
 40
1
 10
85.621857
 20
30.365480
 30
0.0
 10
85.840139
 20
30.319665
 30
0.0
 10
86.479668
 20
30.268370
 30
0.0
 10
87.043032
 20
30.251490
 30
0.0
  0
LWPOLYLINE
  5
194
100
AcDbEntity
  8
0
 62
7
100
AcDbPolyline
 90
1
 70
1
 10
130.997896
 20
3.804888
 30
0.0
  0
SPLINE
  5
195
100
AcDbEntity
  8
0
 62
7
100
AcDbSpline
 70
8
 71
3
 72
8
 73
4
 74
0
 40
0
 40
0
 40
0
 40
0
 40
1
 40
1
 40
1
 40
1
 10
111.551024
 20
38.026007
 30
0.0
 10
111.551024
 20
38.535330
 30
0.0
 10
111.516668
 20
38.952048
 30
0.0
 10
111.474676
 20
38.952048
 30
0.0
  0
SPLINE
  5
196
100
AcDbEntity
  8
0
 62
7
100
AcDbSpline
 70
8
 71
3
 72
8
 73
4
 74
0
 40
0
 40
0
 40
0
 40
0
 40
1
 40
1
 40
1
 40
1
 10
111.474676
 20
38.952048
 30
0.0
 10
111.432684
 20
38.952048
 30
0.0
 10
110.942824
 20
38.719818
 30
0.0
 10
110.386095
 20
38.435984
 30
0.0
  0
LWPOLYLINE
  5
197
100
AcDbEntity
  8
0
 62
7
100
AcDbPolyline
 90
3
 70
0
 10
87.043032
 20
30.251490
 30
0.0
 10
88.067332
 20
30.220798
 30
0.0
 10
87.886297
 20
34.520277
 30
0.0
  0
SPLINE
  5
198
100
AcDbEntity
  8
0
 62
7
100
AcDbSpline
 70
8
 71
3
 72
8
 73
4
 74
0
 40
0
 40
0
 40
0
 40
0
 40
1
 40
1
 40
1
 40
1
 10
110.264006
 20
37.531524
 30
0.0
 10
111.520211
 20
36.983408
 30
0.0
 10
111.551024
 20
36.995248
 30
0.0
 10
111.551024
 20
38.026007
 30
0.0
  0
LWPOLYLINE
  5
199
100
AcDbEntity
  8
0
 62
7
100
AcDbPolyline
 90
3
 70
0
 10
110.386095
 20
38.435984
 30
0.0
 10
109.373863
 20
37.919917
 30
0.0
 10
110.264006
 20
37.531524
 30
0.0
  0
SPLINE
  5
19a
100
AcDbEntity
  8
0
 62
7
100
AcDbSpline
 70
8
 71
3
 72
8
 73
4
 74
0
 40
0
 40
0
 40
0
 40
0
 40
1
 40
1
 40
1
 40
1
 10
123.388091
 20
62.036944
 30
0.0
 10
121.664534
 20
64.278587
 30
0.0
 10
121.653424
 20
64.284331
 30
0.0
 10
119.488262
 20
64.052984
 30
0.0
  0
SPLINE
  5
19b
100
AcDbEntity
  8
0
 62
7
100
AcDbSpline
 70
8
 71
3
 72
8
 73
4
 74
0
 40
0
 40
0
 40
0
 40
0
 40
1
 40
1
 40
1
 40
1
 10
119.488262
 20
64.052984
 30
0.0
 10
118.409918
 20
63.937764
 30
0.0
 10
117.497034
 20
63.874092
 30
0.0
 10
117.459633
 20
63.911496
 30
0.0
  0
SPLINE
  5
19c
100
AcDbEntity
  8
0
 62
7
100
AcDbSpline
 70
8
 71
3
 72
8
 73
4
 74
0
 40
0
 40
0
 40
0
 40
0
 40
1
 40
1
 40
1
 40
1
 10
117.459633
 20
63.911496
 30
0.0
 10
117.422231
 20
63.948897
 30
0.0
 10
117.801906
 20
64.628869
 30
0.0
 10
118.303355
 20
65.422545
 30
0.0
  0
SPLINE
  5
19d
100
AcDbEntity
  8
0
 62
7
100
AcDbSpline
 70
8
 71
3
 72
8
 73
4
 74
0
 40
0
 40
0
 40
0
 40
0
 40
1
 40
1
 40
1
 40
1
 10
118.303355
 20
65.422545
 30
0.0
 10
118.804804
 20
66.216220
 30
0.0
 10
119.292010
 20
67.021363
 30
0.0
 10
119.386032
 20
67.211755
 30
0.0
  0
SPLINE
  5
19e
100
AcDbEntity
  8
0
 62
7
100
AcDbSpline
 70
8
 71
3
 72
8
 73
4
 74
0
 40
0
 40
0
 40
0
 40
0
 40
1
 40
1
 40
1
 40
1
 10
119.386032
 20
67.211755
 30
0.0
 10
119.480057
 20
67.402144
 30
0.0
 10
119.189190
 20
68.349519
 30
0.0
 10
118.739663
 20
69.317031
 30
0.0
  0
SPLINE
  5
19f
100
AcDbEntity
  8
0
 62
7
100
AcDbSpline
 70
8
 71
3
 72
8
 73
4
 74
0
 40
0
 40
0
 40
0
 40
0
 40
1
 40
1
 40
1
 40
1
 10
118.739663
 20
69.317031
 30
0.0
 10
118.290139
 20
70.284544
 30
0.0
 10
117.969236
 20
71.123040
 30
0.0
 10
118.026550
 20
71.180354
 30
0.0
  0
SPLINE
  5
1a0
100
AcDbEntity
  8
0
 62
7
100
AcDbSpline
 70
8
 71
3
 72
8
 73
4
 74
0
 40
0
 40
0
 40
0
 40
0
 40
1
 40
1
 40
1
 40
1
 10
118.026550
 20
71.180354
 30
0.0
 10
118.083864
 20
71.237668
 30
0.0
 10
119.020701
 20
71.074756
 30
0.0
 10
120.108411
 20
70.818327
 30
0.0
  0
LWPOLYLINE
  5
1a1
100
AcDbEntity
  8
0
 62
7
100
AcDbPolyline
 90
1
 70
1
 10
111.551024
 20
38.026007
 30
0.0
  0
SPLINE
  5
1a2
100
AcDbEntity
  8
0
 62
7
100
AcDbSpline
 70
8
 71
3
 72
8
 73
4
 74
0
 40
0
 40
0
 40
0
 40
0
 40
1
 40
1
 40
1
 40
1
 10
125.243574
 20
71.840709
 30
0.0
 10
125.388291
 20
69.075234
 30
0.0
 10
125.452857
 20
68.951803
 30
0.0
 10
127.348671
 20
67.816418
 30
0.0
  0
LWPOLYLINE
  5
1a3
100
AcDbEntity
  8
0
 62
7
100
AcDbPolyline
 90
5
 70
0
 10
120.108411
 20
70.818327
 30
0.0
 10
122.086063
 20
70.352095
 30
0.0
 10
123.631566
 20
71.731878
 30
0.0
 10
125.177066
 20
73.111662
 30
0.0
 10
125.243574
 20
71.840709
 30
0.0
  0
SPLINE
  5
1a4
100
AcDbEntity
  8
0
 62
7
100
AcDbSpline
 70
8
 71
3
 72
8
 73
4
 74
0
 40
0
 40
0
 40
0
 40
0
 40
1
 40
1
 40
1
 40
1
 10
127.569923
 20
66.088196
 30
0.0
 10
126.726961
 20
65.715399
 30
0.0
 10
125.937206
 20
65.410382
 30
0.0
 10
125.814910
 20
65.410382
 30
0.0
  0
SPLINE
  5
1a5
100
AcDbEntity
  8
0
 62
7
100
AcDbSpline
 70
8
 71
3
 72
8
 73
4
 74
0
 40
0
 40
0
 40
0
 40
0
 40
1
 40
1
 40
1
 40
1
 10
125.814910
 20
65.410382
 30
0.0
 10
125.450767
 20
65.410382
 30
0.0
 10
125.116955
 20
64.584691
 30
0.0
 10
124.771989
 20
62.830694
 30
0.0
  0
SPLINE
  5
1a6
100
AcDbEntity
  8
0
 62
7
100
AcDbSpline
 70
8
 71
3
 72
8
 73
4
 74
0
 40
0
 40
0
 40
0
 40
0
 40
1
 40
1
 40
1
 40
1
 10
124.771989
 20
62.830694
 30
0.0
 10
124.593115
 20
61.921189
 30
0.0
 10
124.357321
 20
61.177048
 30
0.0
 10
124.248003
 20
61.177048
 30
0.0
  0
SPLINE
  5
1a7
100
AcDbEntity
  8
0
 62
7
100
AcDbSpline
 70
8
 71
3
 72
8
 73
4
 74
0
 40
0
 40
0
 40
0
 40
0
 40
1
 40
1
 40
1
 40
1
 10
124.248003
 20
61.177048
 30
0.0
 10
124.138687
 20
61.177048
 30
0.0
 10
123.751726
 20
61.564001
 30
0.0
 10
123.388091
 20
62.036944
 30
0.0
  0
LWPOLYLINE
  5
1a8
100
AcDbEntity
  8
0
 62
7
100
AcDbPolyline
 90
3
 70
0
 10
127.348671
 20
67.816418
 30
0.0
 10
129.102586
 20
66.766011
 30
0.0
 10
127.569923
 20
66.088196
 30
0.0
  0
LWPOLYLINE
  5
1a9
100
AcDbEntity
  8
0
 62
7
100
AcDbPolyline
 90
1
 70
1
 10
123.388091
 20
62.036944
 30
0.0
  0
ENDSEC
  0
SECTION
  2
OBJECTS
  0
DICTIONARY
  5
C
330
0
100
AcDbDictionary
  3
ACAD_GROUP
350
D
  3
ACAD_MLINESTYLE
350
17
  0
DICTIONARY
  5
D
330
C
100
AcDbDictionary
  0
DICTIONARY
  5
1A
330
C
100
AcDbDictionary
  0
DICTIONARY
  5
17
330
C
100
AcDbDictionary
  3
STANDARD
350
18
  0
DICTIONARY
  5
19
330
C
100
AcDbDictionary
  0
ENDSEC
  0
EOF
