  0
SECTION
  2
HEADER
  9
$ACADVER
  1
AC1009
  9
$DWGCODEPAGE
  3
ansi_1256
  9
$INSBASE
 10
0.0
 20
0.0
 30
0.0
  9
$EXTMIN
 10
0.0
 20
0.0000103757764472
 30
0.0
  9
$EXTMAX
 10
0.001
 20
0.0009896242235528
 30
0.0
  9
$LIMMIN
 10
0.0
 20
0.0
  9
$LIMMAX
 10
12.0
 20
9.0
  9
$ORTHOMODE
 70
     0
  9
$REGENMODE
 70
     1
  9
$FILLMODE
 70
     1
  9
$QTEXTMODE
 70
     0
  9
$MIRRTEXT
 70
     1
  9
$DRAGMODE
 70
     2
  9
$LTSCALE
 40
1.0
  9
$OSMODE
 70
    37
  9
$ATTMODE
 70
     1
  9
$TEXTSIZE
 40
0.2
  9
$TRACEWID
 40
0.05
  9
$TEXTSTYLE
  7
STANDARD
  9
$CLAYER
  8
0
  9
$CELTYPE
  6
BYLAYER
  9
$CECOLOR
 62
   256
  9
$DIMSCALE
 40
1.0
  9
$DIMASZ
 40
0.18
  9
$DIMEXO
 40
0.0625
  9
$DIMDLI
 40
0.38
  9
$DIMRND
 40
0.0
  9
$DIMDLE
 40
0.0
  9
$DIMEXE
 40
0.18
  9
$DIMTP
 40
0.0
  9
$DIMTM
 40
0.0
  9
$DIMTXT
 40
0.18
  9
$DIMCEN
 40
0.09
  9
$DIMTSZ
 40
0.0
  9
$DIMTOL
 70
     0
  9
$DIMLIM
 70
     0
  9
$DIMTIH
 70
     1
  9
$DIMTOH
 70
     1
  9
$DIMSE1
 70
     0
  9
$DIMSE2
 70
     0
  9
$DIMTAD
 70
     0
  9
$DIMZIN
 70
     0
  9
$DIMBLK
  1

  9
$DIMASO
 70
     1
  9
$DIMSHO
 70
     1
  9
$DIMPOST
  1

  9
$DIMAPOST
  1

  9
$DIMALT
 70
     0
  9
$DIMALTD
 70
     2
  9
$DIMALTF
 40
25.4
  9
$DIMLFAC
 40
1.0
  9
$DIMTOFL
 70
     0
  9
$DIMTVP
 40
0.0
  9
$DIMTIX
 70
     0
  9
$DIMSOXD
 70
     0
  9
$DIMSAH
 70
     0
  9
$DIMBLK1
  1

  9
$DIMBLK2
  1

  9
$DIMSTYLE
  2
STANDARD
  9
$DIMCLRD
 70
     0
  9
$DIMCLRE
 70
     0
  9
$DIMCLRT
 70
     0
  9
$DIMTFAC
 40
1.0
  9
$DIMGAP
 40
0.09
  9
$LUNITS
 70
     2
  9
$LUPREC
 70
     4
  9
$SKETCHINC
 40
0.1
  9
$FILLETRAD
 40
0.5
  9
$AUNITS
 70
     0
  9
$AUPREC
 70
     0
  9
$MENU
  1
.
  9
$ELEVATION
 40
0.0
  9
$PELEVATION
 40
0.0
  9
$THICKNESS
 40
0.0
  9
$LIMCHECK
 70
     0
  9
$CHAMFERA
 40
0.0
  9
$CHAMFERB
 40
0.0
  9
$SKPOLY
 70
     0
  9
$TDCREATE
 40
2454910.5
  9
$TDUPDATE
 40
2458131.202374792
  9
$TDINDWG
 40
0.0000000116
  9
$TDUSRTIMER
 40
0.0000000116
  9
$USRTIMER
 70
     1
  9
$ANGBASE
 50
0.0
  9
$ANGDIR
 70
     0
  9
$PDMODE
 70
     0
  9
$PDSIZE
 40
0.0
  9
$PLINEWID
 40
0.0
  9
$COORDS
 70
     1
  9
$SPLFRAME
 70
     0
  9
$SPLINETYPE
 70
     6
  9
$SPLINESEGS
 70
     8
  9
$ATTDIA
 70
     0
  9
$ATTREQ
 70
     1
  9
$HANDLING
 70
     1
  9
$HANDSEED
  5
11ED
  9
$SURFTAB1
 70
     6
  9
$SURFTAB2
 70
     6
  9
$SURFTYPE
 70
     6
  9
$SURFU
 70
     6
  9
$SURFV
 70
     6
  9
$UCSNAME
  2

  9
$UCSORG
 10
0.0
 20
0.0
 30
0.0
  9
$UCSXDIR
 10
1.0
 20
0.0
 30
0.0
  9
$UCSYDIR
 10
0.0
 20
1.0
 30
0.0
  9
$PUCSNAME
  2

  9
$PUCSORG
 10
0.0
 20
0.0
 30
0.0
  9
$PUCSXDIR
 10
1.0
 20
0.0
 30
0.0
  9
$PUCSYDIR
 10
0.0
 20
1.0
 30
0.0
  9
$USERI1
 70
     0
  9
$USERI2
 70
     0
  9
$USERI3
 70
     0
  9
$USERI4
 70
     0
  9
$USERI5
 70
     0
  9
$USERR1
 40
0.0
  9
$USERR2
 40
0.0
  9
$USERR3
 40
0.0
  9
$USERR4
 40
0.0
  9
$USERR5
 40
0.0
  9
$WORLDVIEW
 70
     1
  9
$SHADEDGE
 70
     3
  9
$SHADEDIF
 70
    70
  9
$TILEMODE
 70
     1
  9
$MAXACTVP
 70
    64
  9
$PLIMCHECK
 70
     0
  9
$PEXTMIN
 10
1.000000000000000E+20
 20
1.000000000000000E+20
 30
1.000000000000000E+20
  9
$PEXTMAX
 10
-1.000000000000000E+20
 20
-1.000000000000000E+20
 30
-1.000000000000000E+20
  9
$PLIMMIN
 10
0.0
 20
0.0
  9
$PLIMMAX
 10
12.0
 20
9.0
  9
$UNITMODE
 70
     0
  9
$VISRETAIN
 70
     1
  9
$PLINEGEN
 70
     0
  9
$PSLTSCALE
 70
     1
  0
ENDSEC
  0
SECTION
  2
TABLES
  0
TABLE
  2
VPORT
 70
     1
  0
VPORT
  2
*ACTIVE
 70
     0
 10
0.0
 20
0.0
 11
1.0
 21
1.0
 12
10.42990654205607
 22
4.5
 13
0.0
 23
0.0
 14
0.5
 24
0.5
 15
0.5
 25
0.5
 16
0.0
 26
0.0
 36
1.0
 17
0.0
 27
0.0
 37
0.0
 40
9.0
 41
1.972972972850329
 42
50.0
 43
0.0
 44
0.0
 50
0.0
 51
0.0
 71
     0
 72
   100
 73
     1
 74
     3
 75
     0
 76
     0
 77
     0
 78
     0
  0
ENDTAB
  0
TABLE
  2
LTYPE
 70
     2
  0
LTYPE
  2
CONTINUOUS
 70
     0
  3
Solid line
 72
    65
 73
     0
 40
0.0
  0
LTYPE
  2
CONTINUOUS2
 70
     0
  3
Solid Line
 72
    65
 73
     0
 40
0.0
  0
ENDTAB
  0
TABLE
  2
LAYER
 70
     1
  0
LAYER
  2
0
 70
     0
 62
     7
  6
CONTINUOUS
  0
ENDTAB
  0
TABLE
  2
STYLE
 70
     1
  0
STYLE
  2
STANDARD
 70
     0
 40
0.0
 41
1.0
 50
0.0
 71
     0
 42
0.2
  3
txt
  4

  0
ENDTAB
  0
TABLE
  2
VIEW
 70
     0
  0
ENDTAB
  0
TABLE
  2
UCS
 70
     0
  0
ENDTAB
  0
TABLE
  2
APPID
 70
     1
  0
APPID
  2
ACAD
 70
     0
  0
ENDTAB
  0
TABLE
  2
DIMSTYLE
 70
     1
  0
DIMSTYLE
  2
STANDARD
 70
     0
  3

  4

  5

  6

  7

 40
1.0
 41
0.18
 42
0.0625
 43
0.38
 44
0.18
 45
0.0
 46
0.0
 47
0.0
 48
0.0
140
0.18
141
0.09
142
0.0
143
25.4
144
1.0
145
0.0
146
1.0
147
0.09
 71
     0
 72
     0
 73
     1
 74
     1
 75
     0
 76
     0
 77
     0
 78
     0
170
     0
171
     2
172
     0
173
     0
174
     0
175
     0
176
     0
177
     0
178
     0
  0
ENDTAB
  0
ENDSEC
  0
SECTION
  2
BLOCKS
  0
BLOCK
  8
0
  2
$MODEL_SPACE
 70
     0
 10
0.0
 20
0.0
 30
0.0
  3
$MODEL_SPACE
  1

  0
ENDBLK
  5
21
  8
0
  0
BLOCK
 67
     1
  8
0
  2
$PAPER_SPACE
 70
     0
 10
0.0
 20
0.0
 30
0.0
  3
$PAPER_SPACE
  1

  0
ENDBLK
  5
1D
 67
     1
  8
0
  0
ENDSEC
  0
SECTION
  2
ENTITIES
  0
POLYLINE
  5
6F
  8
0
 66
     1
 10
0.0
 20
0.0
 30
0.0
 70
     1
  0
VERTEX
  5
15B
  8
0
 10
0.000632038416628
 20
0.0001445295240058
 30
0.0
  0
VERTEX
  5
15C
  8
0
 10
0.0006331925939341
 20
0.0001446945690718
 30
0.0
  0
VERTEX
  5
15D
  8
0
 10
0.0006355429227235
 20
0.0001492072433722
 30
0.0
  0
VERTEX
  5
15E
  8
0
 10
0.0006357083930344
 20
0.0001525850639969
 30
0.0
  0
VERTEX
  5
15F
  8
0
 10
0.000637345548536
 20
0.0001533984074827
 30
0.0
  0
VERTEX
  5
160
  8
0
 10
0.0006382415271196
 20
0.0001501300248943
 30
0.0
  0
VERTEX
  5
161
  8
0
 10
0.000634736708344
 20
0.0001416557937372
 30
0.0
  0
VERTEX
  5
162
  8
0
 10
0.0006270332336426
 20
0.000140281977419
 30
0.0
  0
VERTEX
  5
163
  8
0
 10
0.0006244641538526
 20
0.0001416519665327
 30
0.0
  0
VERTEX
  5
164
  8
0
 10
0.000623020222148
 20
0.0001395405753714
 30
0.0
  0
VERTEX
  5
165
  8
0
 10
0.0006209676773822
 20
0.0001364075207319
 30
0.0
  0
VERTEX
  5
166
  8
0
 10
0.0006220242984959
 20
0.0001322320906842
 30
0.0
  0
VERTEX
  5
167
  8
0
 10
0.0006225271131172
 20
0.0001289570042344
 30
0.0
  0
VERTEX
  5
168
  8
0
 10
0.0006215027480829
 20
0.0001219446150983
 30
0.0
  0
VERTEX
  5
169
  8
0
 10
0.0006223189807329
 20
0.000116555060715
 30
0.0
  0
VERTEX
  5
16A
  8
0
 10
0.0006220905741707
 20
0.0001100048377866
 30
0.0
  0
VERTEX
  5
16B
  8
0
 10
0.0006227655379499
 20
0.0001037792768635
 30
0.0
  0
VERTEX
  5
16C
  8
0
 10
0.0006254895319704
 20
0.0001009833163902
 30
0.0
  0
VERTEX
  5
16D
  8
0
 10
0.0006317616071857
 20
0.0001007293951316
 30
0.0
  0
VERTEX
  5
16E
  8
0
 10
0.0006376479227035
 20
0.0000991497102331
 30
0.0
  0
VERTEX
  5
16F
  8
0
 10
0.0006394281981421
 20
0.0000955542892706
 30
0.0
  0
VERTEX
  5
170
  8
0
 10
0.0006404932115899
 20
0.0000878154316887
 30
0.0
  0
VERTEX
  5
171
  8
0
 10
0.0006433833262959
 20
0.0000848639066102
 30
0.0
  0
VERTEX
  5
172
  8
0
 10
0.0006478443708576
 20
0.0000873230480757
 30
0.0
  0
VERTEX
  5
173
  8
0
 10
0.0006552494111608
 20
0.0000945490102299
 30
0.0
  0
VERTEX
  5
174
  8
0
 10
0.0006624224178127
 20
0.0001075068239306
 30
0.0
  0
VERTEX
  5
175
  8
0
 10
0.0006759058217533
 20
0.0001289910488441
 30
0.0
  0
VERTEX
  5
176
  8
0
 10
0.0006971679312284
 20
0.0001383577940894
 30
0.0
  0
VERTEX
  5
177
  8
0
 10
0.0007141664598809
 20
0.0001371353899846
 30
0.0
  0
VERTEX
  5
178
  8
0
 10
0.0007316294935883
 20
0.0001245948666432
 30
0.0
  0
VERTEX
  5
179
  8
0
 10
0.0007386681478532
 20
0.0001052023965804
 30
0.0
  0
VERTEX
  5
17A
  8
0
 10
0.0007417858686603
 20
0.0000814003866227
 30
0.0
  0
VERTEX
  5
17B
  8
0
 10
0.0007451720691118
 20
0.0000776583311988
 30
0.0
  0
VERTEX
  5
17C
  8
0
 10
0.0007599602871254
 20
0.0000768712278272
 30
0.0
  0
VERTEX
  5
17D
  8
0
 10
0.0007656223234583
 20
0.0000789360171459
 30
0.0
  0
VERTEX
  5
17E
  8
0
 10
0.0007666043641137
 20
0.0000812380180984
 30
0.0
  0
VERTEX
  5
17F
  8
0
 10
0.0007656432855325
 20
0.0000970174070264
 30
0.0
  0
VERTEX
  5
180
  8
0
 10
0.0007652424046251
 20
0.0001233459222512
 30
0.0
  0
VERTEX
  5
181
  8
0
 10
0.0007587900130475
 20
0.000152942369805
 30
0.0
  0
VERTEX
  5
182
  8
0
 10
0.0007438017798252
 20
0.0001641052246094
 30
0.0
  0
VERTEX
  5
183
  8
0
 10
0.0007161866985384
 20
0.0001710863457351
 30
0.0
  0
VERTEX
  5
184
  8
0
 10
0.0006910964840748
 20
0.0001750677890465
 30
0.0
  0
VERTEX
  5
185
  8
0
 10
0.0006731228812796
 20
0.0001765764330254
 30
0.0
  0
VERTEX
  5
186
  8
0
 10
0.0006455741507108
 20
0.0001748444103804
 30
0.0
  0
VERTEX
  5
187
  8
0
 10
0.000635867109455
 20
0.0001717518290535
 30
0.0
  0
VERTEX
  5
188
  8
0
 10
0.000634604807369
 20
0.0001698371511991
 30
0.0
  0
VERTEX
  5
189
  8
0
 10
0.0006382621514993
 20
0.0001619068083216
 30
0.0
  0
VERTEX
  5
18A
  8
0
 10
0.0006380766571545
 20
0.0001580232213755
 30
0.0
  0
VERTEX
  5
18B
  8
0
 10
0.0006380736179039
 20
0.0001580076624136
 30
0.0
  0
VERTEX
  5
18C
  8
0
 10
0.0006350747905794
 20
0.0001593920348121
 30
0.0
  0
VERTEX
  5
18D
  8
0
 10
0.000634173746578
 20
0.0001503073520348
 30
0.0
  0
SEQEND
  5
1108
  8
0
  0
POLYLINE
  5
70
  8
0
 66
     1
 10
0.0
 20
0.0
 30
0.0
 70
     1
  0
VERTEX
  5
18E
  8
0
 10
0.0007260459024398
 20
0.0000789308641778
 30
0.0
  0
VERTEX
  5
18F
  8
0
 10
0.0007200242339588
 20
0.0001077315033459
 30
0.0
  0
VERTEX
  5
190
  8
0
 10
0.0007102597346071
 20
0.00011877303827
 30
0.0
  0
VERTEX
  5
191
  8
0
 10
0.000690895730941
 20
0.000124299621582
 30
0.0
  0
VERTEX
  5
192
  8
0
 10
0.0006695416559939
 20
0.0001116439569192
 30
0.0
  0
VERTEX
  5
193
  8
0
 10
0.0006579491412053
 20
0.0000911991306993
 30
0.0
  0
VERTEX
  5
194
  8
0
 10
0.0006542235577693
 20
0.0000760876765017
 30
0.0
  0
VERTEX
  5
195
  8
0
 10
0.0006568554612457
 20
0.0000545197033491
 30
0.0
  0
VERTEX
  5
196
  8
0
 10
0.000675312392438
 20
0.0000319736168033
 30
0.0
  0
VERTEX
  5
197
  8
0
 10
0.000693902487833
 20
0.0000285475934138
 30
0.0
  0
VERTEX
  5
198
  8
0
 10
0.000707609408019
 20
0.0000345661100794
 30
0.0
  0
VERTEX
  5
199
  8
0
 10
0.0007235271266249
 20
0.0000588306864754
 30
0.0
  0
SEQEND
  5
1109
  8
0
  0
POLYLINE
  5
71
  8
0
 66
     1
 10
0.0
 20
0.0
 30
0.0
 70
     1
  0
VERTEX
  5
19A
  8
0
 10
0.000728255800341
 20
0.0000646504886815
 30
0.0
  0
VERTEX
  5
19B
  8
0
 10
0.0008102001023122
 20
0.0000689532618029
 30
0.0
  0
VERTEX
  5
19C
  8
0
 10
0.0008102009257332
 20
0.0000689613217213
 30
0.0
  0
VERTEX
  5
19D
  8
0
 10
0.000805705536389
 20
0.0000736370649494
 30
0.0
  0
VERTEX
  5
19E
  8
0
 10
0.0008008504398534
 20
0.0000755252025167
 30
0.0
  0
VERTEX
  5
19F
  8
0
 10
0.0007744991114882
 20
0.0000750864497951
 30
0.0
  0
VERTEX
  5
1A0
  8
0
 10
0.0007594677784404
 20
0.0000732306808722
 30
0.0
  0
VERTEX
  5
1A1
  8
0
 10
0.0007433797117139
 20
0.0000743058501697
 30
0.0
  0
VERTEX
  5
1A2
  8
0
 10
0.0007389048842133
 20
0.0000812610813829
 30
0.0
  0
VERTEX
  5
1A3
  8
0
 10
0.0007344775090452
 20
0.0000867747072314
 30
0.0
  0
VERTEX
  5
1A4
  8
0
 10
0.0007299546038518
 20
0.0000863920618276
 30
0.0
  0
VERTEX
  5
1A5
  8
0
 10
0.000729127352355
 20
0.0000824887635278
 30
0.0
  0
SEQEND
  5
110A
  8
0
  0
POLYLINE
  5
72
  8
0
 66
     1
 10
0.0
 20
0.0
 30
0.0
 70
     1
  0
VERTEX
  5
1A6
  8
0
 10
0.0008962251506868
 20
0.0000667566518315
 30
0.0
  0
VERTEX
  5
1A7
  8
0
 10
0.0008933734330975
 20
0.0000799807689229
 30
0.0
  0
VERTEX
  5
1A8
  8
0
 10
0.0008914108776655
 20
0.0000817170940462
 30
0.0
  0
VERTEX
  5
1A9
  8
0
 10
0.0008830708738233
 20
0.0000813687183818
 30
0.0
  0
VERTEX
  5
1AA
  8
0
 10
0.0008377823876553
 20
0.0000783918036789
 30
0.0
  0
VERTEX
  5
1AB
  8
0
 10
0.0008354107215756
 20
0.000076053756964
 30
0.0
  0
VERTEX
  5
1AC
  8
0
 10
0.0008324491907339
 20
0.0000716725333792
 30
0.0
  0
VERTEX
  5
1AD
  8
0
 10
0.0008315240578573
 20
0.0000704912529617
 30
0.0
  0
VERTEX
  5
1AE
  8
0
 10
0.0008407128506019
 20
0.0000709437636078
 30
0.0
  0
VERTEX
  5
1AF
  8
0
 10
0.0008520473792905
 20
0.000071103855821
 30
0.0
  0
VERTEX
  5
1B0
  8
0
 10
0.0008944591334609
 20
0.0000669262995485
 30
0.0
  0
SEQEND
  5
110B
  8
0
  0
POLYLINE
  5
73
  8
0
 66
     1
 10
0.0
 20
0.0
 30
0.0
 70
     1
  0
VERTEX
  5
1B1
  8
0
 10
0.0006113690110504
 20
0.0001400876404809
 30
0.0
  0
VERTEX
  5
1B2
  8
0
 10
0.0006113669223473
 20
0.0001404624063461
 30
0.0
  0
VERTEX
  5
1B3
  8
0
 10
0.0006179369691943
 20
0.0001408623867348
 30
0.0
  0
VERTEX
  5
1B4
  8
0
 10
0.0006206092209112
 20
0.0001426428873031
 30
0.0
  0
VERTEX
  5
1B5
  8
0
 10
0.0006203020814989
 20
0.0001465587928647
 30
0.0
  0
VERTEX
  5
1B6
  8
0
 10
0.0006185740236376
 20
0.0001517931078301
 30
0.0
  0
VERTEX
  5
1B7
  8
0
 10
0.0006147217172091
 20
0.0001514024328013
 30
0.0
  0
VERTEX
  5
1B8
  8
0
 10
0.0006135372474545
 20
0.0001486258835089
 30
0.0
  0
VERTEX
  5
1B9
  8
0
 10
0.0006107947177574
 20
0.0001468994390769
 30
0.0
  0
VERTEX
  5
1BA
  8
0
 10
0.0005917837549428
 20
0.0001466179019115
 30
0.0
  0
VERTEX
  5
1BB
  8
0
 10
0.0005685194672131
 20
0.0001483624067463
 30
0.0
  0
VERTEX
  5
1BC
  8
0
 10
0.000564539906236
 20
0.0001454051033395
 30
0.0
  0
VERTEX
  5
1BD
  8
0
 10
0.0005654270609871
 20
0.0001439159705991
 30
0.0
  0
VERTEX
  5
1BE
  8
0
 10
0.00056889706596
 20
0.0001418119086594
 30
0.0
  0
VERTEX
  5
1BF
  8
0
 10
0.0005821143916396
 20
0.0001398364958216
 30
0.0
  0
SEQEND
  5
110C
  8
0
  0
POLYLINE
  5
74
  8
0
 66
     1
 10
0.0
 20
0.0
 30
0.0
 70
     1
  0
VERTEX
  5
1C0
  8
0
 10
0.0006022431795714
 20
0.0001138785940702
 30
0.0
  0
VERTEX
  5
1C1
  8
0
 10
0.0006187215461106
 20
0.0001139728233462
 30
0.0
  0
VERTEX
  5
1C2
  8
0
 10
0.0006197184828461
 20
0.000115198904569
 30
0.0
  0
VERTEX
  5
1C3
  8
0
 10
0.0006178640146725
 20
0.0001187352665135
 30
0.0
  0
VERTEX
  5
1C4
  8
0
 10
0.0006146300394027
 20
0.0001203165523341
 30
0.0
  0
VERTEX
  5
1C5
  8
0
 10
0.0005953835221588
 20
0.000120985987929
 30
0.0
  0
VERTEX
  5
1C6
  8
0
 10
0.0005664701430524
 20
0.000124301397605
 30
0.0
  0
VERTEX
  5
1C7
  8
0
 10
0.0005630912718226
 20
0.0001246250090052
 30
0.0
  0
VERTEX
  5
1C8
  8
0
 10
0.0005626593793025
 20
0.0001230231113121
 30
0.0
  0
VERTEX
  5
1C9
  8
0
 10
0.0005632954769447
 20
0.0001203194540055
 30
0.0
  0
VERTEX
  5
1CA
  8
0
 10
0.0005676454262655
 20
0.0001179961908059
 30
0.0
  0
VERTEX
  5
1CB
  8
0
 10
0.0005749860982426
 20
0.0001157829910028
 30
0.0
  0
SEQEND
  5
110D
  8
0
  0
POLYLINE
  5
75
  8
0
 66
     1
 10
0.0
 20
0.0
 30
0.0
 70
     1
  0
VERTEX
  5
1CC
  8
0
 10
0.0009356154645076
 20
0.0000868215842325
 30
0.0
  0
VERTEX
  5
1CD
  8
0
 10
0.0009323369260694
 20
0.000101525128474
 30
0.0
  0
VERTEX
  5
1CE
  8
0
 10
0.0009244447801934
 20
0.0001063313718702
 30
0.0
  0
VERTEX
  5
1CF
  8
0
 10
0.0009187300134878
 20
0.0001024164668849
 30
0.0
  0
VERTEX
  5
1D0
  8
0
 10
0.000913738838571
 20
0.0000866577148438
 30
0.0
  0
VERTEX
  5
1D1
  8
0
 10
0.0009172813790743
 20
0.000069614998239
 30
0.0
  0
VERTEX
  5
1D2
  8
0
 10
0.0009241514112129
 20
0.0000658083556128
 30
0.0
  0
VERTEX
  5
1D3
  8
0
 10
0.0009331863653464
 20
0.0000728216452677
 30
0.0
  0
SEQEND
  5
110E
  8
0
  0
POLYLINE
  5
76
  8
0
 66
     1
 10
0.0
 20
0.0
 30
0.0
 70
     1
  0
VERTEX
  5
1D4
  8
0
 10
0.0006275391000216
 20
0.0001721156135934
 30
0.0
  0
VERTEX
  5
1D5
  8
0
 10
0.0006230382825508
 20
0.0001716978979892
 30
0.0
  0
VERTEX
  5
1D6
  8
0
 10
0.0006141331156746
 20
0.0001650126222704
 30
0.0
  0
VERTEX
  5
1D7
  8
0
 10
0.0006142463058722
 20
0.0001627491435067
 30
0.0
  0
VERTEX
  5
1D8
  8
0
 10
0.0006183066321201
 20
0.0001607617487673
 30
0.0
  0
VERTEX
  5
1D9
  8
0
 10
0.0006198097479148
 20
0.0001585535768603
 30
0.0
  0
VERTEX
  5
1DA
  8
0
 10
0.0006170366381035
 20
0.0001583645930056
 30
0.0
  0
VERTEX
  5
1DB
  8
0
 10
0.0005984557855325
 20
0.0001582057515129
 30
0.0
  0
VERTEX
  5
1DC
  8
0
 10
0.0005705507935071
 20
0.0001599667658571
 30
0.0
  0
VERTEX
  5
1DD
  8
0
 10
0.0005676634866683
 20
0.0001586359743212
 30
0.0
  0
VERTEX
  5
1DE
  8
0
 10
0.0005700346774742
 20
0.0001559751166672
 30
0.0
  0
VERTEX
  5
1DF
  8
0
 10
0.0005761356291224
 20
0.0001534057116899
 30
0.0
  0
VERTEX
  5
1E0
  8
0
 10
0.0006096080467349
 20
0.0001531034125656
 30
0.0
  0
VERTEX
  5
1E1
  8
0
 10
0.0006155475303775
 20
0.000155484308962
 30
0.0
  0
VERTEX
  5
1E2
  8
0
 10
0.0006182927991523
 20
0.0001557973892962
 30
0.0
  0
VERTEX
  5
1E3
  8
0
 10
0.0006192471539927
 20
0.0001546140689559
 30
0.0
  0
VERTEX
  5
1E4
  8
0
 10
0.0006212143319552
 20
0.0001559388457752
 30
0.0
  0
VERTEX
  5
1E5
  8
0
 10
0.0006227176728796
 20
0.0001629560126633
 30
0.0
  0
SEQEND
  5
110F
  8
0
  0
POLYLINE
  5
77
  8
0
 66
     1
 10
0.0
 20
0.0
 30
0.0
 70
     1
  0
VERTEX
  5
1E6
  8
0
 10
0.0005659593926101
 20
0.000137437263864
 30
0.0
  0
VERTEX
  5
1E7
  8
0
 10
0.0005631267359999
 20
0.0001346849785476
 30
0.0
  0
VERTEX
  5
1E8
  8
0
 10
0.0005626990146324
 20
0.000132172831551
 30
0.0
  0
VERTEX
  5
1E9
  8
0
 10
0.0005665215789295
 20
0.0001299417714604
 30
0.0
  0
VERTEX
  5
1EA
  8
0
 10
0.0005719943625028
 20
0.0001287722228003
 30
0.0
  0
VERTEX
  5
1EB
  8
0
 10
0.0006175824399854
 20
0.0001280573360256
 30
0.0
  0
VERTEX
  5
1EC
  8
0
 10
0.0006194418610119
 20
0.0001287312742139
 30
0.0
  0
VERTEX
  5
1ED
  8
0
 10
0.0006190623048876
 20
0.0001311791091669
 30
0.0
  0
VERTEX
  5
1EE
  8
0
 10
0.0006170110608711
 20
0.0001328929713515
 30
0.0
  0
VERTEX
  5
1EF
  8
0
 10
0.0006066939181969
 20
0.0001342748673236
 30
0.0
  0
VERTEX
  5
1F0
  8
0
 10
0.0005846854975966
 20
0.0001338960491243
 30
0.0
  0
VERTEX
  5
1F1
  8
0
 10
0.000569001494861
 20
0.0001362772456935
 30
0.0
  0
VERTEX
  5
1F2
  8
0
 10
0.0005660386069876
 20
0.0001375176351579
 30
0.0
  0
SEQEND
  5
1110
  8
0
  0
POLYLINE
  5
78
  8
0
 66
     1
 10
0.0
 20
0.0
 30
0.0
 70
     1
  0
VERTEX
  5
1F3
  8
0
 10
0.0005584571338091
 20
0.0001704710163054
 30
0.0
  0
VERTEX
  5
1F4
  8
0
 10
0.0005611624107986
 20
0.0001629995627481
 30
0.0
  0
VERTEX
  5
1F5
  8
0
 10
0.0005602802589291
 20
0.0001585071251041
 30
0.0
  0
VERTEX
  5
1F6
  8
0
 10
0.0005586480318892
 20
0.000157962801639
 30
0.0
  0
VERTEX
  5
1F7
  8
0
 10
0.0005585997659652
 20
0.0001551252271308
 30
0.0
  0
VERTEX
  5
1F8
  8
0
 10
0.0005593835048988
 20
0.0001511640454902
 30
0.0
  0
VERTEX
  5
1F9
  8
0
 10
0.0005599635202377
 20
0.0001488277747983
 30
0.0
  0
VERTEX
  5
1FA
  8
0
 10
0.0005566070619177
 20
0.0001440995513416
 30
0.0
  0
VERTEX
  5
1FB
  8
0
 10
0.0005565290419782
 20
0.0001410920440174
 30
0.0
  0
VERTEX
  5
1FC
  8
0
 10
0.0005580617748323
 20
0.0001406878111792
 30
0.0
  0
VERTEX
  5
1FD
  8
0
 10
0.0005587398341445
 20
0.0001380036901255
 30
0.0
  0
VERTEX
  5
1FE
  8
0
 10
0.0005566262206996
 20
0.000137715383684
 30
0.0
  0
VERTEX
  5
1FF
  8
0
 10
0.0005565262403645
 20
0.0001356627917681
 30
0.0
  0
VERTEX
  5
200
  8
0
 10
0.0005559551656657
 20
0.00011743172027
 30
0.0
  0
VERTEX
  5
201
  8
0
 10
0.0005567844453405
 20
0.0001155999605773
 30
0.0
  0
VERTEX
  5
202
  8
0
 10
0.0005598193934706
 20
0.0001187139292232
 30
0.0
  0
VERTEX
  5
203
  8
0
 10
0.0005600048252794
 20
0.0001233044483623
 30
0.0
  0
VERTEX
  5
204
  8
0
 10
0.0005602307866831
 20
0.0001299964529569
 30
0.0
  0
VERTEX
  5
205
  8
0
 10
0.0005592362825988
 20
0.0001348664580799
 30
0.0
  0
VERTEX
  5
206
  8
0
 10
0.0005624806826232
 20
0.0001393735791816
 30
0.0
  0
VERTEX
  5
207
  8
0
 10
0.0005633043007772
 20
0.0001423439901383
 30
0.0
  0
VERTEX
  5
208
  8
0
 10
0.0005606704899522
 20
0.0001447793679159
 30
0.0
  0
VERTEX
  5
209
  8
0
 10
0.0005604134168781
 20
0.0001465457103292
 30
0.0
  0
VERTEX
  5
20A
  8
0
 10
0.0005636819788719
 20
0.0001505681389839
 30
0.0
  0
VERTEX
  5
20B
  8
0
 10
0.0005636763525791
 20
0.0001505742057425
 30
0.0
  0
VERTEX
  5
20C
  8
0
 10
0.0005629017313973
 20
0.000152394904465
 30
0.0
  0
VERTEX
  5
20D
  8
0
 10
0.0005633848284112
 20
0.0001596189405097
 30
0.0
  0
VERTEX
  5
20E
  8
0
 10
0.0005658653321813
 20
0.0001617629004306
 30
0.0
  0
VERTEX
  5
20F
  8
0
 10
0.0005702215413578
 20
0.0001692602939293
 30
0.0
  0
VERTEX
  5
210
  8
0
 10
0.0005691233212831
 20
0.000173158864506
 30
0.0
  0
VERTEX
  5
211
  8
0
 10
0.0005640001265729
 20
0.0001726543989338
 30
0.0
  0
VERTEX
  5
212
  8
0
 10
0.0005589599546839
 20
0.0001707468501857
 30
0.0
  0
SEQEND
  5
1111
  8
0
  0
POLYLINE
  5
79
  8
0
 66
     1
 10
0.0
 20
0.0
 30
0.0
 70
     1
  0
VERTEX
  5
213
  8
0
 10
0.0006685987628874
 20
0.0000723720863217
 30
0.0
  0
VERTEX
  5
214
  8
0
 10
0.0006696588985256
 20
0.0000628456991227
 30
0.0
  0
VERTEX
  5
215
  8
0
 10
0.0006731924963779
 20
0.0000533446765337
 30
0.0
  0
VERTEX
  5
216
  8
0
 10
0.0006913762076956
 20
0.0000427763391714
 30
0.0
  0
VERTEX
  5
217
  8
0
 10
0.0007077990172339
 20
0.0000521915623399
 30
0.0
  0
VERTEX
  5
218
  8
0
 10
0.0007150279811171
 20
0.0000717476266329
 30
0.0
  0
VERTEX
  5
219
  8
0
 10
0.0007117962196225
 20
0.0000945347270028
 30
0.0
  0
VERTEX
  5
21A
  8
0
 10
0.0007047845058754
 20
0.0001044256741883
 30
0.0
  0
VERTEX
  5
21B
  8
0
 10
0.0006950113765529
 20
0.0001088208558129
 30
0.0
  0
VERTEX
  5
21C
  8
0
 10
0.0006804669489626
 20
0.0001036536795194
 30
0.0
  0
VERTEX
  5
21D
  8
0
 10
0.0006698283461274
 20
0.0000835090261991
 30
0.0
  0
VERTEX
  5
21E
  8
0
 10
0.0006685904831183
 20
0.0000732980196593
 30
0.0
  0
SEQEND
  5
1112
  8
0
  0
POLYLINE
  5
7A
  8
0
 66
     1
 10
0.0
 20
0.0
 30
0.0
 70
     1
  0
VERTEX
  5
21F
  8
0
 10
0.0008770499307601
 20
0.0001181944800205
 30
0.0
  0
VERTEX
  5
220
  8
0
 10
0.0008683708816278
 20
0.0001176670762359
 30
0.0
  0
VERTEX
  5
221
  8
0
 10
0.0008667197305648
 20
0.0001155856273213
 30
0.0
  0
VERTEX
  5
222
  8
0
 10
0.0008686142468062
 20
0.0001133164702869
 30
0.0
  0
VERTEX
  5
223
  8
0
 10
0.0008763295908443
 20
0.0001134389408299
 30
0.0
  0
VERTEX
  5
224
  8
0
 10
0.0008813722704278
 20
0.0001102494786997
 30
0.0
  0
VERTEX
  5
225
  8
0
 10
0.0008842720406954
 20
0.0001031877861648
 30
0.0
  0
VERTEX
  5
226
  8
0
 10
0.0008830979394131
 20
0.0001002486432185
 30
0.0
  0
VERTEX
  5
227
  8
0
 10
0.0008780016789671
 20
0.000099865522541
 30
0.0
  0
VERTEX
  5
228
  8
0
 10
0.0008536931272413
 20
0.0000986876941118
 30
0.0
  0
VERTEX
  5
229
  8
0
 10
0.0008522766113281
 20
0.0000990941032034
 30
0.0
  0
VERTEX
  5
22A
  8
0
 10
0.0008528191988585
 20
0.0001010671396725
 30
0.0
  0
VERTEX
  5
22B
  8
0
 10
0.0008572437223841
 20
0.0001097277782002
 30
0.0
  0
VERTEX
  5
22C
  8
0
 10
0.000857758218734
 20
0.000111927420194
 30
0.0
  0
VERTEX
  5
22D
  8
0
 10
0.0008600311779585
 20
0.0001117768334561
 30
0.0
  0
VERTEX
  5
22E
  8
0
 10
0.0008647879928839
 20
0.0001126000826476
 30
0.0
  0
VERTEX
  5
22F
  8
0
 10
0.0008650036420978
 20
0.0001220443475442
 30
0.0
  0
VERTEX
  5
230
  8
0
 10
0.0008634332875736
 20
0.0001651230608831
 30
0.0
  0
VERTEX
  5
231
  8
0
 10
0.0008660768352571
 20
0.0001688282700836
 30
0.0
  0
VERTEX
  5
232
  8
0
 10
0.0008735983426454
 20
0.0001688368250112
 30
0.0
  0
VERTEX
  5
233
  8
0
 10
0.0009543588106749
 20
0.0001650427896468
 30
0.0
  0
VERTEX
  5
234
  8
0
 10
0.0009564351566502
 20
0.0001634213557009
 30
0.0
  0
VERTEX
  5
235
  8
0
 10
0.0009566448774494
 20
0.0001574369837026
 30
0.0
  0
VERTEX
  5
236
  8
0
 10
0.0009568254314485
 20
0.0001510778708536
 30
0.0
  0
VERTEX
  5
237
  8
0
 10
0.0009581637523213
 20
0.000149893213491
 30
0.0
  0
VERTEX
  5
238
  8
0
 10
0.0009593094122214
 20
0.0001500319433994
 30
0.0
  0
VERTEX
  5
239
  8
0
 10
0.0009593788522189
 20
0.0001612101320361
 30
0.0
  0
VERTEX
  5
23A
  8
0
 10
0.0009609835265113
 20
0.0001626515372855
 30
0.0
  0
VERTEX
  5
23B
  8
0
 10
0.0009612172611424
 20
0.0001626298247791
 30
0.0
  0
VERTEX
  5
23C
  8
0
 10
0.0009610829837987
 20
0.0001526851216301
 30
0.0
  0
VERTEX
  5
23D
  8
0
 10
0.0009609110847848
 20
0.0001458028824603
 30
0.0
  0
VERTEX
  5
23E
  8
0
 10
0.0009604063440542
 20
0.0001440502229284
 30
0.0
  0
VERTEX
  5
23F
  8
0
 10
0.0009604049432473
 20
0.0001440500228131
 30
0.0
  0
VERTEX
  5
240
  8
0
 10
0.0009584288550205
 20
0.0001453799638592
 30
0.0
  0
VERTEX
  5
241
  8
0
 10
0.0009436022148758
 20
0.0001587050140881
 30
0.0
  0
VERTEX
  5
242
  8
0
 10
0.0009152149638192
 20
0.0001647813390513
 30
0.0
  0
VERTEX
  5
243
  8
0
 10
0.000891891404449
 20
0.0001556241395044
 30
0.0
  0
VERTEX
  5
244
  8
0
 10
0.0008828958730229
 20
0.0001435832539543
 30
0.0
  0
VERTEX
  5
245
  8
0
 10
0.0008784849573354
 20
0.0001297739998239
 30
0.0
  0
SEQEND
  5
1113
  8
0
  0
POLYLINE
  5
7B
  8
0
 66
     1
 10
0.0
 20
0.0
 30
0.0
 70
     1
  0
VERTEX
  5
246
  8
0
 10
0.000637307814301
 20
0.0000885186117204
 30
0.0
  0
VERTEX
  5
247
  8
0
 10
0.0006373080019091
 20
0.0000885186117204
 30
0.0
  0
VERTEX
  5
248
  8
0
 10
0.0006369732590972
 20
0.0000840344788598
 30
0.0
  0
VERTEX
  5
249
  8
0
 10
0.0006331362739938
 20
0.0000792030209401
 30
0.0
  0
VERTEX
  5
24A
  8
0
 10
0.0006283518681761
 20
0.0000792109755219
 30
0.0
  0
VERTEX
  5
24B
  8
0
 10
0.0006082678998103
 20
0.0000807327520652
 30
0.0
  0
VERTEX
  5
24C
  8
0
 10
0.0005686454147589
 20
0.0000864103473601
 30
0.0
  0
VERTEX
  5
24D
  8
0
 10
0.0005495288942681
 20
0.0000913089689661
 30
0.0
  0
VERTEX
  5
24E
  8
0
 10
0.0005406978700982
 20
0.0000944841728836
 30
0.0
  0
VERTEX
  5
24F
  8
0
 10
0.0005388271769539
 20
0.0000985188218414
 30
0.0
  0
VERTEX
  5
250
  8
0
 10
0.0005390964101573
 20
0.0001066904787157
 30
0.0
  0
VERTEX
  5
251
  8
0
 10
0.0005426987382232
 20
0.000108631796915
 30
0.0
  0
VERTEX
  5
252
  8
0
 10
0.0005576785791116
 20
0.0001048244538854
 30
0.0
  0
VERTEX
  5
253
  8
0
 10
0.0006307815301614
 20
0.0000974002275311
 30
0.0
  0
VERTEX
  5
254
  8
0
 10
0.0006358228839812
 20
0.0000955444335938
 30
0.0
  0
SEQEND
  5
1114
  8
0
  0
POLYLINE
  5
7C
  8
0
 66
     1
 10
0.0
 20
0.0
 30
0.0
 70
     1
  0
VERTEX
  5
255
  8
0
 10
0.0009142002822152
 20
0.0001028551937583
 30
0.0
  0
VERTEX
  5
256
  8
0
 10
0.0009137698314229
 20
0.0001041582701636
 30
0.0
  0
VERTEX
  5
257
  8
0
 10
0.0009193551985944
 20
0.0001181335199075
 30
0.0
  0
VERTEX
  5
258
  8
0
 10
0.000927626612929
 20
0.0001214076558097
 30
0.0
  0
VERTEX
  5
259
  8
0
 10
0.0009329541315798
 20
0.0001197036743164
 30
0.0
  0
VERTEX
  5
25A
  8
0
 10
0.0009398429995678
 20
0.000110465453101
 30
0.0
  0
VERTEX
  5
25B
  8
0
 10
0.0009430663061924
 20
0.000090186222264
 30
0.0
  0
VERTEX
  5
25C
  8
0
 10
0.0009424045250064
 20
0.000084080680472
 30
0.0
  0
VERTEX
  5
25D
  8
0
 10
0.0009355528284292
 20
0.0000612753946273
 30
0.0
  0
VERTEX
  5
25E
  8
0
 10
0.000920960073002
 20
0.0000537021324283
 30
0.0
  0
VERTEX
  5
25F
  8
0
 10
0.0009096183651783
 20
0.0000605939020876
 30
0.0
  0
VERTEX
  5
260
  8
0
 10
0.0009046229127978
 20
0.000074937814181
 30
0.0
  0
VERTEX
  5
261
  8
0
 10
0.0009046077790808
 20
0.0000799788177991
 30
0.0
  0
VERTEX
  5
262
  8
0
 10
0.0009087587450371
 20
0.0000848361906458
 30
0.0
  0
VERTEX
  5
263
  8
0
 10
0.0009111937225842
 20
0.0000850063386511
 30
0.0
  0
VERTEX
  5
264
  8
0
 10
0.0009121254592645
 20
0.0000757789987033
 30
0.0
  0
VERTEX
  5
265
  8
0
 10
0.0009193374383645
 20
0.0000629769247086
 30
0.0
  0
VERTEX
  5
266
  8
0
 10
0.0009285483438461
 20
0.0000627732573963
 30
0.0
  0
VERTEX
  5
267
  8
0
 10
0.0009349019034964
 20
0.0000703230560803
 30
0.0
  0
VERTEX
  5
268
  8
0
 10
0.0009383741535124
 20
0.0000840944133821
 30
0.0
  0
VERTEX
  5
269
  8
0
 10
0.0009315450199315
 20
0.000108865581575
 30
0.0
  0
VERTEX
  5
26A
  8
0
 10
0.0009243519767386
 20
0.0001118166814085
 30
0.0
  0
VERTEX
  5
26B
  8
0
 10
0.0009168490800701
 20
0.0001061857880139
 30
0.0
  0
VERTEX
  5
26C
  8
0
 10
0.0009149366535124
 20
0.0001032033701412
 30
0.0
  0
SEQEND
  5
1115
  8
0
  0
POLYLINE
  5
7D
  8
0
 66
     1
 10
0.0
 20
0.0
 30
0.0
 70
     1
  0
VERTEX
  5
26D
  8
0
 10
0.0008441436767578
 20
0.0002021733518507
 30
0.0
  0
VERTEX
  5
26E
  8
0
 10
0.0008518906139937
 20
0.0001920179023117
 30
0.0
  0
VERTEX
  5
26F
  8
0
 10
0.0008536660116227
 20
0.0001847327810819
 30
0.0
  0
VERTEX
  5
270
  8
0
 10
0.0008574528178231
 20
0.0001356839789719
 30
0.0
  0
VERTEX
  5
271
  8
0
 10
0.0008559738909612
 20
0.0001181406990426
 30
0.0
  0
VERTEX
  5
272
  8
0
 10
0.0008489646786549
 20
0.000101386973897
 30
0.0
  0
VERTEX
  5
273
  8
0
 10
0.000848005826356
 20
0.000100520199635
 30
0.0
  0
VERTEX
  5
274
  8
0
 10
0.0008470675859295
 20
0.0001003052758389
 30
0.0
  0
VERTEX
  5
275
  8
0
 10
0.0008473407682825
 20
0.000102349628386
 30
0.0
  0
VERTEX
  5
276
  8
0
 10
0.0008510783961562
 20
0.0001153824352827
 30
0.0
  0
VERTEX
  5
277
  8
0
 10
0.000851729020916
 20
0.0001368458231942
 30
0.0
  0
VERTEX
  5
278
  8
0
 10
0.0008506463723105
 20
0.0001735326297948
 30
0.0
  0
VERTEX
  5
279
  8
0
 10
0.0008453479954454
 20
0.0001960645581855
 30
0.0
  0
VERTEX
  5
27A
  8
0
 10
0.0008435611162029
 20
0.0002016768158459
 30
0.0
  0
SEQEND
  5
1116
  8
0
  0
POLYLINE
  5
7E
  8
0
 66
     1
 10
0.0
 20
0.0
 30
0.0
 70
     1
  0
VERTEX
  5
27B
  8
0
 10
0.0007228387050941
 20
0.0002348971257444
 30
0.0
  0
VERTEX
  5
27C
  8
0
 10
0.0007353437580046
 20
0.0002326052556272
 30
0.0
  0
VERTEX
  5
27D
  8
0
 10
0.0007402026067015
 20
0.0002246136774782
 30
0.0
  0
VERTEX
  5
27E
  8
0
 10
0.0007387284075628
 20
0.0002188384759622
 30
0.0
  0
VERTEX
  5
27F
  8
0
 10
0.0007301663007893
 20
0.0002182298754082
 30
0.0
  0
VERTEX
  5
280
  8
0
 10
0.0007136955136158
 20
0.0002185398789703
 30
0.0
  0
VERTEX
  5
281
  8
0
 10
0.0007118204085553
 20
0.000219893508661
 30
0.0
  0
VERTEX
  5
282
  8
0
 10
0.0007135500298172
 20
0.0002249822897989
 30
0.0
  0
VERTEX
  5
283
  8
0
 10
0.0007170231303231
 20
0.0002331717069032
 30
0.0
  0
VERTEX
  5
284
  8
0
 10
0.000721391621574
 20
0.0002346297467341
 30
0.0
  0
VERTEX
  5
285
  8
0
 10
0.0007228054359311
 20
0.0002345668855261
 30
0.0
  0
SEQEND
  5
1117
  8
0
  0
POLYLINE
  5
7F
  8
0
 66
     1
 10
0.0
 20
0.0
 30
0.0
 70
     1
  0
VERTEX
  5
286
  8
0
 10
0.0006165238552406
 20
0.0001009985501649
 30
0.0
  0
VERTEX
  5
287
  8
0
 10
0.0005722775443656
 20
0.0001050725718014
 30
0.0
  0
VERTEX
  5
288
  8
0
 10
0.0005617515376357
 20
0.0001112153600474
 30
0.0
  0
VERTEX
  5
289
  8
0
 10
0.0005618683048936
 20
0.0001137775358607
 30
0.0
  0
VERTEX
  5
28A
  8
0
 10
0.0005638774621682
 20
0.0001143762557233
 30
0.0
  0
VERTEX
  5
28B
  8
0
 10
0.0005757989226795
 20
0.0001097565947986
 30
0.0
  0
VERTEX
  5
28C
  8
0
 10
0.0006071381490739
 20
0.0001078509471456
 30
0.0
  0
VERTEX
  5
28D
  8
0
 10
0.0006166801452637
 20
0.0001072775168497
 30
0.0
  0
VERTEX
  5
28E
  8
0
 10
0.0006196538206007
 20
0.0001017262443167
 30
0.0
  0
VERTEX
  5
28F
  8
0
 10
0.0006173021785548
 20
0.0001011168683162
 30
0.0
  0
VERTEX
  5
290
  8
0
 10
0.0006165259439437
 20
0.0001010757946577
 30
0.0
  0
SEQEND
  5
1118
  8
0
  0
POLYLINE
  5
80
  8
0
 66
     1
 10
0.0
 20
0.0
 30
0.0
 70
     1
  0
VERTEX
  5
291
  8
0
 10
0.0007097992318576
 20
0.0002344801355581
 30
0.0
  0
VERTEX
  5
292
  8
0
 10
0.0007129930339876
 20
0.0002336912061347
 30
0.0
  0
VERTEX
  5
293
  8
0
 10
0.0007127572231605
 20
0.0002307461347736
 30
0.0
  0
VERTEX
  5
294
  8
0
 10
0.0007054372443527
 20
0.0002178627389376
 30
0.0
  0
VERTEX
  5
295
  8
0
 10
0.0007007993979532
 20
0.0002146174446481
 30
0.0
  0
VERTEX
  5
296
  8
0
 10
0.0006958293226899
 20
0.0002155154118772
 30
0.0
  0
VERTEX
  5
297
  8
0
 10
0.0006956155870782
 20
0.0002194902263704
 30
0.0
  0
VERTEX
  5
298
  8
0
 10
0.0007016741017826
 20
0.0002291799326412
 30
0.0
  0
VERTEX
  5
299
  8
0
 10
0.0007040892178895
 20
0.0002325322635838
 30
0.0
  0
VERTEX
  5
29A
  8
0
 10
0.0007097610848849
 20
0.0002344801355581
 30
0.0
  0
SEQEND
  5
1119
  8
0
  0
POLYLINE
  5
81
  8
0
 66
     1
 10
0.0
 20
0.0
 30
0.0
 70
     1
  0
VERTEX
  5
29B
  8
0
 10
0.0008588584024398
 20
0.0001700297871574
 30
0.0
  0
VERTEX
  5
29C
  8
0
 10
0.0008604193765609
 20
0.0001688295708328
 30
0.0
  0
VERTEX
  5
29D
  8
0
 10
0.0008614273571577
 20
0.0001431313436539
 30
0.0
  0
VERTEX
  5
29E
  8
0
 10
0.0008617071433146
 20
0.0001366824540936
 30
0.0
  0
VERTEX
  5
29F
  8
0
 10
0.0008608954507797
 20
0.0001352125324187
 30
0.0
  0
VERTEX
  5
2A0
  8
0
 10
0.0008596785748591
 20
0.0001368815437692
 30
0.0
  0
VERTEX
  5
2A1
  8
0
 10
0.0008588268599486
 20
0.0001675171667775
 30
0.0
  0
VERTEX
  5
2A2
  8
0
 10
0.0008588179185787
 20
0.0001675267303462
 30
0.0
  0
SEQEND
  5
111A
  8
0
  0
POLYLINE
  5
82
  8
0
 66
     1
 10
0.0
 20
0.0
 30
0.0
 70
     1
  0
VERTEX
  5
2A3
  8
0
 10
0.0007576863023101
 20
0.0002203414666848
 30
0.0
  0
VERTEX
  5
2A4
  8
0
 10
0.0007626746255843
 20
0.0002193965223969
 30
0.0
  0
VERTEX
  5
2A5
  8
0
 10
0.0007631110019371
 20
0.0002157699835105
 30
0.0
  0
VERTEX
  5
2A6
  8
0
 10
0.0007608388681881
 20
0.000214752647525
 30
0.0
  0
VERTEX
  5
2A7
  8
0
 10
0.0007546423740074
 20
0.0002156798816118
 30
0.0
  0
VERTEX
  5
2A8
  8
0
 10
0.0007532741859311
 20
0.0002172134649558
 30
0.0
  0
VERTEX
  5
2A9
  8
0
 10
0.0007560710969518
 20
0.0002202233986776
 30
0.0
  0
SEQEND
  5
111B
  8
0
  0
POLYLINE
  5
83
  8
0
 66
     1
 10
0.0
 20
0.0
 30
0.0
 70
     1
  0
VERTEX
  5
2AA
  8
0
 10
0.0008613771782547
 20
0.0001276451486056
 30
0.0
  0
VERTEX
  5
2AB
  8
0
 10
0.0008613773033267
 20
0.0001276450985768
 30
0.0
  0
VERTEX
  5
2AC
  8
0
 10
0.0008623435348761
 20
0.000125542562516
 30
0.0
  0
VERTEX
  5
2AD
  8
0
 10
0.0008623956398886
 20
0.0001205449088675
 30
0.0
  0
VERTEX
  5
2AE
  8
0
 10
0.0008608021220223
 20
0.0001171985813829
 30
0.0
  0
VERTEX
  5
2AF
  8
0
 10
0.0008588991008821
 20
0.0001172420814389
 30
0.0
  0
VERTEX
  5
2B0
  8
0
 10
0.0008586984853275
 20
0.0001187937502001
 30
0.0
  0
VERTEX
  5
2B1
  8
0
 10
0.0008600405333472
 20
0.0001265610491643
 30
0.0
  0
SEQEND
  5
111C
  8
0
  0
POLYLINE
  5
84
  8
0
 66
     1
 10
0.0
 20
0.0
 30
0.0
 70
     1
  0
VERTEX
  5
2B2
  8
0
 10
0.0009703594925243
 20
0.0001175525905023
 30
0.0
  0
VERTEX
  5
2B3
  8
0
 10
0.0009691497802734
 20
0.0001162299484503
 30
0.0
  0
VERTEX
  5
2B4
  8
0
 10
0.0009670165515337
 20
0.0001166898633613
 30
0.0
  0
VERTEX
  5
2B5
  8
0
 10
0.0009656119925077
 20
0.0001187753145812
 30
0.0
  0
VERTEX
  5
2B6
  8
0
 10
0.0009680374395652
 20
0.0001211886046363
 30
0.0
  0
VERTEX
  5
2B7
  8
0
 10
0.0009703122498559
 20
0.0001188580622439
 30
0.0
  0
SEQEND
  5
111D
  8
0
  0
POLYLINE
  5
85
  8
0
 66
     1
 10
0.0
 20
0.0
 30
0.0
 70
     1
  0
VERTEX
  5
2B8
  8
0
 10
0.0009327320036341
 20
0.0000859879540615
 30
0.0
  0
VERTEX
  5
2B9
  8
0
 10
0.0009293537577645
 20
0.0000751714487545
 30
0.0
  0
VERTEX
  5
2BA
  8
0
 10
0.0009228589667649
 20
0.0000726518474641
 30
0.0
  0
VERTEX
  5
2BB
  8
0
 10
0.0009187614315846
 20
0.0000773613601434
 30
0.0
  0
VERTEX
  5
2BC
  8
0
 10
0.0009194658373223
 20
0.0000962404595047
 30
0.0
  0
VERTEX
  5
2BD
  8
0
 10
0.0009243188076332
 20
0.0001002212524414
 30
0.0
  0
VERTEX
  5
2BE
  8
0
 10
0.000930599675413
 20
0.0000959240522541
 30
0.0
  0
VERTEX
  5
2BF
  8
0
 10
0.0009327463118756
 20
0.0000862109825259
 30
0.0
  0
SEQEND
  5
111E
  8
0
  0
POLYLINE
  5
86
  8
0
 66
     1
 10
0.0
 20
0.0
 30
0.0
 70
     1
  0
VERTEX
  5
2C0
  8
0
 10
0.0008120490152328
 20
0.0002105323416288
 30
0.0
  0
VERTEX
  5
2C1
  8
0
 10
0.0008013096293465
 20
0.0002106083604156
 30
0.0
  0
VERTEX
  5
2C2
  8
0
 10
0.0008001724993596
 20
0.0002125623859343
 30
0.0
  0
VERTEX
  5
2C3
  8
0
 10
0.0008010441514312
 20
0.0002340115656618
 30
0.0
  0
VERTEX
  5
2C4
  8
0
 10
0.0008027392528096
 20
0.0002364893428615
 30
0.0
  0
VERTEX
  5
2C5
  8
0
 10
0.0008220576051806
 20
0.0002361246578029
 30
0.0
  0
VERTEX
  5
2C6
  8
0
 10
0.0008262762351114
 20
0.0002332904502994
 30
0.0
  0
VERTEX
  5
2C7
  8
0
 10
0.000827906899374
 20
0.0002249116991387
 30
0.0
  0
VERTEX
  5
2C8
  8
0
 10
0.0008280289196577
 20
0.0002162247954822
 30
0.0
  0
VERTEX
  5
2C9
  8
0
 10
0.000824656427102
 20
0.0002112824486904
 30
0.0
  0
VERTEX
  5
2CA
  8
0
 10
0.0008194609344983
 20
0.0002106253952277
 30
0.0
  0
VERTEX
  5
2CB
  8
0
 10
0.0008120490152328
 20
0.000210630748311
 30
0.0
  0
SEQEND
  5
111F
  8
0
  0
POLYLINE
  5
87
  8
0
 66
     1
 10
0.0
 20
0.0
 30
0.0
 70
     1
  0
VERTEX
  5
2CC
  8
0
 10
0.0006940529870205
 20
0.0000751273733671
 30
0.0
  0
VERTEX
  5
2CD
  8
0
 10
0.0006905379248447
 20
0.0000702450611552
 30
0.0
  0
VERTEX
  5
2CE
  8
0
 10
0.0006858736882444
 20
0.0000690062475986
 30
0.0
  0
VERTEX
  5
2CF
  8
0
 10
0.000682203586766
 20
0.0000688694187852
 30
0.0
  0
VERTEX
  5
2D0
  8
0
 10
0.0006812828189037
 20
0.0000706015164735
 30
0.0
  0
VERTEX
  5
2D1
  8
0
 10
0.0006813375254146
 20
0.0000771905617636
 30
0.0
  0
VERTEX
  5
2D2
  8
0
 10
0.0006848300621158
 20
0.0000855092783443
 30
0.0
  0
VERTEX
  5
2D3
  8
0
 10
0.0006919656972416
 20
0.000087557958384
 30
0.0
  0
VERTEX
  5
2D4
  8
0
 10
0.0006986439814333
 20
0.0000852270157611
 30
0.0
  0
VERTEX
  5
2D5
  8
0
 10
0.0007004160896676
 20
0.000086674024238
 30
0.0
  0
VERTEX
  5
2D6
  8
0
 10
0.0007004898196361
 20
0.0000868926751809
 30
0.0
  0
VERTEX
  5
2D7
  8
0
 10
0.0007009001309754
 20
0.0000859647156762
 30
0.0
  0
VERTEX
  5
2D8
  8
0
 10
0.0007024744752978
 20
0.0000821887407147
 30
0.0
  0
VERTEX
  5
2D9
  8
0
 10
0.0006991677831431
 20
0.0000791977178855
 30
0.0
  0
VERTEX
  5
2DA
  8
0
 10
0.0006971679312284
 20
0.0000775192510886
 30
0.0
  0
VERTEX
  5
2DB
  8
0
 10
0.0006974400879907
 20
0.0000746212818584
 30
0.0
  0
VERTEX
  5
2DC
  8
0
 10
0.0006999801385598
 20
0.0000732985199475
 30
0.0
  0
VERTEX
  5
2DD
  8
0
 10
0.0007002440655818
 20
0.0000731712466381
 30
0.0
  0
VERTEX
  5
2DE
  8
0
 10
0.0007010052790407
 20
0.0000763407722848
 30
0.0
  0
VERTEX
  5
2DF
  8
0
 10
0.0007025296695897
 20
0.0000780778728548
 30
0.0
  0
VERTEX
  5
2E0
  8
0
 10
0.0007046040269195
 20
0.0000766571044922
 30
0.0
  0
VERTEX
  5
2E1
  8
0
 10
0.000704591682309
 20
0.0000725547915599
 30
0.0
  0
VERTEX
  5
2E2
  8
0
 10
0.000702440730861
 20
0.0000695784271741
 30
0.0
  0
VERTEX
  5
2E3
  8
0
 10
0.0006993099400255
 20
0.0000686428883037
 30
0.0
  0
VERTEX
  5
2E4
  8
0
 10
0.0006942718630931
 20
0.0000630726298348
 30
0.0
  0
VERTEX
  5
2E5
  8
0
 10
0.000691150777848
 20
0.0000599546838979
 30
0.0
  0
VERTEX
  5
2E6
  8
0
 10
0.0006865022753106
 20
0.0000608034728003
 30
0.0
  0
VERTEX
  5
2E7
  8
0
 10
0.0006855055011687
 20
0.000063064124936
 30
0.0
  0
VERTEX
  5
2E8
  8
0
 10
0.0006875734923316
 20
0.0000648034267738
 30
0.0
  0
VERTEX
  5
2E9
  8
0
 10
0.0006916852607102
 20
0.0000651962030129
 30
0.0
  0
VERTEX
  5
2EA
  8
0
 10
0.0006928766969775
 20
0.0000686235771805
 30
0.0
  0
VERTEX
  5
2EB
  8
0
 10
0.0006942838950235
 20
0.0000723075491483
 30
0.0
  0
SEQEND
  5
1120
  8
0
  0
POLYLINE
  5
88
  8
0
 66
     1
 10
0.0
 20
0.0
 30
0.0
 70
     1
  0
VERTEX
  5
2EC
  8
0
 10
0.0007697194834225
 20
0.0002000611352139
 30
0.0
  0
VERTEX
  5
2ED
  8
0
 10
0.0007707211854028
 20
0.00018258717021
 30
0.0
  0
VERTEX
  5
2EE
  8
0
 10
0.0007718334260534
 20
0.0001317958644179
 30
0.0
  0
VERTEX
  5
2EF
  8
0
 10
0.0007704775200516
 20
0.0001097947167569
 30
0.0
  0
VERTEX
  5
2F0
  8
0
 10
0.0007697001722992
 20
0.0001063335731381
 30
0.0
  0
VERTEX
  5
2F1
  8
0
 10
0.0007688746467966
 20
0.0001056068295338
 30
0.0
  0
VERTEX
  5
2F2
  8
0
 10
0.0007681233890721
 20
0.0001070813788742
 30
0.0
  0
VERTEX
  5
2F3
  8
0
 10
0.0007677801913902
 20
0.0001205449588963
 30
0.0
  0
VERTEX
  5
2F4
  8
0
 10
0.000764371027712
 20
0.0001468367779841
 30
0.0
  0
VERTEX
  5
2F5
  8
0
 10
0.0007555118748399
 20
0.0001615708147893
 30
0.0
  0
VERTEX
  5
2F6
  8
0
 10
0.0007501583662189
 20
0.0001651161569064
 30
0.0
  0
VERTEX
  5
2F7
  8
0
 10
0.0007547226452437
 20
0.000171128795186
 30
0.0
  0
VERTEX
  5
2F8
  8
0
 10
0.0007571419387567
 20
0.0001854867403624
 30
0.0
  0
VERTEX
  5
2F9
  8
0
 10
0.0007538014646436
 20
0.000198624907947
 30
0.0
  0
VERTEX
  5
2FA
  8
0
 10
0.0007479193765609
 20
0.0002059570812788
 30
0.0
  0
VERTEX
  5
2FB
  8
0
 10
0.0007263910762599
 20
0.0002122294691742
 30
0.0
  0
VERTEX
  5
2FC
  8
0
 10
0.0007155509573514
 20
0.0002136291003618
 30
0.0
  0
VERTEX
  5
2FD
  8
0
 10
0.0007148920778368
 20
0.0002142252437404
 30
0.0
  0
VERTEX
  5
2FE
  8
0
 10
0.0007240370453381
 20
0.0002146436347336
 30
0.0
  0
VERTEX
  5
2FF
  8
0
 10
0.0007362579595847
 20
0.0002146131671843
 30
0.0
  0
VERTEX
  5
300
  8
0
 10
0.0007402201167873
 20
0.000215297786525
 30
0.0
  0
VERTEX
  5
301
  8
0
 10
0.0007460127533459
 20
0.0002148650622759
 30
0.0
  0
VERTEX
  5
302
  8
0
 10
0.0007478939369077
 20
0.0002160943453429
 30
0.0
  0
VERTEX
  5
303
  8
0
 10
0.0007481314487145
 20
0.0002206401637343
 30
0.0
  0
VERTEX
  5
304
  8
0
 10
0.0007473906720271
 20
0.0002242831120726
 30
0.0
  0
VERTEX
  5
305
  8
0
 10
0.0007491086115603
 20
0.0002282207301406
 30
0.0
  0
VERTEX
  5
306
  8
0
 10
0.0007535509953733
 20
0.0002301620233254
 30
0.0
  0
VERTEX
  5
307
  8
0
 10
0.0007614436665519
 20
0.0002301665759477
 30
0.0
  0
VERTEX
  5
308
  8
0
 10
0.000765427236088
 20
0.0002256920736344
 30
0.0
  0
VERTEX
  5
309
  8
0
 10
0.0007650145233655
 20
0.0002236210056993
 30
0.0
  0
VERTEX
  5
30A
  8
0
 10
0.0007596349747455
 20
0.0002239286829214
 30
0.0
  0
VERTEX
  5
30B
  8
0
 10
0.000751990621598
 20
0.0002224021286261
 30
0.0
  0
VERTEX
  5
30C
  8
0
 10
0.0007494780993852
 20
0.0002192905363489
 30
0.0
  0
VERTEX
  5
30D
  8
0
 10
0.0007521162689709
 20
0.0002124359631148
 30
0.0
  0
VERTEX
  5
30E
  8
0
 10
0.000761439689261
 20
0.0002101848664831
 30
0.0
  0
VERTEX
  5
30F
  8
0
 10
0.000763484467053
 20
0.0002113928873031
 30
0.0
  0
VERTEX
  5
310
  8
0
 10
0.0007685618916496
 20
0.000219101352379
 30
0.0
  0
VERTEX
  5
311
  8
0
 10
0.0007772350874103
 20
0.0002414708622166
 30
0.0
  0
VERTEX
  5
312
  8
0
 10
0.0007781198470319
 20
0.0002480724647397
 30
0.0
  0
VERTEX
  5
313
  8
0
 10
0.0007761444341941
 20
0.000251248519147
 30
0.0
  0
VERTEX
  5
314
  8
0
 10
0.0007732011638704
 20
0.0002519175545114
 30
0.0
  0
VERTEX
  5
315
  8
0
 10
0.0007296112060547
 20
0.0002517798501937
 30
0.0
  0
VERTEX
  5
316
  8
0
 10
0.000724072941014
 20
0.0002497459286549
 30
0.0
  0
VERTEX
  5
317
  8
0
 10
0.0007216579749936
 20
0.0002443986986504
 30
0.0
  0
VERTEX
  5
318
  8
0
 10
0.0007182103891842
 20
0.0002367491425061
 30
0.0
  0
VERTEX
  5
319
  8
0
 10
0.0007174565799901
 20
0.0002356802017962
 30
0.0
  0
VERTEX
  5
31A
  8
0
 10
0.0007153197992043
 20
0.0002349286689133
 30
0.0
  0
VERTEX
  5
31B
  8
0
 10
0.0007157791137695
 20
0.0002377812119781
 30
0.0
  0
VERTEX
  5
31C
  8
0
 10
0.0007201321711306
 20
0.000246999121494
 30
0.0
  0
VERTEX
  5
31D
  8
0
 10
0.0007206109719198
 20
0.000250448458312
 30
0.0
  0
VERTEX
  5
31E
  8
0
 10
0.0007185337004114
 20
0.0002504393030386
 30
0.0
  0
VERTEX
  5
31F
  8
0
 10
0.0007101855168577
 20
0.0002475952398582
 30
0.0
  0
VERTEX
  5
320
  8
0
 10
0.0007099214647637
 20
0.0002482436383357
 30
0.0
  0
VERTEX
  5
321
  8
0
 10
0.0007246096751729
 20
0.0002564575445457
 30
0.0
  0
VERTEX
  5
322
  8
0
 10
0.0007553653154217
 20
0.0002616661947282
 30
0.0
  0
VERTEX
  5
323
  8
0
 10
0.0007971363505379
 20
0.0002610883869109
 30
0.0
  0
VERTEX
  5
324
  8
0
 10
0.0008290939331055
 20
0.0002555549746654
 30
0.0
  0
VERTEX
  5
325
  8
0
 10
0.0008415390765081
 20
0.0002453817148678
 30
0.0
  0
VERTEX
  5
326
  8
0
 10
0.0008437319395972
 20
0.0002363022350874
 30
0.0
  0
VERTEX
  5
327
  8
0
 10
0.0008492867391618
 20
0.0002048021910621
 30
0.0
  0
VERTEX
  5
328
  8
0
 10
0.0008493354922435
 20
0.0002043844754579
 30
0.0
  0
VERTEX
  5
329
  8
0
 10
0.000846169043369
 20
0.0002058069197858
 30
0.0
  0
VERTEX
  5
32A
  8
0
 10
0.0008443889680456
 20
0.0002136975647973
 30
0.0
  0
VERTEX
  5
32B
  8
0
 10
0.0008388546052526
 20
0.0002394290361248
 30
0.0
  0
VERTEX
  5
32C
  8
0
 10
0.0008340275248543
 20
0.0002474873527152
 30
0.0
  0
VERTEX
  5
32D
  8
0
 10
0.0008158528062164
 20
0.0002524558395636
 30
0.0
  0
VERTEX
  5
32E
  8
0
 10
0.0007964721179399
 20
0.0002532655809746
 30
0.0
  0
VERTEX
  5
32F
  8
0
 10
0.000786176862873
 20
0.0002484196647269
 30
0.0
  0
VERTEX
  5
330
  8
0
 10
0.0007804956905177
 20
0.0002358434458248
 30
0.0
  0
VERTEX
  5
331
  8
0
 10
0.000769577626713
 20
0.0002046909770028
 30
0.0
  0
VERTEX
  5
332
  8
0
 10
0.0007633856601402
 20
0.0002046380715292
 30
0.0
  0
VERTEX
  5
333
  8
0
 10
0.0007620328058962
 20
0.0002010886520636
 30
0.0
  0
VERTEX
  5
334
  8
0
 10
0.0007630991951364
 20
0.0002001114892178
 30
0.0
  0
SEQEND
  5
1121
  8
0
  0
POLYLINE
  5
89
  8
0
 66
     1
 10
0.0
 20
0.0
 30
0.0
 70
     1
  0
VERTEX
  5
335
  8
0
 10
0.0006236731357262
 20
0.0001559601830654
 30
0.0
  0
VERTEX
  5
336
  8
0
 10
0.0006264809905506
 20
0.0001655852771196
 30
0.0
  0
VERTEX
  5
337
  8
0
 10
0.0006294285008165
 20
0.0001664590053871
 30
0.0
  0
VERTEX
  5
338
  8
0
 10
0.000630804480881
 20
0.0001635250404233
 30
0.0
  0
VERTEX
  5
339
  8
0
 10
0.0006265696791352
 20
0.0001621984012791
 30
0.0
  0
SEQEND
  5
1122
  8
0
  0
POLYLINE
  5
8A
  8
0
 66
     1
 10
0.0
 20
0.0
 30
0.0
 70
     1
  0
VERTEX
  5
33A
  8
0
 10
0.000632121677086
 20
0.0001555335123031
 30
0.0
  0
VERTEX
  5
33B
  8
0
 10
0.0006326419642714
 20
0.0001556740932777
 30
0.0
  0
VERTEX
  5
33C
  8
0
 10
0.0006312224216149
 20
0.0001619710203077
 30
0.0
  0
VERTEX
  5
33D
  8
0
 10
0.0006302435327749
 20
0.0001594743072009
 30
0.0
  0
VERTEX
  5
33E
  8
0
 10
0.0006240414554499
 20
0.000154215566617
 30
0.0
  0
VERTEX
  5
33F
  8
0
 10
0.0006236134763624
 20
0.0001535070200435
 30
0.0
  0
VERTEX
  5
340
  8
0
 10
0.0006242885527064
 20
0.0001483025222528
 30
0.0
  0
VERTEX
  5
341
  8
0
 10
0.0006265912040335
 20
0.0001458424802686
 30
0.0
  0
VERTEX
  5
342
  8
0
 10
0.0006290636031354
 20
0.0001468183173508
 30
0.0
  0
VERTEX
  5
343
  8
0
 10
0.0006321105331671
 20
0.0001520130094935
 30
0.0
  0
SEQEND
  5
1123
  8
0
  0
POLYLINE
  5
8B
  8
0
 66
     1
 10
0.0
 20
0.0
 30
0.0
 70
     1
  0
VERTEX
  5
344
  8
0
 10
0.0005560831976719
 20
0.0001625462516409
 30
0.0
  0
VERTEX
  5
345
  8
0
 10
0.0005552304940146
 20
0.0001652164146548
 30
0.0
  0
VERTEX
  5
346
  8
0
 10
0.0005543094259794
 20
0.0001661742163486
 30
0.0
  0
VERTEX
  5
347
  8
0
 10
0.0005530007179031
 20
0.0001645953612667
 30
0.0
  0
VERTEX
  5
348
  8
0
 10
0.0005516203614532
 20
0.00015691435767
 30
0.0
  0
VERTEX
  5
349
  8
0
 10
0.0005523625577082
 20
0.0001586010291928
 30
0.0
  0
VERTEX
  5
34A
  8
0
 10
0.0005543833310487
 20
0.0001598506990026
 30
0.0
  0
SEQEND
  5
1124
  8
0
  0
POLYLINE
  5
8C
  8
0
 66
     1
 10
0.0
 20
0.0
 30
0.0
 70
     1
  0
VERTEX
  5
34B
  8
0
 10
0.0005563600633965
 20
0.000159395586858
 30
0.0
  0
VERTEX
  5
34C
  8
0
 10
0.0005561267665175
 20
0.0001513946032915
 30
0.0
  0
VERTEX
  5
34D
  8
0
 10
0.0005542928539339
 20
0.0001478609429031
 30
0.0
  0
VERTEX
  5
34E
  8
0
 10
0.000552226119499
 20
0.0001515084735565
 30
0.0
  0
VERTEX
  5
34F
  8
0
 10
0.0005516629172153
 20
0.000155788984455
 30
0.0
  0
VERTEX
  5
350
  8
0
 10
0.0005537819221372
 20
0.0001574839857758
 30
0.0
  0
VERTEX
  5
351
  8
0
 10
0.0005563528467397
 20
0.0001593468838051
 30
0.0
  0
SEQEND
  5
1125
  8
0
  0
POLYLINE
  5
8D
  8
0
 66
     1
 10
0.0
 20
0.0
 30
0.0
 70
     1
  0
VERTEX
  5
352
  8
0
 10
0.0005828037199427
 20
0.0001798028664511
 30
0.0
  0
VERTEX
  5
353
  8
0
 10
0.0005849130724297
 20
0.0001777206420898
 30
0.0
  0
VERTEX
  5
354
  8
0
 10
0.0005857970065758
 20
0.0001749990994813
 30
0.0
  0
VERTEX
  5
355
  8
0
 10
0.0005838652188661
 20
0.0001740344188252
 30
0.0
  0
VERTEX
  5
356
  8
0
 10
0.0005792744120613
 20
0.0001754607654009
 30
0.0
  0
VERTEX
  5
357
  8
0
 10
0.0005754004056336
 20
0.0001722397851162
 30
0.0
  0
VERTEX
  5
358
  8
0
 10
0.0005829458205426
 20
0.0001721184152072
 30
0.0
  0
VERTEX
  5
359
  8
0
 10
0.0005890493924501
 20
0.0001697339917793
 30
0.0
  0
VERTEX
  5
35A
  8
0
 10
0.0005912834980449
 20
0.0001697669607694
 30
0.0
  0
VERTEX
  5
35B
  8
0
 10
0.0005917153342825
 20
0.0001731342753426
 30
0.0
  0
VERTEX
  5
35C
  8
0
 10
0.0005926455826056
 20
0.0001747330212202
 30
0.0
  0
VERTEX
  5
35D
  8
0
 10
0.0005949919153432
 20
0.0001738230470751
 30
0.0
  0
VERTEX
  5
35E
  8
0
 10
0.0005953119371758
 20
0.0001684938024302
 30
0.0
  0
VERTEX
  5
35F
  8
0
 10
0.0005917965748271
 20
0.0001658556578589
 30
0.0
  0
VERTEX
  5
360
  8
0
 10
0.0005858172119641
 20
0.0001665548605997
 30
0.0
  0
VERTEX
  5
361
  8
0
 10
0.0005748141366927
 20
0.0001680941222144
 30
0.0
  0
VERTEX
  5
362
  8
0
 10
0.0005736491031334
 20
0.0001677382672419
 30
0.0
  0
VERTEX
  5
363
  8
0
 10
0.000572117208262
 20
0.0001643943911693
 30
0.0
  0
VERTEX
  5
364
  8
0
 10
0.0005721508839091
 20
0.0001634318117236
 30
0.0
  0
VERTEX
  5
365
  8
0
 10
0.0005761566724934
 20
0.0001619575125272
 30
0.0
  0
VERTEX
  5
366
  8
0
 10
0.0005936610049889
 20
0.0001612050791256
 30
0.0
  0
VERTEX
  5
367
  8
0
 10
0.0006080522505963
 20
0.0001618184074027
 30
0.0
  0
VERTEX
  5
368
  8
0
 10
0.0006108103392554
 20
0.0001644852184858
 30
0.0
  0
VERTEX
  5
369
  8
0
 10
0.0006161164580799
 20
0.0001716316848505
 30
0.0
  0
VERTEX
  5
36A
  8
0
 10
0.0006287251081623
 20
0.0001752230284644
 30
0.0
  0
VERTEX
  5
36B
  8
0
 10
0.0006403824602971
 20
0.0001773569075788
 30
0.0
  0
VERTEX
  5
36C
  8
0
 10
0.0006527305853171
 20
0.0001795307597176
 30
0.0
  0
VERTEX
  5
36D
  8
0
 10
0.0006735951282939
 20
0.0001800541862113
 30
0.0
  0
VERTEX
  5
36E
  8
0
 10
0.0007016962145196
 20
0.0001771078391153
 30
0.0
  0
VERTEX
  5
36F
  8
0
 10
0.0007297690469711
 20
0.0001715999415663
 30
0.0
  0
VERTEX
  5
370
  8
0
 10
0.000746982211754
 20
0.0001665461555856
 30
0.0
  0
VERTEX
  5
371
  8
0
 10
0.0007474383745037
 20
0.0001663634753618
 30
0.0
  0
VERTEX
  5
372
  8
0
 10
0.0007507631645828
 20
0.0001712694011751
 30
0.0
  0
VERTEX
  5
373
  8
0
 10
0.0007543679909628
 20
0.0001845860465628
 30
0.0
  0
VERTEX
  5
374
  8
0
 10
0.0007519695594663
 20
0.0001946079942047
 30
0.0
  0
VERTEX
  5
375
  8
0
 10
0.000749535732582
 20
0.0002006662337506
 30
0.0
  0
VERTEX
  5
376
  8
0
 10
0.000744950241339
 20
0.0002040668675157
 30
0.0
  0
VERTEX
  5
377
  8
0
 10
0.0007328975239738
 20
0.0002078940719855
 30
0.0
  0
VERTEX
  5
378
  8
0
 10
0.0007046899138904
 20
0.000211016595559
 30
0.0
  0
VERTEX
  5
379
  8
0
 10
0.000668322678863
 20
0.0002106860551678
 30
0.0
  0
VERTEX
  5
37A
  8
0
 10
0.0006287498474121
 20
0.0002099330464347
 30
0.0
  0
VERTEX
  5
37B
  8
0
 10
0.0005990894380163
 20
0.0002009662315494
 30
0.0
  0
VERTEX
  5
37C
  8
0
 10
0.0005868720945765
 20
0.0001869742971952
 30
0.0
  0
SEQEND
  5
1126
  8
0
  0
POLYLINE
  5
8E
  8
0
 66
     1
 10
0.0
 20
0.0
 30
0.0
 70
     1
  0
VERTEX
  5
37D
  8
0
 10
0.0005524379573885
 20
0.0003423551965932
 30
0.0
  0
VERTEX
  5
37E
  8
0
 10
0.0005534226276835
 20
0.0003455579538814
 30
0.0
  0
VERTEX
  5
37F
  8
0
 10
0.00055666583327
 20
0.0003471146255243
 30
0.0
  0
VERTEX
  5
380
  8
0
 10
0.0005546756931993
 20
0.0003424247491555
 30
0.0
  0
SEQEND
  5
1127
  8
0
  0
POLYLINE
  5
8F
  8
0
 66
     1
 10
0.0
 20
0.0
 30
0.0
 70
     1
  0
VERTEX
  5
381
  8
0
 10
0.0005497428143611
 20
0.0003614372253418
 30
0.0
  0
VERTEX
  5
382
  8
0
 10
0.0005544152807017
 20
0.0003619123990418
 30
0.0
  0
VERTEX
  5
383
  8
0
 10
0.0005539985281522
 20
0.0003566660396388
 30
0.0
  0
SEQEND
  5
1128
  8
0
  0
POLYLINE
  5
90
  8
0
 66
     1
 10
0.0
 20
0.0
 30
0.0
 70
     1
  0
VERTEX
  5
384
  8
0
 10
0.0006531969289311
 20
0.0003423216397645
 30
0.0
  0
VERTEX
  5
385
  8
0
 10
0.0006490999440678
 20
0.0003496158287173
 30
0.0
  0
VERTEX
  5
386
  8
0
 10
0.000654098623307
 20
0.0003501361784388
 30
0.0
  0
SEQEND
  5
1129
  8
0
  0
POLYLINE
  5
91
  8
0
 66
     1
 10
0.0
 20
0.0
 30
0.0
 70
     1
  0
VERTEX
  5
387
  8
0
 10
0.0006393982183738
 20
0.0003502736576268
 30
0.0
  0
VERTEX
  5
388
  8
0
 10
0.0006440750372214
 20
0.0003439544802806
 30
0.0
  0
VERTEX
  5
389
  8
0
 10
0.0006429017739218
 20
0.0003401042750624
 30
0.0
  0
VERTEX
  5
38A
  8
0
 10
0.0006383738533395
 20
0.0003417126014584
 30
0.0
  0
VERTEX
  5
38B
  8
0
 10
0.00063443999994
 20
0.0003491231449315
 30
0.0
  0
VERTEX
  5
38C
  8
0
 10
0.0006380205748511
 20
0.0003505095309899
 30
0.0
  0
SEQEND
  5
112A
  8
0
  0
POLYLINE
  5
92
  8
0
 66
     1
 10
0.0
 20
0.0
 30
0.0
 70
     1
  0
VERTEX
  5
38D
  8
0
 10
0.0006181162599657
 20
0.000356053586866
 30
0.0
  0
VERTEX
  5
38E
  8
0
 10
0.0006191232149718
 20
0.0003513842598337
 30
0.0
  0
VERTEX
  5
38F
  8
0
 10
0.0006162040835521
 20
0.0003463420054952
 30
0.0
  0
VERTEX
  5
390
  8
0
 10
0.0006132748713259
 20
0.0003472709280546
 30
0.0
  0
VERTEX
  5
391
  8
0
 10
0.0006067491124888
 20
0.0003528135330951
 30
0.0
  0
VERTEX
  5
392
  8
0
 10
0.0006088149524126
 20
0.0003566459280546
 30
0.0
  0
VERTEX
  5
393
  8
0
 10
0.0006150255171979
 20
0.0003563969971704
 30
0.0
  0
SEQEND
  5
112B
  8
0
  0
POLYLINE
  5
93
  8
0
 66
     1
 10
0.0
 20
0.0
 30
0.0
 70
     1
  0
VERTEX
  5
394
  8
0
 10
0.0005343963466707
 20
0.0003809590198955
 30
0.0
  0
VERTEX
  5
395
  8
0
 10
0.0005423185786263
 20
0.0003780183135486
 30
0.0
  0
VERTEX
  5
396
  8
0
 10
0.0005444925996124
 20
0.0003742605365691
 30
0.0
  0
VERTEX
  5
397
  8
0
 10
0.0005427613805552
 20
0.0003662665445297
 30
0.0
  0
VERTEX
  5
398
  8
0
 10
0.0005431954805968
 20
0.0003540864537974
 30
0.0
  0
VERTEX
  5
399
  8
0
 10
0.0005456111376403
 20
0.0003511705117147
 30
0.0
  0
VERTEX
  5
39A
  8
0
 10
0.0005364394735117
 20
0.0003541342563316
 30
0.0
  0
VERTEX
  5
39B
  8
0
 10
0.0005339137280574
 20
0.0003579067292761
 30
0.0
  0
VERTEX
  5
39C
  8
0
 10
0.0005362276984043
 20
0.0003618045369133
 30
0.0
  0
VERTEX
  5
39D
  8
0
 10
0.0005341763449497
 20
0.0003705721870798
 30
0.0
  0
SEQEND
  5
112C
  8
0
  0
POLYLINE
  5
94
  8
0
 66
     1
 10
0.0
 20
0.0
 30
0.0
 70
     1
  0
VERTEX
  5
39E
  8
0
 10
0.0006164739139745
 20
0.0003706318089219
 30
0.0
  0
VERTEX
  5
39F
  8
0
 10
0.0006104760717173
 20
0.0003683361491219
 30
0.0
  0
VERTEX
  5
3A0
  8
0
 10
0.0006086924693624
 20
0.000368074248267
 30
0.0
  0
VERTEX
  5
3A1
  8
0
 10
0.0006061300559122
 20
0.0003723555893194
 30
0.0
  0
VERTEX
  5
3A2
  8
0
 10
0.0006067241981381
 20
0.0003749814893379
 30
0.0
  0
VERTEX
  5
3A3
  8
0
 10
0.0006132400637767
 20
0.0003810437687108
 30
0.0
  0
VERTEX
  5
3A4
  8
0
 10
0.0006139800525102
 20
0.0003820940987009
 30
0.0
  0
VERTEX
  5
3A5
  8
0
 10
0.0006175864297836
 20
0.0003782036828213
 30
0.0
  0
VERTEX
  5
3A6
  8
0
 10
0.0006199203741355
 20
0.0003700319634109
 30
0.0
  0
VERTEX
  5
3A7
  8
0
 10
0.0006183728577661
 20
0.0003661486141017
 30
0.0
  0
VERTEX
  5
3A8
  8
0
 10
0.0006170182775279
 20
0.0003681916283779
 30
0.0
  0
VERTEX
  5
3A9
  8
0
 10
0.0006164916116683
 20
0.0003706133357814
 30
0.0
  0
SEQEND
  5
112D
  8
0
  0
POLYLINE
  5
95
  8
0
 66
     1
 10
0.0
 20
0.0
 30
0.0
 70
     1
  0
VERTEX
  5
3AA
  8
0
 10
0.0006222366082864
 20
0.000362108274366
 30
0.0
  0
VERTEX
  5
3AB
  8
0
 10
0.0006316089567591
 20
0.000369291274274
 30
0.0
  0
VERTEX
  5
3AC
  8
0
 10
0.000636980288146
 20
0.000368405689177
 30
0.0
  0
VERTEX
  5
3AD
  8
0
 10
0.0006410781109919
 20
0.0003608494367756
 30
0.0
  0
VERTEX
  5
3AE
  8
0
 10
0.0006434751166672
 20
0.0003573204290671
 30
0.0
  0
VERTEX
  5
3AF
  8
0
 10
0.00063088357644
 20
0.0003603771272253
 30
0.0
  0
SEQEND
  5
112E
  8
0
  0
POLYLINE
  5
96
  8
0
 66
     1
 10
0.0
 20
0.0
 30
0.0
 70
     1
  0
VERTEX
  5
3B0
  8
0
 10
0.0006073625658379
 20
0.0003848628309907
 30
0.0
  0
VERTEX
  5
3B1
  8
0
 10
0.000597415267444
 20
0.0003872700050229
 30
0.0
  0
VERTEX
  5
3B2
  8
0
 10
0.0005967354758841
 20
0.0003872572851963
 30
0.0
  0
VERTEX
  5
3B3
  8
0
 10
0.0006073328862425
 20
0.000389961930572
 30
0.0
  0
SEQEND
  5
112F
  8
0
  0
POLYLINE
  5
97
  8
0
 66
     1
 10
0.0
 20
0.0
 30
0.0
 70
     1
  0
VERTEX
  5
3B4
  8
0
 10
0.0006444254515601
 20
0.0003819135697162
 30
0.0
  0
VERTEX
  5
3B5
  8
0
 10
0.0006478501491859
 20
0.0003801194362953
 30
0.0
  0
VERTEX
  5
3B6
  8
0
 10
0.0006483908231141
 20
0.0003768634983751
 30
0.0
  0
VERTEX
  5
3B7
  8
0
 10
0.0006449661254883
 20
0.0003786576443031
 30
0.0
  0
SEQEND
  5
1130
  8
0
  0
POLYLINE
  5
98
  8
0
 66
     1
 10
0.0
 20
0.0
 30
0.0
 70
     1
  0
VERTEX
  5
3B8
  8
0
 10
0.0005491862844248
 20
0.0003892344615499
 30
0.0
  0
VERTEX
  5
3B9
  8
0
 10
0.0005538588101747
 20
0.0003849335092013
 30
0.0
  0
VERTEX
  5
3BA
  8
0
 10
0.0005491940326378
 20
0.0003890222643243
 30
0.0
  0
SEQEND
  5
1131
  8
0
  0
POLYLINE
  5
99
  8
0
 66
     1
 10
0.0
 20
0.0
 30
0.0
 70
     1
  0
VERTEX
  5
3BB
  8
0
 10
0.0006048073752982
 20
0.0003963303737953
 30
0.0
  0
VERTEX
  5
3BC
  8
0
 10
0.0006094798979212
 20
0.0003968192929127
 30
0.0
  0
VERTEX
  5
3BD
  8
0
 10
0.0006090543778216
 20
0.0003915572619829
 30
0.0
  0
SEQEND
  5
1132
  8
0
  0
POLYLINE
  5
9A
  8
0
 66
     1
 10
0.0
 20
0.0
 30
0.0
 70
     1
  0
VERTEX
  5
3BE
  8
0
 10
0.0005987394989514
 20
0.0003572713758125
 30
0.0
  0
VERTEX
  5
3BF
  8
0
 10
0.0005824068726086
 20
0.0003643854735328
 30
0.0
  0
VERTEX
  5
3C0
  8
0
 10
0.0005820218258217
 20
0.0003648286538046
 30
0.0
  0
VERTEX
  5
3C1
  8
0
 10
0.0005818614334357
 20
0.0003597138326676
 30
0.0
  0
VERTEX
  5
3C2
  8
0
 10
0.0005685012879919
 20
0.0003682175683194
 30
0.0
  0
VERTEX
  5
3C3
  8
0
 10
0.0005766261804299
 20
0.0003657859677174
 30
0.0
  0
VERTEX
  5
3C4
  8
0
 10
0.000580082414971
 20
0.0003671765812108
 30
0.0
  0
VERTEX
  5
3C5
  8
0
 10
0.0005873309901503
 20
0.0003794877974713
 30
0.0
  0
VERTEX
  5
3C6
  8
0
 10
0.0005852716539727
 20
0.0003725156315037
 30
0.0
  0
VERTEX
  5
3C7
  8
0
 10
0.0005864763791444
 20
0.0003688919817815
 30
0.0
  0
VERTEX
  5
3C8
  8
0
 10
0.0005896001409312
 20
0.0003694338063725
 30
0.0
  0
VERTEX
  5
3C9
  8
0
 10
0.000592336529591
 20
0.000369425814269
 30
0.0
  0
VERTEX
  5
3CA
  8
0
 10
0.0005964307128406
 20
0.0003633109170882
 30
0.0
  0
SEQEND
  5
1133
  8
0
  0
POLYLINE
  5
9B
  8
0
 66
     1
 10
0.0
 20
0.0
 30
0.0
 70
     1
  0
VERTEX
  5
3CB
  8
0
 10
0.0005402667467711
 20
0.0003935334252529
 30
0.0
  0
VERTEX
  5
3CC
  8
0
 10
0.0005449392756478
 20
0.0003940223068487
 30
0.0
  0
VERTEX
  5
3CD
  8
0
 10
0.0005445136398566
 20
0.000388745517418
 30
0.0
  0
SEQEND
  5
1134
  8
0
  0
POLYLINE
  5
9C
  8
0
 66
     1
 10
0.0
 20
0.0
 30
0.0
 70
     1
  0
VERTEX
  5
3CE
  8
0
 10
0.0005606797327761
 20
0.0004160334602731
 30
0.0
  0
VERTEX
  5
3CF
  8
0
 10
0.0005688345987289
 20
0.0004130258278769
 30
0.0
  0
VERTEX
  5
3D0
  8
0
 10
0.0005714541638484
 20
0.0004099006715368
 30
0.0
  0
VERTEX
  5
3D1
  8
0
 10
0.0005689939842849
 20
0.000408627994725
 30
0.0
  0
VERTEX
  5
3D2
  8
0
 10
0.000560377477427
 20
0.0004085413135466
 30
0.0
  0
VERTEX
  5
3D3
  8
0
 10
0.0005546141827693
 20
0.0004119355748911
 30
0.0
  0
VERTEX
  5
3D4
  8
0
 10
0.0005552040913066
 20
0.0004148704528809
 30
0.0
  0
VERTEX
  5
3D5
  8
0
 10
0.000560290571119
 20
0.0004159857140213
 30
0.0
  0
SEQEND
  5
1135
  8
0
  0
POLYLINE
  5
9D
  8
0
 66
     1
 10
0.0
 20
0.0
 30
0.0
 70
     1
  0
VERTEX
  5
3D6
  8
0
 10
0.0006743913244029
 20
0.0003897641791672
 30
0.0
  0
VERTEX
  5
3D7
  8
0
 10
0.0006703284341781
 20
0.0003896917374408
 30
0.0
  0
VERTEX
  5
3D8
  8
0
 10
0.0006665095595063
 20
0.0003921669381564
 30
0.0
  0
VERTEX
  5
3D9
  8
0
 10
0.0006666939156954
 20
0.0003928553847016
 30
0.0
  0
VERTEX
  5
3DA
  8
0
 10
0.0006702361685331
 20
0.0003945371659076
 30
0.0
  0
VERTEX
  5
3DB
  8
0
 10
0.0006751109889296
 20
0.0003967663499176
 30
0.0
  0
VERTEX
  5
3DC
  8
0
 10
0.000677615644111
 20
0.0003953300976362
 30
0.0
  0
VERTEX
  5
3DD
  8
0
 10
0.0006755618986536
 20
0.0003913056920786
 30
0.0
  0
SEQEND
  5
1136
  8
0
  0
POLYLINE
  5
9E
  8
0
 66
     1
 10
0.0
 20
0.0
 30
0.0
 70
     1
  0
VERTEX
  5
3DE
  8
0
 10
0.00065979331595
 20
0.0004055958169406
 30
0.0
  0
VERTEX
  5
3DF
  8
0
 10
0.0006560626045602
 20
0.0003980875922031
 30
0.0
  0
SEQEND
  5
1137
  8
0
  0
POLYLINE
  5
9F
  8
0
 66
     1
 10
0.0
 20
0.0
 30
0.0
 70
     1
  0
VERTEX
  5
3E0
  8
0
 10
0.0006413455025094
 20
0.0004003661546551
 30
0.0
  0
VERTEX
  5
3E1
  8
0
 10
0.0006371071862393
 20
0.0003955949689521
 30
0.0
  0
SEQEND
  5
1138
  8
0
  0
POLYLINE
  5
A0
  8
0
 66
     1
 10
0.0
 20
0.0
 30
0.0
 70
     1
  0
VERTEX
  5
3E2
  8
0
 10
0.00064985161453
 20
0.0004099438901807
 30
0.0
  0
VERTEX
  5
3E3
  8
0
 10
0.0006567986535244
 20
0.0004061809227115
 30
0.0
  0
VERTEX
  5
3E4
  8
0
 10
0.0006499016183322
 20
0.0004094207701136
 30
0.0
  0
SEQEND
  5
1139
  8
0
  0
POLYLINE
  5
A1
  8
0
 66
     1
 10
0.0
 20
0.0
 30
0.0
 70
     1
  0
VERTEX
  5
3E5
  8
0
 10
0.0005941838561511
 20
0.0004166382336226
 30
0.0
  0
VERTEX
  5
3E6
  8
0
 10
0.0005988563287454
 20
0.0004171104931441
 30
0.0
  0
VERTEX
  5
3E7
  8
0
 10
0.0005984343231701
 20
0.0004118503570557
 30
0.0
  0
SEQEND
  5
113A
  8
0
  0
POLYLINE
  5
A2
  8
0
 66
     1
 10
0.0
 20
0.0
 30
0.0
 70
     1
  0
VERTEX
  5
3E8
  8
0
 10
0.0005329956367368
 20
0.0004218983384429
 30
0.0
  0
VERTEX
  5
3E9
  8
0
 10
0.0005411348311628
 20
0.0004313428847516
 30
0.0
  0
VERTEX
  5
3EA
  8
0
 10
0.000541496630184
 20
0.0004314583637675
 30
0.0
  0
VERTEX
  5
3EB
  8
0
 10
0.0005405254926838
 20
0.0004255242894907
 30
0.0
  0
VERTEX
  5
3EC
  8
0
 10
0.0005384229378622
 20
0.0004235404593046
 30
0.0
  0
SEQEND
  5
113B
  8
0
  0
POLYLINE
  5
A3
  8
0
 66
     1
 10
0.0
 20
0.0
 30
0.0
 70
     1
  0
VERTEX
  5
3ED
  8
0
 10
0.0005984015417881
 20
0.000440092149328
 30
0.0
  0
VERTEX
  5
3EE
  8
0
 10
0.0006005647753106
 20
0.0004335198824523
 30
0.0
  0
VERTEX
  5
3EF
  8
0
 10
0.0005988435713971
 20
0.0004307873397577
 30
0.0
  0
VERTEX
  5
3F0
  8
0
 10
0.0005949014382284
 20
0.0004314220616075
 30
0.0
  0
VERTEX
  5
3F1
  8
0
 10
0.0005935250454262
 20
0.000435229736078
 30
0.0
  0
VERTEX
  5
3F2
  8
0
 10
0.0005914072380691
 20
0.0004409855576812
 30
0.0
  0
VERTEX
  5
3F3
  8
0
 10
0.0005918892594635
 20
0.0004415422971131
 30
0.0
  0
VERTEX
  5
3F4
  8
0
 10
0.0005959843932605
 20
0.0004406958470579
 30
0.0
  0
SEQEND
  5
113C
  8
0
  0
POLYLINE
  5
A4
  8
0
 66
     1
 10
0.0
 20
0.0
 30
0.0
 70
     1
  0
VERTEX
  5
3F5
  8
0
 10
0.0005930519041468
 20
0.0004494972666756
 30
0.0
  0
VERTEX
  5
3F6
  8
0
 10
0.0005841060826036
 20
0.0004460436211258
 30
0.0
  0
VERTEX
  5
3F7
  8
0
 10
0.0005851939904885
 20
0.0004515249064711
 30
0.0
  0
VERTEX
  5
3F8
  8
0
 10
0.0005879747234407
 20
0.0004531889399544
 30
0.0
  0
VERTEX
  5
3F9
  8
0
 10
0.0005914282189041
 20
0.0004507059753918
 30
0.0
  0
SEQEND
  5
113D
  8
0
  0
POLYLINE
  5
A5
  8
0
 66
     1
 10
0.0
 20
0.0
 30
0.0
 70
     1
  0
VERTEX
  5
3FA
  8
0
 10
0.0005352659788288
 20
0.0004889977619296
 30
0.0
  0
VERTEX
  5
3FB
  8
0
 10
0.0005386899072616
 20
0.0004872074189733
 30
0.0
  0
VERTEX
  5
3FC
  8
0
 10
0.0005392315348641
 20
0.0004839557506999
 30
0.0
  0
VERTEX
  5
3FD
  8
0
 10
0.0005358076064313
 20
0.0004857460944379
 30
0.0
  0
SEQEND
  5
113E
  8
0
  0
POLYLINE
  5
A6
  8
0
 66
     1
 10
0.0
 20
0.0
 30
0.0
 70
     1
  0
VERTEX
  5
3FE
  8
0
 10
0.0006561735184466
 20
0.0004918705940247
 30
0.0
  0
VERTEX
  5
3FF
  8
0
 10
0.0006596029938244
 20
0.0004900772735721
 30
0.0
  0
VERTEX
  5
400
  8
0
 10
0.0006601455188188
 20
0.0004868202068767
 30
0.0
  0
VERTEX
  5
401
  8
0
 10
0.000656715980905
 20
0.0004886135273292
 30
0.0
  0
SEQEND
  5
113F
  8
0
  0
POLYLINE
  5
A7
  8
0
 66
     1
 10
0.0
 20
0.0
 30
0.0
 70
     1
  0
VERTEX
  5
402
  8
0
 10
0.0005648699963679
 20
0.0004936477751028
 30
0.0
  0
VERTEX
  5
403
  8
0
 10
0.0005733621065734
 20
0.0004936477751028
 30
0.0
  0
VERTEX
  5
404
  8
0
 10
0.0005695968252714
 20
0.000488365960512
 30
0.0
  0
VERTEX
  5
405
  8
0
 10
0.0005666629603652
 20
0.0004877129124813
 30
0.0
  0
VERTEX
  5
406
  8
0
 10
0.0005651290956091
 20
0.0004915122157238
 30
0.0
  0
SEQEND
  5
1140
  8
0
  0
POLYLINE
  5
A8
  8
0
 66
     1
 10
0.0
 20
0.0
 30
0.0
 70
     1
  0
VERTEX
  5
407
  8
0
 10
0.0005575913726306
 20
0.0004869351621534
 30
0.0
  0
VERTEX
  5
408
  8
0
 10
0.0005533319066782
 20
0.0004914764654441
 30
0.0
  0
VERTEX
  5
409
  8
0
 10
0.0005532483397937
 20
0.0004979171135386
 30
0.0
  0
VERTEX
  5
40A
  8
0
 10
0.0005588532619789
 20
0.0004988655311162
 30
0.0
  0
VERTEX
  5
40B
  8
0
 10
0.000562689953163
 20
0.0004930154479918
 30
0.0
  0
VERTEX
  5
40C
  8
0
 10
0.000558281357562
 20
0.0004872492680784
 30
0.0
  0
SEQEND
  5
1141
  8
0
  0
POLYLINE
  5
A9
  8
0
 66
     1
 10
0.0
 20
0.0
 30
0.0
 70
     1
  0
VERTEX
  5
40D
  8
0
 10
0.0005627438404521
 20
0.0005079957360127
 30
0.0
  0
VERTEX
  5
40E
  8
0
 10
0.0005584899151912
 20
0.0005032147167159
 30
0.0
  0
SEQEND
  5
1142
  8
0
  0
POLYLINE
  5
AA
  8
0
 66
     1
 10
0.0
 20
0.0
 30
0.0
 70
     1
  0
VERTEX
  5
40F
  8
0
 10
0.0006397126870077
 20
0.0005074408335764
 30
0.0
  0
VERTEX
  5
410
  8
0
 10
0.0006430631293625
 20
0.0005152582606331
 30
0.0
  0
VERTEX
  5
411
  8
0
 10
0.0006408257406266
 20
0.0005151875183231
 30
0.0
  0
VERTEX
  5
412
  8
0
 10
0.0006390197878978
 20
0.0005173110539796
 30
0.0
  0
VERTEX
  5
413
  8
0
 10
0.0006391282628794
 20
0.0005219116586154
 30
0.0
  0
VERTEX
  5
414
  8
0
 10
0.0006376434576316
 20
0.0005223490668125
 30
0.0
  0
VERTEX
  5
415
  8
0
 10
0.0006349220275879
 20
0.0005195461898554
 30
0.0
  0
VERTEX
  5
416
  8
0
 10
0.0006348517496078
 20
0.0005174043264545
 30
0.0
  0
VERTEX
  5
417
  8
0
 10
0.0006385831238794
 20
0.0005126356226499
 30
0.0
  0
SEQEND
  5
1143
  8
0
  0
POLYLINE
  5
AB
  8
0
 66
     1
 10
0.0
 20
0.0
 30
0.0
 70
     1
  0
VERTEX
  5
418
  8
0
 10
0.0001510245401351
 20
0.0004650675664183
 30
0.0
  0
VERTEX
  5
419
  8
0
 10
0.0001567969400375
 20
0.0004613510882268
 30
0.0
  0
VERTEX
  5
41A
  8
0
 10
0.0001598684342181
 20
0.0004629652179655
 30
0.0
  0
VERTEX
  5
41B
  8
0
 10
0.0001595000220127
 20
0.0004670991741243
 30
0.0
  0
VERTEX
  5
41C
  8
0
 10
0.0001594814863361
 20
0.0004674139804527
 30
0.0
  0
SEQEND
  5
1144
  8
0
  0
POLYLINE
  5
AC
  8
0
 66
     1
 10
0.0
 20
0.0
 30
0.0
 70
     1
  0
VERTEX
  5
41D
  8
0
 10
0.000314867401123
 20
0.0003094876523878
 30
0.0
  0
VERTEX
  5
41E
  8
0
 10
0.0003079686774582
 20
0.0003118139798524
 30
0.0
  0
VERTEX
  5
41F
  8
0
 10
0.0003079653005131
 20
0.0003118110406594
 30
0.0
  0
VERTEX
  5
420
  8
0
 10
0.0003121461586874
 20
0.0003273352576084
 30
0.0
  0
VERTEX
  5
421
  8
0
 10
0.0003142942710001
 20
0.0003278359084833
 30
0.0
  0
VERTEX
  5
422
  8
0
 10
0.0003161511030353
 20
0.0003242845128794
 30
0.0
  0
VERTEX
  5
423
  8
0
 10
0.0003166018626729
 20
0.0003197936386359
 30
0.0
  0
VERTEX
  5
424
  8
0
 10
0.0003169259118252
 20
0.0003122433896925
 30
0.0
  0
SEQEND
  5
1145
  8
0
  0
POLYLINE
  5
AD
  8
0
 66
     1
 10
0.0
 20
0.0
 30
0.0
 70
     1
  0
VERTEX
  5
425
  8
0
 10
0.0002300359256932
 20
0.0003274317381812
 30
0.0
  0
VERTEX
  5
426
  8
0
 10
0.000236774256972
 20
0.0003236711595879
 30
0.0
  0
VERTEX
  5
427
  8
0
 10
0.0002304412591653
 20
0.0003260637752345
 30
0.0
  0
SEQEND
  5
1146
  8
0
  0
POLYLINE
  5
AE
  8
0
 66
     1
 10
0.0
 20
0.0
 30
0.0
 70
     1
  0
VERTEX
  5
428
  8
0
 10
0.0002553442783043
 20
0.0003569966675805
 30
0.0
  0
VERTEX
  5
429
  8
0
 10
0.0002519255341076
 20
0.0003553134855677
 30
0.0
  0
VERTEX
  5
42A
  8
0
 10
0.0002515412627674
 20
0.0003521690368652
 30
0.0
  0
VERTEX
  5
42B
  8
0
 10
0.0002544255491163
 20
0.0003535053440782
 30
0.0
  0
VERTEX
  5
42C
  8
0
 10
0.0002554848342645
 20
0.0003568736592277
 30
0.0
  0
SEQEND
  5
1147
  8
0
  0
POLYLINE
  5
AF
  8
0
 66
     1
 10
0.0
 20
0.0
 30
0.0
 70
     1
  0
VERTEX
  5
42D
  8
0
 10
0.0002386628197842
 20
0.0003522515719054
 30
0.0
  0
VERTEX
  5
42E
  8
0
 10
0.0002420804133181
 20
0.0003505682147917
 30
0.0
  0
VERTEX
  5
42F
  8
0
 10
0.0002424642594134
 20
0.0003474240287406
 30
0.0
  0
VERTEX
  5
430
  8
0
 10
0.0002395809486264
 20
0.0003487604735328
 30
0.0
  0
VERTEX
  5
431
  8
0
 10
0.000238522263824
 20
0.000352128588567
 30
0.0
  0
SEQEND
  5
1148
  8
0
  0
POLYLINE
  5
B0
  8
0
 66
     1
 10
0.0
 20
0.0
 30
0.0
 70
     1
  0
VERTEX
  5
432
  8
0
 10
0.00022833954858
 20
0.0003449785076204
 30
0.0
  0
VERTEX
  5
433
  8
0
 10
0.0002242512937452
 20
0.0003415772735095
 30
0.0
  0
VERTEX
  5
434
  8
0
 10
0.0002188180391906
 20
0.0003413294807809
 30
0.0
  0
VERTEX
  5
435
  8
0
 10
0.0002183552976514
 20
0.0003468115509533
 30
0.0
  0
VERTEX
  5
436
  8
0
 10
0.0002218749249568
 20
0.0003533779832183
 30
0.0
  0
VERTEX
  5
437
  8
0
 10
0.0002257915809506
 20
0.0003498849087074
 30
0.0
  0
VERTEX
  5
438
  8
0
 10
0.0002281904376921
 20
0.0003505876760014
 30
0.0
  0
VERTEX
  5
439
  8
0
 10
0.0002311318319352
 20
0.000352390802102
 30
0.0
  0
VERTEX
  5
43A
  8
0
 10
0.0002319306670642
 20
0.0003505520804984
 30
0.0
  0
VERTEX
  5
43B
  8
0
 10
0.0002296435997134
 20
0.0003469275552718
 30
0.0
  0
SEQEND
  5
1149
  8
0
  0
POLYLINE
  5
B1
  8
0
 66
     1
 10
0.0
 20
0.0
 30
0.0
 70
     1
  0
VERTEX
  5
43C
  8
0
 10
0.0004145545334112
 20
0.0003476365761679
 30
0.0
  0
VERTEX
  5
43D
  8
0
 10
0.0004188038059923
 20
0.0003477247144355
 30
0.0
  0
VERTEX
  5
43E
  8
0
 10
0.0004188128674617
 20
0.0003477481154145
 30
0.0
  0
VERTEX
  5
43F
  8
0
 10
0.000416678694428
 20
0.0003543764458328
 30
0.0
  0
VERTEX
  5
440
  8
0
 10
0.0004198863795546
 20
0.0003560174035244
 30
0.0
  0
VERTEX
  5
441
  8
0
 10
0.0004252573795006
 20
0.0003562262988481
 30
0.0
  0
VERTEX
  5
442
  8
0
 10
0.0004095816002517
 20
0.0003290034935123
 30
0.0
  0
VERTEX
  5
443
  8
0
 10
0.0003993253051258
 20
0.0003017062327901
 30
0.0
  0
VERTEX
  5
444
  8
0
 10
0.0003967905325968
 20
0.0002891528770572
 30
0.0
  0
VERTEX
  5
445
  8
0
 10
0.0003926683644779
 20
0.0002843505609231
 30
0.0
  0
VERTEX
  5
446
  8
0
 10
0.00038061946181
 20
0.0002814990684634
 30
0.0
  0
VERTEX
  5
447
  8
0
 10
0.0003761436587474
 20
0.0002832475255747
 30
0.0
  0
VERTEX
  5
448
  8
0
 10
0.0003759573639416
 20
0.0002862380481157
 30
0.0
  0
VERTEX
  5
449
  8
0
 10
0.0003796641490499
 20
0.000297460387183
 30
0.0
  0
VERTEX
  5
44A
  8
0
 10
0.0003887225291768
 20
0.0003222686392362
 30
0.0
  0
VERTEX
  5
44B
  8
0
 10
0.0003912112126585
 20
0.0003284117276551
 30
0.0
  0
VERTEX
  5
44C
  8
0
 10
0.0003994642726711
 20
0.0003336542598537
 30
0.0
  0
VERTEX
  5
44D
  8
0
 10
0.0004001817359299
 20
0.0003349340595183
 30
0.0
  0
VERTEX
  5
44E
  8
0
 10
0.000400933706565
 20
0.0003469654395932
 30
0.0
  0
VERTEX
  5
44F
  8
0
 10
0.000405338074731
 20
0.0003596593137647
 30
0.0
  0
VERTEX
  5
450
  8
0
 10
0.0004090866401547
 20
0.0003616374906946
 30
0.0
  0
VERTEX
  5
451
  8
0
 10
0.0004140350154189
 20
0.0003510318318351
 30
0.0
  0
SEQEND
  5
114A
  8
0
  0
POLYLINE
  5
B2
  8
0
 66
     1
 10
0.0
 20
0.0
 30
0.0
 70
     1
  0
VERTEX
  5
452
  8
0
 10
0.0002211829763944
 20
0.0003679823578381
 30
0.0
  0
VERTEX
  5
453
  8
0
 10
0.0002195258969166
 20
0.0003716432039855
 30
0.0
  0
VERTEX
  5
454
  8
0
 10
0.0002164874467693
 20
0.0003724568476442
 30
0.0
  0
VERTEX
  5
455
  8
0
 10
0.0002119942086642
 20
0.0003659177436203
 30
0.0
  0
VERTEX
  5
456
  8
0
 10
0.0002122892035813
 20
0.0003590442094647
 30
0.0
  0
VERTEX
  5
457
  8
0
 10
0.0002151564801326
 20
0.0003587880869381
 30
0.0
  0
VERTEX
  5
458
  8
0
 10
0.000218464935803
 20
0.0003636244726963
 30
0.0
  0
VERTEX
  5
459
  8
0
 10
0.0002210631573787
 20
0.00036782300355
 30
0.0
  0
SEQEND
  5
114B
  8
0
  0
POLYLINE
  5
B3
  8
0
 66
     1
 10
0.0
 20
0.0
 30
0.0
 70
     1
  0
VERTEX
  5
45A
  8
0
 10
0.0004597250172349
 20
0.0003690243080014
 30
0.0
  0
VERTEX
  5
45B
  8
0
 10
0.0004662648404231
 20
0.0003691468160661
 30
0.0
  0
VERTEX
  5
45C
  8
0
 10
0.0004622061526189
 20
0.0003647764487345
 30
0.0
  0
SEQEND
  5
114C
  8
0
  0
POLYLINE
  5
B4
  8
0
 66
     1
 10
0.0
 20
0.0
 30
0.0
 70
     1
  0
VERTEX
  5
45D
  8
0
 10
0.000453542168414
 20
0.0003758876237713
 30
0.0
  0
VERTEX
  5
45E
  8
0
 10
0.0004576740233625
 20
0.0003734416899134
 30
0.0
  0
VERTEX
  5
45F
  8
0
 10
0.000453542168414
 20
0.0003691468160661
 30
0.0
  0
SEQEND
  5
114D
  8
0
  0
POLYLINE
  5
B5
  8
0
 66
     1
 10
0.0
 20
0.0
 30
0.0
 70
     1
  0
VERTEX
  5
460
  8
0
 10
0.0004442501318259
 20
0.0003635097816342
 30
0.0
  0
VERTEX
  5
461
  8
0
 10
0.0004394399799284
 20
0.000372815904461
 30
0.0
  0
VERTEX
  5
462
  8
0
 10
0.0004400034482362
 20
0.0003769885203877
 30
0.0
  0
VERTEX
  5
463
  8
0
 10
0.0004471890308818
 20
0.0003764198428295
 30
0.0
  0
VERTEX
  5
464
  8
0
 10
0.0004489972849361
 20
0.000374488192699
 30
0.0
  0
VERTEX
  5
465
  8
0
 10
0.0004442641086266
 20
0.0003638839096319
 30
0.0
  0
SEQEND
  5
114E
  8
0
  0
POLYLINE
  5
B6
  8
0
 66
     1
 10
0.0
 20
0.0
 30
0.0
 70
     1
  0
VERTEX
  5
466
  8
0
 10
0.0003721326609127
 20
0.0003768125440254
 30
0.0
  0
VERTEX
  5
467
  8
0
 10
0.0003843869819016
 20
0.000385726378394
 30
0.0
  0
VERTEX
  5
468
  8
0
 10
0.0003848605671867
 20
0.0003857984073827
 30
0.0
  0
VERTEX
  5
469
  8
0
 10
0.0003833874436676
 20
0.0003786416225746
 30
0.0
  0
VERTEX
  5
46A
  8
0
 10
0.0003806278041152
 20
0.0003761886846824
 30
0.0
  0
SEQEND
  5
114F
  8
0
  0
POLYLINE
  5
B7
  8
0
 66
     1
 10
0.0
 20
0.0
 30
0.0
 70
     1
  0
VERTEX
  5
46B
  8
0
 10
0.0002097594714556
 20
0.0003873349924557
 30
0.0
  0
VERTEX
  5
46C
  8
0
 10
0.0002049975035621
 20
0.000390168024282
 30
0.0
  0
VERTEX
  5
46D
  8
0
 10
0.0002013836970095
 20
0.0003944560691959
 30
0.0
  0
VERTEX
  5
46E
  8
0
 10
0.0002036342683386
 20
0.0003967974928559
 30
0.0
  0
VERTEX
  5
46F
  8
0
 10
0.0002096153634493
 20
0.0003993104528208
 30
0.0
  0
VERTEX
  5
470
  8
0
 10
0.000209906531162
 20
0.0003964639507356
 30
0.0
  0
VERTEX
  5
471
  8
0
 10
0.000209804861732
 20
0.0003873492962658
 30
0.0
  0
SEQEND
  5
1150
  8
0
  0
POLYLINE
  5
B8
  8
0
 66
     1
 10
0.0
 20
0.0
 30
0.0
 70
     1
  0
VERTEX
  5
472
  8
0
 10
0.0001961021798556
 20
0.000390278425373
 30
0.0
  0
VERTEX
  5
473
  8
0
 10
0.000191857284796
 20
0.0003857984073827
 30
0.0
  0
SEQEND
  5
1151
  8
0
  0
POLYLINE
  5
B9
  8
0
 66
     1
 10
0.0
 20
0.0
 30
0.0
 70
     1
  0
VERTEX
  5
474
  8
0
 10
0.0003615323551366
 20
0.0003992642887303
 30
0.0
  0
VERTEX
  5
475
  8
0
 10
0.000357287460077
 20
0.0003925235060395
 30
0.0
  0
SEQEND
  5
1152
  8
0
  0
POLYLINE
  5
BA
  8
0
 66
     1
 10
0.0
 20
0.0
 30
0.0
 70
     1
  0
VERTEX
  5
476
  8
0
 10
0.0002917183297579
 20
0.000402555265583
 30
0.0
  0
VERTEX
  5
477
  8
0
 10
0.0002832389206183
 20
0.0004070500795958
 30
0.0
  0
SEQEND
  5
1153
  8
0
  0
POLYLINE
  5
BB
  8
0
 66
     1
 10
0.0
 20
0.0
 30
0.0
 70
     1
  0
VERTEX
  5
478
  8
0
 10
0.0004145480922011
 20
0.0004214334706791
 30
0.0
  0
VERTEX
  5
479
  8
0
 10
0.0004179704759942
 20
0.0004197504324991
 30
0.0
  0
VERTEX
  5
47A
  8
0
 10
0.0004183558479684
 20
0.0004166046455258
 30
0.0
  0
VERTEX
  5
47B
  8
0
 10
0.0004154684785937
 20
0.0004179407713843
 30
0.0
  0
VERTEX
  5
47C
  8
0
 10
0.0004144073986616
 20
0.0004213103435079
 30
0.0
  0
SEQEND
  5
1154
  8
0
  0
POLYLINE
  5
BC
  8
0
 66
     1
 10
0.0
 20
0.0
 30
0.0
 70
     1
  0
VERTEX
  5
47D
  8
0
 10
0.0004043443460934
 20
0.0003994172393299
 30
0.0
  0
VERTEX
  5
47E
  8
0
 10
0.0004043443460934
 20
0.0003994172080618
 30
0.0
  0
VERTEX
  5
47F
  8
0
 10
0.0004077369502333
 20
0.0004013251070116
 30
0.0
  0
VERTEX
  5
480
  8
0
 10
0.0004074343134145
 20
0.0004059706515953
 30
0.0
  0
VERTEX
  5
481
  8
0
 10
0.0004053842700896
 20
0.0004082863979652
 30
0.0
  0
VERTEX
  5
482
  8
0
 10
0.0003994492577725
 20
0.0004089508807073
 30
0.0
  0
VERTEX
  5
483
  8
0
 10
0.0003975779048732
 20
0.0004100786615591
 30
0.0
  0
VERTEX
  5
484
  8
0
 10
0.0004009104306581
 20
0.0004113699615979
 30
0.0
  0
VERTEX
  5
485
  8
0
 10
0.0004125564950411
 20
0.0004029880648754
 30
0.0
  0
VERTEX
  5
486
  8
0
 10
0.0004130198306725
 20
0.00039977932289
 30
0.0
  0
VERTEX
  5
487
  8
0
 10
0.0004084200249344
 20
0.0003876420693319
 30
0.0
  0
VERTEX
  5
488
  8
0
 10
0.0004054761480113
 20
0.0003888757924565
 30
0.0
  0
VERTEX
  5
489
  8
0
 10
0.000398620899388
 20
0.000393392581627
 30
0.0
  0
VERTEX
  5
48A
  8
0
 10
0.0003946799856717
 20
0.0003930877810619
 30
0.0
  0
VERTEX
  5
48B
  8
0
 10
0.0003914836570865
 20
0.0003866395168617
 30
0.0
  0
VERTEX
  5
48C
  8
0
 10
0.0003890859385006
 20
0.0003823535981725
 30
0.0
  0
VERTEX
  5
48D
  8
0
 10
0.0003886589675653
 20
0.0003824094928679
 30
0.0
  0
VERTEX
  5
48E
  8
0
 10
0.0003882003033747
 20
0.0003860860980925
 30
0.0
  0
VERTEX
  5
48F
  8
0
 10
0.0003855625090052
 20
0.000391905249924
 30
0.0
  0
VERTEX
  5
490
  8
0
 10
0.0003848605671867
 20
0.0003947713382909
 30
0.0
  0
VERTEX
  5
491
  8
0
 10
0.0003916612843998
 20
0.0003982335387683
 30
0.0
  0
VERTEX
  5
492
  8
0
 10
0.0003999900755335
 20
0.0004056970565045
 30
0.0
  0
VERTEX
  5
493
  8
0
 10
0.0004021663915916
 20
0.0004065620922651
 30
0.0
  0
VERTEX
  5
494
  8
0
 10
0.0004030139735488
 20
0.0004019823293217
 30
0.0
  0
VERTEX
  5
495
  8
0
 10
0.0004041637776013
 20
0.0003995349045164
 30
0.0
  0
VERTEX
  5
496
  8
0
 10
0.000404340769033
 20
0.0003994211790992
 30
0.0
  0
SEQEND
  5
1155
  8
0
  0
POLYLINE
  5
BD
  8
0
 66
     1
 10
0.0
 20
0.0
 30
0.0
 70
     1
  0
VERTEX
  5
497
  8
0
 10
0.0003393353446585
 20
0.0003781608456471
 30
0.0
  0
VERTEX
  5
498
  8
0
 10
0.0003365709398614
 20
0.0003707445738746
 30
0.0
  0
VERTEX
  5
499
  8
0
 10
0.0003350110663742
 20
0.0003687575918729
 30
0.0
  0
VERTEX
  5
49A
  8
0
 10
0.0003305522731093
 20
0.0003675515722056
 30
0.0
  0
VERTEX
  5
49B
  8
0
 10
0.000329143286533
 20
0.0003685801896893
 30
0.0
  0
VERTEX
  5
49C
  8
0
 10
0.000331353659708
 20
0.0003748070888832
 30
0.0
  0
VERTEX
  5
49D
  8
0
 10
0.0003358264485344
 20
0.0003825583536117
 30
0.0
  0
VERTEX
  5
49E
  8
0
 10
0.0003379986497222
 20
0.0003809073651423
 30
0.0
  0
VERTEX
  5
49F
  8
0
 10
0.0003390615869741
 20
0.0003786536169834
 30
0.0
  0
SEQEND
  5
1156
  8
0
  0
POLYLINE
  5
BE
  8
0
 66
     1
 10
0.0
 20
0.0
 30
0.0
 70
     1
  0
VERTEX
  5
4A0
  8
0
 10
0.0002132215406074
 20
0.0004192930628042
 30
0.0
  0
VERTEX
  5
4A1
  8
0
 10
0.0002284826810243
 20
0.000411518565944
 30
0.0
  0
VERTEX
  5
4A2
  8
0
 10
0.0002176207495517
 20
0.0004133986801398
 30
0.0
  0
VERTEX
  5
4A3
  8
0
 10
0.0002133314038886
 20
0.0004182126467345
 30
0.0
  0
SEQEND
  5
1157
  8
0
  0
POLYLINE
  5
BF
  8
0
 66
     1
 10
0.0
 20
0.0
 30
0.0
 70
     1
  0
VERTEX
  5
4A4
  8
0
 10
0.000403237664895
 20
0.0004225945519619
 30
0.0
  0
VERTEX
  5
4A5
  8
0
 10
0.000410169388818
 20
0.0004235572940013
 30
0.0
  0
VERTEX
  5
4A6
  8
0
 10
0.0004096992305068
 20
0.0004182683913434
 30
0.0
  0
SEQEND
  5
1158
  8
0
  0
POLYLINE
  5
C0
  8
0
 66
     1
 10
0.0
 20
0.0
 30
0.0
 70
     1
  0
VERTEX
  5
4A7
  8
0
 10
0.0003212366072858
 20
0.0004194543932305
 30
0.0
  0
VERTEX
  5
4A8
  8
0
 10
0.0003365237626873
 20
0.0004098116327505
 30
0.0
  0
VERTEX
  5
4A9
  8
0
 10
0.0003373845835201
 20
0.0004079196429643
 30
0.0
  0
VERTEX
  5
4AA
  8
0
 10
0.0003336985353564
 20
0.0004076746393423
 30
0.0
  0
VERTEX
  5
4AB
  8
0
 10
0.0003233625568327
 20
0.0004082363441342
 30
0.0
  0
VERTEX
  5
4AC
  8
0
 10
0.0003279122399502
 20
0.0004147016243856
 30
0.0
  0
VERTEX
  5
4AD
  8
0
 10
0.0003209114574995
 20
0.0004150736324123
 30
0.0
  0
VERTEX
  5
4AE
  8
0
 10
0.0003207087532419
 20
0.0004166914955514
 30
0.0
  0
SEQEND
  5
1159
  8
0
  0
POLYLINE
  5
C1
  8
0
 66
     1
 10
0.0
 20
0.0
 30
0.0
 70
     1
  0
VERTEX
  5
4AF
  8
0
 10
0.0000762663294057
 20
0.0004183387506204
 30
0.0
  0
VERTEX
  5
4B0
  8
0
 10
0.0000677832931769
 20
0.0004138448996622
 30
0.0
  0
VERTEX
  5
4B1
  8
0
 10
0.0000729000904521
 20
0.000418429309032
 30
0.0
  0
VERTEX
  5
4B2
  8
0
 10
0.0000760516557537
 20
0.0004185407919962
 30
0.0
  0
SEQEND
  5
115A
  8
0
  0
POLYLINE
  5
C2
  8
0
 66
     1
 10
0.0
 20
0.0
 30
0.0
 70
     1
  0
VERTEX
  5
4B3
  8
0
 10
0.0002512450671587
 20
0.0004127292633057
 30
0.0
  0
VERTEX
  5
4B4
  8
0
 10
0.0002514630176982
 20
0.0004186691409252
 30
0.0
  0
VERTEX
  5
4B5
  8
0
 10
0.0002536999311603
 20
0.0004223517120862
 30
0.0
  0
VERTEX
  5
4B6
  8
0
 10
0.0002567824066662
 20
0.0004206186575968
 30
0.0
  0
VERTEX
  5
4B7
  8
0
 10
0.0002647581757092
 20
0.000411648847236
 30
0.0
  0
VERTEX
  5
4B8
  8
0
 10
0.0002757507824507
 20
0.0004069453067467
 30
0.0
  0
VERTEX
  5
4B9
  8
0
 10
0.0002785274067863
 20
0.0004031741658195
 30
0.0
  0
VERTEX
  5
4BA
  8
0
 10
0.0002778405861776
 20
0.0004013694387967
 30
0.0
  0
VERTEX
  5
4BB
  8
0
 10
0.0002718456330847
 20
0.0004009300419542
 30
0.0
  0
VERTEX
  5
4BC
  8
0
 10
0.000269080215204
 20
0.0003992300252445
 30
0.0
  0
VERTEX
  5
4BD
  8
0
 10
0.0002726371139777
 20
0.0003948929833584
 30
0.0
  0
VERTEX
  5
4BE
  8
0
 10
0.0002620904891217
 20
0.0003883747663654
 30
0.0
  0
VERTEX
  5
4BF
  8
0
 10
0.0002619620151207
 20
0.0003879845165816
 30
0.0
  0
VERTEX
  5
4C0
  8
0
 10
0.0002519956995229
 20
0.0004015669525647
 30
0.0
  0
VERTEX
  5
4C1
  8
0
 10
0.0002460606559378
 20
0.0004055088793645
 30
0.0
  0
VERTEX
  5
4C2
  8
0
 10
0.0002439074657002
 20
0.0004107426252521
 30
0.0
  0
VERTEX
  5
4C3
  8
0
 10
0.0002452632716445
 20
0.0004130105941022
 30
0.0
  0
SEQEND
  5
115B
  8
0
  0
POLYLINE
  5
C3
  8
0
 66
     1
 10
0.0
 20
0.0
 30
0.0
 70
     1
  0
VERTEX
  5
4C4
  8
0
 10
0.0000985375576332
 20
0.0004194543932305
 30
0.0
  0
VERTEX
  5
4C5
  8
0
 10
0.0000945854312084
 20
0.0004143358011715
 30
0.0
  0
VERTEX
  5
4C6
  8
0
 10
0.0000928140859135
 20
0.0004140183433158
 30
0.0
  0
VERTEX
  5
4C7
  8
0
 10
0.000092158583344
 20
0.000416081819378
 30
0.0
  0
VERTEX
  5
4C8
  8
0
 10
0.0000931033275167
 20
0.0004228618746898
 30
0.0
  0
VERTEX
  5
4C9
  8
0
 10
0.0000942926625736
 20
0.0004239473124019
 30
0.0
  0
SEQEND
  5
115C
  8
0
  0
POLYLINE
  5
C4
  8
0
 66
     1
 10
0.0
 20
0.0
 30
0.0
 70
     1
  0
VERTEX
  5
4CA
  8
0
 10
0.0004059296217121
 20
0.0004280354421647
 30
0.0
  0
VERTEX
  5
4CB
  8
0
 10
0.0004012649348525
 20
0.0004307246223825
 30
0.0
  0
VERTEX
  5
4CC
  8
0
 10
0.0004055030635146
 20
0.0004352193488449
 30
0.0
  0
SEQEND
  5
115D
  8
0
  0
POLYLINE
  5
C5
  8
0
 66
     1
 10
0.0
 20
0.0
 30
0.0
 70
     1
  0
VERTEX
  5
4CD
  8
0
 10
0.0002608772653048
 20
0.0004383382578365
 30
0.0
  0
VERTEX
  5
4CE
  8
0
 10
0.000270665078085
 20
0.000439802151039
 30
0.0
  0
VERTEX
  5
4CF
  8
0
 10
0.00027338677078
 20
0.0004385060044586
 30
0.0
  0
VERTEX
  5
4D0
  8
0
 10
0.0002717138821961
 20
0.0004349373739274
 30
0.0
  0
VERTEX
  5
4D1
  8
0
 10
0.0002687949008629
 20
0.0004292238391814
 30
0.0
  0
VERTEX
  5
4D2
  8
0
 10
0.0002595280881788
 20
0.0004309609835265
 30
0.0
  0
VERTEX
  5
4D3
  8
0
 10
0.0002533941300189
 20
0.00043743848957
 30
0.0
  0
VERTEX
  5
4D4
  8
0
 10
0.0002545082217357
 20
0.000440769770888
 30
0.0
  0
VERTEX
  5
4D5
  8
0
 10
0.0002574171472768
 20
0.0004396450543013
 30
0.0
  0
VERTEX
  5
4D6
  8
0
 10
0.0002604466422659
 20
0.0004382925877806
 30
0.0
  0
SEQEND
  5
115E
  8
0
  0
POLYLINE
  5
C6
  8
0
 66
     1
 10
0.0
 20
0.0
 30
0.0
 70
     1
  0
VERTEX
  5
4D7
  8
0
 10
0.000174884333376
 20
0.0004351653552446
 30
0.0
  0
VERTEX
  5
4D8
  8
0
 10
0.0001812546276655
 20
0.0004257421149582
 30
0.0
  0
VERTEX
  5
4D9
  8
0
 10
0.0001814202230485
 20
0.0004204248459613
 30
0.0
  0
VERTEX
  5
4DA
  8
0
 10
0.0001740925523101
 20
0.0004161326236412
 30
0.0
  0
VERTEX
  5
4DB
  8
0
 10
0.0001687031480133
 20
0.0004145026785428
 30
0.0
  0
VERTEX
  5
4DC
  8
0
 10
0.0001710860955911
 20
0.0004199133951156
 30
0.0
  0
VERTEX
  5
4DD
  8
0
 10
0.0001747775968958
 20
0.0004216494263196
 30
0.0
  0
VERTEX
  5
4DE
  8
0
 10
0.000176216350618
 20
0.0004257451229408
 30
0.0
  0
SEQEND
  5
115F
  8
0
  0
POLYLINE
  5
C7
  8
0
 66
     1
 10
0.0
 20
0.0
 30
0.0
 70
     1
  0
VERTEX
  5
4DF
  8
0
 10
0.0001561628247871
 20
0.0004310101555996
 30
0.0
  0
VERTEX
  5
4E0
  8
0
 10
0.00016623249992
 20
0.0004268166401347
 30
0.0
  0
VERTEX
  5
4E1
  8
0
 10
0.0001681462522413
 20
0.0004237290116607
 30
0.0
  0
VERTEX
  5
4E2
  8
0
 10
0.000167902336746
 20
0.000423152279463
 30
0.0
  0
VERTEX
  5
4E3
  8
0
 10
0.0001645827996926
 20
0.0004263418729188
 30
0.0
  0
VERTEX
  5
4E4
  8
0
 10
0.0001577946397125
 20
0.0004284154485484
 30
0.0
  0
SEQEND
  5
1160
  8
0
  0
POLYLINE
  5
C8
  8
0
 66
     1
 10
0.0
 20
0.0
 30
0.0
 70
     1
  0
VERTEX
  5
4E5
  8
0
 10
0.0001515595983286
 20
0.0004261942628954
 30
0.0
  0
VERTEX
  5
4E6
  8
0
 10
0.000146895036541
 20
0.0004266382686427
 30
0.0
  0
VERTEX
  5
4E7
  8
0
 10
0.000151141732638
 20
0.0004311311815606
 30
0.0
  0
SEQEND
  5
1161
  8
0
  0
POLYLINE
  5
C9
  8
0
 66
     1
 10
0.0
 20
0.0
 30
0.0
 70
     1
  0
VERTEX
  5
4E8
  8
0
 10
0.00023384211806
 20
0.0004218229012411
 30
0.0
  0
VERTEX
  5
4E9
  8
0
 10
0.000240688411525
 20
0.0004238247668157
 30
0.0
  0
VERTEX
  5
4EA
  8
0
 10
0.0002366999141506
 20
0.0004186667520492
 30
0.0
  0
VERTEX
  5
4EB
  8
0
 10
0.0002334301807841
 20
0.0004185544811311
 30
0.0
  0
VERTEX
  5
4EC
  8
0
 10
0.0002318564993436
 20
0.0004262030179383
 30
0.0
  0
VERTEX
  5
4ED
  8
0
 10
0.0002318311347336
 20
0.0004330310258709
 30
0.0
  0
VERTEX
  5
4EE
  8
0
 10
0.000233885367972
 20
0.0004333371021709
 30
0.0
  0
VERTEX
  5
4EF
  8
0
 10
0.0002365779939245
 20
0.0004325749694324
 30
0.0
  0
VERTEX
  5
4F0
  8
0
 10
0.0002339637631276
 20
0.000422318005171
 30
0.0
  0
SEQEND
  5
1162
  8
0
  0
POLYLINE
  5
CA
  8
0
 66
     1
 10
0.0
 20
0.0
 30
0.0
 70
     1
  0
VERTEX
  5
4F1
  8
0
 10
0.0002210810927094
 20
0.0004337134877189
 30
0.0
  0
VERTEX
  5
4F2
  8
0
 10
0.0002071460661341
 20
0.0004243856523858
 30
0.0
  0
VERTEX
  5
4F3
  8
0
 10
0.0002090990660621
 20
0.0004286619655422
 30
0.0
  0
VERTEX
  5
4F4
  8
0
 10
0.000216068555488
 20
0.0004315033084056
 30
0.0
  0
SEQEND
  5
1163
  8
0
  0
POLYLINE
  5
CB
  8
0
 66
     1
 10
0.0
 20
0.0
 30
0.0
 70
     1
  0
VERTEX
  5
4F5
  8
0
 10
0.0003974431397485
 20
0.0004459933921939
 30
0.0
  0
VERTEX
  5
4F6
  8
0
 10
0.0003932033476282
 20
0.0004414994849533
 30
0.0
  0
SEQEND
  5
1164
  8
0
  0
POLYLINE
  5
CC
  8
0
 66
     1
 10
0.0
 20
0.0
 30
0.0
 70
     1
  0
VERTEX
  5
4F7
  8
0
 10
0.0003300774371038
 20
0.0004325154914231
 30
0.0
  0
VERTEX
  5
4F8
  8
0
 10
0.0003297160289327
 20
0.0004329184047511
 30
0.0
  0
VERTEX
  5
4F9
  8
0
 10
0.0003239503203845
 20
0.0004375549941766
 30
0.0
  0
VERTEX
  5
4FA
  8
0
 10
0.0003224425519099
 20
0.0004412873189957
 30
0.0
  0
VERTEX
  5
4FB
  8
0
 10
0.0003233625568327
 20
0.0004419061316819
 30
0.0
  0
VERTEX
  5
4FC
  8
0
 10
0.0003268833473081
 20
0.0004403803153116
 30
0.0
  0
VERTEX
  5
4FD
  8
0
 10
0.0003309786937276
 20
0.0004338136516634
 30
0.0
  0
VERTEX
  5
4FE
  8
0
 10
0.0003301273533555
 20
0.0004324883507901
 30
0.0
  0
SEQEND
  5
1165
  8
0
  0
POLYLINE
  5
CD
  8
0
 66
     1
 10
0.0
 20
0.0
 30
0.0
 70
     1
  0
VERTEX
  5
4FF
  8
0
 10
0.0001070171418737
 20
0.0004374123119917
 30
0.0
  0
VERTEX
  5
500
  8
0
 10
0.0001006548271805
 20
0.0004329184047511
 30
0.0
  0
VERTEX
  5
501
  8
0
 10
0.0001033704413742
 20
0.000436455986148
 30
0.0
  0
SEQEND
  5
1166
  8
0
  0
POLYLINE
  5
CE
  8
0
 66
     1
 10
0.0
 20
0.0
 30
0.0
 70
     1
  0
VERTEX
  5
502
  8
0
 10
0.0001599735697762
 20
0.0004375608850698
 30
0.0
  0
VERTEX
  5
503
  8
0
 10
0.0001630988199203
 20
0.0004416904324391
 30
0.0
  0
VERTEX
  5
504
  8
0
 10
0.0001688844024158
 20
0.0004426890513936
 30
0.0
  0
VERTEX
  5
505
  8
0
 10
0.0001679412341509
 20
0.000439266392442
 30
0.0
  0
VERTEX
  5
506
  8
0
 10
0.0001628368440222
 20
0.0004363478301001
 30
0.0
  0
SEQEND
  5
1167
  8
0
  0
POLYLINE
  5
CF
  8
0
 66
     1
 10
0.0
 20
0.0
 30
0.0
 70
     1
  0
VERTEX
  5
507
  8
0
 10
0.0001367109455046
 20
0.0004374123119917
 30
0.0
  0
VERTEX
  5
508
  8
0
 10
0.0001409576416016
 20
0.0004441374169021
 30
0.0
  0
VERTEX
  5
509
  8
0
 10
0.0001431160848649
 20
0.0004407770938561
 30
0.0
  0
VERTEX
  5
50A
  8
0
 10
0.0001525254546619
 20
0.0004398852363962
 30
0.0
  0
VERTEX
  5
50B
  8
0
 10
0.0001535494945088
 20
0.0004392941771961
 30
0.0
  0
VERTEX
  5
50C
  8
0
 10
0.0001521112160605
 20
0.0004363713811656
 30
0.0
  0
VERTEX
  5
50D
  8
0
 10
0.0001495956170754
 20
0.0004340681044782
 30
0.0
  0
VERTEX
  5
50E
  8
0
 10
0.0001423625258149
 20
0.0004371946616251
 30
0.0
  0
SEQEND
  5
1168
  8
0
  0
POLYLINE
  5
D0
  8
0
 66
     1
 10
0.0
 20
0.0
 30
0.0
 70
     1
  0
VERTEX
  5
50F
  8
0
 10
0.0003085137914439
 20
0.0004396582744161
 30
0.0
  0
VERTEX
  5
510
  8
0
 10
0.0003038492421635
 20
0.0004401014046591
 30
0.0
  0
VERTEX
  5
511
  8
0
 10
0.000308085432209
 20
0.0004445961561359
 30
0.0
  0
SEQEND
  5
1169
  8
0
  0
POLYLINE
  5
D1
  8
0
 66
     1
 10
0.0
 20
0.0
 30
0.0
 70
     1
  0
VERTEX
  5
512
  8
0
 10
0.0002470000470271
 20
0.0004351653552446
 30
0.0
  0
VERTEX
  5
513
  8
0
 10
0.0002342739167761
 20
0.0004374123119917
 30
0.0
  0
VERTEX
  5
514
  8
0
 10
0.0002376155415519
 20
0.0004408572650347
 30
0.0
  0
VERTEX
  5
515
  8
0
 10
0.0002451987594855
 20
0.0004403821226026
 30
0.0
  0
VERTEX
  5
516
  8
0
 10
0.0002467191102075
 20
0.0004380945424565
 30
0.0
  0
VERTEX
  5
517
  8
0
 10
0.0002471288712298
 20
0.0004352394541756
 30
0.0
  0
SEQEND
  5
116A
  8
0
  0
POLYLINE
  5
D2
  8
0
 66
     1
 10
0.0
 20
0.0
 30
0.0
 70
     1
  0
VERTEX
  5
518
  8
0
 10
0.0001914376430824
 20
0.0004436942616447
 30
0.0
  0
VERTEX
  5
519
  8
0
 10
0.0001961021798556
 20
0.0004441374169021
 30
0.0
  0
VERTEX
  5
51A
  8
0
 10
0.0001956756341653
 20
0.0004391995039143
 30
0.0
  0
SEQEND
  5
116B
  8
0
  0
POLYLINE
  5
D3
  8
0
 66
     1
 10
0.0
 20
0.0
 30
0.0
 70
     1
  0
VERTEX
  5
51B
  8
0
 10
0.0001315623048876
 20
0.0004390465783291
 30
0.0
  0
VERTEX
  5
51C
  8
0
 10
0.0001274827800813
 20
0.0004458942288258
 30
0.0
  0
VERTEX
  5
51D
  8
0
 10
0.0001324660504451
 20
0.0004463834356089
 30
0.0
  0
SEQEND
  5
116C
  8
0
  0
POLYLINE
  5
D4
  8
0
 66
     1
 10
0.0
 20
0.0
 30
0.0
 70
     1
  0
VERTEX
  5
51E
  8
0
 10
0.0000965556410492
 20
0.0004509993631332
 30
0.0
  0
VERTEX
  5
51F
  8
0
 10
0.0000999744602891
 20
0.0004493157746362
 30
0.0
  0
VERTEX
  5
520
  8
0
 10
0.0001003586065574
 20
0.0004461708006312
 30
0.0
  0
VERTEX
  5
521
  8
0
 10
0.0000974742451652
 20
0.0004475074517922
 30
0.0
  0
VERTEX
  5
522
  8
0
 10
0.0000964150350602
 20
0.0004508763516536
 30
0.0
  0
SEQEND
  5
116D
  8
0
  0
POLYLINE
  5
D5
  8
0
 66
     1
 10
0.0
 20
0.0
 30
0.0
 70
     1
  0
VERTEX
  5
523
  8
0
 10
0.0002998479874408
 20
0.0004238247355477
 30
0.0
  0
VERTEX
  5
524
  8
0
 10
0.0003100582060267
 20
0.0004257169629707
 30
0.0
  0
VERTEX
  5
525
  8
0
 10
0.0003105404588043
 20
0.0004273271529401
 30
0.0
  0
VERTEX
  5
526
  8
0
 10
0.0003106276090028
 20
0.0004374121681589
 30
0.0
  0
VERTEX
  5
527
  8
0
 10
0.0003180825030217
 20
0.000432198352501
 30
0.0
  0
VERTEX
  5
528
  8
0
 10
0.0003194632233166
 20
0.0004289345975782
 30
0.0
  0
VERTEX
  5
529
  8
0
 10
0.0003103124399654
 20
0.0004214785841645
 30
0.0
  0
VERTEX
  5
52A
  8
0
 10
0.0003110422728492
 20
0.0004129788132965
 30
0.0
  0
VERTEX
  5
52B
  8
0
 10
0.0003095729640273
 20
0.0004072187329902
 30
0.0
  0
VERTEX
  5
52C
  8
0
 10
0.0003031900499688
 20
0.0004058323531854
 30
0.0
  0
VERTEX
  5
52D
  8
0
 10
0.0002887467931529
 20
0.0004112103884337
 30
0.0
  0
VERTEX
  5
52E
  8
0
 10
0.000284577541664
 20
0.0004109703501717
 30
0.0
  0
VERTEX
  5
52F
  8
0
 10
0.0002788242277552
 20
0.0004137409773029
 30
0.0
  0
VERTEX
  5
530
  8
0
 10
0.0002776839709673
 20
0.0004174583935347
 30
0.0
  0
VERTEX
  5
531
  8
0
 10
0.0002799757410268
 20
0.000426736644057
 30
0.0
  0
VERTEX
  5
532
  8
0
 10
0.000282799942767
 20
0.0004437860707768
 30
0.0
  0
VERTEX
  5
533
  8
0
 10
0.0002847242261543
 20
0.0004468725548416
 30
0.0
  0
VERTEX
  5
534
  8
0
 10
0.0002840700743628
 20
0.0004401418216893
 30
0.0
  0
VERTEX
  5
535
  8
0
 10
0.0002849490806705
 20
0.0004384124443179
 30
0.0
  0
VERTEX
  5
536
  8
0
 10
0.0002891136044362
 20
0.000439110258759
 30
0.0
  0
VERTEX
  5
537
  8
0
 10
0.000294491489598
 20
0.0004420103479604
 30
0.0
  0
VERTEX
  5
538
  8
0
 10
0.0002977978815798
 20
0.0004471368445725
 30
0.0
  0
VERTEX
  5
539
  8
0
 10
0.0003042671078541
 20
0.0004531241807781
 30
0.0
  0
VERTEX
  5
53A
  8
0
 10
0.0002976412163406
 20
0.0004407363829066
 30
0.0
  0
VERTEX
  5
53B
  8
0
 10
0.0002951555470951
 20
0.0004335950319884
 30
0.0
  0
VERTEX
  5
53C
  8
0
 10
0.0002958329622863
 20
0.0004329046593338
 30
0.0
  0
VERTEX
  5
53D
  8
0
 10
0.0002895241659196
 20
0.0004341803441282
 30
0.0
  0
VERTEX
  5
53E
  8
0
 10
0.0002843307745261
 20
0.0004322797994145
 30
0.0
  0
VERTEX
  5
53F
  8
0
 10
0.0002828101986744
 20
0.0004284690856934
 30
0.0
  0
VERTEX
  5
540
  8
0
 10
0.0002833076602123
 20
0.0004275797671959
 30
0.0
  0
VERTEX
  5
541
  8
0
 10
0.0002895053050557
 20
0.0004291480830458
 30
0.0
  0
VERTEX
  5
542
  8
0
 10
0.0002920704700908
 20
0.0004288398117316
 30
0.0
  0
VERTEX
  5
543
  8
0
 10
0.0002916420983486
 20
0.0004256266672103
 30
0.0
  0
VERTEX
  5
544
  8
0
 10
0.0002917318250312
 20
0.0004232179735528
 30
0.0
  0
VERTEX
  5
545
  8
0
 10
0.0002940541501905
 20
0.0004147305723097
 30
0.0
  0
VERTEX
  5
546
  8
0
 10
0.0002975165445296
 20
0.0004139579335197
 30
0.0
  0
VERTEX
  5
547
  8
0
 10
0.0002984941826492
 20
0.0004149761887847
 30
0.0
  0
VERTEX
  5
548
  8
0
 10
0.0002999706580991
 20
0.0004176346325483
 30
0.0
  0
VERTEX
  5
549
  8
0
 10
0.0003021445852811
 20
0.0004194544244985
 30
0.0
  0
SEQEND
  5
116E
  8
0
  0
POLYLINE
  5
D6
  8
0
 66
     1
 10
0.0
 20
0.0
 30
0.0
 70
     1
  0
VERTEX
  5
54A
  8
0
 10
0.0002591157006436
 20
0.0004560372868522
 30
0.0
  0
VERTEX
  5
54B
  8
0
 10
0.0002713289854956
 20
0.0004539321367858
 30
0.0
  0
VERTEX
  5
54C
  8
0
 10
0.0002720919499632
 20
0.0004499118242107
 30
0.0
  0
VERTEX
  5
54D
  8
0
 10
0.0002710135287926
 20
0.0004487337018623
 30
0.0
  0
VERTEX
  5
54E
  8
0
 10
0.0002609044559666
 20
0.0004497984745463
 30
0.0
  0
VERTEX
  5
54F
  8
0
 10
0.0002487695412558
 20
0.0004545528505669
 30
0.0
  0
VERTEX
  5
550
  8
0
 10
0.0002471311725554
 20
0.0004591322664355
 30
0.0
  0
VERTEX
  5
551
  8
0
 10
0.0002538849627385
 20
0.0004649195467839
 30
0.0
  0
VERTEX
  5
552
  8
0
 10
0.0002641368428215
 20
0.0004650084104694
 30
0.0
  0
VERTEX
  5
553
  8
0
 10
0.0002675234685179
 20
0.0004629895882528
 30
0.0
  0
VERTEX
  5
554
  8
0
 10
0.0002652328241067
 20
0.0004614598852689
 30
0.0
  0
VERTEX
  5
555
  8
0
 10
0.0002593152155642
 20
0.0004595615043015
 30
0.0
  0
VERTEX
  5
556
  8
0
 10
0.0002579409990154
 20
0.0004567318056451
 30
0.0
  0
VERTEX
  5
557
  8
0
 10
0.0002583208428055
 20
0.0004561708043833
 30
0.0
  0
SEQEND
  5
116F
  8
0
  0
POLYLINE
  5
D7
  8
0
 66
     1
 10
0.0
 20
0.0
 30
0.0
 70
     1
  0
VERTEX
  5
558
  8
0
 10
0.0001489670300093
 20
0.0004516713501977
 30
0.0
  0
VERTEX
  5
559
  8
0
 10
0.00014250203117
 20
0.0004473470281382
 30
0.0
  0
VERTEX
  5
55A
  8
0
 10
0.0001477052782403
 20
0.0004496209785587
 30
0.0
  0
SEQEND
  5
1170
  8
0
  0
POLYLINE
  5
D8
  8
0
 66
     1
 10
0.0
 20
0.0
 30
0.0
 70
     1
  0
VERTEX
  5
55B
  8
0
 10
0.0002236736109999
 20
0.0004486303329468
 30
0.0
  0
VERTEX
  5
55C
  8
0
 10
0.0002278529683097
 20
0.0004525472171971
 30
0.0
  0
VERTEX
  5
55D
  8
0
 10
0.0002298934686379
 20
0.0004554148814717
 30
0.0
  0
VERTEX
  5
55E
  8
0
 10
0.0002347459386607
 20
0.0004542397358378
 30
0.0
  0
VERTEX
  5
55F
  8
0
 10
0.0002424374439677
 20
0.000449483289875
 30
0.0
  0
VERTEX
  5
560
  8
0
 10
0.0002427604049933
 20
0.0004486303329468
 30
0.0
  0
VERTEX
  5
561
  8
0
 10
0.0002347078917456
 20
0.0004499988806052
 30
0.0
  0
VERTEX
  5
562
  8
0
 10
0.0002311054417344
 20
0.0004480430071471
 30
0.0
  0
VERTEX
  5
563
  8
0
 10
0.0002292797401303
 20
0.0004465493186575
 30
0.0
  0
SEQEND
  5
1171
  8
0
  0
POLYLINE
  5
D9
  8
0
 66
     1
 10
0.0
 20
0.0
 30
0.0
 70
     1
  0
VERTEX
  5
564
  8
0
 10
0.000191857284796
 20
0.0004553739078709
 30
0.0
  0
VERTEX
  5
565
  8
0
 10
0.0001867462408347
 20
0.0004422905406014
 30
0.0
  0
VERTEX
  5
566
  8
0
 10
0.0001837190972
 20
0.0004415971036817
 30
0.0
  0
VERTEX
  5
567
  8
0
 10
0.0001831125478275
 20
0.000444586756972
 30
0.0
  0
VERTEX
  5
568
  8
0
 10
0.0001833777005555
 20
0.0004463834356089
 30
0.0
  0
VERTEX
  5
569
  8
0
 10
0.0001756051985944
 20
0.0004424892550609
 30
0.0
  0
VERTEX
  5
56A
  8
0
 10
0.000172700175301
 20
0.0004427993336662
 30
0.0
  0
VERTEX
  5
56B
  8
0
 10
0.0001702567929127
 20
0.0004465503379947
 30
0.0
  0
VERTEX
  5
56C
  8
0
 10
0.0001677480228612
 20
0.0004510262411149
 30
0.0
  0
VERTEX
  5
56D
  8
0
 10
0.0001683972468142
 20
0.0004530830914857
 30
0.0
  0
VERTEX
  5
56E
  8
0
 10
0.0001741864313845
 20
0.0004575969602241
 30
0.0
  0
VERTEX
  5
56F
  8
0
 10
0.0001770085069
 20
0.0004576143546183
 30
0.0
  0
VERTEX
  5
570
  8
0
 10
0.0001770085069
 20
0.0004643459069924
 30
0.0
  0
VERTEX
  5
571
  8
0
 10
0.0001870211741963
 20
0.000456377279563
 30
0.0
  0
SEQEND
  5
1172
  8
0
  0
POLYLINE
  5
DA
  8
0
 66
     1
 10
0.0
 20
0.0
 30
0.0
 70
     1
  0
VERTEX
  5
572
  8
0
 10
0.0000624882432281
 20
0.0004530758248001
 30
0.0
  0
VERTEX
  5
573
  8
0
 10
0.000065059524286
 20
0.0004541027475576
 30
0.0
  0
VERTEX
  5
574
  8
0
 10
0.0000688262939453
 20
0.0004528656412344
 30
0.0
  0
VERTEX
  5
575
  8
0
 10
0.0000652143634734
 20
0.0004513060554129
 30
0.0
  0
VERTEX
  5
576
  8
0
 10
0.0000627449410861
 20
0.000452703147638
 30
0.0
  0
SEQEND
  5
1173
  8
0
  0
POLYLINE
  5
DB
  8
0
 66
     1
 10
0.0
 20
0.0
 30
0.0
 70
     1
  0
VERTEX
  5
577
  8
0
 10
0.0004145545334112
 20
0.0004531241807781
 30
0.0
  0
VERTEX
  5
578
  8
0
 10
0.0004191567280253
 20
0.0004553393848607
 30
0.0
  0
VERTEX
  5
579
  8
0
 10
0.0004272789939505
 20
0.0004508763516536
 30
0.0
  0
SEQEND
  5
1174
  8
0
  0
POLYLINE
  5
DC
  8
0
 66
     1
 10
0.0
 20
0.0
 30
0.0
 70
     1
  0
VERTEX
  5
57A
  8
0
 10
0.0002915426410613
 20
0.0004576143546183
 30
0.0
  0
VERTEX
  5
57B
  8
0
 10
0.000298288013896
 20
0.0004538418441522
 30
0.0
  0
VERTEX
  5
57C
  8
0
 10
0.0002919482872134
 20
0.0004562437932999
 30
0.0
  0
SEQEND
  5
1175
  8
0
  0
POLYLINE
  5
DD
  8
0
 66
     1
 10
0.0
 20
0.0
 30
0.0
 70
     1
  0
VERTEX
  5
57D
  8
0
 10
0.0002050558621766
 20
0.0004493227786705
 30
0.0
  0
VERTEX
  5
57E
  8
0
 10
0.0002037266465484
 20
0.0004521371841431
 30
0.0
  0
VERTEX
  5
57F
  8
0
 10
0.0002042957493516
 20
0.0004580881556527
 30
0.0
  0
VERTEX
  5
580
  8
0
 10
0.0002051548441903
 20
0.0004571116619423
 30
0.0
  0
VERTEX
  5
581
  8
0
 10
0.0002093307745261
 20
0.0004500087143945
 30
0.0
  0
VERTEX
  5
582
  8
0
 10
0.0002094258542921
 20
0.0004480463903458
 30
0.0
  0
VERTEX
  5
583
  8
0
 10
0.0002051723292617
 20
0.0004492750324187
 30
0.0
  0
SEQEND
  5
1176
  8
0
  0
POLYLINE
  5
DE
  8
0
 66
     1
 10
0.0
 20
0.0
 30
0.0
 70
     1
  0
VERTEX
  5
584
  8
0
 10
0.0003040859910308
 20
0.0004574918121588
 30
0.0
  0
VERTEX
  5
585
  8
0
 10
0.0003106276090028
 20
0.0004576143546183
 30
0.0
  0
VERTEX
  5
586
  8
0
 10
0.0003065707347432
 20
0.0004532458195921
 30
0.0
  0
SEQEND
  5
1177
  8
0
  0
POLYLINE
  5
DF
  8
0
 66
     1
 10
0.0
 20
0.0
 30
0.0
 70
     1
  0
VERTEX
  5
587
  8
0
 10
0.0001006548271805
 20
0.0004598529628066
 30
0.0
  0
VERTEX
  5
588
  8
0
 10
0.0000964150350602
 20
0.0004553739078709
 30
0.0
  0
SEQEND
  5
1178
  8
0
  0
POLYLINE
  5
E0
  8
0
 66
     1
 10
0.0
 20
0.0
 30
0.0
 70
     1
  0
VERTEX
  5
589
  8
0
 10
0.0004479170689817
 20
0.0004764404359411
 30
0.0
  0
VERTEX
  5
58A
  8
0
 10
0.0004548521010602
 20
0.00047739486538
 30
0.0
  0
VERTEX
  5
58B
  8
0
 10
0.0004543889717978
 20
0.0004721225644721
 30
0.0
  0
SEQEND
  5
1179
  8
0
  0
POLYLINE
  5
E1
  8
0
 66
     1
 10
0.0
 20
0.0
 30
0.0
 70
     1
  0
VERTEX
  5
58C
  8
0
 10
0.0004654576442281
 20
0.00047739486538
 30
0.0
  0
VERTEX
  5
58D
  8
0
 10
0.000465451265554
 20
0.00047739486538
 30
0.0
  0
VERTEX
  5
58E
  8
0
 10
0.0004646570049348
 20
0.0004773947778295
 30
0.0
  0
VERTEX
  5
58F
  8
0
 10
0.0004638627130477
 20
0.0004773947199837
 30
0.0
  0
VERTEX
  5
590
  8
0
 10
0.0004630684524286
 20
0.0004773946605745
 30
0.0
  0
VERTEX
  5
591
  8
0
 10
0.0004622741886827
 20
0.0004773945730241
 30
0.0
  0
VERTEX
  5
592
  8
0
 10
0.0004614799280636
 20
0.0004773945151782
 30
0.0
  0
VERTEX
  5
593
  8
0
 10
0.0004606856674444
 20
0.0004773944573324
 30
0.0
  0
VERTEX
  5
594
  8
0
 10
0.0004598914036985
 20
0.0004773943979232
 30
0.0
  0
VERTEX
  5
595
  8
0
 10
0.0004590971118114
 20
0.0004773943103728
 30
0.0
  0
VERTEX
  5
596
  8
0
 10
0.000458927060737
 20
0.0004774119674182
 30
0.0
  0
VERTEX
  5
597
  8
0
 10
0.0004588023388972
 20
0.0004774632141238
 30
0.0
  0
VERTEX
  5
598
  8
0
 10
0.0004587562342159
 20
0.0004775005700158
 30
0.0
  0
VERTEX
  5
599
  8
0
 10
0.0004587205324017
 20
0.0004775453661309
 30
0.0
  0
VERTEX
  5
59A
  8
0
 10
0.0004586791366827
 20
0.0004776557984899
 30
0.0
  0
VERTEX
  5
59B
  8
0
 10
0.0004586757097088
 20
0.0004777919128293
 30
0.0
  0
VERTEX
  5
59C
  8
0
 10
0.0004587077156442
 20
0.0004779510513681
 30
0.0
  0
VERTEX
  5
59D
  8
0
 10
0.0004587727749934
 20
0.0004781305907203
 30
0.0
  0
VERTEX
  5
59E
  8
0
 10
0.0004588683519207
 20
0.0004783279028095
 30
0.0
  0
VERTEX
  5
59F
  8
0
 10
0.0004589919699997
 20
0.0004785403032772
 30
0.0
  0
VERTEX
  5
5A0
  8
0
 10
0.0004591411903256
 20
0.0004787652234562
 30
0.0
  0
VERTEX
  5
5A1
  8
0
 10
0.000459506506998
 20
0.0004792419715006
 30
0.0
  0
VERTEX
  5
5A2
  8
0
 10
0.0004599445124142
 20
0.0004797370754304
 30
0.0
  0
VERTEX
  5
5A3
  8
0
 10
0.0004604354170502
 20
0.0004802294371558
 30
0.0
  0
VERTEX
  5
5A4
  8
0
 10
0.0004609594595237
 20
0.0004806980430103
 30
0.0
  0
VERTEX
  5
5A5
  8
0
 10
0.0004614968847056
 20
0.0004811217636359
 30
0.0
  0
VERTEX
  5
5A6
  8
0
 10
0.0004617643919147
 20
0.0004813102034272
 30
0.0
  0
VERTEX
  5
5A7
  8
0
 10
0.000462027843663
 20
0.0004814795290838
 30
0.0
  0
VERTEX
  5
5A8
  8
0
 10
0.0004622847385094
 20
0.0004816270828247
 30
0.0
  0
VERTEX
  5
5A9
  8
0
 10
0.0004625326344224
 20
0.0004817502678418
 30
0.0
  0
VERTEX
  5
5AA
  8
0
 10
0.0004627690268345
 20
0.0004818464279175
 30
0.0
  0
VERTEX
  5
5AB
  8
0
 10
0.0004629914424458
 20
0.0004819129381023
 30
0.0
  0
VERTEX
  5
5AC
  8
0
 10
0.0004631974048302
 20
0.0004819471421789
 30
0.0
  0
VERTEX
  5
5AD
  8
0
 10
0.0004633844750826
 20
0.0004819464417755
 30
0.0
  0
VERTEX
  5
5AE
  8
0
 10
0.0004635501767768
 20
0.0004819081525334
 30
0.0
  0
VERTEX
  5
5AF
  8
0
 10
0.0004636920053451
 20
0.0004818297057855
 30
0.0
  0
VERTEX
  5
5B0
  8
0
 10
0.0004637531905878
 20
0.0004817745490152
 30
0.0
  0
VERTEX
  5
5B1
  8
0
 10
0.0004638075187558
 20
0.0004817083890321
 30
0.0
  0
VERTEX
  5
5B2
  8
0
 10
0.0004638942155682
 20
0.0004815416320426
 30
0.0
  0
VERTEX
  5
5B3
  8
0
 10
0.0004641536743914
 20
0.0004808506152669
 30
0.0
  0
VERTEX
  5
5B4
  8
0
 10
0.0004644131613559
 20
0.0004801596000546
 30
0.0
  0
VERTEX
  5
5B5
  8
0
 10
0.0004646726201792
 20
0.0004794685551378
 30
0.0
  0
VERTEX
  5
5B6
  8
0
 10
0.0004649320790025
 20
0.0004787775399255
 30
0.0
  0
VERTEX
  5
5B7
  8
0
 10
0.0004651915378258
 20
0.0004780865231498
 30
0.0
  0
VERTEX
  5
5B8
  8
0
 10
0.0004654510279171
 20
0.000477395478233
 30
0.0
  0
VERTEX
  5
5B9
  8
0
 10
0.000465451265554
 20
0.00047739486538
 30
0.0
  0
SEQEND
  5
117A
  8
0
  0
POLYLINE
  5
E2
  8
0
 66
     1
 10
0.0
 20
0.0
 30
0.0
 70
     1
  0
VERTEX
  5
5BA
  8
0
 10
0.0004357723548764
 20
0.0004841263896129
 30
0.0
  0
VERTEX
  5
5BB
  8
0
 10
0.000440437041736
 20
0.0004800922722113
 30
0.0
  0
VERTEX
  5
5BC
  8
0
 10
0.0004357800718214
 20
0.0004839272968105
 30
0.0
  0
SEQEND
  5
117B
  8
0
  0
POLYLINE
  5
E3
  8
0
 66
     1
 10
0.0
 20
0.0
 30
0.0
 70
     1
  0
VERTEX
  5
5BD
  8
0
 10
0.0002320869320729
 20
0.0004765202240866
 30
0.0
  0
VERTEX
  5
5BE
  8
0
 10
0.0002215511134413
 20
0.0004688389418555
 30
0.0
  0
VERTEX
  5
5BF
  8
0
 10
0.0002201157616787
 20
0.0004727277505593
 30
0.0
  0
VERTEX
  5
5C0
  8
0
 10
0.0002228659958136
 20
0.00047932572912
 30
0.0
  0
VERTEX
  5
5C1
  8
0
 10
0.0002236736109999
 20
0.000480056901838
 30
0.0
  0
VERTEX
  5
5C2
  8
0
 10
0.000228106439309
 20
0.000476646853275
 30
0.0
  0
SEQEND
  5
117C
  8
0
  0
POLYLINE
  5
E4
  8
0
 66
     1
 10
0.0
 20
0.0
 30
0.0
 70
     1
  0
VERTEX
  5
5C3
  8
0
 10
0.0002088249831903
 20
0.0004845433391509
 30
0.0
  0
VERTEX
  5
5C4
  8
0
 10
0.0002134929719518
 20
0.0004805083181037
 30
0.0
  0
VERTEX
  5
5C5
  8
0
 10
0.0002088327126425
 20
0.000484344158798
 30
0.0
  0
SEQEND
  5
117D
  8
0
  0
POLYLINE
  5
E5
  8
0
 66
     1
 10
0.0
 20
0.0
 30
0.0
 70
     1
  0
VERTEX
  5
5C6
  8
0
 10
0.0001133566434266
 20
0.0004822890594357
 30
0.0
  0
VERTEX
  5
5C7
  8
0
 10
0.0001221494330735
 20
0.0004753531330922
 30
0.0
  0
VERTEX
  5
5C8
  8
0
 10
0.0001256090257989
 20
0.0004697226571255
 30
0.0
  0
VERTEX
  5
5C9
  8
0
 10
0.0001236714347464
 20
0.0004680852671139
 30
0.0
  0
VERTEX
  5
5CA
  8
0
 10
0.0001091395143603
 20
0.0004620990127814
 30
0.0
  0
VERTEX
  5
5CB
  8
0
 10
0.0001058684552302
 20
0.000469633149319
 30
0.0
  0
VERTEX
  5
5CC
  8
0
 10
0.000106232665015
 20
0.0004718210376677
 30
0.0
  0
VERTEX
  5
5CD
  8
0
 10
0.0001086307713243
 20
0.0004723647039445
 30
0.0
  0
VERTEX
  5
5CE
  8
0
 10
0.0001112562335905
 20
0.0004753768592584
 30
0.0
  0
VERTEX
  5
5CF
  8
0
 10
0.0001112638129563
 20
0.0004755639560887
 30
0.0
  0
VERTEX
  5
5D0
  8
0
 10
0.000116625576332
 20
0.0004730681810223
 30
0.0
  0
VERTEX
  5
5D1
  8
0
 10
0.0001182727751185
 20
0.000473596116363
 30
0.0
  0
VERTEX
  5
5D2
  8
0
 10
0.0001183538718302
 20
0.0004738071457284
 30
0.0
  0
SEQEND
  5
117E
  8
0
  0
POLYLINE
  5
E6
  8
0
 66
     1
 10
0.0
 20
0.0
 30
0.0
 70
     1
  0
VERTEX
  5
5D3
  8
0
 10
0.0003763811205254
 20
0.0004823047606671
 30
0.0
  0
VERTEX
  5
5D4
  8
0
 10
0.0003717164711874
 20
0.0004827478893468
 30
0.0
  0
VERTEX
  5
5D5
  8
0
 10
0.0003759562382933
 20
0.0004872334511554
 30
0.0
  0
SEQEND
  5
117F
  8
0
  0
POLYLINE
  5
E7
  8
0
 66
     1
 10
0.0
 20
0.0
 30
0.0
 70
     1
  0
VERTEX
  5
5D6
  8
0
 10
0.0001880719294314
 20
0.0004827782693456
 30
0.0
  0
VERTEX
  5
5D7
  8
0
 10
0.0001815359397013
 20
0.0004870301270094
 30
0.0
  0
VERTEX
  5
5D8
  8
0
 10
0.0001812553530834
 20
0.0004890363427459
 30
0.0
  0
SEQEND
  5
1180
  8
0
  0
POLYLINE
  5
E8
  8
0
 66
     1
 10
0.0
 20
0.0
 30
0.0
 70
     1
  0
VERTEX
  5
5D9
  8
0
 10
0.0001770085069
 20
0.0004733253197592
 30
0.0
  0
VERTEX
  5
5DA
  8
0
 10
0.0001620885129835
 20
0.0004821822182077
 30
0.0
  0
VERTEX
  5
5DB
  8
0
 10
0.0001556486786389
 20
0.0004744855255377
 30
0.0
  0
VERTEX
  5
5DC
  8
0
 10
0.0001455981395284
 20
0.0004738134790639
 30
0.0
  0
VERTEX
  5
5DD
  8
0
 10
0.000144140499928
 20
0.0004738965941257
 30
0.0
  0
VERTEX
  5
5DE
  8
0
 10
0.0001401344424388
 20
0.0004691647201288
 30
0.0
  0
VERTEX
  5
5DF
  8
0
 10
0.0001345884229316
 20
0.0004665928324715
 30
0.0
  0
VERTEX
  5
5E0
  8
0
 10
0.0001345884229316
 20
0.0004710774593666
 30
0.0
  0
VERTEX
  5
5E1
  8
0
 10
0.000130456743084
 20
0.0004686398771943
 30
0.0
  0
VERTEX
  5
5E2
  8
0
 10
0.0001323510592101
 20
0.0004756183264685
 30
0.0
  0
VERTEX
  5
5E3
  8
0
 10
0.0001260952808818
 20
0.0004777839738815
 30
0.0
  0
VERTEX
  5
5E4
  8
0
 10
0.0001239718327757
 20
0.0004868752776599
 30
0.0
  0
VERTEX
  5
5E5
  8
0
 10
0.0001239882922563
 20
0.0004890363427459
 30
0.0
  0
VERTEX
  5
5E6
  8
0
 10
0.0001464683907931
 20
0.0004895207373822
 30
0.0
  0
VERTEX
  5
5E7
  8
0
 10
0.0001529264606413
 20
0.0004917087687821
 30
0.0
  0
VERTEX
  5
5E8
  8
0
 10
0.0001535264312244
 20
0.0004916969205512
 30
0.0
  0
VERTEX
  5
5E9
  8
0
 10
0.0001554677744381
 20
0.0004852290137869
 30
0.0
  0
VERTEX
  5
5EA
  8
0
 10
0.0001574280535589
 20
0.0004832218357774
 30
0.0
  0
VERTEX
  5
5EB
  8
0
 10
0.0001621281358062
 20
0.0004844561670647
 30
0.0
  0
VERTEX
  5
5EC
  8
0
 10
0.0001667812159804
 20
0.0004846890840374
 30
0.0
  0
VERTEX
  5
5ED
  8
0
 10
0.0001738120657499
 20
0.0004774096332613
 30
0.0
  0
SEQEND
  5
1181
  8
0
  0
POLYLINE
  5
E9
  8
0
 66
     1
 10
0.0
 20
0.0
 30
0.0
 70
     1
  0
VERTEX
  5
5EE
  8
0
 10
0.0001065958241947
 20
0.0004857796559568
 30
0.0
  0
VERTEX
  5
5EF
  8
0
 10
0.0001078297849561
 20
0.0004881655255302
 30
0.0
  0
VERTEX
  5
5F0
  8
0
 10
0.0001138572567799
 20
0.0004899910356178
 30
0.0
  0
VERTEX
  5
5F1
  8
0
 10
0.0001172331763096
 20
0.0004864050958977
 30
0.0
  0
VERTEX
  5
5F2
  8
0
 10
0.0001177260602107
 20
0.000484054859349
 30
0.0
  0
VERTEX
  5
5F3
  8
0
 10
0.0001115041513912
 20
0.0004849818855036
 30
0.0
  0
SEQEND
  5
1182
  8
0
  0
POLYLINE
  5
EA
  8
0
 66
     1
 10
0.0
 20
0.0
 30
0.0
 70
     1
  0
VERTEX
  5
5F4
  8
0
 10
0.000073074691022
 20
0.0004935228386863
 30
0.0
  0
VERTEX
  5
5F5
  8
0
 10
0.0000876483604556
 20
0.000486246773454
 30
0.0
  0
VERTEX
  5
5F6
  8
0
 10
0.0000852963557009
 20
0.0004923996972256
 30
0.0
  0
VERTEX
  5
5F7
  8
0
 10
0.0000857886642706
 20
0.0004939551103311
 30
0.0
  0
VERTEX
  5
5F8
  8
0
 10
0.0000886545650295
 20
0.0004938089284741
 30
0.0
  0
VERTEX
  5
5F9
  8
0
 10
0.0000924437976274
 20
0.0004934028054847
 30
0.0
  0
VERTEX
  5
5FA
  8
0
 10
0.0000937115778689
 20
0.0004904073144569
 30
0.0
  0
VERTEX
  5
5FB
  8
0
 10
0.0000942926625736
 20
0.0004823047606671
 30
0.0
  0
VERTEX
  5
5FC
  8
0
 10
0.0001027351504467
 20
0.0004850578808394
 30
0.0
  0
VERTEX
  5
5FD
  8
0
 10
0.0001045271576428
 20
0.0004754654321514
 30
0.0
  0
VERTEX
  5
5FE
  8
0
 10
0.000094409329774
 20
0.0004782696817742
 30
0.0
  0
VERTEX
  5
5FF
  8
0
 10
0.0000976788880395
 20
0.0004682250570078
 30
0.0
  0
VERTEX
  5
600
  8
0
 10
0.0000966884175285
 20
0.0004655883226238
 30
0.0
  0
VERTEX
  5
601
  8
0
 10
0.0000909080630443
 20
0.0004673578293597
 30
0.0
  0
VERTEX
  5
602
  8
0
 10
0.0000854229786357
 20
0.0004717375114316
 30
0.0
  0
VERTEX
  5
603
  8
0
 10
0.0000858090510134
 20
0.0004755630227386
 30
0.0
  0
VERTEX
  5
604
  8
0
 10
0.0000858145291688
 20
0.0004755639279475
 30
0.0
  0
VERTEX
  5
605
  8
0
 10
0.0000815703094983
 20
0.0004764079828731
 30
0.0
  0
VERTEX
  5
606
  8
0
 10
0.0000810230692879
 20
0.0004755395873648
 30
0.0
  0
VERTEX
  5
607
  8
0
 10
0.0000816059050013
 20
0.000467652411539
 30
0.0
  0
VERTEX
  5
608
  8
0
 10
0.0000834548199763
 20
0.0004659212237499
 30
0.0
  0
VERTEX
  5
609
  8
0
 10
0.0000849227154841
 20
0.0004658114917943
 30
0.0
  0
VERTEX
  5
60A
  8
0
 10
0.000087800072842
 20
0.0004630197931509
 30
0.0
  0
VERTEX
  5
60B
  8
0
 10
0.00008798595491
 20
0.0004617485421603
 30
0.0
  0
VERTEX
  5
60C
  8
0
 10
0.0000833922089123
 20
0.000463156578189
 30
0.0
  0
VERTEX
  5
60D
  8
0
 10
0.0000801513171587
 20
0.0004646992386365
 30
0.0
  0
VERTEX
  5
60E
  8
0
 10
0.0000765670025935
 20
0.000470272802134
 30
0.0
  0
VERTEX
  5
60F
  8
0
 10
0.0000730833960361
 20
0.0004778109112724
 30
0.0
  0
VERTEX
  5
610
  8
0
 10
0.0000765690037462
 20
0.0004771634961738
 30
0.0
  0
VERTEX
  5
611
  8
0
 10
0.0000774246966253
 20
0.0004777027552245
 30
0.0
  0
VERTEX
  5
612
  8
0
 10
0.0000742906914383
 20
0.0004889333529551
 30
0.0
  0
SEQEND
  5
1183
  8
0
  0
POLYLINE
  5
EB
  8
0
 66
     1
 10
0.0
 20
0.0
 30
0.0
 70
     1
  0
VERTEX
  5
613
  8
0
 10
0.0003269430316863
 20
0.0004943763213079
 30
0.0
  0
VERTEX
  5
614
  8
0
 10
0.0003281742033411
 20
0.0004986632868892
 30
0.0
  0
VERTEX
  5
615
  8
0
 10
0.000330949126697
 20
0.000500277301205
 30
0.0
  0
VERTEX
  5
616
  8
0
 10
0.0003391597184979
 20
0.0004956955784657
 30
0.0
  0
VERTEX
  5
617
  8
0
 10
0.0003418070308498
 20
0.0004913198353814
 30
0.0
  0
VERTEX
  5
618
  8
0
 10
0.0003365234750216
 20
0.0004899810251642
 30
0.0
  0
VERTEX
  5
619
  8
0
 10
0.0003275487931048
 20
0.0004941341826173
 30
0.0
  0
SEQEND
  5
1184
  8
0
  0
POLYLINE
  5
EC
  8
0
 66
     1
 10
0.0
 20
0.0
 30
0.0
 70
     1
  0
VERTEX
  5
61A
  8
0
 10
0.0001048946193007
 20
0.0005025012876167
 30
0.0
  0
VERTEX
  5
61B
  8
0
 10
0.0001153938668673
 20
0.0004997974598994
 30
0.0
  0
VERTEX
  5
61C
  8
0
 10
0.0001101768118436
 20
0.0004984340767391
 30
0.0
  0
SEQEND
  5
1185
  8
0
  0
POLYLINE
  5
ED
  8
0
 66
     1
 10
0.0
 20
0.0
 30
0.0
 70
     1
  0
VERTEX
  5
61D
  8
0
 10
0.000091750498287
 20
0.0004998121685669
 30
0.0
  0
VERTEX
  5
61E
  8
0
 10
0.0000964150350602
 20
0.000500254362675
 30
0.0
  0
VERTEX
  5
61F
  8
0
 10
0.0000959902904073
 20
0.0004953182892721
 30
0.0
  0
SEQEND
  5
1186
  8
0
  0
POLYLINE
  5
EE
  8
0
 66
     1
 10
0.0
 20
0.0
 30
0.0
 70
     1
  0
VERTEX
  5
620
  8
0
 10
0.0002299279885214
 20
0.0005021650310423
 30
0.0
  0
VERTEX
  5
621
  8
0
 10
0.000225347925405
 20
0.0004990981558307
 30
0.0
  0
VERTEX
  5
622
  8
0
 10
0.0002191906538166
 20
0.0005009098325596
 30
0.0
  0
VERTEX
  5
623
  8
0
 10
0.0002190525742828
 20
0.0005009812162548
 30
0.0
  0
VERTEX
  5
624
  8
0
 10
0.000225319008749
 20
0.0005046118658097
 30
0.0
  0
VERTEX
  5
625
  8
0
 10
0.0002266831695056
 20
0.0005050246422408
 30
0.0
  0
SEQEND
  5
1187
  8
0
  0
POLYLINE
  5
EF
  8
0
 66
     1
 10
0.0
 20
0.0
 30
0.0
 70
     1
  0
VERTEX
  5
626
  8
0
 10
0.000137774833304
 20
0.0004968853467801
 30
0.0
  0
VERTEX
  5
627
  8
0
 10
0.0001314108676598
 20
0.0005036261511631
 30
0.0
  0
VERTEX
  5
628
  8
0
 10
0.0001377304577437
 20
0.0004971790532597
 30
0.0
  0
SEQEND
  5
1188
  8
0
  0
POLYLINE
  5
F0
  8
0
 66
     1
 10
0.0
 20
0.0
 30
0.0
 70
     1
  0
VERTEX
  5
629
  8
0
 10
0.0000879321739322
 20
0.0005025012876167
 30
0.0
  0
VERTEX
  5
62A
  8
0
 10
0.0000836923818119
 20
0.0004980157551218
 30
0.0
  0
SEQEND
  5
1189
  8
0
  0
POLYLINE
  5
F1
  8
0
 66
     1
 10
0.0
 20
0.0
 30
0.0
 70
     1
  0
VERTEX
  5
62B
  8
0
 10
0.0001427581036677
 20
0.0005082259389221
 30
0.0
  0
VERTEX
  5
62C
  8
0
 10
0.0001502930187788
 20
0.0005066346004361
 30
0.0
  0
VERTEX
  5
62D
  8
0
 10
0.0001561744815013
 20
0.0005008964663646
 30
0.0
  0
VERTEX
  5
62E
  8
0
 10
0.000152847590212
 20
0.0004952807297472
 30
0.0
  0
VERTEX
  5
62F
  8
0
 10
0.0001432038604236
 20
0.0004931330884089
 30
0.0
  0
VERTEX
  5
630
  8
0
 10
0.0001452316534324
 20
0.0004996729906709
 30
0.0
  0
VERTEX
  5
631
  8
0
 10
0.0001446656274014
 20
0.0005070290495138
 30
0.0
  0
SEQEND
  5
118A
  8
0
  0
POLYLINE
  5
F2
  8
0
 66
     1
 10
0.0
 20
0.0
 30
0.0
 70
     1
  0
VERTEX
  5
632
  8
0
 10
0.0000976287091365
 20
0.0005063834436604
 30
0.0
  0
VERTEX
  5
633
  8
0
 10
0.0000935473832928
 20
0.0005132236777759
 30
0.0
  0
VERTEX
  5
634
  8
0
 10
0.0001006548271805
 20
0.0005137276242991
 30
0.0
  0
SEQEND
  5
118B
  8
0
  0
POLYLINE
  5
F3
  8
0
 66
     1
 10
0.0
 20
0.0
 30
0.0
 70
     1
  0
VERTEX
  5
635
  8
0
 10
0.0001929175705206
 20
0.0005260686686782
 30
0.0
  0
VERTEX
  5
636
  8
0
 10
0.0001875537059346
 20
0.0005243627548218
 30
0.0
  0
VERTEX
  5
637
  8
0
 10
0.0001848515745069
 20
0.0005261084181363
 30
0.0
  0
VERTEX
  5
638
  8
0
 10
0.0001854757340228
 20
0.0005312489243804
 30
0.0
  0
VERTEX
  5
639
  8
0
 10
0.0001854933191518
 20
0.0005316782185289
 30
0.0
  0
SEQEND
  5
118C
  8
0
  0
POLYLINE
  5
F4
  8
0
 66
     1
 10
0.0
 20
0.0
 30
0.0
 70
     1
  0
VERTEX
  5
63A
  8
0
 10
0.0001494372258421
 20
0.0005316781591197
 30
0.0
  0
VERTEX
  5
63B
  8
0
 10
0.0001622922803535
 20
0.0005275297884081
 30
0.0
  0
VERTEX
  5
63C
  8
0
 10
0.0001595062506003
 20
0.0005213677890965
 30
0.0
  0
VERTEX
  5
63D
  8
0
 10
0.0001578132254178
 20
0.0005206043384114
 30
0.0
  0
VERTEX
  5
63E
  8
0
 10
0.0001576101834657
 20
0.0005207281941273
 30
0.0
  0
VERTEX
  5
63F
  8
0
 10
0.0001615748921379
 20
0.0005213106468076
 30
0.0
  0
VERTEX
  5
640
  8
0
 10
0.0001627494186652
 20
0.0005204527573507
 30
0.0
  0
VERTEX
  5
641
  8
0
 10
0.0001557558903929
 20
0.000513841908877
 30
0.0
  0
VERTEX
  5
642
  8
0
 10
0.0001502589491547
 20
0.0005233712618468
 30
0.0
  0
VERTEX
  5
643
  8
0
 10
0.0001496694095799
 20
0.0005233712618468
 30
0.0
  0
VERTEX
  5
644
  8
0
 10
0.0001516218341765
 20
0.000525363995599
 30
0.0
  0
VERTEX
  5
645
  8
0
 10
0.0001521131421699
 20
0.0005250316494801
 30
0.0
  0
VERTEX
  5
646
  8
0
 10
0.0001520427266105
 20
0.0005249368605067
 30
0.0
  0
VERTEX
  5
647
  8
0
 10
0.0001516109170503
 20
0.000525352032533
 30
0.0
  0
VERTEX
  5
648
  8
0
 10
0.0001507181136335
 20
0.0005290301901395
 30
0.0
  0
SEQEND
  5
118D
  8
0
  0
POLYLINE
  5
F5
  8
0
 66
     1
 10
0.0
 20
0.0
 30
0.0
 70
     1
  0
VERTEX
  5
649
  8
0
 10
0.0002554848342645
 20
0.0005675875179103
 30
0.0
  0
VERTEX
  5
64A
  8
0
 10
0.0002601580760518
 20
0.0005635515619497
 30
0.0
  0
VERTEX
  5
64B
  8
0
 10
0.0002554925887311
 20
0.0005673881968514
 30
0.0
  0
SEQEND
  5
118E
  8
0
  0
POLYLINE
  5
F6
  8
0
 66
     1
 10
0.0
 20
0.0
 30
0.0
 70
     1
  0
VERTEX
  5
64C
  8
0
 10
0.000138820685715
 20
0.0005468705849569
 30
0.0
  0
VERTEX
  5
64D
  8
0
 10
0.0001347429619461
 20
0.0005537090113906
 30
0.0
  0
VERTEX
  5
64E
  8
0
 10
0.0001397244562868
 20
0.0005542056036777
 30
0.0
  0
SEQEND
  5
118F
  8
0
  0
POLYLINE
  5
F7
  8
0
 66
     1
 10
0.0
 20
0.0
 30
0.0
 70
     1
  0
VERTEX
  5
64F
  8
0
 10
0.0002635430007684
 20
0.0005761155738205
 30
0.0
  0
VERTEX
  5
650
  8
0
 10
0.0002682162175413
 20
0.0005765669338039
 30
0.0
  0
VERTEX
  5
651
  8
0
 10
0.0002677826177878
 20
0.0005716309469254
 30
0.0
  0
SEQEND
  5
1190
  8
0
  0
POLYLINE
  5
F8
  8
0
 66
     1
 10
0.0
 20
0.0
 30
0.0
 70
     1
  0
VERTEX
  5
652
  8
0
 10
0.0002531812073754
 20
0.0005929258377826
 30
0.0
  0
VERTEX
  5
653
  8
0
 10
0.0002597245013128
 20
0.000593041810833
 30
0.0
  0
VERTEX
  5
654
  8
0
 10
0.000255665838523
 20
0.0005886705367292
 30
0.0
  0
SEQEND
  5
1191
  8
0
  0
POLYLINE
  5
F9
  8
0
 66
     1
 10
0.0
 20
0.0
 30
0.0
 70
     1
  0
VERTEX
  5
655
  8
0
 10
0.0002471406280017
 20
0.0006043820240459
 30
0.0
  0
VERTEX
  5
656
  8
0
 10
0.0002505623739274
 20
0.000602702550419
 30
0.0
  0
VERTEX
  5
657
  8
0
 10
0.0002509488465356
 20
0.0005995607344831
 30
0.0
  0
VERTEX
  5
658
  8
0
 10
0.0002480620587458
 20
0.0006008939711774
 30
0.0
  0
VERTEX
  5
659
  8
0
 10
0.0002470000470271
 20
0.000604258984425
 30
0.0
  0
SEQEND
  5
1192
  8
0
  0
POLYLINE
  5
FA
  8
0
 66
     1
 10
0.0
 20
0.0
 30
0.0
 70
     1
  0
VERTEX
  5
65A
  8
0
 10
0.0003170745349321
 20
0.0003872645768963
 30
0.0
  0
VERTEX
  5
65B
  8
0
 10
0.000321776118044
 20
0.000384456359363
 30
0.0
  0
VERTEX
  5
65C
  8
0
 10
0.0003240497026287
 20
0.0003855305030698
 30
0.0
  0
VERTEX
  5
65D
  8
0
 10
0.0003279927363161
 20
0.0003943044568672
 30
0.0
  0
VERTEX
  5
65E
  8
0
 10
0.0003318385389985
 20
0.0004015110391085
 30
0.0
  0
VERTEX
  5
65F
  8
0
 10
0.0002855955530386
 20
0.0003973328074471
 30
0.0
  0
VERTEX
  5
660
  8
0
 10
0.0002845653596472
 20
0.000396838116255
 30
0.0
  0
VERTEX
  5
661
  8
0
 10
0.0002866139646436
 20
0.0003943926826852
 30
0.0
  0
VERTEX
  5
662
  8
0
 10
0.000286477611104
 20
0.0003922821670282
 30
0.0
  0
VERTEX
  5
663
  8
0
 10
0.0002816750948546
 20
0.0003938841772861
 30
0.0
  0
VERTEX
  5
664
  8
0
 10
0.0002809337928647
 20
0.0003947713132764
 30
0.0
  0
VERTEX
  5
665
  8
0
 10
0.0002768027133629
 20
0.0003888283401239
 30
0.0
  0
VERTEX
  5
666
  8
0
 10
0.0002681683649782
 20
0.0003831358487489
 30
0.0
  0
VERTEX
  5
667
  8
0
 10
0.0002676402858046
 20
0.0003808334100442
 30
0.0
  0
VERTEX
  5
668
  8
0
 10
0.0002727383723024
 20
0.0003776057634197
 30
0.0
  0
VERTEX
  5
669
  8
0
 10
0.0002768927402184
 20
0.0003737944055776
 30
0.0
  0
VERTEX
  5
66A
  8
0
 10
0.0002747376488858
 20
0.0003721500709409
 30
0.0
  0
VERTEX
  5
66B
  8
0
 10
0.0002705221957848
 20
0.0003702524529129
 30
0.0
  0
VERTEX
  5
66C
  8
0
 10
0.0002697136050365
 20
0.0003645901664359
 30
0.0
  0
VERTEX
  5
66D
  8
0
 10
0.0002729814373079
 20
0.0003553593369781
 30
0.0
  0
VERTEX
  5
66E
  8
0
 10
0.0002717807457095
 20
0.0003514125011006
 30
0.0
  0
VERTEX
  5
66F
  8
0
 10
0.0002669822567799
 20
0.0003483192193704
 30
0.0
  0
VERTEX
  5
670
  8
0
 10
0.0002640791095671
 20
0.00034296029513
 30
0.0
  0
VERTEX
  5
671
  8
0
 10
0.0002640792596536
 20
0.00034296029513
 30
0.0
  0
VERTEX
  5
672
  8
0
 10
0.0002687465980405
 20
0.0003462326550093
 30
0.0
  0
VERTEX
  5
673
  8
0
 10
0.0002666419107406
 20
0.000341195378538
 30
0.0
  0
VERTEX
  5
674
  8
0
 10
0.0002601580760518
 20
0.0003341716328605
 30
0.0
  0
VERTEX
  5
675
  8
0
 10
0.0002596163890401
 20
0.0003500648873751
 30
0.0
  0
VERTEX
  5
676
  8
0
 10
0.0002557990152328
 20
0.0003488941130091
 30
0.0
  0
VERTEX
  5
677
  8
0
 10
0.00025479973965
 20
0.0003463795396148
 30
0.0
  0
VERTEX
  5
678
  8
0
 10
0.0002527589141345
 20
0.0003333356888568
 30
0.0
  0
VERTEX
  5
679
  8
0
 10
0.0002476606525359
 20
0.0003294153307305
 30
0.0
  0
VERTEX
  5
67A
  8
0
 10
0.0002452219728564
 20
0.0003300922831551
 30
0.0
  0
VERTEX
  5
67B
  8
0
 10
0.0002485083408043
 20
0.0003371809037005
 30
0.0
  0
VERTEX
  5
67C
  8
0
 10
0.0002508201974337
 20
0.0003413535821633
 30
0.0
  0
VERTEX
  5
67D
  8
0
 10
0.000243846555616
 20
0.0003377948948594
 30
0.0
  0
VERTEX
  5
67E
  8
0
 10
0.0002374973484727
 20
0.0003376262227043
 30
0.0
  0
VERTEX
  5
67F
  8
0
 10
0.0002392878548044
 20
0.0003305963234823
 30
0.0
  0
VERTEX
  5
680
  8
0
 10
0.0002481990876745
 20
0.0003244147879178
 30
0.0
  0
VERTEX
  5
681
  8
0
 10
0.0002534960387183
 20
0.0003242504057337
 30
0.0
  0
VERTEX
  5
682
  8
0
 10
0.0002711597129947
 20
0.0003251041224745
 30
0.0
  0
VERTEX
  5
683
  8
0
 10
0.0002726034445841
 20
0.0003251417316374
 30
0.0
  0
VERTEX
  5
684
  8
0
 10
0.0002738409573915
 20
0.0003276303901047
 30
0.0
  0
VERTEX
  5
685
  8
0
 10
0.0002814955414319
 20
0.0003297731868556
 30
0.0
  0
VERTEX
  5
686
  8
0
 10
0.0002920609020796
 20
0.0003339790844526
 30
0.0
  0
VERTEX
  5
687
  8
0
 10
0.0003020756205574
 20
0.0003462545801382
 30
0.0
  0
VERTEX
  5
688
  8
0
 10
0.0003150144233078
 20
0.0003597695147405
 30
0.0
  0
VERTEX
  5
689
  8
0
 10
0.0003174075392426
 20
0.0003623959400615
 30
0.0
  0
VERTEX
  5
68A
  8
0
 10
0.0003160505826356
 20
0.0003674704629867
 30
0.0
  0
VERTEX
  5
68B
  8
0
 10
0.0003133780057313
 20
0.000372107809098
 30
0.0
  0
VERTEX
  5
68C
  8
0
 10
0.000316681208376
 20
0.0003756856074099
 30
0.0
  0
VERTEX
  5
68D
  8
0
 10
0.0003172949493908
 20
0.0003856487211634
 30
0.0
  0
SEQEND
  5
1193
  8
0
  0
POLYLINE
  5
FB
  8
0
 66
     1
 10
0.0
 20
0.0
 30
0.0
 70
     1
  0
VERTEX
  5
68E
  8
0
 10
0.0002375389474337
 20
0.0003659808049436
 30
0.0
  0
VERTEX
  5
68F
  8
0
 10
0.0002407217307169
 20
0.0003677241090868
 30
0.0
  0
VERTEX
  5
690
  8
0
 10
0.0002499628035749
 20
0.0003620302669338
 30
0.0
  0
VERTEX
  5
691
  8
0
 10
0.0002512450671587
 20
0.0003611015569968
 30
0.0
  0
VERTEX
  5
692
  8
0
 10
0.0002507833011815
 20
0.0003681757817503
 30
0.0
  0
VERTEX
  5
693
  8
0
 10
0.000254149164919
 20
0.0003667309495269
 30
0.0
  0
VERTEX
  5
694
  8
0
 10
0.000256843842053
 20
0.0003657266460481
 30
0.0
  0
VERTEX
  5
695
  8
0
 10
0.0002615717403224
 20
0.0003707000732422
 30
0.0
  0
VERTEX
  5
696
  8
0
 10
0.0002620206238794
 20
0.0003748089274422
 30
0.0
  0
VERTEX
  5
697
  8
0
 10
0.0002618409954134
 20
0.0003835390559963
 30
0.0
  0
VERTEX
  5
698
  8
0
 10
0.0002552545516217
 20
0.0003895900913926
 30
0.0
  0
VERTEX
  5
699
  8
0
 10
0.0002448188656666
 20
0.0004035750092053
 30
0.0
  0
VERTEX
  5
69A
  8
0
 10
0.0002445083868308
 20
0.0004038484291952
 30
0.0
  0
VERTEX
  5
69B
  8
0
 10
0.0002432602929287
 20
0.0003977537311491
 30
0.0
  0
VERTEX
  5
69C
  8
0
 10
0.0002390615494525
 20
0.0003950712110175
 30
0.0
  0
VERTEX
  5
69D
  8
0
 10
0.0002330913856381
 20
0.0003946887532219
 30
0.0
  0
VERTEX
  5
69E
  8
0
 10
0.0002321459660765
 20
0.0003948333865306
 30
0.0
  0
VERTEX
  5
69F
  8
0
 10
0.0002304345803183
 20
0.0003968496729116
 30
0.0
  0
VERTEX
  5
6A0
  8
0
 10
0.0002303976340372
 20
0.0003968071234031
 30
0.0
  0
VERTEX
  5
6A1
  8
0
 10
0.0002299017484071
 20
0.0003970524146909
 30
0.0
  0
VERTEX
  5
6A2
  8
0
 10
0.0002292498979412
 20
0.0003938570991891
 30
0.0
  0
VERTEX
  5
6A3
  8
0
 10
0.0002301492909916
 20
0.0003833117125464
 30
0.0
  0
VERTEX
  5
6A4
  8
0
 10
0.0002302152790007
 20
0.0003822338667072
 30
0.0
  0
VERTEX
  5
6A5
  8
0
 10
0.0002263803200644
 20
0.0003796784572914
 30
0.0
  0
VERTEX
  5
6A6
  8
0
 10
0.0002228718992139
 20
0.0003775575481477
 30
0.0
  0
VERTEX
  5
6A7
  8
0
 10
0.000223505564205
 20
0.0003754074847112
 30
0.0
  0
VERTEX
  5
6A8
  8
0
 10
0.0002257909055616
 20
0.0003723195685715
 30
0.0
  0
VERTEX
  5
6A9
  8
0
 10
0.0002297895337715
 20
0.0003715739766105
 30
0.0
  0
VERTEX
  5
6AA
  8
0
 10
0.0002358882716445
 20
0.0003662058470679
 30
0.0
  0
VERTEX
  5
6AB
  8
0
 10
0.0002316040539351
 20
0.0003582483635574
 30
0.0
  0
VERTEX
  5
6AC
  8
0
 10
0.0002363791293785
 20
0.0003628173327837
 30
0.0
  0
SEQEND
  5
1194
  8
0
  0
POLYLINE
  5
FC
  8
0
 66
     1
 10
0.0
 20
0.0
 30
0.0
 70
     1
  0
VERTEX
  5
6AD
  8
0
 10
0.0004527246912972
 20
0.0003925670311099
 30
0.0
  0
VERTEX
  5
6AE
  8
0
 10
0.0004472715221468
 20
0.0003859772228804
 30
0.0
  0
VERTEX
  5
6AF
  8
0
 10
0.0004503475970909
 20
0.0003836056818728
 30
0.0
  0
VERTEX
  5
6B0
  8
0
 10
0.0004569386216461
 20
0.0003810800771244
 30
0.0
  0
VERTEX
  5
6B1
  8
0
 10
0.000458688404521
 20
0.0003901589440518
 30
0.0
  0
VERTEX
  5
6B2
  8
0
 10
0.0004553339442269
 20
0.0003897128120798
 30
0.0
  0
VERTEX
  5
6B3
  8
0
 10
0.0004533331949203
 20
0.0003914901983543
 30
0.0
  0
SEQEND
  5
1195
  8
0
  0
POLYLINE
  5
FD
  8
0
 66
     1
 10
0.0
 20
0.0
 30
0.0
 70
     1
  0
VERTEX
  5
6B4
  8
0
 10
0.0004583116437568
 20
0.0004060392348493
 30
0.0
  0
VERTEX
  5
6B5
  8
0
 10
0.0004395734630647
 20
0.0004102486594779
 30
0.0
  0
VERTEX
  5
6B6
  8
0
 10
0.0004370458071349
 20
0.0004100070202937
 30
0.0
  0
VERTEX
  5
6B7
  8
0
 10
0.0004335030289947
 20
0.0004098321758333
 30
0.0
  0
VERTEX
  5
6B8
  8
0
 10
0.0004292685962114
 20
0.0004058728890341
 30
0.0
  0
VERTEX
  5
6B9
  8
0
 10
0.0004292560202176
 20
0.0004055993752401
 30
0.0
  0
VERTEX
  5
6BA
  8
0
 10
0.0004228894343142
 20
0.0004065250897017
 30
0.0
  0
VERTEX
  5
6BB
  8
0
 10
0.0004204266344915
 20
0.0004091458304984
 30
0.0
  0
VERTEX
  5
6BC
  8
0
 10
0.0004203321300569
 20
0.0004158399112889
 30
0.0
  0
VERTEX
  5
6BD
  8
0
 10
0.0004233716370629
 20
0.0004189758675997
 30
0.0
  0
VERTEX
  5
6BE
  8
0
 10
0.0004343047407807
 20
0.0004155084391109
 30
0.0
  0
VERTEX
  5
6BF
  8
0
 10
0.0004408617301065
 20
0.0004149252907175
 30
0.0
  0
VERTEX
  5
6C0
  8
0
 10
0.0004405800678691
 20
0.0004177550769243
 30
0.0
  0
VERTEX
  5
6C1
  8
0
 10
0.0004391733638576
 20
0.0004228159107146
 30
0.0
  0
VERTEX
  5
6C2
  8
0
 10
0.000437242532949
 20
0.0004240041576448
 30
0.0
  0
VERTEX
  5
6C3
  8
0
 10
0.0004287917590532
 20
0.0004218205061115
 30
0.0
  0
VERTEX
  5
6C4
  8
0
 10
0.0004282218182673
 20
0.0004217083540119
 30
0.0
  0
VERTEX
  5
6C5
  8
0
 10
0.0004301013008493
 20
0.0004344773464516
 30
0.0
  0
VERTEX
  5
6C6
  8
0
 10
0.0004323283086058
 20
0.0004376215325027
 30
0.0
  0
VERTEX
  5
6C7
  8
0
 10
0.0004375461578369
 20
0.0004369371132772
 30
0.0
  0
VERTEX
  5
6C8
  8
0
 10
0.0004579747872274
 20
0.0004339310255207
 30
0.0
  0
VERTEX
  5
6C9
  8
0
 10
0.0004583121502986
 20
0.0004336944329934
 30
0.0
  0
VERTEX
  5
6CA
  8
0
 10
0.0004583116124888
 20
0.0004259297417813
 30
0.0
  0
VERTEX
  5
6CB
  8
0
 10
0.0004483636293255
 20
0.0004281275202016
 30
0.0
  0
VERTEX
  5
6CC
  8
0
 10
0.0004545405466048
 20
0.000418714435765
 30
0.0
  0
VERTEX
  5
6CD
  8
0
 10
0.000458312300385
 20
0.0004141180632544
 30
0.0
  0
SEQEND
  5
1196
  8
0
  0
POLYLINE
  5
FE
  8
0
 66
     1
 10
0.0
 20
0.0
 30
0.0
 70
     1
  0
VERTEX
  5
6CE
  8
0
 10
0.0003392196905418
 20
0.0001839124085473
 30
0.0
  0
VERTEX
  5
6CF
  8
0
 10
0.0003378571557217
 20
0.0001651658105069
 30
0.0
  0
VERTEX
  5
6D0
  8
0
 10
0.0003379188412526
 20
0.000159611911461
 30
0.0
  0
VERTEX
  5
6D1
  8
0
 10
0.000338416277776
 20
0.000155835361168
 30
0.0
  0
VERTEX
  5
6D2
  8
0
 10
0.0003390642009798
 20
0.0001733442462859
 30
0.0
  0
SEQEND
  5
1197
  8
0
  0
POLYLINE
  5
FF
  8
0
 66
     1
 10
0.0
 20
0.0
 30
0.0
 70
     1
  0
VERTEX
  5
6D3
  8
0
 10
0.0003212897128746
 20
0.0002482128455991
 30
0.0
  0
VERTEX
  5
6D4
  8
0
 10
0.0003217051646749
 20
0.0002474499061459
 30
0.0
  0
VERTEX
  5
6D5
  8
0
 10
0.0003217051646749
 20
0.0002466869666928
 30
0.0
  0
VERTEX
  5
6D6
  8
0
 10
0.0003221171519795
 20
0.0002466869666928
 30
0.0
  0
VERTEX
  5
6D7
  8
0
 10
0.0003221171519795
 20
0.0002459240272397
 30
0.0
  0
VERTEX
  5
6D8
  8
0
 10
0.0003229410890673
 20
0.0002443981483334
 30
0.0
  0
VERTEX
  5
6D9
  8
0
 10
0.0003233565408675
 20
0.0002443981483334
 30
0.0
  0
VERTEX
  5
6DA
  8
0
 10
0.0003233565408675
 20
0.0002436352088803
 30
0.0
  0
VERTEX
  5
6DB
  8
0
 10
0.0003237685531866
 20
0.0002421093299741
 30
0.0
  0
VERTEX
  5
6DC
  8
0
 10
0.0003241770509814
 20
0.0002421093299741
 30
0.0
  0
VERTEX
  5
6DD
  8
0
 10
0.0003250044900863
 20
0.0002405834510678
 30
0.0
  0
VERTEX
  5
6DE
  8
0
 10
0.000325416477391
 20
0.0002390575721616
 30
0.0
  0
VERTEX
  5
6DF
  8
0
 10
0.0003258284271741
 20
0.0002390575721616
 30
0.0
  0
VERTEX
  5
6E0
  8
0
 10
0.0003258284271741
 20
0.0002382946327084
 30
0.0
  0
VERTEX
  5
6E1
  8
0
 10
0.0003270678785981
 20
0.0002360058143491
 30
0.0
  0
VERTEX
  5
6E2
  8
0
 10
0.0003274798408884
 20
0.0002360058143491
 30
0.0
  0
VERTEX
  5
6E3
  8
0
 10
0.0003274798408884
 20
0.0002352428748959
 30
0.0
  0
VERTEX
  5
6E4
  8
0
 10
0.000328513236124
 20
0.0002333355262631
 30
0.0
  0
VERTEX
  5
6E5
  8
0
 10
0.000329338961742
 20
0.0002310467079038
 30
0.0
  0
VERTEX
  5
6E6
  8
0
 10
0.0003299551916904
 20
0.0002299022987241
 30
0.0
  0
VERTEX
  5
6E7
  8
0
 10
0.0003303706309834
 20
0.0002299022987241
 30
0.0
  0
VERTEX
  5
6E8
  8
0
 10
0.0003307826182881
 20
0.0002283764198178
 30
0.0
  0
VERTEX
  5
6E9
  8
0
 10
0.0003307826182881
 20
0.0002276134803647
 30
0.0
  0
VERTEX
  5
6EA
  8
0
 10
0.0003311980325668
 20
0.0002276134803647
 30
0.0
  0
VERTEX
  5
6EB
  8
0
 10
0.0003311980325668
 20
0.0002268505409116
 30
0.0
  0
VERTEX
  5
6EC
  8
0
 10
0.0003316065678831
 20
0.0002268505409116
 30
0.0
  0
VERTEX
  5
6ED
  8
0
 10
0.0003316065678831
 20
0.0002260876014584
 30
0.0
  0
VERTEX
  5
6EE
  8
0
 10
0.0003322280008285
 20
0.0002249431922788
 30
0.0
  0
VERTEX
  5
6EF
  8
0
 10
0.0003324339944808
 20
0.0002245617225522
 30
0.0
  0
VERTEX
  5
6F0
  8
0
 10
0.0003324339944808
 20
0.0002237987830991
 30
0.0
  0
VERTEX
  5
6F1
  8
0
 10
0.0003328459817855
 20
0.0002237987830991
 30
0.0
  0
VERTEX
  5
6F2
  8
0
 10
0.0003328459817855
 20
0.0002230358436459
 30
0.0
  0
VERTEX
  5
6F3
  8
0
 10
0.0003332579690902
 20
0.0002230358436459
 30
0.0
  0
VERTEX
  5
6F4
  8
0
 10
0.0003332579690902
 20
0.0002222729041928
 30
0.0
  0
VERTEX
  5
6F5
  8
0
 10
0.0003336734083832
 20
0.0002222729041928
 30
0.0
  0
VERTEX
  5
6F6
  8
0
 10
0.0003336734083832
 20
0.0002199840858334
 30
0.0
  0
VERTEX
  5
6F7
  8
0
 10
0.0003340853956879
 20
0.0002199840858334
 30
0.0
  0
VERTEX
  5
6F8
  8
0
 10
0.0003340853956879
 20
0.0002184582069272
 30
0.0
  0
VERTEX
  5
6F9
  8
0
 10
0.0003344973579782
 20
0.0002176952674741
 30
0.0
  0
VERTEX
  5
6FA
  8
0
 10
0.0003344973579782
 20
0.0002138805702084
 30
0.0
  0
VERTEX
  5
6FB
  8
0
 10
0.0003344973579782
 20
0.0002131176307553
 30
0.0
  0
VERTEX
  5
6FC
  8
0
 10
0.0003349093702973
 20
0.0002115917518491
 30
0.0
  0
VERTEX
  5
6FD
  8
0
 10
0.0003349093702973
 20
0.0001955700233334
 30
0.0
  0
VERTEX
  5
6FE
  8
0
 10
0.0003344973579782
 20
0.0001963329627866
 30
0.0
  0
VERTEX
  5
6FF
  8
0
 10
0.0003344973579782
 20
0.0002016735389584
 30
0.0
  0
VERTEX
  5
700
  8
0
 10
0.0003344973579782
 20
0.0002024364784116
 30
0.0
  0
VERTEX
  5
701
  8
0
 10
0.0003340853956879
 20
0.0002031994178647
 30
0.0
  0
VERTEX
  5
702
  8
0
 10
0.0003340853956879
 20
0.0002070141151303
 30
0.0
  0
VERTEX
  5
703
  8
0
 10
0.0003340853956879
 20
0.0002077770545834
 30
0.0
  0
VERTEX
  5
704
  8
0
 10
0.0003336734083832
 20
0.0002085399940366
 30
0.0
  0
VERTEX
  5
705
  8
0
 10
0.0003336734083832
 20
0.0002115917518491
 30
0.0
  0
VERTEX
  5
706
  8
0
 10
0.0003332579690902
 20
0.0002115917518491
 30
0.0
  0
VERTEX
  5
707
  8
0
 10
0.0003332579690902
 20
0.0002154064491147
 30
0.0
  0
VERTEX
  5
708
  8
0
 10
0.0003328459817855
 20
0.0002154064491147
 30
0.0
  0
VERTEX
  5
709
  8
0
 10
0.0003328459817855
 20
0.0002176952674741
 30
0.0
  0
VERTEX
  5
70A
  8
0
 10
0.0003324339944808
 20
0.0002176952674741
 30
0.0
  0
VERTEX
  5
70B
  8
0
 10
0.0003324339944808
 20
0.0002192211463803
 30
0.0
  0
VERTEX
  5
70C
  8
0
 10
0.0003320220071761
 20
0.0002199840858334
 30
0.0
  0
VERTEX
  5
70D
  8
0
 10
0.0003320220071761
 20
0.0002215099647397
 30
0.0
  0
VERTEX
  5
70E
  8
0
 10
0.0003316065678831
 20
0.0002215099647397
 30
0.0
  0
VERTEX
  5
70F
  8
0
 10
0.0003316065678831
 20
0.0002222729041928
 30
0.0
  0
VERTEX
  5
710
  8
0
 10
0.0003311980325668
 20
0.0002222729041928
 30
0.0
  0
VERTEX
  5
711
  8
0
 10
0.0003311980325668
 20
0.0002230358436459
 30
0.0
  0
VERTEX
  5
712
  8
0
 10
0.0003307826182881
 20
0.0002230358436459
 30
0.0
  0
VERTEX
  5
713
  8
0
 10
0.0003307826182881
 20
0.0002245617225522
 30
0.0
  0
VERTEX
  5
714
  8
0
 10
0.0003303706309834
 20
0.0002245617225522
 30
0.0
  0
VERTEX
  5
715
  8
0
 10
0.0003303706309834
 20
0.0002253246620053
 30
0.0
  0
VERTEX
  5
716
  8
0
 10
0.0003299551916904
 20
0.0002253246620053
 30
0.0
  0
VERTEX
  5
717
  8
0
 10
0.0003299551916904
 20
0.0002260876014584
 30
0.0
  0
VERTEX
  5
718
  8
0
 10
0.0003289252484431
 20
0.0002279949500913
 30
0.0
  0
VERTEX
  5
719
  8
0
 10
0.0003281012738337
 20
0.0002302837684506
 30
0.0
  0
VERTEX
  5
71A
  8
0
 10
0.000327273847236
 20
0.0002321911170834
 30
0.0
  0
VERTEX
  5
71B
  8
0
 10
0.0003262439039887
 20
0.0002344799354428
 30
0.0
  0
VERTEX
  5
71C
  8
0
 10
0.0003262439039887
 20
0.0002352428748959
 30
0.0
  0
VERTEX
  5
71D
  8
0
 10
0.0003258284271741
 20
0.0002352428748959
 30
0.0
  0
VERTEX
  5
71E
  8
0
 10
0.0003258284271741
 20
0.0002360058143491
 30
0.0
  0
VERTEX
  5
71F
  8
0
 10
0.000325416477391
 20
0.0002360058143491
 30
0.0
  0
VERTEX
  5
720
  8
0
 10
0.000325416477391
 20
0.0002367687538022
 30
0.0
  0
VERTEX
  5
721
  8
0
 10
0.0003250044900863
 20
0.0002367687538022
 30
0.0
  0
VERTEX
  5
722
  8
0
 10
0.0003250044900863
 20
0.0002375316932553
 30
0.0
  0
VERTEX
  5
723
  8
0
 10
0.00032459246526
 20
0.0002375316932553
 30
0.0
  0
VERTEX
  5
724
  8
0
 10
0.00032459246526
 20
0.0002382946327084
 30
0.0
  0
VERTEX
  5
725
  8
0
 10
0.0003241770509814
 20
0.0002390575721616
 30
0.0
  0
VERTEX
  5
726
  8
0
 10
0.0003235625345199
 20
0.0002409649207944
 30
0.0
  0
VERTEX
  5
727
  8
0
 10
0.0003229410890673
 20
0.0002421093299741
 30
0.0
  0
VERTEX
  5
728
  8
0
 10
0.0003225291392842
 20
0.0002421093299741
 30
0.0
  0
VERTEX
  5
729
  8
0
 10
0.0003225291392842
 20
0.0002436352088803
 30
0.0
  0
VERTEX
  5
72A
  8
0
 10
0.0003221171519795
 20
0.0002436352088803
 30
0.0
  0
VERTEX
  5
72B
  8
0
 10
0.0003221171519795
 20
0.0002443981483334
 30
0.0
  0
VERTEX
  5
72C
  8
0
 10
0.0003217051646749
 20
0.0002443981483334
 30
0.0
  0
VERTEX
  5
72D
  8
0
 10
0.0003217051646749
 20
0.0002451610877866
 30
0.0
  0
VERTEX
  5
72E
  8
0
 10
0.0003212897128746
 20
0.0002451610877866
 30
0.0
  0
VERTEX
  5
72F
  8
0
 10
0.0003212897128746
 20
0.0002459240272397
 30
0.0
  0
VERTEX
  5
730
  8
0
 10
0.0003208777255699
 20
0.0002459240272397
 30
0.0
  0
VERTEX
  5
731
  8
0
 10
0.0003212897128746
 20
0.0002459240272397
 30
0.0
  0
SEQEND
  5
1198
  8
0
  0
POLYLINE
  5
100
  8
0
 66
     1
 10
0.0
 20
0.0
 30
0.0
  0
VERTEX
  5
732
  8
0
 10
0.000356370506912
 20
0.0002520275428647
 30
0.0
  0
VERTEX
  5
733
  8
0
 10
0.0003571944815214
 20
0.0002497387245053
 30
0.0
  0
VERTEX
  5
734
  8
0
 10
0.0003576099208144
 20
0.0002497387245053
 30
0.0
  0
VERTEX
  5
735
  8
0
 10
0.0003576099208144
 20
0.0002489757850522
 30
0.0
  0
VERTEX
  5
736
  8
0
 10
0.0003580219081191
 20
0.0002482128455991
 30
0.0
  0
VERTEX
  5
737
  8
0
 10
0.0003584373849337
 20
0.0002482128455991
 30
0.0
  0
VERTEX
  5
738
  8
0
 10
0.0003584373849337
 20
0.0002474499061459
 30
0.0
  0
VERTEX
  5
739
  8
0
 10
0.000358845857714
 20
0.0002474499061459
 30
0.0
  0
VERTEX
  5
73A
  8
0
 10
0.000358845857714
 20
0.0002466869666928
 30
0.0
  0
VERTEX
  5
73B
  8
0
 10
0.0003592612970071
 20
0.0002466869666928
 30
0.0
  0
VERTEX
  5
73C
  8
0
 10
0.0003592612970071
 20
0.0002459240272397
 30
0.0
  0
VERTEX
  5
73D
  8
0
 10
0.0003600887611264
 20
0.0002443981483334
 30
0.0
  0
VERTEX
  5
73E
  8
0
 10
0.0003604972589211
 20
0.0002443981483334
 30
0.0
  0
VERTEX
  5
73F
  8
0
 10
0.0003604972589211
 20
0.0002436352088803
 30
0.0
  0
VERTEX
  5
740
  8
0
 10
0.0003609127107214
 20
0.0002421093299741
 30
0.0
  0
VERTEX
  5
741
  8
0
 10
0.0003613246980261
 20
0.0002421093299741
 30
0.0
  0
VERTEX
  5
742
  8
0
 10
0.0003613246980261
 20
0.0002413463905209
 30
0.0
  0
VERTEX
  5
743
  8
0
 10
0.0003617366853308
 20
0.0002413463905209
 30
0.0
  0
VERTEX
  5
744
  8
0
 10
0.0003617366853308
 20
0.0002405834510678
 30
0.0
  0
VERTEX
  5
745
  8
0
 10
0.0003621486726354
 20
0.0002390575721616
 30
0.0
  0
VERTEX
  5
746
  8
0
 10
0.0003621486726354
 20
0.0002299022987241
 30
0.0
  0
VERTEX
  5
747
  8
0
 10
0.0003617366853308
 20
0.0002299022987241
 30
0.0
  0
VERTEX
  5
748
  8
0
 10
0.0003617366853308
 20
0.0002260876014584
 30
0.0
  0
VERTEX
  5
749
  8
0
 10
0.0003613246980261
 20
0.0002253246620053
 30
0.0
  0
VERTEX
  5
74A
  8
0
 10
0.0003613246980261
 20
0.0002230358436459
 30
0.0
  0
VERTEX
  5
74B
  8
0
 10
0.0003613246980261
 20
0.0002222729041928
 30
0.0
  0
VERTEX
  5
74C
  8
0
 10
0.0003609127107214
 20
0.0002215099647397
 30
0.0
  0
VERTEX
  5
74D
  8
0
 10
0.0003609127107214
 20
0.0002184582069272
 30
0.0
  0
VERTEX
  5
74E
  8
0
 10
0.0003604972589211
 20
0.0002184582069272
 30
0.0
  0
VERTEX
  5
74F
  8
0
 10
0.0003604972589211
 20
0.0002154064491147
 30
0.0
  0
VERTEX
  5
750
  8
0
 10
0.0003600887611264
 20
0.0002154064491147
 30
0.0
  0
VERTEX
  5
751
  8
0
 10
0.0003600887611264
 20
0.0002138805702084
 30
0.0
  0
VERTEX
  5
752
  8
0
 10
0.0003600887611264
 20
0.0002215099647397
 30
0.0
  0
VERTEX
  5
753
  8
0
 10
0.0003604972589211
 20
0.0002222729041928
 30
0.0
  0
VERTEX
  5
754
  8
0
 10
0.0003604972589211
 20
0.0002291393592709
 30
0.0
  0
VERTEX
  5
755
  8
0
 10
0.0003604972589211
 20
0.0002299022987241
 30
0.0
  0
VERTEX
  5
756
  8
0
 10
0.0003609127107214
 20
0.0002306652381772
 30
0.0
  0
VERTEX
  5
757
  8
0
 10
0.0003609127107214
 20
0.0002375316932553
 30
0.0
  0
VERTEX
  5
758
  8
0
 10
0.0003609127107214
 20
0.0002382946327084
 30
0.0
  0
VERTEX
  5
759
  8
0
 10
0.0003604972589211
 20
0.0002390575721616
 30
0.0
  0
VERTEX
  5
75A
  8
0
 10
0.0003604972589211
 20
0.0002405834510678
 30
0.0
  0
VERTEX
  5
75B
  8
0
 10
0.0003600887611264
 20
0.0002413463905209
 30
0.0
  0
VERTEX
  5
75C
  8
0
 10
0.0003600887611264
 20
0.0002421093299741
 30
0.0
  0
VERTEX
  5
75D
  8
0
 10
0.0003596733218334
 20
0.0002421093299741
 30
0.0
  0
VERTEX
  5
75E
  8
0
 10
0.0003590535773606
 20
0.0002440166786069
 30
0.0
  0
VERTEX
  5
75F
  8
0
 10
0.0003580219081191
 20
0.0002459240272397
 30
0.0
  0
VERTEX
  5
760
  8
0
 10
0.0003580219081191
 20
0.0002466869666928
 30
0.0
  0
VERTEX
  5
761
  8
0
 10
0.0003576099208144
 20
0.0002466869666928
 30
0.0
  0
VERTEX
  5
762
  8
0
 10
0.0003571944815214
 20
0.0002474499061459
 30
0.0
  0
VERTEX
  5
763
  8
0
 10
0.0003571944815214
 20
0.0002482128455991
 30
0.0
  0
VERTEX
  5
764
  8
0
 10
0.000356785946205
 20
0.0002482128455991
 30
0.0
  0
VERTEX
  5
765
  8
0
 10
0.000356785946205
 20
0.0002489757850522
 30
0.0
  0
VERTEX
  5
766
  8
0
 10
0.0003559585446217
 20
0.0002505016639584
 30
0.0
  0
VERTEX
  5
767
  8
0
 10
0.000355546557317
 20
0.0002505016639584
 30
0.0
  0
VERTEX
  5
768
  8
0
 10
0.000355546557317
 20
0.0002520275428647
 30
0.0
  0
VERTEX
  5
769
  8
0
 10
0.0003551345700123
 20
0.0002527904823178
 30
0.0
  0
SEQEND
  5
1199
  8
0
  0
POLYLINE
  5
101
  8
0
 66
     1
 10
0.0
 20
0.0
 30
0.0
  0
VERTEX
  5
76A
  8
0
 10
0.0003576099208144
 20
0.0001230907752866
 30
0.0
  0
VERTEX
  5
76B
  8
0
 10
0.0003571944815214
 20
0.0001230907752866
 30
0.0
  0
VERTEX
  5
76C
  8
0
 10
0.0003571944815214
 20
0.0001246166541928
 30
0.0
  0
VERTEX
  5
76D
  8
0
 10
0.000356785946205
 20
0.0001253795936459
 30
0.0
  0
VERTEX
  5
76E
  8
0
 10
0.000356785946205
 20
0.0001261425330991
 30
0.0
  0
VERTEX
  5
76F
  8
0
 10
0.000356370506912
 20
0.0001269054725522
 30
0.0
  0
VERTEX
  5
770
  8
0
 10
0.000356370506912
 20
0.0001276684120053
 30
0.0
  0
VERTEX
  5
771
  8
0
 10
0.0003559585446217
 20
0.0001284313514584
 30
0.0
  0
VERTEX
  5
772
  8
0
 10
0.0003559585446217
 20
0.0001299572303647
 30
0.0
  0
VERTEX
  5
773
  8
0
 10
0.000355546557317
 20
0.0001299572303647
 30
0.0
  0
VERTEX
  5
774
  8
0
 10
0.000355546557317
 20
0.0001322460487241
 30
0.0
  0
VERTEX
  5
775
  8
0
 10
0.0003551345700123
 20
0.0001330089881772
 30
0.0
  0
VERTEX
  5
776
  8
0
 10
0.0003551345700123
 20
0.0001337719276303
 30
0.0
  0
VERTEX
  5
777
  8
0
 10
0.0003547226202293
 20
0.0001337719276303
 30
0.0
  0
VERTEX
  5
778
  8
0
 10
0.0003547226202293
 20
0.0001360607459897
 30
0.0
  0
VERTEX
  5
779
  8
0
 10
0.0003543071434146
 20
0.0001360607459897
 30
0.0
  0
VERTEX
  5
77A
  8
0
 10
0.0003543071434146
 20
0.0001375866248959
 30
0.0
  0
VERTEX
  5
77B
  8
0
 10
0.0003538986080983
 20
0.0001375866248959
 30
0.0
  0
VERTEX
  5
77C
  8
0
 10
0.0003538986080983
 20
0.0001398754432553
 30
0.0
  0
VERTEX
  5
77D
  8
0
 10
0.0003534831938196
 20
0.0001398754432553
 30
0.0
  0
VERTEX
  5
77E
  8
0
 10
0.0003534831938196
 20
0.0001421642616147
 30
0.0
  0
VERTEX
  5
77F
  8
0
 10
0.0003530711815005
 20
0.0001421642616147
 30
0.0
  0
VERTEX
  5
780
  8
0
 10
0.0003530711815005
 20
0.0001436901405209
 30
0.0
  0
VERTEX
  5
781
  8
0
 10
0.0003526557672219
 20
0.0001444530799741
 30
0.0
  0
VERTEX
  5
782
  8
0
 10
0.0003526557672219
 20
0.0001459789588803
 30
0.0
  0
VERTEX
  5
783
  8
0
 10
0.0003522472319056
 20
0.0001467418983334
 30
0.0
  0
VERTEX
  5
784
  8
0
 10
0.0003522472319056
 20
0.0001482677772397
 30
0.0
  0
VERTEX
  5
785
  8
0
 10
0.000351831817627
 20
0.0001490307166928
 30
0.0
  0
VERTEX
  5
786
  8
0
 10
0.000351831817627
 20
0.0001513195350522
 30
0.0
  0
VERTEX
  5
787
  8
0
 10
0.0003514198053079
 20
0.0001513195350522
 30
0.0
  0
VERTEX
  5
788
  8
0
 10
0.0003514198053079
 20
0.0001536083534116
 30
0.0
  0
VERTEX
  5
789
  8
0
 10
0.0003510078430176
 20
0.0001543712928647
 30
0.0
  0
VERTEX
  5
78A
  8
0
 10
0.0003510078430176
 20
0.0001558971717709
 30
0.0
  0
VERTEX
  5
78B
  8
0
 10
0.0003510078430176
 20
0.0001566601112241
 30
0.0
  0
VERTEX
  5
78C
  8
0
 10
0.0003505958557129
 20
0.0001574230506772
 30
0.0
  0
VERTEX
  5
78D
  8
0
 10
0.0003505958557129
 20
0.0001642895057553
 30
0.0
  0
VERTEX
  5
78E
  8
0
 10
0.0003505958557129
 20
0.0001650524452084
 30
0.0
  0
VERTEX
  5
78F
  8
0
 10
0.0003510078430176
 20
0.0001658153846616
 30
0.0
  0
VERTEX
  5
790
  8
0
 10
0.0003510078430176
 20
0.0001742077186459
 30
0.0
  0
VERTEX
  5
791
  8
0
 10
0.0003514198053079
 20
0.0001742077186459
 30
0.0
  0
VERTEX
  5
792
  8
0
 10
0.0003514198053079
 20
0.0001978588416928
 30
0.0
  0
VERTEX
  5
793
  8
0
 10
0.0003514198053079
 20
0.0001948070838803
 30
0.0
  0
VERTEX
  5
794
  8
0
 10
0.000351831817627
 20
0.0001948070838803
 30
0.0
  0
VERTEX
  5
795
  8
0
 10
0.000351831817627
 20
0.0001902294471616
 30
0.0
  0
VERTEX
  5
796
  8
0
 10
0.0003522472319056
 20
0.0001894665077084
 30
0.0
  0
VERTEX
  5
797
  8
0
 10
0.0003522472319056
 20
0.0001787853553647
 30
0.0
  0
VERTEX
  5
798
  8
0
 10
0.0003522472319056
 20
0.0001612377479428
 30
0.0
  0
VERTEX
  5
799
  8
0
 10
0.000351831817627
 20
0.0001612377479428
 30
0.0
  0
VERTEX
  5
79A
  8
0
 10
0.000351831817627
 20
0.0001589489295834
 30
0.0
  0
VERTEX
  5
79B
  8
0
 10
0.0003522472319056
 20
0.0001581859901303
 30
0.0
  0
VERTEX
  5
79C
  8
0
 10
0.0003522472319056
 20
0.0001566601112241
 30
0.0
  0
VERTEX
  5
79D
  8
0
 10
0.0003522472319056
 20
0.0001558971717709
 30
0.0
  0
VERTEX
  5
79E
  8
0
 10
0.0003526557672219
 20
0.0001551342323178
 30
0.0
  0
VERTEX
  5
79F
  8
0
 10
0.0003526557672219
 20
0.0001536083534116
 30
0.0
  0
VERTEX
  5
7A0
  8
0
 10
0.0003530711815005
 20
0.0001528454139584
 30
0.0
  0
VERTEX
  5
7A1
  8
0
 10
0.0003530711815005
 20
0.0001490307166928
 30
0.0
  0
VERTEX
  5
7A2
  8
0
 10
0.0003534831938196
 20
0.0001490307166928
 30
0.0
  0
VERTEX
  5
7A3
  8
0
 10
0.0003534831938196
 20
0.0001467418983334
 30
0.0
  0
VERTEX
  5
7A4
  8
0
 10
0.0003538986080983
 20
0.0001459789588803
 30
0.0
  0
VERTEX
  5
7A5
  8
0
 10
0.0003538986080983
 20
0.0001444530799741
 30
0.0
  0
VERTEX
  5
7A6
  8
0
 10
0.0003543071434146
 20
0.0001436901405209
 30
0.0
  0
VERTEX
  5
7A7
  8
0
 10
0.0003543071434146
 20
0.0001421642616147
 30
0.0
  0
VERTEX
  5
7A8
  8
0
 10
0.0003547226202293
 20
0.0001406383827084
 30
0.0
  0
VERTEX
  5
7A9
  8
0
 10
0.0003547226202293
 20
0.0001398754432553
 30
0.0
  0
VERTEX
  5
7AA
  8
0
 10
0.0003551345700123
 20
0.0001391125038022
 30
0.0
  0
VERTEX
  5
7AB
  8
0
 10
0.0003551345700123
 20
0.0001368236854428
 30
0.0
  0
VERTEX
  5
7AC
  8
0
 10
0.000355546557317
 20
0.0001368236854428
 30
0.0
  0
VERTEX
  5
7AD
  8
0
 10
0.000355546557317
 20
0.0001345348670834
 30
0.0
  0
VERTEX
  5
7AE
  8
0
 10
0.0003559585446217
 20
0.0001345348670834
 30
0.0
  0
VERTEX
  5
7AF
  8
0
 10
0.0003559585446217
 20
0.0001330089881772
 30
0.0
  0
VERTEX
  5
7B0
  8
0
 10
0.000356370506912
 20
0.0001322460487241
 30
0.0
  0
VERTEX
  5
7B1
  8
0
 10
0.000356370506912
 20
0.0001307201698178
 30
0.0
  0
VERTEX
  5
7B2
  8
0
 10
0.000356370506912
 20
0.0001299572303647
 30
0.0
  0
VERTEX
  5
7B3
  8
0
 10
0.000356785946205
 20
0.0001291942909116
 30
0.0
  0
VERTEX
  5
7B4
  8
0
 10
0.000356785946205
 20
0.0001284313514584
 30
0.0
  0
VERTEX
  5
7B5
  8
0
 10
0.0003571944815214
 20
0.0001276684120053
 30
0.0
  0
VERTEX
  5
7B6
  8
0
 10
0.0003571944815214
 20
0.0001261425330991
 30
0.0
  0
VERTEX
  5
7B7
  8
0
 10
0.0003576099208144
 20
0.0001261425330991
 30
0.0
  0
VERTEX
  5
7B8
  8
0
 10
0.0003576099208144
 20
0.0001246166541928
 30
0.0
  0
VERTEX
  5
7B9
  8
0
 10
0.0003580219081191
 20
0.0001238537147397
 30
0.0
  0
VERTEX
  5
7BA
  8
0
 10
0.0003580219081191
 20
0.0001230907752866
 30
0.0
  0
SEQEND
  5
119A
  8
0
  0
POLYLINE
  5
102
  8
0
 66
     1
 10
0.0
 20
0.0
 30
0.0
 70
     1
  0
VERTEX
  5
7BB
  8
0
 10
0.0003611206054688
 20
0.0005597007501321
 30
0.0
  0
VERTEX
  5
7BC
  8
0
 10
0.0003623517771236
 20
0.0005639877444408
 30
0.0
  0
VERTEX
  5
7BD
  8
0
 10
0.0003651267004795
 20
0.0005656017303467
 30
0.0
  0
VERTEX
  5
7BE
  8
0
 10
0.0003733372922804
 20
0.0005610200412938
 30
0.0
  0
VERTEX
  5
7BF
  8
0
 10
0.0003759846046323
 20
0.0005566443271324
 30
0.0
  0
VERTEX
  5
7C0
  8
0
 10
0.0003707010738185
 20
0.0005553054872106
 30
0.0
  0
VERTEX
  5
7C1
  8
0
 10
0.0003617264044089
 20
0.0005594586419278
 30
0.0
  0
SEQEND
  5
119B
  8
0
  0
POLYLINE
  5
103
  8
0
 66
     1
 10
0.0
 20
0.0
 30
0.0
 70
     1
  0
VERTEX
  5
7C2
  8
0
 10
0.0003090851830654
 20
0.000539810480837
 30
0.0
  0
VERTEX
  5
7C3
  8
0
 10
0.0002985493519267
 20
0.0005321292251837
 30
0.0
  0
VERTEX
  5
7C4
  8
0
 10
0.0002971140126713
 20
0.0005360180370143
 30
0.0
  0
VERTEX
  5
7C5
  8
0
 10
0.0002998642593134
 20
0.000542615984307
 30
0.0
  0
VERTEX
  5
7C6
  8
0
 10
0.0003006718744997
 20
0.0005433471585883
 30
0.0
  0
VERTEX
  5
7C7
  8
0
 10
0.0003051047028088
 20
0.0005399371381666
 30
0.0
  0
SEQEND
  5
119C
  8
0
  0
POLYLINE
  5
104
  8
0
 66
     1
 10
0.0
 20
0.0
 30
0.0
 70
     1
  0
VERTEX
  5
7C8
  8
0
 10
0.0003275599745453
 20
0.0003024393300541
 30
0.0
  0
VERTEX
  5
7C9
  8
0
 10
0.0003245455632444
 20
0.0002932803294698
 30
0.0
  0
VERTEX
  5
7CA
  8
0
 10
0.0003289486994509
 20
0.0002749184530289
 30
0.0
  0
VERTEX
  5
7CB
  8
0
 10
0.0003308503573058
 20
0.0002631911230869
 30
0.0
  0
VERTEX
  5
7CC
  8
0
 10
0.000335985840344
 20
0.0002454793461034
 30
0.0
  0
VERTEX
  5
7CD
  8
0
 10
0.0003399508616963
 20
0.0002360118928503
 30
0.0
  0
VERTEX
  5
7CE
  8
0
 10
0.0003436886646709
 20
0.0002330104890417
 30
0.0
  0
VERTEX
  5
7CF
  8
0
 10
0.00034527868052
 20
0.0002334834864882
 30
0.0
  0
VERTEX
  5
7D0
  8
0
 10
0.000345388468758
 20
0.0002376048103708
 30
0.0
  0
VERTEX
  5
7D1
  8
0
 10
0.0003396070886831
 20
0.0002658969066182
 30
0.0
  0
VERTEX
  5
7D2
  8
0
 10
0.0003350599070064
 20
0.0002824601470447
 30
0.0
  0
VERTEX
  5
7D3
  8
0
 10
0.0003283415997615
 20
0.0003012005665263
 30
0.0
  0
VERTEX
  5
7D4
  8
0
 10
0.0003275918679159
 20
0.0003027477827228
 30
0.0
  0
SEQEND
  5
119D
  8
0
  0
POLYLINE
  5
105
  8
0
 66
     1
 10
0.0
 20
0.0
 30
0.0
 70
     1
  0
VERTEX
  5
7D5
  8
0
 10
0.0004264997513568
 20
0.0003962579383225
 30
0.0
  0
VERTEX
  5
7D6
  8
0
 10
0.000425614979228
 20
0.0003865100923132
 30
0.0
  0
VERTEX
  5
7D7
  8
0
 10
0.0004222975058634
 20
0.0003795495580454
 30
0.0
  0
VERTEX
  5
7D8
  8
0
 10
0.0004306494540856
 20
0.0003830479481181
 30
0.0
  0
VERTEX
  5
7D9
  8
0
 10
0.0004335831063693
 20
0.000382338189297
 30
0.0
  0
VERTEX
  5
7DA
  8
0
 10
0.000434030170128
 20
0.0003778556323442
 30
0.0
  0
VERTEX
  5
7DB
  8
0
 10
0.0004319455006084
 20
0.0003748594440398
 30
0.0
  0
VERTEX
  5
7DC
  8
0
 10
0.0004271792740118
 20
0.0003769258968166
 30
0.0
  0
VERTEX
  5
7DD
  8
0
 10
0.0004254255576212
 20
0.0003757541593958
 30
0.0
  0
VERTEX
  5
7DE
  8
0
 10
0.0004258195095375
 20
0.0003724524701228
 30
0.0
  0
VERTEX
  5
7DF
  8
0
 10
0.0004248458674697
 20
0.0003716057949379
 30
0.0
  0
VERTEX
  5
7E0
  8
0
 10
0.0004147891060251
 20
0.0003685169407579
 30
0.0
  0
VERTEX
  5
7E1
  8
0
 10
0.0004065468272225
 20
0.000367991725734
 30
0.0
  0
VERTEX
  5
7E2
  8
0
 10
0.0004024886459601
 20
0.0003727026142058
 30
0.0
  0
VERTEX
  5
7E3
  8
0
 10
0.0004015624499712
 20
0.0003751064613217
 30
0.0
  0
VERTEX
  5
7E4
  8
0
 10
0.0003953031883865
 20
0.0003745853236464
 30
0.0
  0
VERTEX
  5
7E5
  8
0
 10
0.0003931415370253
 20
0.0003722033391233
 30
0.0
  0
VERTEX
  5
7E6
  8
0
 10
0.00039395609371
 20
0.0003698147758109
 30
0.0
  0
VERTEX
  5
7E7
  8
0
 10
0.0003952959467153
 20
0.0003624047826548
 30
0.0
  0
VERTEX
  5
7E8
  8
0
 10
0.0003931217756428
 20
0.0003591947711882
 30
0.0
  0
VERTEX
  5
7E9
  8
0
 10
0.0003912297733495
 20
0.0003588537247455
 30
0.0
  0
VERTEX
  5
7EA
  8
0
 10
0.0003921161213859
 20
0.000342899397553
 30
0.0
  0
VERTEX
  5
7EB
  8
0
 10
0.0003890309318167
 20
0.0003376153664511
 30
0.0
  0
VERTEX
  5
7EC
  8
0
 10
0.0003826219152232
 20
0.0003326368238105
 30
0.0
  0
VERTEX
  5
7ED
  8
0
 10
0.0003813852278913
 20
0.0003295915447298
 30
0.0
  0
VERTEX
  5
7EE
  8
0
 10
0.0003793484547099
 20
0.0003188083085857
 30
0.0
  0
VERTEX
  5
7EF
  8
0
 10
0.0003742475165695
 20
0.0003050798885158
 30
0.0
  0
VERTEX
  5
7F0
  8
0
 10
0.0003627228158419
 20
0.0002821420888432
 30
0.0
  0
VERTEX
  5
7F1
  8
0
 10
0.0003585981400287
 20
0.0002802130777328
 30
0.0
  0
VERTEX
  5
7F2
  8
0
 10
0.0003557258856101
 20
0.000284352211874
 30
0.0
  0
VERTEX
  5
7F3
  8
0
 10
0.0003553185134638
 20
0.0002866099623383
 30
0.0
  0
VERTEX
  5
7F4
  8
0
 10
0.0003538216262567
 20
0.0003056666014624
 30
0.0
  0
VERTEX
  5
7F5
  8
0
 10
0.0003499707581567
 20
0.0003192711376753
 30
0.0
  0
VERTEX
  5
7F6
  8
0
 10
0.0003494394146028
 20
0.0003276272382893
 30
0.0
  0
VERTEX
  5
7F7
  8
0
 10
0.0003489071079942
 20
0.000333033114574
 30
0.0
  0
VERTEX
  5
7F8
  8
0
 10
0.0003464990209361
 20
0.0003347641491499
 30
0.0
  0
VERTEX
  5
7F9
  8
0
 10
0.0003399394676334
 20
0.0003333959610736
 30
0.0
  0
VERTEX
  5
7FA
  8
0
 10
0.0003359625644371
 20
0.0003380966311595
 30
0.0
  0
VERTEX
  5
7FB
  8
0
 10
0.0003370255767322
 20
0.0003507079202621
 30
0.0
  0
VERTEX
  5
7FC
  8
0
 10
0.0003408471654673
 20
0.0003544451479052
 30
0.0
  0
VERTEX
  5
7FD
  8
0
 10
0.0003471970479996
 20
0.0003578973613802
 30
0.0
  0
VERTEX
  5
7FE
  8
0
 10
0.0003488098394675
 20
0.00036110131936
 30
0.0
  0
VERTEX
  5
7FF
  8
0
 10
0.0003539420080967
 20
0.0003562136665719
 30
0.0
  0
VERTEX
  5
800
  8
0
 10
0.0003572022860167
 20
0.000359607071173
 30
0.0
  0
VERTEX
  5
801
  8
0
 10
0.0003635385356966
 20
0.0003706279316887
 30
0.0
  0
VERTEX
  5
802
  8
0
 10
0.0003699429871606
 20
0.0003731303605877
 30
0.0
  0
VERTEX
  5
803
  8
0
 10
0.0003735344058178
 20
0.0003696148106309
 30
0.0
  0
VERTEX
  5
804
  8
0
 10
0.0003757019293113
 20
0.0003675239562988
 30
0.0
  0
VERTEX
  5
805
  8
0
 10
0.0003768189226995
 20
0.0003693279078749
 30
0.0
  0
VERTEX
  5
806
  8
0
 10
0.0003763811205254
 20
0.0003723196311075
 30
0.0
  0
VERTEX
  5
807
  8
0
 10
0.0003841102349954
 20
0.0003743402950099
 30
0.0
  0
VERTEX
  5
808
  8
0
 10
0.000399089663146
 20
0.0003815100122671
 30
0.0
  0
VERTEX
  5
809
  8
0
 10
0.0004122183252553
 20
0.0003819077913878
 30
0.0
  0
VERTEX
  5
80A
  8
0
 10
0.0004146974657403
 20
0.0003823575754635
 30
0.0
  0
VERTEX
  5
80B
  8
0
 10
0.000416678694428
 20
0.0003857984073827
 30
0.0
  0
VERTEX
  5
80C
  8
0
 10
0.0004215719942187
 20
0.0003864660419402
 30
0.0
  0
VERTEX
  5
80D
  8
0
 10
0.0004240254699207
 20
0.0003904397307849
 30
0.0
  0
VERTEX
  5
80E
  8
0
 10
0.0004239157692331
 20
0.0003911336930072
 30
0.0
  0
VERTEX
  5
80F
  8
0
 10
0.0004196059055016
 20
0.0003914210335153
 30
0.0
  0
VERTEX
  5
810
  8
0
 10
0.0004184826272433
 20
0.0003915147124744
 30
0.0
  0
VERTEX
  5
811
  8
0
 10
0.0004250554694504
 20
0.0003947623581183
 30
0.0
  0
SEQEND
  5
119E
  8
0
  0
POLYLINE
  5
106
  8
0
 66
     1
 10
0.0
 20
0.0
 30
0.0
 70
     1
  0
VERTEX
  5
812
  8
0
 10
0.0003386389310243
 20
0.0001441452026367
 30
0.0
  0
VERTEX
  5
813
  8
0
 10
0.000338112527816
 20
0.0001311278046155
 30
0.0
  0
VERTEX
  5
814
  8
0
 10
0.0003392405775727
 20
0.000092473914975
 30
0.0
  0
VERTEX
  5
815
  8
0
 10
0.0003394066107078
 20
0.0000892481569384
 30
0.0
  0
VERTEX
  5
816
  8
0
 10
0.0003384592150078
 20
0.0000932239469935
 30
0.0
  0
VERTEX
  5
817
  8
0
 10
0.0003362750944544
 20
0.000119413557209
 30
0.0
  0
SEQEND
  5
119F
  8
0
  0
POLYLINE
  5
107
  8
0
 66
     1
 10
0.0
 20
0.0
 30
0.0
 70
     1
  0
VERTEX
  5
818
  8
0
 10
0.0007581689303039
 20
0.0008945869570873
 30
0.0
  0
VERTEX
  5
819
  8
0
 10
0.0007573538858382
 20
0.0008814048391874
 30
0.0
  0
VERTEX
  5
81A
  8
0
 10
0.0007580238467357
 20
0.00087077076396
 30
0.0
  0
VERTEX
  5
81B
  8
0
 10
0.000763495373335
 20
0.0008603538638256
 30
0.0
  0
VERTEX
  5
81C
  8
0
 10
0.0007629215678231
 20
0.0008595038492171
 30
0.0
  0
VERTEX
  5
81D
  8
0
 10
0.000773761161429
 20
0.0008544015853131
 30
0.0
  0
VERTEX
  5
81E
  8
0
 10
0.0007650682793289
 20
0.0008690161032755
 30
0.0
  0
VERTEX
  5
81F
  8
0
 10
0.0007688748218974
 20
0.0008727021014104
 30
0.0
  0
VERTEX
  5
820
  8
0
 10
0.0007736139766506
 20
0.000882632196145
 30
0.0
  0
VERTEX
  5
821
  8
0
 10
0.0007636309264136
 20
0.0008784809050013
 30
0.0
  0
VERTEX
  5
822
  8
0
 10
0.0007623491130891
 20
0.0008897255819352
 30
0.0
  0
VERTEX
  5
823
  8
0
 10
0.000763279899222
 20
0.0008986714847752
 30
0.0
  0
VERTEX
  5
824
  8
0
 10
0.0007840130915407
 20
0.0009131693855661
 30
0.0
  0
VERTEX
  5
825
  8
0
 10
0.0007879250698402
 20
0.000916047668457
 30
0.0
  0
VERTEX
  5
826
  8
0
 10
0.0007866973126521
 20
0.0009228306504547
 30
0.0
  0
VERTEX
  5
827
  8
0
 10
0.0007866028582464
 20
0.0009273542560515
 30
0.0
  0
VERTEX
  5
828
  8
0
 10
0.0007905348480725
 20
0.0009290146624456
 30
0.0
  0
VERTEX
  5
829
  8
0
 10
0.0008053165623399
 20
0.0009324593966124
 30
0.0
  0
VERTEX
  5
82A
  8
0
 10
0.0008109723200564
 20
0.0009300202416592
 30
0.0
  0
VERTEX
  5
82B
  8
0
 10
0.0008121112510806
 20
0.0009293952816822
 30
0.0
  0
VERTEX
  5
82C
  8
0
 10
0.0008092742419634
 20
0.0009216155505571
 30
0.0
  0
VERTEX
  5
82D
  8
0
 10
0.0008127857896148
 20
0.0009187954011511
 30
0.0
  0
VERTEX
  5
82E
  8
0
 10
0.0008199388347688
 20
0.0009144250588339
 30
0.0
  0
VERTEX
  5
82F
  8
0
 10
0.0008287763501777
 20
0.0009045192781042
 30
0.0
  0
VERTEX
  5
830
  8
0
 10
0.0008313795996494
 20
0.000901005604228
 30
0.0
  0
VERTEX
  5
831
  8
0
 10
0.0008321021658475
 20
0.0009016798676037
 30
0.0
  0
VERTEX
  5
832
  8
0
 10
0.0008310849049052
 20
0.0009075649073867
 30
0.0
  0
VERTEX
  5
833
  8
0
 10
0.0008453174778673
 20
0.0009020379488585
 30
0.0
  0
VERTEX
  5
834
  8
0
 10
0.0008482675020812
 20
0.0008986889198178
 30
0.0
  0
VERTEX
  5
835
  8
0
 10
0.0008390004642674
 20
0.0008949493158059
 30
0.0
  0
VERTEX
  5
836
  8
0
 10
0.0008390523691646
 20
0.0008933404641073
 30
0.0
  0
VERTEX
  5
837
  8
0
 10
0.0008507584368596
 20
0.00089342701396
 30
0.0
  0
VERTEX
  5
838
  8
0
 10
0.0008622217147077
 20
0.0008895398499536
 30
0.0
  0
VERTEX
  5
839
  8
0
 10
0.00086857772577
 20
0.0008805311859631
 30
0.0
  0
VERTEX
  5
83A
  8
0
 10
0.0008562878968286
 20
0.0008823924330414
 30
0.0
  0
VERTEX
  5
83B
  8
0
 10
0.0008429803816999
 20
0.0008831600752033
 30
0.0
  0
VERTEX
  5
83C
  8
0
 10
0.0008220979534212
 20
0.0008879957355437
 30
0.0
  0
VERTEX
  5
83D
  8
0
 10
0.0008091133743036
 20
0.0008916609967341
 30
0.0
  0
VERTEX
  5
83E
  8
0
 10
0.0007985419101402
 20
0.0008904019465212
 30
0.0
  0
VERTEX
  5
83F
  8
0
 10
0.0008189778812596
 20
0.0008848215822314
 30
0.0
  0
VERTEX
  5
840
  8
0
 10
0.0008247316454278
 20
0.0008807520631884
 30
0.0
  0
VERTEX
  5
841
  8
0
 10
0.0008248578181032
 20
0.0008806057288998
 30
0.0
  0
VERTEX
  5
842
  8
0
 10
0.0008176906648229
 20
0.0008768722284036
 30
0.0
  0
VERTEX
  5
843
  8
0
 10
0.0008305081727075
 20
0.0008687960515257
 30
0.0
  0
VERTEX
  5
844
  8
0
 10
0.0008352503792184
 20
0.0008598432196945
 30
0.0
  0
VERTEX
  5
845
  8
0
 10
0.0008366171664879
 20
0.0008636536394964
 30
0.0
  0
VERTEX
  5
846
  8
0
 10
0.0008411376953125
 20
0.0008694591834897
 30
0.0
  0
VERTEX
  5
847
  8
0
 10
0.0008481959608735
 20
0.0008675075343398
 30
0.0
  0
VERTEX
  5
848
  8
0
 10
0.0008512831891169
 20
0.0008599001775022
 30
0.0
  0
VERTEX
  5
849
  8
0
 10
0.0008535822633837
 20
0.0008543033537318
 30
0.0
  0
VERTEX
  5
84A
  8
0
 10
0.000854696505187
 20
0.0008648532554752
 30
0.0
  0
VERTEX
  5
84B
  8
0
 10
0.0008566723432697
 20
0.0008691719430392
 30
0.0
  0
VERTEX
  5
84C
  8
0
 10
0.0008573768740795
 20
0.0008702596445553
 30
0.0
  0
VERTEX
  5
84D
  8
0
 10
0.0008611199801085
 20
0.0008642969100202
 30
0.0
  0
VERTEX
  5
84E
  8
0
 10
0.0008616870067159
 20
0.0008605673117716
 30
0.0
  0
VERTEX
  5
84F
  8
0
 10
0.0008616934854476
 20
0.0008605679121174
 30
0.0
  0
VERTEX
  5
850
  8
0
 10
0.0008653092931529
 20
0.0008679352056785
 30
0.0
  0
VERTEX
  5
851
  8
0
 10
0.0008692232225762
 20
0.000870498131924
 30
0.0
  0
VERTEX
  5
852
  8
0
 10
0.0008735040383261
 20
0.0008674364934202
 30
0.0
  0
VERTEX
  5
853
  8
0
 10
0.0008880604478179
 20
0.0008476985743788
 30
0.0
  0
VERTEX
  5
854
  8
0
 10
0.0008939696014905
 20
0.0008399689971424
 30
0.0
  0
VERTEX
  5
855
  8
0
 10
0.0008988568665551
 20
0.0008353084376601
 30
0.0
  0
VERTEX
  5
856
  8
0
 10
0.0008996339891778
 20
0.0008362410998735
 30
0.0
  0
VERTEX
  5
857
  8
0
 10
0.0008793867767834
 20
0.0008697352675141
 30
0.0
  0
VERTEX
  5
858
  8
0
 10
0.0008903960431208
 20
0.0008694741170914
 30
0.0
  0
VERTEX
  5
859
  8
0
 10
0.0008976440429688
 20
0.0008672340267994
 30
0.0
  0
VERTEX
  5
85A
  8
0
 10
0.0009203505719294
 20
0.0008514426809842
 30
0.0
  0
VERTEX
  5
85B
  8
0
 10
0.0009299089275423
 20
0.0008393783069048
 30
0.0
  0
VERTEX
  5
85C
  8
0
 10
0.0009415858534516
 20
0.0008204871756132
 30
0.0
  0
VERTEX
  5
85D
  8
0
 10
0.0009447513267642
 20
0.0008148191358222
 30
0.0
  0
VERTEX
  5
85E
  8
0
 10
0.0009497694171843
 20
0.000802127300325
 30
0.0
  0
VERTEX
  5
85F
  8
0
 10
0.0009455108642578
 20
0.0008045821893411
 30
0.0
  0
VERTEX
  5
860
  8
0
 10
0.0009218049596568
 20
0.0008183300080847
 30
0.0
  0
VERTEX
  5
861
  8
0
 10
0.0009146423339844
 20
0.0008200955250224
 30
0.0
  0
VERTEX
  5
862
  8
0
 10
0.0008862060797019
 20
0.0008198624157515
 30
0.0
  0
VERTEX
  5
863
  8
0
 10
0.0008722198486328
 20
0.0008234663916416
 30
0.0
  0
VERTEX
  5
864
  8
0
 10
0.0008576187383933
 20
0.0008306439759301
 30
0.0
  0
VERTEX
  5
865
  8
0
 10
0.0008388830466349
 20
0.0008321312576044
 30
0.0
  0
VERTEX
  5
866
  8
0
 10
0.0008213145771965
 20
0.0008289205082127
 30
0.0
  0
VERTEX
  5
867
  8
0
 10
0.0008183984725202
 20
0.000827257550349
 30
0.0
  0
VERTEX
  5
868
  8
0
 10
0.0008112629624664
 20
0.0008208707715644
 30
0.0
  0
VERTEX
  5
869
  8
0
 10
0.0008018526421219
 20
0.0008184222862369
 30
0.0
  0
VERTEX
  5
86A
  8
0
 10
0.0007676580460345
 20
0.0008142367003394
 30
0.0
  0
VERTEX
  5
86B
  8
0
 10
0.0007629696205014
 20
0.0008140422133149
 30
0.0
  0
VERTEX
  5
86C
  8
0
 10
0.0007595780419522
 20
0.0008133109671171
 30
0.0
  0
VERTEX
  5
86D
  8
0
 10
0.0007697179325291
 20
0.0008093076361985
 30
0.0
  0
VERTEX
  5
86E
  8
0
 10
0.0007867378610079
 20
0.0007999940715852
 30
0.0
  0
VERTEX
  5
86F
  8
0
 10
0.0007873063134365
 20
0.0007994622402504
 30
0.0
  0
VERTEX
  5
870
  8
0
 10
0.0007781656233991
 20
0.0007883024372038
 30
0.0
  0
VERTEX
  5
871
  8
0
 10
0.0007638924770668
 20
0.0007689951412013
 30
0.0
  0
VERTEX
  5
872
  8
0
 10
0.0007556490788694
 20
0.0007847194233879
 30
0.0
  0
VERTEX
  5
873
  8
0
 10
0.0007473010454022
 20
0.0008011038858382
 30
0.0
  0
VERTEX
  5
874
  8
0
 10
0.000744798303823
 20
0.0008046253391954
 30
0.0
  0
VERTEX
  5
875
  8
0
 10
0.0007387184518283
 20
0.0008166142948338
 30
0.0
  0
VERTEX
  5
876
  8
0
 10
0.0007388827714764
 20
0.0008273064034884
 30
0.0
  0
VERTEX
  5
877
  8
0
 10
0.0007388930774126
 20
0.0008579539564789
 30
0.0
  0
VERTEX
  5
878
  8
0
 10
0.0007389742741819
 20
0.0008600746279857
 30
0.0
  0
VERTEX
  5
879
  8
0
 10
0.000748930684074
 20
0.0008803532834913
 30
0.0
  0
VERTEX
  5
87A
  8
0
 10
0.0007577388825964
 20
0.0008941847504162
 30
0.0
  0
SEQEND
  5
11A0
  8
0
  0
POLYLINE
  5
108
  8
0
 66
     1
 10
0.0
 20
0.0
 30
0.0
 70
     1
  0
VERTEX
  5
87B
  8
0
 10
0.0007132546346696
 20
0.0008425271956647
 30
0.0
  0
VERTEX
  5
87C
  8
0
 10
0.0007240658869509
 20
0.0008451145109583
 30
0.0
  0
VERTEX
  5
87D
  8
0
 10
0.0007310114375881
 20
0.000845906216981
 30
0.0
  0
VERTEX
  5
87E
  8
0
 10
0.0007334574464892
 20
0.0008499416413854
 30
0.0
  0
VERTEX
  5
87F
  8
0
 10
0.0007360392085841
 20
0.0008546839729684
 30
0.0
  0
VERTEX
  5
880
  8
0
 10
0.0007360514406298
 20
0.0008546816966573
 30
0.0
  0
VERTEX
  5
881
  8
0
 10
0.0007360664492748
 20
0.0008340897857166
 30
0.0
  0
VERTEX
  5
882
  8
0
 10
0.0007351393652744
 20
0.0008165534848073
 30
0.0
  0
VERTEX
  5
883
  8
0
 10
0.0007350181954806
 20
0.0008159648457512
 30
0.0
  0
VERTEX
  5
884
  8
0
 10
0.000735017545106
 20
0.0008159648457512
 30
0.0
  0
VERTEX
  5
885
  8
0
 10
0.0007165270946065
 20
0.0008393485897877
 30
0.0
  0
SEQEND
  5
11A1
  8
0
  0
POLYLINE
  5
109
  8
0
 66
     1
 10
0.0
 20
0.0
 30
0.0
 70
     1
  0
VERTEX
  5
886
  8
0
 10
0.0002396537405546
 20
0.0008688793495053
 30
0.0
  0
VERTEX
  5
887
  8
0
 10
0.0002286883494893
 20
0.0008698682190942
 30
0.0
  0
VERTEX
  5
888
  8
0
 10
0.0002083528362337
 20
0.0008656421598841
 30
0.0
  0
VERTEX
  5
889
  8
0
 10
0.0002039336407771
 20
0.0008612994835025
 30
0.0
  0
VERTEX
  5
88A
  8
0
 10
0.0001937242351595
 20
0.0008436122456535
 30
0.0
  0
VERTEX
  5
88B
  8
0
 10
0.0001947125794458
 20
0.0008565571519195
 30
0.0
  0
VERTEX
  5
88C
  8
0
 10
0.0001981517854284
 20
0.0008655453291096
 30
0.0
  0
VERTEX
  5
88D
  8
0
 10
0.0001814592705398
 20
0.0008476406159948
 30
0.0
  0
VERTEX
  5
88E
  8
0
 10
0.0001686018146452
 20
0.0008333873811315
 30
0.0
  0
VERTEX
  5
88F
  8
0
 10
0.0001537351014184
 20
0.0008127898169346
 30
0.0
  0
VERTEX
  5
890
  8
0
 10
0.0001500461765977
 20
0.0008013944281906
 30
0.0
  0
VERTEX
  5
891
  8
0
 10
0.000137305237817
 20
0.0007876148161341
 30
0.0
  0
VERTEX
  5
892
  8
0
 10
0.0001241180670066
 20
0.0007832645353724
 30
0.0
  0
VERTEX
  5
893
  8
0
 10
0.0001263692386815
 20
0.0007873777045578
 30
0.0
  0
VERTEX
  5
894
  8
0
 10
0.000160010991331
 20
0.000838918892282
 30
0.0
  0
VERTEX
  5
895
  8
0
 10
0.0001636264488345
 20
0.000843082215356
 30
0.0
  0
VERTEX
  5
896
  8
0
 10
0.0001680150766842
 20
0.0008494617399622
 30
0.0
  0
VERTEX
  5
897
  8
0
 10
0.0001905829007508
 20
0.0008702390326828
 30
0.0
  0
VERTEX
  5
898
  8
0
 10
0.0002021899864322
 20
0.0008747085321145
 30
0.0
  0
VERTEX
  5
899
  8
0
 10
0.0002152439054896
 20
0.0008838255335073
 30
0.0
  0
VERTEX
  5
89A
  8
0
 10
0.0002467390216765
 20
0.0009140641759654
 30
0.0
  0
VERTEX
  5
89B
  8
0
 10
0.0002574512919442
 20
0.0009227319936283
 30
0.0
  0
VERTEX
  5
89C
  8
0
 10
0.000259312388936
 20
0.0009226244817015
 30
0.0
  0
VERTEX
  5
89D
  8
0
 10
0.000254480605829
 20
0.0009123570926854
 30
0.0
  0
VERTEX
  5
89E
  8
0
 10
0.0002493890981205
 20
0.000906263782939
 30
0.0
  0
VERTEX
  5
89F
  8
0
 10
0.0002383290525343
 20
0.0008907891445473
 30
0.0
  0
VERTEX
  5
8A0
  8
0
 10
0.0002328531484135
 20
0.0008825142281954
 30
0.0
  0
VERTEX
  5
8A1
  8
0
 10
0.0002445912345511
 20
0.0008883639726482
 30
0.0
  0
VERTEX
  5
8A2
  8
0
 10
0.0002417665325227
 20
0.0008766556786709
 30
0.0
  0
SEQEND
  5
11A2
  8
0
  0
POLYLINE
  5
10A
  8
0
 66
     1
 10
0.0
 20
0.0
 30
0.0
 70
     1
  0
VERTEX
  5
8A3
  8
0
 10
0.0004532930217805
 20
0.0009405923812116
 30
0.0
  0
VERTEX
  5
8A4
  8
0
 10
0.0004591397895188
 20
0.0009070641689613
 30
0.0
  0
VERTEX
  5
8A5
  8
0
 10
0.0004612366222944
 20
0.0008961613639456
 30
0.0
  0
VERTEX
  5
8A6
  8
0
 10
0.0004643991564141
 20
0.0008846794503634
 30
0.0
  0
VERTEX
  5
8A7
  8
0
 10
0.0004647461125108
 20
0.0008807257230165
 30
0.0
  0
VERTEX
  5
8A8
  8
0
 10
0.0004701911457249
 20
0.0008661868486248
 30
0.0
  0
VERTEX
  5
8A9
  8
0
 10
0.0004714722305048
 20
0.0008632826508069
 30
0.0
  0
VERTEX
  5
8AA
  8
0
 10
0.0004719416446373
 20
0.0008623156688252
 30
0.0
  0
VERTEX
  5
8AB
  8
0
 10
0.0004719392620149
 20
0.000941604564229
 30
0.0
  0
VERTEX
  5
8AC
  8
0
 10
0.0004719392307469
 20
0.0009424219850634
 30
0.0
  0
VERTEX
  5
8AD
  8
0
 10
0.0004710462663994
 20
0.0009444373459112
 30
0.0
  0
VERTEX
  5
8AE
  8
0
 10
0.0004699326999852
 20
0.0009458566134093
 30
0.0
  0
VERTEX
  5
8AF
  8
0
 10
0.0004652833907331
 20
0.0009459273041272
 30
0.0
  0
SEQEND
  5
11A3
  8
0
  0
POLYLINE
  5
10B
  8
0
 66
     1
 10
0.0
 20
0.0
 30
0.0
 70
     1
  0
VERTEX
  5
8B0
  8
0
 10
0.0004505642625152
 20
0.0009388946032915
 30
0.0
  0
VERTEX
  5
8B1
  8
0
 10
0.0004411790628902
 20
0.0009283671394723
 30
0.0
  0
VERTEX
  5
8B2
  8
0
 10
0.0004358952631716
 20
0.0009094260293929
 30
0.0
  0
VERTEX
  5
8B3
  8
0
 10
0.0004292675205919
 20
0.000893235678751
 30
0.0
  0
VERTEX
  5
8B4
  8
0
 10
0.0004208051212498
 20
0.0008871991767258
 30
0.0
  0
VERTEX
  5
8B5
  8
0
 10
0.0004096306222384
 20
0.000877410038182
 30
0.0
  0
VERTEX
  5
8B6
  8
0
 10
0.0003955902412289
 20
0.000865369402776
 30
0.0
  0
VERTEX
  5
8B7
  8
0
 10
0.0004095957834213
 20
0.0008876078621286
 30
0.0
  0
VERTEX
  5
8B8
  8
0
 10
0.0004144687339908
 20
0.0009019520994093
 30
0.0
  0
VERTEX
  5
8B9
  8
0
 10
0.0004123832827709
 20
0.0009062195324507
 30
0.0
  0
VERTEX
  5
8BA
  8
0
 10
0.0004143455317763
 20
0.0009122189381084
 30
0.0
  0
VERTEX
  5
8BB
  8
0
 10
0.0004024625059034
 20
0.0009131229838387
 30
0.0
  0
VERTEX
  5
8BC
  8
0
 10
0.0003991429188212
 20
0.0009115755425125
 30
0.0
  0
VERTEX
  5
8BD
  8
0
 10
0.0003963888824963
 20
0.0009065892954342
 30
0.0
  0
VERTEX
  5
8BE
  8
0
 10
0.0003903221130371
 20
0.0009017876797035
 30
0.0
  0
VERTEX
  5
8BF
  8
0
 10
0.0003782665440294
 20
0.0008959297805536
 30
0.0
  0
VERTEX
  5
8C0
  8
0
 10
0.0003762459176486
 20
0.0008912170410156
 30
0.0
  0
VERTEX
  5
8C1
  8
0
 10
0.0003788948059082
 20
0.0008875988319272
 30
0.0
  0
VERTEX
  5
8C2
  8
0
 10
0.0003878976665559
 20
0.0008759526987545
 30
0.0
  0
VERTEX
  5
8C3
  8
0
 10
0.0003891905862777
 20
0.000870774316006
 30
0.0
  0
VERTEX
  5
8C4
  8
0
 10
0.0003850137304087
 20
0.0008770346719711
 30
0.0
  0
VERTEX
  5
8C5
  8
0
 10
0.0003803373493132
 20
0.0008815713601034
 30
0.0
  0
VERTEX
  5
8C6
  8
0
 10
0.0003764781889368
 20
0.0008814691012023
 30
0.0
  0
VERTEX
  5
8C7
  8
0
 10
0.0003756230713891
 20
0.0008606238193199
 30
0.0
  0
VERTEX
  5
8C8
  8
0
 10
0.0003724377991723
 20
0.0008538615742668
 30
0.0
  0
VERTEX
  5
8C9
  8
0
 10
0.0003720189579198
 20
0.0008533686403368
 30
0.0
  0
VERTEX
  5
8CA
  8
0
 10
0.0003728988397317
 20
0.0008636822809939
 30
0.0
  0
VERTEX
  5
8CB
  8
0
 10
0.0003722977935291
 20
0.0008717157332624
 30
0.0
  0
VERTEX
  5
8CC
  8
0
 10
0.0003711121606045
 20
0.000879753788182
 30
0.0
  0
VERTEX
  5
8CD
  8
0
 10
0.000369302180556
 20
0.0008916218741995
 30
0.0
  0
VERTEX
  5
8CE
  8
0
 10
0.0003689698266201
 20
0.0008930734853275
 30
0.0
  0
VERTEX
  5
8CF
  8
0
 10
0.0003709408244149
 20
0.0008971731217181
 30
0.0
  0
VERTEX
  5
8D0
  8
0
 10
0.0003651640094695
 20
0.0008993174818696
 30
0.0
  0
VERTEX
  5
8D1
  8
0
 10
0.0003852390351843
 20
0.0009050487330702
 30
0.0
  0
VERTEX
  5
8D2
  8
0
 10
0.0003954970187828
 20
0.0009103225708008
 30
0.0
  0
VERTEX
  5
8D3
  8
0
 10
0.0003995636361544
 20
0.0009152436553455
 30
0.0
  0
VERTEX
  5
8D4
  8
0
 10
0.0004061563272945
 20
0.0009182041856109
 30
0.0
  0
VERTEX
  5
8D5
  8
0
 10
0.0004144459020896
 20
0.0009210459224513
 30
0.0
  0
VERTEX
  5
8D6
  8
0
 10
0.0004166340812308
 20
0.0009217674380443
 30
0.0
  0
VERTEX
  5
8D7
  8
0
 10
0.0004063036121306
 20
0.0009252415891554
 30
0.0
  0
VERTEX
  5
8D8
  8
0
 10
0.0004331659348285
 20
0.0009372980336674
 30
0.0
  0
VERTEX
  5
8D9
  8
0
 10
0.0004402070592661
 20
0.0009445256968014
 30
0.0
  0
VERTEX
  5
8DA
  8
0
 10
0.0004009850861596
 20
0.0009314766305392
 30
0.0
  0
VERTEX
  5
8DB
  8
0
 10
0.0003707729777352
 20
0.0009206709064421
 30
0.0
  0
VERTEX
  5
8DC
  8
0
 10
0.0003575226080222
 20
0.0009135537319496
 30
0.0
  0
VERTEX
  5
8DD
  8
0
 10
0.0003499185655938
 20
0.0009094265546955
 30
0.0
  0
VERTEX
  5
8DE
  8
0
 10
0.0003436641005219
 20
0.0009112348462715
 30
0.0
  0
VERTEX
  5
8DF
  8
0
 10
0.0003409002710561
 20
0.0009151680117748
 30
0.0
  0
VERTEX
  5
8E0
  8
0
 10
0.0003396740772685
 20
0.000913723579782
 30
0.0
  0
VERTEX
  5
8E1
  8
0
 10
0.0003420808010414
 20
0.0008918666151703
 30
0.0
  0
VERTEX
  5
8E2
  8
0
 10
0.0003303444909268
 20
0.0008795115736664
 30
0.0
  0
VERTEX
  5
8E3
  8
0
 10
0.0003251998651223
 20
0.0008592171590836
 30
0.0
  0
VERTEX
  5
8E4
  8
0
 10
0.0003194839602611
 20
0.0008767578375144
 30
0.0
  0
VERTEX
  5
8E5
  8
0
 10
0.0003210422328261
 20
0.0008826020787974
 30
0.0
  0
VERTEX
  5
8E6
  8
0
 10
0.0003220089896781
 20
0.0008871821419137
 30
0.0
  0
VERTEX
  5
8E7
  8
0
 10
0.0003257057565158
 20
0.0008948715710249
 30
0.0
  0
VERTEX
  5
8E8
  8
0
 10
0.0003291669751777
 20
0.0008999988243228
 30
0.0
  0
VERTEX
  5
8E9
  8
0
 10
0.0003319481521356
 20
0.0009063756723873
 30
0.0
  0
VERTEX
  5
8EA
  8
0
 10
0.0003206133232742
 20
0.0009057383552926
 30
0.0
  0
VERTEX
  5
8EB
  8
0
 10
0.0003161544174444
 20
0.0009027179905626
 30
0.0
  0
VERTEX
  5
8EC
  8
0
 10
0.0003149400054431
 20
0.0009004836785989
 30
0.0
  0
VERTEX
  5
8ED
  8
0
 10
0.0003127360609711
 20
0.0008998439100922
 30
0.0
  0
VERTEX
  5
8EE
  8
0
 10
0.0003119664176566
 20
0.0008955781029873
 30
0.0
  0
VERTEX
  5
8EF
  8
0
 10
0.0003110333051838
 20
0.0008848887459176
 30
0.0
  0
VERTEX
  5
8F0
  8
0
 10
0.0003097940913966
 20
0.0008822501761014
 30
0.0
  0
VERTEX
  5
8F1
  8
0
 10
0.0003067007596376
 20
0.000875334017394
 30
0.0
  0
VERTEX
  5
8F2
  8
0
 10
0.0002983804921635
 20
0.0008714389488345
 30
0.0
  0
VERTEX
  5
8F3
  8
0
 10
0.0003064222617228
 20
0.0008874911448995
 30
0.0
  0
VERTEX
  5
8F4
  8
0
 10
0.0003066501930112
 20
0.0009012386634702
 30
0.0
  0
VERTEX
  5
8F5
  8
0
 10
0.0003027138131564
 20
0.0008995415609391
 30
0.0
  0
VERTEX
  5
8F6
  8
0
 10
0.0002986163154977
 20
0.0008856499343622
 30
0.0
  0
VERTEX
  5
8F7
  8
0
 10
0.0002931725673988
 20
0.000876347150959
 30
0.0
  0
VERTEX
  5
8F8
  8
0
 10
0.0002861259585521
 20
0.0008762864660044
 30
0.0
  0
VERTEX
  5
8F9
  8
0
 10
0.0002765089941806
 20
0.0008755962434362
 30
0.0
  0
VERTEX
  5
8FA
  8
0
 10
0.0002721144129018
 20
0.0008729067943135
 30
0.0
  0
VERTEX
  5
8FB
  8
0
 10
0.0002725306776703
 20
0.0008832805445937
 30
0.0
  0
VERTEX
  5
8FC
  8
0
 10
0.0002711425030818
 20
0.0008890568467437
 30
0.0
  0
VERTEX
  5
8FD
  8
0
 10
0.0002667155281442
 20
0.0008890353093382
 30
0.0
  0
VERTEX
  5
8FE
  8
0
 10
0.0002631552774398
 20
0.000886631324643
 30
0.0
  0
VERTEX
  5
8FF
  8
0
 10
0.0002567192202709
 20
0.0008802089503554
 30
0.0
  0
VERTEX
  5
900
  8
0
 10
0.000251429798564
 20
0.0008761993658347
 30
0.0
  0
VERTEX
  5
901
  8
0
 10
0.0002441864013672
 20
0.0008694211115603
 30
0.0
  0
VERTEX
  5
902
  8
0
 10
0.0002547612674901
 20
0.000872031164951
 30
0.0
  0
VERTEX
  5
903
  8
0
 10
0.0002585179813573
 20
0.0008720846707704
 30
0.0
  0
VERTEX
  5
904
  8
0
 10
0.000250356930592
 20
0.0008635111574267
 30
0.0
  0
VERTEX
  5
905
  8
0
 10
0.0002575313630651
 20
0.0008591773361456
 30
0.0
  0
VERTEX
  5
906
  8
0
 10
0.0002408604105965
 20
0.0008544911118804
 30
0.0
  0
VERTEX
  5
907
  8
0
 10
0.0002169753027744
 20
0.0008385004512599
 30
0.0
  0
VERTEX
  5
908
  8
0
 10
0.0002309239121734
 20
0.0008422811039159
 30
0.0
  0
VERTEX
  5
909
  8
0
 10
0.0002417169789799
 20
0.0008494173894163
 30
0.0
  0
VERTEX
  5
90A
  8
0
 10
0.0002502182006836
 20
0.0008513933775855
 30
0.0
  0
VERTEX
  5
90B
  8
0
 10
0.0002580127903673
 20
0.0008488669223473
 30
0.0
  0
VERTEX
  5
90C
  8
0
 10
0.0002612462528416
 20
0.0008440650564725
 30
0.0
  0
VERTEX
  5
90D
  8
0
 10
0.0002580911104796
 20
0.0008334790089091
 30
0.0
  0
VERTEX
  5
90E
  8
0
 10
0.000247245713531
 20
0.0008171980310659
 30
0.0
  0
VERTEX
  5
90F
  8
0
 10
0.0002416208486088
 20
0.0008117150228532
 30
0.0
  0
VERTEX
  5
910
  8
0
 10
0.0002400964205382
 20
0.0008101551993949
 30
0.0
  0
VERTEX
  5
911
  8
0
 10
0.000240751447834
 20
0.0008089649638192
 30
0.0
  0
VERTEX
  5
912
  8
0
 10
0.0002440038462154
 20
0.000810253781178
 30
0.0
  0
VERTEX
  5
913
  8
0
 10
0.0002666290033059
 20
0.000821672458336
 30
0.0
  0
VERTEX
  5
914
  8
0
 10
0.0002768028884638
 20
0.0008252607251777
 30
0.0
  0
VERTEX
  5
915
  8
0
 10
0.0002869619901063
 20
0.0008271217221119
 30
0.0
  0
VERTEX
  5
916
  8
0
 10
0.0003050804138184
 20
0.0008313398517546
 30
0.0
  0
VERTEX
  5
917
  8
0
 10
0.0003221285585497
 20
0.0008348836429784
 30
0.0
  0
VERTEX
  5
918
  8
0
 10
0.0003368686363345
 20
0.000833209128458
 30
0.0
  0
VERTEX
  5
919
  8
0
 10
0.0003144840303015
 20
0.0008286776183081
 30
0.0
  0
VERTEX
  5
91A
  8
0
 10
0.0002675357005635
 20
0.0008081945700724
 30
0.0
  0
VERTEX
  5
91B
  8
0
 10
0.0002675644171043
 20
0.0008066404749136
 30
0.0
  0
VERTEX
  5
91C
  8
0
 10
0.0002903667012199
 20
0.000804414317647
 30
0.0
  0
VERTEX
  5
91D
  8
0
 10
0.0003100664857958
 20
0.0008032298603996
 30
0.0
  0
VERTEX
  5
91E
  8
0
 10
0.0003189085037982
 20
0.0008015714051294
 30
0.0
  0
VERTEX
  5
91F
  8
0
 10
0.0003188641032235
 20
0.0008001364285829
 30
0.0
  0
VERTEX
  5
920
  8
0
 10
0.0003068642913318
 20
0.0007992117709801
 30
0.0
  0
VERTEX
  5
921
  8
0
 10
0.0002671993068007
 20
0.0008015080186187
 30
0.0
  0
VERTEX
  5
922
  8
0
 10
0.0002421649119893
 20
0.0008007175383021
 30
0.0
  0
VERTEX
  5
923
  8
0
 10
0.0001975275258549
 20
0.0007930310358767
 30
0.0
  0
VERTEX
  5
924
  8
0
 10
0.0001913577220479
 20
0.0007911124807889
 30
0.0
  0
VERTEX
  5
925
  8
0
 10
0.0001938267692191
 20
0.000789627975714
 30
0.0
  0
VERTEX
  5
926
  8
0
 10
0.0002143855360688
 20
0.0007822017732214
 30
0.0
  0
VERTEX
  5
927
  8
0
 10
0.0002369620401351
 20
0.0007773843984135
 30
0.0
  0
VERTEX
  5
928
  8
0
 10
0.0002443302842437
 20
0.0007726136004339
 30
0.0
  0
VERTEX
  5
929
  8
0
 10
0.0002594765084689
 20
0.0007680081977219
 30
0.0
  0
VERTEX
  5
92A
  8
0
 10
0.0002783927041976
 20
0.0007683856151143
 30
0.0
  0
VERTEX
  5
92B
  8
0
 10
0.0003148688019299
 20
0.0007716409401815
 30
0.0
  0
VERTEX
  5
92C
  8
0
 10
0.0003377542714604
 20
0.0007789052744381
 30
0.0
  0
VERTEX
  5
92D
  8
0
 10
0.0003494205162173
 20
0.0007873030115346
 30
0.0
  0
VERTEX
  5
92E
  8
0
 10
0.0003565097746302
 20
0.0007915364249808
 30
0.0
  0
VERTEX
  5
92F
  8
0
 10
0.0003667442196705
 20
0.0007938839021276
 30
0.0
  0
VERTEX
  5
930
  8
0
 10
0.0003719638886999
 20
0.0007975186957688
 30
0.0
  0
VERTEX
  5
931
  8
0
 10
0.0003715329404737
 20
0.0008003438730709
 30
0.0
  0
VERTEX
  5
932
  8
0
 10
0.0003701349477299
 20
0.0008038885397989
 30
0.0
  0
VERTEX
  5
933
  8
0
 10
0.0003880953429175
 20
0.0008181054287269
 30
0.0
  0
VERTEX
  5
934
  8
0
 10
0.0003800681192367
 20
0.0008225354053935
 30
0.0
  0
VERTEX
  5
935
  8
0
 10
0.0003863870714532
 20
0.0008244289210585
 30
0.0
  0
VERTEX
  5
936
  8
0
 10
0.0004114894554263
 20
0.0008395882528336
 30
0.0
  0
VERTEX
  5
937
  8
0
 10
0.0004173088011194
 20
0.0008443819890257
 30
0.0
  0
VERTEX
  5
938
  8
0
 10
0.0004231453192039
 20
0.0008439120183226
 30
0.0
  0
VERTEX
  5
939
  8
0
 10
0.0004231463010194
 20
0.0008439081160749
 30
0.0
  0
VERTEX
  5
93A
  8
0
 10
0.0003837161329926
 20
0.0007941251911101
 30
0.0
  0
VERTEX
  5
93B
  8
0
 10
0.0003835754894819
 20
0.0007939122684666
 30
0.0
  0
VERTEX
  5
93C
  8
0
 10
0.0003978458592149
 20
0.0007941827492636
 30
0.0
  0
VERTEX
  5
93D
  8
0
 10
0.0004245615849729
 20
0.0008006085255107
 30
0.0
  0
VERTEX
  5
93E
  8
0
 10
0.0004448716022929
 20
0.0008071242285556
 30
0.0
  0
VERTEX
  5
93F
  8
0
 10
0.0004458523046775
 20
0.0008077032370646
 30
0.0
  0
VERTEX
  5
940
  8
0
 10
0.0004454116758753
 20
0.0008181489537974
 30
0.0
  0
VERTEX
  5
941
  8
0
 10
0.0004451895291688
 20
0.0008332175332992
 30
0.0
  0
VERTEX
  5
942
  8
0
 10
0.000445278161471
 20
0.0008384451694176
 30
0.0
  0
VERTEX
  5
943
  8
0
 10
0.0004465019351146
 20
0.0008381569033763
 30
0.0
  0
VERTEX
  5
944
  8
0
 10
0.0004497902354256
 20
0.0008171452756788
 30
0.0
  0
VERTEX
  5
945
  8
0
 10
0.0004497670189279
 20
0.000816143973929
 30
0.0
  0
VERTEX
  5
946
  8
0
 10
0.000452422673585
 20
0.0008112047289239
 30
0.0
  0
VERTEX
  5
947
  8
0
 10
0.0004602575864948
 20
0.000802230960033
 30
0.0
  0
VERTEX
  5
948
  8
0
 10
0.0004719393526922
 20
0.0007955956631019
 30
0.0
  0
VERTEX
  5
949
  8
0
 10
0.0004719391119285
 20
0.0008438223166544
 30
0.0
  0
VERTEX
  5
94A
  8
0
 10
0.0004719391119285
 20
0.00084463968746
 30
0.0
  0
VERTEX
  5
94B
  8
0
 10
0.0004672463213811
 20
0.0008572609072826
 30
0.0
  0
VERTEX
  5
94C
  8
0
 10
0.0004634279282367
 20
0.0008672375288166
 30
0.0
  0
VERTEX
  5
94D
  8
0
 10
0.0004575131494491
 20
0.0008912760500048
 30
0.0
  0
VERTEX
  5
94E
  8
0
 10
0.0004542148965304
 20
0.0009066678156618
 30
0.0
  0
SEQEND
  5
11A4
  8
0
  0
POLYLINE
  5
10C
  8
0
 66
     1
 10
0.0
 20
0.0
 30
0.0
 70
     1
  0
VERTEX
  5
94F
  8
0
 10
0.0000894606793513
 20
0.0007974201139857
 30
0.0
  0
VERTEX
  5
950
  8
0
 10
0.0000903847866371
 20
0.0007965781039879
 30
0.0
  0
VERTEX
  5
951
  8
0
 10
0.0000846265198754
 20
0.0007881004208424
 30
0.0
  0
VERTEX
  5
952
  8
0
 10
0.0000799909247727
 20
0.0007834101192287
 30
0.0
  0
VERTEX
  5
953
  8
0
 10
0.0000740618596311
 20
0.0007723275856894
 30
0.0
  0
VERTEX
  5
954
  8
0
 10
0.0000737934550301
 20
0.0007717114057697
 30
0.0
  0
VERTEX
  5
955
  8
0
 10
0.0000803716940958
 20
0.0007780360237497
 30
0.0
  0
VERTEX
  5
956
  8
0
 10
0.0000842626352779
 20
0.000780111394163
 30
0.0
  0
VERTEX
  5
957
  8
0
 10
0.0000911289152552
 20
0.0007880114696065
 30
0.0
  0
VERTEX
  5
958
  8
0
 10
0.0000942811809602
 20
0.0007952036623095
 30
0.0
  0
VERTEX
  5
959
  8
0
 10
0.0001018370831599
 20
0.0008011118904489
 30
0.0
  0
VERTEX
  5
95A
  8
0
 10
0.0001216860911885
 20
0.0008148789202581
 30
0.0
  0
VERTEX
  5
95B
  8
0
 10
0.0001351713587026
 20
0.0008272127745581
 30
0.0
  0
VERTEX
  5
95C
  8
0
 10
0.0001412788766329
 20
0.0008322497258421
 30
0.0
  0
VERTEX
  5
95D
  8
0
 10
0.0001461452546667
 20
0.0008342052272109
 30
0.0
  0
VERTEX
  5
95E
  8
0
 10
0.0001468512112977
 20
0.0008344720308898
 30
0.0
  0
VERTEX
  5
95F
  8
0
 10
0.0001330786282899
 20
0.000804655031298
 30
0.0
  0
VERTEX
  5
960
  8
0
 10
0.0001200674588563
 20
0.0007930759367396
 30
0.0
  0
VERTEX
  5
961
  8
0
 10
0.0001126405559602
 20
0.0007901972286037
 30
0.0
  0
VERTEX
  5
962
  8
0
 10
0.0001002267556112
 20
0.0007817373557169
 30
0.0
  0
VERTEX
  5
963
  8
0
 10
0.0000921600842085
 20
0.0007720014978628
 30
0.0
  0
VERTEX
  5
964
  8
0
 10
0.0000719712054143
 20
0.0007529588292857
 30
0.0
  0
VERTEX
  5
965
  8
0
 10
0.0000593463835169
 20
0.0007496692344791
 30
0.0
  0
VERTEX
  5
966
  8
0
 10
0.0000507157622791
 20
0.0007498068637535
 30
0.0
  0
VERTEX
  5
967
  8
0
 10
0.0000444754178407
 20
0.000749426069416
 30
0.0
  0
VERTEX
  5
968
  8
0
 10
0.0000280583616163
 20
0.0007497805235816
 30
0.0
  0
VERTEX
  5
969
  8
0
 10
0.0000280591620774
 20
0.0007694845480997
 30
0.0
  0
VERTEX
  5
96A
  8
0
 10
0.0000320629182409
 20
0.0007729693553487
 30
0.0
  0
VERTEX
  5
96B
  8
0
 10
0.0000688040811507
 20
0.0007901779174805
 30
0.0
  0
SEQEND
  5
11A5
  8
0
  0
POLYLINE
  5
10D
  8
0
 66
     1
 10
0.0
 20
0.0
 30
0.0
 70
     1
  0
VERTEX
  5
96C
  8
0
 10
0.0006432138661869
 20
0.000059918112833
 30
0.0
  0
VERTEX
  5
96D
  8
0
 10
0.0006208096113361
 20
0.0000582028248271
 30
0.0
  0
VERTEX
  5
96E
  8
0
 10
0.0006208089609615
 20
0.0000582080778528
 30
0.0
  0
VERTEX
  5
96F
  8
0
 10
0.0006314232873135
 20
0.0000664999539735
 30
0.0
  0
VERTEX
  5
970
  8
0
 10
0.0006387128736152
 20
0.0000783552826428
 30
0.0
  0
VERTEX
  5
971
  8
0
 10
0.0006394805282843
 20
0.0000813380257028
 30
0.0
  0
VERTEX
  5
972
  8
0
 10
0.0006400920680312
 20
0.0000811858380427
 30
0.0
  0
VERTEX
  5
973
  8
0
 10
0.0006400920680312
 20
0.0000811857880139
 30
0.0
  0
VERTEX
  5
974
  8
0
 10
0.0006400923056681
 20
0.0000811857629995
 30
0.0
  0
SEQEND
  5
11A6
  8
0
  0
POLYLINE
  5
10E
  8
0
 66
     1
 10
0.0
 20
0.0
 30
0.0
 70
     1
  0
VERTEX
  5
975
  8
0
 10
0.0007693587006116
 20
0.000081961960089
 30
0.0
  0
VERTEX
  5
976
  8
0
 10
0.0008298326586114
 20
0.00008562529517
 30
0.0
  0
VERTEX
  5
977
  8
0
 10
0.0008747582357438
 20
0.0000888147322858
 30
0.0
  0
VERTEX
  5
978
  8
0
 10
0.0008762153250272
 20
0.0000890705046107
 30
0.0
  0
VERTEX
  5
979
  8
0
 10
0.000876167647565
 20
0.0000899477098809
 30
0.0
  0
VERTEX
  5
97A
  8
0
 10
0.000876165196153
 20
0.0000899500612353
 30
0.0
  0
VERTEX
  5
97B
  8
0
 10
0.0008500992071433
 20
0.0000885210131035
 30
0.0
  0
VERTEX
  5
97C
  8
0
 10
0.0007960728879835
 20
0.0000853250722416
 30
0.0
  0
VERTEX
  5
97D
  8
0
 10
0.0007692211713947
 20
0.0000837856355261
 30
0.0
  0
SEQEND
  5
11A7
  8
0
  0
POLYLINE
  5
10F
  8
0
 66
     1
 10
0.0
 20
0.0
 30
0.0
 70
     1
  0
VERTEX
  5
97E
  8
0
 10
0.0007702988421331
 20
0.0000796789951012
 30
0.0
  0
VERTEX
  5
97F
  8
0
 10
0.0007743568295338
 20
0.0000786845723137
 30
0.0
  0
VERTEX
  5
980
  8
0
 10
0.0007827318785621
 20
0.0000785406394083
 30
0.0
  0
VERTEX
  5
981
  8
0
 10
0.0008257637649286
 20
0.0000811356341253
 30
0.0
  0
VERTEX
  5
982
  8
0
 10
0.0008951120845607
 20
0.0000848427944496
 30
0.0
  0
VERTEX
  5
983
  8
0
 10
0.0008998004850794
 20
0.0000854089455526
 30
0.0
  0
VERTEX
  5
984
  8
0
 10
0.000901157966989
 20
0.0000896957147317
 30
0.0
  0
VERTEX
  5
985
  8
0
 10
0.0009037675200916
 20
0.0000887937201828
 30
0.0
  0
VERTEX
  5
986
  8
0
 10
0.0009080097636238
 20
0.0000895012026928
 30
0.0
  0
VERTEX
  5
987
  8
0
 10
0.0009109312213835
 20
0.0000943520717934
 30
0.0
  0
VERTEX
  5
988
  8
0
 10
0.0009104857397861
 20
0.0000997836003538
 30
0.0
  0
VERTEX
  5
989
  8
0
 10
0.0009095260369973
 20
0.000101303225658
 30
0.0
  0
VERTEX
  5
98A
  8
0
 10
0.000911143718782
 20
0.0001062656590196
 30
0.0
  0
VERTEX
  5
98B
  8
0
 10
0.0009128188336482
 20
0.0001123266751649
 30
0.0
  0
VERTEX
  5
98C
  8
0
 10
0.0009266764656442
 20
0.0001320216194528
 30
0.0
  0
VERTEX
  5
98D
  8
0
 10
0.0009357415371254
 20
0.0001330747010278
 30
0.0
  0
VERTEX
  5
98E
  8
0
 10
0.0009507110095415
 20
0.0001156738781538
 30
0.0
  0
VERTEX
  5
98F
  8
0
 10
0.0009516503005731
 20
0.000101895166616
 30
0.0
  0
VERTEX
  5
990
  8
0
 10
0.0009530240918769
 20
0.0000991130891393
 30
0.0
  0
VERTEX
  5
991
  8
0
 10
0.000956025770844
 20
0.0001001463342886
 30
0.0
  0
VERTEX
  5
992
  8
0
 10
0.0009603125400231
 20
0.000106363340284
 30
0.0
  0
VERTEX
  5
993
  8
0
 10
0.0009624736348137
 20
0.0001256211828013
 30
0.0
  0
VERTEX
  5
994
  8
0
 10
0.0009510618616323
 20
0.0001485331801117
 30
0.0
  0
VERTEX
  5
995
  8
0
 10
0.0009316523817719
 20
0.0001586823760486
 30
0.0
  0
VERTEX
  5
996
  8
0
 10
0.0009059353937868
 20
0.0001584824358831
 30
0.0
  0
VERTEX
  5
997
  8
0
 10
0.0008893021880603
 20
0.0001473264100122
 30
0.0
  0
VERTEX
  5
998
  8
0
 10
0.0008804217479268
 20
0.0001212558933946
 30
0.0
  0
VERTEX
  5
999
  8
0
 10
0.0008800657428679
 20
0.0001173167494477
 30
0.0
  0
VERTEX
  5
99A
  8
0
 10
0.0008829739680056
 20
0.000113938928823
 30
0.0
  0
VERTEX
  5
99B
  8
0
 10
0.0008858458972368
 20
0.000106482684026
 30
0.0
  0
VERTEX
  5
99C
  8
0
 10
0.0008886639954614
 20
0.0000932631445713
 30
0.0
  0
VERTEX
  5
99D
  8
0
 10
0.0008900853891842
 20
0.0000918207137311
 30
0.0
  0
VERTEX
  5
99E
  8
0
 10
0.0008927067490875
 20
0.0000936201001777
 30
0.0
  0
VERTEX
  5
99F
  8
0
 10
0.0008943974229156
 20
0.000092236203053
 30
0.0
  0
VERTEX
  5
9A0
  8
0
 10
0.0008925089101322
 20
0.0000888681380475
 30
0.0
  0
VERTEX
  5
9A1
  8
0
 10
0.0008846386018347
 20
0.0000865663121958
 30
0.0
  0
VERTEX
  5
9A2
  8
0
 10
0.0008441148851739
 20
0.0000841119484823
 30
0.0
  0
VERTEX
  5
9A3
  8
0
 10
0.0008014312243852
 20
0.0000809393710777
 30
0.0
  0
VERTEX
  5
9A4
  8
0
 10
0.0007771296516794
 20
0.0000797024085873
 30
0.0
  0
VERTEX
  5
9A5
  8
0
 10
0.0007707949779073
 20
0.0000797666956167
 30
0.0
  0
VERTEX
  5
9A6
  8
0
 10
0.0007701506567783
 20
0.0000797801533683
 30
0.0
  0
SEQEND
  5
11A8
  8
0
  0
POLYLINE
  5
110
  8
0
 66
     1
 10
0.0
 20
0.0
 30
0.0
 70
     1
  0
VERTEX
  5
9A7
  8
0
 10
0.0007684962788566
 20
0.0000944002495437
 30
0.0
  0
VERTEX
  5
9A8
  8
0
 10
0.000775456913182
 20
0.000095120064157
 30
0.0
  0
VERTEX
  5
9A9
  8
0
 10
0.0008119559866483
 20
0.0000967222620229
 30
0.0
  0
VERTEX
  5
9AA
  8
0
 10
0.0008369875548316
 20
0.0000979516951764
 30
0.0
  0
VERTEX
  5
9AB
  8
0
 10
0.000842964397493
 20
0.000100372064309
 30
0.0
  0
VERTEX
  5
9AC
  8
0
 10
0.000847869572874
 20
0.0001113256485736
 30
0.0
  0
VERTEX
  5
9AD
  8
0
 10
0.000849266352419
 20
0.0001273828225058
 30
0.0
  0
VERTEX
  5
9AE
  8
0
 10
0.0008483541519915
 20
0.0001702967159084
 30
0.0
  0
VERTEX
  5
9AF
  8
0
 10
0.0008467034762023
 20
0.000180812322898
 30
0.0
  0
VERTEX
  5
9B0
  8
0
 10
0.0008431165101098
 20
0.0001851759113249
 30
0.0
  0
VERTEX
  5
9B1
  8
0
 10
0.0008399661705142
 20
0.0001858991278977
 30
0.0
  0
VERTEX
  5
9B2
  8
0
 10
0.0008351579259654
 20
0.0001865002491435
 30
0.0
  0
VERTEX
  5
9B3
  8
0
 10
0.0008288429885614
 20
0.0001894268098425
 30
0.0
  0
VERTEX
  5
9B4
  8
0
 10
0.0008273061533443
 20
0.0001912200927734
 30
0.0
  0
VERTEX
  5
9B5
  8
0
 10
0.0008382319716157
 20
0.0001913545952469
 30
0.0
  0
VERTEX
  5
9B6
  8
0
 10
0.0008439656492139
 20
0.0001906724273181
 30
0.0
  0
VERTEX
  5
9B7
  8
0
 10
0.0008439713024702
 20
0.0001906769299116
 30
0.0
  0
VERTEX
  5
9B8
  8
0
 10
0.0008421692144675
 20
0.000196999121494
 30
0.0
  0
VERTEX
  5
9B9
  8
0
 10
0.0008409925116867
 20
0.0002026574056657
 30
0.0
  0
VERTEX
  5
9BA
  8
0
 10
0.0008411484264937
 20
0.0002040621898213
 30
0.0
  0
VERTEX
  5
9BB
  8
0
 10
0.0008397059456247
 20
0.0002192720256868
 30
0.0
  0
VERTEX
  5
9BC
  8
0
 10
0.0008351419417585
 20
0.0002409705490362
 30
0.0
  0
VERTEX
  5
9BD
  8
0
 10
0.0008268896884606
 20
0.0002478699731045
 30
0.0
  0
VERTEX
  5
9BE
  8
0
 10
0.0008106358512503
 20
0.0002498693747599
 30
0.0
  0
VERTEX
  5
9BF
  8
0
 10
0.0007960303885038
 20
0.0002500406984423
 30
0.0
  0
VERTEX
  5
9C0
  8
0
 10
0.0007886254232438
 20
0.0002474014282227
 30
0.0
  0
VERTEX
  5
9C1
  8
0
 10
0.0007849331464924
 20
0.0002401686621494
 30
0.0
  0
VERTEX
  5
9C2
  8
0
 10
0.0007716609767226
 20
0.0002047082619589
 30
0.0
  0
VERTEX
  5
9C3
  8
0
 10
0.0007795123491131
 20
0.0002052749383645
 30
0.0
  0
VERTEX
  5
9C4
  8
0
 10
0.0007802249095479
 20
0.0002073040071081
 30
0.0
  0
VERTEX
  5
9C5
  8
0
 10
0.0007777762491195
 20
0.0002080922861568
 30
0.0
  0
VERTEX
  5
9C6
  8
0
 10
0.0007774944868244
 20
0.0002091359623143
 30
0.0
  0
VERTEX
  5
9C7
  8
0
 10
0.0007865113555408
 20
0.0002081322591813
 30
0.0
  0
VERTEX
  5
9C8
  8
0
 10
0.0007898708656186
 20
0.0002078987746942
 30
0.0
  0
VERTEX
  5
9C9
  8
0
 10
0.0007971103855821
 20
0.000210426980941
 30
0.0
  0
VERTEX
  5
9CA
  8
0
 10
0.0007980697131548
 20
0.0002143014626425
 30
0.0
  0
VERTEX
  5
9CB
  8
0
 10
0.0007982222510166
 20
0.0002315724857518
 30
0.0
  0
VERTEX
  5
9CC
  8
0
 10
0.0007966954715916
 20
0.0002349564849353
 30
0.0
  0
VERTEX
  5
9CD
  8
0
 10
0.0007917643812836
 20
0.0002345222097928
 30
0.0
  0
VERTEX
  5
9CE
  8
0
 10
0.0007877572731894
 20
0.000230913105949
 30
0.0
  0
VERTEX
  5
9CF
  8
0
 10
0.0007826128600074
 20
0.0002161287401543
 30
0.0
  0
VERTEX
  5
9D0
  8
0
 10
0.0007818031185963
 20
0.0002142333984375
 30
0.0
  0
VERTEX
  5
9D1
  8
0
 10
0.0007800212422355
 20
0.0002134316116083
 30
0.0
  0
VERTEX
  5
9D2
  8
0
 10
0.0007789087764552
 20
0.0002155280441534
 30
0.0
  0
VERTEX
  5
9D3
  8
0
 10
0.0007810329249648
 20
0.0002219109206903
 30
0.0
  0
VERTEX
  5
9D4
  8
0
 10
0.0007876845563044
 20
0.0002391788169986
 30
0.0
  0
VERTEX
  5
9D5
  8
0
 10
0.0007958713719102
 20
0.0002463580772525
 30
0.0
  0
VERTEX
  5
9D6
  8
0
 10
0.0008029561027152
 20
0.0002465739766105
 30
0.0
  0
VERTEX
  5
9D7
  8
0
 10
0.0008269818915695
 20
0.0002437229093958
 30
0.0
  0
VERTEX
  5
9D8
  8
0
 10
0.0008334613487369
 20
0.0002356634671571
 30
0.0
  0
VERTEX
  5
9D9
  8
0
 10
0.000836249829902
 20
0.0002081691554335
 30
0.0
  0
VERTEX
  5
9DA
  8
0
 10
0.0008359258182713
 20
0.0002032338376905
 30
0.0
  0
VERTEX
  5
9DB
  8
0
 10
0.0008317503882236
 20
0.0002023714159356
 30
0.0
  0
VERTEX
  5
9DC
  8
0
 10
0.0007911025250544
 20
0.0002046142327981
 30
0.0
  0
VERTEX
  5
9DD
  8
0
 10
0.0007890975952148
 20
0.0002040875794458
 30
0.0
  0
VERTEX
  5
9DE
  8
0
 10
0.0007885103069368
 20
0.0001980658609359
 30
0.0
  0
VERTEX
  5
9DF
  8
0
 10
0.0007845775916928
 20
0.0001943343615923
 30
0.0
  0
VERTEX
  5
9E0
  8
0
 10
0.0007770866769259
 20
0.0001962537921843
 30
0.0
  0
VERTEX
  5
9E1
  8
0
 10
0.0007725051129451
 20
0.000200350927134
 30
0.0
  0
VERTEX
  5
9E2
  8
0
 10
0.0007722092925525
 20
0.0002003767670178
 30
0.0
  0
VERTEX
  5
9E3
  8
0
 10
0.0007748833828285
 20
0.0001294227475026
 30
0.0
  0
VERTEX
  5
9E4
  8
0
 10
0.0007727281414095
 20
0.0001061827862849
 30
0.0
  0
VERTEX
  5
9E5
  8
0
 10
0.0007706823380267
 20
0.0001015379108366
 30
0.0
  0
VERTEX
  5
9E6
  8
0
 10
0.0007682190441694
 20
0.0001014530619637
 30
0.0
  0
VERTEX
  5
9E7
  8
0
 10
0.0007683936947682
 20
0.0000959521934634
 30
0.0
  0
SEQEND
  5
11A9
  8
0
  0
POLYLINE
  5
111
  8
0
 66
     1
 10
0.0
 20
0.0
 30
0.0
 70
     1
  0
VERTEX
  5
9E8
  8
0
 10
0.0007687556032275
 20
0.0000905373995421
 30
0.0
  0
VERTEX
  5
9E9
  8
0
 10
0.0007689249507716
 20
0.000088016647589
 30
0.0
  0
VERTEX
  5
9EA
  8
0
 10
0.0007986567012599
 20
0.0000894352146837
 30
0.0
  0
VERTEX
  5
9EB
  8
0
 10
0.000863518711778
 20
0.0000923998723265
 30
0.0
  0
VERTEX
  5
9EC
  8
0
 10
0.0008781487386735
 20
0.000092789671851
 30
0.0
  0
VERTEX
  5
9ED
  8
0
 10
0.0008795588508981
 20
0.0000907355136559
 30
0.0
  0
VERTEX
  5
9EE
  8
0
 10
0.0008796616851306
 20
0.000089008769051
 30
0.0
  0
VERTEX
  5
9EF
  8
0
 10
0.0008846743724385
 20
0.0000919523145332
 30
0.0
  0
VERTEX
  5
9F0
  8
0
 10
0.0008847926155466
 20
0.0000958305984247
 30
0.0
  0
VERTEX
  5
9F1
  8
0
 10
0.0008826891039239
 20
0.0000960909483863
 30
0.0
  0
VERTEX
  5
9F2
  8
0
 10
0.0008523036268891
 20
0.000096231904577
 30
0.0
  0
VERTEX
  5
9F3
  8
0
 10
0.0008443974229156
 20
0.0000949574454886
 30
0.0
  0
VERTEX
  5
9F4
  8
0
 10
0.0008286803949075
 20
0.0000930594522445
 30
0.0
  0
VERTEX
  5
9F5
  8
0
 10
0.0007753834708792
 20
0.0000911172835553
 30
0.0
  0
VERTEX
  5
9F6
  8
0
 10
0.000769008048636
 20
0.0000905703185035
 30
0.0
  0
SEQEND
  5
11AA
  8
0
  0
POLYLINE
  5
112
  8
0
 66
     1
 10
0.0
 20
0.0
 30
0.0
 70
     1
  0
VERTEX
  5
9F7
  8
0
 10
0.0007066673654025
 20
0.0000746666079662
 30
0.0
  0
VERTEX
  5
9F8
  8
0
 10
0.0007096872298444
 20
0.0000748612200628
 30
0.0
  0
VERTEX
  5
9F9
  8
0
 10
0.0007098363657467
 20
0.0000822551539687
 30
0.0
  0
VERTEX
  5
9FA
  8
0
 10
0.0007107173231782
 20
0.0000830549896741
 30
0.0
  0
VERTEX
  5
9FB
  8
0
 10
0.0007128223856942
 20
0.0000821533203125
 30
0.0
  0
VERTEX
  5
9FC
  8
0
 10
0.0007055758241747
 20
0.0000989778862625
 30
0.0
  0
VERTEX
  5
9FD
  8
0
 10
0.0006980608080254
 20
0.0001039742891906
 30
0.0
  0
VERTEX
  5
9FE
  8
0
 10
0.000698655725698
 20
0.0001029298375865
 30
0.0
  0
VERTEX
  5
9FF
  8
0
 10
0.000698657989502
 20
0.0001022045698322
 30
0.0
  0
VERTEX
  5
A00
  8
0
 10
0.0006970992666776
 20
0.0001018015627001
 30
0.0
  0
VERTEX
  5
A01
  8
0
 10
0.000686406970415
 20
0.0001013489019675
 30
0.0
  0
VERTEX
  5
A02
  8
0
 10
0.0006849357092402
 20
0.0001019750808566
 30
0.0
  0
VERTEX
  5
A03
  8
0
 10
0.0006849394376161
 20
0.000101982041656
 30
0.0
  0
VERTEX
  5
A04
  8
0
 10
0.0006854164498751
 20
0.0001026755411117
 30
0.0
  0
VERTEX
  5
A05
  8
0
 10
0.000676247230905
 20
0.0000928407512727
 30
0.0
  0
VERTEX
  5
A06
  8
0
 10
0.0006728472564768
 20
0.0000830708891653
 30
0.0
  0
VERTEX
  5
A07
  8
0
 10
0.0006728550770244
 20
0.0000830693979732
 30
0.0
  0
VERTEX
  5
A08
  8
0
 10
0.0006749687194824
 20
0.0000840764280225
 30
0.0
  0
VERTEX
  5
A09
  8
0
 10
0.0006749696074939
 20
0.0000840759777632
 30
0.0
  0
VERTEX
  5
A0A
  8
0
 10
0.0006758485387583
 20
0.0000811810102619
 30
0.0
  0
VERTEX
  5
A0B
  8
0
 10
0.0006759302608302
 20
0.0000748448606397
 30
0.0
  0
VERTEX
  5
A0C
  8
0
 10
0.0006782637174012
 20
0.000074839057297
 30
0.0
  0
VERTEX
  5
A0D
  8
0
 10
0.0006825457213355
 20
0.0000873615952789
 30
0.0
  0
VERTEX
  5
A0E
  8
0
 10
0.0006882392132869
 20
0.000092300965356
 30
0.0
  0
VERTEX
  5
A0F
  8
0
 10
0.0007012584123455
 20
0.0000900181504547
 30
0.0
  0
SEQEND
  5
11AB
  8
0
  0
POLYLINE
  5
113
  8
0
 66
     1
 10
0.0
 20
0.0
 30
0.0
 70
     1
  0
VERTEX
  5
A10
  8
0
 10
0.0007097098803911
 20
0.000072215696241
 30
0.0
  0
VERTEX
  5
A11
  8
0
 10
0.000706399973885
 20
0.0000724926057409
 30
0.0
  0
VERTEX
  5
A12
  8
0
 10
0.0007009456071697
 20
0.0000609663165984
 30
0.0
  0
VERTEX
  5
A13
  8
0
 10
0.0006912930598024
 20
0.0000570388543801
 30
0.0
  0
VERTEX
  5
A14
  8
0
 10
0.0006811181240394
 20
0.0000634295354124
 30
0.0
  0
VERTEX
  5
A15
  8
0
 10
0.0006786002487433
 20
0.0000722932909356
 30
0.0
  0
VERTEX
  5
A16
  8
0
 10
0.0006759258457872
 20
0.0000722297543385
 30
0.0
  0
VERTEX
  5
A17
  8
0
 10
0.0006756553649902
 20
0.0000673234282947
 30
0.0
  0
VERTEX
  5
A18
  8
0
 10
0.0006750715287005
 20
0.0000659302258101
 30
0.0
  0
VERTEX
  5
A19
  8
0
 10
0.0006750707532539
 20
0.0000659300256948
 30
0.0
  0
VERTEX
  5
A1A
  8
0
 10
0.000672886670222
 20
0.0000674614077709
 30
0.0
  0
VERTEX
  5
A1B
  8
0
 10
0.0006724658528312
 20
0.0000672392798252
 30
0.0
  0
VERTEX
  5
A1C
  8
0
 10
0.0006735579318688
 20
0.0000629114369877
 30
0.0
  0
VERTEX
  5
A1D
  8
0
 10
0.0006827748408083
 20
0.0000491813284452
 30
0.0
  0
VERTEX
  5
A1E
  8
0
 10
0.0006876222454134
 20
0.0000473457211354
 30
0.0
  0
VERTEX
  5
A1F
  8
0
 10
0.0006867837249256
 20
0.0000482997706679
 30
0.0
  0
VERTEX
  5
A20
  8
0
 10
0.0006882132569313
 20
0.0000496051953856
 30
0.0
  0
VERTEX
  5
A21
  8
0
 10
0.0006935663191999
 20
0.0000498617703797
 30
0.0
  0
VERTEX
  5
A22
  8
0
 10
0.0006987212259261
 20
0.0000512972472144
 30
0.0
  0
VERTEX
  5
A23
  8
0
 10
0.0007001734874288
 20
0.0000505912405546
 30
0.0
  0
VERTEX
  5
A24
  8
0
 10
0.0007003018238505
 20
0.0000492155981846
 30
0.0
  0
VERTEX
  5
A25
  8
0
 10
0.0007079777701956
 20
0.0000578293096824
 30
0.0
  0
VERTEX
  5
A26
  8
0
 10
0.0007111207805696
 20
0.0000646487376729
 30
0.0
  0
VERTEX
  5
A27
  8
0
 10
0.0007121543258917
 20
0.0000681435506852
 30
0.0
  0
VERTEX
  5
A28
  8
0
 10
0.0007099464541576
 20
0.0000670893934907
 30
0.0
  0
VERTEX
  5
A29
  8
0
 10
0.0007097163216012
 20
0.0000715768282531
 30
0.0
  0
SEQEND
  5
11AC
  8
0
  0
POLYLINE
  5
114
  8
0
 66
     1
 10
0.0
 20
0.0
 30
0.0
 70
     1
  0
VERTEX
  5
A2A
  8
0
 10
0.0009242262042937
 20
0.0000765420882428
 30
0.0
  0
VERTEX
  5
A2B
  8
0
 10
0.0009224962201656
 20
0.0000781943409799
 30
0.0
  0
VERTEX
  5
A2C
  8
0
 10
0.0009224909047611
 20
0.0000781884865683
 30
0.0
  0
VERTEX
  5
A2D
  8
0
 10
0.0009224909047611
 20
0.0000781886366547
 30
0.0
  0
VERTEX
  5
A2E
  8
0
 10
0.0009256505247022
 20
0.0000804776051005
 30
0.0
  0
VERTEX
  5
A2F
  8
0
 10
0.0009275929935643
 20
0.0000824703779377
 30
0.0
  0
VERTEX
  5
A30
  8
0
 10
0.0009281283019019
 20
0.0000838429185211
 30
0.0
  0
VERTEX
  5
A31
  8
0
 10
0.0009275982966189
 20
0.0000782861428183
 30
0.0
  0
VERTEX
  5
A32
  8
0
 10
0.0009295094474417
 20
0.0000903777575884
 30
0.0
  0
VERTEX
  5
A33
  8
0
 10
0.0009250420742348
 20
0.0000959415873543
 30
0.0
  0
VERTEX
  5
A34
  8
0
 10
0.0009227197865971
 20
0.0000951229157995
 30
0.0
  0
VERTEX
  5
A35
  8
0
 10
0.0009259434434234
 20
0.0000944941036037
 30
0.0
  0
VERTEX
  5
A36
  8
0
 10
0.0009269082991803
 20
0.0000927188560611
 30
0.0
  0
VERTEX
  5
A37
  8
0
 10
0.0009223598792905
 20
0.0000898733920738
 30
0.0
  0
VERTEX
  5
A38
  8
0
 10
0.0009206208776255
 20
0.0000871861942479
 30
0.0
  0
VERTEX
  5
A39
  8
0
 10
0.0009206207275391
 20
0.0000871861692335
 30
0.0
  0
VERTEX
  5
A3A
  8
0
 10
0.0009203682321017
 20
0.0000897292340388
 30
0.0
  0
VERTEX
  5
A3B
  8
0
 10
0.0009195355774926
 20
0.0000858225838083
 30
0.0
  0
VERTEX
  5
A3C
  8
0
 10
0.000920941812484
 20
0.0000791922647445
 30
0.0
  0
SEQEND
  5
11AD
  8
0
  0
POLYLINE
  5
115
  8
0
 66
     1
 10
0.0
 20
0.0
 30
0.0
 70
     1
  0
VERTEX
  5
A3D
  8
0
 10
0.0006289728258477
 20
0.0003470369057577
 30
0.0
  0
VERTEX
  5
A3E
  8
0
 10
0.0006307271113161
 20
0.0003549270004523
 30
0.0
  0
VERTEX
  5
A3F
  8
0
 10
0.0006239284202701
 20
0.0003544557164927
 30
0.0
  0
VERTEX
  5
A40
  8
0
 10
0.0006282953606277
 20
0.000347633949655
 30
0.0
  0
VERTEX
  5
A41
  8
0
 10
0.0006245216119485
 20
0.0003464116706223
 30
0.0
  0
VERTEX
  5
A42
  8
0
 10
0.0006230894245085
 20
0.0003444836725954
 30
0.0
  0
SEQEND
  5
11AE
  8
0
  0
POLYLINE
  5
116
  8
0
 66
     1
 10
0.0
 20
0.0
 30
0.0
 70
     1
  0
VERTEX
  5
A43
  8
0
 10
0.0005740869615899
 20
0.0003966342675881
 30
0.0
  0
VERTEX
  5
A44
  8
0
 10
0.0005752447784924
 20
0.0003916125063036
 30
0.0
  0
VERTEX
  5
A45
  8
0
 10
0.0005743462984679
 20
0.0003895276429223
 30
0.0
  0
VERTEX
  5
A46
  8
0
 10
0.0005622605620838
 20
0.0003885917663574
 30
0.0
  0
VERTEX
  5
A47
  8
0
 10
0.0005499051172225
 20
0.0003979424898742
 30
0.0
  0
VERTEX
  5
A48
  8
0
 10
0.000547060128509
 20
0.0004018441122086
 30
0.0
  0
VERTEX
  5
A49
  8
0
 10
0.0005557280118348
 20
0.0004045579191114
 30
0.0
  0
VERTEX
  5
A4A
  8
0
 10
0.0005582048822622
 20
0.0004007173256796
 30
0.0
  0
VERTEX
  5
A4B
  8
0
 10
0.0005646665666924
 20
0.0003957190591781
 30
0.0
  0
SEQEND
  5
11AF
  8
0
  0
POLYLINE
  5
117
  8
0
 66
     1
 10
0.0
 20
0.0
 30
0.0
 70
     1
  0
VERTEX
  5
A4C
  8
0
 10
0.0009719413882396
 20
0.0001251025090452
 30
0.0
  0
VERTEX
  5
A4D
  8
0
 10
0.0009666909139664
 20
0.0001256806420498
 30
0.0
  0
VERTEX
  5
A4E
  8
0
 10
0.0009649829801966
 20
0.0001259325371414
 30
0.0
  0
VERTEX
  5
A4F
  8
0
 10
0.0009659501372791
 20
0.000128722519171
 30
0.0
  0
VERTEX
  5
A50
  8
0
 10
0.0009675024314005
 20
0.0001313585125032
 30
0.0
  0
VERTEX
  5
A51
  8
0
 10
0.0009674636090388
 20
0.0001399634439437
 30
0.0
  0
VERTEX
  5
A52
  8
0
 10
0.0009666547931609
 20
0.0001589766705622
 30
0.0
  0
VERTEX
  5
A53
  8
0
 10
0.0009690732862129
 20
0.00016197557293
 30
0.0
  0
VERTEX
  5
A54
  8
0
 10
0.0009719413882396
 20
0.0001636471107358
 30
0.0
  0
SEQEND
  5
11B0
  8
0
  0
POLYLINE
  5
118
  8
0
 66
     1
 10
0.0
 20
0.0
 30
0.0
 70
     1
  0
VERTEX
  5
A55
  8
0
 10
0.0009719414882973
 20
0.0000575144283107
 30
0.0
  0
VERTEX
  5
A56
  8
0
 10
0.0009642327480629
 20
0.0000589849753458
 30
0.0
  0
VERTEX
  5
A57
  8
0
 10
0.0009412648185355
 20
0.0000637435662942
 30
0.0
  0
VERTEX
  5
A58
  8
0
 10
0.0009412518110432
 20
0.0000637464179367
 30
0.0
  0
VERTEX
  5
A59
  8
0
 10
0.0009435340255987
 20
0.0000710295129995
 30
0.0
  0
VERTEX
  5
A5A
  8
0
 10
0.0009456347856365
 20
0.0000859204651879
 30
0.0
  0
VERTEX
  5
A5B
  8
0
 10
0.0009463659067623
 20
0.0000948103357534
 30
0.0
  0
VERTEX
  5
A5C
  8
0
 10
0.0009478950375416
 20
0.0000962418853259
 30
0.0
  0
VERTEX
  5
A5D
  8
0
 10
0.0009517518590708
 20
0.0000947161314917
 30
0.0
  0
VERTEX
  5
A5E
  8
0
 10
0.0009546484775231
 20
0.000093748223977
 30
0.0
  0
VERTEX
  5
A5F
  8
0
 10
0.0009621335389184
 20
0.0001007423525951
 30
0.0
  0
VERTEX
  5
A60
  8
0
 10
0.0009665039562788
 20
0.0001094780843766
 30
0.0
  0
VERTEX
  5
A61
  8
0
 10
0.0009719413882396
 20
0.0001085163053919
 30
0.0
  0
SEQEND
  5
11B1
  8
0
  0
POLYLINE
  5
119
  8
0
 66
     1
 10
0.0
 20
0.0
 30
0.0
 70
     1
  0
VERTEX
  5
A62
  8
0
 10
0.0001114591504707
 20
0.0001011173185755
 30
0.0
  0
VERTEX
  5
A63
  8
0
 10
0.0001099726942719
 20
0.0001044461109599
 30
0.0
  0
VERTEX
  5
A64
  8
0
 10
0.0001074636740763
 20
0.0001046948042072
 30
0.0
  0
VERTEX
  5
A65
  8
0
 10
0.0001058589497551
 20
0.0001025717813461
 30
0.0
  0
VERTEX
  5
A66
  8
0
 10
0.0001063352240891
 20
0.0000988174688621
 30
0.0
  0
VERTEX
  5
A67
  8
0
 10
0.0001086119604892
 20
0.0000956711565862
 30
0.0
  0
VERTEX
  5
A68
  8
0
 10
0.0001109031051886
 20
0.0000973443953717
 30
0.0
  0
VERTEX
  5
A69
  8
0
 10
0.0001113569415984
 20
0.0001002121722112
 30
0.0
  0
SEQEND
  5
11B2
  8
0
  0
POLYLINE
  5
11A
  8
0
 66
     1
 10
0.0
 20
0.0
 30
0.0
 70
     1
  0
VERTEX
  5
A6A
  8
0
 10
0.0002191781716269
 20
0.0000755026895492
 30
0.0
  0
VERTEX
  5
A6B
  8
0
 10
0.0002183812876217
 20
0.000075242789847
 30
0.0
  0
VERTEX
  5
A6C
  8
0
 10
0.0001939594206263
 20
0.0000784190193551
 30
0.0
  0
VERTEX
  5
A6D
  8
0
 10
0.0001703851668561
 20
0.0000812496497983
 30
0.0
  0
VERTEX
  5
A6E
  8
0
 10
0.0001272897188781
 20
0.0000772405905802
 30
0.0
  0
VERTEX
  5
A6F
  8
0
 10
0.0001271203713339
 20
0.0000777227683145
 30
0.0
  0
VERTEX
  5
A70
  8
0
 10
0.0001293206887167
 20
0.0000807915109103
 30
0.0
  0
VERTEX
  5
A71
  8
0
 10
0.0001376877581487
 20
0.0000818802380171
 30
0.0
  0
VERTEX
  5
A72
  8
0
 10
0.000152601798636
 20
0.0000836578369141
 30
0.0
  0
VERTEX
  5
A73
  8
0
 10
0.0001713514984631
 20
0.0000835626570905
 30
0.0
  0
VERTEX
  5
A74
  8
0
 10
0.0001864713575019
 20
0.000082199296795
 30
0.0
  0
VERTEX
  5
A75
  8
0
 10
0.0002107255529185
 20
0.0000773459512679
 30
0.0
  0
SEQEND
  5
11B3
  8
0
  0
POLYLINE
  5
11B
  8
0
 66
     1
 10
0.0
 20
0.0
 30
0.0
 70
     1
  0
VERTEX
  5
A76
  8
0
 10
0.0001518700271356
 20
0.0001235426855869
 30
0.0
  0
VERTEX
  5
A77
  8
0
 10
0.0001553916305792
 20
0.000124702253498
 30
0.0
  0
VERTEX
  5
A78
  8
0
 10
0.0001554930389905
 20
0.0001261899854316
 30
0.0
  0
VERTEX
  5
A79
  8
0
 10
0.0001539557284996
 20
0.0001264765504931
 30
0.0
  0
VERTEX
  5
A7A
  8
0
 10
0.0001426846613649
 20
0.0001261524888336
 30
0.0
  0
VERTEX
  5
A7B
  8
0
 10
0.0001262630525183
 20
0.0001246478721744
 30
0.0
  0
VERTEX
  5
A7C
  8
0
 10
0.0001240072781922
 20
0.000127361335129
 30
0.0
  0
VERTEX
  5
A7D
  8
0
 10
0.0001591619272701
 20
0.0001279402435803
 30
0.0
  0
VERTEX
  5
A7E
  8
0
 10
0.0001738007092085
 20
0.0001260872012279
 30
0.0
  0
VERTEX
  5
A7F
  8
0
 10
0.0001821623755283
 20
0.0001268909141666
 30
0.0
  0
VERTEX
  5
A80
  8
0
 10
0.0001853185935099
 20
0.0001281353059362
 30
0.0
  0
VERTEX
  5
A81
  8
0
 10
0.0001860228991899
 20
0.0001305336123607
 30
0.0
  0
VERTEX
  5
A82
  8
0
 10
0.0001860272266826
 20
0.0001307672969631
 30
0.0
  0
VERTEX
  5
A83
  8
0
 10
0.0001884108746638
 20
0.0001309598328637
 30
0.0
  0
VERTEX
  5
A84
  8
0
 10
0.0001888621846183
 20
0.0001278376845063
 30
0.0
  0
VERTEX
  5
A85
  8
0
 10
0.0001935205928615
 20
0.0001257287197426
 30
0.0
  0
VERTEX
  5
A86
  8
0
 10
0.0002022640540952
 20
0.0001234807999408
 30
0.0
  0
VERTEX
  5
A87
  8
0
 10
0.0002167696343094
 20
0.0001236323622407
 30
0.0
  0
VERTEX
  5
A88
  8
0
 10
0.0002578507220159
 20
0.0001266478991899
 30
0.0
  0
VERTEX
  5
A89
  8
0
 10
0.0002688964093318
 20
0.0001273119316726
 30
0.0
  0
VERTEX
  5
A8A
  8
0
 10
0.0002715353543641
 20
0.0001266285880667
 30
0.0
  0
VERTEX
  5
A8B
  8
0
 10
0.0002057804795562
 20
0.0001201141107278
 30
0.0
  0
VERTEX
  5
A8C
  8
0
 10
0.0002064626224705
 20
0.0001212356817527
 30
0.0
  0
VERTEX
  5
A8D
  8
0
 10
0.0002021411833216
 20
0.0001210737634878
 30
0.0
  0
VERTEX
  5
A8E
  8
0
 10
0.0001914730634846
 20
0.0001200629562628
 30
0.0
  0
VERTEX
  5
A8F
  8
0
 10
0.000180385427006
 20
0.0001218487598857
 30
0.0
  0
SEQEND
  5
11B4
  8
0
  0
POLYLINE
  5
11C
  8
0
 66
     1
 10
0.0
 20
0.0
 30
0.0
 70
     1
  0
VERTEX
  5
A90
  8
0
 10
0.000408573382018
 20
0.0001021692745021
 30
0.0
  0
VERTEX
  5
A91
  8
0
 10
0.0004077216914443
 20
0.0001089382484311
 30
0.0
  0
VERTEX
  5
A92
  8
0
 10
0.0004072040870541
 20
0.0001104854396132
 30
0.0
  0
VERTEX
  5
A93
  8
0
 10
0.0004049513582323
 20
0.0001120931906778
 30
0.0
  0
VERTEX
  5
A94
  8
0
 10
0.0004047336515833
 20
0.0001103022340868
 30
0.0
  0
VERTEX
  5
A95
  8
0
 10
0.000404239623273
 20
0.0000920529725122
 30
0.0
  0
VERTEX
  5
A96
  8
0
 10
0.0004033980009986
 20
0.0000874892438044
 30
0.0
  0
VERTEX
  5
A97
  8
0
 10
0.0003961607198246
 20
0.0000749833904329
 30
0.0
  0
VERTEX
  5
A98
  8
0
 10
0.0003941713552006
 20
0.0000727502041176
 30
0.0
  0
VERTEX
  5
A99
  8
0
 10
0.000394734404517
 20
0.0000727502041176
 30
0.0
  0
VERTEX
  5
A9A
  8
0
 10
0.0004017643600214
 20
0.0000753240866739
 30
0.0
  0
VERTEX
  5
A9B
  8
0
 10
0.0004121391734139
 20
0.0000807537891826
 30
0.0
  0
VERTEX
  5
A9C
  8
0
 10
0.0004167718230701
 20
0.0000884417174292
 30
0.0
  0
VERTEX
  5
A9D
  8
0
 10
0.0004180510286425
 20
0.0000933175258949
 30
0.0
  0
VERTEX
  5
A9E
  8
0
 10
0.000417547338517
 20
0.0000835048487929
 30
0.0
  0
VERTEX
  5
A9F
  8
0
 10
0.0004126619370257
 20
0.0000738742015401
 30
0.0
  0
VERTEX
  5
AA0
  8
0
 10
0.0004102282164527
 20
0.0000711881543769
 30
0.0
  0
VERTEX
  5
AA1
  8
0
 10
0.0004141069318427
 20
0.0000730275638768
 30
0.0
  0
VERTEX
  5
AA2
  8
0
 10
0.0004190049718638
 20
0.0000763059021997
 30
0.0
  0
VERTEX
  5
AA3
  8
0
 10
0.0004225794057377
 20
0.000084512479188
 30
0.0
  0
VERTEX
  5
AA4
  8
0
 10
0.0004251436264789
 20
0.0000917116759253
 30
0.0
  0
VERTEX
  5
AA5
  8
0
 10
0.0004277744856037
 20
0.0000776965031858
 30
0.0
  0
VERTEX
  5
AA6
  8
0
 10
0.0004351825401431
 20
0.0000640720054752
 30
0.0
  0
VERTEX
  5
AA7
  8
0
 10
0.0004369953218054
 20
0.000061448144131
 30
0.0
  0
VERTEX
  5
AA8
  8
0
 10
0.0004371400113966
 20
0.0000613783539319
 30
0.0
  0
VERTEX
  5
AA9
  8
0
 10
0.0004342015626001
 20
0.0000701176877882
 30
0.0
  0
VERTEX
  5
AAA
  8
0
 10
0.0004315986320621
 20
0.0000800798760086
 30
0.0
  0
VERTEX
  5
AAB
  8
0
 10
0.0004319265772085
 20
0.0000952327540663
 30
0.0
  0
VERTEX
  5
AAC
  8
0
 10
0.0004319927340648
 20
0.0000959209754819
 30
0.0
  0
VERTEX
  5
AAD
  8
0
 10
0.0004334775142982
 20
0.0000830844316326
 30
0.0
  0
VERTEX
  5
AAE
  8
0
 10
0.00043893598963
 20
0.0000736445692719
 30
0.0
  0
VERTEX
  5
AAF
  8
0
 10
0.0004499275051179
 20
0.0000653378345927
 30
0.0
  0
VERTEX
  5
AB0
  8
0
 10
0.0004554650447408
 20
0.0000629227935291
 30
0.0
  0
VERTEX
  5
AB1
  8
0
 10
0.0004561596166892
 20
0.0000634430431929
 30
0.0
  0
VERTEX
  5
AB2
  8
0
 10
0.0004461234170882
 20
0.0000735312540023
 30
0.0
  0
VERTEX
  5
AB3
  8
0
 10
0.0004443405839263
 20
0.0000766234851274
 30
0.0
  0
VERTEX
  5
AB4
  8
0
 10
0.0004411515845627
 20
0.0000902485581695
 30
0.0
  0
VERTEX
  5
AB5
  8
0
 10
0.0004419628956279
 20
0.0000964416503906
 30
0.0
  0
VERTEX
  5
AB6
  8
0
 10
0.0004441607553451
 20
0.0000835213082736
 30
0.0
  0
VERTEX
  5
AB7
  8
0
 10
0.0004461916063653
 20
0.0000785616515113
 30
0.0
  0
VERTEX
  5
AB8
  8
0
 10
0.0004473839056296
 20
0.0000921719910669
 30
0.0
  0
VERTEX
  5
AB9
  8
0
 10
0.0004477868033237
 20
0.0000943589007268
 30
0.0
  0
VERTEX
  5
ABA
  8
0
 10
0.0004486733327146
 20
0.0000836168633133
 30
0.0
  0
VERTEX
  5
ABB
  8
0
 10
0.0004524525063937
 20
0.000076805289847
 30
0.0
  0
VERTEX
  5
ABC
  8
0
 10
0.0004621126925359
 20
0.0000712700515497
 30
0.0
  0
VERTEX
  5
ABD
  8
0
 10
0.0004699650060935
 20
0.0000678342225122
 30
0.0
  0
VERTEX
  5
ABE
  8
0
 10
0.0004716603701232
 20
0.0000675558621766
 30
0.0
  0
VERTEX
  5
ABF
  8
0
 10
0.0004719230776928
 20
0.0000678937067751
 30
0.0
  0
VERTEX
  5
AC0
  8
0
 10
0.0004689496118514
 20
0.0000709353087378
 30
0.0
  0
VERTEX
  5
AC1
  8
0
 10
0.0004578967954292
 20
0.0000819844480421
 30
0.0
  0
VERTEX
  5
AC2
  8
0
 10
0.0004538559272641
 20
0.000090115706647
 30
0.0
  0
VERTEX
  5
AC3
  8
0
 10
0.0004539762090464
 20
0.0000962763301662
 30
0.0
  0
VERTEX
  5
AC4
  8
0
 10
0.0004597285067449
 20
0.000107331572986
 30
0.0
  0
VERTEX
  5
AC5
  8
0
 10
0.0004597712720027
 20
0.0001078279338899
 30
0.0
  0
VERTEX
  5
AC6
  8
0
 10
0.0004575706669542
 20
0.0001066056298428
 30
0.0
  0
VERTEX
  5
AC7
  8
0
 10
0.0004548957011739
 20
0.0001043232902152
 30
0.0
  0
VERTEX
  5
AC8
  8
0
 10
0.0004547768796077
 20
0.0001051609477059
 30
0.0
  0
VERTEX
  5
AC9
  8
0
 10
0.0004547851030944
 20
0.0001083124379643
 30
0.0
  0
VERTEX
  5
ACA
  8
0
 10
0.0004531991739742
 20
0.000107533989578
 30
0.0
  0
VERTEX
  5
ACB
  8
0
 10
0.0004470929755539
 20
0.0001055169277504
 30
0.0
  0
VERTEX
  5
ACC
  8
0
 10
0.0004440982005635
 20
0.0001054413592229
 30
0.0
  0
VERTEX
  5
ACD
  8
0
 10
0.0004431147528476
 20
0.0001036342433242
 30
0.0
  0
VERTEX
  5
ACE
  8
0
 10
0.0004424781173956
 20
0.0001017227172852
 30
0.0
  0
VERTEX
  5
ACF
  8
0
 10
0.0004424211033055
 20
0.0001017168388992
 30
0.0
  0
VERTEX
  5
AD0
  8
0
 10
0.0004415228921859
 20
0.0001039908987577
 30
0.0
  0
VERTEX
  5
AD1
  8
0
 10
0.0004396845082768
 20
0.0001047174422467
 30
0.0
  0
VERTEX
  5
AD2
  8
0
 10
0.0004334944177846
 20
0.0001046872998847
 30
0.0
  0
VERTEX
  5
AD3
  8
0
 10
0.0004314935465328
 20
0.0001039020725938
 30
0.0
  0
VERTEX
  5
AD4
  8
0
 10
0.000429954522555
 20
0.0001000345198835
 30
0.0
  0
VERTEX
  5
AD5
  8
0
 10
0.0004296682138912
 20
0.0000998616453077
 30
0.0
  0
VERTEX
  5
AD6
  8
0
 10
0.0004286872426017
 20
0.000103533635374
 30
0.0
  0
VERTEX
  5
AD7
  8
0
 10
0.0004280638335181
 20
0.0001045124741851
 30
0.0
  0
VERTEX
  5
AD8
  8
0
 10
0.0004225063886799
 20
0.0001053829255651
 30
0.0
  0
VERTEX
  5
AD9
  8
0
 10
0.0004203620222748
 20
0.0001057783783459
 30
0.0
  0
VERTEX
  5
ADA
  8
0
 10
0.0004187127597996
 20
0.0001036037757748
 30
0.0
  0
VERTEX
  5
ADB
  8
0
 10
0.0004177044290011
 20
0.0001052151289143
 30
0.0
  0
VERTEX
  5
ADC
  8
0
 10
0.0004137037371026
 20
0.0001068571997471
 30
0.0
  0
VERTEX
  5
ADD
  8
0
 10
0.000409194020756
 20
0.0001089761202453
 30
0.0
  0
VERTEX
  5
ADE
  8
0
 10
0.0004086589750696
 20
0.0001071208516105
 30
0.0
  0
SEQEND
  5
11B5
  8
0
  0
POLYLINE
  5
11D
  8
0
 66
     1
 10
0.0
 20
0.0
 30
0.0
 70
     1
  0
VERTEX
  5
ADF
  8
0
 10
0.0004306810160152
 20
0.0001146890108703
 30
0.0
  0
VERTEX
  5
AE0
  8
0
 10
0.0004262209220011
 20
0.0001137780611632
 30
0.0
  0
VERTEX
  5
AE1
  8
0
 10
0.0004281798878654
 20
0.0001127535210281
 30
0.0
  0
VERTEX
  5
AE2
  8
0
 10
0.0004316951313957
 20
0.0001123807313012
 30
0.0
  0
VERTEX
  5
AE3
  8
0
 10
0.0004350183268062
 20
0.0001129226184282
 30
0.0
  0
VERTEX
  5
AE4
  8
0
 10
0.0004325749256572
 20
0.000114220315902
 30
0.0
  0
SEQEND
  5
11B6
  8
0
  0
POLYLINE
  5
11E
  8
0
 66
     1
 10
0.0
 20
0.0
 30
0.0
 70
     1
  0
VERTEX
  5
AE5
  8
0
 10
0.0001640402121622
 20
0.000077625262151
 30
0.0
  0
VERTEX
  5
AE6
  8
0
 10
0.00016719828121
 20
0.0000777419293513
 30
0.0
  0
VERTEX
  5
AE7
  8
0
 10
0.0001650673537958
 20
0.0000736729856397
 30
0.0
  0
VERTEX
  5
AE8
  8
0
 10
0.0001639767005795
 20
0.000073626258725
 30
0.0
  0
SEQEND
  5
11B7
  8
0
  0
POLYLINE
  5
11F
  8
0
 66
     1
 10
0.0
 20
0.0
 30
0.0
 70
     1
  0
VERTEX
  5
AE9
  8
0
 10
0.0001589059048012
 20
0.0000773249891938
 30
0.0
  0
VERTEX
  5
AEA
  8
0
 10
0.0001235970919249
 20
0.0000723961501825
 30
0.0
  0
VERTEX
  5
AEB
  8
0
 10
0.0001126915353243
 20
0.0000709594226274
 30
0.0
  0
VERTEX
  5
AEC
  8
0
 10
0.0001104931690654
 20
0.0000723833928343
 30
0.0
  0
VERTEX
  5
AED
  8
0
 10
0.0001087672249216
 20
0.0000717515288806
 30
0.0
  0
VERTEX
  5
AEE
  8
0
 10
0.0001068996241835
 20
0.0000728801289543
 30
0.0
  0
VERTEX
  5
AEF
  8
0
 10
0.0001063656916384
 20
0.0000731990626601
 30
0.0
  0
VERTEX
  5
AF0
  8
0
 10
0.0001044102402984
 20
0.0000740923772093
 30
0.0
  0
VERTEX
  5
AF1
  8
0
 10
0.0001040773985816
 20
0.0000746141277376
 30
0.0
  0
VERTEX
  5
AF2
  8
0
 10
0.0001019384165279
 20
0.0000749706831135
 30
0.0
  0
VERTEX
  5
AF3
  8
0
 10
0.0000995453131003
 20
0.0000774722740298
 30
0.0
  0
VERTEX
  5
AF4
  8
0
 10
0.0000986139766506
 20
0.0000774467093046
 30
0.0
  0
VERTEX
  5
AF5
  8
0
 10
0.0000973488479364
 20
0.0000793508560931
 30
0.0
  0
VERTEX
  5
AF6
  8
0
 10
0.0000963846425541
 20
0.0000821183751841
 30
0.0
  0
VERTEX
  5
AF7
  8
0
 10
0.0000943860413598
 20
0.0000858359665167
 30
0.0
  0
VERTEX
  5
AF8
  8
0
 10
0.0000923865396468
 20
0.0000902107613986
 30
0.0
  0
VERTEX
  5
AF9
  8
0
 10
0.0000923554467373
 20
0.0000911458249952
 30
0.0
  0
VERTEX
  5
AFA
  8
0
 10
0.0000917947737897
 20
0.0000944392720207
 30
0.0
  0
VERTEX
  5
AFB
  8
0
 10
0.0000953976990747
 20
0.0000962911136815
 30
0.0
  0
VERTEX
  5
AFC
  8
0
 10
0.0000955608930744
 20
0.0000964325951748
 30
0.0
  0
VERTEX
  5
AFD
  8
0
 10
0.0000925583886319
 20
0.0000963031706263
 30
0.0
  0
VERTEX
  5
AFE
  8
0
 10
0.0000910899928359
 20
0.0000962875616355
 30
0.0
  0
VERTEX
  5
AFF
  8
0
 10
0.0000900117717805
 20
0.0000997054053135
 30
0.0
  0
VERTEX
  5
B00
  8
0
 10
0.0000896787799773
 20
0.0001029431452517
 30
0.0
  0
VERTEX
  5
B01
  8
0
 10
0.0000893069157835
 20
0.0001056920786373
 30
0.0
  0
VERTEX
  5
B02
  8
0
 10
0.0000875853741755
 20
0.0000963516485496
 30
0.0
  0
VERTEX
  5
B03
  8
0
 10
0.0000876225956151
 20
0.000094414782915
 30
0.0
  0
VERTEX
  5
B04
  8
0
 10
0.0000897647044698
 20
0.0000857344830622
 30
0.0
  0
VERTEX
  5
B05
  8
0
 10
0.000092394819416
 20
0.000081102289919
 30
0.0
  0
VERTEX
  5
B06
  8
0
 10
0.0000931733178311
 20
0.0000786360443616
 30
0.0
  0
VERTEX
  5
B07
  8
0
 10
0.0000949815343638
 20
0.0000756573786501
 30
0.0
  0
VERTEX
  5
B08
  8
0
 10
0.0000978062376724
 20
0.0000735234820617
 30
0.0
  0
VERTEX
  5
B09
  8
0
 10
0.0001022380140961
 20
0.0000703789882973
 30
0.0
  0
VERTEX
  5
B0A
  8
0
 10
0.0001028691276175
 20
0.0000700688596632
 30
0.0
  0
VERTEX
  5
B0B
  8
0
 10
0.0001047907594775
 20
0.0000691790471311
 30
0.0
  0
VERTEX
  5
B0C
  8
0
 10
0.000109913210009
 20
0.000067919371558
 30
0.0
  0
VERTEX
  5
B0D
  8
0
 10
0.0001135540321225
 20
0.0000669555163774
 30
0.0
  0
VERTEX
  5
B0E
  8
0
 10
0.0001351289342661
 20
0.0000703931464524
 30
0.0
  0
VERTEX
  5
B0F
  8
0
 10
0.0001575629312484
 20
0.0000732200747631
 30
0.0
  0
VERTEX
  5
B10
  8
0
 10
0.0001563589209052
 20
0.0000761125593179
 30
0.0
  0
VERTEX
  5
B11
  8
0
 10
0.0001588595531026
 20
0.0000745923151735
 30
0.0
  0
VERTEX
  5
B12
  8
0
 10
0.0001594405877786
 20
0.0000744325731621
 30
0.0
  0
SEQEND
  5
11B8
  8
0
  0
POLYLINE
  5
120
  8
0
 66
     1
 10
0.0
 20
0.0
 30
0.0
 70
     1
  0
VERTEX
  5
B13
  8
0
 10
0.0001307562906234
 20
0.0001173642017802
 30
0.0
  0
VERTEX
  5
B14
  8
0
 10
0.0001336697938012
 20
0.0001105109793241
 30
0.0
  0
VERTEX
  5
B15
  8
0
 10
0.0001341806630619
 20
0.0001089011520636
 30
0.0
  0
VERTEX
  5
B16
  8
0
 10
0.0001626919355549
 20
0.000108238170186
 30
0.0
  0
VERTEX
  5
B17
  8
0
 10
0.0001918984585121
 20
0.0001064385335954
 30
0.0
  0
VERTEX
  5
B18
  8
0
 10
0.0002049263625848
 20
0.000106545970479
 30
0.0
  0
VERTEX
  5
B19
  8
0
 10
0.0002054922885582
 20
0.0001051508668993
 30
0.0
  0
VERTEX
  5
B1A
  8
0
 10
0.0002032389156154
 20
0.0001043975079646
 30
0.0
  0
VERTEX
  5
B1B
  8
0
 10
0.0001949106935595
 20
0.0001032482960185
 30
0.0
  0
VERTEX
  5
B1C
  8
0
 10
0.0001751201942319
 20
0.0001027566628378
 30
0.0
  0
VERTEX
  5
B1D
  8
0
 10
0.0001664329153592
 20
0.0001036099793481
 30
0.0
  0
VERTEX
  5
B1E
  8
0
 10
0.0001348649572154
 20
0.000106233765649
 30
0.0
  0
VERTEX
  5
B1F
  8
0
 10
0.0001358497744701
 20
0.0000999198538358
 30
0.0
  0
VERTEX
  5
B20
  8
0
 10
0.0001359486314117
 20
0.0000996221073338
 30
0.0
  0
VERTEX
  5
B21
  8
0
 10
0.0001379083852299
 20
0.000099182729252
 30
0.0
  0
VERTEX
  5
B22
  8
0
 10
0.0001595753654105
 20
0.0000985008114674
 30
0.0
  0
VERTEX
  5
B23
  8
0
 10
0.0001613072629835
 20
0.0000977814220991
 30
0.0
  0
VERTEX
  5
B24
  8
0
 10
0.0001601129250448
 20
0.0000960716872919
 30
0.0
  0
VERTEX
  5
B25
  8
0
 10
0.000142862763952
 20
0.0000937440715852
 30
0.0
  0
VERTEX
  5
B26
  8
0
 10
0.0001363866837298
 20
0.0000929309282147
 30
0.0
  0
VERTEX
  5
B27
  8
0
 10
0.0001392565117508
 20
0.0000909154673092
 30
0.0
  0
VERTEX
  5
B28
  8
0
 10
0.0001497906294025
 20
0.0000886330526383
 30
0.0
  0
VERTEX
  5
B29
  8
0
 10
0.0001662934100042
 20
0.0000881172305248
 30
0.0
  0
VERTEX
  5
B2A
  8
0
 10
0.0002104696054928
 20
0.0000805417920722
 30
0.0
  0
VERTEX
  5
B2B
  8
0
 10
0.0002201793483046
 20
0.0000777097608222
 30
0.0
  0
VERTEX
  5
B2C
  8
0
 10
0.0002199009879691
 20
0.0000793096323482
 30
0.0
  0
VERTEX
  5
B2D
  8
0
 10
0.0002235172459337
 20
0.0000802394679335
 30
0.0
  0
VERTEX
  5
B2E
  8
0
 10
0.0002242011398566
 20
0.0000802133528913
 30
0.0
  0
VERTEX
  5
B2F
  8
0
 10
0.0002232395109583
 20
0.0000829234889296
 30
0.0
  0
VERTEX
  5
B30
  8
0
 10
0.0002257471303471
 20
0.000083893272525
 30
0.0
  0
VERTEX
  5
B31
  8
0
 10
0.0002274774019835
 20
0.0000836019297115
 30
0.0
  0
VERTEX
  5
B32
  8
0
 10
0.0002263512283075
 20
0.0000884804647477
 30
0.0
  0
VERTEX
  5
B33
  8
0
 10
0.0002276637843398
 20
0.0000896334538694
 30
0.0
  0
VERTEX
  5
B34
  8
0
 10
0.0002313571116963
 20
0.0000868900986969
 30
0.0
  0
VERTEX
  5
B35
  8
0
 10
0.0002326212148197
 20
0.0000846984362993
 30
0.0
  0
VERTEX
  5
B36
  8
0
 10
0.0002379034073626
 20
0.0000881069245886
 30
0.0
  0
VERTEX
  5
B37
  8
0
 10
0.000239090741267
 20
0.0000869777241691
 30
0.0
  0
VERTEX
  5
B38
  8
0
 10
0.0002379469824619
 20
0.000084455321265
 30
0.0
  0
VERTEX
  5
B39
  8
0
 10
0.0002426780825756
 20
0.0000856324993196
 30
0.0
  0
VERTEX
  5
B3A
  8
0
 10
0.0002442348792905
 20
0.0000845040493324
 30
0.0
  0
VERTEX
  5
B3B
  8
0
 10
0.000242963296859
 20
0.0000820996143779
 30
0.0
  0
VERTEX
  5
B3C
  8
0
 10
0.0002495688016297
 20
0.0000808093461834
 30
0.0
  0
VERTEX
  5
B3D
  8
0
 10
0.0002492935931096
 20
0.0000793884277344
 30
0.0
  0
VERTEX
  5
B3E
  8
0
 10
0.00025147097228
 20
0.0000787424556545
 30
0.0
  0
VERTEX
  5
B3F
  8
0
 10
0.0002676393102427
 20
0.0000803749709833
 30
0.0
  0
VERTEX
  5
B40
  8
0
 10
0.0002726124247567
 20
0.0000813694437996
 30
0.0
  0
VERTEX
  5
B41
  8
0
 10
0.0002753837960665
 20
0.000082715519139
 30
0.0
  0
VERTEX
  5
B42
  8
0
 10
0.0002798624007428
 20
0.0000854584240523
 30
0.0
  0
VERTEX
  5
B43
  8
0
 10
0.0002834644505235
 20
0.0000857696533203
 30
0.0
  0
VERTEX
  5
B44
  8
0
 10
0.0002852196365106
 20
0.0000891041740042
 30
0.0
  0
VERTEX
  5
B45
  8
0
 10
0.0002684749915952
 20
0.0000866089867764
 30
0.0
  0
VERTEX
  5
B46
  8
0
 10
0.0002610027125624
 20
0.0000866347015881
 30
0.0
  0
VERTEX
  5
B47
  8
0
 10
0.0002600144183049
 20
0.0000876553144611
 30
0.0
  0
VERTEX
  5
B48
  8
0
 10
0.0002608561531442
 20
0.0000886178188637
 30
0.0
  0
VERTEX
  5
B49
  8
0
 10
0.0002868858712618
 20
0.0000932868082015
 30
0.0
  0
VERTEX
  5
B4A
  8
0
 10
0.0002885265663022
 20
0.0000997747202389
 30
0.0
  0
VERTEX
  5
B4B
  8
0
 10
0.0002671971055328
 20
0.0000956366867316
 30
0.0
  0
VERTEX
  5
B4C
  8
0
 10
0.000265770133597
 20
0.0000958697709881
 30
0.0
  0
VERTEX
  5
B4D
  8
0
 10
0.0002653687023726
 20
0.0000976978989898
 30
0.0
  0
VERTEX
  5
B4E
  8
0
 10
0.0002678514324251
 20
0.0000984318717581
 30
0.0
  0
VERTEX
  5
B4F
  8
0
 10
0.0002885372797137
 20
0.0001052515361845
 30
0.0
  0
VERTEX
  5
B50
  8
0
 10
0.0002882980596824
 20
0.0001067956643026
 30
0.0
  0
VERTEX
  5
B51
  8
0
 10
0.0002783579591845
 20
0.0001036115302414
 30
0.0
  0
VERTEX
  5
B52
  8
0
 10
0.000265582850722
 20
0.0001022116989386
 30
0.0
  0
VERTEX
  5
B53
  8
0
 10
0.0002638938278448
 20
0.00010269590284
 30
0.0
  0
VERTEX
  5
B54
  8
0
 10
0.0002644245335313
 20
0.0001040714951812
 30
0.0
  0
VERTEX
  5
B55
  8
0
 10
0.0002712835843446
 20
0.0001055889692463
 30
0.0
  0
VERTEX
  5
B56
  8
0
 10
0.0002874241062852
 20
0.0001099733946753
 30
0.0
  0
VERTEX
  5
B57
  8
0
 10
0.0002862298183754
 20
0.000113246204814
 30
0.0
  0
VERTEX
  5
B58
  8
0
 10
0.0002645757956583
 20
0.0001081610757796
 30
0.0
  0
VERTEX
  5
B59
  8
0
 10
0.0002619057827309
 20
0.0001081804619461
 30
0.0
  0
VERTEX
  5
B5A
  8
0
 10
0.0002609671670882
 20
0.0001093540879547
 30
0.0
  0
VERTEX
  5
B5B
  8
0
 10
0.0002623400078445
 20
0.0001102955302254
 30
0.0
  0
VERTEX
  5
B5C
  8
0
 10
0.0002843683961962
 20
0.0001170401401207
 30
0.0
  0
VERTEX
  5
B5D
  8
0
 10
0.0002811659015593
 20
0.0001210850449859
 30
0.0
  0
VERTEX
  5
B5E
  8
0
 10
0.0002772303596872
 20
0.0001243804681497
 30
0.0
  0
VERTEX
  5
B5F
  8
0
 10
0.0002765776837458
 20
0.000124725166696
 30
0.0
  0
VERTEX
  5
B60
  8
0
 10
0.0002665904811171
 20
0.0001228899596167
 30
0.0
  0
VERTEX
  5
B61
  8
0
 10
0.000251045852411
 20
0.0001210485239498
 30
0.0
  0
VERTEX
  5
B62
  8
0
 10
0.0002085648083296
 20
0.00011813404521
 30
0.0
  0
VERTEX
  5
B63
  8
0
 10
0.0001932576664159
 20
0.0001171063282451
 30
0.0
  0
VERTEX
  5
B64
  8
0
 10
0.0001579804217229
 20
0.0001191349717437
 30
0.0
  0
VERTEX
  5
B65
  8
0
 10
0.0001355022993244
 20
0.0001185111624296
 30
0.0
  0
VERTEX
  5
B66
  8
0
 10
0.0001334422627433
 20
0.0001181514302238
 30
0.0
  0
SEQEND
  5
11B9
  8
0
  0
POLYLINE
  5
121
  8
0
 66
     1
 10
0.0
 20
0.0
 30
0.0
 70
     1
  0
VERTEX
  5
B67
  8
0
 10
0.0002646351798636
 20
0.00007249940966
 30
0.0
  0
VERTEX
  5
B68
  8
0
 10
0.0002612132088083
 20
0.0000760026775423
 30
0.0
  0
VERTEX
  5
B69
  8
0
 10
0.0002801501915103
 20
0.0000783667892706
 30
0.0
  0
VERTEX
  5
B6A
  8
0
 10
0.0002873468617924
 20
0.0000836344984711
 30
0.0
  0
VERTEX
  5
B6B
  8
0
 10
0.000290164472236
 20
0.0000907117249536
 30
0.0
  0
VERTEX
  5
B6C
  8
0
 10
0.0002906244121614
 20
0.000092672104132
 30
0.0
  0
VERTEX
  5
B6D
  8
0
 10
0.0002978880710289
 20
0.0000837588450948
 30
0.0
  0
VERTEX
  5
B6E
  8
0
 10
0.0002989790994613
 20
0.0000815648313429
 30
0.0
  0
VERTEX
  5
B6F
  8
0
 10
0.0002990572444728
 20
0.0000806234641153
 30
0.0
  0
VERTEX
  5
B70
  8
0
 10
0.0002971703951476
 20
0.000080522355877
 30
0.0
  0
VERTEX
  5
B71
  8
0
 10
0.0002952237738938
 20
0.0000820628431977
 30
0.0
  0
VERTEX
  5
B72
  8
0
 10
0.0002954372468542
 20
0.0000804326542088
 30
0.0
  0
VERTEX
  5
B73
  8
0
 10
0.0002946978209449
 20
0.0000803969086194
 30
0.0
  0
VERTEX
  5
B74
  8
0
 10
0.0002926405359487
 20
0.0000815818411405
 30
0.0
  0
VERTEX
  5
B75
  8
0
 10
0.0002930998505139
 20
0.0000803210649334
 30
0.0
  0
VERTEX
  5
B76
  8
0
 10
0.0002898953797387
 20
0.000080179333296
 30
0.0
  0
VERTEX
  5
B77
  8
0
 10
0.0002802340648213
 20
0.0000743769411181
 30
0.0
  0
SEQEND
  5
11BA
  8
0
  0
POLYLINE
  5
122
  8
0
 66
     1
 10
0.0
 20
0.0
 30
0.0
 70
     1
  0
VERTEX
  5
B78
  8
0
 10
0.0002308946453157
 20
0.0003365798825123
 30
0.0
  0
VERTEX
  5
B79
  8
0
 10
0.0002236736109999
 20
0.0003296777318736
 30
0.0
  0
VERTEX
  5
B7A
  8
0
 10
0.0002299614327853
 20
0.0003357392733214
 30
0.0
  0
SEQEND
  5
11BB
  8
0
  0
POLYLINE
  5
123
  8
0
 66
     1
 10
0.0
 20
0.0
 30
0.0
 70
     1
  0
VERTEX
  5
B7B
  8
0
 10
0.0004433971029813
 20
0.000455017980982
 30
0.0
  0
VERTEX
  5
B7C
  8
0
 10
0.0004393821341092
 20
0.000457494935833
 30
0.0
  0
VERTEX
  5
B7D
  8
0
 10
0.000439186809102
 20
0.0004582868669854
 30
0.0
  0
VERTEX
  5
B7E
  8
0
 10
0.0004335541959669
 20
0.0004489979321839
 30
0.0
  0
VERTEX
  5
B7F
  8
0
 10
0.0004442539777912
 20
0.000453108043358
 30
0.0
  0
VERTEX
  5
B80
  8
0
 10
0.0004529935961864
 20
0.0004559327797812
 30
0.0
  0
VERTEX
  5
B81
  8
0
 10
0.0004540650789855
 20
0.000455546385343
 30
0.0
  0
VERTEX
  5
B82
  8
0
 10
0.000454264249958
 20
0.0004499927802164
 30
0.0
  0
VERTEX
  5
B83
  8
0
 10
0.0004557974893539
 20
0.0004464763015997
 30
0.0
  0
VERTEX
  5
B84
  8
0
 10
0.0004645959103694
 20
0.0004496737433262
 30
0.0
  0
VERTEX
  5
B85
  8
0
 10
0.0004655944667879
 20
0.0004545098601795
 30
0.0
  0
VERTEX
  5
B86
  8
0
 10
0.0004623718230451
 20
0.000458607626743
 30
0.0
  0
VERTEX
  5
B87
  8
0
 10
0.0004529634069224
 20
0.0004591475596193
 30
0.0
  0
VERTEX
  5
B88
  8
0
 10
0.0004465408012515
 20
0.0004574990507032
 30
0.0
  0
VERTEX
  5
B89
  8
0
 10
0.000443519736118
 20
0.000455317378435
 30
0.0
  0
SEQEND
  5
11BC
  8
0
  0
POLYLINE
  5
124
  8
0
 66
     1
 10
0.0
 20
0.0
 30
0.0
 70
     1
  0
VERTEX
  5
B8A
  8
0
 10
0.0001056996079742
 20
0.0001262371375913
 30
0.0
  0
VERTEX
  5
B8B
  8
0
 10
0.0001055702834833
 20
0.0001272341118484
 30
0.0
  0
VERTEX
  5
B8C
  8
0
 10
0.0001091188774734
 20
0.0001273917776639
 30
0.0
  0
VERTEX
  5
B8D
  8
0
 10
0.0001128666361824
 20
0.0001258560931096
 30
0.0
  0
VERTEX
  5
B8E
  8
0
 10
0.0001178246169794
 20
0.0001235872612625
 30
0.0
  0
VERTEX
  5
B8F
  8
0
 10
0.000121673133725
 20
0.0001193977481029
 30
0.0
  0
VERTEX
  5
B90
  8
0
 10
0.0001237486542248
 20
0.0001155482557953
 30
0.0
  0
VERTEX
  5
B91
  8
0
 10
0.000124660529465
 20
0.0001133813326476
 30
0.0
  0
VERTEX
  5
B92
  8
0
 10
0.0001263888249632
 20
0.0001058013665872
 30
0.0
  0
VERTEX
  5
B93
  8
0
 10
0.0001262725079646
 20
0.0000992760830238
 30
0.0
  0
VERTEX
  5
B94
  8
0
 10
0.0001254344252289
 20
0.0000909147168769
 30
0.0
  0
VERTEX
  5
B95
  8
0
 10
0.0001251824801085
 20
0.0000900149486104
 30
0.0
  0
VERTEX
  5
B96
  8
0
 10
0.0001244115360448
 20
0.0000907292600538
 30
0.0
  0
VERTEX
  5
B97
  8
0
 10
0.0001251829053535
 20
0.0000980205098137
 30
0.0
  0
VERTEX
  5
B98
  8
0
 10
0.0001254141885726
 20
0.0001041657244573
 30
0.0
  0
VERTEX
  5
B99
  8
0
 10
0.0001244859539095
 20
0.0001105320164415
 30
0.0
  0
VERTEX
  5
B9A
  8
0
 10
0.0001234926567703
 20
0.0001138448746478
 30
0.0
  0
VERTEX
  5
B9B
  8
0
 10
0.0001215316772461
 20
0.0001177188310467
 30
0.0
  0
VERTEX
  5
B9C
  8
0
 10
0.0001193512213035
 20
0.0001209295804383
 30
0.0
  0
VERTEX
  5
B9D
  8
0
 10
0.0001163747318455
 20
0.0001231580890593
 30
0.0
  0
VERTEX
  5
B9E
  8
0
 10
0.0001106114121734
 20
0.0001258682501121
 30
0.0
  0
VERTEX
  5
B9F
  8
0
 10
0.0001073077842837
 20
0.0001265809356189
 30
0.0
  0
SEQEND
  5
11BD
  8
0
  0
POLYLINE
  5
125
  8
0
 66
     1
 10
0.0
 20
0.0
 30
0.0
 70
     1
  0
VERTEX
  5
BA0
  8
0
 10
0.0000953296598841
 20
0.0000939357069672
 30
0.0
  0
VERTEX
  5
BA1
  8
0
 10
0.0000944245385342
 20
0.0000935018570697
 30
0.0
  0
VERTEX
  5
BA2
  8
0
 10
0.0001002788105949
 20
0.0000809103543641
 30
0.0
  0
VERTEX
  5
BA3
  8
0
 10
0.0001131752389376
 20
0.0000756520255667
 30
0.0
  0
VERTEX
  5
BA4
  8
0
 10
0.0001171871998271
 20
0.0000768287533619
 30
0.0
  0
VERTEX
  5
BA5
  8
0
 10
0.0001210707367444
 20
0.0000810369022557
 30
0.0
  0
VERTEX
  5
BA6
  8
0
 10
0.0001234294203461
 20
0.0000849606123127
 30
0.0
  0
VERTEX
  5
BA7
  8
0
 10
0.000122646144179
 20
0.0000855302404185
 30
0.0
  0
VERTEX
  5
BA8
  8
0
 10
0.0001188111852427
 20
0.0000798366859311
 30
0.0
  0
VERTEX
  5
BA9
  8
0
 10
0.000116587654489
 20
0.0000776298147733
 30
0.0
  0
VERTEX
  5
BAA
  8
0
 10
0.0001127842387215
 20
0.0000766092769435
 30
0.0
  0
VERTEX
  5
BAB
  8
0
 10
0.0001016290133117
 20
0.0000808501947122
 30
0.0
  0
VERTEX
  5
BAC
  8
0
 10
0.0000976379644675
 20
0.0000874184780434
 30
0.0
  0
SEQEND
  5
11BE
  8
0
  0
POLYLINE
  5
126
  8
0
 66
     1
 10
0.0
 20
0.0
 30
0.0
 70
     1
  0
VERTEX
  5
BAD
  8
0
 10
0.0001005143712779
 20
0.000095904440958
 30
0.0
  0
VERTEX
  5
BAE
  8
0
 10
0.0000996192556913
 20
0.0000953833658187
 30
0.0
  0
VERTEX
  5
BAF
  8
0
 10
0.0001070690217565
 20
0.000085484814253
 30
0.0
  0
VERTEX
  5
BB0
  8
0
 10
0.0001104285568487
 20
0.0000850382820505
 30
0.0
  0
VERTEX
  5
BB1
  8
0
 10
0.0001176517924324
 20
0.0000905469050173
 30
0.0
  0
VERTEX
  5
BB2
  8
0
 10
0.0001168166864114
 20
0.0000911967793449
 30
0.0
  0
VERTEX
  5
BB3
  8
0
 10
0.0001141033235143
 20
0.0000874116240955
 30
0.0
  0
VERTEX
  5
BB4
  8
0
 10
0.0001079049032243
 20
0.0000862597856365
 30
0.0
  0
VERTEX
  5
BB5
  8
0
 10
0.0001045574250768
 20
0.0000887266315398
 30
0.0
  0
SEQEND
  5
11BF
  8
0
  0
POLYLINE
  5
127
  8
0
 66
     1
 10
0.0
 20
0.0
 30
0.0
 70
     1
  0
VERTEX
  5
BB6
  8
0
 10
0.0001040899308001
 20
0.0000981377023165
 30
0.0
  0
VERTEX
  5
BB7
  8
0
 10
0.000104992050421
 20
0.0000985704265657
 30
0.0
  0
VERTEX
  5
BB8
  8
0
 10
0.0001068199532931
 20
0.0000942928376745
 30
0.0
  0
VERTEX
  5
BB9
  8
0
 10
0.0001094104954454
 20
0.0000933621766137
 30
0.0
  0
VERTEX
  5
BBA
  8
0
 10
0.0001116019827421
 20
0.0000951323962602
 30
0.0
  0
VERTEX
  5
BBB
  8
0
 10
0.0001120266773662
 20
0.0000955127403384
 30
0.0
  0
VERTEX
  5
BBC
  8
0
 10
0.0001125558071449
 20
0.0000947742149478
 30
0.0
  0
VERTEX
  5
BBD
  8
0
 10
0.0001081238543401
 20
0.0000922930357886
 30
0.0
  0
VERTEX
  5
BBE
  8
0
 10
0.0001051912901831
 20
0.0000954043278929
 30
0.0
  0
SEQEND
  5
11C0
  8
0
  0
POLYLINE
  5
128
  8
0
 66
     1
 10
0.0
 20
0.0
 30
0.0
 70
     1
  0
VERTEX
  5
BBF
  8
0
 10
0.0001062779661085
 20
0.0001217790697442
 30
0.0
  0
VERTEX
  5
BC0
  8
0
 10
0.0001061492419634
 20
0.000122771241235
 30
0.0
  0
VERTEX
  5
BC1
  8
0
 10
0.0001103101386399
 20
0.0001224726442431
 30
0.0
  0
VERTEX
  5
BC2
  8
0
 10
0.0001142562115779
 20
0.0001205071871398
 30
0.0
  0
VERTEX
  5
BC3
  8
0
 10
0.0001178586115603
 20
0.0001176069415984
 30
0.0
  0
VERTEX
  5
BC4
  8
0
 10
0.000119685638928
 20
0.0001150759587522
 30
0.0
  0
VERTEX
  5
BC5
  8
0
 10
0.00012159281246
 20
0.0001117726310355
 30
0.0
  0
VERTEX
  5
BC6
  8
0
 10
0.0001228865576572
 20
0.0001082201848265
 30
0.0
  0
VERTEX
  5
BC7
  8
0
 10
0.0001233891471488
 20
0.0001033925791256
 30
0.0
  0
VERTEX
  5
BC8
  8
0
 10
0.0001219875898518
 20
0.0000930845667104
 30
0.0
  0
VERTEX
  5
BC9
  8
0
 10
0.0001216758102667
 20
0.0000922544885854
 30
0.0
  0
VERTEX
  5
BCA
  8
0
 10
0.0001209467403224
 20
0.0000929420846408
 30
0.0
  0
VERTEX
  5
BCB
  8
0
 10
0.0001218132894547
 20
0.0000986143768811
 30
0.0
  0
VERTEX
  5
BCC
  8
0
 10
0.0001223327136431
 20
0.0001065284353788
 30
0.0
  0
VERTEX
  5
BCD
  8
0
 10
0.0001208904078749
 20
0.0001107455644451
 30
0.0
  0
VERTEX
  5
BCE
  8
0
 10
0.0001188463555008
 20
0.0001145342967549
 30
0.0
  0
VERTEX
  5
BCF
  8
0
 10
0.0001167003443984
 20
0.0001174596567623
 30
0.0
  0
VERTEX
  5
BD0
  8
0
 10
0.0001138373453109
 20
0.0001196015905161
 30
0.0
  0
VERTEX
  5
BD1
  8
0
 10
0.0001096017806256
 20
0.0001216816386238
 30
0.0
  0
SEQEND
  5
11C1
  8
0
  0
POLYLINE
  5
129
  8
0
 66
     1
 10
0.0
 20
0.0
 30
0.0
 70
     1
  0
VERTEX
  5
BD2
  8
0
 10
0.0001068954717918
 20
0.0001170189779313
 30
0.0
  0
VERTEX
  5
BD3
  8
0
 10
0.0001067619949091
 20
0.0001180479706311
 30
0.0
  0
VERTEX
  5
BD4
  8
0
 10
0.000111548677038
 20
0.0001168538077933
 30
0.0
  0
VERTEX
  5
BD5
  8
0
 10
0.0001154703859423
 20
0.0001137549228356
 30
0.0
  0
VERTEX
  5
BD6
  8
0
 10
0.0001178837260262
 20
0.0001113506379675
 30
0.0
  0
VERTEX
  5
BD7
  8
0
 10
0.0001192510886271
 20
0.0001074982690029
 30
0.0
  0
VERTEX
  5
BD8
  8
0
 10
0.0001197008977171
 20
0.0001040463306865
 30
0.0
  0
VERTEX
  5
BD9
  8
0
 10
0.0001190614043689
 20
0.0000984455046107
 30
0.0
  0
VERTEX
  5
BDA
  8
0
 10
0.0001186307062868
 20
0.0000942917370405
 30
0.0
  0
VERTEX
  5
BDB
  8
0
 10
0.0001177766393443
 20
0.0000948372012279
 30
0.0
  0
VERTEX
  5
BDC
  8
0
 10
0.0001180706837138
 20
0.000098570076364
 30
0.0
  0
VERTEX
  5
BDD
  8
0
 10
0.0001187055493965
 20
0.0001039758901127
 30
0.0
  0
VERTEX
  5
BDE
  8
0
 10
0.0001174349175125
 20
0.0001102704908027
 30
0.0
  0
VERTEX
  5
BDF
  8
0
 10
0.000115372404505
 20
0.0001125499537734
 30
0.0
  0
VERTEX
  5
BE0
  8
0
 10
0.0001117013900006
 20
0.0001155037051342
 30
0.0
  0
VERTEX
  5
BE1
  8
0
 10
0.0001084330074123
 20
0.0001168293186876
 30
0.0
  0
SEQEND
  5
11C2
  8
0
  0
POLYLINE
  5
12A
  8
0
 66
     1
 10
0.0
 20
0.0
 30
0.0
 70
     1
  0
VERTEX
  5
BE2
  8
0
 10
0.0001150335093014
 20
0.0000967185849049
 30
0.0
  0
VERTEX
  5
BE3
  8
0
 10
0.0001159154673092
 20
0.0000961553104588
 30
0.0
  0
VERTEX
  5
BE4
  8
0
 10
0.0001166541177718
 20
0.0001035963214812
 30
0.0
  0
VERTEX
  5
BE5
  8
0
 10
0.0001161118053999
 20
0.0001076811743564
 30
0.0
  0
VERTEX
  5
BE6
  8
0
 10
0.0001132547597416
 20
0.0001099409259734
 30
0.0
  0
VERTEX
  5
BE7
  8
0
 10
0.0001102162595655
 20
0.0001123985415599
 30
0.0
  0
VERTEX
  5
BE8
  8
0
 10
0.0001079184360191
 20
0.000113084036405
 30
0.0
  0
VERTEX
  5
BE9
  8
0
 10
0.0001072110535669
 20
0.0001131193817639
 30
0.0
  0
VERTEX
  5
BEA
  8
0
 10
0.0001076537585649
 20
0.0001121221073338
 30
0.0
  0
VERTEX
  5
BEB
  8
0
 10
0.0001114943457431
 20
0.0001104058687804
 30
0.0
  0
VERTEX
  5
BEC
  8
0
 10
0.0001135460275118
 20
0.0001084546949043
 30
0.0
  0
VERTEX
  5
BED
  8
0
 10
0.000115547805536
 20
0.0001064884123255
 30
0.0
  0
VERTEX
  5
BEE
  8
0
 10
0.0001151492009397
 20
0.0000976032944976
 30
0.0
  0
SEQEND
  5
11C3
  8
0
  0
POLYLINE
  5
12B
  8
0
 66
     1
 10
0.0
 20
0.0
 30
0.0
 70
     1
  0
VERTEX
  5
BEF
  8
0
 10
0.0001081619262695
 20
0.0001072569299917
 30
0.0
  0
VERTEX
  5
BF0
  8
0
 10
0.0001080231963611
 20
0.0001083261708744
 30
0.0
  0
VERTEX
  5
BF1
  8
0
 10
0.0001130620987689
 20
0.0001052658581343
 30
0.0
  0
VERTEX
  5
BF2
  8
0
 10
0.000113973423692
 20
0.0001011937876217
 30
0.0
  0
VERTEX
  5
BF3
  8
0
 10
0.000113585675349
 20
0.0000975137929447
 30
0.0
  0
VERTEX
  5
BF4
  8
0
 10
0.0001127240540551
 20
0.0000980640598985
 30
0.0
  0
VERTEX
  5
BF5
  8
0
 10
0.00011304366315
 20
0.0001018939909388
 30
0.0
  0
VERTEX
  5
BF6
  8
0
 10
0.0001104415893555
 20
0.0001063179641473
 30
0.0
  0
SEQEND
  5
11C4
  8
0
  0
POLYLINE
  5
12C
  8
0
 66
     1
 10
0.0
 20
0.0
 30
0.0
 70
     1
  0
VERTEX
  5
BF7
  8
0
 10
0.0000934129058338
 20
0.0000985983676598
 30
0.0
  0
VERTEX
  5
BF8
  8
0
 10
0.0000943953967485
 20
0.0000987863759525
 30
0.0
  0
VERTEX
  5
BF9
  8
0
 10
0.0000921957797691
 20
0.0001093540879547
 30
0.0
  0
VERTEX
  5
BFA
  8
0
 10
0.0000941738441342
 20
0.0001147468691967
 30
0.0
  0
VERTEX
  5
BFB
  8
0
 10
0.000097083670194
 20
0.0001179117171491
 30
0.0
  0
VERTEX
  5
BFC
  8
0
 10
0.0001003926511671
 20
0.0001226845913246
 30
0.0
  0
VERTEX
  5
BFD
  8
0
 10
0.0001013633352811
 20
0.0001244542106253
 30
0.0
  0
VERTEX
  5
BFE
  8
0
 10
0.0001008723774894
 20
0.000125030267434
 30
0.0
  0
VERTEX
  5
BFF
  8
0
 10
0.0000982660262311
 20
0.0001214672151159
 30
0.0
  0
VERTEX
  5
C00
  8
0
 10
0.0000942923373863
 20
0.0001161833466076
 30
0.0
  0
VERTEX
  5
C01
  8
0
 10
0.0000918225898117
 20
0.0001131004708712
 30
0.0
  0
VERTEX
  5
C02
  8
0
 10
0.0000912720476995
 20
0.0001086886046363
 30
0.0
  0
SEQEND
  5
11C5
  8
0
  0
POLYLINE
  5
12D
  8
0
 66
     1
 10
0.0
 20
0.0
 30
0.0
 70
     1
  0
VERTEX
  5
C03
  8
0
 10
0.0000966043441022
 20
0.000099209069424
 30
0.0
  0
VERTEX
  5
C04
  8
0
 10
0.000097586835017
 20
0.0000993970777168
 30
0.0
  0
VERTEX
  5
C05
  8
0
 10
0.0000956482433882
 20
0.0001074411861232
 30
0.0
  0
VERTEX
  5
C06
  8
0
 10
0.0000956002907675
 20
0.0001094067933129
 30
0.0
  0
VERTEX
  5
C07
  8
0
 10
0.0000965921870998
 20
0.000111298532955
 30
0.0
  0
VERTEX
  5
C08
  8
0
 10
0.000098253644099
 20
0.0001128922009077
 30
0.0
  0
VERTEX
  5
C09
  8
0
 10
0.0001004878059762
 20
0.0001158289924997
 30
0.0
  0
VERTEX
  5
C0A
  8
0
 10
0.0001025515446897
 20
0.0001194892257941
 30
0.0
  0
VERTEX
  5
C0B
  8
0
 10
0.0001021248989418
 20
0.0001206599001025
 30
0.0
  0
VERTEX
  5
C0C
  8
0
 10
0.0000996536755171
 20
0.0001163795846408
 30
0.0
  0
VERTEX
  5
C0D
  8
0
 10
0.000097504987873
 20
0.0001135528814597
 30
0.0
  0
VERTEX
  5
C0E
  8
0
 10
0.0000953296848985
 20
0.0001114655791736
 30
0.0
  0
VERTEX
  5
C0F
  8
0
 10
0.0000946223774894
 20
0.0001085643830847
 30
0.0
  0
VERTEX
  5
C10
  8
0
 10
0.0000948228179431
 20
0.0001065518738794
 30
0.0
  0
SEQEND
  5
11C6
  8
0
  0
POLYLINE
  5
12E
  8
0
 66
     1
 10
0.0
 20
0.0
 30
0.0
 70
     1
  0
VERTEX
  5
C11
  8
0
 10
0.0000994273451508
 20
0.0000997492805856
 30
0.0
  0
VERTEX
  5
C12
  8
0
 10
0.00010040986108
 20
0.0000999372888784
 30
0.0
  0
VERTEX
  5
C13
  8
0
 10
0.0000991557887343
 20
0.0001046175597144
 30
0.0
  0
VERTEX
  5
C14
  8
0
 10
0.0000990555309858
 20
0.0001064537423556
 30
0.0
  0
VERTEX
  5
C15
  8
0
 10
0.0001001794033363
 20
0.0001092420484199
 30
0.0
  0
VERTEX
  5
C16
  8
0
 10
0.0001026471247439
 20
0.0001129644425189
 30
0.0
  0
VERTEX
  5
C17
  8
0
 10
0.0001037775758837
 20
0.0001149136152424
 30
0.0
  0
VERTEX
  5
C18
  8
0
 10
0.0001034031352059
 20
0.0001158895023534
 30
0.0
  0
VERTEX
  5
C19
  8
0
 10
0.000101824776071
 20
0.000113535496446
 30
0.0
  0
VERTEX
  5
C1A
  8
0
 10
0.0000993499755859
 20
0.0001097964927798
 30
0.0
  0
VERTEX
  5
C1B
  8
0
 10
0.00009805765621
 20
0.0001064400594743
 30
0.0
  0
VERTEX
  5
C1C
  8
0
 10
0.0000983591298588
 20
0.0001037359769227
 30
0.0
  0
SEQEND
  5
11C7
  8
0
  0
POLYLINE
  5
12F
  8
0
 66
     1
 10
0.0
 20
0.0
 30
0.0
 70
     1
  0
VERTEX
  5
C1D
  8
0
 10
0.0001015648013256
 20
0.0001001583161901
 30
0.0
  0
VERTEX
  5
C1E
  8
0
 10
0.0001025447907995
 20
0.0001003458241947
 30
0.0
  0
VERTEX
  5
C1F
  8
0
 10
0.0001017026807441
 20
0.0001056424750656
 30
0.0
  0
VERTEX
  5
C20
  8
0
 10
0.0001034280245421
 20
0.0001089850253746
 30
0.0
  0
VERTEX
  5
C21
  8
0
 10
0.0001048146482374
 20
0.0001113243228099
 30
0.0
  0
VERTEX
  5
C22
  8
0
 10
0.0001044073136126
 20
0.0001121417686587
 30
0.0
  0
VERTEX
  5
C23
  8
0
 10
0.0001034060368772
 20
0.0001107787835793
 30
0.0
  0
VERTEX
  5
C24
  8
0
 10
0.0001007339477539
 20
0.0001061077680744
 30
0.0
  0
SEQEND
  5
11C8
  8
0
  0
POLYLINE
  5
130
  8
0
 66
     1
 10
0.0
 20
0.0
 30
0.0
 70
     1
  0
VERTEX
  5
C25
  8
0
 10
0.000103645749952
 20
0.0001005565205558
 30
0.0
  0
VERTEX
  5
C26
  8
0
 10
0.0001046258895124
 20
0.0001007440785893
 30
0.0
  0
VERTEX
  5
C27
  8
0
 10
0.0001050380018891
 20
0.000105741256964
 30
0.0
  0
VERTEX
  5
C28
  8
0
 10
0.0001059204601851
 20
0.0001069156584193
 30
0.0
  0
VERTEX
  5
C29
  8
0
 10
0.0001055430678071
 20
0.0001079031272013
 30
0.0
  0
VERTEX
  5
C2A
  8
0
 10
0.0001034023347448
 20
0.0001035118978532
 30
0.0
  0
SEQEND
  5
11C9
  8
0
  0
POLYLINE
  5
131
  8
0
 66
     1
 10
0.0
 20
0.0
 30
0.0
 70
     1
  0
VERTEX
  5
C2B
  8
0
 10
0.0001196725814069
 20
0.0000882532588771
 30
0.0
  0
VERTEX
  5
C2C
  8
0
 10
0.0001204307180936
 20
0.0000875586087586
 30
0.0
  0
VERTEX
  5
C2D
  8
0
 10
0.0001169098400679
 20
0.0000819671630859
 30
0.0
  0
VERTEX
  5
C2E
  8
0
 10
0.0001104143736792
 20
0.0000804180708088
 30
0.0
  0
VERTEX
  5
C2F
  8
0
 10
0.000108230265633
 20
0.0000813474811491
 30
0.0
  0
VERTEX
  5
C30
  8
0
 10
0.0000979309082031
 20
0.0000919626204694
 30
0.0
  0
VERTEX
  5
C31
  8
0
 10
0.0000973628810195
 20
0.0000950338144771
 30
0.0
  0
VERTEX
  5
C32
  8
0
 10
0.0000982919911869
 20
0.0000953570006324
 30
0.0
  0
VERTEX
  5
C33
  8
0
 10
0.0000995869871046
 20
0.0000903883136687
 30
0.0
  0
VERTEX
  5
C34
  8
0
 10
0.0001086018796827
 20
0.0000822752155241
 30
0.0
  0
VERTEX
  5
C35
  8
0
 10
0.000110758421851
 20
0.0000813561861632
 30
0.0
  0
VERTEX
  5
C36
  8
0
 10
0.0001161618592309
 20
0.0000826323962602
 30
0.0
  0
SEQEND
  5
11CA
  8
0
  0
POLYLINE
  5
132
  8
0
 66
     1
 10
0.0
 20
0.0
 30
0.0
 70
     1
  0
VERTEX
  5
C37
  8
0
 10
0.0001149579657883
 20
0.0000925748481125
 30
0.0
  0
VERTEX
  5
C38
  8
0
 10
0.0001141950263352
 20
0.0000932737506804
 30
0.0
  0
VERTEX
  5
C39
  8
0
 10
0.0001090250484279
 20
0.0000902171650871
 30
0.0
  0
VERTEX
  5
C3A
  8
0
 10
0.0001057590171939
 20
0.0000921371960249
 30
0.0
  0
VERTEX
  5
C3B
  8
0
 10
0.0001029448962602
 20
0.0000973133775054
 30
0.0
  0
VERTEX
  5
C3C
  8
0
 10
0.0001027278962683
 20
0.0000976920956471
 30
0.0
  0
VERTEX
  5
C3D
  8
0
 10
0.0001019662325499
 20
0.000097119015553
 30
0.0
  0
VERTEX
  5
C3E
  8
0
 10
0.0001084643004371
 20
0.0000893548684042
 30
0.0
  0
VERTEX
  5
C3F
  8
0
 10
0.0001147248064885
 20
0.0000921806460521
 30
0.0
  0
SEQEND
  5
11CB
  8
0
  0
POLYLINE
  5
133
  8
0
 66
     1
 10
0.0
 20
0.0
 30
0.0
  0
VERTEX
  5
C40
  8
0
 10
0.0004193088969246
 20
0.0001135207129306
 30
0.0
  0
VERTEX
  5
C41
  8
0
 10
0.0004233160300333
 20
0.0001115163834369
 30
0.0
  0
VERTEX
  5
C42
  8
0
 10
0.0004282561192747
 20
0.0001109743462234
 30
0.0
  0
SEQEND
  5
11CC
  8
0
  0
POLYLINE
  5
134
  8
0
 66
     1
 10
0.0
 20
0.0
 30
0.0
  0
VERTEX
  5
C43
  8
0
 10
0.0004164819998819
 20
0.0001129383274766
 30
0.0
  0
VERTEX
  5
C44
  8
0
 10
0.0004213035958712
 20
0.0001104335597304
 30
0.0
  0
VERTEX
  5
C45
  8
0
 10
0.0004279313071829
 20
0.0001097763811956
 30
0.0
  0
SEQEND
  5
11CD
  8
0
  0
POLYLINE
  5
135
  8
0
 66
     1
 10
0.0
 20
0.0
 30
0.0
  0
VERTEX
  5
C46
  8
0
 10
0.0004131388304663
 20
0.0001124365634606
 30
0.0
  0
VERTEX
  5
C47
  8
0
 10
0.0004162297796031
 20
0.0001103976390401
 30
0.0
  0
VERTEX
  5
C48
  8
0
 10
0.0004178741517614
 20
0.0001093680710089
 30
0.0
  0
VERTEX
  5
C49
  8
0
 10
0.0004275096643166
 20
0.0001084459398614
 30
0.0
  0
SEQEND
  5
11CE
  8
0
  0
POLYLINE
  5
136
  8
0
 66
     1
 10
0.0
 20
0.0
 30
0.0
  0
VERTEX
  5
C4A
  8
0
 10
0.000409233449717
 20
0.0001118822691871
 30
0.0
  0
VERTEX
  5
C4B
  8
0
 10
0.0004124378829706
 20
0.0001097396100154
 30
0.0
  0
VERTEX
  5
C4C
  8
0
 10
0.0004198625971059
 20
0.0001075200565526
 30
0.0
  0
VERTEX
  5
C4D
  8
0
 10
0.0004270329709913
 20
0.000106967838475
 30
0.0
  0
SEQEND
  5
11CF
  8
0
  0
POLYLINE
  5
137
  8
0
 66
     1
 10
0.0
 20
0.0
 30
0.0
  0
VERTEX
  5
C4E
  8
0
 10
0.0004315888514284
 20
0.0001114180517978
 30
0.0
  0
VERTEX
  5
C4F
  8
0
 10
0.0004367717492776
 20
0.0001116384037205
 30
0.0
  0
VERTEX
  5
C50
  8
0
 10
0.0004376294245485
 20
0.0001127365862737
 30
0.0
  0
VERTEX
  5
C51
  8
0
 10
0.0004364611766377
 20
0.0001137094966701
 30
0.0
  0
SEQEND
  5
11D0
  8
0
  0
POLYLINE
  5
138
  8
0
 66
     1
 10
0.0
 20
0.0
 30
0.0
  0
VERTEX
  5
C52
  8
0
 10
0.0004319114059698
 20
0.0001104360611712
 30
0.0
  0
VERTEX
  5
C53
  8
0
 10
0.0004403741304992
 20
0.0001116688462554
 30
0.0
  0
VERTEX
  5
C54
  8
0
 10
0.0004401551418617
 20
0.0001136356541368
 30
0.0
  0
VERTEX
  5
C55
  8
0
 10
0.0004392475753534
 20
0.000114219215268
 30
0.0
  0
SEQEND
  5
11D1
  8
0
  0
POLYLINE
  5
139
  8
0
 66
     1
 10
0.0
 20
0.0
 30
0.0
  0
VERTEX
  5
C56
  8
0
 10
0.0004321757832512
 20
0.0001096343994141
 30
0.0
  0
VERTEX
  5
C57
  8
0
 10
0.0004424609825259
 20
0.0001102749433674
 30
0.0
  0
VERTEX
  5
C58
  8
0
 10
0.0004448488641958
 20
0.0001127564477139
 30
0.0
  0
VERTEX
  5
C59
  8
0
 10
0.0004425218675957
 20
0.0001148181352459
 30
0.0
  0
SEQEND
  5
11D2
  8
0
  0
POLYLINE
  5
13A
  8
0
 66
     1
 10
0.0
 20
0.0
 30
0.0
  0
VERTEX
  5
C5A
  8
0
 10
0.0004325999275583
 20
0.00010834538194
 30
0.0
  0
VERTEX
  5
C5B
  8
0
 10
0.0004475022800633
 20
0.0001102231885566
 30
0.0
  0
VERTEX
  5
C5C
  8
0
 10
0.0004498954960557
 20
0.000112704442759
 30
0.0
  0
VERTEX
  5
C5D
  8
0
 10
0.0004455838187796
 20
0.0001153780327469
 30
0.0
  0
SEQEND
  5
11D3
  8
0
  0
POLYLINE
  5
13B
  8
0
 66
     1
 10
0.0
 20
0.0
 30
0.0
  0
VERTEX
  5
C5E
  8
0
 10
0.0004330238967645
 20
0.0001070582405466
 30
0.0
  0
VERTEX
  5
C5F
  8
0
 10
0.0004503238459102
 20
0.0001082570560643
 30
0.0
  0
VERTEX
  5
C60
  8
0
 10
0.0004542660666294
 20
0.000112138967045
 30
0.0
  0
VERTEX
  5
C61
  8
0
 10
0.0004537091802378
 20
0.0001130687275871
 30
0.0
  0
VERTEX
  5
C62
  8
0
 10
0.0004490687792418
 20
0.0001160164754899
 30
0.0
  0
SEQEND
  5
11D4
  8
0
  0
POLYLINE
  5
13C
  8
0
 66
     1
 10
0.0
 20
0.0
 30
0.0
  0
VERTEX
  5
C63
  8
0
 10
0.0004285666919145
 20
0.000111935074603
 30
0.0
  0
VERTEX
  5
C64
  8
0
 10
0.0004230860725778
 20
0.0001137048690045
 30
0.0
  0
VERTEX
  5
C65
  8
0
 10
0.0004264272408407
 20
0.0001156235491643
 30
0.0
  0
SEQEND
  5
11D5
  8
0
  0
POLYLINE
  5
13D
  8
0
 66
     1
 10
0.0
 20
0.0
 30
0.0
  0
VERTEX
  5
C66
  8
0
 10
0.0004357118887979
 20
0.0001147960975522
 30
0.0
  0
VERTEX
  5
C67
  8
0
 10
0.0004266704559326
 20
0.0001165426035396
 30
0.0
  0
VERTEX
  5
C68
  8
0
 10
0.0004230727524054
 20
0.0001157931218382
 30
0.0
  0
VERTEX
  5
C69
  8
0
 10
0.0004201125473273
 20
0.0001149610425605
 30
0.0
  0
VERTEX
  5
C6A
  8
0
 10
0.0004197539657843
 20
0.0001147514718478
 30
0.0
  0
SEQEND
  5
11D6
  8
0
  0
POLYLINE
  5
13E
  8
0
 66
     1
 10
0.0
 20
0.0
 30
0.0
  0
VERTEX
  5
C6B
  8
0
 10
0.0004426494473317
 20
0.000117608392434
 30
0.0
  0
VERTEX
  5
C6C
  8
0
 10
0.0004263454937544
 20
0.0001204644875448
 30
0.0
  0
VERTEX
  5
C6D
  8
0
 10
0.0004144684338179
 20
0.0001202225231733
 30
0.0
  0
VERTEX
  5
C6E
  8
0
 10
0.0004101565126513
 20
0.0001187877967709
 30
0.0
  0
VERTEX
  5
C6F
  8
0
 10
0.0004067549658603
 20
0.0001172724989594
 30
0.0
  0
VERTEX
  5
C70
  8
0
 10
0.0004056617299064
 20
0.0001150675789255
 30
0.0
  0
SEQEND
  5
11D7
  8
0
  0
POLYLINE
  5
13F
  8
0
 66
     1
 10
0.0
 20
0.0
 30
0.0
  0
VERTEX
  5
C71
  8
0
 10
0.0004401203968486
 20
0.0001165954589844
 30
0.0
  0
VERTEX
  5
C72
  8
0
 10
0.0004282592210613
 20
0.0001190987758949
 30
0.0
  0
VERTEX
  5
C73
  8
0
 10
0.0004171399726242
 20
0.0001187132538342
 30
0.0
  0
VERTEX
  5
C74
  8
0
 10
0.0004128257563857
 20
0.0001173980462747
 30
0.0
  0
VERTEX
  5
C75
  8
0
 10
0.0004105509210805
 20
0.0001161230618836
 30
0.0
  0
VERTEX
  5
C76
  8
0
 10
0.0004098650760338
 20
0.0001146854588243
 30
0.0
  0
SEQEND
  5
11D8
  8
0
  0
POLYLINE
  5
140
  8
0
 66
     1
 10
0.0
 20
0.0
 30
0.0
  0
VERTEX
  5
C77
  8
0
 10
0.0004133678623887
 20
0.0001142714953813
 30
0.0
  0
VERTEX
  5
C78
  8
0
 10
0.0004193446612749
 20
0.0001172152409788
 30
0.0
  0
VERTEX
  5
C79
  8
0
 10
0.0004231864741591
 20
0.000117708249952
 30
0.0
  0
VERTEX
  5
C7A
  8
0
 10
0.000431788885398
 20
0.0001172864569992
 30
0.0
  0
VERTEX
  5
C7B
  8
0
 10
0.0004378207910256
 20
0.0001160937449971
 30
0.0
  0
SEQEND
  5
11D9
  8
0
  0
POLYLINE
  5
141
  8
0
 66
     1
 10
0.0
 20
0.0
 30
0.0
 70
     1
  0
VERTEX
  5
C7C
  8
0
 10
0.0004172757258181
 20
0.0005372128252123
 30
0.0
  0
VERTEX
  5
C7D
  8
0
 10
0.0004108892034312
 20
0.0005391770159612
 30
0.0
  0
VERTEX
  5
C7E
  8
0
 10
0.0004218262719326
 20
0.0005471042914469
 30
0.0
  0
VERTEX
  5
C7F
  8
0
 10
0.0004251105136559
 20
0.000541332010363
 30
0.0
  0
VERTEX
  5
C80
  8
0
 10
0.0004253163884898
 20
0.0005406389517862
 30
0.0
  0
VERTEX
  5
C81
  8
0
 10
0.0004272324421367
 20
0.0005434825115517
 30
0.0
  0
VERTEX
  5
C82
  8
0
 10
0.00042965980905
 20
0.0005408894085493
 30
0.0
  0
VERTEX
  5
C83
  8
0
 10
0.0004292547632436
 20
0.000533917380161
 30
0.0
  0
VERTEX
  5
C84
  8
0
 10
0.0004213428747459
 20
0.0005333076727195
 30
0.0
  0
VERTEX
  5
C85
  8
0
 10
0.0004180793699671
 20
0.0005349365390715
 30
0.0
  0
VERTEX
  5
C86
  8
0
 10
0.0004177313132364
 20
0.000534460727504
 30
0.0
  0
VERTEX
  5
C87
  8
0
 10
0.0004172754256452
 20
0.0005372130003132
 30
0.0
  0
SEQEND
  5
11DA
  8
0
  0
POLYLINE
  5
142
  8
0
 66
     1
 10
0.0
 20
0.0
 30
0.0
 70
     1
  0
VERTEX
  5
C88
  8
0
 10
0.000389759326372
 20
0.0004947037935257
 30
0.0
  0
VERTEX
  5
C89
  8
0
 10
0.0003916166712026
 20
0.0004970338926941
 30
0.0
  0
VERTEX
  5
C8A
  8
0
 10
0.0003857733554527
 20
0.0005080012813943
 30
0.0
  0
VERTEX
  5
C8B
  8
0
 10
0.0003871322506764
 20
0.0004926928496752
 30
0.0
  0
VERTEX
  5
C8C
  8
0
 10
0.0003874148634614
 20
0.0004914131657022
 30
0.0
  0
SEQEND
  5
11DB
  8
0
  0
POLYLINE
  5
143
  8
0
 66
     1
 10
0.0
 20
0.0
 30
0.0
 70
     1
  0
VERTEX
  5
C8D
  8
0
 10
0.0000468390793097
 20
0.0004497571226026
 30
0.0
  0
VERTEX
  5
C8E
  8
0
 10
0.0000447942514889
 20
0.0004433959710793
 30
0.0
  0
VERTEX
  5
C8F
  8
0
 10
0.0000370058653785
 20
0.0004544323499085
 30
0.0
  0
VERTEX
  5
C90
  8
0
 10
0.0000428192138672
 20
0.0004576433650783
 30
0.0
  0
VERTEX
  5
C91
  8
0
 10
0.0000435148145332
 20
0.0004578404723621
 30
0.0
  0
VERTEX
  5
C92
  8
0
 10
0.0000406957407467
 20
0.0004597923185005
 30
0.0
  0
VERTEX
  5
C93
  8
0
 10
0.0000433193019179
 20
0.0004621867101701
 30
0.0
  0
VERTEX
  5
C94
  8
0
 10
0.0000502856645428
 20
0.0004616935604908
 30
0.0
  0
VERTEX
  5
C95
  8
0
 10
0.0000507952580686
 20
0.0004537746022959
 30
0.0
  0
VERTEX
  5
C96
  8
0
 10
0.0000491252961706
 20
0.0004505319532801
 30
0.0
  0
VERTEX
  5
C97
  8
0
 10
0.0000495967177094
 20
0.0004501778930914
 30
0.0
  0
VERTEX
  5
C98
  8
0
 10
0.0000468388791944
 20
0.0004497568286833
 30
0.0
  0
SEQEND
  5
11DC
  8
0
  0
POLYLINE
  5
144
  8
0
 66
     1
 10
0.0
 20
0.0
 30
0.0
 70
     1
  0
VERTEX
  5
C99
  8
0
 10
0.0001720520519819
 20
0.0000738807052862
 30
0.0
  0
VERTEX
  5
C9A
  8
0
 10
0.0001741596159388
 20
0.0000739459928919
 30
0.0
  0
VERTEX
  5
C9B
  8
0
 10
0.000176051855869
 20
0.0000752112716925
 30
0.0
  0
VERTEX
  5
C9C
  8
0
 10
0.0001771963901207
 20
0.0000751516873719
 30
0.0
  0
VERTEX
  5
C9D
  8
0
 10
0.0001759706340852
 20
0.0000739987232646
 30
0.0
  0
VERTEX
  5
C9E
  8
0
 10
0.0002043281930392
 20
0.0000697502761591
 30
0.0
  0
VERTEX
  5
C9F
  8
0
 10
0.0002143517666176
 20
0.0000686598480725
 30
0.0
  0
VERTEX
  5
CA0
  8
0
 10
0.0002149962128186
 20
0.0000686347336066
 30
0.0
  0
VERTEX
  5
CA1
  8
0
 10
0.0002178224157115
 20
0.0000679344802606
 30
0.0
  0
VERTEX
  5
CA2
  8
0
 10
0.0002209132210153
 20
0.000067921022509
 30
0.0
  0
VERTEX
  5
CA3
  8
0
 10
0.0002241440819912
 20
0.0000665362248655
 30
0.0
  0
VERTEX
  5
CA4
  8
0
 10
0.0002286568063204
 20
0.0000684891497503
 30
0.0
  0
VERTEX
  5
CA5
  8
0
 10
0.0002309802696353
 20
0.0000706157246574
 30
0.0
  0
VERTEX
  5
CA6
  8
0
 10
0.0002359243174068
 20
0.0000704414242604
 30
0.0
  0
VERTEX
  5
CA7
  8
0
 10
0.0002392789997038
 20
0.0000703087478388
 30
0.0
  0
VERTEX
  5
CA8
  8
0
 10
0.0002419549160316
 20
0.0000696811363345
 30
0.0
  0
VERTEX
  5
CA9
  8
0
 10
0.0002472576704182
 20
0.0000696124467693
 30
0.0
  0
VERTEX
  5
CAA
  8
0
 10
0.0002482310560883
 20
0.0000706968713979
 30
0.0
  0
VERTEX
  5
CAB
  8
0
 10
0.0002556060290727
 20
0.0000714241903336
 30
0.0
  0
VERTEX
  5
CAC
  8
0
 10
0.0002572161565061
 20
0.0000756828933466
 30
0.0
  0
VERTEX
  5
CAD
  8
0
 10
0.0002472948418289
 20
0.0000745825595543
 30
0.0
  0
VERTEX
  5
CAE
  8
0
 10
0.0002450170047948
 20
0.0000730625840484
 30
0.0
  0
VERTEX
  5
CAF
  8
0
 10
0.0002445434070024
 20
0.0000727466020428
 30
0.0
  0
VERTEX
  5
CB0
  8
0
 10
0.000244595211842
 20
0.0000741435066598
 30
0.0
  0
VERTEX
  5
CB1
  8
0
 10
0.0002464492797852
 20
0.0000763623847336
 30
0.0
  0
VERTEX
  5
CB2
  8
0
 10
0.0002446268050397
 20
0.0000759972244013
 30
0.0
  0
VERTEX
  5
CB3
  8
0
 10
0.0002416114431913
 20
0.0000736570764761
 30
0.0
  0
VERTEX
  5
CB4
  8
0
 10
0.0002412805275839
 20
0.0000749766365426
 30
0.0
  0
VERTEX
  5
CB5
  8
0
 10
0.0002440307617188
 20
0.0000789629326492
 30
0.0
  0
VERTEX
  5
CB6
  8
0
 10
0.0002444314675253
 20
0.0000793458031826
 30
0.0
  0
VERTEX
  5
CB7
  8
0
 10
0.0002421259645556
 20
0.0000785792116259
 30
0.0
  0
VERTEX
  5
CB8
  8
0
 10
0.0002379749485704
 20
0.0000741774261975
 30
0.0
  0
VERTEX
  5
CB9
  8
0
 10
0.0002376581661037
 20
0.000074090275999
 30
0.0
  0
VERTEX
  5
CBA
  8
0
 10
0.000238127536461
 20
0.0000785427406186
 30
0.0
  0
VERTEX
  5
CBB
  8
0
 10
0.0002393917896709
 20
0.0000822691870517
 30
0.0
  0
VERTEX
  5
CBC
  8
0
 10
0.0002364223792905
 20
0.0000788580222208
 30
0.0
  0
VERTEX
  5
CBD
  8
0
 10
0.0002341126739002
 20
0.0000743879974866
 30
0.0
  0
VERTEX
  5
CBE
  8
0
 10
0.0002334017143875
 20
0.0000738329277664
 30
0.0
  0
VERTEX
  5
CBF
  8
0
 10
0.0002333718972128
 20
0.0000795740846728
 30
0.0
  0
VERTEX
  5
CC0
  8
0
 10
0.0002342019753378
 20
0.0000827862598857
 30
0.0
  0
VERTEX
  5
CC1
  8
0
 10
0.0002318114483943
 20
0.0000781657234567
 30
0.0
  0
VERTEX
  5
CC2
  8
0
 10
0.0002314377581487
 20
0.0000773249891938
 30
0.0
  0
VERTEX
  5
CC3
  8
0
 10
0.0002311693285332
 20
0.0000789476238313
 30
0.0
  0
VERTEX
  5
CC4
  8
0
 10
0.0002297529126777
 20
0.0000852779701108
 30
0.0
  0
VERTEX
  5
CC5
  8
0
 10
0.0002297148907771
 20
0.0000852797711482
 30
0.0
  0
VERTEX
  5
CC6
  8
0
 10
0.0002297775268555
 20
0.0000836283699411
 30
0.0
  0
VERTEX
  5
CC7
  8
0
 10
0.0002294560666944
 20
0.0000780945824795
 30
0.0
  0
VERTEX
  5
CC8
  8
0
 10
0.0002287456324843
 20
0.0000798218273726
 30
0.0
  0
VERTEX
  5
CC9
  8
0
 10
0.0002270400750832
 20
0.0000813129362513
 30
0.0
  0
VERTEX
  5
CCA
  8
0
 10
0.0002275043174869
 20
0.0000799240362449
 30
0.0
  0
VERTEX
  5
CCB
  8
0
 10
0.0002286809452245
 20
0.0000755735803823
 30
0.0
  0
VERTEX
  5
CCC
  8
0
 10
0.0002264717727411
 20
0.0000771134173284
 30
0.0
  0
VERTEX
  5
CCD
  8
0
 10
0.0002250016509509
 20
0.0000775461165631
 30
0.0
  0
VERTEX
  5
CCE
  8
0
 10
0.0002267122612625
 20
0.0000745700523502
 30
0.0
  0
VERTEX
  5
CCF
  8
0
 10
0.0002273819720159
 20
0.0000723485727779
 30
0.0
  0
VERTEX
  5
CD0
  8
0
 10
0.0002261189695264
 20
0.0000730749411661
 30
0.0
  0
VERTEX
  5
CD1
  8
0
 10
0.0002237898029265
 20
0.0000741296987065
 30
0.0
  0
VERTEX
  5
CD2
  8
0
 10
0.0002203375144083
 20
0.0000740161332928
 30
0.0
  0
VERTEX
  5
CD3
  8
0
 10
0.0002203328867428
 20
0.0000739979228035
 30
0.0
  0
VERTEX
  5
CD4
  8
0
 10
0.0002216929701508
 20
0.0000735492143475
 30
0.0
  0
VERTEX
  5
CD5
  8
0
 10
0.0002248351800637
 20
0.0000713492971952
 30
0.0
  0
VERTEX
  5
CD6
  8
0
 10
0.0002250360707768
 20
0.0000704512799372
 30
0.0
  0
VERTEX
  5
CD7
  8
0
 10
0.0002227626362785
 20
0.0000714704169602
 30
0.0
  0
VERTEX
  5
CD8
  8
0
 10
0.0002183342855485
 20
0.0000719202260502
 30
0.0
  0
VERTEX
  5
CD9
  8
0
 10
0.0002169259493468
 20
0.0000721967353195
 30
0.0
  0
VERTEX
  5
CDA
  8
0
 10
0.0002145188378506
 20
0.0000726471447554
 30
0.0
  0
VERTEX
  5
CDB
  8
0
 10
0.0001833985875865
 20
0.0000769222071913
 30
0.0
  0
VERTEX
  5
CDC
  8
0
 10
0.0001756018716781
 20
0.0000779768646741
 30
0.0
  0
VERTEX
  5
CDD
  8
0
 10
0.0001749715586178
 20
0.0000779612056545
 30
0.0
  0
VERTEX
  5
CDE
  8
0
 10
0.0001731251200692
 20
0.0000761183941951
 30
0.0
  0
SEQEND
  5
11DD
  8
0
  0
POLYLINE
  5
145
  8
0
 66
     1
 10
0.0
 20
0.0
 30
0.0
 70
     1
  0
VERTEX
  5
CDF
  8
0
 10
0.0001692601188284
 20
0.000073804111168
 30
0.0
  0
VERTEX
  5
CE0
  8
0
 10
0.0001683603005331
 20
0.0000737811479412
 30
0.0
  0
VERTEX
  5
CE1
  8
0
 10
0.0001690093243708
 20
0.0000777900070441
 30
0.0
  0
VERTEX
  5
CE2
  8
0
 10
0.0001711254682697
 20
0.0000776406710265
 30
0.0
  0
VERTEX
  5
CE3
  8
0
 10
0.0001699396102155
 20
0.0000748439100922
 30
0.0
  0
SEQEND
  5
11DE
  8
0
  0
POLYLINE
  5
146
  8
0
 66
     1
 10
0.0
 20
0.0
 30
0.0
 70
     1
  0
VERTEX
  5
CE4
  8
0
 10
0.0000280585617316
 20
0.0000793748198963
 30
0.0
  0
VERTEX
  5
CE5
  8
0
 10
0.0000294286008741
 20
0.0000794432593174
 30
0.0
  0
VERTEX
  5
CE6
  8
0
 10
0.0000379632668417
 20
0.0000832420224049
 30
0.0
  0
VERTEX
  5
CE7
  8
0
 10
0.0000435482838115
 20
0.0000847870873623
 30
0.0
  0
VERTEX
  5
CE8
  8
0
 10
0.0000449658503298
 20
0.0000853112142594
 30
0.0
  0
VERTEX
  5
CE9
  8
0
 10
0.0000467957043257
 20
0.0000893851358382
 30
0.0
  0
VERTEX
  5
CEA
  8
0
 10
0.0000468710977523
 20
0.000094437946257
 30
0.0
  0
VERTEX
  5
CEB
  8
0
 10
0.0000484066322202
 20
0.0000886005088931
 30
0.0
  0
VERTEX
  5
CEC
  8
0
 10
0.0000480489762103
 20
0.0000859239171763
 30
0.0
  0
VERTEX
  5
CED
  8
0
 10
0.0000481228187436
 20
0.0000857745811587
 30
0.0
  0
VERTEX
  5
CEE
  8
0
 10
0.0000499165019051
 20
0.0000933631771901
 30
0.0
  0
VERTEX
  5
CEF
  8
0
 10
0.0000509519483222
 20
0.0000884010940302
 30
0.0
  0
VERTEX
  5
CF0
  8
0
 10
0.000052066590356
 20
0.0000928176629739
 30
0.0
  0
VERTEX
  5
CF1
  8
0
 10
0.0000586367747823
 20
0.0001015462906634
 30
0.0
  0
VERTEX
  5
CF2
  8
0
 10
0.0000602757688429
 20
0.0001029743882476
 30
0.0
  0
VERTEX
  5
CF3
  8
0
 10
0.0000605585817431
 20
0.0001029914480741
 30
0.0
  0
VERTEX
  5
CF4
  8
0
 10
0.0000552876957127
 20
0.0000945089371478
 30
0.0
  0
VERTEX
  5
CF5
  8
0
 10
0.0000546625356205
 20
0.0000883884367396
 30
0.0
  0
VERTEX
  5
CF6
  8
0
 10
0.0000548857141714
 20
0.0000868167064229
 30
0.0
  0
VERTEX
  5
CF7
  8
0
 10
0.0000549010229892
 20
0.0000868269373159
 30
0.0
  0
VERTEX
  5
CF8
  8
0
 10
0.0000578627789607
 20
0.0000917665075083
 30
0.0
  0
VERTEX
  5
CF9
  8
0
 10
0.0000585354163998
 20
0.0000923586235672
 30
0.0
  0
VERTEX
  5
CFA
  8
0
 10
0.0000586275194512
 20
0.0000922702976915
 30
0.0
  0
VERTEX
  5
CFB
  8
0
 10
0.0000580325267354
 20
0.0000894990264392
 30
0.0
  0
VERTEX
  5
CFC
  8
0
 10
0.0000580395307697
 20
0.0000875313930824
 30
0.0
  0
VERTEX
  5
CFD
  8
0
 10
0.0000603963883197
 20
0.000089142821265
 30
0.0
  0
VERTEX
  5
CFE
  8
0
 10
0.0000614609515081
 20
0.0000896234731205
 30
0.0
  0
VERTEX
  5
CFF
  8
0
 10
0.000059786637103
 20
0.0000930956480933
 30
0.0
  0
VERTEX
  5
D00
  8
0
 10
0.000057554451364
 20
0.0000958847296043
 30
0.0
  0
VERTEX
  5
D01
  8
0
 10
0.0000573759985752
 20
0.0000962238999664
 30
0.0
  0
VERTEX
  5
D02
  8
0
 10
0.0000632295202036
 20
0.0000927571030914
 30
0.0
  0
VERTEX
  5
D03
  8
0
 10
0.0000654057236968
 20
0.0000899871325884
 30
0.0
  0
VERTEX
  5
D04
  8
0
 10
0.0000661443991739
 20
0.0000916936905658
 30
0.0
  0
VERTEX
  5
D05
  8
0
 10
0.0000662190421683
 20
0.0000933313088339
 30
0.0
  0
VERTEX
  5
D06
  8
0
 10
0.0000704214627626
 20
0.0000888953537237
 30
0.0
  0
VERTEX
  5
D07
  8
0
 10
0.0000639293232902
 20
0.0000964267418033
 30
0.0
  0
VERTEX
  5
D08
  8
0
 10
0.0000634924216349
 20
0.0000966950963755
 30
0.0
  0
VERTEX
  5
D09
  8
0
 10
0.0000635460525263
 20
0.0000967578325115
 30
0.0
  0
VERTEX
  5
D0A
  8
0
 10
0.0000672949118692
 20
0.0000957125554319
 30
0.0
  0
VERTEX
  5
D0B
  8
0
 10
0.0000763526291144
 20
0.0000856664188573
 30
0.0
  0
VERTEX
  5
D0C
  8
0
 10
0.0000776123046875
 20
0.0000824721039319
 30
0.0
  0
VERTEX
  5
D0D
  8
0
 10
0.0000759159275743
 20
0.0000909106395284
 30
0.0
  0
VERTEX
  5
D0E
  8
0
 10
0.0000665703445184
 20
0.0001035313840772
 30
0.0
  0
VERTEX
  5
D0F
  8
0
 10
0.0000600395327709
 20
0.0001102680393907
 30
0.0
  0
VERTEX
  5
D10
  8
0
 10
0.0000601632540343
 20
0.0001104122974834
 30
0.0
  0
VERTEX
  5
D11
  8
0
 10
0.000078646300269
 20
0.0000946862642882
 30
0.0
  0
VERTEX
  5
D12
  8
0
 10
0.000083076427022
 20
0.0000873377565478
 30
0.0
  0
VERTEX
  5
D13
  8
0
 10
0.0000816627377369
 20
0.0000959151471247
 30
0.0
  0
VERTEX
  5
D14
  8
0
 10
0.0000819143076412
 20
0.0001133308285572
 30
0.0
  0
VERTEX
  5
D15
  8
0
 10
0.0000880602226883
 20
0.0001249218549885
 30
0.0
  0
VERTEX
  5
D16
  8
0
 10
0.0000876162919842
 20
0.0001235738285252
 30
0.0
  0
VERTEX
  5
D17
  8
0
 10
0.0000847291039639
 20
0.0001142052822426
 30
0.0
  0
VERTEX
  5
D18
  8
0
 10
0.0000850028616483
 20
0.0001085994282707
 30
0.0
  0
VERTEX
  5
D19
  8
0
 10
0.0000887894927478
 20
0.0001117598736872
 30
0.0
  0
VERTEX
  5
D1A
  8
0
 10
0.0000899993146052
 20
0.0001162467081039
 30
0.0
  0
VERTEX
  5
D1B
  8
0
 10
0.0000919460109023
 20
0.0001181595348921
 30
0.0
  0
VERTEX
  5
D1C
  8
0
 10
0.0000926602473024
 20
0.0001187792918721
 30
0.0
  0
VERTEX
  5
D1D
  8
0
 10
0.000092854734327
 20
0.0001196652521853
 30
0.0
  0
VERTEX
  5
D1E
  8
0
 10
0.0000955919609695
 20
0.0001227480778929
 30
0.0
  0
VERTEX
  5
D1F
  8
0
 10
0.000097299319408
 20
0.0001255070170418
 30
0.0
  0
VERTEX
  5
D20
  8
0
 10
0.0000988220214844
 20
0.0001273773693648
 30
0.0
  0
VERTEX
  5
D21
  8
0
 10
0.0000997954821977
 20
0.0001285314591205
 30
0.0
  0
VERTEX
  5
D22
  8
0
 10
0.0001008443113233
 20
0.0001287912337506
 30
0.0
  0
VERTEX
  5
D23
  8
0
 10
0.0001008768800829
 20
0.0001288115204358
 30
0.0
  0
VERTEX
  5
D24
  8
0
 10
0.0001019021206215
 20
0.0001277219678535
 30
0.0
  0
VERTEX
  5
D25
  8
0
 10
0.000102443857662
 20
0.0001276589815734
 30
0.0
  0
VERTEX
  5
D26
  8
0
 10
0.0001037881569784
 20
0.0001307479608254
 30
0.0
  0
VERTEX
  5
D27
  8
0
 10
0.0001074327562676
 20
0.0001321819367956
 30
0.0
  0
VERTEX
  5
D28
  8
0
 10
0.0001127224781474
 20
0.0001321276555296
 30
0.0
  0
VERTEX
  5
D29
  8
0
 10
0.0001413097444128
 20
0.000132053062564
 30
0.0
  0
VERTEX
  5
D2A
  8
0
 10
0.0001664202830831
 20
0.0001318027183658
 30
0.0
  0
VERTEX
  5
D2B
  8
0
 10
0.0001818642037814
 20
0.0001313606387279
 30
0.0
  0
VERTEX
  5
D2C
  8
0
 10
0.0001834033653384
 20
0.0001366533873511
 30
0.0
  0
VERTEX
  5
D2D
  8
0
 10
0.0001884083982374
 20
0.0001368887979476
 30
0.0
  0
VERTEX
  5
D2E
  8
0
 10
0.0001911658865507
 20
0.0001357167228324
 30
0.0
  0
VERTEX
  5
D2F
  8
0
 10
0.0001927924984791
 20
0.0001312649586162
 30
0.0
  0
VERTEX
  5
D30
  8
0
 10
0.0001968338012695
 20
0.0001294785796619
 30
0.0
  0
VERTEX
  5
D31
  8
0
 10
0.0002049174824699
 20
0.0001277778500416
 30
0.0
  0
VERTEX
  5
D32
  8
0
 10
0.0002138515785092
 20
0.0001276009981749
 30
0.0
  0
VERTEX
  5
D33
  8
0
 10
0.0002353536637103
 20
0.000127714338459
 30
0.0
  0
VERTEX
  5
D34
  8
0
 10
0.000260628847216
 20
0.000130495340316
 30
0.0
  0
VERTEX
  5
D35
  8
0
 10
0.0002685644681336
 20
0.0001305675819272
 30
0.0
  0
VERTEX
  5
D36
  8
0
 10
0.0002821593737993
 20
0.0001251733998783
 30
0.0
  0
VERTEX
  5
D37
  8
0
 10
0.0002883227739178
 20
0.000117371480973
 30
0.0
  0
VERTEX
  5
D38
  8
0
 10
0.0002891711625897
 20
0.0001169724261174
 30
0.0
  0
VERTEX
  5
D39
  8
0
 10
0.0002916892129867
 20
0.0001188488319272
 30
0.0
  0
VERTEX
  5
D3A
  8
0
 10
0.0002929535162253
 20
0.0001186586723953
 30
0.0
  0
VERTEX
  5
D3B
  8
0
 10
0.0002917268221496
 20
0.0001158041031634
 30
0.0
  0
VERTEX
  5
D3C
  8
0
 10
0.0002920749726843
 20
0.0001151232109695
 30
0.0
  0
VERTEX
  5
D3D
  8
0
 10
0.0002953308230541
 20
0.0001177887213035
 30
0.0
  0
VERTEX
  5
D3E
  8
0
 10
0.0002989095719134
 20
0.0001186969194256
 30
0.0
  0
VERTEX
  5
D3F
  8
0
 10
0.0002990860610712
 20
0.0001186654512999
 30
0.0
  0
VERTEX
  5
D40
  8
0
 10
0.0002966667050221
 20
0.0001161315667825
 30
0.0
  0
VERTEX
  5
D41
  8
0
 10
0.0002952385449019
 20
0.0001141980280642
 30
0.0
  0
VERTEX
  5
D42
  8
0
 10
0.0002979960082007
 20
0.0001146787799773
 30
0.0
  0
VERTEX
  5
D43
  8
0
 10
0.0003006464848753
 20
0.0001147403904649
 30
0.0
  0
VERTEX
  5
D44
  8
0
 10
0.0003008597201988
 20
0.0001146709004387
 30
0.0
  0
VERTEX
  5
D45
  8
0
 10
0.0003008702637719
 20
0.0001146268000368
 30
0.0
  0
VERTEX
  5
D46
  8
0
 10
0.0002986932973393
 20
0.0001134739359871
 30
0.0
  0
VERTEX
  5
D47
  8
0
 10
0.0002963849302198
 20
0.0001116266219342
 30
0.0
  0
VERTEX
  5
D48
  8
0
 10
0.0002986202802814
 20
0.0001110104420146
 30
0.0
  0
VERTEX
  5
D49
  8
0
 10
0.0002988468357774
 20
0.0001106868056
 30
0.0
  0
VERTEX
  5
D4A
  8
0
 10
0.000296857477407
 20
0.0001092069281906
 30
0.0
  0
VERTEX
  5
D4B
  8
0
 10
0.0002949867748823
 20
0.0001066663147973
 30
0.0
  0
VERTEX
  5
D4C
  8
0
 10
0.0002977287417553
 20
0.0001063879294474
 30
0.0
  0
VERTEX
  5
D4D
  8
0
 10
0.000298471744725
 20
0.000105789534772
 30
0.0
  0
VERTEX
  5
D4E
  8
0
 10
0.0002945814038886
 20
0.0001030586367748
 30
0.0
  0
VERTEX
  5
D4F
  8
0
 10
0.0002913792969751
 20
0.0000961364996238
 30
0.0
  0
VERTEX
  5
D50
  8
0
 10
0.0002912424431473
 20
0.0000955729750336
 30
0.0
  0
VERTEX
  5
D51
  8
0
 10
0.00030185430558
 20
0.0000873298269803
 30
0.0
  0
VERTEX
  5
D52
  8
0
 10
0.0003029372043297
 20
0.0000908966064453
 30
0.0
  0
VERTEX
  5
D53
  8
0
 10
0.0003057970641089
 20
0.0000970547035092
 30
0.0
  0
VERTEX
  5
D54
  8
0
 10
0.00030561333328
 20
0.0000952518400599
 30
0.0
  0
VERTEX
  5
D55
  8
0
 10
0.0003048524199939
 20
0.0000893248511142
 30
0.0
  0
VERTEX
  5
D56
  8
0
 10
0.0003054926387599
 20
0.0000852710161053
 30
0.0
  0
VERTEX
  5
D57
  8
0
 10
0.0003064376705983
 20
0.0000832566558338
 30
0.0
  0
VERTEX
  5
D58
  8
0
 10
0.0003098930108743
 20
0.0000926736550253
 30
0.0
  0
VERTEX
  5
D59
  8
0
 10
0.0003116847804335
 20
0.0000944229125977
 30
0.0
  0
VERTEX
  5
D5A
  8
0
 10
0.0003109824633989
 20
0.0000913065675829
 30
0.0
  0
VERTEX
  5
D5B
  8
0
 10
0.0003117952565678
 20
0.0000877447159564
 30
0.0
  0
VERTEX
  5
D5C
  8
0
 10
0.0003137001412814
 20
0.0000862317194704
 30
0.0
  0
VERTEX
  5
D5D
  8
0
 10
0.0003145986713347
 20
0.0000913264040087
 30
0.0
  0
VERTEX
  5
D5E
  8
0
 10
0.000313852241391
 20
0.0000958402790007
 30
0.0
  0
VERTEX
  5
D5F
  8
0
 10
0.000306576725694
 20
0.0001051550693199
 30
0.0
  0
VERTEX
  5
D60
  8
0
 10
0.0003055035700564
 20
0.0001058318591509
 30
0.0
  0
VERTEX
  5
D61
  8
0
 10
0.0003108222711282
 20
0.0001036103295498
 30
0.0
  0
VERTEX
  5
D62
  8
0
 10
0.0003173494057577
 20
0.0000959129958856
 30
0.0
  0
VERTEX
  5
D63
  8
0
 10
0.0003191489297836
 20
0.0000923209268539
 30
0.0
  0
VERTEX
  5
D64
  8
0
 10
0.000317207536541
 20
0.0001005523931785
 30
0.0
  0
VERTEX
  5
D65
  8
0
 10
0.0003129420796379
 20
0.0001072860967918
 30
0.0
  0
VERTEX
  5
D66
  8
0
 10
0.0003127570105381
 20
0.0001077165447298
 30
0.0
  0
VERTEX
  5
D67
  8
0
 10
0.0003173030040303
 20
0.0001029471975858
 30
0.0
  0
VERTEX
  5
D68
  8
0
 10
0.0003203536487017
 20
0.0000982508674997
 30
0.0
  0
VERTEX
  5
D69
  8
0
 10
0.0003197434472256
 20
0.0001057470352923
 30
0.0
  0
VERTEX
  5
D6A
  8
0
 10
0.0003212159203701
 20
0.0001160901679367
 30
0.0
  0
VERTEX
  5
D6B
  8
0
 10
0.000320085756896
 20
0.0001254226184282
 30
0.0
  0
VERTEX
  5
D6C
  8
0
 10
0.0003193294087394
 20
0.0001268312548028
 30
0.0
  0
VERTEX
  5
D6D
  8
0
 10
0.0003193428164623
 20
0.0001268415107102
 30
0.0
  0
VERTEX
  5
D6E
  8
0
 10
0.0003227747057305
 20
0.0001201576107838
 30
0.0
  0
VERTEX
  5
D6F
  8
0
 10
0.0003234915061075
 20
0.0001118716880923
 30
0.0
  0
VERTEX
  5
D70
  8
0
 10
0.000325102984319
 20
0.0001023869498831
 30
0.0
  0
VERTEX
  5
D71
  8
0
 10
0.000325397366383
 20
0.0001016324152712
 30
0.0
  0
VERTEX
  5
D72
  8
0
 10
0.0003255097561195
 20
0.0001060732231766
 30
0.0
  0
VERTEX
  5
D73
  8
0
 10
0.0003258553426774
 20
0.000109519708352
 30
0.0
  0
VERTEX
  5
D74
  8
0
 10
0.0003256420448178
 20
0.0001974258172707
 30
0.0
  0
VERTEX
  5
D75
  8
0
 10
0.0003238611815406
 20
0.0002121994018555
 30
0.0
  0
VERTEX
  5
D76
  8
0
 10
0.0003140280176382
 20
0.0002324240012247
 30
0.0
  0
VERTEX
  5
D77
  8
0
 10
0.0003057927116019
 20
0.0002446568973729
 30
0.0
  0
VERTEX
  5
D78
  8
0
 10
0.0003043950440454
 20
0.0002498171196609
 30
0.0
  0
VERTEX
  5
D79
  8
0
 10
0.0002977459641754
 20
0.0002729151241115
 30
0.0
  0
VERTEX
  5
D7A
  8
0
 10
0.0002863556658635
 20
0.0002800194411981
 30
0.0
  0
VERTEX
  5
D7B
  8
0
 10
0.000267365352443
 20
0.0002803523579582
 30
0.0
  0
VERTEX
  5
D7C
  8
0
 10
0.0002505794337538
 20
0.0002817879098361
 30
0.0
  0
VERTEX
  5
D7D
  8
0
 10
0.0002451122096327
 20
0.0002856138135566
 30
0.0
  0
VERTEX
  5
D7E
  8
0
 10
0.0002453389902584
 20
0.0002876106887567
 30
0.0
  0
VERTEX
  5
D7F
  8
0
 10
0.0002567973152536
 20
0.0002892584628746
 30
0.0
  0
VERTEX
  5
D80
  8
0
 10
0.0002865345939261
 20
0.0002884341630779
 30
0.0
  0
VERTEX
  5
D81
  8
0
 10
0.0002788905409516
 20
0.0003002669412582
 30
0.0
  0
VERTEX
  5
D82
  8
0
 10
0.0002788164232598
 20
0.0003027477827228
 30
0.0
  0
VERTEX
  5
D83
  8
0
 10
0.0002357510175861
 20
0.000303378758665
 30
0.0
  0
VERTEX
  5
D84
  8
0
 10
0.0002319476768619
 20
0.0003025624259574
 30
0.0
  0
VERTEX
  5
D85
  8
0
 10
0.0002317384813653
 20
0.000298536256884
 30
0.0
  0
VERTEX
  5
D86
  8
0
 10
0.0002321531201972
 20
0.0002960226715588
 30
0.0
  0
VERTEX
  5
D87
  8
0
 10
0.0002198903318311
 20
0.0003094966325604
 30
0.0
  0
VERTEX
  5
D88
  8
0
 10
0.0002193415157131
 20
0.0003118257741459
 30
0.0
  0
VERTEX
  5
D89
  8
0
 10
0.0002158878764168
 20
0.0003077305152768
 30
0.0
  0
VERTEX
  5
D8A
  8
0
 10
0.0002133829585841
 20
0.0003065461705943
 30
0.0
  0
VERTEX
  5
D8B
  8
0
 10
0.0002137655789735
 20
0.0003092842102051
 30
0.0
  0
VERTEX
  5
D8C
  8
0
 10
0.0002101108988778
 20
0.0003220842580326
 30
0.0
  0
VERTEX
  5
D8D
  8
0
 10
0.0002091961219663
 20
0.0003230611832415
 30
0.0
  0
VERTEX
  5
D8E
  8
0
 10
0.0002112489543977
 20
0.0003175553869029
 30
0.0
  0
VERTEX
  5
D8F
  8
0
 10
0.000209613012095
 20
0.0003129090230973
 30
0.0
  0
VERTEX
  5
D90
  8
0
 10
0.0002012708570136
 20
0.0003167488598433
 30
0.0
  0
VERTEX
  5
D91
  8
0
 10
0.0001962468882076
 20
0.000325613140669
 30
0.0
  0
VERTEX
  5
D92
  8
0
 10
0.0002024563648662
 20
0.0003229530584617
 30
0.0
  0
VERTEX
  5
D93
  8
0
 10
0.0002067849081071
 20
0.0003290109352987
 30
0.0
  0
VERTEX
  5
D94
  8
0
 10
0.0002072285136238
 20
0.0003292045718334
 30
0.0
  0
VERTEX
  5
D95
  8
0
 10
0.0001961962340308
 20
0.0003333744486824
 30
0.0
  0
VERTEX
  5
D96
  8
0
 10
0.0001731678446785
 20
0.0003379495714532
 30
0.0
  0
VERTEX
  5
D97
  8
0
 10
0.0001711478811796
 20
0.0003387702566678
 30
0.0
  0
VERTEX
  5
D98
  8
0
 10
0.0001769135522061
 20
0.0003414652339748
 30
0.0
  0
VERTEX
  5
D99
  8
0
 10
0.0001956910430408
 20
0.0003476287841797
 30
0.0
  0
VERTEX
  5
D9A
  8
0
 10
0.0002030775726819
 20
0.000352609453045
 30
0.0
  0
VERTEX
  5
D9B
  8
0
 10
0.0002045744098601
 20
0.0003635318693568
 30
0.0
  0
VERTEX
  5
D9C
  8
0
 10
0.0002044586431785
 20
0.0003654237966068
 30
0.0
  0
VERTEX
  5
D9D
  8
0
 10
0.0002057703737353
 20
0.0003661648359455
 30
0.0
  0
VERTEX
  5
D9E
  8
0
 10
0.0002052560524862
 20
0.0003699219125216
 30
0.0
  0
VERTEX
  5
D9F
  8
0
 10
0.0002024575905722
 20
0.0003745654747134
 30
0.0
  0
VERTEX
  5
DA0
  8
0
 10
0.0002066659645956
 20
0.0003780246672083
 30
0.0
  0
VERTEX
  5
DA1
  8
0
 10
0.0002070349521324
 20
0.0003795462936652
 30
0.0
  0
VERTEX
  5
DA2
  8
0
 10
0.0002051270031538
 20
0.0003793581728075
 30
0.0
  0
VERTEX
  5
DA3
  8
0
 10
0.0001735077654729
 20
0.0003835433459673
 30
0.0
  0
VERTEX
  5
DA4
  8
0
 10
0.0001727690899958
 20
0.0003835537894827
 30
0.0
  0
VERTEX
  5
DA5
  8
0
 10
0.0001769747874776
 20
0.0003901251746006
 30
0.0
  0
VERTEX
  5
DA6
  8
0
 10
0.0001734201900295
 20
0.0003943408153096
 30
0.0
  0
VERTEX
  5
DA7
  8
0
 10
0.0001685308737833
 20
0.0003947714008269
 30
0.0
  0
VERTEX
  5
DA8
  8
0
 10
0.0001678055810147
 20
0.0003990130690278
 30
0.0
  0
VERTEX
  5
DA9
  8
0
 10
0.0001683679299276
 20
0.0003998692371806
 30
0.0
  0
VERTEX
  5
DAA
  8
0
 10
0.0001704722920402
 20
0.0004008949967681
 30
0.0
  0
VERTEX
  5
DAB
  8
0
 10
0.0001659990404473
 20
0.000408408793465
 30
0.0
  0
VERTEX
  5
DAC
  8
0
 10
0.0001617938182393
 20
0.0004125906397085
 30
0.0
  0
VERTEX
  5
DAD
  8
0
 10
0.000161416776063
 20
0.0004103918044294
 30
0.0
  0
VERTEX
  5
DAE
  8
0
 10
0.0001645216394643
 20
0.0004042897521472
 30
0.0
  0
VERTEX
  5
DAF
  8
0
 10
0.0001621893710777
 20
0.0003952447609823
 30
0.0
  0
VERTEX
  5
DB0
  8
0
 10
0.0001621599041048
 20
0.0003947714008269
 30
0.0
  0
VERTEX
  5
DB1
  8
0
 10
0.0001494372258421
 20
0.0004015111829414
 30
0.0
  0
VERTEX
  5
DB2
  8
0
 10
0.0001421725914127
 20
0.0003958975745029
 30
0.0
  0
VERTEX
  5
DB3
  8
0
 10
0.000134591999992
 20
0.0003947713382909
 30
0.0
  0
VERTEX
  5
DB4
  8
0
 10
0.0001404750136078
 20
0.0004011420328109
 30
0.0
  0
VERTEX
  5
DB5
  8
0
 10
0.0001517004794762
 20
0.0004051942731513
 30
0.0
  0
VERTEX
  5
DB6
  8
0
 10
0.0001553601124248
 20
0.0004070368594811
 30
0.0
  0
VERTEX
  5
DB7
  8
0
 10
0.0001557994154633
 20
0.0004082363754022
 30
0.0
  0
VERTEX
  5
DB8
  8
0
 10
0.0001497328461194
 20
0.0004102097870874
 30
0.0
  0
VERTEX
  5
DB9
  8
0
 10
0.000147383868108
 20
0.0004148441314697
 30
0.0
  0
VERTEX
  5
DBA
  8
0
 10
0.000146045046947
 20
0.0004149240024754
 30
0.0
  0
VERTEX
  5
DBB
  8
0
 10
0.0001439548179752
 20
0.0004103313070829
 30
0.0
  0
VERTEX
  5
DBC
  8
0
 10
0.0001416602463019
 20
0.0004085627634017
 30
0.0
  0
VERTEX
  5
DBD
  8
0
 10
0.0001345520269675
 20
0.00040907225687
 30
0.0
  0
VERTEX
  5
DBE
  8
0
 10
0.000133884817655
 20
0.0004096177648325
 30
0.0
  0
VERTEX
  5
DBF
  8
0
 10
0.0001357558953957
 20
0.000412575230833
 30
0.0
  0
VERTEX
  5
DC0
  8
0
 10
0.0001381376172675
 20
0.0004176345762659
 30
0.0
  0
VERTEX
  5
DC1
  8
0
 10
0.0001364192524894
 20
0.0004196081630519
 30
0.0
  0
VERTEX
  5
DC2
  8
0
 10
0.0001226872178375
 20
0.0004152720779669
 30
0.0
  0
VERTEX
  5
DC3
  8
0
 10
0.0001170550236936
 20
0.0004124537921343
 30
0.0
  0
VERTEX
  5
DC4
  8
0
 10
0.0001224456036677
 20
0.0004034381366167
 30
0.0
  0
VERTEX
  5
DC5
  8
0
 10
0.0001222067911117
 20
0.0004002926122947
 30
0.0
  0
VERTEX
  5
DC6
  8
0
 10
0.0001146587434362
 20
0.0004029799476999
 30
0.0
  0
VERTEX
  5
DC7
  8
0
 10
0.0001099458538118
 20
0.0004063935264212
 30
0.0
  0
VERTEX
  5
DC8
  8
0
 10
0.0001091412403544
 20
0.0004062094641514
 30
0.0
  0
VERTEX
  5
DC9
  8
0
 10
0.000106630519179
 20
0.0004027550556621
 30
0.0
  0
VERTEX
  5
DCA
  8
0
 10
0.0001009256081503
 20
0.0004031176082423
 30
0.0
  0
VERTEX
  5
DCB
  8
0
 10
0.0000966557487113
 20
0.0004037907084481
 30
0.0
  0
VERTEX
  5
DCC
  8
0
 10
0.0000964158605357
 20
0.0004037417927726
 30
0.0
  0
VERTEX
  5
DCD
  8
0
 10
0.0000919134671571
 20
0.0004076943131744
 30
0.0
  0
VERTEX
  5
DCE
  8
0
 10
0.0000885214133341
 20
0.0004078189537173
 30
0.0
  0
VERTEX
  5
DCF
  8
0
 10
0.000087117954942
 20
0.0004047706416396
 30
0.0
  0
VERTEX
  5
DD0
  8
0
 10
0.0000852897018683
 20
0.0004010721112861
 30
0.0
  0
VERTEX
  5
DD1
  8
0
 10
0.0000793362476787
 20
0.0004009919713755
 30
0.0
  0
VERTEX
  5
DD2
  8
0
 10
0.0000770213643058
 20
0.0004012358618564
 30
0.0
  0
VERTEX
  5
DD3
  8
0
 10
0.0000816663648261
 20
0.0003948258822082
 30
0.0
  0
VERTEX
  5
DD4
  8
0
 10
0.0000801812844198
 20
0.0003943492201508
 30
0.0
  0
VERTEX
  5
DD5
  8
0
 10
0.0000718456330847
 20
0.0003891868841453
 30
0.0
  0
VERTEX
  5
DD6
  8
0
 10
0.0000706794113409
 20
0.0003843502107214
 30
0.0
  0
VERTEX
  5
DD7
  8
0
 10
0.0000690532246574
 20
0.0003855597699275
 30
0.0
  0
VERTEX
  5
DD8
  8
0
 10
0.0000595393446625
 20
0.0003792193428415
 30
0.0
  0
VERTEX
  5
DD9
  8
0
 10
0.0000556321941438
 20
0.0003775253295898
 30
0.0
  0
VERTEX
  5
DDA
  8
0
 10
0.0000523332439485
 20
0.0003812838319872
 30
0.0
  0
VERTEX
  5
DDB
  8
0
 10
0.0000494086593878
 20
0.0003972968242208
 30
0.0
  0
VERTEX
  5
DDC
  8
0
 10
0.0000458486087987
 20
0.0004006073310727
 30
0.0
  0
VERTEX
  5
DDD
  8
0
 10
0.0000433297079118
 20
0.0004014913965444
 30
0.0
  0
VERTEX
  5
DDE
  8
0
 10
0.0000479564228996
 20
0.000406504984371
 30
0.0
  0
VERTEX
  5
DDF
  8
0
 10
0.0000537719726563
 20
0.000410641560789
 30
0.0
  0
VERTEX
  5
DE0
  8
0
 10
0.0000535452420594
 20
0.0004127196577729
 30
0.0
  0
VERTEX
  5
DE1
  8
0
 10
0.0000505033399238
 20
0.0004149318257316
 30
0.0
  0
VERTEX
  5
DE2
  8
0
 10
0.0000280583616163
 20
0.0004276437102771
 30
0.0
  0
SEQEND
  5
11DF
  8
0
  0
POLYLINE
  5
147
  8
0
 66
     1
 10
0.0
 20
0.0
 30
0.0
 70
     1
  0
VERTEX
  5
DE3
  8
0
 10
0.000471940125012
 20
0.000355753814197
 30
0.0
  0
VERTEX
  5
DE4
  8
0
 10
0.0004675748918877
 20
0.0003543764458328
 30
0.0
  0
VERTEX
  5
DE5
  8
0
 10
0.0004675748918877
 20
0.000358853699731
 30
0.0
  0
VERTEX
  5
DE6
  8
0
 10
0.0004605418408503
 20
0.0003575720239858
 30
0.0
  0
VERTEX
  5
DE7
  8
0
 10
0.0004468357836614
 20
0.0003563165633405
 30
0.0
  0
VERTEX
  5
DE8
  8
0
 10
0.0004393517353496
 20
0.0003480608580542
 30
0.0
  0
VERTEX
  5
DE9
  8
0
 10
0.0004301123259497
 20
0.000329657970491
 30
0.0
  0
VERTEX
  5
DEA
  8
0
 10
0.0004166789883473
 20
0.0003027477827228
 30
0.0
  0
VERTEX
  5
DEB
  8
0
 10
0.0004215822751405
 20
0.0002989006167553
 30
0.0
  0
VERTEX
  5
DEC
  8
0
 10
0.0004210650897417
 20
0.0002976819272901
 30
0.0
  0
VERTEX
  5
DED
  8
0
 10
0.0004174130549196
 20
0.0002983211704942
 30
0.0
  0
VERTEX
  5
DEE
  8
0
 10
0.0004165342737417
 20
0.0002965862461778
 30
0.0
  0
VERTEX
  5
DEF
  8
0
 10
0.0004204472588711
 20
0.0002923105708888
 30
0.0
  0
VERTEX
  5
DF0
  8
0
 10
0.000414559329924
 20
0.0002870368082015
 30
0.0
  0
VERTEX
  5
DF1
  8
0
 10
0.0004238544651719
 20
0.0002886605935019
 30
0.0
  0
VERTEX
  5
DF2
  8
0
 10
0.0004264541500905
 20
0.0002882388505779
 30
0.0
  0
VERTEX
  5
DF3
  8
0
 10
0.0004378513086038
 20
0.0002839174364434
 30
0.0
  0
VERTEX
  5
DF4
  8
0
 10
0.0004484208779257
 20
0.0002822187580046
 30
0.0
  0
VERTEX
  5
DF5
  8
0
 10
0.0004492869924326
 20
0.0002822020733943
 30
0.0
  0
VERTEX
  5
DF6
  8
0
 10
0.0004531751226206
 20
0.000277826027792
 30
0.0
  0
VERTEX
  5
DF7
  8
0
 10
0.0004394661137315
 20
0.0002781134433434
 30
0.0
  0
VERTEX
  5
DF8
  8
0
 10
0.0004333708215932
 20
0.0002794745023133
 30
0.0
  0
VERTEX
  5
DF9
  8
0
 10
0.0004269175169898
 20
0.0002803070068359
 30
0.0
  0
VERTEX
  5
DFA
  8
0
 10
0.0004131195818792
 20
0.0002739568741595
 30
0.0
  0
VERTEX
  5
DFB
  8
0
 10
0.0003998441352219
 20
0.0002645319203861
 30
0.0
  0
VERTEX
  5
DFC
  8
0
 10
0.0003895849259173
 20
0.0002611542998767
 30
0.0
  0
VERTEX
  5
DFD
  8
0
 10
0.0003766576047804
 20
0.0002554262505203
 30
0.0
  0
VERTEX
  5
DFE
  8
0
 10
0.0003721326609127
 20
0.0002460527263704
 30
0.0
  0
VERTEX
  5
DFF
  8
0
 10
0.0003720779418945
 20
0.0002273145831999
 30
0.0
  0
VERTEX
  5
E00
  8
0
 10
0.0003669241983382
 20
0.0002117357848121
 30
0.0
  0
VERTEX
  5
E01
  8
0
 10
0.0003633481061379
 20
0.0001973041575745
 30
0.0
  0
VERTEX
  5
E02
  8
0
 10
0.0003615342937532
 20
0.0001726026941518
 30
0.0
  0
VERTEX
  5
E03
  8
0
 10
0.0003600941017026
 20
0.0001612022024686
 30
0.0
  0
VERTEX
  5
E04
  8
0
 10
0.0003616769008949
 20
0.0001482981947602
 30
0.0
  0
VERTEX
  5
E05
  8
0
 10
0.0003625279285869
 20
0.0001425874303599
 30
0.0
  0
VERTEX
  5
E06
  8
0
 10
0.0003638075531506
 20
0.0001366272973233
 30
0.0
  0
VERTEX
  5
E07
  8
0
 10
0.0003710651335169
 20
0.0001112955062116
 30
0.0
  0
VERTEX
  5
E08
  8
0
 10
0.0003707224361232
 20
0.0001229176505667
 30
0.0
  0
VERTEX
  5
E09
  8
0
 10
0.0003707246498983
 20
0.0001236458199923
 30
0.0
  0
VERTEX
  5
E0A
  8
0
 10
0.0003726248068888
 20
0.0001157503472
 30
0.0
  0
VERTEX
  5
E0B
  8
0
 10
0.0003728744381764
 20
0.0001049921004499
 30
0.0
  0
VERTEX
  5
E0C
  8
0
 10
0.0003729847642242
 20
0.0001049127547467
 30
0.0
  0
VERTEX
  5
E0D
  8
0
 10
0.0003807481484335
 20
0.0001196905167376
 30
0.0
  0
VERTEX
  5
E0E
  8
0
 10
0.0003875815469711
 20
0.0001250218625929
 30
0.0
  0
VERTEX
  5
E0F
  8
0
 10
0.000389279987773
 20
0.0001258117425637
 30
0.0
  0
VERTEX
  5
E10
  8
0
 10
0.0003803271934634
 20
0.0001151487756948
 30
0.0
  0
VERTEX
  5
E11
  8
0
 10
0.0003768056900775
 20
0.0001014909587923
 30
0.0
  0
VERTEX
  5
E12
  8
0
 10
0.0003829612731934
 20
0.0001107699034644
 30
0.0
  0
VERTEX
  5
E13
  8
0
 10
0.0003906902375768
 20
0.0001172239710073
 30
0.0
  0
VERTEX
  5
E14
  8
0
 10
0.0003914145172619
 20
0.0001175701704182
 30
0.0
  0
VERTEX
  5
E15
  8
0
 10
0.0003812486742364
 20
0.0001033795716333
 30
0.0
  0
VERTEX
  5
E16
  8
0
 10
0.0003805387278072
 20
0.0000986562510006
 30
0.0
  0
VERTEX
  5
E17
  8
0
 10
0.000380546619853
 20
0.0000976135253906
 30
0.0
  0
VERTEX
  5
E18
  8
0
 10
0.0003849699176726
 20
0.0001032000432249
 30
0.0
  0
VERTEX
  5
E19
  8
0
 10
0.000386891274374
 20
0.0001044338538998
 30
0.0
  0
VERTEX
  5
E1A
  8
0
 10
0.0003869170517218
 20
0.0001042908965564
 30
0.0
  0
VERTEX
  5
E1B
  8
0
 10
0.0003834968191678
 20
0.0000968145651896
 30
0.0
  0
VERTEX
  5
E1C
  8
0
 10
0.0003833426178479
 20
0.0000958787761751
 30
0.0
  0
VERTEX
  5
E1D
  8
0
 10
0.0003883070648694
 20
0.0000994840528144
 30
0.0
  0
VERTEX
  5
E1E
  8
0
 10
0.0003884240947786
 20
0.0000993998793305
 30
0.0
  0
VERTEX
  5
E1F
  8
0
 10
0.0003831605254627
 20
0.0000937399442079
 30
0.0
  0
VERTEX
  5
E20
  8
0
 10
0.0003829612106573
 20
0.0000924563548604
 30
0.0
  0
VERTEX
  5
E21
  8
0
 10
0.0003846924828701
 20
0.0000938947333664
 30
0.0
  0
VERTEX
  5
E22
  8
0
 10
0.0003930541241755
 20
0.00009883045134
 30
0.0
  0
VERTEX
  5
E23
  8
0
 10
0.0003941816611368
 20
0.0000991525118468
 30
0.0
  0
VERTEX
  5
E24
  8
0
 10
0.0003941910165255
 20
0.0000991379534612
 30
0.0
  0
VERTEX
  5
E25
  8
0
 10
0.0003897253818199
 20
0.0000959436635502
 30
0.0
  0
VERTEX
  5
E26
  8
0
 10
0.0003835967767434
 20
0.0000888262889424
 30
0.0
  0
VERTEX
  5
E27
  8
0
 10
0.0003865334057417
 20
0.0000858623817319
 30
0.0
  0
VERTEX
  5
E28
  8
0
 10
0.0003870704775951
 20
0.000085758546923
 30
0.0
  0
VERTEX
  5
E29
  8
0
 10
0.0003889827040375
 20
0.0000888335181064
 30
0.0
  0
VERTEX
  5
E2A
  8
0
 10
0.0003916567192703
 20
0.0000918889280225
 30
0.0
  0
VERTEX
  5
E2B
  8
0
 10
0.0003915374880931
 20
0.0000912519361152
 30
0.0
  0
VERTEX
  5
E2C
  8
0
 10
0.0003891673979212
 20
0.0000835859955334
 30
0.0
  0
VERTEX
  5
E2D
  8
0
 10
0.0003901797435323
 20
0.0000827357808097
 30
0.0
  0
VERTEX
  5
E2E
  8
0
 10
0.0003930941722432
 20
0.0000827451862273
 30
0.0
  0
VERTEX
  5
E2F
  8
0
 10
0.0003926947046499
 20
0.0000849811991707
 30
0.0
  0
VERTEX
  5
E30
  8
0
 10
0.0003928713188797
 20
0.0000850173449907
 30
0.0
  0
VERTEX
  5
E31
  8
0
 10
0.0003943453053959
 20
0.0000827496638064
 30
0.0
  0
VERTEX
  5
E32
  8
0
 10
0.0003962506028472
 20
0.0000827553670914
 30
0.0
  0
VERTEX
  5
E33
  8
0
 10
0.0003958843293737
 20
0.0000887131737881
 30
0.0
  0
VERTEX
  5
E34
  8
0
 10
0.0003980740594082
 20
0.0000829007008037
 30
0.0
  0
VERTEX
  5
E35
  8
0
 10
0.0004009056028773
 20
0.0000989092467261
 30
0.0
  0
VERTEX
  5
E36
  8
0
 10
0.0004013277272709
 20
0.0001147970480997
 30
0.0
  0
VERTEX
  5
E37
  8
0
 10
0.0004015558899426
 20
0.0001158571086946
 30
0.0
  0
VERTEX
  5
E38
  8
0
 10
0.000408128288144
 20
0.0001204297175173
 30
0.0
  0
VERTEX
  5
E39
  8
0
 10
0.0004121491291484
 20
0.0001217145325708
 30
0.0
  0
VERTEX
  5
E3A
  8
0
 10
0.000421348058982
 20
0.0001223901467245
 30
0.0
  0
VERTEX
  5
E3B
  8
0
 10
0.0004316176742804
 20
0.000121865319424
 30
0.0
  0
VERTEX
  5
E3C
  8
0
 10
0.0004394851872178
 20
0.0001207072773918
 30
0.0
  0
VERTEX
  5
E3D
  8
0
 10
0.0004474871400927
 20
0.0001186367097448
 30
0.0
  0
VERTEX
  5
E3E
  8
0
 10
0.0004470210653837
 20
0.0001176957927766
 30
0.0
  0
VERTEX
  5
E3F
  8
0
 10
0.0004470227350954
 20
0.0001176581210777
 30
0.0
  0
VERTEX
  5
E40
  8
0
 10
0.0004488747080819
 20
0.0001177798161741
 30
0.0
  0
VERTEX
  5
E41
  8
0
 10
0.0004498152685947
 20
0.0001178031045882
 30
0.0
  0
VERTEX
  5
E42
  8
0
 10
0.000453271562545
 20
0.0001161966792873
 30
0.0
  0
VERTEX
  5
E43
  8
0
 10
0.000456766600687
 20
0.0001117920922451
 30
0.0
  0
VERTEX
  5
E44
  8
0
 10
0.0004571230372445
 20
0.0001081937195825
 30
0.0
  0
VERTEX
  5
E45
  8
0
 10
0.0004600672987641
 20
0.0001099952572682
 30
0.0
  0
VERTEX
  5
E46
  8
0
 10
0.0004621524185431
 20
0.000110517408027
 30
0.0
  0
VERTEX
  5
E47
  8
0
 10
0.0004642203721844
 20
0.0001076606125128
 30
0.0
  0
VERTEX
  5
E48
  8
0
 10
0.0004614958122128
 20
0.0001046402227683
 30
0.0
  0
VERTEX
  5
E49
  8
0
 10
0.000457898762187
 20
0.0000891532522733
 30
0.0
  0
VERTEX
  5
E4A
  8
0
 10
0.0004612601952475
 20
0.0000830773775695
 30
0.0
  0
VERTEX
  5
E4B
  8
0
 10
0.0004631449527428
 20
0.0000829616859311
 30
0.0
  0
VERTEX
  5
E4C
  8
0
 10
0.0004719406628218
 20
0.000082957633597
 30
0.0
  0
SEQEND
  5
11E0
  8
0
  0
POLYLINE
  5
148
  8
0
 66
     1
 10
0.0
 20
0.0
 30
0.0
 70
     1
  0
VERTEX
  5
E4D
  8
0
 10
0.0007449679265257
 20
0.0007476450435451
 30
0.0
  0
VERTEX
  5
E4E
  8
0
 10
0.0007519573024062
 20
0.0007549267628154
 30
0.0
  0
VERTEX
  5
E4F
  8
0
 10
0.0007534508126681
 20
0.0007592886502626
 30
0.0
  0
VERTEX
  5
E50
  8
0
 10
0.0007498338793145
 20
0.0007690053470799
 30
0.0
  0
VERTEX
  5
E51
  8
0
 10
0.0007478903598473
 20
0.0007763575819672
 30
0.0
  0
VERTEX
  5
E52
  8
0
 10
0.0007589594606493
 20
0.0007642404525006
 30
0.0
  0
VERTEX
  5
E53
  8
0
 10
0.0007622700925733
 20
0.0007672885832239
 30
0.0
  0
VERTEX
  5
E54
  8
0
 10
0.0007453436179239
 20
0.0007945001570905
 30
0.0
  0
VERTEX
  5
E55
  8
0
 10
0.00072302383673
 20
0.0008253356183162
 30
0.0
  0
VERTEX
  5
E56
  8
0
 10
0.0007119735467629
 20
0.0008416869867043
 30
0.0
  0
VERTEX
  5
E57
  8
0
 10
0.0007080941747447
 20
0.0008382938822762
 30
0.0
  0
VERTEX
  5
E58
  8
0
 10
0.000701778762067
 20
0.0008362059546299
 30
0.0
  0
VERTEX
  5
E59
  8
0
 10
0.0007209793340964
 20
0.0008138892752225
 30
0.0
  0
VERTEX
  5
E5A
  8
0
 10
0.0007228437580046
 20
0.0008110967917521
 30
0.0
  0
VERTEX
  5
E5B
  8
0
 10
0.000712349838507
 20
0.0008184211856029
 30
0.0
  0
VERTEX
  5
E5C
  8
0
 10
0.0006968386790792
 20
0.0008357586970095
 30
0.0
  0
VERTEX
  5
E5D
  8
0
 10
0.0006922370160212
 20
0.0008330112644883
 30
0.0
  0
VERTEX
  5
E5E
  8
0
 10
0.000687612114578
 20
0.0008221870297291
 30
0.0
  0
VERTEX
  5
E5F
  8
0
 10
0.0006808143240507
 20
0.0008110874613778
 30
0.0
  0
VERTEX
  5
E60
  8
0
 10
0.0006728508996182
 20
0.0008035223538758
 30
0.0
  0
VERTEX
  5
E61
  8
0
 10
0.0006922244337739
 20
0.0007900483428455
 30
0.0
  0
VERTEX
  5
E62
  8
0
 10
0.000711399741251
 20
0.0007752049430472
 30
0.0
  0
VERTEX
  5
E63
  8
0
 10
0.0007298501186684
 20
0.0007600944644115
 30
0.0
  0
SEQEND
  5
11E1
  8
0
  0
POLYLINE
  5
149
  8
0
 66
     1
 10
0.0
 20
0.0
 30
0.0
 70
     1
  0
VERTEX
  5
E64
  8
0
 10
0.0005280583459823
 20
0.0009427823926582
 30
0.0
  0
VERTEX
  5
E65
  8
0
 10
0.0005478252723569
 20
0.000934074677014
 30
0.0
  0
VERTEX
  5
E66
  8
0
 10
0.0005565482905654
 20
0.0009304037125384
 30
0.0
  0
VERTEX
  5
E67
  8
0
 10
0.0005769626429824
 20
0.000922752805616
 30
0.0
  0
VERTEX
  5
E68
  8
0
 10
0.0006095644216068
 20
0.0009063164382684
 30
0.0
  0
VERTEX
  5
E69
  8
0
 10
0.0006125231883565
 20
0.0009053488059122
 30
0.0
  0
VERTEX
  5
E6A
  8
0
 10
0.0006133087283275
 20
0.0009051972936411
 30
0.0
  0
VERTEX
  5
E6B
  8
0
 10
0.0005866332632596
 20
0.0009267861288102
 30
0.0
  0
VERTEX
  5
E6C
  8
0
 10
0.0005846853787782
 20
0.0009290681432505
 30
0.0
  0
VERTEX
  5
E6D
  8
0
 10
0.0005846893122939
 20
0.0009290730460745
 30
0.0
  0
VERTEX
  5
E6E
  8
0
 10
0.0005915924259874
 20
0.0009289729884413
 30
0.0
  0
VERTEX
  5
E6F
  8
0
 10
0.0006160384381404
 20
0.0009187961515833
 30
0.0
  0
VERTEX
  5
E70
  8
0
 10
0.0006262677927486
 20
0.0009045465438092
 30
0.0
  0
VERTEX
  5
E71
  8
0
 10
0.0006300768867868
 20
0.0008975604448162
 30
0.0
  0
VERTEX
  5
E72
  8
0
 10
0.0006385456272813
 20
0.0008875369462811
 30
0.0
  0
VERTEX
  5
E73
  8
0
 10
0.0006601226931713
 20
0.000862298684042
 30
0.0
  0
VERTEX
  5
E74
  8
0
 10
0.0006715260114826
 20
0.0008506609056817
 30
0.0
  0
VERTEX
  5
E75
  8
0
 10
0.000681281918385
 20
0.0008425016309394
 30
0.0
  0
VERTEX
  5
E76
  8
0
 10
0.0006820633309786
 20
0.0008437640580975
 30
0.0
  0
VERTEX
  5
E77
  8
0
 10
0.0006676253647101
 20
0.0008616677206071
 30
0.0
  0
VERTEX
  5
E78
  8
0
 10
0.0006647208917336
 20
0.0008675199665007
 30
0.0
  0
VERTEX
  5
E79
  8
0
 10
0.0006744995117188
 20
0.0008621477471023
 30
0.0
  0
VERTEX
  5
E7A
  8
0
 10
0.0006959245150207
 20
0.0008448844784596
 30
0.0
  0
VERTEX
  5
E7B
  8
0
 10
0.0006962101420418
 20
0.0008445329259654
 30
0.0
  0
VERTEX
  5
E7C
  8
0
 10
0.0006895388868989
 20
0.0008382853773774
 30
0.0
  0
VERTEX
  5
E7D
  8
0
 10
0.0006850160317343
 20
0.0008298993220095
 30
0.0
  0
VERTEX
  5
E7E
  8
0
 10
0.0006782988876593
 20
0.0008210619817015
 30
0.0
  0
VERTEX
  5
E7F
  8
0
 10
0.0006730550547115
 20
0.0008214604612257
 30
0.0
  0
VERTEX
  5
E80
  8
0
 10
0.0006588413676278
 20
0.000827516699619
 30
0.0
  0
VERTEX
  5
E81
  8
0
 10
0.0006471648169346
 20
0.0008370742297563
 30
0.0
  0
VERTEX
  5
E82
  8
0
 10
0.0006445670080967
 20
0.0008416009621542
 30
0.0
  0
VERTEX
  5
E83
  8
0
 10
0.0006366298738073
 20
0.0008549669359551
 30
0.0
  0
VERTEX
  5
E84
  8
0
 10
0.0006194226124248
 20
0.0008674904244845
 30
0.0
  0
VERTEX
  5
E85
  8
0
 10
0.0006193994240683
 20
0.0008675072341669
 30
0.0
  0
VERTEX
  5
E86
  8
0
 10
0.0006489339484543
 20
0.000829847892386
 30
0.0
  0
VERTEX
  5
E87
  8
0
 10
0.0006427671838979
 20
0.000825992121462
 30
0.0
  0
VERTEX
  5
E88
  8
0
 10
0.0006501034470855
 20
0.000818977906274
 30
0.0
  0
VERTEX
  5
E89
  8
0
 10
0.0006395425765241
 20
0.0008189723030466
 30
0.0
  0
VERTEX
  5
E8A
  8
0
 10
0.0006350581559979
 20
0.0008171959798844
 30
0.0
  0
VERTEX
  5
E8B
  8
0
 10
0.0006318247310451
 20
0.0008133905379499
 30
0.0
  0
VERTEX
  5
E8C
  8
0
 10
0.0006243221720711
 20
0.0008139816784468
 30
0.0
  0
VERTEX
  5
E8D
  8
0
 10
0.0006129653430376
 20
0.0008206656534164
 30
0.0
  0
VERTEX
  5
E8E
  8
0
 10
0.0005857774578157
 20
0.000831242770836
 30
0.0
  0
VERTEX
  5
E8F
  8
0
 10
0.0005825760325447
 20
0.0008313742715804
 30
0.0
  0
VERTEX
  5
E90
  8
0
 10
0.0005821096826772
 20
0.0008375672137151
 30
0.0
  0
VERTEX
  5
E91
  8
0
 10
0.0005696263297659
 20
0.000856082928767
 30
0.0
  0
VERTEX
  5
E92
  8
0
 10
0.0005761853390053
 20
0.0008312636828813
 30
0.0
  0
VERTEX
  5
E93
  8
0
 10
0.0005649816919546
 20
0.0008362842247134
 30
0.0
  0
VERTEX
  5
E94
  8
0
 10
0.0005586723077493
 20
0.0008393213490971
 30
0.0
  0
VERTEX
  5
E95
  8
0
 10
0.0005354319775691
 20
0.0008543385490042
 30
0.0
  0
VERTEX
  5
E96
  8
0
 10
0.0005280589432013
 20
0.0008602276161069
 30
0.0
  0
SEQEND
  5
11E2
  8
0
  0
POLYLINE
  5
14A
  8
0
 66
     1
 10
0.0
 20
0.0
 30
0.0
 70
     1
  0
VERTEX
  5
E97
  8
0
 10
0.0005280586430284
 20
0.000848343946113
 30
0.0
  0
VERTEX
  5
E98
  8
0
 10
0.0005483473511993
 20
0.0008370545184026
 30
0.0
  0
VERTEX
  5
E99
  8
0
 10
0.0005886907546247
 20
0.0008204768946913
 30
0.0
  0
VERTEX
  5
E9A
  8
0
 10
0.0005953464445521
 20
0.0008177236338131
 30
0.0
  0
VERTEX
  5
E9B
  8
0
 10
0.0005984204401735
 20
0.0008148289914991
 30
0.0
  0
VERTEX
  5
E9C
  8
0
 10
0.0005989496637563
 20
0.000814298861144
 30
0.0
  0
VERTEX
  5
E9D
  8
0
 10
0.0005953124749856
 20
0.0008097441126089
 30
0.0
  0
VERTEX
  5
E9E
  8
0
 10
0.000578133517406
 20
0.0007973782648806
 30
0.0
  0
VERTEX
  5
E9F
  8
0
 10
0.0005732298428895
 20
0.0007915430037702
 30
0.0
  0
VERTEX
  5
EA0
  8
0
 10
0.0005622729004407
 20
0.000784543722184
 30
0.0
  0
VERTEX
  5
EA1
  8
0
 10
0.0005429002605501
 20
0.000782482284796
 30
0.0
  0
VERTEX
  5
EA2
  8
0
 10
0.0005280588837921
 20
0.0007806724923556
 30
0.0
  0
SEQEND
  5
11E3
  8
0
  0
POLYLINE
  5
14B
  8
0
 66
     1
 10
0.0
 20
0.0
 30
0.0
 70
     1
  0
VERTEX
  5
EA3
  8
0
 10
0.0000280583616163
 20
0.0009606799016233
 30
0.0
  0
VERTEX
  5
EA4
  8
0
 10
0.0004719416446373
 20
0.0009606799016233
 30
0.0
  0
VERTEX
  5
EA5
  8
0
 10
0.0004719397685567
 20
0.0009537515108703
 30
0.0
  0
VERTEX
  5
EA6
  8
0
 10
0.0004612754540365
 20
0.0009563677178055
 30
0.0
  0
VERTEX
  5
EA7
  8
0
 10
0.0004371539319148
 20
0.0009520288185995
 30
0.0
  0
VERTEX
  5
EA8
  8
0
 10
0.0003976384647557
 20
0.0009395451279937
 30
0.0
  0
VERTEX
  5
EA9
  8
0
 10
0.0003568484196897
 20
0.0009273980812948
 30
0.0
  0
VERTEX
  5
EAA
  8
0
 10
0.0003302445333512
 20
0.0009196750328189
 30
0.0
  0
VERTEX
  5
EAB
  8
0
 10
0.0003261076755211
 20
0.0009165709448642
 30
0.0
  0
VERTEX
  5
EAC
  8
0
 10
0.0003167148527552
 20
0.0009185326748207
 30
0.0
  0
VERTEX
  5
EAD
  8
0
 10
0.0003110279145788
 20
0.0009225451860272
 30
0.0
  0
VERTEX
  5
EAE
  8
0
 10
0.0003005688776735
 20
0.0009268291535925
 30
0.0
  0
VERTEX
  5
EAF
  8
0
 10
0.0002831320090372
 20
0.0009327443607518
 30
0.0
  0
VERTEX
  5
EB0
  8
0
 10
0.0002776693875672
 20
0.0009377918180872
 30
0.0
  0
VERTEX
  5
EB1
  8
0
 10
0.0002713084486664
 20
0.0009384587522413
 30
0.0
  0
VERTEX
  5
EB2
  8
0
 10
0.0002636647208792
 20
0.0009340013847976
 30
0.0
  0
VERTEX
  5
EB3
  8
0
 10
0.0002450009205302
 20
0.0009209729304079
 30
0.0
  0
VERTEX
  5
EB4
  8
0
 10
0.000225768017378
 20
0.0009067101900695
 30
0.0
  0
VERTEX
  5
EB5
  8
0
 10
0.0002239768856862
 20
0.0009048160240298
 30
0.0
  0
VERTEX
  5
EB6
  8
0
 10
0.0002001408811475
 20
0.0008854965960393
 30
0.0
  0
VERTEX
  5
EB7
  8
0
 10
0.0001797724989594
 20
0.0008704194365955
 30
0.0
  0
VERTEX
  5
EB8
  8
0
 10
0.0001658916786069
 20
0.0008567207711642
 30
0.0
  0
VERTEX
  5
EB9
  8
0
 10
0.0001521138675877
 20
0.0008476730596824
 30
0.0
  0
VERTEX
  5
EBA
  8
0
 10
0.0001115092793449
 20
0.000823392774238
 30
0.0
  0
VERTEX
  5
EBB
  8
0
 10
0.0000844967201108
 20
0.000807511201452
 30
0.0
  0
VERTEX
  5
EBC
  8
0
 10
0.000056403588467
 20
0.0007935015318824
 30
0.0
  0
VERTEX
  5
EBD
  8
0
 10
0.0000400356105117
 20
0.0007848219574475
 30
0.0
  0
VERTEX
  5
EBE
  8
0
 10
0.0000379985871862
 20
0.0007833982123703
 30
0.0
  0
VERTEX
  5
EBF
  8
0
 10
0.0000303486808402
 20
0.0007801598971007
 30
0.0
  0
VERTEX
  5
EC0
  8
0
 10
0.0000280586617892
 20
0.0007789438716701
 30
0.0
  0
SEQEND
  5
11E4
  8
0
  0
POLYLINE
  5
14C
  8
0
 66
     1
 10
0.0
 20
0.0
 30
0.0
 70
     1
  0
VERTEX
  5
EC1
  8
0
 10
0.0009719413882396
 20
0.0007295075963755
 30
0.0
  0
VERTEX
  5
EC2
  8
0
 10
0.0009009974495309
 20
0.0007854184760422
 30
0.0
  0
VERTEX
  5
EC3
  8
0
 10
0.0008644123014857
 20
0.0008046817717005
 30
0.0
  0
VERTEX
  5
EC4
  8
0
 10
0.0008819364954214
 20
0.0007896000596344
 30
0.0
  0
VERTEX
  5
EC5
  8
0
 10
0.0008809666617972
 20
0.0007875591340612
 30
0.0
  0
VERTEX
  5
EC6
  8
0
 10
0.0008526063012295
 20
0.0007957397711082
 30
0.0
  0
VERTEX
  5
EC7
  8
0
 10
0.0008416436367348
 20
0.0007907630545194
 30
0.0
  0
VERTEX
  5
EC8
  8
0
 10
0.0008353445584657
 20
0.0007893486148021
 30
0.0
  0
VERTEX
  5
EC9
  8
0
 10
0.0008332601078221
 20
0.0007910354364114
 30
0.0
  0
VERTEX
  5
ECA
  8
0
 10
0.0008334480410717
 20
0.0007959404366915
 30
0.0
  0
VERTEX
  5
ECB
  8
0
 10
0.0008325799660605
 20
0.0008028351330366
 30
0.0
  0
VERTEX
  5
ECC
  8
0
 10
0.000826261751769
 20
0.0008050609150871
 30
0.0
  0
VERTEX
  5
ECD
  8
0
 10
0.0008225033119077
 20
0.00080578328117
 30
0.0
  0
VERTEX
  5
ECE
  8
0
 10
0.0008260226890689
 20
0.0008171908519307
 30
0.0
  0
VERTEX
  5
ECF
  8
0
 10
0.0008295780369493
 20
0.0008227649876329
 30
0.0
  0
VERTEX
  5
ED0
  8
0
 10
0.0008359564609215
 20
0.0008242277802014
 30
0.0
  0
VERTEX
  5
ED1
  8
0
 10
0.0008614327852843
 20
0.0008219398873751
 30
0.0
  0
VERTEX
  5
ED2
  8
0
 10
0.0008782721097352
 20
0.0008124622532579
 30
0.0
  0
VERTEX
  5
ED3
  8
0
 10
0.0009533859503074
 20
0.0007564761802798
 30
0.0
  0
VERTEX
  5
ED4
  8
0
 10
0.0009719283307185
 20
0.0007411420978484
 30
0.0
  0
VERTEX
  5
ED5
  8
0
 10
0.0009719413882396
 20
0.0007333716720831
 30
0.0
  0
SEQEND
  5
11E5
  8
0
  0
POLYLINE
  5
14D
  8
0
 66
     1
 10
0.0
 20
0.0
 30
0.0
 70
     1
  0
VERTEX
  5
ED6
  8
0
 10
0.0009719416383837
 20
0.0007497409007588
 30
0.0
  0
VERTEX
  5
ED7
  8
0
 10
0.0009286074779073
 20
0.0007878208348008
 30
0.0
  0
VERTEX
  5
ED8
  8
0
 10
0.0008944656872358
 20
0.0008085595553039
 30
0.0
  0
VERTEX
  5
ED9
  8
0
 10
0.0008920494955094
 20
0.0008104825379419
 30
0.0
  0
VERTEX
  5
EDA
  8
0
 10
0.0009075699352827
 20
0.0008138374453685
 30
0.0
  0
VERTEX
  5
EDB
  8
0
 10
0.0009171899013832
 20
0.0008130825355405
 30
0.0
  0
VERTEX
  5
EDC
  8
0
 10
0.0009498629710713
 20
0.0007939917142274
 30
0.0
  0
VERTEX
  5
EDD
  8
0
 10
0.0009706029673092
 20
0.0007807058115475
 30
0.0
  0
VERTEX
  5
EDE
  8
0
 10
0.0009719409880091
 20
0.0007793301941919
 30
0.0
  0
SEQEND
  5
11E6
  8
0
  0
POLYLINE
  5
14E
  8
0
 66
     1
 10
0.0
 20
0.0
 30
0.0
 70
     1
  0
VERTEX
  5
EDF
  8
0
 10
0.0009719408879515
 20
0.0007891703621286
 30
0.0
  0
VERTEX
  5
EE0
  8
0
 10
0.0009559987052542
 20
0.0007984654911229
 30
0.0
  0
VERTEX
  5
EE1
  8
0
 10
0.0009553056560579
 20
0.0007988695738746
 30
0.0
  0
VERTEX
  5
EE2
  8
0
 10
0.0009518632732454
 20
0.0008064304039127
 30
0.0
  0
VERTEX
  5
EE3
  8
0
 10
0.000940600986168
 20
0.0008315800901319
 30
0.0
  0
VERTEX
  5
EE4
  8
0
 10
0.0009639965620197
 20
0.0008238676477651
 30
0.0
  0
VERTEX
  5
EE5
  8
0
 10
0.0009715705246222
 20
0.0008202164696865
 30
0.0
  0
VERTEX
  5
EE6
  8
0
 10
0.0009719408879515
 20
0.0008196760834241
 30
0.0
  0
SEQEND
  5
11E7
  8
0
  0
POLYLINE
  5
14F
  8
0
 66
     1
 10
0.0
 20
0.0
 30
0.0
 70
     1
  0
VERTEX
  5
EE7
  8
0
 10
0.0009719416383837
 20
0.0009606799016233
 30
0.0
  0
VERTEX
  5
EE8
  8
0
 10
0.0005280583459823
 20
0.0009606799016233
 30
0.0
  0
VERTEX
  5
EE9
  8
0
 10
0.0005280584648007
 20
0.0009574028640497
 30
0.0
  0
VERTEX
  5
EEA
  8
0
 10
0.0005483905041804
 20
0.0009452382572362
 30
0.0
  0
VERTEX
  5
EEB
  8
0
 10
0.0005625326000276
 20
0.000939477939293
 30
0.0
  0
VERTEX
  5
EEC
  8
0
 10
0.0005731834724301
 20
0.0009389488345287
 30
0.0
  0
VERTEX
  5
EED
  8
0
 10
0.0005952530470051
 20
0.0009374443179271
 30
0.0
  0
VERTEX
  5
EEE
  8
0
 10
0.0006131411192847
 20
0.0009296142578125
 30
0.0
  0
VERTEX
  5
EEF
  8
0
 10
0.0006261771905618
 20
0.0009170467689389
 30
0.0
  0
VERTEX
  5
EF0
  8
0
 10
0.0006345417460457
 20
0.000911749992996
 30
0.0
  0
VERTEX
  5
EF1
  8
0
 10
0.0006405860775807
 20
0.0009134685829038
 30
0.0
  0
VERTEX
  5
EF2
  8
0
 10
0.0006633602329942
 20
0.000922471043321
 30
0.0
  0
VERTEX
  5
EF3
  8
0
 10
0.0006765695790775
 20
0.0009246487476787
 30
0.0
  0
VERTEX
  5
EF4
  8
0
 10
0.0006943364753098
 20
0.0009202694752177
 30
0.0
  0
VERTEX
  5
EF5
  8
0
 10
0.0007053831757092
 20
0.0009155465298012
 30
0.0
  0
VERTEX
  5
EF6
  8
0
 10
0.0007117702796811
 20
0.0009154927238089
 30
0.0
  0
VERTEX
  5
EF7
  8
0
 10
0.0007179904625064
 20
0.0009194666377834
 30
0.0
  0
VERTEX
  5
EF8
  8
0
 10
0.0007527407286597
 20
0.0009433621265849
 30
0.0
  0
VERTEX
  5
EF9
  8
0
 10
0.0007650736574267
 20
0.000945586908059
 30
0.0
  0
VERTEX
  5
EFA
  8
0
 10
0.0007754222181977
 20
0.000941326053807
 30
0.0
  0
VERTEX
  5
EFB
  8
0
 10
0.0007997327960905
 20
0.0009413951436027
 30
0.0
  0
VERTEX
  5
EFC
  8
0
 10
0.0008071224025038
 20
0.0009421391721632
 30
0.0
  0
VERTEX
  5
EFD
  8
0
 10
0.000814322874976
 20
0.0009372660652536
 30
0.0
  0
VERTEX
  5
EFE
  8
0
 10
0.00082214640633
 20
0.0009260735683754
 30
0.0
  0
VERTEX
  5
EFF
  8
0
 10
0.0008291681258405
 20
0.0009166868116035
 30
0.0
  0
VERTEX
  5
F00
  8
0
 10
0.0008376041099673
 20
0.000913369775991
 30
0.0
  0
VERTEX
  5
F01
  8
0
 10
0.0008589237400743
 20
0.0009076419517642
 30
0.0
  0
VERTEX
  5
F02
  8
0
 10
0.0008699247766714
 20
0.0008996306872759
 30
0.0
  0
VERTEX
  5
F03
  8
0
 10
0.0008852686147221
 20
0.0008854031422099
 30
0.0
  0
VERTEX
  5
F04
  8
0
 10
0.0009000383470879
 20
0.0008751333518106
 30
0.0
  0
VERTEX
  5
F05
  8
0
 10
0.000929992475666
 20
0.0008525121469967
 30
0.0
  0
VERTEX
  5
F06
  8
0
 10
0.0009373343545882
 20
0.0008440871191806
 30
0.0
  0
VERTEX
  5
F07
  8
0
 10
0.0009516336409772
 20
0.0008345302144035
 30
0.0
  0
VERTEX
  5
F08
  8
0
 10
0.0009687801173476
 20
0.0008279257352235
 30
0.0
  0
VERTEX
  5
F09
  8
0
 10
0.0009719410380379
 20
0.0008281551673764
 30
0.0
  0
VERTEX
  5
F0A
  8
0
 10
0.0009719411881244
 20
0.000855150966957
 30
0.0
  0
SEQEND
  5
11E8
  8
0
  0
POLYLINE
  5
150
  8
0
 66
     1
 10
0.0
 20
0.0
 30
0.0
 70
     1
  0
VERTEX
  5
F0B
  8
0
 10
0.0004999999959976
 20
0.0000103757764472
 30
0.0
  0
VERTEX
  5
F0C
  8
0
 10
0.0
 20
0.0000103757764472
 30
0.0
  0
VERTEX
  5
F0D
  8
0
 10
0.0
 20
0.0009896242235528
 30
0.0
  0
VERTEX
  5
F0E
  8
0
 10
0.0004999999959976
 20
0.0009896242235528
 30
0.0
  0
SEQEND
  5
11E9
  8
0
  0
POLYLINE
  5
151
  8
0
 66
     1
 10
0.0
 20
0.0
 30
0.0
 70
     1
  0
VERTEX
  5
F0F
  8
0
 10
0.0004719416446373
 20
0.0006159218584905
 30
0.0
  0
VERTEX
  5
F10
  8
0
 10
0.0004678819437496
 20
0.0006145215519139
 30
0.0
  0
VERTEX
  5
F11
  8
0
 10
0.0004633242747823
 20
0.0006207837714524
 30
0.0
  0
VERTEX
  5
F12
  8
0
 10
0.0004604222438375
 20
0.0006330525007404
 30
0.0
  0
VERTEX
  5
F13
  8
0
 10
0.0004579358053989
 20
0.0006360742537702
 30
0.0
  0
VERTEX
  5
F14
  8
0
 10
0.0004552824145458
 20
0.0006328758239746
 30
0.0
  0
VERTEX
  5
F15
  8
0
 10
0.000456729229161
 20
0.0006254826655153
 30
0.0
  0
VERTEX
  5
F16
  8
0
 10
0.000459030892419
 20
0.00061764428811
 30
0.0
  0
VERTEX
  5
F17
  8
0
 10
0.0004575546952545
 20
0.0006142786244877
 30
0.0
  0
VERTEX
  5
F18
  8
0
 10
0.0004541470949767
 20
0.0006128579561828
 30
0.0
  0
VERTEX
  5
F19
  8
0
 10
0.0004487721583882
 20
0.0006121103880835
 30
0.0
  0
VERTEX
  5
F1A
  8
0
 10
0.0004468297301746
 20
0.0006150555094735
 30
0.0
  0
VERTEX
  5
F1B
  8
0
 10
0.0004462472133949
 20
0.000620740984307
 30
0.0
  0
VERTEX
  5
F1C
  8
0
 10
0.0004461140616995
 20
0.0006213586901055
 30
0.0
  0
VERTEX
  5
F1D
  8
0
 10
0.0004427529506996
 20
0.0006153653254274
 30
0.0
  0
VERTEX
  5
F1E
  8
0
 10
0.0004412217374708
 20
0.0006146632085081
 30
0.0
  0
VERTEX
  5
F1F
  8
0
 10
0.0004393842790948
 20
0.0006194989188773
 30
0.0
  0
VERTEX
  5
F20
  8
0
 10
0.0004357826670662
 20
0.000623015994713
 30
0.0
  0
VERTEX
  5
F21
  8
0
 10
0.000427036967043
 20
0.0006196409882092
 30
0.0
  0
VERTEX
  5
F22
  8
0
 10
0.0004252888226118
 20
0.0006188188771733
 30
0.0
  0
VERTEX
  5
F23
  8
0
 10
0.0004251633816078
 20
0.0006259403291296
 30
0.0
  0
VERTEX
  5
F24
  8
0
 10
0.0004019960997535
 20
0.0006239892177894
 30
0.0
  0
VERTEX
  5
F25
  8
0
 10
0.000398831064193
 20
0.0006267166262767
 30
0.0
  0
VERTEX
  5
F26
  8
0
 10
0.0003885529565029
 20
0.0006305285094214
 30
0.0
  0
VERTEX
  5
F27
  8
0
 10
0.0003859463300861
 20
0.0006339592980557
 30
0.0
  0
VERTEX
  5
F28
  8
0
 10
0.0003895686540447
 20
0.0006437684106045
 30
0.0
  0
VERTEX
  5
F29
  8
0
 10
0.0003845712255259
 20
0.0006366231449315
 30
0.0
  0
VERTEX
  5
F2A
  8
0
 10
0.0003810255832359
 20
0.0006364406898373
 30
0.0
  0
VERTEX
  5
F2B
  8
0
 10
0.0003769430441935
 20
0.0006314332055264
 30
0.0
  0
VERTEX
  5
F2C
  8
0
 10
0.0003737013895004
 20
0.0006249861295106
 30
0.0
  0
VERTEX
  5
F2D
  8
0
 10
0.0003747195509614
 20
0.0006347859617139
 30
0.0
  0
VERTEX
  5
F2E
  8
0
 10
0.00036181291674
 20
0.0006265568717581
 30
0.0
  0
VERTEX
  5
F2F
  8
0
 10
0.0003569173218774
 20
0.0006286611963491
 30
0.0
  0
VERTEX
  5
F30
  8
0
 10
0.0003577889489346
 20
0.0006341183521709
 30
0.0
  0
VERTEX
  5
F31
  8
0
 10
0.0003548940939981
 20
0.000635366083364
 30
0.0
  0
VERTEX
  5
F32
  8
0
 10
0.0003486254207423
 20
0.000633699798584
 30
0.0
  0
VERTEX
  5
F33
  8
0
 10
0.0003467813085337
 20
0.0006342929277264
 30
0.0
  0
VERTEX
  5
F34
  8
0
 10
0.0003466863913614
 20
0.0006349189258013
 30
0.0
  0
VERTEX
  5
F35
  8
0
 10
0.0003391621699099
 20
0.0006328399783275
 30
0.0
  0
VERTEX
  5
F36
  8
0
 10
0.000324752119721
 20
0.0006407729227035
 30
0.0
  0
VERTEX
  5
F37
  8
0
 10
0.0003210978148413
 20
0.0006415157130507
 30
0.0
  0
VERTEX
  5
F38
  8
0
 10
0.000319777904573
 20
0.0006372542209313
 30
0.0
  0
VERTEX
  5
F39
  8
0
 10
0.0003193379261455
 20
0.0006299371187804
 30
0.0
  0
VERTEX
  5
F3A
  8
0
 10
0.0003135515056673
 20
0.0006337284525887
 30
0.0
  0
VERTEX
  5
F3B
  8
0
 10
0.0003064623473121
 20
0.0006405356485336
 30
0.0
  0
VERTEX
  5
F3C
  8
0
 10
0.0003050962979676
 20
0.0006390029782155
 30
0.0
  0
VERTEX
  5
F3D
  8
0
 10
0.0003006330146164
 20
0.0006284753643098
 30
0.0
  0
VERTEX
  5
F3E
  8
0
 10
0.0002957371445953
 20
0.0006280647402904
 30
0.0
  0
VERTEX
  5
F3F
  8
0
 10
0.0002858798417889
 20
0.0006206073323234
 30
0.0
  0
VERTEX
  5
F40
  8
0
 10
0.000284569637111
 20
0.0006215905861776
 30
0.0
  0
VERTEX
  5
F41
  8
0
 10
0.0002851817897109
 20
0.0006259400914927
 30
0.0
  0
VERTEX
  5
F42
  8
0
 10
0.0002721143128442
 20
0.0006189408724425
 30
0.0
  0
VERTEX
  5
F43
  8
0
 10
0.0002662381781906
 20
0.0006196279807169
 30
0.0
  0
VERTEX
  5
F44
  8
0
 10
0.0002711467055024
 20
0.0006120377212274
 30
0.0
  0
VERTEX
  5
F45
  8
0
 10
0.0002713813156378
 20
0.0006088760501049
 30
0.0
  0
VERTEX
  5
F46
  8
0
 10
0.0002708863305264
 20
0.0006083034577917
 30
0.0
  0
VERTEX
  5
F47
  8
0
 10
0.0002664655341477
 20
0.00060757258681
 30
0.0
  0
VERTEX
  5
F48
  8
0
 10
0.0002607693531474
 20
0.0006044000594342
 30
0.0
  0
VERTEX
  5
F49
  8
0
 10
0.0002579782454694
 20
0.0006048421953545
 30
0.0
  0
VERTEX
  5
F4A
  8
0
 10
0.0002576073068087
 20
0.0006169603941871
 30
0.0
  0
VERTEX
  5
F4B
  8
0
 10
0.0002450398679639
 20
0.0006134094113209
 30
0.0
  0
VERTEX
  5
F4C
  8
0
 10
0.0002361195298492
 20
0.0006130165975602
 30
0.0
  0
VERTEX
  5
F4D
  8
0
 10
0.0002341670302094
 20
0.0006124414412702
 30
0.0
  0
VERTEX
  5
F4E
  8
0
 10
0.000232001783027
 20
0.0006050553618884
 30
0.0
  0
VERTEX
  5
F4F
  8
0
 10
0.0002271690994013
 20
0.0005950643758305
 30
0.0
  0
VERTEX
  5
F50
  8
0
 10
0.0002206748337042
 20
0.0005921567823066
 30
0.0
  0
VERTEX
  5
F51
  8
0
 10
0.0002130604978468
 20
0.000597324196237
 30
0.0
  0
VERTEX
  5
F52
  8
0
 10
0.0002088249081471
 20
0.0006012498386571
 30
0.0
  0
VERTEX
  5
F53
  8
0
 10
0.0002105747660653
 20
0.0005921793140349
 30
0.0
  0
VERTEX
  5
F54
  8
0
 10
0.0002055093233703
 20
0.0005973830301254
 30
0.0
  0
VERTEX
  5
F55
  8
0
 10
0.0002013613341285
 20
0.0006022573252193
 30
0.0
  0
VERTEX
  5
F56
  8
0
 10
0.0002001411813204
 20
0.0006010170670806
 30
0.0
  0
VERTEX
  5
F57
  8
0
 10
0.0001965889352267
 20
0.0005951998476122
 30
0.0
  0
VERTEX
  5
F58
  8
0
 10
0.0001929569431993
 20
0.0005901084274542
 30
0.0
  0
VERTEX
  5
F59
  8
0
 10
0.0001946955196193
 20
0.0005881484922816
 30
0.0
  0
VERTEX
  5
F5A
  8
0
 10
0.0001959628746158
 20
0.000586174380193
 30
0.0
  0
VERTEX
  5
F5B
  8
0
 10
0.0001961092589331
 20
0.0005810004312484
 30
0.0
  0
VERTEX
  5
F5C
  8
0
 10
0.0001917392167889
 20
0.0005809347684266
 30
0.0
  0
VERTEX
  5
F5D
  8
0
 10
0.0001780994853035
 20
0.0005876420380639
 30
0.0
  0
VERTEX
  5
F5E
  8
0
 10
0.0001695224699427
 20
0.0005928318086218
 30
0.0
  0
VERTEX
  5
F5F
  8
0
 10
0.0001681530311459
 20
0.0005845039555284
 30
0.0
  0
VERTEX
  5
F60
  8
0
 10
0.0001692192953141
 20
0.0005785025799861
 30
0.0
  0
VERTEX
  5
F61
  8
0
 10
0.0001687844448402
 20
0.0005779340212462
 30
0.0
  0
VERTEX
  5
F62
  8
0
 10
0.0001661320170418
 20
0.0005798201764216
 30
0.0
  0
VERTEX
  5
F63
  8
0
 10
0.0001561995709529
 20
0.0005809978610179
 30
0.0
  0
VERTEX
  5
F64
  8
0
 10
0.0001564378331919
 20
0.0005774215510634
 30
0.0
  0
VERTEX
  5
F65
  8
0
 10
0.0001580176181481
 20
0.0005730416344815
 30
0.0
  0
VERTEX
  5
F66
  8
0
 10
0.0001527294221472
 20
0.0005745746049725
 30
0.0
  0
VERTEX
  5
F67
  8
0
 10
0.0001452916129691
 20
0.0005767815511735
 30
0.0
  0
VERTEX
  5
F68
  8
0
 10
0.000141393442623
 20
0.0005744461997611
 30
0.0
  0
VERTEX
  5
F69
  8
0
 10
0.0001417633556929
 20
0.0005705339838247
 30
0.0
  0
VERTEX
  5
F6A
  8
0
 10
0.0001418509061219
 20
0.0005664954013512
 30
0.0
  0
VERTEX
  5
F6B
  8
0
 10
0.0001390468910092
 20
0.0005661175274458
 30
0.0
  0
VERTEX
  5
F6C
  8
0
 10
0.0001322558543721
 20
0.0005654263355693
 30
0.0
  0
VERTEX
  5
F6D
  8
0
 10
0.0001299095028737
 20
0.0005670582380451
 30
0.0
  0
VERTEX
  5
F6E
  8
0
 10
0.0001268761306513
 20
0.0005718065168037
 30
0.0
  0
VERTEX
  5
F6F
  8
0
 10
0.0001197397200788
 20
0.0005743190702845
 30
0.0
  0
VERTEX
  5
F70
  8
0
 10
0.0001187822185579
 20
0.0005690084238521
 30
0.0
  0
VERTEX
  5
F71
  8
0
 10
0.0001113426833856
 20
0.0005655332096287
 30
0.0
  0
VERTEX
  5
F72
  8
0
 10
0.0001108750140081
 20
0.0005653406549673
 30
0.0
  0
VERTEX
  5
F73
  8
0
 10
0.0001125136828813
 20
0.0005629112681405
 30
0.0
  0
VERTEX
  5
F74
  8
0
 10
0.0001190317372807
 20
0.0005619420723837
 30
0.0
  0
VERTEX
  5
F75
  8
0
 10
0.0001255605228612
 20
0.0005608229277564
 30
0.0
  0
VERTEX
  5
F76
  8
0
 10
0.0001266554035124
 20
0.0005583770877025
 30
0.0
  0
VERTEX
  5
F77
  8
0
 10
0.0001235032628794
 20
0.0005569440998015
 30
0.0
  0
VERTEX
  5
F78
  8
0
 10
0.0001132415271196
 20
0.0005550967044518
 30
0.0
  0
VERTEX
  5
F79
  8
0
 10
0.0001098545262071
 20
0.0005510097347322
 30
0.0
  0
VERTEX
  5
F7A
  8
0
 10
0.0001095713881196
 20
0.0005495170374386
 30
0.0
  0
VERTEX
  5
F7B
  8
0
 10
0.0001089229145988
 20
0.0005499833372773
 30
0.0
  0
VERTEX
  5
F7C
  8
0
 10
0.000106694230877
 20
0.0005540050506592
 30
0.0
  0
VERTEX
  5
F7D
  8
0
 10
0.0001066984082832
 20
0.0005540074457888
 30
0.0
  0
VERTEX
  5
F7E
  8
0
 10
0.0001015577972912
 20
0.000554523649372
 30
0.0
  0
VERTEX
  5
F7F
  8
0
 10
0.0000978986396164
 20
0.0005489127581237
 30
0.0
  0
VERTEX
  5
F80
  8
0
 10
0.0000940755375096
 20
0.0005391826785979
 30
0.0
  0
VERTEX
  5
F81
  8
0
 10
0.0000923078943471
 20
0.0005369258286523
 30
0.0
  0
VERTEX
  5
F82
  8
0
 10
0.0000900458664191
 20
0.0005361637209283
 30
0.0
  0
VERTEX
  5
F83
  8
0
 10
0.0000925181654633
 20
0.0005413278079424
 30
0.0
  0
VERTEX
  5
F84
  8
0
 10
0.0000929698756484
 20
0.0005439824338819
 30
0.0
  0
VERTEX
  5
F85
  8
0
 10
0.0000897201037798
 20
0.0005440033271664
 30
0.0
  0
VERTEX
  5
F86
  8
0
 10
0.0000840250234135
 20
0.0005420331829884
 30
0.0
  0
VERTEX
  5
F87
  8
0
 10
0.0000831142738217
 20
0.0005377503911003
 30
0.0
  0
VERTEX
  5
F88
  8
0
 10
0.0000818247060307
 20
0.0005355379604902
 30
0.0
  0
VERTEX
  5
F89
  8
0
 10
0.0000785640528945
 20
0.0005363651494511
 30
0.0
  0
VERTEX
  5
F8A
  8
0
 10
0.0000729894919474
 20
0.0005380132800243
 30
0.0
  0
VERTEX
  5
F8B
  8
0
 10
0.0000685607409868
 20
0.000534146008726
 30
0.0
  0
VERTEX
  5
F8C
  8
0
 10
0.0000667249335617
 20
0.000533916798576
 30
0.0
  0
VERTEX
  5
F8D
  8
0
 10
0.0000726111740362
 20
0.0005286435611912
 30
0.0
  0
VERTEX
  5
F8E
  8
0
 10
0.0000662303987097
 20
0.0005213447336291
 30
0.0
  0
VERTEX
  5
F8F
  8
0
 10
0.0000657211553855
 20
0.0005142203065216
 30
0.0
  0
VERTEX
  5
F90
  8
0
 10
0.0000639017574123
 20
0.0005133481182036
 30
0.0
  0
VERTEX
  5
F91
  8
0
 10
0.0000589978827805
 20
0.0005147419397948
 30
0.0
  0
VERTEX
  5
F92
  8
0
 10
0.0000576841760854
 20
0.0005141178131104
 30
0.0
  0
VERTEX
  5
F93
  8
0
 10
0.0000584370597464
 20
0.0005091118445162
 30
0.0
  0
VERTEX
  5
F94
  8
0
 10
0.0000580594422387
 20
0.0005000455812139
 30
0.0
  0
VERTEX
  5
F95
  8
0
 10
0.0000496566022029
 20
0.0004984064104127
 30
0.0
  0
VERTEX
  5
F96
  8
0
 10
0.0000497845759157
 20
0.0004978456129793
 30
0.0
  0
VERTEX
  5
F97
  8
0
 10
0.00004538859383
 20
0.0004948641589431
 30
0.0
  0
VERTEX
  5
F98
  8
0
 10
0.0000280591620774
 20
0.0004867013118306
 30
0.0
  0
VERTEX
  5
F99
  8
0
 10
0.0000280590119909
 20
0.0007383566934554
 30
0.0
  0
VERTEX
  5
F9A
  8
0
 10
0.0000475974161117
 20
0.0007383754292472
 30
0.0
  0
VERTEX
  5
F9B
  8
0
 10
0.0000976835407195
 20
0.0007384243324155
 30
0.0
  0
VERTEX
  5
F9C
  8
0
 10
0.000109361767378
 20
0.0007389348764889
 30
0.0
  0
VERTEX
  5
F9D
  8
0
 10
0.0001169997668657
 20
0.0007439008618965
 30
0.0
  0
VERTEX
  5
F9E
  8
0
 10
0.0001320002821625
 20
0.0007591335609311
 30
0.0
  0
VERTEX
  5
F9F
  8
0
 10
0.0001455154168801
 20
0.0007719815363649
 30
0.0
  0
VERTEX
  5
FA0
  8
0
 10
0.000152628939269
 20
0.0007832746411933
 30
0.0
  0
VERTEX
  5
FA1
  8
0
 10
0.0001534188442543
 20
0.0007840161432985
 30
0.0
  0
VERTEX
  5
FA2
  8
0
 10
0.0001538989457928
 20
0.0007842990562564
 30
0.0
  0
VERTEX
  5
FA3
  8
0
 10
0.00014280958332
 20
0.0007573916325804
 30
0.0
  0
VERTEX
  5
FA4
  8
0
 10
0.0001370569448002
 20
0.0007490067528897
 30
0.0
  0
VERTEX
  5
FA5
  8
0
 10
0.0001465853581663
 20
0.0007544348294618
 30
0.0
  0
VERTEX
  5
FA6
  8
0
 10
0.000173607022645
 20
0.0007769474467293
 30
0.0
  0
VERTEX
  5
FA7
  8
0
 10
0.0001812916740042
 20
0.0007834077678743
 30
0.0
  0
VERTEX
  5
FA8
  8
0
 10
0.0001922624181529
 20
0.000781860501649
 30
0.0
  0
VERTEX
  5
FA9
  8
0
 10
0.0002418261918865
 20
0.0007693496704102
 30
0.0
  0
VERTEX
  5
FAA
  8
0
 10
0.0002439087414351
 20
0.000768508185715
 30
0.0
  0
VERTEX
  5
FAB
  8
0
 10
0.0002435061095191
 20
0.0007679778552446
 30
0.0
  0
VERTEX
  5
FAC
  8
0
 10
0.0002220698372262
 20
0.0007678220154809
 30
0.0
  0
VERTEX
  5
FAD
  8
0
 10
0.0002091281328045
 20
0.0007652816772461
 30
0.0
  0
VERTEX
  5
FAE
  8
0
 10
0.0001998992919922
 20
0.0007598712108174
 30
0.0
  0
VERTEX
  5
FAF
  8
0
 10
0.0001528715540151
 20
0.0007460915237177
 30
0.0
  0
VERTEX
  5
FB0
  8
0
 10
0.0001726888187596
 20
0.0007438940829918
 30
0.0
  0
VERTEX
  5
FB1
  8
0
 10
0.0001994986362145
 20
0.0007492204509798
 30
0.0
  0
VERTEX
  5
FB2
  8
0
 10
0.0002234185390785
 20
0.0007551934414223
 30
0.0
  0
VERTEX
  5
FB3
  8
0
 10
0.0002608761396564
 20
0.0007554068893683
 30
0.0
  0
VERTEX
  5
FB4
  8
0
 10
0.000275319008749
 20
0.0007504913330078
 30
0.0
  0
VERTEX
  5
FB5
  8
0
 10
0.0002840393066406
 20
0.0007488861584273
 30
0.0
  0
VERTEX
  5
FB6
  8
0
 10
0.0002985759672571
 20
0.0007416816586354
 30
0.0
  0
VERTEX
  5
FB7
  8
0
 10
0.0003026109539095
 20
0.0007346989616019
 30
0.0
  0
VERTEX
  5
FB8
  8
0
 10
0.0003031191841501
 20
0.0007340671726915
 30
0.0
  0
VERTEX
  5
FB9
  8
0
 10
0.0003035300583136
 20
0.0007339116331007
 30
0.0
  0
VERTEX
  5
FBA
  8
0
 10
0.0003195077489634
 20
0.0007505933167504
 30
0.0
  0
VERTEX
  5
FBB
  8
0
 10
0.00032288157979
 20
0.0007532218307745
 30
0.0
  0
VERTEX
  5
FBC
  8
0
 10
0.0003260186242276
 20
0.0007510902529857
 30
0.0
  0
VERTEX
  5
FBD
  8
0
 10
0.000328658007012
 20
0.0007404757140113
 30
0.0
  0
VERTEX
  5
FBE
  8
0
 10
0.0003298970707127
 20
0.0007402709710793
 30
0.0
  0
VERTEX
  5
FBF
  8
0
 10
0.0003463942605941
 20
0.0007706696056929
 30
0.0
  0
VERTEX
  5
FC0
  8
0
 10
0.0003515907537742
 20
0.0007785341356621
 30
0.0
  0
VERTEX
  5
FC1
  8
0
 10
0.0003540149876329
 20
0.0007779631817927
 30
0.0
  0
VERTEX
  5
FC2
  8
0
 10
0.0003555106741483
 20
0.0007725565675829
 30
0.0
  0
VERTEX
  5
FC3
  8
0
 10
0.0003559173959201
 20
0.000766848029465
 30
0.0
  0
VERTEX
  5
FC4
  8
0
 10
0.0003561764076108
 20
0.000761666244757
 30
0.0
  0
VERTEX
  5
FC5
  8
0
 10
0.0003632011038358
 20
0.0007604562227843
 30
0.0
  0
VERTEX
  5
FC6
  8
0
 10
0.0003622148607598
 20
0.0007685840043865
 30
0.0
  0
VERTEX
  5
FC7
  8
0
 10
0.0003622743700371
 20
0.0007792597035893
 30
0.0
  0
VERTEX
  5
FC8
  8
0
 10
0.000362665232674
 20
0.0007819959796843
 30
0.0
  0
VERTEX
  5
FC9
  8
0
 10
0.0003910539470735
 20
0.0007859744963099
 30
0.0
  0
VERTEX
  5
FCA
  8
0
 10
0.0003981736292605
 20
0.0007880182485111
 30
0.0
  0
VERTEX
  5
FCB
  8
0
 10
0.0004085901917004
 20
0.0007908266661597
 30
0.0
  0
VERTEX
  5
FCC
  8
0
 10
0.0004240134630047
 20
0.0007955444085793
 30
0.0
  0
VERTEX
  5
FCD
  8
0
 10
0.0004377858896725
 20
0.0007989460929495
 30
0.0
  0
VERTEX
  5
FCE
  8
0
 10
0.0004446214394491
 20
0.0008000254146388
 30
0.0
  0
VERTEX
  5
FCF
  8
0
 10
0.0004451621759133
 20
0.0007997568849657
 30
0.0
  0
VERTEX
  5
FD0
  8
0
 10
0.0004442100212222
 20
0.0007949534431833
 30
0.0
  0
VERTEX
  5
FD1
  8
0
 10
0.0004373365308418
 20
0.0007793484046811
 30
0.0
  0
VERTEX
  5
FD2
  8
0
 10
0.0004322064759301
 20
0.0007672857315814
 30
0.0
  0
VERTEX
  5
FD3
  8
0
 10
0.0004130578025443
 20
0.0007461455048108
 30
0.0
  0
VERTEX
  5
FD4
  8
0
 10
0.0004075871639564
 20
0.0007423556218382
 30
0.0
  0
VERTEX
  5
FD5
  8
0
 10
0.0004090420832399
 20
0.000737284650959
 30
0.0
  0
VERTEX
  5
FD6
  8
0
 10
0.000417472564197
 20
0.0007362175112865
 30
0.0
  0
VERTEX
  5
FD7
  8
0
 10
0.0004287475585938
 20
0.0007370351322362
 30
0.0
  0
VERTEX
  5
FD8
  8
0
 10
0.0004324630737305
 20
0.0007404477729172
 30
0.0
  0
VERTEX
  5
FD9
  8
0
 10
0.000439270401001
 20
0.0007581341852907
 30
0.0
  0
VERTEX
  5
FDA
  8
0
 10
0.0004479574516171
 20
0.0007807783033027
 30
0.0
  0
VERTEX
  5
FDB
  8
0
 10
0.0004556573586386
 20
0.0007746063232422
 30
0.0
  0
VERTEX
  5
FDC
  8
0
 10
0.0004556609951082
 20
0.0007746098752882
 30
0.0
  0
VERTEX
  5
FDD
  8
0
 10
0.0004511958012815
 20
0.0007943940459705
 30
0.0
  0
VERTEX
  5
FDE
  8
0
 10
0.0004527713306615
 20
0.000797544685739
 30
0.0
  0
VERTEX
  5
FDF
  8
0
 10
0.0004580022342869
 20
0.0007958019319128
 30
0.0
  0
VERTEX
  5
FE0
  8
0
 10
0.0004620185164155
 20
0.0007943449677014
 30
0.0
  0
VERTEX
  5
FE1
  8
0
 10
0.0004700463091741
 20
0.0007884373899366
 30
0.0
  0
VERTEX
  5
FE2
  8
0
 10
0.0004719411975048
 20
0.0007858769151031
 30
0.0
  0
VERTEX
  5
FE3
  8
0
 10
0.0004719411975048
 20
0.000776892289959
 30
0.0
  0
SEQEND
  5
11EA
  8
0
  0
POLYLINE
  5
152
  8
0
 66
     1
 10
0.0
 20
0.0
 30
0.0
 70
     1
  0
VERTEX
  5
FE4
  8
0
 10
0.001
 20
0.0009896242235528
 30
0.0
  0
VERTEX
  5
FE5
  8
0
 10
0.0004999999959976
 20
0.0009896242235528
 30
0.0
  0
VERTEX
  5
FE6
  8
0
 10
0.0004999999959976
 20
0.0000103757764472
 30
0.0
  0
VERTEX
  5
FE7
  8
0
 10
0.001
 20
0.0000103757764472
 30
0.0
  0
SEQEND
  5
11EB
  8
0
  0
POLYLINE
  5
153
  8
0
 66
     1
 10
0.0
 20
0.0
 30
0.0
 70
     1
  0
VERTEX
  5
FE8
  8
0
 10
0.0005280583459823
 20
0.0006020333086858
 30
0.0
  0
VERTEX
  5
FE9
  8
0
 10
0.0005351254291222
 20
0.0006032119250688
 30
0.0
  0
VERTEX
  5
FEA
  8
0
 10
0.0005360987741439
 20
0.000604931152844
 30
0.0
  0
VERTEX
  5
FEB
  8
0
 10
0.0005351013496274
 20
0.0006107331322842
 30
0.0
  0
VERTEX
  5
FEC
  8
0
 10
0.0005500266497252
 20
0.000605632206651
 30
0.0
  0
VERTEX
  5
FED
  8
0
 10
0.0005564604337098
 20
0.0006067276501265
 30
0.0
  0
VERTEX
  5
FEE
  8
0
 10
0.0005577163070929
 20
0.0006091021678487
 30
0.0
  0
VERTEX
  5
FEF
  8
0
 10
0.0005618020229652
 20
0.0005975575493985
 30
0.0
  0
VERTEX
  5
FF0
  8
0
 10
0.0005685716222544
 20
0.0006045717208112
 30
0.0
  0
VERTEX
  5
FF1
  8
0
 10
0.0005696141102275
 20
0.0006089805853171
 30
0.0
  0
VERTEX
  5
FF2
  8
0
 10
0.0005694858988778
 20
0.0006094043419009
 30
0.0
  0
VERTEX
  5
FF3
  8
0
 10
0.0005724825249344
 20
0.0006090207459497
 30
0.0
  0
VERTEX
  5
FF4
  8
0
 10
0.0005776142433041
 20
0.0006036648609599
 30
0.0
  0
VERTEX
  5
FF5
  8
0
 10
0.0005745371521496
 20
0.0006017187650086
 30
0.0
  0
VERTEX
  5
FF6
  8
0
 10
0.0005728425322986
 20
0.0005957050761238
 30
0.0
  0
VERTEX
  5
FF7
  8
0
 10
0.0005739793746198
 20
0.0005946797855565
 30
0.0
  0
VERTEX
  5
FF8
  8
0
 10
0.0005807071873399
 20
0.000600011331527
 30
0.0
  0
VERTEX
  5
FF9
  8
0
 10
0.0005865426610728
 20
0.0006083319492027
 30
0.0
  0
VERTEX
  5
FFA
  8
0
 10
0.000583417767384
 20
0.0005998609761723
 30
0.0
  0
VERTEX
  5
FFB
  8
0
 10
0.0005843784144667
 20
0.0005961831640025
 30
0.0
  0
VERTEX
  5
FFC
  8
0
 10
0.0005867055611532
 20
0.0005966838461454
 30
0.0
  0
VERTEX
  5
FFD
  8
0
 10
0.0005883718709477
 20
0.000596309649358
 30
0.0
  0
VERTEX
  5
FFE
  8
0
 10
0.0005813866224445
 20
0.0005852731235692
 30
0.0
  0
VERTEX
  5
FFF
  8
0
 10
0.0005796480147565
 20
0.0005844387554732
 30
0.0
  0
VERTEX
  5
1000
  8
0
 10
0.0005841362437264
 20
0.0005761779660084
 30
0.0
  0
VERTEX
  5
1001
  8
0
 10
0.0005860408532815
 20
0.0005757562606061
 30
0.0
  0
VERTEX
  5
1002
  8
0
 10
0.000592532392408
 20
0.0005843070796279
 30
0.0
  0
VERTEX
  5
1003
  8
0
 10
0.0005946145604868
 20
0.000586930359387
 30
0.0
  0
VERTEX
  5
1004
  8
0
 10
0.0005939843599914
 20
0.0005828132129106
 30
0.0
  0
VERTEX
  5
1005
  8
0
 10
0.0005898393349569
 20
0.0005699379279965
 30
0.0
  0
VERTEX
  5
1006
  8
0
 10
0.0005923122155862
 20
0.0005635078492712
 30
0.0
  0
VERTEX
  5
1007
  8
0
 10
0.0005953810770004
 20
0.0005628134430432
 30
0.0
  0
VERTEX
  5
1008
  8
0
 10
0.0005972822845959
 20
0.0005659249165019
 30
0.0
  0
VERTEX
  5
1009
  8
0
 10
0.0006002079822978
 20
0.0005780130480157
 30
0.0
  0
VERTEX
  5
100A
  8
0
 10
0.0005966277700956
 20
0.0005623700876705
 30
0.0
  0
VERTEX
  5
100B
  8
0
 10
0.0006043705299252
 20
0.0005611887197025
 30
0.0
  0
VERTEX
  5
100C
  8
0
 10
0.0006061915163134
 20
0.0005634039519263
 30
0.0
  0
VERTEX
  5
100D
  8
0
 10
0.0006088198427294
 20
0.0005663697352175
 30
0.0
  0
VERTEX
  5
100E
  8
0
 10
0.0006132073324235
 20
0.000563043882026
 30
0.0
  0
VERTEX
  5
100F
  8
0
 10
0.0006197373812316
 20
0.0005514313244429
 30
0.0
  0
VERTEX
  5
1010
  8
0
 10
0.0006220946890409
 20
0.0005494932831311
 30
0.0
  0
VERTEX
  5
1011
  8
0
 10
0.0006246687717125
 20
0.0005517155756716
 30
0.0
  0
VERTEX
  5
1012
  8
0
 10
0.0006303364613017
 20
0.0005628349241663
 30
0.0
  0
VERTEX
  5
1013
  8
0
 10
0.0006328547618428
 20
0.0005558380939921
 30
0.0
  0
VERTEX
  5
1014
  8
0
 10
0.0006286012493196
 20
0.0005558380939921
 30
0.0
  0
VERTEX
  5
1015
  8
0
 10
0.0006278236514232
 20
0.0005523090612693
 30
0.0
  0
VERTEX
  5
1016
  8
0
 10
0.0006320326257925
 20
0.0005503056448014
 30
0.0
  0
VERTEX
  5
1017
  8
0
 10
0.0006397085721376
 20
0.0005495480302904
 30
0.0
  0
VERTEX
  5
1018
  8
0
 10
0.0006419280755715
 20
0.0005475325349902
 30
0.0
  0
VERTEX
  5
1019
  8
0
 10
0.0006461064823338
 20
0.0005380774263476
 30
0.0
  0
VERTEX
  5
101A
  8
0
 10
0.0006515175616155
 20
0.0005290837147197
 30
0.0
  0
VERTEX
  5
101B
  8
0
 10
0.0006577560800021
 20
0.0005269370657499
 30
0.0
  0
VERTEX
  5
101C
  8
0
 10
0.0006608208953357
 20
0.0005276881984023
 30
0.0
  0
VERTEX
  5
101D
  8
0
 10
0.0006614342861488
 20
0.0005220294452104
 30
0.0
  0
VERTEX
  5
101E
  8
0
 10
0.0006623810439813
 20
0.0005177887947833
 30
0.0
  0
VERTEX
  5
101F
  8
0
 10
0.0006670190654817
 20
0.0005180088996887
 30
0.0
  0
VERTEX
  5
1020
  8
0
 10
0.0006706128104788
 20
0.0005222438296334
 30
0.0
  0
VERTEX
  5
1021
  8
0
 10
0.0006743615822714
 20
0.000510117754389
 30
0.0
  0
VERTEX
  5
1022
  8
0
 10
0.0006691722807337
 20
0.0005108547640629
 30
0.0
  0
VERTEX
  5
1023
  8
0
 10
0.000666486321121
 20
0.000509413138374
 30
0.0
  0
VERTEX
  5
1024
  8
0
 10
0.0006711650410637
 20
0.0005052001542732
 30
0.0
  0
VERTEX
  5
1025
  8
0
 10
0.0006752396755531
 20
0.000504406060938
 30
0.0
  0
VERTEX
  5
1026
  8
0
 10
0.0006831654908227
 20
0.0005023917897803
 30
0.0
  0
VERTEX
  5
1027
  8
0
 10
0.0006859639902584
 20
0.000503214541615
 30
0.0
  0
VERTEX
  5
1028
  8
0
 10
0.0006865377957704
 20
0.000495780416004
 30
0.0
  0
VERTEX
  5
1029
  8
0
 10
0.0006809793691166
 20
0.0004956920764485
 30
0.0
  0
VERTEX
  5
102A
  8
0
 10
0.0006784741886327
 20
0.0004952732004103
 30
0.0
  0
VERTEX
  5
102B
  8
0
 10
0.0006734243549284
 20
0.0004878557971266
 30
0.0
  0
VERTEX
  5
102C
  8
0
 10
0.0006732970440974
 20
0.0004791054491137
 30
0.0
  0
VERTEX
  5
102D
  8
0
 10
0.0006764652689949
 20
0.0004801512827639
 30
0.0
  0
VERTEX
  5
102E
  8
0
 10
0.0006914562538022
 20
0.0004824607489539
 30
0.0
  0
VERTEX
  5
102F
  8
0
 10
0.0006962239124736
 20
0.0004791744107106
 30
0.0
  0
VERTEX
  5
1030
  8
0
 10
0.0007017660047187
 20
0.0004681830046607
 30
0.0
  0
VERTEX
  5
1031
  8
0
 10
0.0007017549858719
 20
0.0004655187200327
 30
0.0
  0
VERTEX
  5
1032
  8
0
 10
0.0006932807547147
 20
0.0004620512665295
 30
0.0
  0
VERTEX
  5
1033
  8
0
 10
0.0006880943173268
 20
0.00046014430562
 30
0.0
  0
VERTEX
  5
1034
  8
0
 10
0.000707218045094
 20
0.000455388034758
 30
0.0
  0
VERTEX
  5
1035
  8
0
 10
0.0007007542844679
 20
0.0004330656395584
 30
0.0
  0
VERTEX
  5
1036
  8
0
 10
0.0007008520908043
 20
0.0004314672063609
 30
0.0
  0
VERTEX
  5
1037
  8
0
 10
0.0007022586384758
 20
0.0004310542247334
 30
0.0
  0
VERTEX
  5
1038
  8
0
 10
0.0007004290721456
 20
0.0004245466576248
 30
0.0
  0
VERTEX
  5
1039
  8
0
 10
0.0006965941132092
 20
0.0004171104931441
 30
0.0
  0
VERTEX
  5
103A
  8
0
 10
0.0006992983833688
 20
0.0004151272445429
 30
0.0
  0
VERTEX
  5
103B
  8
0
 10
0.0006932433206527
 20
0.0003987250843986
 30
0.0
  0
VERTEX
  5
103C
  8
0
 10
0.0006887612264664
 20
0.0003904126651952
 30
0.0
  0
VERTEX
  5
103D
  8
0
 10
0.0006889277598897
 20
0.0003893112182617
 30
0.0
  0
VERTEX
  5
103E
  8
0
 10
0.0006925558371622
 20
0.0003917426437628
 30
0.0
  0
VERTEX
  5
103F
  8
0
 10
0.0007046854488185
 20
0.0004007925877806
 30
0.0
  0
VERTEX
  5
1040
  8
0
 10
0.0007061757947578
 20
0.0004006410942703
 30
0.0
  0
VERTEX
  5
1041
  8
0
 10
0.0007103947873975
 20
0.0003958182538142
 30
0.0
  0
VERTEX
  5
1042
  8
0
 10
0.0007176603723745
 20
0.0003884001184682
 30
0.0
  0
VERTEX
  5
1043
  8
0
 10
0.0007189052644323
 20
0.0003840751022589
 30
0.0
  0
VERTEX
  5
1044
  8
0
 10
0.0007177403434378
 20
0.0003830874333616
 30
0.0
  0
VERTEX
  5
1045
  8
0
 10
0.0007066706923188
 20
0.0003868930629042
 30
0.0
  0
VERTEX
  5
1046
  8
0
 10
0.0007033400488681
 20
0.0003826028292296
 30
0.0
  0
VERTEX
  5
1047
  8
0
 10
0.0007032200672587
 20
0.0003726843661949
 30
0.0
  0
VERTEX
  5
1048
  8
0
 10
0.0007022891560539
 20
0.0003695763134566
 30
0.0
  0
VERTEX
  5
1049
  8
0
 10
0.0006965912490595
 20
0.0003692748773293
 30
0.0
  0
VERTEX
  5
104A
  8
0
 10
0.0006935272216797
 20
0.0003553340349041
 30
0.0
  0
VERTEX
  5
104B
  8
0
 10
0.0006926302925485
 20
0.0003448149884333
 30
0.0
  0
VERTEX
  5
104C
  8
0
 10
0.0006908488289255
 20
0.0003419967026007
 30
0.0
  0
VERTEX
  5
104D
  8
0
 10
0.0006860081531962
 20
0.0003417456079702
 30
0.0
  0
VERTEX
  5
104E
  8
0
 10
0.000678715290007
 20
0.000339763678879
 30
0.0
  0
VERTEX
  5
104F
  8
0
 10
0.0006767426662758
 20
0.0003353730999055
 30
0.0
  0
VERTEX
  5
1050
  8
0
 10
0.0006780921185603
 20
0.0003325245216245
 30
0.0
  0
VERTEX
  5
1051
  8
0
 10
0.0006823497334465
 20
0.0003335560282723
 30
0.0
  0
VERTEX
  5
1052
  8
0
 10
0.0006849095203837
 20
0.0003369919073386
 30
0.0
  0
VERTEX
  5
1053
  8
0
 10
0.0006902196915423
 20
0.000328624862921
 30
0.0
  0
VERTEX
  5
1054
  8
0
 10
0.0006822566923548
 20
0.0003292819038766
 30
0.0
  0
VERTEX
  5
1055
  8
0
 10
0.0006810425430048
 20
0.0003286929396332
 30
0.0
  0
VERTEX
  5
1056
  8
0
 10
0.0006815809031002
 20
0.0003250147209793
 30
0.0
  0
VERTEX
  5
1057
  8
0
 10
0.0006817191827493
 20
0.0003238365673628
 30
0.0
  0
VERTEX
  5
1058
  8
0
 10
0.0006774736623295
 20
0.0003262291204734
 30
0.0
  0
VERTEX
  5
1059
  8
0
 10
0.0006781077900871
 20
0.0003205478105389
 30
0.0
  0
VERTEX
  5
105A
  8
0
 10
0.0006759362767954
 20
0.0003183015541952
 30
0.0
  0
VERTEX
  5
105B
  8
0
 10
0.0006701819247887
 20
0.0003216113356293
 30
0.0
  0
VERTEX
  5
105C
  8
0
 10
0.0006694145202637
 20
0.0003241882074075
 30
0.0
  0
VERTEX
  5
105D
  8
0
 10
0.0006668307695232
 20
0.0003248513518787
 30
0.0
  0
VERTEX
  5
105E
  8
0
 10
0.0006607316689413
 20
0.0003226934714396
 30
0.0
  0
VERTEX
  5
105F
  8
0
 10
0.0006574733796667
 20
0.0003242836748967
 30
0.0
  0
VERTEX
  5
1060
  8
0
 10
0.0006576090953389
 20
0.0003298060432809
 30
0.0
  0
VERTEX
  5
1061
  8
0
 10
0.0006583444438997
 20
0.0003333956358863
 30
0.0
  0
VERTEX
  5
1062
  8
0
 10
0.0006412262838395
 20
0.0003300366886327
 30
0.0
  0
VERTEX
  5
1063
  8
0
 10
0.0006385806224385
 20
0.0003303400883909
 30
0.0
  0
VERTEX
  5
1064
  8
0
 10
0.0006386100643971
 20
0.0003341732337827
 30
0.0
  0
VERTEX
  5
1065
  8
0
 10
0.0006371071862393
 20
0.0003381826056809
 30
0.0
  0
VERTEX
  5
1066
  8
0
 10
0.0006369502458416
 20
0.0003305605653857
 30
0.0
  0
VERTEX
  5
1067
  8
0
 10
0.0006298206391882
 20
0.000332519656322
 30
0.0
  0
VERTEX
  5
1068
  8
0
 10
0.0006263409223713
 20
0.0003307690229572
 30
0.0
  0
VERTEX
  5
1069
  8
0
 10
0.0006303906425101
 20
0.0003264379032323
 30
0.0
  0
VERTEX
  5
106A
  8
0
 10
0.0006328985620718
 20
0.0003227916154705
 30
0.0
  0
VERTEX
  5
106B
  8
0
 10
0.0006291641610568
 20
0.0003147070712731
 30
0.0
  0
VERTEX
  5
106C
  8
0
 10
0.0006271761034356
 20
0.0003112805601026
 30
0.0
  0
VERTEX
  5
106D
  8
0
 10
0.0006240005493164
 20
0.0003124895064557
 30
0.0
  0
VERTEX
  5
106E
  8
0
 10
0.0006139309367196
 20
0.0003187882345231
 30
0.0
  0
VERTEX
  5
106F
  8
0
 10
0.0006116694215868
 20
0.000319170154509
 30
0.0
  0
VERTEX
  5
1070
  8
0
 10
0.0006104674292392
 20
0.0003156751288742
 30
0.0
  0
VERTEX
  5
1071
  8
0
 10
0.0006084469529449
 20
0.0003153655755715
 30
0.0
  0
VERTEX
  5
1072
  8
0
 10
0.0006073101106237
 20
0.0003186945430568
 30
0.0
  0
VERTEX
  5
1073
  8
0
 10
0.0006154655206399
 20
0.0003380546069536
 30
0.0
  0
VERTEX
  5
1074
  8
0
 10
0.0006175761238473
 20
0.0003424511893851
 30
0.0
  0
VERTEX
  5
1075
  8
0
 10
0.0005946145604868
 20
0.0003381826932313
 30
0.0
  0
VERTEX
  5
1076
  8
0
 10
0.0005917734490066
 20
0.0003421234506076
 30
0.0
  0
VERTEX
  5
1077
  8
0
 10
0.0005808768850858
 20
0.0003350516397445
 30
0.0
  0
VERTEX
  5
1078
  8
0
 10
0.0005794391569544
 20
0.0003336192772037
 30
0.0
  0
VERTEX
  5
1079
  8
0
 10
0.0005770943751101
 20
0.0003352971436547
 30
0.0
  0
VERTEX
  5
107A
  8
0
 10
0.0005726429798564
 20
0.0003415764605413
 30
0.0
  0
VERTEX
  5
107B
  8
0
 10
0.0005664725882108
 20
0.0003434518782819
 30
0.0
  0
VERTEX
  5
107C
  8
0
 10
0.0005623610574691
 20
0.0003415079961058
 30
0.0
  0
VERTEX
  5
107D
  8
0
 10
0.0005612415626401
 20
0.0003374358755643
 30
0.0
  0
VERTEX
  5
107E
  8
0
 10
0.0005535857028649
 20
0.0003283936672523
 30
0.0
  0
VERTEX
  5
107F
  8
0
 10
0.0005533381665339
 20
0.0003279734502073
 30
0.0
  0
VERTEX
  5
1080
  8
0
 10
0.0005501247593614
 20
0.0003367946187004
 30
0.0
  0
VERTEX
  5
1081
  8
0
 10
0.0005470518424863
 20
0.0003365417980757
 30
0.0
  0
VERTEX
  5
1082
  8
0
 10
0.0005414479333846
 20
0.0003307723498735
 30
0.0
  0
VERTEX
  5
1083
  8
0
 10
0.0005403208091611
 20
0.0003289418204886
 30
0.0
  0
VERTEX
  5
1084
  8
0
 10
0.0005456370682013
 20
0.0003274098130523
 30
0.0
  0
VERTEX
  5
1085
  8
0
 10
0.0005539235412097
 20
0.0003264412676702
 30
0.0
  0
VERTEX
  5
1086
  8
0
 10
0.0005427120896636
 20
0.0003040624274582
 30
0.0
  0
VERTEX
  5
1087
  8
0
 10
0.0005419973686093
 20
0.0003106221433546
 30
0.0
  0
VERTEX
  5
1088
  8
0
 10
0.0005444405039803
 20
0.0003124008428855
 30
0.0
  0
VERTEX
  5
1089
  8
0
 10
0.0005372523042022
 20
0.0003238342035012
 30
0.0
  0
VERTEX
  5
108A
  8
0
 10
0.0005381362383483
 20
0.0003168471789751
 30
0.0
  0
VERTEX
  5
108B
  8
0
 10
0.0005367102576084
 20
0.000313902232686
 30
0.0
  0
VERTEX
  5
108C
  8
0
 10
0.000534394142276
 20
0.0003161022874176
 30
0.0
  0
VERTEX
  5
108D
  8
0
 10
0.0005329170789875
 20
0.0003217327930888
 30
0.0
  0
VERTEX
  5
108E
  8
0
 10
0.0005280592996566
 20
0.0003190646312276
 30
0.0
  0
VERTEX
  5
108F
  8
0
 10
0.0005280588243828
 20
0.000054312684106
 30
0.0
  0
VERTEX
  5
1090
  8
0
 10
0.0005645661338431
 20
0.0000542809158075
 30
0.0
  0
VERTEX
  5
1091
  8
0
 10
0.0005686022023686
 20
0.0000545877425397
 30
0.0
  0
VERTEX
  5
1092
  8
0
 10
0.0005892117609743
 20
0.000055632144115
 30
0.0
  0
VERTEX
  5
1093
  8
0
 10
0.0005941479167
 20
0.0000562282374648
 30
0.0
  0
VERTEX
  5
1094
  8
0
 10
0.0005846596326984
 20
0.000062213034708
 30
0.0
  0
VERTEX
  5
1095
  8
0
 10
0.0005745423989218
 20
0.0000770227150839
 30
0.0
  0
VERTEX
  5
1096
  8
0
 10
0.0005718417120762
 20
0.000081962510406
 30
0.0
  0
VERTEX
  5
1097
  8
0
 10
0.0005663254847292
 20
0.0000838109000784
 30
0.0
  0
VERTEX
  5
1098
  8
0
 10
0.0005425776809943
 20
0.0000897099229156
 30
0.0
  0
VERTEX
  5
1099
  8
0
 10
0.0005351077283015
 20
0.0000992269797403
 30
0.0
  0
VERTEX
  5
109A
  8
0
 10
0.0005384759277594
 20
0.0001116530621638
 30
0.0
  0
VERTEX
  5
109B
  8
0
 10
0.0005418241594659
 20
0.0001137190271596
 30
0.0
  0
VERTEX
  5
109C
  8
0
 10
0.0005439432832061
 20
0.0001144388667873
 30
0.0
  0
VERTEX
  5
109D
  8
0
 10
0.0005458854393881
 20
0.0001123485127433
 30
0.0
  0
VERTEX
  5
109E
  8
0
 10
0.0005464010207379
 20
0.0001139902333744
 30
0.0
  0
VERTEX
  5
109F
  8
0
 10
0.0005456756310385
 20
0.0001174544037366
 30
0.0
  0
VERTEX
  5
10A0
  8
0
 10
0.0005492235965416
 20
0.0001184582069272
 30
0.0
  0
VERTEX
  5
10A1
  8
0
 10
0.0005518475735774
 20
0.0001181101564501
 30
0.0
  0
VERTEX
  5
10A2
  8
0
 10
0.0005525419641714
 20
0.0001199244764985
 30
0.0
  0
VERTEX
  5
10A3
  8
0
 10
0.0005535825447958
 20
0.0001272054453365
 30
0.0
  0
VERTEX
  5
10A4
  8
0
 10
0.000553236658065
 20
0.0001426958428055
 30
0.0
  0
VERTEX
  5
10A5
  8
0
 10
0.0005498783549324
 20
0.0001497550589139
 30
0.0
  0
VERTEX
  5
10A6
  8
0
 10
0.000550016281253
 20
0.0001649281235992
 30
0.0
  0
VERTEX
  5
10A7
  8
0
 10
0.00055351065964
 20
0.0001705775526703
 30
0.0
  0
VERTEX
  5
10A8
  8
0
 10
0.0005606901012483
 20
0.0001746841930952
 30
0.0
  0
VERTEX
  5
10A9
  8
0
 10
0.0005729200769643
 20
0.0001779454465772
 30
0.0
  0
VERTEX
  5
10AA
  8
0
 10
0.0005763581385378
 20
0.0001802334144467
 30
0.0
  0
VERTEX
  5
10AB
  8
0
 10
0.0005793662024326
 20
0.0001881175557121
 30
0.0
  0
VERTEX
  5
10AC
  8
0
 10
0.0005988563850278
 20
0.0002062158053039
 30
0.0
  0
VERTEX
  5
10AD
  8
0
 10
0.0006263654239842
 20
0.0002142141623575
 30
0.0
  0
VERTEX
  5
10AE
  8
0
 10
0.0006533153596472
 20
0.0002152353255475
 30
0.0
  0
VERTEX
  5
10AF
  8
0
 10
0.0006831359237921
 20
0.0002147820394547
 30
0.0
  0
VERTEX
  5
10B0
  8
0
 10
0.0006862821485175
 20
0.0002167781141938
 30
0.0
  0
VERTEX
  5
10B1
  8
0
 10
0.0006950187683105
 20
0.0002332588070729
 30
0.0
  0
VERTEX
  5
10B2
  8
0
 10
0.000700795770864
 20
0.000243062729132
 30
0.0
  0
VERTEX
  5
10B3
  8
0
 10
0.0007097131572786
 20
0.0002519387167008
 30
0.0
  0
VERTEX
  5
10B4
  8
0
 10
0.0007293652143635
 20
0.0002619322980037
 30
0.0
  0
VERTEX
  5
10B5
  8
0
 10
0.0007566443521468
 20
0.0002666842601338
 30
0.0
  0
VERTEX
  5
10B6
  8
0
 10
0.0007931019517242
 20
0.0002660727579086
 30
0.0
  0
VERTEX
  5
10B7
  8
0
 10
0.000822067310771
 20
0.0002624850413838
 30
0.0
  0
VERTEX
  5
10B8
  8
0
 10
0.0008343657696833
 20
0.0002582104292072
 30
0.0
  0
VERTEX
  5
10B9
  8
0
 10
0.0008468715980405
 20
0.0002377389376281
 30
0.0
  0
VERTEX
  5
10BA
  8
0
 10
0.0008526274634189
 20
0.0002017651917504
 30
0.0
  0
VERTEX
  5
10BB
  8
0
 10
0.0008545286084785
 20
0.0001954914780914
 30
0.0
  0
VERTEX
  5
10BC
  8
0
 10
0.0008579114069704
 20
0.0001775199014632
 30
0.0
  0
VERTEX
  5
10BD
  8
0
 10
0.0008595953519227
 20
0.0001756986774382
 30
0.0
  0
VERTEX
  5
10BE
  8
0
 10
0.0008670892684186
 20
0.0001752311331327
 30
0.0
  0
VERTEX
  5
10BF
  8
0
 10
0.0009218616923348
 20
0.0001723490980805
 30
0.0
  0
VERTEX
  5
10C0
  8
0
 10
0.0009684542296363
 20
0.0001696660026175
 30
0.0
  0
VERTEX
  5
10C1
  8
0
 10
0.0009719413882396
 20
0.0001677689599209
 30
0.0
  0
VERTEX
  5
10C2
  8
0
 10
0.0009719406878362
 20
0.0007157931218382
 30
0.0
  0
VERTEX
  5
10C3
  8
0
 10
0.0009702406085905
 20
0.0007178508570937
 30
0.0
  0
VERTEX
  5
10C4
  8
0
 10
0.0009448608898726
 20
0.0007380786082784
 30
0.0
  0
VERTEX
  5
10C5
  8
0
 10
0.0009033399738249
 20
0.0007695168417008
 30
0.0
  0
VERTEX
  5
10C6
  8
0
 10
0.0008788152976114
 20
0.0007816269671331
 30
0.0
  0
VERTEX
  5
10C7
  8
0
 10
0.0008582735655738
 20
0.0007909090135918
 30
0.0
  0
VERTEX
  5
10C8
  8
0
 10
0.0008536912261463
 20
0.0007915975852091
 30
0.0
  0
VERTEX
  5
10C9
  8
0
 10
0.0008519545258069
 20
0.0007908479033924
 30
0.0
  0
VERTEX
  5
10CA
  8
0
 10
0.0008398816468286
 20
0.0007825013707896
 30
0.0
  0
VERTEX
  5
10CB
  8
0
 10
0.0008235349561347
 20
0.0007650444155834
 30
0.0
  0
VERTEX
  5
10CC
  8
0
 10
0.0008112873515145
 20
0.0007461274694224
 30
0.0
  0
VERTEX
  5
10CD
  8
0
 10
0.0008112869262695
 20
0.0007461281698258
 30
0.0
  0
VERTEX
  5
10CE
  8
0
 10
0.000824674012231
 20
0.0007811249529729
 30
0.0
  0
VERTEX
  5
10CF
  8
0
 10
0.0008273078042953
 20
0.0007918875022013
 30
0.0
  0
VERTEX
  5
10D0
  8
0
 10
0.0008256207075275
 20
0.0007979869404777
 30
0.0
  0
VERTEX
  5
10D1
  8
0
 10
0.0008183687303887
 20
0.0007939710523261
 30
0.0
  0
VERTEX
  5
10D2
  8
0
 10
0.0008172591412654
 20
0.0007912643182473
 30
0.0
  0
VERTEX
  5
10D3
  8
0
 10
0.0008169459608735
 20
0.0007900672537382
 30
0.0
  0
VERTEX
  5
10D4
  8
0
 10
0.0008123146182201
 20
0.0007900200765641
 30
0.0
  0
VERTEX
  5
10D5
  8
0
 10
0.0008090563414527
 20
0.0007845410956711
 30
0.0
  0
VERTEX
  5
10D6
  8
0
 10
0.0008040308967966
 20
0.0007756270111584
 30
0.0
  0
VERTEX
  5
10D7
  8
0
 10
0.0007995262020924
 20
0.0007729769847432
 30
0.0
  0
VERTEX
  5
10D8
  8
0
 10
0.0007922226202293
 20
0.0007716125738425
 30
0.0
  0
VERTEX
  5
10D9
  8
0
 10
0.0007807506373671
 20
0.0007629977867252
 30
0.0
  0
VERTEX
  5
10DA
  8
0
 10
0.0007703052208072
 20
0.0007525888411725
 30
0.0
  0
VERTEX
  5
10DB
  8
0
 10
0.0007493243858462
 20
0.0007443752851643
 30
0.0
  0
VERTEX
  5
10DC
  8
0
 10
0.0007434290651415
 20
0.0007444479520204
 30
0.0
  0
VERTEX
  5
10DD
  8
0
 10
0.0007428078573258
 20
0.0007444726412414
 30
0.0
  0
VERTEX
  5
10DE
  8
0
 10
0.0007366563640657
 20
0.0007490673878154
 30
0.0
  0
VERTEX
  5
10DF
  8
0
 10
0.0007175791756051
 20
0.000763936052166
 30
0.0
  0
VERTEX
  5
10E0
  8
0
 10
0.0007012916189725
 20
0.0007773157088483
 30
0.0
  0
VERTEX
  5
10E1
  8
0
 10
0.0006779292747623
 20
0.0007942180195793
 30
0.0
  0
VERTEX
  5
10E2
  8
0
 10
0.0006701159492868
 20
0.0007998765288806
 30
0.0
  0
VERTEX
  5
10E3
  8
0
 10
0.0006642926950924
 20
0.0008032977495037
 30
0.0
  0
VERTEX
  5
10E4
  8
0
 10
0.0006578581888168
 20
0.0008062133288774
 30
0.0
  0
VERTEX
  5
10E5
  8
0
 10
0.0006536138065526
 20
0.0008043391993788
 30
0.0
  0
VERTEX
  5
10E6
  8
0
 10
0.0006707654609055
 20
0.0007816659645956
 30
0.0
  0
VERTEX
  5
10E7
  8
0
 10
0.0006717674130299
 20
0.0007784989403897
 30
0.0
  0
VERTEX
  5
10E8
  8
0
 10
0.000660699300297
 20
0.0007877795109983
 30
0.0
  0
VERTEX
  5
10E9
  8
0
 10
0.0006490185221688
 20
0.000799099956575
 30
0.0
  0
VERTEX
  5
10EA
  8
0
 10
0.000647966678807
 20
0.0007995145203637
 30
0.0
  0
VERTEX
  5
10EB
  8
0
 10
0.000644190003442
 20
0.0007953581012663
 30
0.0
  0
VERTEX
  5
10EC
  8
0
 10
0.0006377797111136
 20
0.0007826446283059
 30
0.0
  0
VERTEX
  5
10ED
  8
0
 10
0.0006279793911293
 20
0.0007510627121222
 30
0.0
  0
VERTEX
  5
10EE
  8
0
 10
0.0006274278734551
 20
0.0007461470807185
 30
0.0
  0
VERTEX
  5
10EF
  8
0
 10
0.0006260905281442
 20
0.0007464623373063
 30
0.0
  0
VERTEX
  5
10F0
  8
0
 10
0.0006285877165247
 20
0.0007791113931625
 30
0.0
  0
VERTEX
  5
10F1
  8
0
 10
0.0006019862253158
 20
0.0007486201802238
 30
0.0
  0
VERTEX
  5
10F2
  8
0
 10
0.000601846275955
 20
0.0007484839017274
 30
0.0
  0
VERTEX
  5
10F3
  8
0
 10
0.0006006122213895
 20
0.000749781223985
 30
0.0
  0
VERTEX
  5
10F4
  8
0
 10
0.0006277288218014
 20
0.0007916602212875
 30
0.0
  0
VERTEX
  5
10F5
  8
0
 10
0.0006269595036741
 20
0.0007927110765801
 30
0.0
  0
VERTEX
  5
10F6
  8
0
 10
0.0006069731040079
 20
0.0007749883432857
 30
0.0
  0
VERTEX
  5
10F7
  8
0
 10
0.0006063020799981
 20
0.0007759597528176
 30
0.0
  0
VERTEX
  5
10F8
  8
0
 10
0.0006169789423708
 20
0.0007878554047131
 30
0.0
  0
VERTEX
  5
10F9
  8
0
 10
0.0006211850025615
 20
0.000795952168449
 30
0.0
  0
VERTEX
  5
10FA
  8
0
 10
0.0006215808930944
 20
0.0007968575149286
 30
0.0
  0
VERTEX
  5
10FB
  8
0
 10
0.0006128926886887
 20
0.0007981533863505
 30
0.0
  0
VERTEX
  5
10FC
  8
0
 10
0.000585284111148
 20
0.0007877950449459
 30
0.0
  0
VERTEX
  5
10FD
  8
0
 10
0.0005732693656546
 20
0.000776223579782
 30
0.0
  0
VERTEX
  5
10FE
  8
0
 10
0.0005698688006792
 20
0.0007706836137615
 30
0.0
  0
VERTEX
  5
10FF
  8
0
 10
0.0005630210000961
 20
0.0007660332601579
 30
0.0
  0
VERTEX
  5
1100
  8
0
 10
0.0005505992138972
 20
0.0007551414364674
 30
0.0
  0
VERTEX
  5
1101
  8
0
 10
0.0005680428676918
 20
0.0007799699626985
 30
0.0
  0
VERTEX
  5
1102
  8
0
 10
0.0005680413230521
 20
0.0007799752907675
 30
0.0
  0
VERTEX
  5
1103
  8
0
 10
0.0005311858005211
 20
0.0007743676607726
 30
0.0
  0
VERTEX
  5
1104
  8
0
 10
0.0005280587618468
 20
0.000772713407923
 30
0.0
  0
VERTEX
  5
1105
  8
0
 10
0.0005280586430284
 20
0.0007213043212891
 30
0.0
  0
SEQEND
  5
11EC
  8
0
  0
ENDSEC
  0
EOF
