  0
SECTION
  2
HEADER
  9
$ACADVER
  1
AC1009
  9
$DWGCODEPAGE
  3
ansi_1252
  9
$INSBASE
 10
0.0
 20
0.0
 30
0.0
  9
$EXTMIN
 10
113.6195130919014
 20
-286.7285334631046
 30
0.0
  9
$EXTMAX
 10
913.6195130919014
 20
23.27146653689545
 30
0.0
  9
$LIMMIN
 10
0.0
 20
0.0
  9
$LIMMAX
 10
12.0
 20
9.0
  9
$ORTHOMODE
 70
     0
  9
$REGENMODE
 70
     1
  9
$FILLMODE
 70
     1
  9
$QTEXTMODE
 70
     0
  9
$MIRRTEXT
 70
     1
  9
$DRAGMODE
 70
     2
  9
$LTSCALE
 40
1.0
  9
$OSMODE
 70
    37
  9
$ATTMODE
 70
     1
  9
$TEXTSIZE
 40
0.2
  9
$TRACEWID
 40
0.05
  9
$TEXTSTYLE
  7
STANDARD
  9
$CLAYER
  8
PREDEFINITO
  9
$CELTYPE
  6
BYLAYER
  9
$CECOLOR
 62
   256
  9
$DIMSCALE
 40
1.0
  9
$DIMASZ
 40
0.18
  9
$DIMEXO
 40
0.0625
  9
$DIMDLI
 40
0.38
  9
$DIMRND
 40
0.0
  9
$DIMDLE
 40
0.0
  9
$DIMEXE
 40
0.18
  9
$DIMTP
 40
0.0
  9
$DIMTM
 40
0.0
  9
$DIMTXT
 40
0.18
  9
$DIMCEN
 40
0.09
  9
$DIMTSZ
 40
0.0
  9
$DIMTOL
 70
     0
  9
$DIMLIM
 70
     0
  9
$DIMTIH
 70
     1
  9
$DIMTOH
 70
     1
  9
$DIMSE1
 70
     0
  9
$DIMSE2
 70
     0
  9
$DIMTAD
 70
     0
  9
$DIMZIN
 70
     0
  9
$DIMBLK
  1

  9
$DIMASO
 70
     1
  9
$DIMSHO
 70
     1
  9
$DIMPOST
  1

  9
$DIMAPOST
  1

  9
$DIMALT
 70
     0
  9
$DIMALTD
 70
     2
  9
$DIMALTF
 40
25.4
  9
$DIMLFAC
 40
1.0
  9
$DIMTOFL
 70
     0
  9
$DIMTVP
 40
0.0
  9
$DIMTIX
 70
     0
  9
$DIMSOXD
 70
     0
  9
$DIMSAH
 70
     0
  9
$DIMBLK1
  1

  9
$DIMBLK2
  1

  9
$DIMSTYLE
  2
STANDARD
  9
$DIMCLRD
 70
     0
  9
$DIMCLRE
 70
     0
  9
$DIMCLRT
 70
     0
  9
$DIMTFAC
 40
1.0
  9
$DIMGAP
 40
0.09
  9
$LUNITS
 70
     2
  9
$LUPREC
 70
     3
  9
$SKETCHINC
 40
0.1
  9
$FILLETRAD
 40
0.5
  9
$AUNITS
 70
     0
  9
$AUPREC
 70
     0
  9
$MENU
  1
.
  9
$ELEVATION
 40
0.0
  9
$PELEVATION
 40
0.0
  9
$THICKNESS
 40
0.0
  9
$LIMCHECK
 70
     0
  9
$CHAMFERA
 40
0.5
  9
$CHAMFERB
 40
0.5
  9
$SKPOLY
 70
     0
  9
$TDCREATE
 40
2455691.909713171
  9
$TDUPDATE
 40
2455691.909713183
  9
$TDINDWG
 40
0.0000000116
  9
$TDUSRTIMER
 40
0.0000000116
  9
$USRTIMER
 70
     1
  9
$ANGBASE
 50
0.0
  9
$ANGDIR
 70
     0
  9
$PDMODE
 70
     0
  9
$PDSIZE
 40
0.0
  9
$PLINEWID
 40
0.0
  9
$COORDS
 70
     1
  9
$SPLFRAME
 70
     0
  9
$SPLINETYPE
 70
     6
  9
$SPLINESEGS
 70
     8
  9
$ATTDIA
 70
     0
  9
$ATTREQ
 70
     1
  9
$HANDLING
 70
     1
  9
$HANDSEED
  5
71F
  9
$SURFTAB1
 70
     6
  9
$SURFTAB2
 70
     6
  9
$SURFTYPE
 70
     6
  9
$SURFU
 70
     6
  9
$SURFV
 70
     6
  9
$UCSNAME
  2

  9
$UCSORG
 10
0.0
 20
0.0
 30
0.0
  9
$UCSXDIR
 10
1.0
 20
0.0
 30
0.0
  9
$UCSYDIR
 10
0.0
 20
1.0
 30
0.0
  9
$PUCSNAME
  2

  9
$PUCSORG
 10
0.0
 20
0.0
 30
0.0
  9
$PUCSXDIR
 10
1.0
 20
0.0
 30
0.0
  9
$PUCSYDIR
 10
0.0
 20
1.0
 30
0.0
  9
$USERI1
 70
     0
  9
$USERI2
 70
     0
  9
$USERI3
 70
     0
  9
$USERI4
 70
     0
  9
$USERI5
 70
     0
  9
$USERR1
 40
0.0
  9
$USERR2
 40
0.0
  9
$USERR3
 40
0.0
  9
$USERR4
 40
0.0
  9
$USERR5
 40
0.0
  9
$WORLDVIEW
 70
     1
  9
$SHADEDGE
 70
     3
  9
$SHADEDIF
 70
    70
  9
$TILEMODE
 70
     0
  9
$MAXACTVP
 70
    64
  9
$PLIMCHECK
 70
     0
  9
$PEXTMIN
 10
0.0
 20
0.0
 30
0.0
  9
$PEXTMAX
 10
0.0
 20
0.0
 30
0.0
  9
$PLIMMIN
 10
0.0
 20
0.0
  9
$PLIMMAX
 10
12.0
 20
9.0
  9
$UNITMODE
 70
     0
  9
$VISRETAIN
 70
     1
  9
$PLINEGEN
 70
     0
  9
$PSLTSCALE
 70
     1
  0
ENDSEC
  0
SECTION
  2
TABLES
  0
TABLE
  2
VPORT
 70
     1
  0
VPORT
  2
*ACTIVE
 70
     0
 10
0.0
 20
0.0
 11
1.0
 21
1.0
 12
513.6195130919014
 22
-131.7285334631046
 13
0.0
 23
0.0
 14
0.5
 24
0.5
 15
0.5
 25
0.5
 16
0.0
 26
0.0
 36
1.0
 17
0.0
 27
0.0
 37
0.0
 40
316.2
 41
2.580645161290323
 42
50.0
 43
0.0
 44
0.0
 50
0.0
 51
0.0
 71
     0
 72
   100
 73
     1
 74
     3
 75
     0
 76
     0
 77
     0
 78
     0
  0
ENDTAB
  0
TABLE
  2
LTYPE
 70
     1
  0
LTYPE
  2
CONTINUOUS
 70
     0
  3
Solid line
 72
    65
 73
     0
 40
0.0
  0
ENDTAB
  0
TABLE
  2
LAYER
 70
     3
  0
LAYER
  2
0
 70
     0
 62
     7
  6
CONTINUOUS
  0
LAYER
  2
DEFAULT
 70
     0
 62
     7
  6
CONTINUOUS
  0
LAYER
  2
PREDEFINITO
 70
     0
 62
     7
  6
CONTINUOUS
  0
ENDTAB
  0
TABLE
  2
STYLE
 70
     2
  0
STYLE
  2
STANDARD
 70
     0
 40
0.0
 41
1.0
 50
0.0
 71
     0
 42
0.2
  3
txt
  4

  0
STYLE
  2
EXPLODED0
 70
     0
 40
0.2
 41
1.0
 50
0.0
 71
     0
 42
0.2
  3
Arial
  4

  0
ENDTAB
  0
TABLE
  2
VIEW
 70
     0
  0
ENDTAB
  0
TABLE
  2
UCS
 70
     0
  0
ENDTAB
  0
TABLE
  2
APPID
 70
     1
  0
APPID
  2
ACAD
 70
     0
  0
ENDTAB
  0
TABLE
  2
DIMSTYLE
 70
     1
  0
DIMSTYLE
  2
STANDARD
 70
     0
  3

  4

  5

  6

  7

 40
1.0
 41
0.18
 42
0.0625
 43
0.38
 44
0.18
 45
0.0
 46
0.0
 47
0.0
 48
0.0
140
0.18
141
0.09
142
0.0
143
25.4
144
1.0
145
0.0
146
1.0
147
0.09
 71
     0
 72
     0
 73
     1
 74
     1
 75
     0
 76
     0
 77
     0
 78
     0
170
     0
171
     2
172
     0
173
     0
174
     0
175
     0
176
     0
177
     0
178
     0
  0
ENDTAB
  0
ENDSEC
  0
SECTION
  2
BLOCKS
  0
BLOCK
  8
0
  2
$MODEL_SPACE
 70
     0
 10
0.0
 20
0.0
 30
0.0
  3
$MODEL_SPACE
  1

  0
ENDBLK
  5
21
  8
0
  0
BLOCK
 67
     1
  8
0
  2
$PAPER_SPACE
 70
     0
 10
0.0
 20
0.0
 30
0.0
  3
$PAPER_SPACE
  1

  0
ENDBLK
  5
718
 67
     1
  8
0
  0
BLOCK
  8
0
  2
_X0
 70
     0
 10
0.0
 20
0.0
 30
0.0
  3
_X0
  1

  0
TEXT
  5
3D
  8
DEFAULT
 10
-585.5298486635676
 20
-24.31629916101207
 30
0.0
 40
10.0
  1
Porta Penne
  7
EXPLODED0
  0
TEXT
  5
60
  8
DEFAULT
 10
-584.2098486635674
 20
-56.44481321723696
 30
0.0
 40
10.0
  1
Spessore Compensato mm 4 per tutti i pezzi
  7
EXPLODED0
  0
TEXT
  5
61
  8
DEFAULT
 10
-584.2098486635674
 20
-88.57332727346187
 30
0.0
 40
10.0
  1
Scarica il dxf gratis e dopo posta la tua realizzazione
  7
EXPLODED0
  0
TEXT
  5
62
  8
DEFAULT
 10
-584.2998486635673
 20
-120.7018413296868
 30
0.0
 40
10.0
  1
Offerto Gratis dawww.forumcnc.com
  7
EXPLODED0
  0
TEXT
  5
63
  8
DEFAULT
 10
-582.2898486635675
 20
-152.8303553859116
 30
0.0
 40
10.0
  1
 e disegnato da Tonio Latino
  7
EXPLODED0
  0
ENDBLK
  5
65
  8
0
  0
ENDSEC
  0
SECTION
  2
ENTITIES
  0
LINE
  5
67
  8
PREDEFINITO
 10
913.6195130919014
 20
-286.7285334631046
 30
0.0
 11
913.6195130919014
 21
23.27146653689545
 31
0.0
  0
LINE
  5
68
  8
PREDEFINITO
 10
913.6195130919014
 20
23.27146653689545
 30
0.0
 11
113.6195130919014
 21
23.27146653689545
 31
0.0
  0
LINE
  5
69
  8
PREDEFINITO
 10
113.6195130919014
 20
23.27146653689545
 30
0.0
 11
113.6195130919014
 21
-286.7285334631046
 31
0.0
  0
LINE
  5
6A
  8
DEFAULT
 10
227.4499560358819
 20
-125.6733390314901
 30
0.0
 11
231.2541821010622
 21
-124.4372710539895
 31
0.0
  0
ARC
  5
6B
  8
DEFAULT
 10
209.2002873492297
 20
-63.19210661139931
 30
0.0
 40
77.5398451702663
 50
289.5140052876752
 51
322.5239041309324
  0
LINE
  5
6C
  8
DEFAULT
 10
260.6764985638874
 20
-103.0607068713157
 30
0.0
 11
263.0276395730568
 21
-99.82463889381556
 31
0.0
  0
LINE
  5
6D
  8
DEFAULT
 10
263.0276395730568
 20
-99.82463889381556
 30
0.0
 11
273.0877227210469
 21
-107.1337171361004
 31
0.0
  0
ARC
  5
6E
  8
DEFAULT
 10
209.7118355248123
 20
-63.04343901238502
 30
0.0
 40
77.03051431673002
 50
1.344038029374739
 51
34.5909255952627
  0
LINE
  5
6F
  8
DEFAULT
 10
183.4207536334405
 20
-136.3078753245701
 30
0.0
 11
187.2777467671386
 21
-124.4372710539895
 31
0.0
  0
ARC
  5
70
  8
DEFAULT
 10
209.2184202313981
 20
-63.67475411797227
 30
0.0
 40
77.07211066468946
 50
253.4199221044925
 51
286.6473269882558
  0
LINE
  5
71
  8
DEFAULT
 10
273.1253802200087
 20
-19.31218605651508
 30
0.0
 11
263.0276395730569
 21
-26.648624073294
 31
0.0
  0
LINE
  5
72
  8
DEFAULT
 10
191.0819728323191
 20
-125.6733390314899
 30
0.0
 11
187.2254976625997
 21
-137.5423491728607
 31
0.0
  0
LINE
  5
73
  8
DEFAULT
 10
231.2980273637876
 20
-137.5164848072613
 30
0.0
 11
227.4499560358819
 21
-125.6733390314901
 31
0.0
  0
LINE
  5
74
  8
DEFAULT
 10
260.6764985638871
 20
-23.412556095794
 30
0.0
 11
270.7754152139274
 21
-16.07526366275818
 31
0.0
  0
ARC
  5
75
  8
DEFAULT
 10
209.7268648628162
 20
-62.6065672021553
 30
0.0
 40
76.75993557219607
 50
37.31470809094758
 51
70.6888903010809
  0
LINE
  5
76
  8
DEFAULT
 10
235.1111752347603
 20
9.834612357460626
 30
0.0
 11
231.2541821010622
 21
-2.035991913120146
 31
0.0
  0
LINE
  5
77
  8
DEFAULT
 10
231.2541821010622
 20
-2.035991913120146
 30
0.0
 11
227.4499560358819
 21
-0.799923935619514
 31
0.0
  0
LINE
  5
78
  8
DEFAULT
 10
227.4499560358819
 20
-0.799923935619514
 30
0.0
 11
231.3064312056014
 21
11.0690862057512
 31
0.0
  0
ARC
  5
79
  8
DEFAULT
 10
209.3135086368033
 20
-62.79850884913537
 30
0.0
 40
77.07211066468757
 50
73.41992210448564
 51
106.6473269882497
  0
LINE
  5
7A
  8
DEFAULT
 10
187.2339015044136
 20
11.04322184015149
 30
0.0
 11
191.0819728323193
 21
-0.7999239356199759
 31
0.0
  0
LINE
  5
7B
  8
DEFAULT
 10
191.0819728323193
 20
-0.7999239356199759
 30
0.0
 11
187.2777467671385
 21
-2.035991913119513
 31
0.0
  0
LINE
  5
7C
  8
DEFAULT
 10
187.2777467671385
 20
-2.035991913119513
 30
0.0
 11
183.4257077472782
 21
9.819365162861576
 31
0.0
  0
ARC
  5
7D
  8
DEFAULT
 10
209.4093517197686
 20
-63.34213724434244
 30
0.0
 40
77.63861918252056
 50
109.5527283846787
 51
142.5230822953014
  0
LINE
  5
7E
  8
DEFAULT
 10
263.0276395730569
 20
-26.648624073294
 30
0.0
 11
260.6764985638871
 21
-23.412556095794
 31
0.0
  0
LINE
  5
7F
  8
DEFAULT
 10
321.0501595074185
 20
-61.23663148355467
 30
0.0
 11
321.050159507419
 21
-65.23663148355467
 31
0.0
  0
LINE
  5
80
  8
DEFAULT
 10
231.2541821010622
 20
-124.4372710539895
 30
0.0
 11
235.1014853150913
 21
-136.2780528183283
 31
0.0
  0
LINE
  5
81
  8
DEFAULT
 10
274.2659644341006
 20
-61.23663148355479
 30
0.0
 11
286.7211569245865
 21
-61.23663148355479
 31
0.0
  0
LINE
  5
82
  8
DEFAULT
 10
270.7364706426113
 20
-110.3697044170551
 30
0.0
 11
260.6764985638874
 21
-103.0607068713157
 31
0.0
  0
ARC
  5
83
  8
DEFAULT
 10
209.2316755406964
 20
-63.19280502286665
 30
0.0
 40
77.51386017250144
 50
325.4671860781619
 51
358.4890933938481
  0
LINE
  5
84
  8
DEFAULT
 10
187.2777467671386
 20
-124.4372710539895
 30
0.0
 11
191.0819728323191
 21
-125.6733390314899
 31
0.0
  0
ARC
  5
85
  8
DEFAULT
 10
208.8050640053847
 20
-63.86669576495399
 30
0.0
 40
76.75993557219633
 50
217.3147080909384
 51
250.6888903010717
  0
LINE
  5
86
  8
DEFAULT
 10
437.4606936372057
 20
-103.0607068713155
 30
0.0
 11
439.8118346463751
 21
-99.82463889381535
 31
0.0
  0
LINE
  5
87
  8
DEFAULT
 10
439.8118346463751
 20
-99.82463889381535
 30
0.0
 11
449.8719177943652
 21
-107.1337171361002
 31
0.0
  0
LINE
  5
88
  8
DEFAULT
 10
439.8118346463752
 20
-26.64862407329383
 30
0.0
 11
437.4606936372056
 21
-23.41255609579383
 31
0.0
  0
ARC
  5
89
  8
DEFAULT
 10
386.0026153047165
 20
-63.67475411797216
 30
0.0
 40
77.07211066468946
 50
253.4199221044856
 51
286.6473269882489
  0
LINE
  5
8A
  8
DEFAULT
 10
367.8661679056374
 20
-125.6733390314897
 30
0.0
 11
364.0096927359181
 21
-137.5423491728606
 31
0.0
  0
LINE
  5
8B
  8
DEFAULT
 10
364.0619418404569
 20
-124.4372710539893
 30
0.0
 11
367.8661679056374
 21
-125.6733390314897
 31
0.0
  0
LINE
  5
8C
  8
DEFAULT
 10
360.2049487067588
 20
-136.3078753245699
 30
0.0
 11
364.0619418404569
 21
-124.4372710539893
 31
0.0
  0
ARC
  5
8D
  8
DEFAULT
 10
385.589259078703
 20
-63.86669576495387
 30
0.0
 40
76.75993557219633
 50
217.3147080909384
 51
250.6888903010716
  0
LINE
  5
8E
  8
DEFAULT
 10
334.6396253776318
 20
-103.0607068713155
 30
0.0
 11
324.5407087275916
 21
-110.3979993043511
 31
0.0
  0
LINE
  5
8F
  8
DEFAULT
 10
451.0501595074187
 20
-65.23663148355467
 30
0.0
 11
451.050159507419
 21
-61.23663148355467
 31
0.0
  0
ARC
  5
90
  8
DEFAULT
 10
386.4960305981306
 20
-63.04343901238485
 30
0.0
 40
77.03051431673002
 50
1.344038029374739
 51
34.5909255952627
  0
ARC
  5
91
  8
DEFAULT
 10
386.0158706140148
 20
-63.19280502286642
 30
0.0
 40
77.51386017250144
 50
325.4671860781508
 51
358.489093393837
  0
LINE
  5
92
  8
DEFAULT
 10
451.050159507419
 20
-61.23663148355467
 30
0.0
 11
463.5053519979049
 21
-61.23663148355467
 31
0.0
  0
LINE
  5
93
  8
DEFAULT
 10
449.9095752933271
 20
-19.31218605651497
 30
0.0
 11
439.8118346463752
 21
-26.64862407329383
 31
0.0
  0
LINE
  5
94
  8
DEFAULT
 10
447.5206657159297
 20
-110.3697044170549
 30
0.0
 11
437.4606936372057
 21
-103.0607068713155
 31
0.0
  0
LINE
  5
95
  8
DEFAULT
 10
334.6396253776319
 20
-23.41255609579366
 30
0.0
 11
332.2884843684628
 21
-26.64862407329395
 31
0.0
  0
ARC
  5
96
  8
DEFAULT
 10
385.9844824225481
 20
-63.19210661139914
 30
0.0
 40
77.5398451702663
 50
289.5140052876752
 51
322.5239041309324
  0
LINE
  5
97
  8
DEFAULT
 10
408.0383771743806
 20
-124.4372710539893
 30
0.0
 11
411.8856803884096
 21
-136.2780528183281
 31
0.0
  0
LINE
  5
98
  8
DEFAULT
 10
404.2341511092002
 20
-125.6733390314899
 30
0.0
 11
408.0383771743806
 21
-124.4372710539893
 31
0.0
  0
ARC
  5
99
  8
DEFAULT
 10
386.5110599361345
 20
-62.60656720215513
 30
0.0
 40
76.75993557219607
 50
37.31470809093843
 51
70.68889030107181
  0
LINE
  5
9A
  8
DEFAULT
 10
404.2341511092002
 20
-0.7999239356193435
 30
0.0
 11
408.0906262789197
 21
11.06908620575138
 31
0.0
  0
LINE
  5
9B
  8
DEFAULT
 10
411.8953703080787
 20
9.834612357460745
 30
0.0
 11
408.0383771743806
 21
-2.035991913119915
 31
0.0
  0
ARC
  5
9C
  8
DEFAULT
 10
386.0977037101217
 20
-62.79850884913526
 30
0.0
 40
77.07211066468757
 50
73.41992210449256
 51
106.6473269882566
  0
LINE
  5
9D
  8
DEFAULT
 10
364.0619418404569
 20
-2.035991913119343
 30
0.0
 11
360.2099028205966
 21
9.819365162861745
 31
0.0
  0
ARC
  5
9E
  8
DEFAULT
 10
386.193546793087
 20
-63.34213724434221
 30
0.0
 40
77.63861918252056
 50
109.5527283846787
 51
142.5230822953014
  0
LINE
  5
9F
  8
DEFAULT
 10
321.050159507419
 20
-65.23663148355467
 30
0.0
 11
308.5949670169327
 21
-65.23663148355456
 31
0.0
  0
LINE
  5
A0
  8
DEFAULT
 10
332.2884843684627
 20
-99.82463889381515
 30
0.0
 11
334.6396253776318
 21
-103.0607068713155
 31
0.0
  0
LINE
  5
A1
  8
DEFAULT
 10
322.1907437215107
 20
-107.1610769105941
 30
0.0
 11
332.2884843684627
 21
-99.82463889381515
 31
0.0
  0
ARC
  5
A2
  8
DEFAULT
 10
385.6042884167052
 20
-63.42982395472461
 30
0.0
 40
77.03051431672813
 50
181.344038029378
 51
214.5909255952668
  0
LINE
  5
A3
  8
DEFAULT
 10
308.5975379433738
 20
-61.23663148355456
 30
0.0
 11
321.0501595074185
 21
-61.23663148355467
 31
0.0
  0
ARC
  5
A4
  8
DEFAULT
 10
386.0844484008202
 20
-63.28045794424253
 30
0.0
 40
77.513860172499
 50
145.4671860781508
 51
178.4890933938381
  0
LINE
  5
A5
  8
DEFAULT
 10
332.2884843684628
 20
-26.64862407329395
 30
0.0
 11
322.2284012204724
 21
-19.33954583100893
 31
0.0
  0
LINE
  5
A6
  8
DEFAULT
 10
324.5796532989081
 20
-16.10355855005412
 30
0.0
 11
334.6396253776319
 21
-23.41255609579366
 31
0.0
  0
CIRCLE
  5
A7
  8
DEFAULT
 62
    19
 10
386.0501595074189
 20
-63.23663148355467
 30
0.0
 40
53.90353969182598
  0
TEXT
  5
A8
  8
DEFAULT
 10
342.926869126796
 20
-65.41809602106761
 30
0.0
 40
8.0
  1
Coperchio Sopra
  7
EXPLODED0
  0
LINE
  5
A9
  8
DEFAULT
 10
144.2659644341001
 20
-61.23663148355479
 30
0.0
 11
144.2659644341007
 21
-65.23663148355479
 31
0.0
  0
LINE
  5
AA
  8
DEFAULT
 10
144.2659644341007
 20
-65.23663148355479
 30
0.0
 11
131.8107719436144
 21
-65.23663148355467
 31
0.0
  0
LINE
  5
AB
  8
DEFAULT
 10
131.8133428700555
 20
-61.23663148355467
 30
0.0
 11
144.2659644341001
 21
-61.23663148355479
 31
0.0
  0
LINE
  5
AC
  8
DEFAULT
 10
147.7954582255898
 20
-16.10355855005434
 30
0.0
 11
157.8554303043135
 21
-23.41255609579378
 31
0.0
  0
LINE
  5
AD
  8
DEFAULT
 10
286.7185859981452
 20
-65.23663148355479
 30
0.0
 11
274.2659644341003
 21
-65.23663148355479
 31
0.0
  0
LINE
  5
AE
  8
DEFAULT
 10
157.8554303043135
 20
-23.41255609579378
 30
0.0
 11
155.5042892951444
 21
-26.64862407329412
 31
0.0
  0
LINE
  5
AF
  8
DEFAULT
 10
155.5042892951444
 20
-26.64862407329412
 30
0.0
 11
145.444206147154
 21
-19.3395458310091
 31
0.0
  0
ARC
  5
B0
  8
DEFAULT
 10
209.3002533275018
 20
-63.2804579442427
 30
0.0
 40
77.513860172499
 50
145.4671860781508
 51
178.4890933938381
  0
ARC
  5
B1
  8
DEFAULT
 10
208.8200933433868
 20
-63.42982395472484
 30
0.0
 40
77.03051431672813
 50
181.3440380293715
 51
214.5909255952602
  0
LINE
  5
B2
  8
DEFAULT
 10
274.2659644341003
 20
-65.23663148355479
 30
0.0
 11
274.2659644341006
 21
-61.23663148355479
 31
0.0
  0
LINE
  5
B3
  8
DEFAULT
 10
145.4065486481924
 20
-107.1610769105943
 30
0.0
 11
155.5042892951444
 21
-99.82463889381525
 31
0.0
  0
LINE
  5
B4
  8
DEFAULT
 10
155.5042892951444
 20
-99.82463889381525
 30
0.0
 11
157.8554303043135
 21
-103.0607068713157
 31
0.0
  0
LINE
  5
B5
  8
DEFAULT
 10
157.8554303043135
 20
-103.0607068713157
 30
0.0
 11
147.7565136542733
 21
-110.3979993043513
 31
0.0
  0
LINE
  5
B6
  8
PREDEFINITO
 10
113.6195130919014
 20
-286.7285334631046
 30
0.0
 11
913.6195130919014
 21
-286.7285334631046
 31
0.0
  0
LINE
  5
B7
  8
PREDEFINITO
 10
815.6030248747686
 20
-8.426881994816085
 30
0.0
 11
815.8581884373839
 21
-8.100244716226594
 31
0.0
  0
LINE
  5
B8
  8
PREDEFINITO
 10
815.8581884373839
 20
-8.100244716226594
 30
0.0
 11
816.106956191687
 21
-7.768182676659425
 31
0.0
  0
LINE
  5
B9
  8
PREDEFINITO
 10
816.106956191687
 20
-7.768182676659425
 30
0.0
 11
816.3491243555316
 21
-7.430976891892556
 31
0.0
  0
LINE
  5
BA
  8
PREDEFINITO
 10
816.3491243555316
 20
-7.430976891892556
 30
0.0
 11
816.5841888985369
 21
-7.089294642839715
 31
0.0
  0
LINE
  5
BB
  8
PREDEFINITO
 10
816.5841888985369
 20
-7.089294642839715
 30
0.0
 11
816.8122912906238
 21
-6.742925768022705
 31
0.0
  0
LINE
  5
BC
  8
PREDEFINITO
 10
816.8122912906238
 20
-6.742925768022705
 30
0.0
 11
817.0335730017123
 21
-6.391660105962504
 31
0.0
  0
LINE
  5
BD
  8
PREDEFINITO
 10
817.0335730017123
 20
-6.391660105962504
 30
0.0
 11
817.2421457642654
 21
-6.045486282101024
 31
0.0
  0
LINE
  5
BE
  8
PREDEFINITO
 10
817.2421457642654
 20
-6.045486282101024
 30
0.0
 11
817.4436730061136
 21
-5.695614399496545
 31
0.0
  0
LINE
  5
BF
  8
PREDEFINITO
 10
817.4436730061136
 20
-5.695614399496545
 30
0.0
 11
817.6382694110794
 21
-5.341840739318055
 31
0.0
  0
LINE
  5
C0
  8
PREDEFINITO
 10
817.6382694110794
 20
-5.341840739318055
 30
0.0
 11
817.8260496629853
 21
-4.983961582734533
 31
0.0
  0
LINE
  5
C1
  8
PREDEFINITO
 10
817.8260496629853
 20
-4.983961582734533
 30
0.0
 11
818.0070798805737
 21
-4.621830931351493
 31
0.0
  0
LINE
  5
C2
  8
PREDEFINITO
 10
818.0070798805737
 20
-4.621830931351493
 30
0.0
 11
818.1807697341028
 21
-4.256557301616905
 31
0.0
  0
LINE
  5
C3
  8
PREDEFINITO
 10
818.1807697341028
 20
-4.256557301616905
 30
0.0
 11
818.3472180423475
 21
-3.887927473066956
 31
0.0
  0
LINE
  5
C4
  8
PREDEFINITO
 10
818.3472180423475
 20
-3.887927473066956
 30
0.0
 11
818.5065236240828
 21
-3.515728225237925
 31
0.0
  0
LINE
  5
C5
  8
PREDEFINITO
 10
818.5065236240828
 20
-3.515728225237925
 30
0.0
 11
818.6526786162688
 21
-3.155194418025076
 31
0.0
  0
LINE
  5
C6
  8
PREDEFINITO
 10
818.6526786162688
 20
-3.155194418025076
 30
0.0
 11
818.7918551049743
 21
-2.792282563047024
 31
0.0
  0
LINE
  5
C7
  8
PREDEFINITO
 10
818.7918551049743
 20
-2.792282563047024
 30
0.0
 11
818.924125924681
 21
-2.426797214835464
 31
0.0
  0
LINE
  5
C8
  8
PREDEFINITO
 10
818.924125924681
 20
-2.426797214835464
 30
0.0
 11
819.0495639098706
 21
-2.058542927922414
 31
0.0
  0
LINE
  5
C9
  8
PREDEFINITO
 10
819.0495639098706
 20
-2.058542927922414
 30
0.0
 11
819.168191407111
 21
-1.687435251571404
 31
0.0
  0
LINE
  5
CA
  8
PREDEFINITO
 10
819.168191407111
 20
-1.687435251571404
 30
0.0
 11
819.2796612199741
 21
-1.314479595864324
 31
0.0
  0
LINE
  5
CB
  8
PREDEFINITO
 10
819.2796612199741
 20
-1.314479595864324
 30
0.0
 11
819.3840334703539
 21
-0.9394746743995448
 31
0.0
  0
LINE
  5
CC
  8
PREDEFINITO
 10
819.3840334703539
 20
-0.9394746743995448
 30
0.0
 11
819.481368280145
 21
-0.562219200775985
 31
0.0
  0
LINE
  5
CD
  8
PREDEFINITO
 10
819.481368280145
 20
-0.562219200775985
 30
0.0
 11
807.0465589390924
 21
-0.5622192007758748
 31
0.0
  0
LINE
  5
CE
  8
PREDEFINITO
 10
807.0465589390924
 20
-0.5622192007758748
 30
0.0
 11
807.0465589390924
 21
-4.562219200775875
 31
0.0
  0
LINE
  5
CF
  8
PREDEFINITO
 10
807.0465589390924
 20
-4.562219200775875
 30
0.0
 11
796.6961274808932
 21
-4.562219200775875
 31
0.0
  0
LINE
  5
D0
  8
PREDEFINITO
 10
796.6961274808932
 20
-4.562219200775875
 30
0.0
 11
796.6961274808932
 21
-16.36858810880074
 31
0.0
  0
LINE
  5
D1
  8
PREDEFINITO
 10
796.6961274808932
 20
-16.36858810880074
 30
0.0
 11
796.6961274808932
 21
-40.62396612524548
 31
0.0
  0
LINE
  5
D2
  8
PREDEFINITO
 10
796.6961274808932
 20
-40.62396612524548
 30
0.0
 11
806.6962337479022
 21
-40.62396612524548
 31
0.0
  0
LINE
  5
D3
  8
PREDEFINITO
 10
806.6962337479022
 20
-40.62396612524548
 30
0.0
 11
806.6962337479022
 21
-44.82396612524542
 31
0.0
  0
LINE
  5
D4
  8
PREDEFINITO
 10
806.6962337479022
 20
-44.82396612524542
 30
0.0
 11
796.6961274808932
 21
-44.82396612524542
 31
0.0
  0
LINE
  5
D5
  8
PREDEFINITO
 10
796.6961274808932
 20
-44.82396612524542
 30
0.0
 11
796.6961274808932
 21
-67.22518330880075
 31
0.0
  0
LINE
  5
D6
  8
PREDEFINITO
 10
796.6961274808932
 20
-67.22518330880075
 30
0.0
 11
806.6962337479022
 21
-67.22518330880087
 31
0.0
  0
LINE
  5
D7
  8
PREDEFINITO
 10
806.6962337479022
 20
-67.22518330880087
 30
0.0
 11
806.6962337479022
 21
-71.4251833088008
 31
0.0
  0
LINE
  5
D8
  8
PREDEFINITO
 10
806.6962337479022
 20
-71.4251833088008
 30
0.0
 11
796.6961274808932
 21
-71.4251833088008
 31
0.0
  0
LINE
  5
D9
  8
PREDEFINITO
 10
796.6961274808932
 20
-71.4251833088008
 30
0.0
 11
796.6961274808932
 21
-93.82640049235616
 31
0.0
  0
LINE
  5
DA
  8
PREDEFINITO
 10
796.6961274808932
 20
-93.82640049235616
 30
0.0
 11
806.6962337479022
 21
-93.82640049235616
 31
0.0
  0
LINE
  5
DB
  8
PREDEFINITO
 10
806.6962337479022
 20
-93.82640049235616
 30
0.0
 11
806.6962337479022
 21
-98.02640049235616
 31
0.0
  0
LINE
  5
DC
  8
PREDEFINITO
 10
806.6962337479022
 20
-98.02640049235616
 30
0.0
 11
796.6961274808932
 21
-98.02640049235606
 31
0.0
  0
LINE
  5
DD
  8
PREDEFINITO
 10
796.6961274808932
 20
-98.02640049235606
 30
0.0
 11
796.6961274808932
 21
-122.2817785088008
 31
0.0
  0
LINE
  5
DE
  8
PREDEFINITO
 10
796.6961274808932
 20
-122.2817785088008
 30
0.0
 11
796.6961274808932
 21
-134.0881474168256
 31
0.0
  0
CIRCLE
  5
DF
  8
DEFAULT
 10
702.0274899013409
 20
-58.98075205866547
 30
0.0
 40
65.0
  0
CIRCLE
  5
E0
  8
DEFAULT
 10
702.0274899013409
 20
-58.98075205866547
 30
0.0
 40
53.90353969182593
  0
CIRCLE
  5
E1
  8
DEFAULT
 10
553.6453642622496
 20
-59.44984511120822
 30
0.0
 40
65.0
  0
CIRCLE
  5
E2
  8
DEFAULT
 10
553.6453642622496
 20
-59.44984511120828
 30
0.0
 40
53.90353969182593
  0
LINE
  5
E3
  8
DEFAULT
 10
437.4606936372056
 20
-23.41255609579383
 30
0.0
 11
447.5596102872457
 21
-16.07526366275806
 31
0.0
  0
LINE
  5
E4
  8
DEFAULT
 10
408.0383771743806
 20
-2.035991913119915
 30
0.0
 11
404.2341511092002
 21
-0.7999239356193435
 31
0.0
  0
LINE
  5
E5
  8
DEFAULT
 10
367.8661679056376
 20
-0.7999239356198551
 30
0.0
 11
364.0619418404569
 21
-2.035991913119343
 31
0.0
  0
LINE
  5
E6
  8
DEFAULT
 10
364.0180965777319
 20
11.04322184015166
 30
0.0
 11
367.8661679056376
 21
-0.7999239356198551
 31
0.0
  0
LINE
  5
E7
  8
DEFAULT
 10
408.0822224371059
 20
-137.5164848072612
 30
0.0
 11
404.2341511092002
 21
-125.6733390314899
 31
0.0
  0
LINE
  5
E8
  8
DEFAULT
 10
463.5027810714636
 20
-65.23663148355467
 30
0.0
 11
451.0501595074187
 21
-65.23663148355467
 31
0.0
  0
LINE
  5
E9
  8
PREDEFINITO
 10
809.6834905381927
 20
-125.1677835433493
 30
0.0
 11
810.7092209182529
 21
-121.7330783646065
 31
0.0
  0
LINE
  5
EA
  8
PREDEFINITO
 10
810.7092209182529
 20
-121.7330783646065
 30
0.0
 11
811.6707444442006
 21
-118.2877388822984
 31
0.0
  0
LINE
  5
EB
  8
PREDEFINITO
 10
811.6707444442006
 20
-118.2877388822984
 30
0.0
 11
812.5676723532795
 21
-114.8324411640496
 31
0.0
  0
LINE
  5
EC
  8
PREDEFINITO
 10
812.5676723532795
 20
-114.8324411640496
 30
0.0
 11
813.3996409519846
 21
-111.3678679668492
 31
0.0
  0
LINE
  5
ED
  8
PREDEFINITO
 10
813.3996409519846
 20
-111.3678679668492
 30
0.0
 11
814.1663119815671
 21
-107.8947082997445
 31
0.0
  0
LINE
  5
EE
  8
PREDEFINITO
 10
814.1663119815671
 20
-107.8947082997445
 30
0.0
 11
814.867372959307
 21
-104.4136569777528
 31
0.0
  0
LINE
  5
EF
  8
PREDEFINITO
 10
814.867372959307
 20
-104.4136569777528
 30
0.0
 11
815.502537494921
 21
-100.9254141675902
 31
0.0
  0
LINE
  5
F0
  8
PREDEFINITO
 10
815.502537494921
 20
-100.9254141675902
 30
0.0
 11
816.071545581508
 21
-97.43068492582066
 31
0.0
  0
LINE
  5
F1
  8
PREDEFINITO
 10
816.071545581508
 20
-97.43068492582066
 30
0.0
 11
816.5741638604848
 21
-93.93017873005775
 31
0.0
  0
LINE
  5
F2
  8
PREDEFINITO
 10
816.5741638604848
 20
-93.93017873005775
 30
0.0
 11
817.0101858600108
 21
-90.42460900386315
 31
0.0
  0
LINE
  5
F3
  8
PREDEFINITO
 10
817.0101858600108
 20
-90.42460900386315
 30
0.0
 11
817.3794322064471
 21
-86.91469263600295
 31
0.0
  0
LINE
  5
F4
  8
PREDEFINITO
 10
817.3794322064471
 20
-86.91469263600295
 30
0.0
 11
817.681750808448
 21
-83.40114949473696
 31
0.0
  0
LINE
  5
F5
  8
PREDEFINITO
 10
817.681750808448
 20
-83.40114949473696
 30
0.0
 11
817.9170170133334
 21
-79.88470193782516
 31
0.0
  0
LINE
  5
F6
  8
PREDEFINITO
 10
817.9170170133334
 20
-79.88470193782516
 30
0.0
 11
818.0851337354404
 21
-76.36607431895266
 31
0.0
  0
LINE
  5
F7
  8
PREDEFINITO
 10
818.0851337354404
 20
-76.36607431895266
 30
0.0
 11
818.1860315562117
 21
-72.84599249127507
 31
0.0
  0
LINE
  5
F8
  8
PREDEFINITO
 10
818.1860315562117
 20
-72.84599249127507
 30
0.0
 11
818.2196687958217
 21
-69.32518330880077
 31
0.0
  0
LINE
  5
F9
  8
PREDEFINITO
 10
818.2196687958217
 20
-69.32518330880077
 30
0.0
 11
818.1860315562114
 21
-65.80437412632659
 31
0.0
  0
LINE
  5
FA
  8
PREDEFINITO
 10
818.1860315562114
 20
-65.80437412632659
 30
0.0
 11
818.0851337354402
 21
-62.28429229864901
 31
0.0
  0
LINE
  5
FB
  8
PREDEFINITO
 10
818.0851337354402
 20
-62.28429229864901
 30
0.0
 11
817.9170170133332
 21
-58.76566467977648
 31
0.0
  0
LINE
  5
FC
  8
PREDEFINITO
 10
817.9170170133332
 20
-58.76566467977648
 30
0.0
 11
817.6817508084478
 21
-55.24921712286471
 31
0.0
  0
LINE
  5
FD
  8
PREDEFINITO
 10
817.6817508084478
 20
-55.24921712286471
 30
0.0
 11
817.3794322064468
 21
-51.73567398159867
 31
0.0
  0
LINE
  5
FE
  8
PREDEFINITO
 10
817.3794322064468
 20
-51.73567398159867
 30
0.0
 11
817.0101858600106
 21
-48.22575761373855
 31
0.0
  0
LINE
  5
FF
  8
PREDEFINITO
 10
817.0101858600106
 20
-48.22575761373855
 30
0.0
 11
816.5741638604845
 21
-44.72018788754394
 31
0.0
  0
LINE
  5
100
  8
PREDEFINITO
 10
816.5741638604845
 20
-44.72018788754394
 30
0.0
 11
816.0715455815077
 21
-41.21968169178103
 31
0.0
  0
LINE
  5
101
  8
PREDEFINITO
 10
816.0715455815077
 20
-41.21968169178103
 30
0.0
 11
815.502537494921
 21
-37.72495245001152
 31
0.0
  0
LINE
  5
102
  8
PREDEFINITO
 10
815.502537494921
 20
-37.72495245001152
 30
0.0
 11
814.8673729593067
 21
-34.23670963984886
 31
0.0
  0
LINE
  5
103
  8
PREDEFINITO
 10
814.8673729593067
 20
-34.23670963984886
 30
0.0
 11
814.1663119815669
 21
-30.75565831785718
 31
0.0
  0
LINE
  5
104
  8
PREDEFINITO
 10
814.1663119815669
 20
-30.75565831785718
 30
0.0
 11
813.3996409519843
 21
-27.28249865075235
 31
0.0
  0
LINE
  5
105
  8
PREDEFINITO
 10
813.3996409519843
 20
-27.28249865075235
 30
0.0
 11
812.5676723532792
 21
-23.81792545355223
 31
0.0
  0
LINE
  5
106
  8
PREDEFINITO
 10
812.5676723532792
 20
-23.81792545355223
 30
0.0
 11
811.6707444442004
 21
-20.36262773530314
 31
0.0
  0
LINE
  5
107
  8
PREDEFINITO
 10
811.6707444442004
 20
-20.36262773530314
 30
0.0
 11
810.7092209182526
 21
-16.91728825299516
 31
0.0
  0
LINE
  5
108
  8
PREDEFINITO
 10
810.7092209182526
 20
-16.91728825299516
 30
0.0
 11
809.6834905381925
 21
-13.48258307425248
 31
0.0
  0
LINE
  5
109
  8
PREDEFINITO
 10
809.6834905381925
 20
-13.48258307425248
 30
0.0
 11
810.2853948480324
 21
-13.12731542254414
 31
0.0
  0
LINE
  5
10A
  8
PREDEFINITO
 10
810.2853948480324
 20
-13.12731542254414
 30
0.0
 11
810.641157945433
 21
-12.90404987420744
 31
0.0
  0
LINE
  5
10B
  8
PREDEFINITO
 10
810.641157945433
 20
-12.90404987420744
 30
0.0
 11
810.9922081899847
 21
-12.6736047977405
 31
0.0
  0
LINE
  5
10C
  8
PREDEFINITO
 10
810.9922081899847
 20
-12.6736047977405
 30
0.0
 11
811.3384377391878
 21
-12.43605581494342
 31
0.0
  0
LINE
  5
10D
  8
PREDEFINITO
 10
811.3384377391878
 20
-12.43605581494342
 30
0.0
 11
811.6797387505426
 21
-12.19147854761683
 31
0.0
  0
LINE
  5
10E
  8
PREDEFINITO
 10
811.6797387505426
 20
-12.19147854761683
 30
0.0
 11
812.0160033815498
 21
-11.93994861756062
 31
0.0
  0
LINE
  5
10F
  8
PREDEFINITO
 10
812.0160033815498
 20
-11.93994861756062
 30
0.0
 11
812.347123789709
 21
-11.68154164657528
 31
0.0
  0
LINE
  5
110
  8
PREDEFINITO
 10
812.347123789709
 20
-11.68154164657528
 30
0.0
 11
812.6729921325214
 21
-11.41633325646104
 31
0.0
  0
LINE
  5
111
  8
PREDEFINITO
 10
812.6729921325214
 20
-11.41633325646104
 30
0.0
 11
812.9937226703855
 21
-11.14420665395971
 31
0.0
  0
LINE
  5
112
  8
PREDEFINITO
 10
812.9937226703855
 20
-11.14420665395971
 30
0.0
 11
813.3087149633495
 21
-10.86565765939292
 31
0.0
  0
LINE
  5
113
  8
PREDEFINITO
 10
813.3087149633495
 20
-10.86565765939292
 30
0.0
 11
813.617874618225
 21
-10.58077876656183
 31
0.0
  0
LINE
  5
114
  8
PREDEFINITO
 10
813.617874618225
 20
-10.58077876656183
 30
0.0
 11
813.9211072418236
 21
-10.28966246926802
 31
0.0
  0
LINE
  5
115
  8
PREDEFINITO
 10
813.9211072418236
 20
-10.28966246926802
 30
0.0
 11
814.2183184409575
 21
-9.992401261313141
 31
0.0
  0
LINE
  5
116
  8
PREDEFINITO
 10
814.2183184409575
 20
-9.992401261313141
 30
0.0
 11
814.5094138224383
 21
-9.689087636498584
 31
0.0
  0
LINE
  5
117
  8
PREDEFINITO
 10
814.5094138224383
 20
-9.689087636498584
 30
0.0
 11
814.7942989930782
 21
-9.379814088625835
 31
0.0
  0
LINE
  5
118
  8
PREDEFINITO
 10
814.7942989930782
 20
-9.379814088625835
 30
0.0
 11
815.0728795596885
 21
-9.064673111496518
 31
0.0
  0
LINE
  5
119
  8
PREDEFINITO
 10
815.0728795596885
 20
-9.064673111496518
 30
0.0
 11
815.3413078126127
 21
-8.748292223036621
 31
0.0
  0
LINE
  5
11A
  8
PREDEFINITO
 10
815.3413078126127
 20
-8.748292223036621
 30
0.0
 11
815.6030248747686
 21
-8.426881994816085
 31
0.0
  0
LINE
  5
11B
  8
PREDEFINITO
 10
855.568258211385
 20
-71.55390566935847
 30
0.0
 11
845.568151944376
 21
-71.55390566935847
 31
0.0
  0
LINE
  5
11C
  8
PREDEFINITO
 10
845.568151944376
 20
-71.55390566935847
 30
0.0
 11
845.568151944376
 21
-93.95512285291376
 31
0.0
  0
LINE
  5
11D
  8
PREDEFINITO
 10
845.568151944376
 20
-93.95512285291376
 30
0.0
 11
855.568258211385
 21
-93.95512285291376
 31
0.0
  0
LINE
  5
11E
  8
PREDEFINITO
 10
855.568258211385
 20
-93.95512285291376
 30
0.0
 11
855.568258211385
 21
-98.15512285291375
 31
0.0
  0
LINE
  5
11F
  8
PREDEFINITO
 10
855.568258211385
 20
-98.15512285291375
 30
0.0
 11
845.568151944376
 21
-98.15512285291375
 31
0.0
  0
LINE
  5
120
  8
PREDEFINITO
 10
845.568151944376
 20
-98.15512285291375
 30
0.0
 11
845.568151944376
 21
-122.4105008693585
 31
0.0
  0
LINE
  5
121
  8
PREDEFINITO
 10
845.568151944376
 20
-122.4105008693585
 30
0.0
 11
845.568151944376
 21
-134.2168697773835
 31
0.0
  0
LINE
  5
122
  8
PREDEFINITO
 10
796.6961274808932
 20
-134.0881474168256
 30
0.0
 11
796.6961274808932
 21
-138.0893503989396
 31
0.0
  0
LINE
  5
123
  8
PREDEFINITO
 10
796.6961274808932
 20
-138.0893503989396
 30
0.0
 11
807.0465589390924
 21
-138.0881474168256
 31
0.0
  0
LINE
  5
124
  8
PREDEFINITO
 10
807.0465589390924
 20
-138.0881474168256
 30
0.0
 11
819.481368280145
 21
-138.0881474168256
 31
0.0
  0
LINE
  5
125
  8
PREDEFINITO
 10
819.481368280145
 20
-138.0881474168256
 30
0.0
 11
819.3840334703539
 21
-137.7108919432019
 31
0.0
  0
LINE
  5
126
  8
PREDEFINITO
 10
819.3840334703539
 20
-137.7108919432019
 30
0.0
 11
819.2796612199741
 21
-137.3358870217374
 31
0.0
  0
LINE
  5
127
  8
PREDEFINITO
 10
819.2796612199741
 20
-137.3358870217374
 30
0.0
 11
819.168191407111
 21
-136.9629313660301
 31
0.0
  0
LINE
  5
128
  8
PREDEFINITO
 10
819.168191407111
 20
-136.9629313660301
 30
0.0
 11
819.0495639098706
 21
-136.5918236896792
 31
0.0
  0
LINE
  5
129
  8
PREDEFINITO
 10
819.0495639098706
 20
-136.5918236896792
 30
0.0
 11
818.924125924681
 21
-136.2235694027661
 31
0.0
  0
LINE
  5
12A
  8
PREDEFINITO
 10
818.924125924681
 20
-136.2235694027661
 30
0.0
 11
818.7918551049743
 21
-135.8580840545546
 31
0.0
  0
LINE
  5
12B
  8
PREDEFINITO
 10
818.7918551049743
 20
-135.8580840545546
 30
0.0
 11
818.6526786162688
 21
-135.4951721995764
 31
0.0
  0
LINE
  5
12C
  8
PREDEFINITO
 10
818.6526786162688
 20
-135.4951721995764
 30
0.0
 11
818.5065236240825
 21
-135.1346383923635
 31
0.0
  0
LINE
  5
12D
  8
PREDEFINITO
 10
818.5065236240825
 20
-135.1346383923635
 30
0.0
 11
818.3472180423475
 21
-134.7624391445346
 31
0.0
  0
LINE
  5
12E
  8
PREDEFINITO
 10
818.3472180423475
 20
-134.7624391445346
 30
0.0
 11
818.1807697341028
 21
-134.3938093159846
 31
0.0
  0
LINE
  5
12F
  8
PREDEFINITO
 10
818.1807697341028
 20
-134.3938093159846
 30
0.0
 11
818.0070798805737
 21
-134.0285356862501
 31
0.0
  0
LINE
  5
130
  8
PREDEFINITO
 10
818.0070798805737
 20
-134.0285356862501
 30
0.0
 11
817.826049662985
 21
-133.6664050348671
 31
0.0
  0
LINE
  5
131
  8
PREDEFINITO
 10
817.826049662985
 20
-133.6664050348671
 30
0.0
 11
817.6382694110794
 21
-133.3085258782835
 31
0.0
  0
LINE
  5
132
  8
PREDEFINITO
 10
817.6382694110794
 20
-133.3085258782835
 30
0.0
 11
817.4436730061136
 21
-132.9547522181049
 31
0.0
  0
LINE
  5
133
  8
PREDEFINITO
 10
817.4436730061136
 20
-132.9547522181049
 30
0.0
 11
817.2421457642654
 21
-132.6048803355006
 31
0.0
  0
LINE
  5
134
  8
PREDEFINITO
 10
817.2421457642654
 20
-132.6048803355006
 30
0.0
 11
817.0335730017123
 21
-132.258706511639
 31
0.0
  0
LINE
  5
135
  8
PREDEFINITO
 10
817.0335730017123
 20
-132.258706511639
 30
0.0
 11
816.8122912906238
 21
-131.907440849579
 31
0.0
  0
LINE
  5
136
  8
PREDEFINITO
 10
816.8122912906238
 20
-131.907440849579
 30
0.0
 11
816.5841888985369
 21
-131.5610719747619
 31
0.0
  0
LINE
  5
137
  8
PREDEFINITO
 10
816.5841888985369
 20
-131.5610719747619
 30
0.0
 11
816.3491243555316
 21
-131.219389725709
 31
0.0
  0
LINE
  5
138
  8
PREDEFINITO
 10
816.3491243555316
 20
-131.219389725709
 30
0.0
 11
816.106956191687
 21
-130.8821839409422
 31
0.0
  0
LINE
  5
139
  8
PREDEFINITO
 10
816.106956191687
 20
-130.8821839409422
 30
0.0
 11
815.8581884373839
 21
-130.5501219013751
 31
0.0
  0
LINE
  5
13A
  8
PREDEFINITO
 10
815.8581884373839
 20
-130.5501219013751
 30
0.0
 11
815.6030248747686
 21
-130.2234846227855
 31
0.0
  0
LINE
  5
13B
  8
PREDEFINITO
 10
815.6030248747686
 20
-130.2234846227855
 30
0.0
 11
815.3413078126127
 21
-129.9020743945649
 31
0.0
  0
LINE
  5
13C
  8
PREDEFINITO
 10
815.3413078126127
 20
-129.9020743945649
 30
0.0
 11
815.0728795596885
 21
-129.5856935061051
 31
0.0
  0
LINE
  5
13D
  8
PREDEFINITO
 10
815.0728795596885
 20
-129.5856935061051
 30
0.0
 11
814.7942989930782
 21
-129.2705525289757
 31
0.0
  0
LINE
  5
13E
  8
PREDEFINITO
 10
814.7942989930782
 20
-129.2705525289757
 30
0.0
 11
814.5094138224383
 21
-128.961278981103
 31
0.0
  0
LINE
  5
13F
  8
PREDEFINITO
 10
814.5094138224383
 20
-128.961278981103
 30
0.0
 11
814.2183184409575
 21
-128.6579653562885
 31
0.0
  0
LINE
  5
140
  8
PREDEFINITO
 10
814.2183184409575
 20
-128.6579653562885
 30
0.0
 11
813.9211072418236
 21
-128.3607041483337
 31
0.0
  0
LINE
  5
141
  8
PREDEFINITO
 10
813.9211072418236
 20
-128.3607041483337
 30
0.0
 11
813.617874618225
 21
-128.0695878510398
 31
0.0
  0
LINE
  5
142
  8
PREDEFINITO
 10
813.617874618225
 20
-128.0695878510398
 30
0.0
 11
813.3087149633495
 21
-127.7847089582088
 31
0.0
  0
LINE
  5
143
  8
PREDEFINITO
 10
813.3087149633495
 20
-127.7847089582088
 30
0.0
 11
812.9937226703855
 21
-127.5061599636419
 31
0.0
  0
LINE
  5
144
  8
PREDEFINITO
 10
812.9937226703855
 20
-127.5061599636419
 30
0.0
 11
812.6729921325214
 21
-127.2340333611405
 31
0.0
  0
LINE
  5
145
  8
PREDEFINITO
 10
812.6729921325214
 20
-127.2340333611405
 30
0.0
 11
812.347123789709
 21
-126.9688249710264
 31
0.0
  0
LINE
  5
146
  8
PREDEFINITO
 10
812.347123789709
 20
-126.9688249710264
 30
0.0
 11
812.0160033815498
 21
-126.710418000041
 31
0.0
  0
LINE
  5
147
  8
PREDEFINITO
 10
812.0160033815498
 20
-126.710418000041
 30
0.0
 11
811.6797387505426
 21
-126.4588880699849
 31
0.0
  0
LINE
  5
148
  8
PREDEFINITO
 10
811.6797387505426
 20
-126.4588880699849
 30
0.0
 11
811.3384377391878
 21
-126.2143108026582
 31
0.0
  0
LINE
  5
149
  8
PREDEFINITO
 10
811.3384377391878
 20
-126.2143108026582
 30
0.0
 11
810.9922081899847
 21
-125.9767618198612
 31
0.0
  0
LINE
  5
14A
  8
PREDEFINITO
 10
810.9922081899847
 20
-125.9767618198612
 30
0.0
 11
810.641157945433
 21
-125.7463167433941
 31
0.0
  0
LINE
  5
14B
  8
PREDEFINITO
 10
810.641157945433
 20
-125.7463167433941
 30
0.0
 11
810.2853948480324
 21
-125.5230511950575
 31
0.0
  0
LINE
  5
14C
  8
PREDEFINITO
 10
810.2853948480324
 20
-125.5230511950575
 30
0.0
 11
809.6834905381927
 21
-125.1677835433493
 31
0.0
  0
LINE
  5
14D
  8
PREDEFINITO
 10
859.157419311515
 20
-13.25603778310182
 30
0.0
 11
859.5131824089158
 21
-13.0327722347651
 31
0.0
  0
LINE
  5
14E
  8
PREDEFINITO
 10
859.5131824089158
 20
-13.0327722347651
 30
0.0
 11
859.8642326534675
 21
-12.80232715829816
 31
0.0
  0
LINE
  5
14F
  8
PREDEFINITO
 10
859.8642326534675
 20
-12.80232715829816
 30
0.0
 11
860.2104622026704
 21
-12.5647781755011
 31
0.0
  0
LINE
  5
150
  8
PREDEFINITO
 10
860.2104622026704
 20
-12.5647781755011
 30
0.0
 11
860.5517632140254
 21
-12.32020090817451
 31
0.0
  0
LINE
  5
151
  8
PREDEFINITO
 10
860.5517632140254
 20
-12.32020090817451
 30
0.0
 11
860.8880278450324
 21
-12.06867097811829
 31
0.0
  0
LINE
  5
152
  8
PREDEFINITO
 10
860.8880278450324
 20
-12.06867097811829
 30
0.0
 11
861.2191482531919
 21
-11.81026400713296
 31
0.0
  0
LINE
  5
153
  8
PREDEFINITO
 10
861.2191482531919
 20
-11.81026400713296
 30
0.0
 11
861.545016596004
 21
-11.5450556170187
 31
0.0
  0
LINE
  5
154
  8
PREDEFINITO
 10
861.545016596004
 20
-11.5450556170187
 30
0.0
 11
861.8657471338684
 21
-11.27292901451739
 31
0.0
  0
LINE
  5
155
  8
PREDEFINITO
 10
861.8657471338684
 20
-11.27292901451739
 30
0.0
 11
862.1807394268324
 21
-10.9943800199506
 31
0.0
  0
LINE
  5
156
  8
PREDEFINITO
 10
862.1807394268324
 20
-10.9943800199506
 30
0.0
 11
862.4898990817078
 21
-10.70950112711949
 31
0.0
  0
LINE
  5
157
  8
PREDEFINITO
 10
862.4898990817078
 20
-10.70950112711949
 30
0.0
 11
862.7931317053065
 21
-10.4183848298257
 31
0.0
  0
LINE
  5
158
  8
PREDEFINITO
 10
862.7931317053065
 20
-10.4183848298257
 30
0.0
 11
863.0903429044401
 21
-10.12112362187082
 31
0.0
  0
LINE
  5
159
  8
PREDEFINITO
 10
863.0903429044401
 20
-10.12112362187082
 30
0.0
 11
863.3814382859211
 21
-9.817809997056251
 31
0.0
  0
LINE
  5
15A
  8
PREDEFINITO
 10
863.3814382859211
 20
-9.817809997056251
 30
0.0
 11
863.666323456561
 21
-9.508536449183516
 31
0.0
  0
LINE
  5
15B
  8
PREDEFINITO
 10
863.666323456561
 20
-9.508536449183516
 30
0.0
 11
863.9449040231714
 21
-9.193395472054192
 31
0.0
  0
LINE
  5
15C
  8
PREDEFINITO
 10
863.9449040231714
 20
-9.193395472054192
 30
0.0
 11
864.2133322760956
 21
-8.877014583594303
 31
0.0
  0
LINE
  5
15D
  8
PREDEFINITO
 10
864.2133322760956
 20
-8.877014583594303
 30
0.0
 11
864.4750493382512
 21
-8.555604355373763
 31
0.0
  0
LINE
  5
15E
  8
PREDEFINITO
 10
864.4750493382512
 20
-8.555604355373763
 30
0.0
 11
864.7302129008667
 21
-8.228967076784276
 31
0.0
  0
LINE
  5
15F
  8
PREDEFINITO
 10
864.7302129008667
 20
-8.228967076784276
 30
0.0
 11
864.9789806551698
 21
-7.896905037217095
 31
0.0
  0
LINE
  5
160
  8
PREDEFINITO
 10
864.9789806551698
 20
-7.896905037217095
 30
0.0
 11
865.2211488190144
 21
-7.559699252450233
 31
0.0
  0
LINE
  5
161
  8
PREDEFINITO
 10
865.2211488190144
 20
-7.559699252450233
 30
0.0
 11
865.4562133620198
 21
-7.218017003397396
 31
0.0
  0
LINE
  5
162
  8
PREDEFINITO
 10
865.4562133620198
 20
-7.218017003397396
 30
0.0
 11
865.6843157541066
 21
-6.871648128580375
 31
0.0
  0
LINE
  5
163
  8
PREDEFINITO
 10
865.6843157541066
 20
-6.871648128580375
 30
0.0
 11
865.9055974651951
 21
-6.520382466520175
 31
0.0
  0
LINE
  5
164
  8
PREDEFINITO
 10
865.9055974651951
 20
-6.520382466520175
 30
0.0
 11
866.1141702277482
 21
-6.174208642658694
 31
0.0
  0
LINE
  5
165
  8
PREDEFINITO
 10
866.1141702277482
 20
-6.174208642658694
 30
0.0
 11
866.3156974695964
 21
-5.824336760054223
 31
0.0
  0
LINE
  5
166
  8
PREDEFINITO
 10
866.3156974695964
 20
-5.824336760054223
 30
0.0
 11
866.5102938745622
 21
-5.470563099875733
 31
0.0
  0
LINE
  5
167
  8
PREDEFINITO
 10
866.5102938745622
 20
-5.470563099875733
 30
0.0
 11
866.6980741264679
 21
-5.112683943292215
 31
0.0
  0
LINE
  5
168
  8
PREDEFINITO
 10
866.6980741264679
 20
-5.112683943292215
 30
0.0
 11
866.8791043440565
 21
-4.750553291909174
 31
0.0
  0
LINE
  5
169
  8
PREDEFINITO
 10
866.8791043440565
 20
-4.750553291909174
 30
0.0
 11
867.0527941975856
 21
-4.385279662174586
 31
0.0
  0
LINE
  5
16A
  8
PREDEFINITO
 10
867.0527941975856
 20
-4.385279662174586
 30
0.0
 11
867.2192425058302
 21
-4.016649833624623
 31
0.0
  0
LINE
  5
16B
  8
PREDEFINITO
 10
867.2192425058302
 20
-4.016649833624623
 30
0.0
 11
867.3785480875654
 21
-3.644450585795596
 31
0.0
  0
LINE
  5
16C
  8
PREDEFINITO
 10
867.3785480875654
 20
-3.644450585795596
 30
0.0
 11
867.5247030797514
 21
-3.283916778582753
 31
0.0
  0
LINE
  5
16D
  8
PREDEFINITO
 10
867.5247030797514
 20
-3.283916778582753
 30
0.0
 11
867.6638795684571
 21
-2.921004923604695
 31
0.0
  0
LINE
  5
16E
  8
PREDEFINITO
 10
867.6638795684571
 20
-2.921004923604695
 30
0.0
 11
867.7961503881638
 21
-2.555519575393134
 31
0.0
  0
LINE
  5
16F
  8
PREDEFINITO
 10
867.7961503881638
 20
-2.555519575393134
 30
0.0
 11
867.9215883733532
 21
-2.187265288480095
 31
0.0
  0
LINE
  5
170
  8
PREDEFINITO
 10
867.9215883733532
 20
-2.187265288480095
 30
0.0
 11
868.0402158705938
 21
-1.816157612129075
 31
0.0
  0
LINE
  5
171
  8
PREDEFINITO
 10
868.0402158705938
 20
-1.816157612129075
 30
0.0
 11
868.1516856834567
 21
-1.443201956422005
 31
0.0
  0
LINE
  5
172
  8
PREDEFINITO
 10
868.1516856834567
 20
-1.443201956422005
 30
0.0
 11
868.2560579338367
 21
-1.068197034957226
 31
0.0
  0
LINE
  5
173
  8
PREDEFINITO
 10
868.2560579338367
 20
-1.068197034957226
 30
0.0
 11
868.3533927436279
 21
-0.6909415613336556
 31
0.0
  0
LINE
  5
174
  8
PREDEFINITO
 10
868.3533927436279
 20
-0.6909415613336556
 30
0.0
 11
855.9185834025752
 21
-0.6909415613335455
 31
0.0
  0
LINE
  5
175
  8
PREDEFINITO
 10
855.9185834025752
 20
-0.6909415613335455
 30
0.0
 11
855.9185834025752
 21
-4.690941561333545
 31
0.0
  0
LINE
  5
176
  8
PREDEFINITO
 10
855.9185834025752
 20
-4.690941561333545
 30
0.0
 11
845.568151944376
 21
-4.690941561333545
 31
0.0
  0
LINE
  5
177
  8
PREDEFINITO
 10
845.568151944376
 20
-4.690941561333545
 30
0.0
 11
845.568151944376
 21
-16.49731046935842
 31
0.0
  0
LINE
  5
178
  8
PREDEFINITO
 10
845.568151944376
 20
-16.49731046935842
 30
0.0
 11
845.568151944376
 21
-40.75268848580316
 31
0.0
  0
LINE
  5
179
  8
PREDEFINITO
 10
845.568151944376
 20
-40.75268848580316
 30
0.0
 11
855.568258211385
 21
-40.75268848580316
 31
0.0
  0
LINE
  5
17A
  8
PREDEFINITO
 10
855.568258211385
 20
-40.75268848580316
 30
0.0
 11
855.568258211385
 21
-44.95268848580309
 31
0.0
  0
LINE
  5
17B
  8
PREDEFINITO
 10
855.568258211385
 20
-44.95268848580309
 30
0.0
 11
845.568151944376
 21
-44.95268848580309
 31
0.0
  0
LINE
  5
17C
  8
PREDEFINITO
 10
845.568151944376
 20
-44.95268848580309
 30
0.0
 11
845.568151944376
 21
-67.35390566935843
 31
0.0
  0
LINE
  5
17D
  8
PREDEFINITO
 10
845.568151944376
 20
-67.35390566935843
 30
0.0
 11
855.568258211385
 21
-67.35390566935854
 31
0.0
  0
LINE
  5
17E
  8
PREDEFINITO
 10
855.568258211385
 20
-67.35390566935854
 30
0.0
 11
855.568258211385
 21
-71.55390566935847
 31
0.0
  0
LINE
  5
17F
  8
PREDEFINITO
 10
864.2133322760956
 20
-130.0307967551226
 30
0.0
 11
863.9449040231714
 21
-129.7144158666626
 31
0.0
  0
LINE
  5
180
  8
PREDEFINITO
 10
863.9449040231714
 20
-129.7144158666626
 30
0.0
 11
863.666323456561
 21
-129.3992748895334
 31
0.0
  0
LINE
  5
181
  8
PREDEFINITO
 10
863.666323456561
 20
-129.3992748895334
 30
0.0
 11
863.3814382859211
 21
-129.0900013416606
 31
0.0
  0
LINE
  5
182
  8
PREDEFINITO
 10
863.3814382859211
 20
-129.0900013416606
 30
0.0
 11
863.0903429044401
 21
-128.7866877168462
 31
0.0
  0
LINE
  5
183
  8
PREDEFINITO
 10
863.0903429044401
 20
-128.7866877168462
 30
0.0
 11
862.7931317053065
 21
-128.4894265088913
 31
0.0
  0
LINE
  5
184
  8
PREDEFINITO
 10
862.7931317053065
 20
-128.4894265088913
 30
0.0
 11
862.4898990817078
 21
-128.1983102115975
 31
0.0
  0
LINE
  5
185
  8
PREDEFINITO
 10
862.4898990817078
 20
-128.1983102115975
 30
0.0
 11
862.1807394268324
 21
-127.9134313187664
 31
0.0
  0
LINE
  5
186
  8
PREDEFINITO
 10
862.1807394268324
 20
-127.9134313187664
 30
0.0
 11
861.8657471338684
 21
-127.6348823241995
 31
0.0
  0
LINE
  5
187
  8
PREDEFINITO
 10
861.8657471338684
 20
-127.6348823241995
 30
0.0
 11
861.545016596004
 21
-127.3627557216982
 31
0.0
  0
LINE
  5
188
  8
PREDEFINITO
 10
861.545016596004
 20
-127.3627557216982
 30
0.0
 11
861.2191482531919
 21
-127.0975473315842
 31
0.0
  0
LINE
  5
189
  8
PREDEFINITO
 10
861.2191482531919
 20
-127.0975473315842
 30
0.0
 11
860.8880278450324
 21
-126.8391403605987
 31
0.0
  0
LINE
  5
18A
  8
PREDEFINITO
 10
860.8880278450324
 20
-126.8391403605987
 30
0.0
 11
860.5517632140254
 21
-126.5876104305426
 31
0.0
  0
LINE
  5
18B
  8
PREDEFINITO
 10
860.5517632140254
 20
-126.5876104305426
 30
0.0
 11
860.2104622026704
 21
-126.3430331632158
 31
0.0
  0
LINE
  5
18C
  8
PREDEFINITO
 10
860.2104622026704
 20
-126.3430331632158
 30
0.0
 11
859.8642326534675
 21
-126.1054841804188
 31
0.0
  0
LINE
  5
18D
  8
PREDEFINITO
 10
859.8642326534675
 20
-126.1054841804188
 30
0.0
 11
859.5131824089158
 21
-125.8750391039518
 31
0.0
  0
LINE
  5
18E
  8
PREDEFINITO
 10
859.5131824089158
 20
-125.8750391039518
 30
0.0
 11
859.157419311515
 21
-125.6517735556152
 31
0.0
  0
LINE
  5
18F
  8
PREDEFINITO
 10
859.157419311515
 20
-125.6517735556152
 30
0.0
 11
858.5555150016755
 21
-125.296505903907
 31
0.0
  0
LINE
  5
190
  8
PREDEFINITO
 10
858.5555150016755
 20
-125.296505903907
 30
0.0
 11
859.5812453817355
 21
-121.8618007251642
 31
0.0
  0
LINE
  5
191
  8
PREDEFINITO
 10
859.5812453817355
 20
-121.8618007251642
 30
0.0
 11
860.5427689076832
 21
-118.4164612428561
 31
0.0
  0
LINE
  5
192
  8
PREDEFINITO
 10
860.5427689076832
 20
-118.4164612428561
 30
0.0
 11
861.4396968167621
 21
-114.9611635246071
 31
0.0
  0
LINE
  5
193
  8
PREDEFINITO
 10
861.4396968167621
 20
-114.9611635246071
 30
0.0
 11
862.2716654154674
 21
-111.4965903274069
 31
0.0
  0
LINE
  5
194
  8
PREDEFINITO
 10
862.2716654154674
 20
-111.4965903274069
 30
0.0
 11
863.0383364450497
 21
-108.0234306603023
 31
0.0
  0
LINE
  5
195
  8
PREDEFINITO
 10
863.0383364450497
 20
-108.0234306603023
 30
0.0
 11
863.7393974227896
 21
-104.5423793383105
 31
0.0
  0
LINE
  5
196
  8
PREDEFINITO
 10
863.7393974227896
 20
-104.5423793383105
 30
0.0
 11
864.3745619584035
 21
-101.0541365281479
 31
0.0
  0
LINE
  5
197
  8
PREDEFINITO
 10
864.3745619584035
 20
-101.0541365281479
 30
0.0
 11
864.9435700449906
 21
-97.55940728637826
 31
0.0
  0
LINE
  5
198
  8
PREDEFINITO
 10
864.9435700449906
 20
-97.55940728637826
 30
0.0
 11
865.4461883239676
 21
-94.05890109061535
 31
0.0
  0
LINE
  5
199
  8
PREDEFINITO
 10
865.4461883239676
 20
-94.05890109061535
 30
0.0
 11
865.8822103234936
 21
-90.55333136442076
 31
0.0
  0
LINE
  5
19A
  8
PREDEFINITO
 10
865.8822103234936
 20
-90.55333136442076
 30
0.0
 11
866.2514566699299
 21
-87.04341499656066
 31
0.0
  0
LINE
  5
19B
  8
PREDEFINITO
 10
866.2514566699299
 20
-87.04341499656066
 30
0.0
 11
866.5537752719308
 21
-83.52987185529466
 31
0.0
  0
LINE
  5
19C
  8
PREDEFINITO
 10
866.5537752719308
 20
-83.52987185529466
 30
0.0
 11
866.789041476816
 21
-80.01342429838286
 31
0.0
  0
LINE
  5
19D
  8
PREDEFINITO
 10
866.789041476816
 20
-80.01342429838286
 30
0.0
 11
866.9571581989233
 21
-76.49479667951033
 31
0.0
  0
LINE
  5
19E
  8
PREDEFINITO
 10
866.9571581989233
 20
-76.49479667951033
 30
0.0
 11
867.0580560196943
 21
-72.97471485183274
 31
0.0
  0
LINE
  5
19F
  8
PREDEFINITO
 10
867.0580560196943
 20
-72.97471485183274
 30
0.0
 11
867.0916932593043
 21
-69.45390566935845
 31
0.0
  0
LINE
  5
1A0
  8
PREDEFINITO
 10
867.0916932593043
 20
-69.45390566935845
 30
0.0
 11
867.058056019694
 21
-65.93309648688427
 31
0.0
  0
LINE
  5
1A1
  8
PREDEFINITO
 10
867.058056019694
 20
-65.93309648688427
 30
0.0
 11
866.957158198923
 21
-62.41301465920668
 31
0.0
  0
LINE
  5
1A2
  8
PREDEFINITO
 10
866.957158198923
 20
-62.41301465920668
 30
0.0
 11
866.789041476816
 21
-58.89438704033415
 31
0.0
  0
LINE
  5
1A3
  8
PREDEFINITO
 10
866.789041476816
 20
-58.89438704033415
 30
0.0
 11
866.5537752719306
 21
-55.37793948342238
 31
0.0
  0
LINE
  5
1A4
  8
PREDEFINITO
 10
866.5537752719306
 20
-55.37793948342238
 30
0.0
 11
866.2514566699297
 21
-51.86439634215634
 31
0.0
  0
LINE
  5
1A5
  8
PREDEFINITO
 10
866.2514566699297
 20
-51.86439634215634
 30
0.0
 11
865.8822103234934
 21
-48.35447997429623
 31
0.0
  0
LINE
  5
1A6
  8
PREDEFINITO
 10
865.8822103234934
 20
-48.35447997429623
 30
0.0
 11
865.4461883239671
 21
-44.84891024810162
 31
0.0
  0
LINE
  5
1A7
  8
PREDEFINITO
 10
865.4461883239671
 20
-44.84891024810162
 30
0.0
 11
864.9435700449903
 21
-41.34840405233871
 31
0.0
  0
LINE
  5
1A8
  8
PREDEFINITO
 10
864.9435700449903
 20
-41.34840405233871
 30
0.0
 11
864.3745619584035
 21
-37.8536748105692
 31
0.0
  0
LINE
  5
1A9
  8
PREDEFINITO
 10
864.3745619584035
 20
-37.8536748105692
 30
0.0
 11
863.7393974227896
 21
-34.36543200040654
 31
0.0
  0
LINE
  5
1AA
  8
PREDEFINITO
 10
863.7393974227896
 20
-34.36543200040654
 30
0.0
 11
863.0383364450497
 21
-30.88438067841486
 31
0.0
  0
LINE
  5
1AB
  8
PREDEFINITO
 10
863.0383364450497
 20
-30.88438067841486
 30
0.0
 11
862.2716654154672
 21
-27.41122101131003
 31
0.0
  0
LINE
  5
1AC
  8
PREDEFINITO
 10
862.2716654154672
 20
-27.41122101131003
 30
0.0
 11
861.4396968167619
 21
-23.94664781410989
 31
0.0
  0
LINE
  5
1AD
  8
PREDEFINITO
 10
861.4396968167619
 20
-23.94664781410989
 30
0.0
 11
860.542768907683
 21
-20.49135009586082
 31
0.0
  0
LINE
  5
1AE
  8
PREDEFINITO
 10
860.542768907683
 20
-20.49135009586082
 30
0.0
 11
859.5812453817352
 21
-17.04601061355282
 31
0.0
  0
LINE
  5
1AF
  8
PREDEFINITO
 10
859.5812453817352
 20
-17.04601061355282
 30
0.0
 11
858.5555150016753
 21
-13.61130543481016
 31
0.0
  0
LINE
  5
1B0
  8
PREDEFINITO
 10
858.5555150016753
 20
-13.61130543481016
 30
0.0
 11
859.157419311515
 21
-13.25603778310182
 31
0.0
  0
LINE
  5
1B1
  8
PREDEFINITO
 10
465.3210243140643
 20
-205.2789884571368
 30
0.0
 11
465.3210243140643
 21
-215.6294199153359
 31
0.0
  0
LINE
  5
1B2
  8
PREDEFINITO
 10
465.3210243140643
 20
-215.6294199153359
 30
0.0
 11
477.1273932220891
 21
-215.6294199153359
 31
0.0
  0
LINE
  5
1B3
  8
PREDEFINITO
 10
477.1273932220891
 20
-215.6294199153359
 30
0.0
 11
501.382771238534
 21
-215.6294199153359
 31
0.0
  0
LINE
  5
1B4
  8
PREDEFINITO
 10
501.382771238534
 20
-215.6294199153359
 30
0.0
 11
501.382771238534
 21
-205.629313648327
 31
0.0
  0
LINE
  5
1B5
  8
PREDEFINITO
 10
501.382771238534
 20
-205.629313648327
 30
0.0
 11
505.5827712385338
 21
-205.629313648327
 31
0.0
  0
LINE
  5
1B6
  8
PREDEFINITO
 10
505.5827712385338
 20
-205.629313648327
 30
0.0
 11
505.5827712385338
 21
-215.6294199153359
 31
0.0
  0
LINE
  5
1B7
  8
PREDEFINITO
 10
505.5827712385338
 20
-215.6294199153359
 30
0.0
 11
527.9839884220892
 21
-215.6294199153359
 31
0.0
  0
LINE
  5
1B8
  8
PREDEFINITO
 10
527.9839884220892
 20
-215.6294199153359
 30
0.0
 11
527.9839884220892
 21
-205.629313648327
 31
0.0
  0
LINE
  5
1B9
  8
PREDEFINITO
 10
527.9839884220892
 20
-205.629313648327
 30
0.0
 11
532.1839884220893
 21
-205.629313648327
 31
0.0
  0
LINE
  5
1BA
  8
PREDEFINITO
 10
532.1839884220893
 20
-205.629313648327
 30
0.0
 11
532.1839884220893
 21
-215.6294199153359
 31
0.0
  0
LINE
  5
1BB
  8
PREDEFINITO
 10
532.1839884220893
 20
-215.6294199153359
 30
0.0
 11
554.5852056056444
 21
-215.6294199153359
 31
0.0
  0
LINE
  5
1BC
  8
PREDEFINITO
 10
554.5852056056444
 20
-215.6294199153359
 30
0.0
 11
554.5852056056444
 21
-205.629313648327
 31
0.0
  0
LINE
  5
1BD
  8
PREDEFINITO
 10
554.5852056056444
 20
-205.629313648327
 30
0.0
 11
558.7852056056445
 21
-205.629313648327
 31
0.0
  0
LINE
  5
1BE
  8
PREDEFINITO
 10
558.7852056056445
 20
-205.629313648327
 30
0.0
 11
558.7852056056445
 21
-215.6294199153359
 31
0.0
  0
LINE
  5
1BF
  8
PREDEFINITO
 10
558.7852056056445
 20
-215.6294199153359
 30
0.0
 11
583.0405836220892
 21
-215.6294199153359
 31
0.0
  0
LINE
  5
1C0
  8
PREDEFINITO
 10
583.0405836220892
 20
-215.6294199153359
 30
0.0
 11
594.8469525301141
 21
-215.6294199153359
 31
0.0
  0
LINE
  5
1C1
  8
PREDEFINITO
 10
245.596152401124
 20
-65.34210661139932
 30
0.0
 11
225.596152401124
 21
-65.34210661139932
 31
0.0
  0
LINE
  5
1C2
  8
PREDEFINITO
 10
225.596152401124
 20
-65.34210661139932
 30
0.0
 11
225.596152401124
 21
-61.0421066113993
 31
0.0
  0
LINE
  5
1C3
  8
PREDEFINITO
 10
225.596152401124
 20
-61.0421066113993
 30
0.0
 11
245.596152401124
 21
-61.0421066113993
 31
0.0
  0
LINE
  5
1C4
  8
PREDEFINITO
 10
245.596152401124
 20
-61.0421066113993
 30
0.0
 11
245.596152401124
 21
-65.34210661139932
 31
0.0
  0
LINE
  5
1C5
  8
PREDEFINITO
 10
172.8044222973353
 20
-65.34210661139932
 30
0.0
 11
192.8044222973353
 21
-65.34210661139932
 31
0.0
  0
LINE
  5
1C6
  8
PREDEFINITO
 10
192.8044222973353
 20
-65.34210661139932
 30
0.0
 11
192.8044222973353
 21
-61.0421066113993
 31
0.0
  0
LINE
  5
1C7
  8
PREDEFINITO
 10
192.8044222973353
 20
-61.0421066113993
 30
0.0
 11
172.8044222973353
 21
-61.0421066113993
 31
0.0
  0
LINE
  5
1C8
  8
PREDEFINITO
 10
172.8044222973353
 20
-61.0421066113993
 30
0.0
 11
172.8044222973353
 21
-65.34210661139932
 31
0.0
  0
LINE
  5
1C9
  8
PREDEFINITO
 10
845.568151944376
 20
-134.2168697773835
 30
0.0
 11
845.568151944376
 21
-138.2180727594973
 31
0.0
  0
LINE
  5
1CA
  8
PREDEFINITO
 10
845.568151944376
 20
-138.2180727594973
 30
0.0
 11
855.9185834025752
 21
-138.2168697773835
 31
0.0
  0
LINE
  5
1CB
  8
PREDEFINITO
 10
855.9185834025752
 20
-138.2168697773835
 30
0.0
 11
868.3533927436279
 21
-138.2168697773835
 31
0.0
  0
LINE
  5
1CC
  8
PREDEFINITO
 10
868.3533927436279
 20
-138.2168697773835
 30
0.0
 11
868.2560579338367
 21
-137.8396143037596
 31
0.0
  0
LINE
  5
1CD
  8
PREDEFINITO
 10
868.2560579338367
 20
-137.8396143037596
 30
0.0
 11
868.1516856834567
 21
-137.4646093822951
 31
0.0
  0
LINE
  5
1CE
  8
PREDEFINITO
 10
868.1516856834567
 20
-137.4646093822951
 30
0.0
 11
868.0402158705938
 21
-137.0916537265878
 31
0.0
  0
LINE
  5
1CF
  8
PREDEFINITO
 10
868.0402158705938
 20
-137.0916537265878
 30
0.0
 11
867.9215883733532
 21
-136.7205460502369
 31
0.0
  0
LINE
  5
1D0
  8
PREDEFINITO
 10
867.9215883733532
 20
-136.7205460502369
 30
0.0
 11
867.7961503881638
 21
-136.3522917633238
 31
0.0
  0
LINE
  5
1D1
  8
PREDEFINITO
 10
867.7961503881638
 20
-136.3522917633238
 30
0.0
 11
867.6638795684571
 21
-135.9868064151121
 31
0.0
  0
LINE
  5
1D2
  8
PREDEFINITO
 10
867.6638795684571
 20
-135.9868064151121
 30
0.0
 11
867.5247030797514
 21
-135.6238945601341
 31
0.0
  0
LINE
  5
1D3
  8
PREDEFINITO
 10
867.5247030797514
 20
-135.6238945601341
 30
0.0
 11
867.3785480875654
 21
-135.2633607529212
 31
0.0
  0
LINE
  5
1D4
  8
PREDEFINITO
 10
867.3785480875654
 20
-135.2633607529212
 30
0.0
 11
867.2192425058302
 21
-134.8911615050922
 31
0.0
  0
LINE
  5
1D5
  8
PREDEFINITO
 10
867.2192425058302
 20
-134.8911615050922
 30
0.0
 11
867.0527941975856
 21
-134.5225316765423
 31
0.0
  0
LINE
  5
1D6
  8
PREDEFINITO
 10
867.0527941975856
 20
-134.5225316765423
 30
0.0
 11
866.8791043440565
 21
-134.1572580468078
 31
0.0
  0
LINE
  5
1D7
  8
PREDEFINITO
 10
866.8791043440565
 20
-134.1572580468078
 30
0.0
 11
866.6980741264679
 21
-133.7951273954247
 31
0.0
  0
LINE
  5
1D8
  8
PREDEFINITO
 10
866.6980741264679
 20
-133.7951273954247
 30
0.0
 11
866.5102938745622
 21
-133.4372482388412
 31
0.0
  0
LINE
  5
1D9
  8
PREDEFINITO
 10
866.5102938745622
 20
-133.4372482388412
 30
0.0
 11
866.3156974695964
 21
-133.0834745786626
 31
0.0
  0
LINE
  5
1DA
  8
PREDEFINITO
 10
866.3156974695964
 20
-133.0834745786626
 30
0.0
 11
866.1141702277482
 21
-132.7336026960581
 31
0.0
  0
LINE
  5
1DB
  8
PREDEFINITO
 10
866.1141702277482
 20
-132.7336026960581
 30
0.0
 11
865.9055974651951
 21
-132.3874288721968
 31
0.0
  0
LINE
  5
1DC
  8
PREDEFINITO
 10
865.9055974651951
 20
-132.3874288721968
 30
0.0
 11
865.6843157541066
 21
-132.0361632101367
 31
0.0
  0
LINE
  5
1DD
  8
PREDEFINITO
 10
865.6843157541066
 20
-132.0361632101367
 30
0.0
 11
865.4562133620198
 21
-131.6897943353194
 31
0.0
  0
LINE
  5
1DE
  8
PREDEFINITO
 10
865.4562133620198
 20
-131.6897943353194
 30
0.0
 11
865.2211488190144
 21
-131.3481120862667
 31
0.0
  0
LINE
  5
1DF
  8
PREDEFINITO
 10
865.2211488190144
 20
-131.3481120862667
 30
0.0
 11
864.9789806551698
 21
-131.0109063014997
 31
0.0
  0
LINE
  5
1E0
  8
PREDEFINITO
 10
864.9789806551698
 20
-131.0109063014997
 30
0.0
 11
864.7302129008667
 21
-130.6788442619327
 31
0.0
  0
LINE
  5
1E1
  8
PREDEFINITO
 10
864.7302129008667
 20
-130.6788442619327
 30
0.0
 11
864.4750493382512
 21
-130.3522069833432
 31
0.0
  0
LINE
  5
1E2
  8
PREDEFINITO
 10
864.4750493382512
 20
-130.3522069833432
 30
0.0
 11
864.2133322760956
 21
-130.0307967551226
 31
0.0
  0
LINE
  5
1E3
  8
PREDEFINITO
 10
501.9784868050695
 20
-196.2540018147216
 30
0.0
 11
498.4837575632999
 21
-196.8230099013084
 31
0.0
  0
LINE
  5
1E4
  8
PREDEFINITO
 10
498.4837575632999
 20
-196.8230099013084
 30
0.0
 11
494.9955147531373
 21
-197.4581744369225
 31
0.0
  0
LINE
  5
1E5
  8
PREDEFINITO
 10
494.9955147531373
 20
-197.4581744369225
 30
0.0
 11
491.5144634311455
 21
-198.1592354146622
 31
0.0
  0
LINE
  5
1E6
  8
PREDEFINITO
 10
491.5144634311455
 20
-198.1592354146622
 30
0.0
 11
488.0413037640408
 21
-198.9259064442448
 31
0.0
  0
LINE
  5
1E7
  8
PREDEFINITO
 10
488.0413037640408
 20
-198.9259064442448
 30
0.0
 11
484.5767305668406
 21
-199.75787504295
 31
0.0
  0
LINE
  5
1E8
  8
PREDEFINITO
 10
484.5767305668406
 20
-199.75787504295
 30
0.0
 11
481.1214328485915
 21
-200.6548029520289
 31
0.0
  0
LINE
  5
1E9
  8
PREDEFINITO
 10
481.1214328485915
 20
-200.6548029520289
 30
0.0
 11
477.6760933662836
 21
-201.6163264779767
 31
0.0
  0
LINE
  5
1EA
  8
PREDEFINITO
 10
477.6760933662836
 20
-201.6163264779767
 30
0.0
 11
474.241388187541
 21
-202.6420568580367
 31
0.0
  0
LINE
  5
1EB
  8
PREDEFINITO
 10
474.241388187541
 20
-202.6420568580367
 30
0.0
 11
473.8861205358326
 21
-202.0401525481969
 31
0.0
  0
LINE
  5
1EC
  8
PREDEFINITO
 10
473.8861205358326
 20
-202.0401525481969
 30
0.0
 11
473.6628549874959
 21
-201.6843894507961
 31
0.0
  0
LINE
  5
1ED
  8
PREDEFINITO
 10
473.6628549874959
 20
-201.6843894507961
 30
0.0
 11
473.4324099110288
 21
-201.3333392062445
 31
0.0
  0
LINE
  5
1EE
  8
PREDEFINITO
 10
473.4324099110288
 20
-201.3333392062445
 30
0.0
 11
473.1948609282318
 21
-200.9871096570415
 31
0.0
  0
LINE
  5
1EF
  8
PREDEFINITO
 10
473.1948609282318
 20
-200.9871096570415
 30
0.0
 11
472.9502836609052
 21
-200.6458086456865
 31
0.0
  0
LINE
  5
1F0
  8
PREDEFINITO
 10
472.9502836609052
 20
-200.6458086456865
 30
0.0
 11
472.698753730849
 21
-200.3095440146795
 31
0.0
  0
LINE
  5
1F1
  8
PREDEFINITO
 10
472.698753730849
 20
-200.3095440146795
 30
0.0
 11
472.4403467598636
 21
-199.9784236065202
 31
0.0
  0
LINE
  5
1F2
  8
PREDEFINITO
 10
472.4403467598636
 20
-199.9784236065202
 30
0.0
 11
472.1751383697495
 21
-199.652555263708
 31
0.0
  0
LINE
  5
1F3
  8
PREDEFINITO
 10
472.1751383697495
 20
-199.652555263708
 30
0.0
 11
471.9030117672481
 21
-199.3318247258437
 31
0.0
  0
LINE
  5
1F4
  8
PREDEFINITO
 10
471.9030117672481
 20
-199.3318247258437
 30
0.0
 11
471.6244627726813
 21
-199.0168324328797
 31
0.0
  0
LINE
  5
1F5
  8
PREDEFINITO
 10
471.6244627726813
 20
-199.0168324328797
 30
0.0
 11
471.3395838798502
 21
-198.7076727780042
 31
0.0
  0
LINE
  5
1F6
  8
PREDEFINITO
 10
471.3395838798502
 20
-198.7076727780042
 30
0.0
 11
471.0484675825565
 21
-198.4044401544056
 31
0.0
  0
LINE
  5
1F7
  8
PREDEFINITO
 10
471.0484675825565
 20
-198.4044401544056
 30
0.0
 11
470.7512063746015
 21
-198.1072289552718
 31
0.0
  0
LINE
  5
1F8
  8
PREDEFINITO
 10
470.7512063746015
 20
-198.1072289552718
 30
0.0
 11
470.4478927497869
 21
-197.8161335737909
 31
0.0
  0
LINE
  5
1F9
  8
PREDEFINITO
 10
470.4478927497869
 20
-197.8161335737909
 30
0.0
 11
470.1386192019143
 21
-197.531248403151
 31
0.0
  0
LINE
  5
1FA
  8
PREDEFINITO
 10
470.1386192019143
 20
-197.531248403151
 30
0.0
 11
469.8234782247849
 21
-197.2526678365407
 31
0.0
  0
LINE
  5
1FB
  8
PREDEFINITO
 10
469.8234782247849
 20
-197.2526678365407
 30
0.0
 11
469.507097336325
 21
-196.9842395836164
 31
0.0
  0
LINE
  5
1FC
  8
PREDEFINITO
 10
469.507097336325
 20
-196.9842395836164
 30
0.0
 11
469.1856871081045
 21
-196.7225225214607
 31
0.0
  0
LINE
  5
1FD
  8
PREDEFINITO
 10
469.1856871081045
 20
-196.7225225214607
 30
0.0
 11
468.8590498295151
 21
-196.4673589588453
 31
0.0
  0
LINE
  5
1FE
  8
PREDEFINITO
 10
468.8590498295151
 20
-196.4673589588453
 30
0.0
 11
468.5269877899478
 21
-196.2185912045422
 31
0.0
  0
LINE
  5
1FF
  8
PREDEFINITO
 10
468.5269877899478
 20
-196.2185912045422
 30
0.0
 11
468.1897820051809
 21
-195.9764230406976
 31
0.0
  0
LINE
  5
200
  8
PREDEFINITO
 10
468.1897820051809
 20
-195.9764230406976
 30
0.0
 11
467.8480997561281
 21
-195.7413584976923
 31
0.0
  0
LINE
  5
201
  8
PREDEFINITO
 10
467.8480997561281
 20
-195.7413584976923
 30
0.0
 11
467.5017308813111
 21
-195.5132561056054
 31
0.0
  0
LINE
  5
202
  8
PREDEFINITO
 10
467.5017308813111
 20
-195.5132561056054
 30
0.0
 11
467.150465219251
 21
-195.2919743945168
 31
0.0
  0
LINE
  5
203
  8
PREDEFINITO
 10
467.150465219251
 20
-195.2919743945168
 30
0.0
 11
466.8042913953894
 21
-195.0834016319638
 31
0.0
  0
LINE
  5
204
  8
PREDEFINITO
 10
466.8042913953894
 20
-195.0834016319638
 30
0.0
 11
466.4544195127849
 21
-194.8818743901155
 31
0.0
  0
LINE
  5
205
  8
PREDEFINITO
 10
466.4544195127849
 20
-194.8818743901155
 30
0.0
 11
466.1006458526065
 21
-194.6872779851498
 31
0.0
  0
LINE
  5
206
  8
PREDEFINITO
 10
466.1006458526065
 20
-194.6872779851498
 30
0.0
 11
465.742766696023
 21
-194.4994977332439
 31
0.0
  0
LINE
  5
207
  8
PREDEFINITO
 10
465.742766696023
 20
-194.4994977332439
 30
0.0
 11
465.38063604464
 21
-194.3184675156554
 31
0.0
  0
LINE
  5
208
  8
PREDEFINITO
 10
465.38063604464
 20
-194.3184675156554
 30
0.0
 11
465.0153624149053
 21
-194.1447776621264
 31
0.0
  0
LINE
  5
209
  8
PREDEFINITO
 10
465.0153624149053
 20
-194.1447776621264
 30
0.0
 11
464.6467325863553
 21
-193.9783293538817
 31
0.0
  0
LINE
  5
20A
  8
PREDEFINITO
 10
464.6467325863553
 20
-193.9783293538817
 30
0.0
 11
464.2745333385263
 21
-193.8190237721465
 31
0.0
  0
LINE
  5
20B
  8
PREDEFINITO
 10
464.2745333385263
 20
-193.8190237721465
 30
0.0
 11
463.9139995313135
 21
-193.6728687799606
 31
0.0
  0
LINE
  5
20C
  8
PREDEFINITO
 10
463.9139995313135
 20
-193.6728687799606
 30
0.0
 11
463.5510876763354
 21
-193.5336922912549
 31
0.0
  0
LINE
  5
20D
  8
PREDEFINITO
 10
463.5510876763354
 20
-193.5336922912549
 30
0.0
 11
463.1856023281239
 21
-193.4014214715482
 31
0.0
  0
LINE
  5
20E
  8
PREDEFINITO
 10
463.1856023281239
 20
-193.4014214715482
 30
0.0
 11
462.8173480412109
 21
-193.2759834863587
 31
0.0
  0
LINE
  5
20F
  8
PREDEFINITO
 10
462.8173480412109
 20
-193.2759834863587
 30
0.0
 11
462.4462403648598
 21
-193.1573559891181
 31
0.0
  0
LINE
  5
210
  8
PREDEFINITO
 10
462.4462403648598
 20
-193.1573559891181
 30
0.0
 11
462.0732847091527
 21
-193.0458861762553
 31
0.0
  0
LINE
  5
211
  8
PREDEFINITO
 10
462.0732847091527
 20
-193.0458861762553
 30
0.0
 11
461.6982797876879
 21
-192.9415139258753
 31
0.0
  0
LINE
  5
212
  8
PREDEFINITO
 10
461.6982797876879
 20
-192.9415139258753
 30
0.0
 11
461.3210243140643
 21
-192.8441791160841
 31
0.0
  0
LINE
  5
213
  8
PREDEFINITO
 10
461.3210243140643
 20
-192.8441791160841
 30
0.0
 11
461.3210243140643
 21
-205.2789884571368
 31
0.0
  0
LINE
  5
214
  8
PREDEFINITO
 10
461.3210243140643
 20
-205.2789884571368
 30
0.0
 11
465.3210243140643
 21
-205.2789884571368
 31
0.0
  0
LINE
  5
215
  8
PREDEFINITO
 10
593.7135573313934
 20
-194.8818743901155
 30
0.0
 11
593.3636854487888
 21
-195.0834016319638
 31
0.0
  0
LINE
  5
216
  8
PREDEFINITO
 10
593.3636854487888
 20
-195.0834016319638
 30
0.0
 11
593.0175116249275
 21
-195.2919743945168
 31
0.0
  0
LINE
  5
217
  8
PREDEFINITO
 10
593.0175116249275
 20
-195.2919743945168
 30
0.0
 11
592.6662459628674
 21
-195.5132561056054
 31
0.0
  0
LINE
  5
218
  8
PREDEFINITO
 10
592.6662459628674
 20
-195.5132561056054
 30
0.0
 11
592.3198770880501
 21
-195.7413584976923
 31
0.0
  0
LINE
  5
219
  8
PREDEFINITO
 10
592.3198770880501
 20
-195.7413584976923
 30
0.0
 11
591.9781948389973
 21
-195.9764230406976
 31
0.0
  0
LINE
  5
21A
  8
PREDEFINITO
 10
591.9781948389973
 20
-195.9764230406976
 30
0.0
 11
591.6409890542304
 21
-196.2185912045422
 31
0.0
  0
LINE
  5
21B
  8
PREDEFINITO
 10
591.6409890542304
 20
-196.2185912045422
 30
0.0
 11
591.3089270146634
 21
-196.4673589588453
 31
0.0
  0
LINE
  5
21C
  8
PREDEFINITO
 10
591.3089270146634
 20
-196.4673589588453
 30
0.0
 11
590.9822897360739
 21
-196.7225225214607
 31
0.0
  0
LINE
  5
21D
  8
PREDEFINITO
 10
590.9822897360739
 20
-196.7225225214607
 30
0.0
 11
590.6608795078533
 21
-196.9842395836164
 31
0.0
  0
LINE
  5
21E
  8
PREDEFINITO
 10
590.6608795078533
 20
-196.9842395836164
 30
0.0
 11
590.3444986193933
 21
-197.2526678365407
 31
0.0
  0
LINE
  5
21F
  8
PREDEFINITO
 10
590.3444986193933
 20
-197.2526678365407
 30
0.0
 11
590.0293576422641
 21
-197.531248403151
 31
0.0
  0
LINE
  5
220
  8
PREDEFINITO
 10
590.0293576422641
 20
-197.531248403151
 30
0.0
 11
589.7200840943913
 21
-197.8161335737909
 31
0.0
  0
LINE
  5
221
  8
PREDEFINITO
 10
589.7200840943913
 20
-197.8161335737909
 30
0.0
 11
589.4167704695769
 21
-198.1072289552718
 31
0.0
  0
LINE
  5
222
  8
PREDEFINITO
 10
589.4167704695769
 20
-198.1072289552718
 30
0.0
 11
589.1195092616219
 21
-198.4044401544056
 31
0.0
  0
LINE
  5
223
  8
PREDEFINITO
 10
589.1195092616219
 20
-198.4044401544056
 30
0.0
 11
588.8283929643283
 21
-198.7076727780042
 31
0.0
  0
LINE
  5
224
  8
PREDEFINITO
 10
588.8283929643283
 20
-198.7076727780042
 30
0.0
 11
588.5435140714972
 21
-199.0168324328797
 31
0.0
  0
LINE
  5
225
  8
PREDEFINITO
 10
588.5435140714972
 20
-199.0168324328797
 30
0.0
 11
588.2649650769301
 21
-199.3318247258437
 31
0.0
  0
LINE
  5
226
  8
PREDEFINITO
 10
588.2649650769301
 20
-199.3318247258437
 30
0.0
 11
587.9928384744289
 21
-199.652555263708
 31
0.0
  0
LINE
  5
227
  8
PREDEFINITO
 10
587.9928384744289
 20
-199.652555263708
 30
0.0
 11
587.7276300843148
 21
-199.9784236065202
 31
0.0
  0
LINE
  5
228
  8
PREDEFINITO
 10
587.7276300843148
 20
-199.9784236065202
 30
0.0
 11
587.4692231133295
 21
-200.3095440146795
 31
0.0
  0
LINE
  5
229
  8
PREDEFINITO
 10
587.4692231133295
 20
-200.3095440146795
 30
0.0
 11
587.2176931832732
 21
-200.6458086456865
 31
0.0
  0
LINE
  5
22A
  8
PREDEFINITO
 10
587.2176931832732
 20
-200.6458086456865
 30
0.0
 11
586.9731159159464
 21
-200.9871096570415
 31
0.0
  0
LINE
  5
22B
  8
PREDEFINITO
 10
586.9731159159464
 20
-200.9871096570415
 30
0.0
 11
586.7355669331496
 21
-201.3333392062445
 31
0.0
  0
LINE
  5
22C
  8
PREDEFINITO
 10
586.7355669331496
 20
-201.3333392062445
 30
0.0
 11
586.5051218566825
 21
-201.6843894507961
 31
0.0
  0
LINE
  5
22D
  8
PREDEFINITO
 10
586.5051218566825
 20
-201.6843894507961
 30
0.0
 11
586.2818563083459
 21
-202.0401525481969
 31
0.0
  0
LINE
  5
22E
  8
PREDEFINITO
 10
586.2818563083459
 20
-202.0401525481969
 30
0.0
 11
585.9265886566378
 21
-202.6420568580365
 31
0.0
  0
LINE
  5
22F
  8
PREDEFINITO
 10
585.9265886566378
 20
-202.6420568580365
 30
0.0
 11
582.4918834778949
 21
-201.6163264779763
 31
0.0
  0
LINE
  5
230
  8
PREDEFINITO
 10
582.4918834778949
 20
-201.6163264779763
 30
0.0
 11
579.0465439955868
 21
-200.6548029520287
 31
0.0
  0
LINE
  5
231
  8
PREDEFINITO
 10
579.0465439955868
 20
-200.6548029520287
 30
0.0
 11
575.5912462773379
 21
-199.7578750429498
 31
0.0
  0
LINE
  5
232
  8
PREDEFINITO
 10
575.5912462773379
 20
-199.7578750429498
 30
0.0
 11
572.1266730801377
 21
-198.9259064442446
 31
0.0
  0
LINE
  5
233
  8
PREDEFINITO
 10
572.1266730801377
 20
-198.9259064442446
 30
0.0
 11
568.6535134130329
 21
-198.1592354146622
 31
0.0
  0
LINE
  5
234
  8
PREDEFINITO
 10
568.6535134130329
 20
-198.1592354146622
 30
0.0
 11
565.1724620910411
 21
-197.4581744369223
 31
0.0
  0
LINE
  5
235
  8
PREDEFINITO
 10
565.1724620910411
 20
-197.4581744369223
 30
0.0
 11
561.6842192808786
 21
-196.8230099013084
 31
0.0
  0
LINE
  5
236
  8
PREDEFINITO
 10
561.6842192808786
 20
-196.8230099013084
 30
0.0
 11
558.1894900391089
 21
-196.2540018147214
 31
0.0
  0
LINE
  5
237
  8
PREDEFINITO
 10
558.1894900391089
 20
-196.2540018147214
 30
0.0
 11
554.6889838433461
 21
-195.7513835357444
 31
0.0
  0
LINE
  5
238
  8
PREDEFINITO
 10
554.6889838433461
 20
-195.7513835357444
 30
0.0
 11
551.1834141171515
 21
-195.3153615362183
 31
0.0
  0
LINE
  5
239
  8
PREDEFINITO
 10
551.1834141171515
 20
-195.3153615362183
 30
0.0
 11
547.6734977492913
 21
-194.9461151897821
 31
0.0
  0
LINE
  5
23A
  8
PREDEFINITO
 10
547.6734977492913
 20
-194.9461151897821
 30
0.0
 11
544.1599546080254
 21
-194.6437965877812
 31
0.0
  0
LINE
  5
23B
  8
PREDEFINITO
 10
544.1599546080254
 20
-194.6437965877812
 30
0.0
 11
540.6435070511136
 21
-194.4085303828959
 31
0.0
  0
LINE
  5
23C
  8
PREDEFINITO
 10
540.6435070511136
 20
-194.4085303828959
 30
0.0
 11
537.124879432241
 21
-194.2404136607888
 31
0.0
  0
LINE
  5
23D
  8
PREDEFINITO
 10
537.124879432241
 20
-194.2404136607888
 30
0.0
 11
533.6047976045634
 21
-194.1395158400176
 31
0.0
  0
LINE
  5
23E
  8
PREDEFINITO
 10
533.6047976045634
 20
-194.1395158400176
 30
0.0
 11
530.0839884220891
 21
-194.1058786004076
 31
0.0
  0
LINE
  5
23F
  8
PREDEFINITO
 10
530.0839884220891
 20
-194.1058786004076
 30
0.0
 11
526.5631792396151
 21
-194.1395158400179
 31
0.0
  0
LINE
  5
240
  8
PREDEFINITO
 10
526.5631792396151
 20
-194.1395158400179
 30
0.0
 11
523.0430974119375
 21
-194.240413660789
 31
0.0
  0
LINE
  5
241
  8
PREDEFINITO
 10
523.0430974119375
 20
-194.240413660789
 30
0.0
 11
519.5244697930648
 21
-194.4085303828959
 31
0.0
  0
LINE
  5
242
  8
PREDEFINITO
 10
519.5244697930648
 20
-194.4085303828959
 30
0.0
 11
516.0080222361531
 21
-194.6437965877814
 31
0.0
  0
LINE
  5
243
  8
PREDEFINITO
 10
516.0080222361531
 20
-194.6437965877814
 30
0.0
 11
512.4944790948871
 21
-194.9461151897823
 31
0.0
  0
LINE
  5
244
  8
PREDEFINITO
 10
512.4944790948871
 20
-194.9461151897823
 30
0.0
 11
508.984562727027
 21
-195.3153615362185
 31
0.0
  0
LINE
  5
245
  8
PREDEFINITO
 10
508.984562727027
 20
-195.3153615362185
 30
0.0
 11
505.4789930008324
 21
-195.7513835357448
 31
0.0
  0
LINE
  5
246
  8
PREDEFINITO
 10
505.4789930008324
 20
-195.7513835357448
 30
0.0
 11
501.9784868050695
 21
-196.2540018147216
 31
0.0
  0
LINE
  5
247
  8
PREDEFINITO
 10
465.7356705147223
 20
-239.9654786199808
 30
0.0
 11
465.3857986321178
 21
-239.7639513781327
 31
0.0
  0
LINE
  5
248
  8
PREDEFINITO
 10
465.3857986321178
 20
-239.7639513781327
 30
0.0
 11
465.0320249719394
 21
-239.569354973167
 31
0.0
  0
LINE
  5
249
  8
PREDEFINITO
 10
465.0320249719394
 20
-239.569354973167
 30
0.0
 11
464.6741458153559
 21
-239.3815747212611
 31
0.0
  0
LINE
  5
24A
  8
PREDEFINITO
 10
464.6741458153559
 20
-239.3815747212611
 30
0.0
 11
464.3120151639729
 21
-239.2005445036726
 31
0.0
  0
LINE
  5
24B
  8
PREDEFINITO
 10
464.3120151639729
 20
-239.2005445036726
 30
0.0
 11
463.9467415342382
 21
-239.0268546501434
 31
0.0
  0
LINE
  5
24C
  8
PREDEFINITO
 10
463.9467415342382
 20
-239.0268546501434
 30
0.0
 11
463.5781117056882
 21
-238.8604063418989
 31
0.0
  0
LINE
  5
24D
  8
PREDEFINITO
 10
463.5781117056882
 20
-238.8604063418989
 30
0.0
 11
463.2059124578592
 21
-238.7011007601636
 31
0.0
  0
LINE
  5
24E
  8
PREDEFINITO
 10
463.2059124578592
 20
-238.7011007601636
 30
0.0
 11
462.8453786506465
 21
-238.5549457679776
 31
0.0
  0
LINE
  5
24F
  8
PREDEFINITO
 10
462.8453786506465
 20
-238.5549457679776
 30
0.0
 11
462.4824667956683
 21
-238.4157692792721
 31
0.0
  0
LINE
  5
250
  8
PREDEFINITO
 10
462.4824667956683
 20
-238.4157692792721
 30
0.0
 11
462.1169814474568
 21
-238.2834984595652
 31
0.0
  0
LINE
  5
251
  8
PREDEFINITO
 10
462.1169814474568
 20
-238.2834984595652
 30
0.0
 11
461.7487271605438
 21
-238.1580604743759
 31
0.0
  0
LINE
  5
252
  8
PREDEFINITO
 10
461.7487271605438
 20
-238.1580604743759
 30
0.0
 11
461.3776194841927
 21
-238.0394329771353
 31
0.0
  0
LINE
  5
253
  8
PREDEFINITO
 10
461.3776194841927
 20
-238.0394329771353
 30
0.0
 11
461.0046638284856
 21
-237.9279631642723
 31
0.0
  0
LINE
  5
254
  8
PREDEFINITO
 10
461.0046638284856
 20
-237.9279631642723
 30
0.0
 11
460.6296589070208
 21
-237.8235909138925
 31
0.0
  0
LINE
  5
255
  8
PREDEFINITO
 10
460.6296589070208
 20
-237.8235909138925
 30
0.0
 11
460.2524034333973
 21
-237.7262561041013
 31
0.0
  0
LINE
  5
256
  8
PREDEFINITO
 10
460.2524034333973
 20
-237.7262561041013
 30
0.0
 11
460.2524034333973
 21
-250.1610654451538
 31
0.0
  0
LINE
  5
257
  8
PREDEFINITO
 10
460.2524034333973
 20
-250.1610654451538
 30
0.0
 11
464.2524034333973
 21
-250.1610654451538
 31
0.0
  0
LINE
  5
258
  8
PREDEFINITO
 10
464.2524034333973
 20
-250.1610654451538
 30
0.0
 11
464.2524034333973
 21
-260.5114969033531
 31
0.0
  0
LINE
  5
259
  8
PREDEFINITO
 10
464.2524034333973
 20
-260.5114969033531
 30
0.0
 11
476.058772341422
 21
-260.5114969033531
 31
0.0
  0
LINE
  5
25A
  8
PREDEFINITO
 10
476.058772341422
 20
-260.5114969033531
 30
0.0
 11
500.3141503578669
 21
-260.5114969033531
 31
0.0
  0
LINE
  5
25B
  8
PREDEFINITO
 10
500.3141503578669
 20
-260.5114969033531
 30
0.0
 11
500.3141503578669
 21
-250.5113906363442
 31
0.0
  0
LINE
  5
25C
  8
PREDEFINITO
 10
500.3141503578669
 20
-250.5113906363442
 30
0.0
 11
504.5141503578667
 21
-250.5113906363442
 31
0.0
  0
LINE
  5
25D
  8
PREDEFINITO
 10
504.5141503578667
 20
-250.5113906363442
 30
0.0
 11
504.5141503578667
 21
-260.5114969033531
 31
0.0
  0
LINE
  5
25E
  8
PREDEFINITO
 10
504.5141503578667
 20
-260.5114969033531
 30
0.0
 11
526.915367541422
 21
-260.5114969033531
 31
0.0
  0
LINE
  5
25F
  8
PREDEFINITO
 10
526.915367541422
 20
-260.5114969033531
 30
0.0
 11
526.915367541422
 21
-250.5113906363442
 31
0.0
  0
LINE
  5
260
  8
PREDEFINITO
 10
526.915367541422
 20
-250.5113906363442
 30
0.0
 11
531.1153675414222
 21
-250.5113906363442
 31
0.0
  0
LINE
  5
261
  8
PREDEFINITO
 10
531.1153675414222
 20
-250.5113906363442
 30
0.0
 11
531.1153675414222
 21
-260.5114969033531
 31
0.0
  0
LINE
  5
262
  8
PREDEFINITO
 10
531.1153675414222
 20
-260.5114969033531
 30
0.0
 11
553.5165847249774
 21
-260.5114969033531
 31
0.0
  0
LINE
  5
263
  8
PREDEFINITO
 10
553.5165847249774
 20
-260.5114969033531
 30
0.0
 11
553.5165847249774
 21
-250.5113906363442
 31
0.0
  0
LINE
  5
264
  8
PREDEFINITO
 10
553.5165847249774
 20
-250.5113906363442
 30
0.0
 11
557.7165847249773
 21
-250.5113906363442
 31
0.0
  0
LINE
  5
265
  8
PREDEFINITO
 10
557.7165847249773
 20
-250.5113906363442
 30
0.0
 11
557.7165847249773
 21
-260.5114969033531
 31
0.0
  0
LINE
  5
266
  8
PREDEFINITO
 10
557.7165847249773
 20
-260.5114969033531
 30
0.0
 11
581.9719627414221
 21
-260.5114969033531
 31
0.0
  0
LINE
  5
267
  8
PREDEFINITO
 10
581.9719627414221
 20
-260.5114969033531
 30
0.0
 11
593.778331649447
 21
-260.5114969033531
 31
0.0
  0
LINE
  5
268
  8
PREDEFINITO
 10
594.8469525301141
 20
-215.6294199153359
 30
0.0
 11
598.8481555122281
 21
-215.6294199153359
 31
0.0
  0
LINE
  5
269
  8
PREDEFINITO
 10
598.8481555122281
 20
-215.6294199153359
 30
0.0
 11
598.8469525301141
 21
-205.2789884571368
 31
0.0
  0
LINE
  5
26A
  8
PREDEFINITO
 10
598.8469525301141
 20
-205.2789884571368
 30
0.0
 11
598.8469525301141
 21
-192.8441791160841
 31
0.0
  0
LINE
  5
26B
  8
PREDEFINITO
 10
598.8469525301141
 20
-192.8441791160841
 30
0.0
 11
598.4696970564904
 21
-192.9415139258753
 31
0.0
  0
LINE
  5
26C
  8
PREDEFINITO
 10
598.4696970564904
 20
-192.9415139258753
 30
0.0
 11
598.0946921350258
 21
-193.0458861762553
 31
0.0
  0
LINE
  5
26D
  8
PREDEFINITO
 10
598.0946921350258
 20
-193.0458861762553
 30
0.0
 11
597.7217364793185
 21
-193.1573559891181
 31
0.0
  0
LINE
  5
26E
  8
PREDEFINITO
 10
597.7217364793185
 20
-193.1573559891181
 30
0.0
 11
597.3506288029675
 21
-193.2759834863587
 31
0.0
  0
LINE
  5
26F
  8
PREDEFINITO
 10
597.3506288029675
 20
-193.2759834863587
 30
0.0
 11
596.9823745160546
 21
-193.4014214715482
 31
0.0
  0
LINE
  5
270
  8
PREDEFINITO
 10
596.9823745160546
 20
-193.4014214715482
 30
0.0
 11
596.6168891678428
 21
-193.5336922912549
 31
0.0
  0
LINE
  5
271
  8
PREDEFINITO
 10
596.6168891678428
 20
-193.5336922912549
 30
0.0
 11
596.2539773128649
 21
-193.6728687799606
 31
0.0
  0
LINE
  5
272
  8
PREDEFINITO
 10
596.2539773128649
 20
-193.6728687799606
 30
0.0
 11
595.8934435056519
 21
-193.8190237721467
 31
0.0
  0
LINE
  5
273
  8
PREDEFINITO
 10
595.8934435056519
 20
-193.8190237721467
 30
0.0
 11
595.5212442578229
 21
-193.9783293538817
 31
0.0
  0
LINE
  5
274
  8
PREDEFINITO
 10
595.5212442578229
 20
-193.9783293538817
 30
0.0
 11
595.152614429273
 21
-194.1447776621264
 31
0.0
  0
LINE
  5
275
  8
PREDEFINITO
 10
595.152614429273
 20
-194.1447776621264
 30
0.0
 11
594.7873407995385
 21
-194.3184675156554
 31
0.0
  0
LINE
  5
276
  8
PREDEFINITO
 10
594.7873407995385
 20
-194.3184675156554
 30
0.0
 11
594.4252101481554
 21
-194.4994977332441
 31
0.0
  0
LINE
  5
277
  8
PREDEFINITO
 10
594.4252101481554
 20
-194.4994977332441
 30
0.0
 11
594.067330991572
 21
-194.6872779851498
 31
0.0
  0
LINE
  5
278
  8
PREDEFINITO
 10
594.067330991572
 20
-194.6872779851498
 30
0.0
 11
593.7135573313934
 21
-194.8818743901155
 31
0.0
  0
LINE
  5
279
  8
PREDEFINITO
 10
560.6155984002115
 20
-241.7050868893255
 30
0.0
 11
557.1208691584419
 21
-241.1360788027384
 31
0.0
  0
LINE
  5
27A
  8
PREDEFINITO
 10
557.1208691584419
 20
-241.1360788027384
 30
0.0
 11
553.620362962679
 21
-240.6334605237615
 31
0.0
  0
LINE
  5
27B
  8
PREDEFINITO
 10
553.620362962679
 20
-240.6334605237615
 30
0.0
 11
550.1147932364844
 21
-240.1974385242356
 31
0.0
  0
LINE
  5
27C
  8
PREDEFINITO
 10
550.1147932364844
 20
-240.1974385242356
 30
0.0
 11
546.6048768686244
 21
-239.8281921777993
 31
0.0
  0
LINE
  5
27D
  8
PREDEFINITO
 10
546.6048768686244
 20
-239.8281921777993
 30
0.0
 11
543.0913337273582
 21
-239.5258735757982
 31
0.0
  0
LINE
  5
27E
  8
PREDEFINITO
 10
543.0913337273582
 20
-239.5258735757982
 30
0.0
 11
539.5748861704467
 21
-239.2906073709129
 31
0.0
  0
LINE
  5
27F
  8
PREDEFINITO
 10
539.5748861704467
 20
-239.2906073709129
 30
0.0
 11
536.0562585515739
 21
-239.1224906488059
 31
0.0
  0
LINE
  5
280
  8
PREDEFINITO
 10
536.0562585515739
 20
-239.1224906488059
 30
0.0
 11
532.5361767238962
 21
-239.0215928280347
 31
0.0
  0
LINE
  5
281
  8
PREDEFINITO
 10
532.5361767238962
 20
-239.0215928280347
 30
0.0
 11
529.0153675414219
 21
-238.9879555884248
 31
0.0
  0
LINE
  5
282
  8
PREDEFINITO
 10
529.0153675414219
 20
-238.9879555884248
 30
0.0
 11
525.494558358948
 21
-239.021592828035
 31
0.0
  0
LINE
  5
283
  8
PREDEFINITO
 10
525.494558358948
 20
-239.021592828035
 30
0.0
 11
521.9744765312704
 21
-239.122490648806
 31
0.0
  0
LINE
  5
284
  8
PREDEFINITO
 10
521.9744765312704
 20
-239.122490648806
 30
0.0
 11
518.4558489123976
 21
-239.2906073709132
 31
0.0
  0
LINE
  5
285
  8
PREDEFINITO
 10
518.4558489123976
 20
-239.2906073709132
 30
0.0
 11
514.939401355486
 21
-239.5258735757985
 31
0.0
  0
LINE
  5
286
  8
PREDEFINITO
 10
514.939401355486
 20
-239.5258735757985
 30
0.0
 11
511.42585821422
 21
-239.8281921777995
 31
0.0
  0
LINE
  5
287
  8
PREDEFINITO
 10
511.42585821422
 20
-239.8281921777995
 30
0.0
 11
507.9159418463599
 21
-240.1974385242357
 31
0.0
  0
LINE
  5
288
  8
PREDEFINITO
 10
507.9159418463599
 20
-240.1974385242357
 30
0.0
 11
504.4103721201653
 21
-240.6334605237619
 31
0.0
  0
LINE
  5
289
  8
PREDEFINITO
 10
504.4103721201653
 20
-240.6334605237619
 30
0.0
 11
500.9098659244024
 21
-241.1360788027387
 31
0.0
  0
LINE
  5
28A
  8
PREDEFINITO
 10
500.9098659244024
 20
-241.1360788027387
 30
0.0
 11
497.4151366826328
 21
-241.7050868893255
 31
0.0
  0
LINE
  5
28B
  8
PREDEFINITO
 10
497.4151366826328
 20
-241.7050868893255
 30
0.0
 11
493.9268938724702
 21
-242.3402514249395
 31
0.0
  0
LINE
  5
28C
  8
PREDEFINITO
 10
493.9268938724702
 20
-242.3402514249395
 30
0.0
 11
490.4458425504784
 21
-243.0413124026795
 31
0.0
  0
LINE
  5
28D
  8
PREDEFINITO
 10
490.4458425504784
 20
-243.0413124026795
 30
0.0
 11
486.9726828833737
 21
-243.8079834322619
 31
0.0
  0
LINE
  5
28E
  8
PREDEFINITO
 10
486.9726828833737
 20
-243.8079834322619
 30
0.0
 11
483.5081096861735
 21
-244.6399520309672
 31
0.0
  0
LINE
  5
28F
  8
PREDEFINITO
 10
483.5081096861735
 20
-244.6399520309672
 30
0.0
 11
480.0528119679244
 21
-245.5368799400459
 31
0.0
  0
LINE
  5
290
  8
PREDEFINITO
 10
480.0528119679244
 20
-245.5368799400459
 30
0.0
 11
476.6074724856165
 21
-246.4984034659938
 31
0.0
  0
LINE
  5
291
  8
PREDEFINITO
 10
476.6074724856165
 20
-246.4984034659938
 30
0.0
 11
473.1727673068739
 21
-247.5241338460539
 31
0.0
  0
LINE
  5
292
  8
PREDEFINITO
 10
473.1727673068739
 20
-247.5241338460539
 30
0.0
 11
472.8174996551655
 21
-246.9222295362139
 31
0.0
  0
LINE
  5
293
  8
PREDEFINITO
 10
472.8174996551655
 20
-246.9222295362139
 30
0.0
 11
472.5942341068288
 21
-246.5664664388133
 31
0.0
  0
LINE
  5
294
  8
PREDEFINITO
 10
472.5942341068288
 20
-246.5664664388133
 30
0.0
 11
472.3637890303618
 21
-246.2154161942615
 31
0.0
  0
LINE
  5
295
  8
PREDEFINITO
 10
472.3637890303618
 20
-246.2154161942615
 30
0.0
 11
472.1262400475647
 21
-245.8691866450586
 31
0.0
  0
LINE
  5
296
  8
PREDEFINITO
 10
472.1262400475647
 20
-245.8691866450586
 30
0.0
 11
471.8816627802381
 21
-245.5278856337036
 31
0.0
  0
LINE
  5
297
  8
PREDEFINITO
 10
471.8816627802381
 20
-245.5278856337036
 30
0.0
 11
471.6301328501819
 21
-245.1916210026965
 31
0.0
  0
LINE
  5
298
  8
PREDEFINITO
 10
471.6301328501819
 20
-245.1916210026965
 30
0.0
 11
471.3717258791966
 21
-244.8605005945373
 31
0.0
  0
LINE
  5
299
  8
PREDEFINITO
 10
471.3717258791966
 20
-244.8605005945373
 30
0.0
 11
471.1065174890824
 21
-244.534632251725
 31
0.0
  0
LINE
  5
29A
  8
PREDEFINITO
 10
471.1065174890824
 20
-244.534632251725
 30
0.0
 11
470.834390886581
 21
-244.2139017138608
 31
0.0
  0
LINE
  5
29B
  8
PREDEFINITO
 10
470.834390886581
 20
-244.2139017138608
 30
0.0
 11
470.5558418920142
 21
-243.8989094208968
 31
0.0
  0
LINE
  5
29C
  8
PREDEFINITO
 10
470.5558418920142
 20
-243.8989094208968
 30
0.0
 11
470.2709629991831
 21
-243.5897497660213
 31
0.0
  0
LINE
  5
29D
  8
PREDEFINITO
 10
470.2709629991831
 20
-243.5897497660213
 30
0.0
 11
469.9798467018894
 21
-243.2865171424227
 31
0.0
  0
LINE
  5
29E
  8
PREDEFINITO
 10
469.9798467018894
 20
-243.2865171424227
 30
0.0
 11
469.6825854939344
 21
-242.9893059432889
 31
0.0
  0
LINE
  5
29F
  8
PREDEFINITO
 10
469.6825854939344
 20
-242.9893059432889
 30
0.0
 11
469.3792718691199
 21
-242.698210561808
 31
0.0
  0
LINE
  5
2A0
  8
PREDEFINITO
 10
469.3792718691199
 20
-242.698210561808
 30
0.0
 11
469.0699983212472
 21
-242.413325391168
 31
0.0
  0
LINE
  5
2A1
  8
PREDEFINITO
 10
469.0699983212472
 20
-242.413325391168
 30
0.0
 11
468.7548573441178
 21
-242.1347448245577
 31
0.0
  0
LINE
  5
2A2
  8
PREDEFINITO
 10
468.7548573441178
 20
-242.1347448245577
 30
0.0
 11
468.4384764556579
 21
-241.8663165716335
 31
0.0
  0
LINE
  5
2A3
  8
PREDEFINITO
 10
468.4384764556579
 20
-241.8663165716335
 30
0.0
 11
468.1170662274375
 21
-241.6045995094777
 31
0.0
  0
LINE
  5
2A4
  8
PREDEFINITO
 10
468.1170662274375
 20
-241.6045995094777
 30
0.0
 11
467.790428948848
 21
-241.3494359468623
 31
0.0
  0
LINE
  5
2A5
  8
PREDEFINITO
 10
467.790428948848
 20
-241.3494359468623
 30
0.0
 11
467.4583669092807
 21
-241.1006681925592
 31
0.0
  0
LINE
  5
2A6
  8
PREDEFINITO
 10
467.4583669092807
 20
-241.1006681925592
 30
0.0
 11
467.1211611245138
 21
-240.8585000287147
 31
0.0
  0
LINE
  5
2A7
  8
PREDEFINITO
 10
467.1211611245138
 20
-240.8585000287147
 30
0.0
 11
466.779478875461
 21
-240.6234354857094
 31
0.0
  0
LINE
  5
2A8
  8
PREDEFINITO
 10
466.779478875461
 20
-240.6234354857094
 30
0.0
 11
466.433110000644
 21
-240.3953330936226
 31
0.0
  0
LINE
  5
2A9
  8
PREDEFINITO
 10
466.433110000644
 20
-240.3953330936226
 30
0.0
 11
466.0818443385839
 21
-240.1740513825339
 31
0.0
  0
LINE
  5
2AA
  8
PREDEFINITO
 10
466.0818443385839
 20
-240.1740513825339
 30
0.0
 11
465.7356705147223
 21
-239.9654786199808
 31
0.0
  0
LINE
  5
2AB
  8
PREDEFINITO
 10
593.778331649447
 20
-260.5114969033531
 30
0.0
 11
597.7795346315609
 21
-260.5114969033531
 31
0.0
  0
LINE
  5
2AC
  8
PREDEFINITO
 10
597.7795346315609
 20
-260.5114969033531
 30
0.0
 11
597.778331649447
 21
-250.1610654451538
 31
0.0
  0
LINE
  5
2AD
  8
PREDEFINITO
 10
597.778331649447
 20
-250.1610654451538
 30
0.0
 11
597.778331649447
 21
-237.7262561041013
 31
0.0
  0
LINE
  5
2AE
  8
PREDEFINITO
 10
597.778331649447
 20
-237.7262561041013
 30
0.0
 11
597.4010761758232
 21
-237.8235909138925
 31
0.0
  0
LINE
  5
2AF
  8
PREDEFINITO
 10
597.4010761758232
 20
-237.8235909138925
 30
0.0
 11
597.0260712543587
 21
-237.9279631642723
 31
0.0
  0
LINE
  5
2B0
  8
PREDEFINITO
 10
597.0260712543587
 20
-237.9279631642723
 30
0.0
 11
596.6531155986514
 21
-238.0394329771353
 31
0.0
  0
LINE
  5
2B1
  8
PREDEFINITO
 10
596.6531155986514
 20
-238.0394329771353
 30
0.0
 11
596.2820079223005
 21
-238.1580604743759
 31
0.0
  0
LINE
  5
2B2
  8
PREDEFINITO
 10
596.2820079223005
 20
-238.1580604743759
 30
0.0
 11
595.9137536353874
 21
-238.2834984595652
 31
0.0
  0
LINE
  5
2B3
  8
PREDEFINITO
 10
595.9137536353874
 20
-238.2834984595652
 30
0.0
 11
595.5482682871757
 21
-238.4157692792721
 31
0.0
  0
LINE
  5
2B4
  8
PREDEFINITO
 10
595.5482682871757
 20
-238.4157692792721
 30
0.0
 11
595.1853564321978
 21
-238.5549457679776
 31
0.0
  0
LINE
  5
2B5
  8
PREDEFINITO
 10
595.1853564321978
 20
-238.5549457679776
 30
0.0
 11
594.8248226249848
 21
-238.7011007601637
 31
0.0
  0
LINE
  5
2B6
  8
PREDEFINITO
 10
594.8248226249848
 20
-238.7011007601637
 30
0.0
 11
594.4526233771558
 21
-238.8604063418989
 31
0.0
  0
LINE
  5
2B7
  8
PREDEFINITO
 10
594.4526233771558
 20
-238.8604063418989
 30
0.0
 11
594.0839935486059
 21
-239.0268546501434
 31
0.0
  0
LINE
  5
2B8
  8
PREDEFINITO
 10
594.0839935486059
 20
-239.0268546501434
 30
0.0
 11
593.7187199188713
 21
-239.2005445036726
 31
0.0
  0
LINE
  5
2B9
  8
PREDEFINITO
 10
593.7187199188713
 20
-239.2005445036726
 30
0.0
 11
593.3565892674883
 21
-239.3815747212612
 31
0.0
  0
LINE
  5
2BA
  8
PREDEFINITO
 10
593.3565892674883
 20
-239.3815747212612
 30
0.0
 11
592.9987101109048
 21
-239.569354973167
 31
0.0
  0
LINE
  5
2BB
  8
PREDEFINITO
 10
592.9987101109048
 20
-239.569354973167
 30
0.0
 11
592.6449364507262
 21
-239.7639513781327
 31
0.0
  0
LINE
  5
2BC
  8
PREDEFINITO
 10
592.6449364507262
 20
-239.7639513781327
 30
0.0
 11
592.2950645681217
 21
-239.9654786199808
 31
0.0
  0
LINE
  5
2BD
  8
PREDEFINITO
 10
592.2950645681217
 20
-239.9654786199808
 30
0.0
 11
591.9488907442604
 21
-240.1740513825339
 31
0.0
  0
LINE
  5
2BE
  8
PREDEFINITO
 10
591.9488907442604
 20
-240.1740513825339
 30
0.0
 11
591.5976250822002
 21
-240.3953330936226
 31
0.0
  0
LINE
  5
2BF
  8
PREDEFINITO
 10
591.5976250822002
 20
-240.3953330936226
 30
0.0
 11
591.251256207383
 21
-240.6234354857094
 31
0.0
  0
LINE
  5
2C0
  8
PREDEFINITO
 10
591.251256207383
 20
-240.6234354857094
 30
0.0
 11
590.9095739583302
 21
-240.8585000287147
 31
0.0
  0
LINE
  5
2C1
  8
PREDEFINITO
 10
590.9095739583302
 20
-240.8585000287147
 30
0.0
 11
590.5723681735633
 21
-241.1006681925592
 31
0.0
  0
LINE
  5
2C2
  8
PREDEFINITO
 10
590.5723681735633
 20
-241.1006681925592
 30
0.0
 11
590.2403061339962
 21
-241.3494359468623
 31
0.0
  0
LINE
  5
2C3
  8
PREDEFINITO
 10
590.2403061339962
 20
-241.3494359468623
 30
0.0
 11
589.9136688554067
 21
-241.6045995094777
 31
0.0
  0
LINE
  5
2C4
  8
PREDEFINITO
 10
589.9136688554067
 20
-241.6045995094777
 30
0.0
 11
589.5922586271861
 21
-241.8663165716335
 31
0.0
  0
LINE
  5
2C5
  8
PREDEFINITO
 10
589.5922586271861
 20
-241.8663165716335
 30
0.0
 11
589.2758777387262
 21
-242.1347448245577
 31
0.0
  0
LINE
  5
2C6
  8
PREDEFINITO
 10
589.2758777387262
 20
-242.1347448245577
 30
0.0
 11
588.960736761597
 21
-242.413325391168
 31
0.0
  0
LINE
  5
2C7
  8
PREDEFINITO
 10
588.960736761597
 20
-242.413325391168
 30
0.0
 11
588.6514632137241
 21
-242.698210561808
 31
0.0
  0
LINE
  5
2C8
  8
PREDEFINITO
 10
588.6514632137241
 20
-242.698210561808
 30
0.0
 11
588.3481495889098
 21
-242.9893059432889
 31
0.0
  0
LINE
  5
2C9
  8
PREDEFINITO
 10
588.3481495889098
 20
-242.9893059432889
 30
0.0
 11
588.0508883809548
 21
-243.2865171424227
 31
0.0
  0
LINE
  5
2CA
  8
PREDEFINITO
 10
588.0508883809548
 20
-243.2865171424227
 30
0.0
 11
587.7597720836612
 21
-243.5897497660213
 31
0.0
  0
LINE
  5
2CB
  8
PREDEFINITO
 10
587.7597720836612
 20
-243.5897497660213
 30
0.0
 11
587.4748931908301
 21
-243.8989094208968
 31
0.0
  0
LINE
  5
2CC
  8
PREDEFINITO
 10
587.4748931908301
 20
-243.8989094208968
 30
0.0
 11
587.196344196263
 21
-244.2139017138608
 31
0.0
  0
LINE
  5
2CD
  8
PREDEFINITO
 10
587.196344196263
 20
-244.2139017138608
 30
0.0
 11
586.9242175937618
 21
-244.534632251725
 31
0.0
  0
LINE
  5
2CE
  8
PREDEFINITO
 10
586.9242175937618
 20
-244.534632251725
 30
0.0
 11
586.6590092036477
 21
-244.8605005945373
 31
0.0
  0
LINE
  5
2CF
  8
PREDEFINITO
 10
586.6590092036477
 20
-244.8605005945373
 30
0.0
 11
586.4006022326624
 21
-245.1916210026965
 31
0.0
  0
LINE
  5
2D0
  8
PREDEFINITO
 10
586.4006022326624
 20
-245.1916210026965
 30
0.0
 11
586.1490723026061
 21
-245.5278856337036
 31
0.0
  0
LINE
  5
2D1
  8
PREDEFINITO
 10
586.1490723026061
 20
-245.5278856337036
 30
0.0
 11
585.9044950352793
 21
-245.8691866450586
 31
0.0
  0
LINE
  5
2D2
  8
PREDEFINITO
 10
585.9044950352793
 20
-245.8691866450586
 30
0.0
 11
585.6669460524824
 21
-246.2154161942615
 31
0.0
  0
LINE
  5
2D3
  8
PREDEFINITO
 10
585.6669460524824
 20
-246.2154161942615
 30
0.0
 11
585.4365009760154
 21
-246.5664664388133
 31
0.0
  0
LINE
  5
2D4
  8
PREDEFINITO
 10
585.4365009760154
 20
-246.5664664388133
 30
0.0
 11
585.2132354276787
 21
-246.9222295362139
 31
0.0
  0
LINE
  5
2D5
  8
PREDEFINITO
 10
585.2132354276787
 20
-246.9222295362139
 30
0.0
 11
584.8579677759706
 21
-247.5241338460535
 31
0.0
  0
LINE
  5
2D6
  8
PREDEFINITO
 10
584.8579677759706
 20
-247.5241338460535
 30
0.0
 11
581.4232625972278
 21
-246.4984034659935
 31
0.0
  0
LINE
  5
2D7
  8
PREDEFINITO
 10
581.4232625972278
 20
-246.4984034659935
 30
0.0
 11
577.9779231149197
 21
-245.5368799400458
 31
0.0
  0
LINE
  5
2D8
  8
PREDEFINITO
 10
577.9779231149197
 20
-245.5368799400458
 30
0.0
 11
574.5226253966708
 21
-244.639952030967
 31
0.0
  0
LINE
  5
2D9
  8
PREDEFINITO
 10
574.5226253966708
 20
-244.639952030967
 30
0.0
 11
571.0580521994707
 21
-243.8079834322618
 31
0.0
  0
LINE
  5
2DA
  8
PREDEFINITO
 10
571.0580521994707
 20
-243.8079834322618
 30
0.0
 11
567.584892532366
 21
-243.0413124026792
 31
0.0
  0
LINE
  5
2DB
  8
PREDEFINITO
 10
567.584892532366
 20
-243.0413124026792
 30
0.0
 11
564.1038412103742
 21
-242.3402514249395
 31
0.0
  0
LINE
  5
2DC
  8
PREDEFINITO
 10
564.1038412103742
 20
-242.3402514249395
 30
0.0
 11
560.6155984002115
 21
-241.7050868893255
 31
0.0
  0
LINE
  5
2DD
  8
PREDEFINITO
 10
416.0818808271535
 20
-178.7130357002054
 30
0.0
 11
415.8033318325865
 21
-179.0280279931694
 31
0.0
  0
LINE
  5
2DE
  8
PREDEFINITO
 10
415.8033318325865
 20
-179.0280279931694
 30
0.0
 11
415.5312052300853
 21
-179.3487585310337
 31
0.0
  0
LINE
  5
2DF
  8
PREDEFINITO
 10
415.5312052300853
 20
-179.3487585310337
 30
0.0
 11
415.2659968399711
 21
-179.6746268738459
 31
0.0
  0
LINE
  5
2E0
  8
PREDEFINITO
 10
415.2659968399711
 20
-179.6746268738459
 30
0.0
 11
415.0075898689858
 21
-180.0057472820052
 31
0.0
  0
LINE
  5
2E1
  8
PREDEFINITO
 10
415.0075898689858
 20
-180.0057472820052
 30
0.0
 11
414.7560599389296
 21
-180.3420119130122
 31
0.0
  0
LINE
  5
2E2
  8
PREDEFINITO
 10
414.7560599389296
 20
-180.3420119130122
 30
0.0
 11
414.5114826716028
 21
-180.6833129243672
 31
0.0
  0
LINE
  5
2E3
  8
PREDEFINITO
 10
414.5114826716028
 20
-180.6833129243672
 30
0.0
 11
414.2739336888059
 21
-181.0295424735702
 31
0.0
  0
LINE
  5
2E4
  8
PREDEFINITO
 10
414.2739336888059
 20
-181.0295424735702
 30
0.0
 11
414.0434886123389
 21
-181.3805927181218
 31
0.0
  0
LINE
  5
2E5
  8
PREDEFINITO
 10
414.0434886123389
 20
-181.3805927181218
 30
0.0
 11
413.8202230640022
 21
-181.7363558155226
 31
0.0
  0
LINE
  5
2E6
  8
PREDEFINITO
 10
413.8202230640022
 20
-181.7363558155226
 30
0.0
 11
413.464955412294
 21
-182.3382601253622
 31
0.0
  0
LINE
  5
2E7
  8
PREDEFINITO
 10
413.464955412294
 20
-182.3382601253622
 30
0.0
 11
410.0302502335511
 21
-181.312529745302
 31
0.0
  0
LINE
  5
2E8
  8
PREDEFINITO
 10
410.0302502335511
 20
-181.312529745302
 30
0.0
 11
406.584910751243
 21
-180.3510062193544
 31
0.0
  0
LINE
  5
2E9
  8
PREDEFINITO
 10
406.584910751243
 20
-180.3510062193544
 30
0.0
 11
403.1296130329942
 21
-179.4540783102755
 31
0.0
  0
LINE
  5
2EA
  8
PREDEFINITO
 10
403.1296130329942
 20
-179.4540783102755
 30
0.0
 11
399.6650398357939
 21
-178.6221097115703
 31
0.0
  0
LINE
  5
2EB
  8
PREDEFINITO
 10
399.6650398357939
 20
-178.6221097115703
 30
0.0
 11
396.1918801686892
 21
-177.8554386819879
 31
0.0
  0
LINE
  5
2EC
  8
PREDEFINITO
 10
396.1918801686892
 20
-177.8554386819879
 30
0.0
 11
392.7108288466974
 21
-177.154377704248
 31
0.0
  0
LINE
  5
2ED
  8
PREDEFINITO
 10
392.7108288466974
 20
-177.154377704248
 30
0.0
 11
389.2225860365349
 21
-176.5192131686341
 31
0.0
  0
LINE
  5
2EE
  8
PREDEFINITO
 10
389.2225860365349
 20
-176.5192131686341
 30
0.0
 11
385.7278567947653
 21
-175.9502050820471
 31
0.0
  0
LINE
  5
2EF
  8
PREDEFINITO
 10
385.7278567947653
 20
-175.9502050820471
 30
0.0
 11
382.2273505990024
 21
-175.4475868030701
 31
0.0
  0
LINE
  5
2F0
  8
PREDEFINITO
 10
382.2273505990024
 20
-175.4475868030701
 30
0.0
 11
378.7217808728077
 21
-175.011564803544
 31
0.0
  0
LINE
  5
2F1
  8
PREDEFINITO
 10
378.7217808728077
 20
-175.011564803544
 30
0.0
 11
375.2118645049476
 21
-174.6423184571078
 31
0.0
  0
LINE
  5
2F2
  8
PREDEFINITO
 10
375.2118645049476
 20
-174.6423184571078
 30
0.0
 11
371.6983213636817
 21
-174.3399998551069
 31
0.0
  0
LINE
  5
2F3
  8
PREDEFINITO
 10
371.6983213636817
 20
-174.3399998551069
 30
0.0
 11
368.1818738067699
 21
-174.1047336502216
 31
0.0
  0
LINE
  5
2F4
  8
PREDEFINITO
 10
368.1818738067699
 20
-174.1047336502216
 30
0.0
 11
364.6632461878973
 21
-173.9366169281145
 31
0.0
  0
LINE
  5
2F5
  8
PREDEFINITO
 10
364.6632461878973
 20
-173.9366169281145
 30
0.0
 11
361.1431643602197
 21
-173.8357191073433
 31
0.0
  0
LINE
  5
2F6
  8
PREDEFINITO
 10
361.1431643602197
 20
-173.8357191073433
 30
0.0
 11
357.6223551777454
 21
-173.8020818677332
 31
0.0
  0
LINE
  5
2F7
  8
PREDEFINITO
 10
357.6223551777454
 20
-173.8020818677332
 30
0.0
 11
354.1015459952713
 21
-173.8357191073436
 31
0.0
  0
LINE
  5
2F8
  8
PREDEFINITO
 10
354.1015459952713
 20
-173.8357191073436
 30
0.0
 11
350.5814641675938
 21
-173.9366169281147
 31
0.0
  0
LINE
  5
2F9
  8
PREDEFINITO
 10
350.5814641675938
 20
-173.9366169281147
 30
0.0
 11
347.0628365487211
 21
-174.1047336502216
 31
0.0
  0
LINE
  5
2FA
  8
PREDEFINITO
 10
347.0628365487211
 20
-174.1047336502216
 30
0.0
 11
343.5463889918093
 21
-174.3399998551071
 31
0.0
  0
LINE
  5
2FB
  8
PREDEFINITO
 10
343.5463889918093
 20
-174.3399998551071
 30
0.0
 11
340.0328458505434
 21
-174.642318457108
 31
0.0
  0
LINE
  5
2FC
  8
PREDEFINITO
 10
340.0328458505434
 20
-174.642318457108
 30
0.0
 11
336.5229294826833
 21
-175.0115648035442
 31
0.0
  0
LINE
  5
2FD
  8
PREDEFINITO
 10
336.5229294826833
 20
-175.0115648035442
 30
0.0
 11
333.0173597564887
 21
-175.4475868030705
 31
0.0
  0
LINE
  5
2FE
  8
PREDEFINITO
 10
333.0173597564887
 20
-175.4475868030705
 30
0.0
 11
329.5168535607258
 21
-175.9502050820473
 31
0.0
  0
LINE
  5
2FF
  8
PREDEFINITO
 10
329.5168535607258
 20
-175.9502050820473
 30
0.0
 11
326.0221243189562
 21
-176.5192131686341
 31
0.0
  0
LINE
  5
300
  8
PREDEFINITO
 10
326.0221243189562
 20
-176.5192131686341
 30
0.0
 11
322.5338815087936
 21
-177.1543777042482
 31
0.0
  0
LINE
  5
301
  8
PREDEFINITO
 10
322.5338815087936
 20
-177.1543777042482
 30
0.0
 11
319.0528301868018
 21
-177.8554386819879
 31
0.0
  0
LINE
  5
302
  8
PREDEFINITO
 10
319.0528301868018
 20
-177.8554386819879
 30
0.0
 11
315.5796705196971
 21
-178.6221097115705
 31
0.0
  0
LINE
  5
303
  8
PREDEFINITO
 10
315.5796705196971
 20
-178.6221097115705
 30
0.0
 11
312.1150973224969
 21
-179.4540783102757
 31
0.0
  0
LINE
  5
304
  8
PREDEFINITO
 10
312.1150973224969
 20
-179.4540783102757
 30
0.0
 11
308.6597996042478
 21
-180.3510062193546
 31
0.0
  0
LINE
  5
305
  8
PREDEFINITO
 10
308.6597996042478
 20
-180.3510062193546
 30
0.0
 11
305.2144601219399
 21
-181.3125297453024
 31
0.0
  0
LINE
  5
306
  8
PREDEFINITO
 10
305.2144601219399
 20
-181.3125297453024
 30
0.0
 11
301.7797549431972
 21
-182.3382601253624
 31
0.0
  0
LINE
  5
307
  8
PREDEFINITO
 10
301.7797549431972
 20
-182.3382601253624
 30
0.0
 11
301.4244872914889
 21
-181.7363558155226
 31
0.0
  0
LINE
  5
308
  8
PREDEFINITO
 10
301.4244872914889
 20
-181.7363558155226
 30
0.0
 11
301.2012217431522
 21
-181.3805927181218
 31
0.0
  0
LINE
  5
309
  8
PREDEFINITO
 10
301.2012217431522
 20
-181.3805927181218
 30
0.0
 11
300.9707766666851
 21
-181.0295424735702
 31
0.0
  0
LINE
  5
30A
  8
PREDEFINITO
 10
300.9707766666851
 20
-181.0295424735702
 30
0.0
 11
300.733227683888
 21
-180.6833129243672
 31
0.0
  0
LINE
  5
30B
  8
PREDEFINITO
 10
300.733227683888
 20
-180.6833129243672
 30
0.0
 11
300.4886504165615
 21
-180.3420119130122
 31
0.0
  0
LINE
  5
30C
  8
PREDEFINITO
 10
300.4886504165615
 20
-180.3420119130122
 30
0.0
 11
300.2371204865053
 21
-180.0057472820052
 31
0.0
  0
LINE
  5
30D
  8
PREDEFINITO
 10
300.2371204865053
 20
-180.0057472820052
 30
0.0
 11
299.9787135155199
 21
-179.6746268738459
 31
0.0
  0
LINE
  5
30E
  8
PREDEFINITO
 10
299.9787135155199
 20
-179.6746268738459
 30
0.0
 11
299.7135051254058
 21
-179.3487585310337
 31
0.0
  0
LINE
  5
30F
  8
PREDEFINITO
 10
286.5435267382804
 20
-249.0924445644868
 30
0.0
 11
290.5435267382804
 21
-249.0924445644868
 31
0.0
  0
LINE
  5
310
  8
PREDEFINITO
 10
290.5435267382804
 20
-249.0924445644868
 30
0.0
 11
290.5435267382804
 21
-259.4428760226859
 31
0.0
  0
LINE
  5
311
  8
PREDEFINITO
 10
290.5435267382804
 20
-259.4428760226859
 30
0.0
 11
302.3498956463052
 21
-259.4428760226859
 31
0.0
  0
LINE
  5
312
  8
PREDEFINITO
 10
302.3498956463052
 20
-259.4428760226859
 30
0.0
 11
326.6052736627501
 21
-259.4428760226859
 31
0.0
  0
LINE
  5
313
  8
PREDEFINITO
 10
326.6052736627501
 20
-259.4428760226859
 30
0.0
 11
326.6052736627501
 21
-249.442769755677
 31
0.0
  0
LINE
  5
314
  8
PREDEFINITO
 10
326.6052736627501
 20
-249.442769755677
 30
0.0
 11
330.8052736627499
 21
-249.442769755677
 31
0.0
  0
LINE
  5
315
  8
PREDEFINITO
 10
330.8052736627499
 20
-249.442769755677
 30
0.0
 11
330.8052736627499
 21
-259.4428760226859
 31
0.0
  0
LINE
  5
316
  8
PREDEFINITO
 10
330.8052736627499
 20
-259.4428760226859
 30
0.0
 11
353.2064908463053
 21
-259.4428760226859
 31
0.0
  0
LINE
  5
317
  8
PREDEFINITO
 10
353.2064908463053
 20
-259.4428760226859
 30
0.0
 11
353.2064908463053
 21
-249.442769755677
 31
0.0
  0
LINE
  5
318
  8
PREDEFINITO
 10
353.2064908463053
 20
-249.442769755677
 30
0.0
 11
357.4064908463053
 21
-249.442769755677
 31
0.0
  0
LINE
  5
319
  8
PREDEFINITO
 10
357.4064908463053
 20
-249.442769755677
 30
0.0
 11
357.4064908463053
 21
-259.4428760226859
 31
0.0
  0
LINE
  5
31A
  8
PREDEFINITO
 10
357.4064908463053
 20
-259.4428760226859
 30
0.0
 11
379.8077080298606
 21
-259.4428760226859
 31
0.0
  0
LINE
  5
31B
  8
PREDEFINITO
 10
379.8077080298606
 20
-259.4428760226859
 30
0.0
 11
379.8077080298606
 21
-249.442769755677
 31
0.0
  0
LINE
  5
31C
  8
PREDEFINITO
 10
379.8077080298606
 20
-249.442769755677
 30
0.0
 11
384.0077080298606
 21
-249.442769755677
 31
0.0
  0
LINE
  5
31D
  8
PREDEFINITO
 10
384.0077080298606
 20
-249.442769755677
 30
0.0
 11
384.0077080298606
 21
-259.4428760226859
 31
0.0
  0
LINE
  5
31E
  8
PREDEFINITO
 10
384.0077080298606
 20
-259.4428760226859
 30
0.0
 11
408.2630860463053
 21
-259.4428760226859
 31
0.0
  0
LINE
  5
31F
  8
PREDEFINITO
 10
408.2630860463053
 20
-259.4428760226859
 30
0.0
 11
420.0694549543302
 21
-259.4428760226859
 31
0.0
  0
LINE
  5
320
  8
PREDEFINITO
 10
422.3853192857704
 20
-195.3256231826616
 30
0.0
 11
426.3865222678843
 21
-195.3256231826616
 31
0.0
  0
LINE
  5
321
  8
PREDEFINITO
 10
426.3865222678843
 20
-195.3256231826616
 30
0.0
 11
426.3853192857704
 21
-184.9751917244625
 31
0.0
  0
LINE
  5
322
  8
PREDEFINITO
 10
426.3853192857704
 20
-184.9751917244625
 30
0.0
 11
426.3853192857704
 21
-172.5403823834098
 31
0.0
  0
LINE
  5
323
  8
PREDEFINITO
 10
426.3853192857704
 20
-172.5403823834098
 30
0.0
 11
426.0080638121466
 21
-172.637717193201
 31
0.0
  0
LINE
  5
324
  8
PREDEFINITO
 10
426.0080638121466
 20
-172.637717193201
 30
0.0
 11
425.6330588906821
 21
-172.742089443581
 31
0.0
  0
LINE
  5
325
  8
PREDEFINITO
 10
425.6330588906821
 20
-172.742089443581
 30
0.0
 11
425.2601032349748
 21
-172.8535592564438
 31
0.0
  0
LINE
  5
326
  8
PREDEFINITO
 10
425.2601032349748
 20
-172.8535592564438
 30
0.0
 11
424.8889955586239
 21
-172.9721867536844
 31
0.0
  0
LINE
  5
327
  8
PREDEFINITO
 10
424.8889955586239
 20
-172.9721867536844
 30
0.0
 11
424.5207412717108
 21
-173.0976247388739
 31
0.0
  0
LINE
  5
328
  8
PREDEFINITO
 10
424.5207412717108
 20
-173.0976247388739
 30
0.0
 11
424.1552559234992
 21
-173.2298955585806
 31
0.0
  0
LINE
  5
329
  8
PREDEFINITO
 10
424.1552559234992
 20
-173.2298955585806
 30
0.0
 11
423.7923440685212
 21
-173.3690720472863
 31
0.0
  0
LINE
  5
32A
  8
PREDEFINITO
 10
423.7923440685212
 20
-173.3690720472863
 30
0.0
 11
423.4318102613083
 21
-173.5152270394724
 31
0.0
  0
LINE
  5
32B
  8
PREDEFINITO
 10
423.4318102613083
 20
-173.5152270394724
 30
0.0
 11
423.0596110134792
 21
-173.6745326212074
 31
0.0
  0
LINE
  5
32C
  8
PREDEFINITO
 10
423.0596110134792
 20
-173.6745326212074
 30
0.0
 11
422.6909811849293
 21
-173.8409809294521
 31
0.0
  0
LINE
  5
32D
  8
PREDEFINITO
 10
422.6909811849293
 20
-173.8409809294521
 30
0.0
 11
422.3257075551948
 21
-174.0146707829811
 31
0.0
  0
LINE
  5
32E
  8
PREDEFINITO
 10
422.3257075551948
 20
-174.0146707829811
 30
0.0
 11
421.9635769038118
 21
-174.1957010005698
 31
0.0
  0
LINE
  5
32F
  8
PREDEFINITO
 10
421.9635769038118
 20
-174.1957010005698
 30
0.0
 11
421.6056977472282
 21
-174.3834812524755
 31
0.0
  0
LINE
  5
330
  8
PREDEFINITO
 10
421.6056977472282
 20
-174.3834812524755
 30
0.0
 11
421.2519240870496
 21
-174.5780776574412
 31
0.0
  0
LINE
  5
331
  8
PREDEFINITO
 10
421.2519240870496
 20
-174.5780776574412
 30
0.0
 11
420.9020522044452
 21
-174.7796048992895
 31
0.0
  0
LINE
  5
332
  8
PREDEFINITO
 10
420.9020522044452
 20
-174.7796048992895
 30
0.0
 11
420.5558783805838
 21
-174.9881776618425
 31
0.0
  0
LINE
  5
333
  8
PREDEFINITO
 10
420.5558783805838
 20
-174.9881776618425
 30
0.0
 11
420.2046127185237
 21
-175.2094593729311
 31
0.0
  0
LINE
  5
334
  8
PREDEFINITO
 10
420.2046127185237
 20
-175.2094593729311
 30
0.0
 11
419.8582438437065
 21
-175.437561765018
 31
0.0
  0
LINE
  5
335
  8
PREDEFINITO
 10
419.8582438437065
 20
-175.437561765018
 30
0.0
 11
419.5165615946536
 21
-175.6726263080233
 31
0.0
  0
LINE
  5
336
  8
PREDEFINITO
 10
419.5165615946536
 20
-175.6726263080233
 30
0.0
 11
419.1793558098868
 21
-175.9147944718679
 31
0.0
  0
LINE
  5
337
  8
PREDEFINITO
 10
419.1793558098868
 20
-175.9147944718679
 30
0.0
 11
418.8472937703197
 21
-176.163562226171
 31
0.0
  0
LINE
  5
338
  8
PREDEFINITO
 10
418.8472937703197
 20
-176.163562226171
 30
0.0
 11
418.5206564917302
 21
-176.4187257887864
 31
0.0
  0
LINE
  5
339
  8
PREDEFINITO
 10
418.5206564917302
 20
-176.4187257887864
 30
0.0
 11
418.1992462635096
 21
-176.6804428509421
 31
0.0
  0
LINE
  5
33A
  8
PREDEFINITO
 10
418.1992462635096
 20
-176.6804428509421
 30
0.0
 11
417.8828653750497
 21
-176.9488711038664
 31
0.0
  0
LINE
  5
33B
  8
PREDEFINITO
 10
417.8828653750497
 20
-176.9488711038664
 30
0.0
 11
417.5677243979205
 21
-177.2274516704767
 31
0.0
  0
LINE
  5
33C
  8
PREDEFINITO
 10
417.5677243979205
 20
-177.2274516704767
 30
0.0
 11
417.2584508500476
 21
-177.5123368411166
 31
0.0
  0
LINE
  5
33D
  8
PREDEFINITO
 10
417.2584508500476
 20
-177.5123368411166
 30
0.0
 11
416.9551372252333
 21
-177.8034322225975
 31
0.0
  0
LINE
  5
33E
  8
PREDEFINITO
 10
416.9551372252333
 20
-177.8034322225975
 30
0.0
 11
416.6578760172783
 21
-178.1006434217313
 31
0.0
  0
LINE
  5
33F
  8
PREDEFINITO
 10
416.6578760172783
 20
-178.1006434217313
 30
0.0
 11
416.3667597199846
 21
-178.4038760453299
 31
0.0
  0
LINE
  5
340
  8
PREDEFINITO
 10
416.3667597199846
 20
-178.4038760453299
 30
0.0
 11
416.0818808271535
 21
-178.7130357002054
 31
0.0
  0
LINE
  5
341
  8
PREDEFINITO
 10
330.7014954250485
 20
-239.5648396430947
 30
0.0
 11
327.2009892292856
 21
-240.0674579220716
 31
0.0
  0
LINE
  5
342
  8
PREDEFINITO
 10
327.2009892292856
 20
-240.0674579220716
 30
0.0
 11
323.706259987516
 21
-240.6364660086584
 31
0.0
  0
LINE
  5
343
  8
PREDEFINITO
 10
323.706259987516
 20
-240.6364660086584
 30
0.0
 11
320.2180171773534
 21
-241.2716305442723
 31
0.0
  0
LINE
  5
344
  8
PREDEFINITO
 10
320.2180171773534
 20
-241.2716305442723
 30
0.0
 11
316.7369658553616
 21
-241.9726915220123
 31
0.0
  0
LINE
  5
345
  8
PREDEFINITO
 10
316.7369658553616
 20
-241.9726915220123
 30
0.0
 11
313.2638061882569
 21
-242.7393625515949
 31
0.0
  0
LINE
  5
346
  8
PREDEFINITO
 10
313.2638061882569
 20
-242.7393625515949
 30
0.0
 11
309.7992329910567
 21
-243.5713311503001
 31
0.0
  0
LINE
  5
347
  8
PREDEFINITO
 10
309.7992329910567
 20
-243.5713311503001
 30
0.0
 11
306.3439352728076
 21
-244.4682590593789
 31
0.0
  0
LINE
  5
348
  8
PREDEFINITO
 10
306.3439352728076
 20
-244.4682590593789
 30
0.0
 11
302.8985957904997
 21
-245.4297825853267
 31
0.0
  0
LINE
  5
349
  8
PREDEFINITO
 10
302.8985957904997
 20
-245.4297825853267
 30
0.0
 11
299.4638906117571
 21
-246.4555129653867
 31
0.0
  0
LINE
  5
34A
  8
PREDEFINITO
 10
299.4638906117571
 20
-246.4555129653867
 30
0.0
 11
299.1086229600487
 21
-245.8536086555469
 31
0.0
  0
LINE
  5
34B
  8
PREDEFINITO
 10
299.1086229600487
 20
-245.8536086555469
 30
0.0
 11
298.885357411712
 21
-245.4978455581461
 31
0.0
  0
LINE
  5
34C
  8
PREDEFINITO
 10
298.885357411712
 20
-245.4978455581461
 30
0.0
 11
298.6549123352449
 21
-245.1467953135945
 31
0.0
  0
LINE
  5
34D
  8
PREDEFINITO
 10
298.6549123352449
 20
-245.1467953135945
 30
0.0
 11
298.4173633524479
 21
-244.8005657643915
 31
0.0
  0
LINE
  5
34E
  8
PREDEFINITO
 10
298.4173633524479
 20
-244.8005657643915
 30
0.0
 11
298.1727860851213
 21
-244.4592647530366
 31
0.0
  0
LINE
  5
34F
  8
PREDEFINITO
 10
298.1727860851213
 20
-244.4592647530366
 30
0.0
 11
297.9212561550651
 21
-244.1230001220295
 31
0.0
  0
LINE
  5
350
  8
PREDEFINITO
 10
297.9212561550651
 20
-244.1230001220295
 30
0.0
 11
297.6628491840797
 21
-243.7918797138702
 31
0.0
  0
LINE
  5
351
  8
PREDEFINITO
 10
297.6628491840797
 20
-243.7918797138702
 30
0.0
 11
297.3976407939656
 21
-243.4660113710578
 31
0.0
  0
LINE
  5
352
  8
PREDEFINITO
 10
297.3976407939656
 20
-243.4660113710578
 30
0.0
 11
297.1255141914642
 21
-243.1452808331937
 31
0.0
  0
LINE
  5
353
  8
PREDEFINITO
 10
297.1255141914642
 20
-243.1452808331937
 30
0.0
 11
296.8469651968974
 21
-242.8302885402297
 31
0.0
  0
LINE
  5
354
  8
PREDEFINITO
 10
296.8469651968974
 20
-242.8302885402297
 30
0.0
 11
296.5620863040663
 21
-242.5211288853541
 31
0.0
  0
LINE
  5
355
  8
PREDEFINITO
 10
296.5620863040663
 20
-242.5211288853541
 30
0.0
 11
296.2709700067726
 21
-242.2178962617555
 31
0.0
  0
LINE
  5
356
  8
PREDEFINITO
 10
296.2709700067726
 20
-242.2178962617555
 30
0.0
 11
295.9737087988176
 21
-241.9206850626218
 31
0.0
  0
LINE
  5
357
  8
PREDEFINITO
 10
295.9737087988176
 20
-241.9206850626218
 30
0.0
 11
295.670395174003
 21
-241.6295896811408
 31
0.0
  0
LINE
  5
358
  8
PREDEFINITO
 10
295.670395174003
 20
-241.6295896811408
 30
0.0
 11
295.3611216261304
 21
-241.3447045105009
 31
0.0
  0
LINE
  5
359
  8
PREDEFINITO
 10
295.3611216261304
 20
-241.3447045105009
 30
0.0
 11
295.045980649001
 21
-241.0661239438905
 31
0.0
  0
LINE
  5
35A
  8
PREDEFINITO
 10
295.045980649001
 20
-241.0661239438905
 30
0.0
 11
294.7295997605411
 21
-240.7976956909665
 31
0.0
  0
LINE
  5
35B
  8
PREDEFINITO
 10
294.7295997605411
 20
-240.7976956909665
 30
0.0
 11
294.4081895323206
 21
-240.5359786288107
 31
0.0
  0
LINE
  5
35C
  8
PREDEFINITO
 10
294.4081895323206
 20
-240.5359786288107
 30
0.0
 11
294.0815522537312
 21
-240.2808150661953
 31
0.0
  0
LINE
  5
35D
  8
PREDEFINITO
 10
294.0815522537312
 20
-240.2808150661953
 30
0.0
 11
293.7494902141639
 21
-240.0320473118921
 31
0.0
  0
LINE
  5
35E
  8
PREDEFINITO
 10
293.7494902141639
 20
-240.0320473118921
 30
0.0
 11
293.412284429397
 21
-239.7898791480475
 31
0.0
  0
LINE
  5
35F
  8
PREDEFINITO
 10
293.412284429397
 20
-239.7898791480475
 30
0.0
 11
293.0706021803442
 21
-239.5548146050423
 31
0.0
  0
LINE
  5
360
  8
PREDEFINITO
 10
293.0706021803442
 20
-239.5548146050423
 30
0.0
 11
292.7242333055272
 21
-239.3267122129553
 31
0.0
  0
LINE
  5
361
  8
PREDEFINITO
 10
292.7242333055272
 20
-239.3267122129553
 30
0.0
 11
292.3729676434671
 21
-239.1054305018669
 31
0.0
  0
LINE
  5
362
  8
PREDEFINITO
 10
292.3729676434671
 20
-239.1054305018669
 30
0.0
 11
292.0267938196055
 21
-238.8968577393138
 31
0.0
  0
LINE
  5
363
  8
PREDEFINITO
 10
292.0267938196055
 20
-238.8968577393138
 30
0.0
 11
291.676921937001
 21
-238.6953304974655
 31
0.0
  0
LINE
  5
364
  8
PREDEFINITO
 10
291.676921937001
 20
-238.6953304974655
 30
0.0
 11
291.3231482768226
 21
-238.5007340924997
 31
0.0
  0
LINE
  5
365
  8
PREDEFINITO
 10
291.3231482768226
 20
-238.5007340924997
 30
0.0
 11
290.9652691202391
 21
-238.3129538405939
 31
0.0
  0
LINE
  5
366
  8
PREDEFINITO
 10
290.9652691202391
 20
-238.3129538405939
 30
0.0
 11
290.603138468856
 21
-238.1319236230054
 31
0.0
  0
LINE
  5
367
  8
PREDEFINITO
 10
290.603138468856
 20
-238.1319236230054
 30
0.0
 11
290.2378648391213
 21
-237.9582337694764
 31
0.0
  0
LINE
  5
368
  8
PREDEFINITO
 10
290.2378648391213
 20
-237.9582337694764
 30
0.0
 11
289.8692350105714
 21
-237.7917854612318
 31
0.0
  0
LINE
  5
369
  8
PREDEFINITO
 10
289.8692350105714
 20
-237.7917854612318
 30
0.0
 11
289.4970357627424
 21
-237.6324798794964
 31
0.0
  0
LINE
  5
36A
  8
PREDEFINITO
 10
289.4970357627424
 20
-237.6324798794964
 30
0.0
 11
289.1365019555296
 21
-237.4863248873104
 31
0.0
  0
LINE
  5
36B
  8
PREDEFINITO
 10
289.1365019555296
 20
-237.4863248873104
 30
0.0
 11
288.7735901005515
 21
-237.3471483986049
 31
0.0
  0
LINE
  5
36C
  8
PREDEFINITO
 10
288.7735901005515
 20
-237.3471483986049
 30
0.0
 11
288.40810475234
 21
-237.2148775788982
 31
0.0
  0
LINE
  5
36D
  8
PREDEFINITO
 10
288.40810475234
 20
-237.2148775788982
 30
0.0
 11
288.039850465427
 21
-237.0894395937087
 31
0.0
  0
LINE
  5
36E
  8
PREDEFINITO
 10
288.039850465427
 20
-237.0894395937087
 30
0.0
 11
287.6687427890758
 21
-236.9708120964681
 31
0.0
  0
LINE
  5
36F
  8
PREDEFINITO
 10
287.6687427890758
 20
-236.9708120964681
 30
0.0
 11
287.2957871333688
 21
-236.8593422836051
 31
0.0
  0
LINE
  5
370
  8
PREDEFINITO
 10
287.2957871333688
 20
-236.8593422836051
 30
0.0
 11
286.920782211904
 21
-236.7549700332253
 31
0.0
  0
LINE
  5
371
  8
PREDEFINITO
 10
286.920782211904
 20
-236.7549700332253
 30
0.0
 11
286.5435267382804
 21
-236.6576352234342
 31
0.0
  0
LINE
  5
372
  8
PREDEFINITO
 10
286.5435267382804
 20
-236.6576352234342
 30
0.0
 11
286.5435267382804
 21
-249.0924445644868
 31
0.0
  0
LINE
  5
373
  8
PREDEFINITO
 10
419.289833415788
 20
-238.5007340924997
 30
0.0
 11
418.9360597556094
 21
-238.6953304974655
 31
0.0
  0
LINE
  5
374
  8
PREDEFINITO
 10
418.9360597556094
 20
-238.6953304974655
 30
0.0
 11
418.586187873005
 21
-238.8968577393138
 31
0.0
  0
LINE
  5
375
  8
PREDEFINITO
 10
418.586187873005
 20
-238.8968577393138
 30
0.0
 11
418.2400140491436
 21
-239.1054305018669
 31
0.0
  0
LINE
  5
376
  8
PREDEFINITO
 10
418.2400140491436
 20
-239.1054305018669
 30
0.0
 11
417.8887483870835
 21
-239.3267122129553
 31
0.0
  0
LINE
  5
377
  8
PREDEFINITO
 10
417.8887483870835
 20
-239.3267122129553
 30
0.0
 11
417.5423795122663
 21
-239.5548146050423
 31
0.0
  0
LINE
  5
378
  8
PREDEFINITO
 10
417.5423795122663
 20
-239.5548146050423
 30
0.0
 11
417.2006972632134
 21
-239.7898791480475
 31
0.0
  0
LINE
  5
379
  8
PREDEFINITO
 10
417.2006972632134
 20
-239.7898791480475
 30
0.0
 11
416.8634914784466
 21
-240.0320473118921
 31
0.0
  0
LINE
  5
37A
  8
PREDEFINITO
 10
416.8634914784466
 20
-240.0320473118921
 30
0.0
 11
416.5314294388795
 21
-240.2808150661953
 31
0.0
  0
LINE
  5
37B
  8
PREDEFINITO
 10
416.5314294388795
 20
-240.2808150661953
 30
0.0
 11
416.20479216029
 21
-240.5359786288107
 31
0.0
  0
LINE
  5
37C
  8
PREDEFINITO
 10
416.20479216029
 20
-240.5359786288107
 30
0.0
 11
415.8833819320694
 21
-240.7976956909665
 31
0.0
  0
LINE
  5
37D
  8
PREDEFINITO
 10
415.8833819320694
 20
-240.7976956909665
 30
0.0
 11
415.5670010436095
 21
-241.0661239438905
 31
0.0
  0
LINE
  5
37E
  8
PREDEFINITO
 10
415.5670010436095
 20
-241.0661239438905
 30
0.0
 11
415.2518600664803
 21
-241.3447045105009
 31
0.0
  0
LINE
  5
37F
  8
PREDEFINITO
 10
415.2518600664803
 20
-241.3447045105009
 30
0.0
 11
414.9425865186074
 21
-241.6295896811408
 31
0.0
  0
LINE
  5
380
  8
PREDEFINITO
 10
414.9425865186074
 20
-241.6295896811408
 30
0.0
 11
414.6392728937931
 21
-241.9206850626218
 31
0.0
  0
LINE
  5
381
  8
PREDEFINITO
 10
414.6392728937931
 20
-241.9206850626218
 30
0.0
 11
414.3420116858381
 21
-242.2178962617555
 31
0.0
  0
LINE
  5
382
  8
PREDEFINITO
 10
414.3420116858381
 20
-242.2178962617555
 30
0.0
 11
414.0508953885444
 21
-242.5211288853541
 31
0.0
  0
LINE
  5
383
  8
PREDEFINITO
 10
414.0508953885444
 20
-242.5211288853541
 30
0.0
 11
413.7660164957133
 21
-242.8302885402297
 31
0.0
  0
LINE
  5
384
  8
PREDEFINITO
 10
413.7660164957133
 20
-242.8302885402297
 30
0.0
 11
413.4874675011463
 21
-243.1452808331937
 31
0.0
  0
LINE
  5
385
  8
PREDEFINITO
 10
413.4874675011463
 20
-243.1452808331937
 30
0.0
 11
413.2153408986451
 21
-243.4660113710578
 31
0.0
  0
LINE
  5
386
  8
PREDEFINITO
 10
413.2153408986451
 20
-243.4660113710578
 30
0.0
 11
412.9501325085309
 21
-243.7918797138702
 31
0.0
  0
LINE
  5
387
  8
PREDEFINITO
 10
412.9501325085309
 20
-243.7918797138702
 30
0.0
 11
412.6917255375456
 21
-244.1230001220295
 31
0.0
  0
LINE
  5
388
  8
PREDEFINITO
 10
412.6917255375456
 20
-244.1230001220295
 30
0.0
 11
412.4401956074894
 21
-244.4592647530366
 31
0.0
  0
LINE
  5
389
  8
PREDEFINITO
 10
412.4401956074894
 20
-244.4592647530366
 30
0.0
 11
412.1956183401626
 21
-244.8005657643915
 31
0.0
  0
LINE
  5
38A
  8
PREDEFINITO
 10
412.1956183401626
 20
-244.8005657643915
 30
0.0
 11
411.9580693573657
 21
-245.1467953135945
 31
0.0
  0
LINE
  5
38B
  8
PREDEFINITO
 10
411.9580693573657
 20
-245.1467953135945
 30
0.0
 11
411.7276242808987
 21
-245.4978455581461
 31
0.0
  0
LINE
  5
38C
  8
PREDEFINITO
 10
411.7276242808987
 20
-245.4978455581461
 30
0.0
 11
411.504358732562
 21
-245.8536086555469
 31
0.0
  0
LINE
  5
38D
  8
PREDEFINITO
 10
411.504358732562
 20
-245.8536086555469
 30
0.0
 11
411.1490910808538
 21
-246.4555129653864
 31
0.0
  0
LINE
  5
38E
  8
PREDEFINITO
 10
411.1490910808538
 20
-246.4555129653864
 30
0.0
 11
407.714385902111
 21
-245.4297825853263
 31
0.0
  0
LINE
  5
38F
  8
PREDEFINITO
 10
407.714385902111
 20
-245.4297825853263
 30
0.0
 11
404.2690464198029
 21
-244.4682590593787
 31
0.0
  0
LINE
  5
390
  8
PREDEFINITO
 10
404.2690464198029
 20
-244.4682590593787
 30
0.0
 11
400.813748701554
 21
-243.5713311502997
 31
0.0
  0
LINE
  5
391
  8
PREDEFINITO
 10
400.813748701554
 20
-243.5713311502997
 30
0.0
 11
397.3491755043537
 21
-242.7393625515946
 31
0.0
  0
LINE
  5
392
  8
PREDEFINITO
 10
397.3491755043537
 20
-242.7393625515946
 30
0.0
 11
393.876015837249
 21
-241.9726915220122
 31
0.0
  0
LINE
  5
393
  8
PREDEFINITO
 10
393.876015837249
 20
-241.9726915220122
 30
0.0
 11
390.3949645152572
 21
-241.2716305442722
 31
0.0
  0
LINE
  5
394
  8
PREDEFINITO
 10
390.3949645152572
 20
-241.2716305442722
 30
0.0
 11
386.9067217050947
 21
-240.6364660086584
 31
0.0
  0
LINE
  5
395
  8
PREDEFINITO
 10
386.9067217050947
 20
-240.6364660086584
 30
0.0
 11
383.4119924633251
 21
-240.0674579220712
 31
0.0
  0
LINE
  5
396
  8
PREDEFINITO
 10
383.4119924633251
 20
-240.0674579220712
 30
0.0
 11
379.9114862675622
 21
-239.5648396430943
 31
0.0
  0
LINE
  5
397
  8
PREDEFINITO
 10
379.9114862675622
 20
-239.5648396430943
 30
0.0
 11
376.4059165413675
 21
-239.1288176435684
 31
0.0
  0
LINE
  5
398
  8
PREDEFINITO
 10
376.4059165413675
 20
-239.1288176435684
 30
0.0
 11
372.8960001735074
 21
-238.759571297132
 31
0.0
  0
LINE
  5
399
  8
PREDEFINITO
 10
372.8960001735074
 20
-238.759571297132
 30
0.0
 11
369.3824570322415
 21
-238.4572526951312
 31
0.0
  0
LINE
  5
39A
  8
PREDEFINITO
 10
369.3824570322415
 20
-238.4572526951312
 30
0.0
 11
365.8660094753297
 21
-238.2219864902459
 31
0.0
  0
LINE
  5
39B
  8
PREDEFINITO
 10
365.8660094753297
 20
-238.2219864902459
 30
0.0
 11
362.3473818564571
 21
-238.0538697681388
 31
0.0
  0
LINE
  5
39C
  8
PREDEFINITO
 10
362.3473818564571
 20
-238.0538697681388
 30
0.0
 11
358.8273000287795
 21
-237.9529719473675
 31
0.0
  0
LINE
  5
39D
  8
PREDEFINITO
 10
358.8273000287795
 20
-237.9529719473675
 30
0.0
 11
355.3064908463052
 21
-237.9193347077576
 31
0.0
  0
LINE
  5
39E
  8
PREDEFINITO
 10
355.3064908463052
 20
-237.9193347077576
 30
0.0
 11
351.7856816638311
 21
-237.9529719473679
 31
0.0
  0
LINE
  5
39F
  8
PREDEFINITO
 10
351.7856816638311
 20
-237.9529719473679
 30
0.0
 11
348.2655998361536
 21
-238.053869768139
 31
0.0
  0
LINE
  5
3A0
  8
PREDEFINITO
 10
348.2655998361536
 20
-238.053869768139
 30
0.0
 11
344.7469722172809
 21
-238.221986490246
 31
0.0
  0
LINE
  5
3A1
  8
PREDEFINITO
 10
344.7469722172809
 20
-238.221986490246
 30
0.0
 11
341.2305246603691
 21
-238.4572526951313
 31
0.0
  0
LINE
  5
3A2
  8
PREDEFINITO
 10
341.2305246603691
 20
-238.4572526951313
 30
0.0
 11
337.7169815191032
 21
-238.7595712971324
 31
0.0
  0
LINE
  5
3A3
  8
PREDEFINITO
 10
337.7169815191032
 20
-238.7595712971324
 30
0.0
 11
334.2070651512431
 21
-239.1288176435685
 31
0.0
  0
LINE
  5
3A4
  8
PREDEFINITO
 10
334.2070651512431
 20
-239.1288176435685
 30
0.0
 11
330.7014954250485
 21
-239.5648396430947
 31
0.0
  0
LINE
  5
3A5
  8
PREDEFINITO
 10
137.5110465680024
 20
-175.815884621708
 30
0.0
 11
137.1648727441408
 21
-175.6073118591549
 31
0.0
  0
LINE
  5
3A6
  8
PREDEFINITO
 10
137.1648727441408
 20
-175.6073118591549
 30
0.0
 11
136.8150008615364
 21
-175.4057846173067
 31
0.0
  0
LINE
  5
3A7
  8
PREDEFINITO
 10
136.8150008615364
 20
-175.4057846173067
 30
0.0
 11
136.461227201358
 21
-175.2111882123409
 31
0.0
  0
LINE
  5
3A8
  8
PREDEFINITO
 10
136.461227201358
 20
-175.2111882123409
 30
0.0
 11
136.1033480447745
 21
-175.0234079604351
 31
0.0
  0
LINE
  5
3A9
  8
PREDEFINITO
 10
136.1033480447745
 20
-175.0234079604351
 30
0.0
 11
135.7412173933914
 21
-174.8423777428466
 31
0.0
  0
LINE
  5
3AA
  8
PREDEFINITO
 10
135.7412173933914
 20
-174.8423777428466
 30
0.0
 11
135.3759437636567
 21
-174.6686878893175
 31
0.0
  0
LINE
  5
3AB
  8
PREDEFINITO
 10
135.3759437636567
 20
-174.6686878893175
 30
0.0
 11
135.0073139351068
 21
-174.5022395810728
 31
0.0
  0
LINE
  5
3AC
  8
PREDEFINITO
 10
135.0073139351068
 20
-174.5022395810728
 30
0.0
 11
134.6351146872777
 21
-174.3429339993376
 31
0.0
  0
LINE
  5
3AD
  8
PREDEFINITO
 10
134.6351146872777
 20
-174.3429339993376
 30
0.0
 11
134.274580880065
 21
-174.1967790071517
 31
0.0
  0
LINE
  5
3AE
  8
PREDEFINITO
 10
134.274580880065
 20
-174.1967790071517
 30
0.0
 11
133.9116690250868
 21
-174.0576025184459
 31
0.0
  0
LINE
  5
3AF
  8
PREDEFINITO
 10
133.9116690250868
 20
-174.0576025184459
 30
0.0
 11
133.5461836768754
 21
-173.9253316987393
 31
0.0
  0
LINE
  5
3B0
  8
PREDEFINITO
 10
133.5461836768754
 20
-173.9253316987393
 30
0.0
 11
133.1779293899623
 21
-173.7998937135497
 31
0.0
  0
LINE
  5
3B1
  8
PREDEFINITO
 10
133.1779293899623
 20
-173.7998937135497
 30
0.0
 11
132.8068217136112
 21
-173.6812662163093
 31
0.0
  0
LINE
  5
3B2
  8
PREDEFINITO
 10
132.8068217136112
 20
-173.6812662163093
 30
0.0
 11
132.4338660579041
 21
-173.5697964034462
 31
0.0
  0
LINE
  5
3B3
  8
PREDEFINITO
 10
132.4338660579041
 20
-173.5697964034462
 30
0.0
 11
132.0588611364394
 21
-173.4654241530664
 31
0.0
  0
LINE
  5
3B4
  8
PREDEFINITO
 10
132.0588611364394
 20
-173.4654241530664
 30
0.0
 11
131.6816056628158
 21
-173.3680893432752
 31
0.0
  0
LINE
  5
3B5
  8
PREDEFINITO
 10
131.6816056628158
 20
-173.3680893432752
 30
0.0
 11
131.6816056628158
 21
-185.8028986843279
 31
0.0
  0
LINE
  5
3B6
  8
PREDEFINITO
 10
131.6816056628158
 20
-185.8028986843279
 30
0.0
 11
135.6816056628158
 21
-185.8028986843279
 31
0.0
  0
LINE
  5
3B7
  8
PREDEFINITO
 10
135.6816056628158
 20
-185.8028986843279
 30
0.0
 11
135.6816056628158
 21
-196.1533301425271
 31
0.0
  0
LINE
  5
3B8
  8
PREDEFINITO
 10
135.6816056628158
 20
-196.1533301425271
 30
0.0
 11
147.4879745708405
 21
-196.1533301425271
 31
0.0
  0
LINE
  5
3B9
  8
PREDEFINITO
 10
147.4879745708405
 20
-196.1533301425271
 30
0.0
 11
171.7433525872854
 21
-196.1533301425271
 31
0.0
  0
LINE
  5
3BA
  8
PREDEFINITO
 10
171.7433525872854
 20
-196.1533301425271
 30
0.0
 11
171.7433525872854
 21
-186.1532238755181
 31
0.0
  0
LINE
  5
3BB
  8
PREDEFINITO
 10
171.7433525872854
 20
-186.1532238755181
 30
0.0
 11
175.9433525872852
 21
-186.1532238755181
 31
0.0
  0
LINE
  5
3BC
  8
PREDEFINITO
 10
175.9433525872852
 20
-186.1532238755181
 30
0.0
 11
175.9433525872852
 21
-196.1533301425271
 31
0.0
  0
LINE
  5
3BD
  8
PREDEFINITO
 10
175.9433525872852
 20
-196.1533301425271
 30
0.0
 11
198.3445697708407
 21
-196.1533301425271
 31
0.0
  0
LINE
  5
3BE
  8
PREDEFINITO
 10
198.3445697708407
 20
-196.1533301425271
 30
0.0
 11
198.3445697708407
 21
-186.1532238755181
 31
0.0
  0
LINE
  5
3BF
  8
PREDEFINITO
 10
198.3445697708407
 20
-186.1532238755181
 30
0.0
 11
202.5445697708407
 21
-186.1532238755181
 31
0.0
  0
LINE
  5
3C0
  8
PREDEFINITO
 10
202.5445697708407
 20
-186.1532238755181
 30
0.0
 11
202.5445697708407
 21
-196.1533301425271
 31
0.0
  0
LINE
  5
3C1
  8
PREDEFINITO
 10
202.5445697708407
 20
-196.1533301425271
 30
0.0
 11
224.9457869543959
 21
-196.1533301425271
 31
0.0
  0
LINE
  5
3C2
  8
PREDEFINITO
 10
224.9457869543959
 20
-196.1533301425271
 30
0.0
 11
224.9457869543959
 21
-186.1532238755181
 31
0.0
  0
LINE
  5
3C3
  8
PREDEFINITO
 10
224.9457869543959
 20
-186.1532238755181
 30
0.0
 11
229.145786954396
 21
-186.1532238755181
 31
0.0
  0
LINE
  5
3C4
  8
PREDEFINITO
 10
229.145786954396
 20
-186.1532238755181
 30
0.0
 11
229.145786954396
 21
-196.1533301425271
 31
0.0
  0
LINE
  5
3C5
  8
PREDEFINITO
 10
229.145786954396
 20
-196.1533301425271
 30
0.0
 11
253.4011649708406
 21
-196.1533301425271
 31
0.0
  0
LINE
  5
3C6
  8
PREDEFINITO
 10
253.4011649708406
 20
-196.1533301425271
 30
0.0
 11
265.2075338788656
 21
-196.1533301425271
 31
0.0
  0
LINE
  5
3C7
  8
PREDEFINITO
 10
420.0694549543302
 20
-259.4428760226859
 30
0.0
 11
424.0706579364441
 21
-259.4428760226859
 31
0.0
  0
LINE
  5
3C8
  8
PREDEFINITO
 10
424.0706579364441
 20
-259.4428760226859
 30
0.0
 11
424.0694549543302
 21
-249.0924445644868
 31
0.0
  0
LINE
  5
3C9
  8
PREDEFINITO
 10
424.0694549543302
 20
-249.0924445644868
 30
0.0
 11
424.0694549543302
 21
-236.6576352234342
 31
0.0
  0
LINE
  5
3CA
  8
PREDEFINITO
 10
424.0694549543302
 20
-236.6576352234342
 30
0.0
 11
423.6921994807064
 21
-236.7549700332253
 31
0.0
  0
LINE
  5
3CB
  8
PREDEFINITO
 10
423.6921994807064
 20
-236.7549700332253
 30
0.0
 11
423.3171945592419
 21
-236.8593422836051
 31
0.0
  0
LINE
  5
3CC
  8
PREDEFINITO
 10
423.3171945592419
 20
-236.8593422836051
 30
0.0
 11
422.9442389035346
 21
-236.9708120964681
 31
0.0
  0
LINE
  5
3CD
  8
PREDEFINITO
 10
422.9442389035346
 20
-236.9708120964681
 30
0.0
 11
422.5731312271837
 21
-237.0894395937087
 31
0.0
  0
LINE
  5
3CE
  8
PREDEFINITO
 10
422.5731312271837
 20
-237.0894395937087
 30
0.0
 11
422.2048769402706
 21
-237.2148775788982
 31
0.0
  0
LINE
  5
3CF
  8
PREDEFINITO
 10
422.2048769402706
 20
-237.2148775788982
 30
0.0
 11
421.839391592059
 21
-237.3471483986049
 31
0.0
  0
LINE
  5
3D0
  8
PREDEFINITO
 10
421.839391592059
 20
-237.3471483986049
 30
0.0
 11
421.476479737081
 21
-237.4863248873104
 31
0.0
  0
LINE
  5
3D1
  8
PREDEFINITO
 10
421.476479737081
 20
-237.4863248873104
 30
0.0
 11
421.1159459298681
 21
-237.6324798794965
 31
0.0
  0
LINE
  5
3D2
  8
PREDEFINITO
 10
421.1159459298681
 20
-237.6324798794965
 30
0.0
 11
420.743746682039
 21
-237.7917854612318
 31
0.0
  0
LINE
  5
3D3
  8
PREDEFINITO
 10
420.743746682039
 20
-237.7917854612318
 30
0.0
 11
420.3751168534891
 21
-237.9582337694764
 31
0.0
  0
LINE
  5
3D4
  8
PREDEFINITO
 10
420.3751168534891
 20
-237.9582337694764
 30
0.0
 11
420.0098432237546
 21
-238.1319236230054
 31
0.0
  0
LINE
  5
3D5
  8
PREDEFINITO
 10
420.0098432237546
 20
-238.1319236230054
 30
0.0
 11
419.6477125723716
 21
-238.3129538405942
 31
0.0
  0
LINE
  5
3D6
  8
PREDEFINITO
 10
419.6477125723716
 20
-238.3129538405942
 30
0.0
 11
419.289833415788
 21
-238.5007340924997
 31
0.0
  0
LINE
  5
3D7
  8
PREDEFINITO
 10
235.5330434397926
 20
-177.9820846641134
 30
0.0
 11
232.0448006296301
 21
-177.3469201284994
 31
0.0
  0
LINE
  5
3D8
  8
PREDEFINITO
 10
232.0448006296301
 20
-177.3469201284994
 30
0.0
 11
228.5500713878604
 21
-176.7779120419123
 31
0.0
  0
LINE
  5
3D9
  8
PREDEFINITO
 10
228.5500713878604
 20
-176.7779120419123
 30
0.0
 11
225.0495651920975
 21
-176.2752937629355
 31
0.0
  0
LINE
  5
3DA
  8
PREDEFINITO
 10
225.0495651920975
 20
-176.2752937629355
 30
0.0
 11
221.5439954659029
 21
-175.8392717634094
 31
0.0
  0
LINE
  5
3DB
  8
PREDEFINITO
 10
221.5439954659029
 20
-175.8392717634094
 30
0.0
 11
218.0340790980428
 21
-175.4700254169732
 31
0.0
  0
LINE
  5
3DC
  8
PREDEFINITO
 10
218.0340790980428
 20
-175.4700254169732
 30
0.0
 11
214.5205359567769
 21
-175.1677068149723
 31
0.0
  0
LINE
  5
3DD
  8
PREDEFINITO
 10
214.5205359567769
 20
-175.1677068149723
 30
0.0
 11
211.0040883998651
 21
-174.932440610087
 31
0.0
  0
LINE
  5
3DE
  8
PREDEFINITO
 10
211.0040883998651
 20
-174.932440610087
 30
0.0
 11
207.4854607809925
 21
-174.7643238879799
 31
0.0
  0
LINE
  5
3DF
  8
PREDEFINITO
 10
207.4854607809925
 20
-174.7643238879799
 30
0.0
 11
203.9653789533149
 21
-174.6634260672087
 31
0.0
  0
LINE
  5
3E0
  8
PREDEFINITO
 10
203.9653789533149
 20
-174.6634260672087
 30
0.0
 11
200.4445697708406
 21
-174.6297888275986
 31
0.0
  0
LINE
  5
3E1
  8
PREDEFINITO
 10
200.4445697708406
 20
-174.6297888275986
 30
0.0
 11
196.9237605883665
 21
-174.6634260672089
 31
0.0
  0
LINE
  5
3E2
  8
PREDEFINITO
 10
196.9237605883665
 20
-174.6634260672089
 30
0.0
 11
193.4036787606889
 21
-174.7643238879801
 31
0.0
  0
LINE
  5
3E3
  8
PREDEFINITO
 10
193.4036787606889
 20
-174.7643238879801
 30
0.0
 11
189.8850511418163
 21
-174.932440610087
 31
0.0
  0
LINE
  5
3E4
  8
PREDEFINITO
 10
189.8850511418163
 20
-174.932440610087
 30
0.0
 11
186.3686035849045
 21
-175.1677068149725
 31
0.0
  0
LINE
  5
3E5
  8
PREDEFINITO
 10
186.3686035849045
 20
-175.1677068149725
 30
0.0
 11
182.8550604436386
 21
-175.4700254169734
 31
0.0
  0
LINE
  5
3E6
  8
PREDEFINITO
 10
182.8550604436386
 20
-175.4700254169734
 30
0.0
 11
179.3451440757785
 21
-175.8392717634096
 31
0.0
  0
LINE
  5
3E7
  8
PREDEFINITO
 10
179.3451440757785
 20
-175.8392717634096
 30
0.0
 11
175.8395743495839
 21
-176.2752937629359
 31
0.0
  0
LINE
  5
3E8
  8
PREDEFINITO
 10
175.8395743495839
 20
-176.2752937629359
 30
0.0
 11
172.339068153821
 21
-176.7779120419127
 31
0.0
  0
LINE
  5
3E9
  8
PREDEFINITO
 10
172.339068153821
 20
-176.7779120419127
 30
0.0
 11
168.8443389120513
 21
-177.3469201284994
 31
0.0
  0
LINE
  5
3EA
  8
PREDEFINITO
 10
168.8443389120513
 20
-177.3469201284994
 30
0.0
 11
165.3560961018888
 21
-177.9820846641134
 31
0.0
  0
LINE
  5
3EB
  8
PREDEFINITO
 10
165.3560961018888
 20
-177.9820846641134
 30
0.0
 11
161.875044779897
 21
-178.6831456418533
 31
0.0
  0
LINE
  5
3EC
  8
PREDEFINITO
 10
161.875044779897
 20
-178.6831456418533
 30
0.0
 11
158.4018851127923
 21
-179.449816671436
 31
0.0
  0
LINE
  5
3ED
  8
PREDEFINITO
 10
158.4018851127923
 20
-179.449816671436
 30
0.0
 11
154.937311915592
 21
-180.2817852701411
 31
0.0
  0
LINE
  5
3EE
  8
PREDEFINITO
 10
154.937311915592
 20
-180.2817852701411
 30
0.0
 11
151.4820141973429
 21
-181.17871317922
 31
0.0
  0
LINE
  5
3EF
  8
PREDEFINITO
 10
151.4820141973429
 20
-181.17871317922
 30
0.0
 11
148.0366747150351
 21
-182.1402367051678
 31
0.0
  0
LINE
  5
3F0
  8
PREDEFINITO
 10
148.0366747150351
 20
-182.1402367051678
 30
0.0
 11
144.6019695362924
 21
-183.1659670852277
 31
0.0
  0
LINE
  5
3F1
  8
PREDEFINITO
 10
144.6019695362924
 20
-183.1659670852277
 30
0.0
 11
144.2467018845841
 21
-182.564062775388
 31
0.0
  0
LINE
  5
3F2
  8
PREDEFINITO
 10
144.2467018845841
 20
-182.564062775388
 30
0.0
 11
144.0234363362474
 21
-182.2082996779872
 31
0.0
  0
LINE
  5
3F3
  8
PREDEFINITO
 10
144.0234363362474
 20
-182.2082996779872
 30
0.0
 11
143.7929912597803
 21
-181.8572494334356
 31
0.0
  0
LINE
  5
3F4
  8
PREDEFINITO
 10
143.7929912597803
 20
-181.8572494334356
 30
0.0
 11
143.5554422769832
 21
-181.5110198842326
 31
0.0
  0
LINE
  5
3F5
  8
PREDEFINITO
 10
143.5554422769832
 20
-181.5110198842326
 30
0.0
 11
143.3108650096567
 21
-181.1697188728777
 31
0.0
  0
LINE
  5
3F6
  8
PREDEFINITO
 10
143.3108650096567
 20
-181.1697188728777
 30
0.0
 11
143.0593350796004
 21
-180.8334542418706
 31
0.0
  0
LINE
  5
3F7
  8
PREDEFINITO
 10
143.0593350796004
 20
-180.8334542418706
 30
0.0
 11
142.8009281086151
 21
-180.5023338337112
 31
0.0
  0
LINE
  5
3F8
  8
PREDEFINITO
 10
142.8009281086151
 20
-180.5023338337112
 30
0.0
 11
142.535719718501
 21
-180.1764654908991
 31
0.0
  0
LINE
  5
3F9
  8
PREDEFINITO
 10
142.535719718501
 20
-180.1764654908991
 30
0.0
 11
142.2635931159995
 21
-179.8557349530348
 31
0.0
  0
LINE
  5
3FA
  8
PREDEFINITO
 10
142.2635931159995
 20
-179.8557349530348
 30
0.0
 11
141.9850441214327
 21
-179.5407426600707
 31
0.0
  0
LINE
  5
3FB
  8
PREDEFINITO
 10
141.9850441214327
 20
-179.5407426600707
 30
0.0
 11
141.7001652286016
 21
-179.2315830051953
 31
0.0
  0
LINE
  5
3FC
  8
PREDEFINITO
 10
141.7001652286016
 20
-179.2315830051953
 30
0.0
 11
141.409048931308
 21
-178.9283503815967
 31
0.0
  0
LINE
  5
3FD
  8
PREDEFINITO
 10
141.409048931308
 20
-178.9283503815967
 30
0.0
 11
141.111787723353
 21
-178.6311391824628
 31
0.0
  0
LINE
  5
3FE
  8
PREDEFINITO
 10
141.111787723353
 20
-178.6311391824628
 30
0.0
 11
140.8084740985384
 21
-178.340043800982
 31
0.0
  0
LINE
  5
3FF
  8
PREDEFINITO
 10
140.8084740985384
 20
-178.340043800982
 30
0.0
 11
140.4992005506658
 21
-178.055158630342
 31
0.0
  0
LINE
  5
400
  8
PREDEFINITO
 10
140.4992005506658
 20
-178.055158630342
 30
0.0
 11
140.1840595735363
 21
-177.7765780637318
 31
0.0
  0
LINE
  5
401
  8
PREDEFINITO
 10
140.1840595735363
 20
-177.7765780637318
 30
0.0
 11
139.8676786850764
 21
-177.5081498108076
 31
0.0
  0
LINE
  5
402
  8
PREDEFINITO
 10
139.8676786850764
 20
-177.5081498108076
 30
0.0
 11
139.546268456856
 21
-177.2464327486518
 31
0.0
  0
LINE
  5
403
  8
PREDEFINITO
 10
139.546268456856
 20
-177.2464327486518
 30
0.0
 11
139.2196311782665
 21
-176.9912691860364
 31
0.0
  0
LINE
  5
404
  8
PREDEFINITO
 10
139.2196311782665
 20
-176.9912691860364
 30
0.0
 11
138.8875691386992
 21
-176.7425014317332
 31
0.0
  0
LINE
  5
405
  8
PREDEFINITO
 10
138.8875691386992
 20
-176.7425014317332
 30
0.0
 11
138.5503633539324
 21
-176.5003332678887
 31
0.0
  0
LINE
  5
406
  8
PREDEFINITO
 10
138.5503633539324
 20
-176.5003332678887
 30
0.0
 11
138.2086811048795
 21
-176.2652687248834
 31
0.0
  0
LINE
  5
407
  8
PREDEFINITO
 10
138.2086811048795
 20
-176.2652687248834
 30
0.0
 11
137.8623122300625
 21
-176.0371663327965
 31
0.0
  0
LINE
  5
408
  8
PREDEFINITO
 10
137.8623122300625
 20
-176.0371663327965
 30
0.0
 11
137.5110465680024
 21
-175.815884621708
 31
0.0
  0
LINE
  5
409
  8
PREDEFINITO
 10
252.4261745789875
 20
-259.4428760226859
 30
0.0
 11
264.2325434870125
 21
-259.4428760226859
 31
0.0
  0
LINE
  5
40A
  8
PREDEFINITO
 10
265.2075338788656
 20
-196.1533301425271
 30
0.0
 11
269.2087368609795
 21
-196.1533301425271
 31
0.0
  0
LINE
  5
40B
  8
PREDEFINITO
 10
269.2087368609795
 20
-196.1533301425271
 30
0.0
 11
269.2075338788656
 21
-185.8028986843279
 31
0.0
  0
LINE
  5
40C
  8
PREDEFINITO
 10
269.2075338788656
 20
-185.8028986843279
 30
0.0
 11
269.2075338788656
 21
-173.3680893432752
 31
0.0
  0
LINE
  5
40D
  8
PREDEFINITO
 10
269.2075338788656
 20
-173.3680893432752
 30
0.0
 11
268.8302784052418
 21
-173.4654241530664
 31
0.0
  0
LINE
  5
40E
  8
PREDEFINITO
 10
268.8302784052418
 20
-173.4654241530664
 30
0.0
 11
268.4552734837773
 21
-173.5697964034462
 31
0.0
  0
LINE
  5
40F
  8
PREDEFINITO
 10
268.4552734837773
 20
-173.5697964034462
 30
0.0
 11
268.08231782807
 21
-173.6812662163093
 31
0.0
  0
LINE
  5
410
  8
PREDEFINITO
 10
268.08231782807
 20
-173.6812662163093
 30
0.0
 11
267.711210151719
 21
-173.7998937135497
 31
0.0
  0
LINE
  5
411
  8
PREDEFINITO
 10
267.711210151719
 20
-173.7998937135497
 30
0.0
 11
267.342955864806
 21
-173.9253316987393
 31
0.0
  0
LINE
  5
412
  8
PREDEFINITO
 10
267.342955864806
 20
-173.9253316987393
 30
0.0
 11
266.9774705165943
 21
-174.0576025184459
 31
0.0
  0
LINE
  5
413
  8
PREDEFINITO
 10
266.9774705165943
 20
-174.0576025184459
 30
0.0
 11
266.6145586616164
 21
-174.1967790071517
 31
0.0
  0
LINE
  5
414
  8
PREDEFINITO
 10
266.6145586616164
 20
-174.1967790071517
 30
0.0
 11
266.2540248544034
 21
-174.3429339993376
 31
0.0
  0
LINE
  5
415
  8
PREDEFINITO
 10
266.2540248544034
 20
-174.3429339993376
 30
0.0
 11
265.8818256065744
 21
-174.5022395810728
 31
0.0
  0
LINE
  5
416
  8
PREDEFINITO
 10
265.8818256065744
 20
-174.5022395810728
 30
0.0
 11
265.5131957780244
 21
-174.6686878893175
 31
0.0
  0
LINE
  5
417
  8
PREDEFINITO
 10
265.5131957780244
 20
-174.6686878893175
 30
0.0
 11
265.14792214829
 21
-174.8423777428466
 31
0.0
  0
LINE
  5
418
  8
PREDEFINITO
 10
265.14792214829
 20
-174.8423777428466
 30
0.0
 11
264.7857914969069
 21
-175.0234079604353
 31
0.0
  0
LINE
  5
419
  8
PREDEFINITO
 10
264.7857914969069
 20
-175.0234079604353
 30
0.0
 11
264.4279123403234
 21
-175.2111882123409
 31
0.0
  0
LINE
  5
41A
  8
PREDEFINITO
 10
264.4279123403234
 20
-175.2111882123409
 30
0.0
 11
264.0741386801448
 21
-175.4057846173067
 31
0.0
  0
LINE
  5
41B
  8
PREDEFINITO
 10
264.0741386801448
 20
-175.4057846173067
 30
0.0
 11
263.7242667975403
 21
-175.6073118591549
 31
0.0
  0
LINE
  5
41C
  8
PREDEFINITO
 10
263.7242667975403
 20
-175.6073118591549
 30
0.0
 11
263.378092973679
 21
-175.815884621708
 31
0.0
  0
LINE
  5
41D
  8
PREDEFINITO
 10
263.378092973679
 20
-175.815884621708
 30
0.0
 11
263.0268273116189
 21
-176.0371663327965
 31
0.0
  0
LINE
  5
41E
  8
PREDEFINITO
 10
263.0268273116189
 20
-176.0371663327965
 30
0.0
 11
262.6804584368016
 21
-176.2652687248834
 31
0.0
  0
LINE
  5
41F
  8
PREDEFINITO
 10
262.6804584368016
 20
-176.2652687248834
 30
0.0
 11
262.3387761877488
 21
-176.5003332678887
 31
0.0
  0
LINE
  5
420
  8
PREDEFINITO
 10
262.3387761877488
 20
-176.5003332678887
 30
0.0
 11
262.0015704029819
 21
-176.7425014317332
 31
0.0
  0
LINE
  5
421
  8
PREDEFINITO
 10
262.0015704029819
 20
-176.7425014317332
 30
0.0
 11
261.6695083634149
 21
-176.9912691860364
 31
0.0
  0
LINE
  5
422
  8
PREDEFINITO
 10
261.6695083634149
 20
-176.9912691860364
 30
0.0
 11
261.3428710848254
 21
-177.2464327486518
 31
0.0
  0
LINE
  5
423
  8
PREDEFINITO
 10
261.3428710848254
 20
-177.2464327486518
 30
0.0
 11
261.0214608566047
 21
-177.5081498108076
 31
0.0
  0
LINE
  5
424
  8
PREDEFINITO
 10
261.0214608566047
 20
-177.5081498108076
 30
0.0
 11
260.7050799681448
 21
-177.7765780637318
 31
0.0
  0
LINE
  5
425
  8
PREDEFINITO
 10
260.7050799681448
 20
-177.7765780637318
 30
0.0
 11
260.3899389910156
 21
-178.055158630342
 31
0.0
  0
LINE
  5
426
  8
PREDEFINITO
 10
260.3899389910156
 20
-178.055158630342
 30
0.0
 11
260.0806654431428
 21
-178.340043800982
 31
0.0
  0
LINE
  5
427
  8
PREDEFINITO
 10
260.0806654431428
 20
-178.340043800982
 30
0.0
 11
259.7773518183284
 21
-178.6311391824628
 31
0.0
  0
LINE
  5
428
  8
PREDEFINITO
 10
259.7773518183284
 20
-178.6311391824628
 30
0.0
 11
259.4800906103734
 21
-178.9283503815967
 31
0.0
  0
LINE
  5
429
  8
PREDEFINITO
 10
259.4800906103734
 20
-178.9283503815967
 30
0.0
 11
259.1889743130798
 21
-179.2315830051953
 31
0.0
  0
LINE
  5
42A
  8
PREDEFINITO
 10
259.1889743130798
 20
-179.2315830051953
 30
0.0
 11
258.9040954202487
 21
-179.5407426600707
 31
0.0
  0
LINE
  5
42B
  8
PREDEFINITO
 10
258.9040954202487
 20
-179.5407426600707
 30
0.0
 11
258.6255464256816
 21
-179.8557349530348
 31
0.0
  0
LINE
  5
42C
  8
PREDEFINITO
 10
258.6255464256816
 20
-179.8557349530348
 30
0.0
 11
258.3534198231804
 21
-180.1764654908991
 31
0.0
  0
LINE
  5
42D
  8
PREDEFINITO
 10
258.3534198231804
 20
-180.1764654908991
 30
0.0
 11
258.0882114330663
 21
-180.5023338337112
 31
0.0
  0
LINE
  5
42E
  8
PREDEFINITO
 10
258.0882114330663
 20
-180.5023338337112
 30
0.0
 11
257.829804462081
 21
-180.8334542418706
 31
0.0
  0
LINE
  5
42F
  8
PREDEFINITO
 10
257.829804462081
 20
-180.8334542418706
 30
0.0
 11
257.5782745320247
 21
-181.1697188728777
 31
0.0
  0
LINE
  5
430
  8
PREDEFINITO
 10
257.5782745320247
 20
-181.1697188728777
 30
0.0
 11
257.3336972646979
 21
-181.5110198842326
 31
0.0
  0
LINE
  5
431
  8
PREDEFINITO
 10
257.3336972646979
 20
-181.5110198842326
 30
0.0
 11
257.0961482819012
 21
-181.8572494334356
 31
0.0
  0
LINE
  5
432
  8
PREDEFINITO
 10
257.0961482819012
 20
-181.8572494334356
 30
0.0
 11
256.865703205434
 21
-182.2082996779872
 31
0.0
  0
LINE
  5
433
  8
PREDEFINITO
 10
256.865703205434
 20
-182.2082996779872
 30
0.0
 11
256.6424376570973
 21
-182.564062775388
 31
0.0
  0
LINE
  5
434
  8
PREDEFINITO
 10
256.6424376570973
 20
-182.564062775388
 30
0.0
 11
256.2871700053892
 21
-183.1659670852275
 31
0.0
  0
LINE
  5
435
  8
PREDEFINITO
 10
256.2871700053892
 20
-183.1659670852275
 30
0.0
 11
252.8524648266463
 21
-182.1402367051675
 31
0.0
  0
LINE
  5
436
  8
PREDEFINITO
 10
252.8524648266463
 20
-182.1402367051675
 30
0.0
 11
249.4071253443382
 21
-181.1787131792198
 31
0.0
  0
LINE
  5
437
  8
PREDEFINITO
 10
249.4071253443382
 20
-181.1787131792198
 30
0.0
 11
245.9518276260894
 21
-180.2817852701409
 31
0.0
  0
LINE
  5
438
  8
PREDEFINITO
 10
245.9518276260894
 20
-180.2817852701409
 30
0.0
 11
242.4872544288891
 21
-179.4498166714357
 31
0.0
  0
LINE
  5
439
  8
PREDEFINITO
 10
242.4872544288891
 20
-179.4498166714357
 30
0.0
 11
239.0140947617844
 21
-178.6831456418533
 31
0.0
  0
LINE
  5
43A
  8
PREDEFINITO
 10
239.0140947617844
 20
-178.6831456418533
 30
0.0
 11
235.5330434397926
 21
-177.9820846641134
 31
0.0
  0
LINE
  5
43B
  8
PREDEFINITO
 10
141.825937716762
 20
-243.7918797138702
 30
0.0
 11
141.5607293266478
 21
-243.4660113710578
 31
0.0
  0
LINE
  5
43C
  8
PREDEFINITO
 10
141.5607293266478
 20
-243.4660113710578
 30
0.0
 11
141.2886027241464
 21
-243.1452808331937
 31
0.0
  0
LINE
  5
43D
  8
PREDEFINITO
 10
141.2886027241464
 20
-243.1452808331937
 30
0.0
 11
141.0100537295796
 21
-242.8302885402297
 31
0.0
  0
LINE
  5
43E
  8
PREDEFINITO
 10
141.0100537295796
 20
-242.8302885402297
 30
0.0
 11
140.7251748367485
 21
-242.5211288853541
 31
0.0
  0
LINE
  5
43F
  8
PREDEFINITO
 10
140.7251748367485
 20
-242.5211288853541
 30
0.0
 11
140.4340585394548
 21
-242.2178962617555
 31
0.0
  0
LINE
  5
440
  8
PREDEFINITO
 10
140.4340585394548
 20
-242.2178962617555
 30
0.0
 11
140.1367973314998
 21
-241.9206850626218
 31
0.0
  0
LINE
  5
441
  8
PREDEFINITO
 10
140.1367973314998
 20
-241.9206850626218
 30
0.0
 11
139.8334837066853
 21
-241.6295896811408
 31
0.0
  0
LINE
  5
442
  8
PREDEFINITO
 10
139.8334837066853
 20
-241.6295896811408
 30
0.0
 11
139.5242101588127
 21
-241.3447045105009
 31
0.0
  0
LINE
  5
443
  8
PREDEFINITO
 10
139.5242101588127
 20
-241.3447045105009
 30
0.0
 11
139.2090691816832
 21
-241.0661239438905
 31
0.0
  0
LINE
  5
444
  8
PREDEFINITO
 10
139.2090691816832
 20
-241.0661239438905
 30
0.0
 11
138.8926882932233
 21
-240.7976956909665
 31
0.0
  0
LINE
  5
445
  8
PREDEFINITO
 10
138.8926882932233
 20
-240.7976956909665
 30
0.0
 11
138.5712780650029
 21
-240.5359786288107
 31
0.0
  0
LINE
  5
446
  8
PREDEFINITO
 10
138.5712780650029
 20
-240.5359786288107
 30
0.0
 11
138.2446407864134
 21
-240.2808150661953
 31
0.0
  0
LINE
  5
447
  8
PREDEFINITO
 10
138.2446407864134
 20
-240.2808150661953
 30
0.0
 11
137.9125787468461
 21
-240.0320473118921
 31
0.0
  0
LINE
  5
448
  8
PREDEFINITO
 10
137.9125787468461
 20
-240.0320473118921
 30
0.0
 11
137.5753729620793
 21
-239.7898791480475
 31
0.0
  0
LINE
  5
449
  8
PREDEFINITO
 10
137.5753729620793
 20
-239.7898791480475
 30
0.0
 11
137.2336907130264
 21
-239.5548146050423
 31
0.0
  0
LINE
  5
44A
  8
PREDEFINITO
 10
137.2336907130264
 20
-239.5548146050423
 30
0.0
 11
136.8873218382094
 21
-239.3267122129553
 31
0.0
  0
LINE
  5
44B
  8
PREDEFINITO
 10
136.8873218382094
 20
-239.3267122129553
 30
0.0
 11
136.5360561761493
 21
-239.1054305018669
 31
0.0
  0
LINE
  5
44C
  8
PREDEFINITO
 10
136.5360561761493
 20
-239.1054305018669
 30
0.0
 11
136.1898823522877
 21
-238.8968577393138
 31
0.0
  0
LINE
  5
44D
  8
PREDEFINITO
 10
136.1898823522877
 20
-238.8968577393138
 30
0.0
 11
135.8400104696832
 21
-238.6953304974655
 31
0.0
  0
LINE
  5
44E
  8
PREDEFINITO
 10
135.8400104696832
 20
-238.6953304974655
 30
0.0
 11
135.4862368095049
 21
-238.5007340924997
 31
0.0
  0
LINE
  5
44F
  8
PREDEFINITO
 10
135.4862368095049
 20
-238.5007340924997
 30
0.0
 11
135.1283576529214
 21
-238.3129538405939
 31
0.0
  0
LINE
  5
450
  8
PREDEFINITO
 10
135.1283576529214
 20
-238.3129538405939
 30
0.0
 11
134.7662270015383
 21
-238.1319236230054
 31
0.0
  0
LINE
  5
451
  8
PREDEFINITO
 10
134.7662270015383
 20
-238.1319236230054
 30
0.0
 11
134.4009533718036
 21
-237.9582337694764
 31
0.0
  0
LINE
  5
452
  8
PREDEFINITO
 10
134.4009533718036
 20
-237.9582337694764
 30
0.0
 11
134.0323235432537
 21
-237.7917854612318
 31
0.0
  0
LINE
  5
453
  8
PREDEFINITO
 10
134.0323235432537
 20
-237.7917854612318
 30
0.0
 11
133.6601242954246
 21
-237.6324798794964
 31
0.0
  0
LINE
  5
454
  8
PREDEFINITO
 10
133.6601242954246
 20
-237.6324798794964
 30
0.0
 11
133.2995904882119
 21
-237.4863248873104
 31
0.0
  0
LINE
  5
455
  8
PREDEFINITO
 10
133.2995904882119
 20
-237.4863248873104
 30
0.0
 11
132.9366786332337
 21
-237.3471483986049
 31
0.0
  0
LINE
  5
456
  8
PREDEFINITO
 10
132.9366786332337
 20
-237.3471483986049
 30
0.0
 11
132.5711932850223
 21
-237.2148775788982
 31
0.0
  0
LINE
  5
457
  8
PREDEFINITO
 10
132.5711932850223
 20
-237.2148775788982
 30
0.0
 11
132.2029389981092
 21
-237.0894395937087
 31
0.0
  0
LINE
  5
458
  8
PREDEFINITO
 10
132.2029389981092
 20
-237.0894395937087
 30
0.0
 11
131.8318313217581
 21
-236.9708120964681
 31
0.0
  0
LINE
  5
459
  8
PREDEFINITO
 10
131.8318313217581
 20
-236.9708120964681
 30
0.0
 11
131.458875666051
 21
-236.8593422836051
 31
0.0
  0
LINE
  5
45A
  8
PREDEFINITO
 10
131.458875666051
 20
-236.8593422836051
 30
0.0
 11
131.0838707445862
 21
-236.7549700332253
 31
0.0
  0
LINE
  5
45B
  8
PREDEFINITO
 10
131.0838707445862
 20
-236.7549700332253
 30
0.0
 11
130.7066152709627
 21
-236.6576352234342
 31
0.0
  0
LINE
  5
45C
  8
PREDEFINITO
 10
130.7066152709627
 20
-236.6576352234342
 30
0.0
 11
130.7066152709627
 21
-249.0924445644868
 31
0.0
  0
LINE
  5
45D
  8
PREDEFINITO
 10
130.7066152709627
 20
-249.0924445644868
 30
0.0
 11
134.7066152709627
 21
-249.0924445644868
 31
0.0
  0
LINE
  5
45E
  8
PREDEFINITO
 10
134.7066152709627
 20
-249.0924445644868
 30
0.0
 11
134.7066152709627
 21
-259.4428760226859
 31
0.0
  0
LINE
  5
45F
  8
PREDEFINITO
 10
134.7066152709627
 20
-259.4428760226859
 30
0.0
 11
146.5129841789874
 21
-259.4428760226859
 31
0.0
  0
LINE
  5
460
  8
PREDEFINITO
 10
146.5129841789874
 20
-259.4428760226859
 30
0.0
 11
170.7683621954323
 21
-259.4428760226859
 31
0.0
  0
LINE
  5
461
  8
PREDEFINITO
 10
170.7683621954323
 20
-259.4428760226859
 30
0.0
 11
170.7683621954323
 21
-249.442769755677
 31
0.0
  0
LINE
  5
462
  8
PREDEFINITO
 10
170.7683621954323
 20
-249.442769755677
 30
0.0
 11
174.9683621954321
 21
-249.442769755677
 31
0.0
  0
LINE
  5
463
  8
PREDEFINITO
 10
174.9683621954321
 20
-249.442769755677
 30
0.0
 11
174.9683621954321
 21
-259.4428760226859
 31
0.0
  0
LINE
  5
464
  8
PREDEFINITO
 10
174.9683621954321
 20
-259.4428760226859
 30
0.0
 11
197.3695793789876
 21
-259.4428760226859
 31
0.0
  0
LINE
  5
465
  8
PREDEFINITO
 10
197.3695793789876
 20
-259.4428760226859
 30
0.0
 11
197.3695793789876
 21
-249.442769755677
 31
0.0
  0
LINE
  5
466
  8
PREDEFINITO
 10
197.3695793789876
 20
-249.442769755677
 30
0.0
 11
201.5695793789876
 21
-249.442769755677
 31
0.0
  0
LINE
  5
467
  8
PREDEFINITO
 10
201.5695793789876
 20
-249.442769755677
 30
0.0
 11
201.5695793789876
 21
-259.4428760226859
 31
0.0
  0
LINE
  5
468
  8
PREDEFINITO
 10
201.5695793789876
 20
-259.4428760226859
 30
0.0
 11
223.9707965625428
 21
-259.4428760226859
 31
0.0
  0
LINE
  5
469
  8
PREDEFINITO
 10
223.9707965625428
 20
-259.4428760226859
 30
0.0
 11
223.9707965625428
 21
-249.442769755677
 31
0.0
  0
LINE
  5
46A
  8
PREDEFINITO
 10
223.9707965625428
 20
-249.442769755677
 30
0.0
 11
228.1707965625429
 21
-249.442769755677
 31
0.0
  0
LINE
  5
46B
  8
PREDEFINITO
 10
228.1707965625429
 20
-249.442769755677
 30
0.0
 11
228.1707965625429
 21
-259.4428760226859
 31
0.0
  0
LINE
  5
46C
  8
PREDEFINITO
 10
228.1707965625429
 20
-259.4428760226859
 30
0.0
 11
252.4261745789875
 21
-259.4428760226859
 31
0.0
  0
LINE
  5
46D
  8
PREDEFINITO
 10
258.2139839212266
 20
-242.5211288853541
 30
0.0
 11
257.9291050283955
 21
-242.8302885402297
 31
0.0
  0
LINE
  5
46E
  8
PREDEFINITO
 10
257.9291050283955
 20
-242.8302885402297
 30
0.0
 11
257.6505560338285
 21
-243.1452808331937
 31
0.0
  0
LINE
  5
46F
  8
PREDEFINITO
 10
257.6505560338285
 20
-243.1452808331937
 30
0.0
 11
257.3784294313273
 21
-243.4660113710578
 31
0.0
  0
LINE
  5
470
  8
PREDEFINITO
 10
257.3784294313273
 20
-243.4660113710578
 30
0.0
 11
257.1132210412133
 21
-243.7918797138702
 31
0.0
  0
LINE
  5
471
  8
PREDEFINITO
 10
257.1132210412133
 20
-243.7918797138702
 30
0.0
 11
256.8548140702278
 21
-244.1230001220295
 31
0.0
  0
LINE
  5
472
  8
PREDEFINITO
 10
256.8548140702278
 20
-244.1230001220295
 30
0.0
 11
256.6032841401716
 21
-244.4592647530366
 31
0.0
  0
LINE
  5
473
  8
PREDEFINITO
 10
256.6032841401716
 20
-244.4592647530366
 30
0.0
 11
256.3587068728448
 21
-244.8005657643915
 31
0.0
  0
LINE
  5
474
  8
PREDEFINITO
 10
256.3587068728448
 20
-244.8005657643915
 30
0.0
 11
256.121157890048
 21
-245.1467953135945
 31
0.0
  0
LINE
  5
475
  8
PREDEFINITO
 10
256.121157890048
 20
-245.1467953135945
 30
0.0
 11
255.8907128135809
 21
-245.4978455581461
 31
0.0
  0
LINE
  5
476
  8
PREDEFINITO
 10
255.8907128135809
 20
-245.4978455581461
 30
0.0
 11
255.6674472652442
 21
-245.8536086555469
 31
0.0
  0
LINE
  5
477
  8
PREDEFINITO
 10
255.6674472652442
 20
-245.8536086555469
 30
0.0
 11
255.3121796135361
 21
-246.4555129653864
 31
0.0
  0
LINE
  5
478
  8
PREDEFINITO
 10
255.3121796135361
 20
-246.4555129653864
 30
0.0
 11
251.8774744347932
 21
-245.4297825853263
 31
0.0
  0
LINE
  5
479
  8
PREDEFINITO
 10
251.8774744347932
 20
-245.4297825853263
 30
0.0
 11
248.4321349524851
 21
-244.4682590593787
 31
0.0
  0
LINE
  5
47A
  8
PREDEFINITO
 10
248.4321349524851
 20
-244.4682590593787
 30
0.0
 11
244.9768372342362
 21
-243.5713311502997
 31
0.0
  0
LINE
  5
47B
  8
PREDEFINITO
 10
244.9768372342362
 20
-243.5713311502997
 30
0.0
 11
241.512264037036
 21
-242.7393625515946
 31
0.0
  0
LINE
  5
47C
  8
PREDEFINITO
 10
241.512264037036
 20
-242.7393625515946
 30
0.0
 11
238.0391043699313
 21
-241.9726915220122
 31
0.0
  0
LINE
  5
47D
  8
PREDEFINITO
 10
238.0391043699313
 20
-241.9726915220122
 30
0.0
 11
234.5580530479395
 21
-241.2716305442722
 31
0.0
  0
LINE
  5
47E
  8
PREDEFINITO
 10
234.5580530479395
 20
-241.2716305442722
 30
0.0
 11
231.0698102377769
 21
-240.6364660086584
 31
0.0
  0
LINE
  5
47F
  8
PREDEFINITO
 10
231.0698102377769
 20
-240.6364660086584
 30
0.0
 11
227.5750809960073
 21
-240.0674579220712
 31
0.0
  0
LINE
  5
480
  8
PREDEFINITO
 10
227.5750809960073
 20
-240.0674579220712
 30
0.0
 11
224.0745748002444
 21
-239.5648396430943
 31
0.0
  0
LINE
  5
481
  8
PREDEFINITO
 10
224.0745748002444
 20
-239.5648396430943
 30
0.0
 11
220.5690050740498
 21
-239.1288176435684
 31
0.0
  0
LINE
  5
482
  8
PREDEFINITO
 10
220.5690050740498
 20
-239.1288176435684
 30
0.0
 11
217.0590887061897
 21
-238.759571297132
 31
0.0
  0
LINE
  5
483
  8
PREDEFINITO
 10
217.0590887061897
 20
-238.759571297132
 30
0.0
 11
213.5455455649238
 21
-238.4572526951312
 31
0.0
  0
LINE
  5
484
  8
PREDEFINITO
 10
213.5455455649238
 20
-238.4572526951312
 30
0.0
 11
210.029098008012
 21
-238.2219864902459
 31
0.0
  0
LINE
  5
485
  8
PREDEFINITO
 10
210.029098008012
 20
-238.2219864902459
 30
0.0
 11
206.5104703891394
 21
-238.0538697681388
 31
0.0
  0
LINE
  5
486
  8
PREDEFINITO
 10
206.5104703891394
 20
-238.0538697681388
 30
0.0
 11
202.9903885614618
 21
-237.9529719473675
 31
0.0
  0
LINE
  5
487
  8
PREDEFINITO
 10
202.9903885614618
 20
-237.9529719473675
 30
0.0
 11
199.4695793789875
 21
-237.9193347077576
 31
0.0
  0
LINE
  5
488
  8
PREDEFINITO
 10
199.4695793789875
 20
-237.9193347077576
 30
0.0
 11
195.9487701965134
 21
-237.9529719473679
 31
0.0
  0
LINE
  5
489
  8
PREDEFINITO
 10
195.9487701965134
 20
-237.9529719473679
 30
0.0
 11
192.4286883688358
 21
-238.053869768139
 31
0.0
  0
LINE
  5
48A
  8
PREDEFINITO
 10
192.4286883688358
 20
-238.053869768139
 30
0.0
 11
188.9100607499632
 21
-238.221986490246
 31
0.0
  0
LINE
  5
48B
  8
PREDEFINITO
 10
188.9100607499632
 20
-238.221986490246
 30
0.0
 11
185.3936131930514
 21
-238.4572526951313
 31
0.0
  0
LINE
  5
48C
  8
PREDEFINITO
 10
185.3936131930514
 20
-238.4572526951313
 30
0.0
 11
181.8800700517855
 21
-238.7595712971324
 31
0.0
  0
LINE
  5
48D
  8
PREDEFINITO
 10
181.8800700517855
 20
-238.7595712971324
 30
0.0
 11
178.3701536839254
 21
-239.1288176435685
 31
0.0
  0
LINE
  5
48E
  8
PREDEFINITO
 10
178.3701536839254
 20
-239.1288176435685
 30
0.0
 11
174.8645839577308
 21
-239.5648396430947
 31
0.0
  0
LINE
  5
48F
  8
PREDEFINITO
 10
174.8645839577308
 20
-239.5648396430947
 30
0.0
 11
171.3640777619678
 21
-240.0674579220716
 31
0.0
  0
LINE
  5
490
  8
PREDEFINITO
 10
171.3640777619678
 20
-240.0674579220716
 30
0.0
 11
167.8693485201982
 21
-240.6364660086584
 31
0.0
  0
LINE
  5
491
  8
PREDEFINITO
 10
167.8693485201982
 20
-240.6364660086584
 30
0.0
 11
164.3811057100357
 21
-241.2716305442723
 31
0.0
  0
LINE
  5
492
  8
PREDEFINITO
 10
164.3811057100357
 20
-241.2716305442723
 30
0.0
 11
160.9000543880439
 21
-241.9726915220123
 31
0.0
  0
LINE
  5
493
  8
PREDEFINITO
 10
160.9000543880439
 20
-241.9726915220123
 30
0.0
 11
157.4268947209392
 21
-242.7393625515949
 31
0.0
  0
LINE
  5
494
  8
PREDEFINITO
 10
157.4268947209392
 20
-242.7393625515949
 30
0.0
 11
153.9623215237389
 21
-243.5713311503001
 31
0.0
  0
LINE
  5
495
  8
PREDEFINITO
 10
153.9623215237389
 20
-243.5713311503001
 30
0.0
 11
150.5070238054898
 21
-244.4682590593789
 31
0.0
  0
LINE
  5
496
  8
PREDEFINITO
 10
150.5070238054898
 20
-244.4682590593789
 30
0.0
 11
147.061684323182
 21
-245.4297825853267
 31
0.0
  0
LINE
  5
497
  8
PREDEFINITO
 10
147.061684323182
 20
-245.4297825853267
 30
0.0
 11
143.6269791444393
 21
-246.4555129653867
 31
0.0
  0
LINE
  5
498
  8
PREDEFINITO
 10
143.6269791444393
 20
-246.4555129653867
 30
0.0
 11
143.271711492731
 21
-245.8536086555469
 31
0.0
  0
LINE
  5
499
  8
PREDEFINITO
 10
143.271711492731
 20
-245.8536086555469
 30
0.0
 11
143.0484459443942
 21
-245.4978455581461
 31
0.0
  0
LINE
  5
49A
  8
PREDEFINITO
 10
143.0484459443942
 20
-245.4978455581461
 30
0.0
 11
142.8180008679272
 21
-245.1467953135945
 31
0.0
  0
LINE
  5
49B
  8
PREDEFINITO
 10
142.8180008679272
 20
-245.1467953135945
 30
0.0
 11
142.5804518851301
 21
-244.8005657643915
 31
0.0
  0
LINE
  5
49C
  8
PREDEFINITO
 10
142.5804518851301
 20
-244.8005657643915
 30
0.0
 11
142.3358746178035
 21
-244.4592647530366
 31
0.0
  0
LINE
  5
49D
  8
PREDEFINITO
 10
142.3358746178035
 20
-244.4592647530366
 30
0.0
 11
142.0843446877473
 21
-244.1230001220295
 31
0.0
  0
LINE
  5
49E
  8
PREDEFINITO
 10
142.0843446877473
 20
-244.1230001220295
 30
0.0
 11
141.825937716762
 21
-243.7918797138702
 31
0.0
  0
LINE
  5
49F
  8
PREDEFINITO
 10
299.7135051254058
 20
-179.3487585310337
 30
0.0
 11
299.4413785229043
 21
-179.0280279931694
 31
0.0
  0
LINE
  5
4A0
  8
PREDEFINITO
 10
299.4413785229043
 20
-179.0280279931694
 30
0.0
 11
299.1628295283376
 21
-178.7130357002054
 31
0.0
  0
LINE
  5
4A1
  8
PREDEFINITO
 10
299.1628295283376
 20
-178.7130357002054
 30
0.0
 11
298.8779506355065
 21
-178.4038760453299
 31
0.0
  0
LINE
  5
4A2
  8
PREDEFINITO
 10
298.8779506355065
 20
-178.4038760453299
 30
0.0
 11
298.5868343382128
 21
-178.1006434217313
 31
0.0
  0
LINE
  5
4A3
  8
PREDEFINITO
 10
298.5868343382128
 20
-178.1006434217313
 30
0.0
 11
298.2895731302578
 21
-177.8034322225975
 31
0.0
  0
LINE
  5
4A4
  8
PREDEFINITO
 10
298.2895731302578
 20
-177.8034322225975
 30
0.0
 11
297.9862595054432
 21
-177.5123368411166
 31
0.0
  0
LINE
  5
4A5
  8
PREDEFINITO
 10
297.9862595054432
 20
-177.5123368411166
 30
0.0
 11
297.6769859575707
 21
-177.2274516704767
 31
0.0
  0
LINE
  5
4A6
  8
PREDEFINITO
 10
297.6769859575707
 20
-177.2274516704767
 30
0.0
 11
297.3618449804412
 21
-176.9488711038664
 31
0.0
  0
LINE
  5
4A7
  8
PREDEFINITO
 10
297.3618449804412
 20
-176.9488711038664
 30
0.0
 11
297.0454640919813
 21
-176.6804428509421
 31
0.0
  0
LINE
  5
4A8
  8
PREDEFINITO
 10
297.0454640919813
 20
-176.6804428509421
 30
0.0
 11
296.7240538637608
 21
-176.4187257887864
 31
0.0
  0
LINE
  5
4A9
  8
PREDEFINITO
 10
296.7240538637608
 20
-176.4187257887864
 30
0.0
 11
296.3974165851713
 21
-176.163562226171
 31
0.0
  0
LINE
  5
4AA
  8
PREDEFINITO
 10
296.3974165851713
 20
-176.163562226171
 30
0.0
 11
296.0653545456041
 21
-175.9147944718679
 31
0.0
  0
LINE
  5
4AB
  8
PREDEFINITO
 10
296.0653545456041
 20
-175.9147944718679
 30
0.0
 11
295.7281487608372
 21
-175.6726263080233
 31
0.0
  0
LINE
  5
4AC
  8
PREDEFINITO
 10
295.7281487608372
 20
-175.6726263080233
 30
0.0
 11
295.3864665117844
 21
-175.437561765018
 31
0.0
  0
LINE
  5
4AD
  8
PREDEFINITO
 10
295.3864665117844
 20
-175.437561765018
 30
0.0
 11
295.0400976369673
 21
-175.2094593729311
 31
0.0
  0
LINE
  5
4AE
  8
PREDEFINITO
 10
295.0400976369673
 20
-175.2094593729311
 30
0.0
 11
294.6888319749072
 21
-174.9881776618425
 31
0.0
  0
LINE
  5
4AF
  8
PREDEFINITO
 10
294.6888319749072
 20
-174.9881776618425
 30
0.0
 11
294.3426581510457
 21
-174.7796048992895
 31
0.0
  0
LINE
  5
4B0
  8
PREDEFINITO
 10
294.3426581510457
 20
-174.7796048992895
 30
0.0
 11
293.9927862684413
 21
-174.5780776574412
 31
0.0
  0
LINE
  5
4B1
  8
PREDEFINITO
 10
293.9927862684413
 20
-174.5780776574412
 30
0.0
 11
293.6390126082628
 21
-174.3834812524755
 31
0.0
  0
LINE
  5
4B2
  8
PREDEFINITO
 10
293.6390126082628
 20
-174.3834812524755
 30
0.0
 11
293.2811334516794
 21
-174.1957010005696
 31
0.0
  0
LINE
  5
4B3
  8
PREDEFINITO
 10
293.2811334516794
 20
-174.1957010005696
 30
0.0
 11
292.9190028002962
 21
-174.0146707829811
 31
0.0
  0
LINE
  5
4B4
  8
PREDEFINITO
 10
292.9190028002962
 20
-174.0146707829811
 30
0.0
 11
292.5537291705615
 21
-173.8409809294521
 31
0.0
  0
LINE
  5
4B5
  8
PREDEFINITO
 10
292.5537291705615
 20
-173.8409809294521
 30
0.0
 11
292.1850993420116
 21
-173.6745326212074
 31
0.0
  0
LINE
  5
4B6
  8
PREDEFINITO
 10
292.1850993420116
 20
-173.6745326212074
 30
0.0
 11
291.8129000941826
 21
-173.5152270394722
 31
0.0
  0
LINE
  5
4B7
  8
PREDEFINITO
 10
291.8129000941826
 20
-173.5152270394722
 30
0.0
 11
291.4523662869698
 21
-173.3690720472863
 31
0.0
  0
LINE
  5
4B8
  8
PREDEFINITO
 10
291.4523662869698
 20
-173.3690720472863
 30
0.0
 11
291.0894544319917
 21
-173.2298955585806
 31
0.0
  0
LINE
  5
4B9
  8
PREDEFINITO
 10
291.0894544319917
 20
-173.2298955585806
 30
0.0
 11
290.7239690837802
 21
-173.0976247388739
 31
0.0
  0
LINE
  5
4BA
  8
PREDEFINITO
 10
290.7239690837802
 20
-173.0976247388739
 30
0.0
 11
290.3557147968672
 21
-172.9721867536844
 31
0.0
  0
LINE
  5
4BB
  8
PREDEFINITO
 10
290.3557147968672
 20
-172.9721867536844
 30
0.0
 11
289.984607120516
 21
-172.8535592564438
 31
0.0
  0
LINE
  5
4BC
  8
PREDEFINITO
 10
289.984607120516
 20
-172.8535592564438
 30
0.0
 11
289.611651464809
 21
-172.742089443581
 31
0.0
  0
LINE
  5
4BD
  8
PREDEFINITO
 10
289.611651464809
 20
-172.742089443581
 30
0.0
 11
289.2366465433442
 21
-172.637717193201
 31
0.0
  0
LINE
  5
4BE
  8
PREDEFINITO
 10
289.2366465433442
 20
-172.637717193201
 30
0.0
 11
288.8593910697206
 21
-172.5403823834098
 31
0.0
  0
LINE
  5
4BF
  8
PREDEFINITO
 10
288.8593910697206
 20
-172.5403823834098
 30
0.0
 11
288.8593910697206
 21
-184.9751917244625
 31
0.0
  0
LINE
  5
4C0
  8
PREDEFINITO
 10
288.8593910697206
 20
-184.9751917244625
 30
0.0
 11
292.8593910697206
 21
-184.9751917244625
 31
0.0
  0
LINE
  5
4C1
  8
PREDEFINITO
 10
292.8593910697206
 20
-184.9751917244625
 30
0.0
 11
292.8593910697206
 21
-195.3256231826616
 31
0.0
  0
LINE
  5
4C2
  8
PREDEFINITO
 10
292.8593910697206
 20
-195.3256231826616
 30
0.0
 11
304.6657599777454
 21
-195.3256231826616
 31
0.0
  0
LINE
  5
4C3
  8
PREDEFINITO
 10
304.6657599777454
 20
-195.3256231826616
 30
0.0
 11
328.9211379941902
 21
-195.3256231826616
 31
0.0
  0
LINE
  5
4C4
  8
PREDEFINITO
 10
328.9211379941902
 20
-195.3256231826616
 30
0.0
 11
328.9211379941902
 21
-185.3255169156527
 31
0.0
  0
LINE
  5
4C5
  8
PREDEFINITO
 10
328.9211379941902
 20
-185.3255169156527
 30
0.0
 11
333.1211379941901
 21
-185.3255169156527
 31
0.0
  0
LINE
  5
4C6
  8
PREDEFINITO
 10
333.1211379941901
 20
-185.3255169156527
 30
0.0
 11
333.1211379941901
 21
-195.3256231826616
 31
0.0
  0
LINE
  5
4C7
  8
PREDEFINITO
 10
333.1211379941901
 20
-195.3256231826616
 30
0.0
 11
355.5223551777455
 21
-195.3256231826616
 31
0.0
  0
LINE
  5
4C8
  8
PREDEFINITO
 10
355.5223551777455
 20
-195.3256231826616
 30
0.0
 11
355.5223551777455
 21
-185.3255169156527
 31
0.0
  0
LINE
  5
4C9
  8
PREDEFINITO
 10
355.5223551777455
 20
-185.3255169156527
 30
0.0
 11
359.7223551777455
 21
-185.3255169156527
 31
0.0
  0
LINE
  5
4CA
  8
PREDEFINITO
 10
359.7223551777455
 20
-185.3255169156527
 30
0.0
 11
359.7223551777455
 21
-195.3256231826616
 31
0.0
  0
LINE
  5
4CB
  8
PREDEFINITO
 10
359.7223551777455
 20
-195.3256231826616
 30
0.0
 11
382.1235723613008
 21
-195.3256231826616
 31
0.0
  0
LINE
  5
4CC
  8
PREDEFINITO
 10
382.1235723613008
 20
-195.3256231826616
 30
0.0
 11
382.1235723613008
 21
-185.3255169156527
 31
0.0
  0
LINE
  5
4CD
  8
PREDEFINITO
 10
382.1235723613008
 20
-185.3255169156527
 30
0.0
 11
386.3235723613008
 21
-185.3255169156527
 31
0.0
  0
LINE
  5
4CE
  8
PREDEFINITO
 10
386.3235723613008
 20
-185.3255169156527
 30
0.0
 11
386.3235723613008
 21
-195.3256231826616
 31
0.0
  0
LINE
  5
4CF
  8
PREDEFINITO
 10
386.3235723613008
 20
-195.3256231826616
 30
0.0
 11
410.5789503777454
 21
-195.3256231826616
 31
0.0
  0
LINE
  5
4D0
  8
PREDEFINITO
 10
410.5789503777454
 20
-195.3256231826616
 30
0.0
 11
422.3853192857704
 21
-195.3256231826616
 31
0.0
  0
LINE
  5
4D1
  8
PREDEFINITO
 10
505.6000775149197
 20
-150.6714479750096
 30
0.0
 11
502.0945077887251
 21
-151.1074699745357
 31
0.0
  0
LINE
  5
4D2
  8
PREDEFINITO
 10
502.0945077887251
 20
-151.1074699745357
 30
0.0
 11
498.5940015929622
 21
-151.6100882535125
 31
0.0
  0
LINE
  5
4D3
  8
PREDEFINITO
 10
498.5940015929622
 20
-151.6100882535125
 30
0.0
 11
495.0992723511926
 21
-152.1790963400992
 31
0.0
  0
LINE
  5
4D4
  8
PREDEFINITO
 10
495.0992723511926
 20
-152.1790963400992
 30
0.0
 11
491.6110295410301
 21
-152.8142608757134
 31
0.0
  0
LINE
  5
4D5
  8
PREDEFINITO
 10
491.6110295410301
 20
-152.8142608757134
 30
0.0
 11
488.1299782190383
 21
-153.5153218534531
 31
0.0
  0
LINE
  5
4D6
  8
PREDEFINITO
 10
488.1299782190383
 20
-153.5153218534531
 30
0.0
 11
484.6568185519335
 21
-154.2819928830357
 31
0.0
  0
LINE
  5
4D7
  8
PREDEFINITO
 10
484.6568185519335
 20
-154.2819928830357
 30
0.0
 11
481.1922453547333
 21
-155.1139614817409
 31
0.0
  0
LINE
  5
4D8
  8
PREDEFINITO
 10
481.1922453547333
 20
-155.1139614817409
 30
0.0
 11
477.7369476364842
 21
-156.0108893908198
 31
0.0
  0
LINE
  5
4D9
  8
PREDEFINITO
 10
477.7369476364842
 20
-156.0108893908198
 30
0.0
 11
474.2916081541763
 21
-156.9724129167676
 31
0.0
  0
LINE
  5
4DA
  8
PREDEFINITO
 10
474.2916081541763
 20
-156.9724129167676
 30
0.0
 11
470.8569029754337
 21
-157.9981432968277
 31
0.0
  0
LINE
  5
4DB
  8
PREDEFINITO
 10
470.8569029754337
 20
-157.9981432968277
 30
0.0
 11
470.5016353237253
 21
-157.3962389869878
 31
0.0
  0
LINE
  5
4DC
  8
PREDEFINITO
 10
470.5016353237253
 20
-157.3962389869878
 30
0.0
 11
470.2783697753886
 21
-157.0404758895872
 31
0.0
  0
LINE
  5
4DD
  8
PREDEFINITO
 10
470.2783697753886
 20
-157.0404758895872
 30
0.0
 11
470.0479246989216
 21
-156.6894256450354
 31
0.0
  0
LINE
  5
4DE
  8
PREDEFINITO
 10
470.0479246989216
 20
-156.6894256450354
 30
0.0
 11
469.8103757161245
 21
-156.3431960958324
 31
0.0
  0
LINE
  5
4DF
  8
PREDEFINITO
 10
469.8103757161245
 20
-156.3431960958324
 30
0.0
 11
469.5657984487979
 21
-156.0018950844775
 31
0.0
  0
LINE
  5
4E0
  8
PREDEFINITO
 10
469.5657984487979
 20
-156.0018950844775
 30
0.0
 11
469.3142685187417
 21
-155.6656304534704
 31
0.0
  0
LINE
  5
4E1
  8
PREDEFINITO
 10
469.3142685187417
 20
-155.6656304534704
 30
0.0
 11
469.0558615477564
 21
-155.334510045311
 31
0.0
  0
LINE
  5
4E2
  8
PREDEFINITO
 10
469.0558615477564
 20
-155.334510045311
 30
0.0
 11
468.7906531576422
 21
-155.0086417024989
 31
0.0
  0
LINE
  5
4E3
  8
PREDEFINITO
 10
468.7906531576422
 20
-155.0086417024989
 30
0.0
 11
468.5185265551408
 21
-154.6879111646346
 31
0.0
  0
LINE
  5
4E4
  8
PREDEFINITO
 10
468.5185265551408
 20
-154.6879111646346
 30
0.0
 11
468.239977560574
 21
-154.3729188716705
 31
0.0
  0
LINE
  5
4E5
  8
PREDEFINITO
 10
468.239977560574
 20
-154.3729188716705
 30
0.0
 11
467.9550986677429
 21
-154.0637592167951
 31
0.0
  0
LINE
  5
4E6
  8
PREDEFINITO
 10
467.9550986677429
 20
-154.0637592167951
 30
0.0
 11
467.6639823704492
 21
-153.7605265931965
 31
0.0
  0
LINE
  5
4E7
  8
PREDEFINITO
 10
467.6639823704492
 20
-153.7605265931965
 30
0.0
 11
467.3667211624942
 21
-153.4633153940626
 31
0.0
  0
LINE
  5
4E8
  8
PREDEFINITO
 10
467.3667211624942
 20
-153.4633153940626
 30
0.0
 11
467.0634075376797
 21
-153.1722200125818
 31
0.0
  0
LINE
  5
4E9
  8
PREDEFINITO
 10
467.0634075376797
 20
-153.1722200125818
 30
0.0
 11
466.754133989807
 21
-152.8873348419419
 31
0.0
  0
LINE
  5
4EA
  8
PREDEFINITO
 10
466.754133989807
 20
-152.8873348419419
 30
0.0
 11
466.4389930126776
 21
-152.6087542753316
 31
0.0
  0
LINE
  5
4EB
  8
PREDEFINITO
 10
466.4389930126776
 20
-152.6087542753316
 30
0.0
 11
466.1226121242177
 21
-152.3403260224074
 31
0.0
  0
LINE
  5
4EC
  8
PREDEFINITO
 10
466.1226121242177
 20
-152.3403260224074
 30
0.0
 11
465.8012018959973
 21
-152.0786089602516
 31
0.0
  0
LINE
  5
4ED
  8
PREDEFINITO
 10
465.8012018959973
 20
-152.0786089602516
 30
0.0
 11
465.4745646174078
 21
-151.8234453976362
 31
0.0
  0
LINE
  5
4EE
  8
PREDEFINITO
 10
465.4745646174078
 20
-151.8234453976362
 30
0.0
 11
465.1425025778405
 21
-151.574677643333
 31
0.0
  0
LINE
  5
4EF
  8
PREDEFINITO
 10
465.1425025778405
 20
-151.574677643333
 30
0.0
 11
464.8052967930736
 21
-151.3325094794886
 31
0.0
  0
LINE
  5
4F0
  8
PREDEFINITO
 10
464.8052967930736
 20
-151.3325094794886
 30
0.0
 11
464.4636145440208
 21
-151.0974449364832
 31
0.0
  0
LINE
  5
4F1
  8
PREDEFINITO
 10
464.4636145440208
 20
-151.0974449364832
 30
0.0
 11
464.1172456692038
 21
-150.8693425443963
 31
0.0
  0
LINE
  5
4F2
  8
PREDEFINITO
 10
464.1172456692038
 20
-150.8693425443963
 30
0.0
 11
463.7659800071437
 21
-150.6480608333078
 31
0.0
  0
LINE
  5
4F3
  8
PREDEFINITO
 10
463.7659800071437
 20
-150.6480608333078
 30
0.0
 11
463.4198061832821
 21
-150.4394880707547
 31
0.0
  0
LINE
  5
4F4
  8
PREDEFINITO
 10
463.4198061832821
 20
-150.4394880707547
 30
0.0
 11
463.0699343006776
 21
-150.2379608289065
 31
0.0
  0
LINE
  5
4F5
  8
PREDEFINITO
 10
463.0699343006776
 20
-150.2379608289065
 30
0.0
 11
462.7161606404992
 21
-150.0433644239407
 31
0.0
  0
LINE
  5
4F6
  8
PREDEFINITO
 10
462.7161606404992
 20
-150.0433644239407
 30
0.0
 11
462.3582814839157
 21
-149.855584172035
 31
0.0
  0
LINE
  5
4F7
  8
PREDEFINITO
 10
462.3582814839157
 20
-149.855584172035
 30
0.0
 11
461.9961508325327
 21
-149.6745539544465
 31
0.0
  0
LINE
  5
4F8
  8
PREDEFINITO
 10
461.9961508325327
 20
-149.6745539544465
 30
0.0
 11
461.630877202798
 21
-149.5008641009173
 31
0.0
  0
LINE
  5
4F9
  8
PREDEFINITO
 10
461.630877202798
 20
-149.5008641009173
 30
0.0
 11
461.262247374248
 21
-149.3344157926726
 31
0.0
  0
LINE
  5
4FA
  8
PREDEFINITO
 10
461.262247374248
 20
-149.3344157926726
 30
0.0
 11
460.890048126419
 21
-149.1751102109374
 31
0.0
  0
LINE
  5
4FB
  8
PREDEFINITO
 10
460.890048126419
 20
-149.1751102109374
 30
0.0
 11
460.5295143192063
 21
-149.0289552187515
 31
0.0
  0
LINE
  5
4FC
  8
PREDEFINITO
 10
460.5295143192063
 20
-149.0289552187515
 30
0.0
 11
460.1666024642281
 21
-148.8897787300459
 31
0.0
  0
LINE
  5
4FD
  8
PREDEFINITO
 10
460.1666024642281
 20
-148.8897787300459
 30
0.0
 11
459.8011171160166
 21
-148.7575079103391
 31
0.0
  0
LINE
  5
4FE
  8
PREDEFINITO
 10
459.8011171160166
 20
-148.7575079103391
 30
0.0
 11
459.4328628291036
 21
-148.6320699251497
 31
0.0
  0
LINE
  5
4FF
  8
PREDEFINITO
 10
459.4328628291036
 20
-148.6320699251497
 30
0.0
 11
459.0617551527525
 21
-148.5134424279092
 31
0.0
  0
LINE
  5
500
  8
PREDEFINITO
 10
459.0617551527525
 20
-148.5134424279092
 30
0.0
 11
458.6887994970454
 21
-148.4019726150462
 31
0.0
  0
LINE
  5
501
  8
PREDEFINITO
 10
458.6887994970454
 20
-148.4019726150462
 30
0.0
 11
458.3137945755806
 21
-148.2976003646663
 31
0.0
  0
LINE
  5
502
  8
PREDEFINITO
 10
458.3137945755806
 20
-148.2976003646663
 30
0.0
 11
457.9365391019571
 21
-148.200265554875
 31
0.0
  0
LINE
  5
503
  8
PREDEFINITO
 10
591.0407249360483
 20
-149.8555841720351
 30
0.0
 11
590.6828457794647
 21
-150.0433644239407
 31
0.0
  0
LINE
  5
504
  8
PREDEFINITO
 10
590.6828457794647
 20
-150.0433644239407
 30
0.0
 11
590.3290721192861
 21
-150.2379608289065
 31
0.0
  0
LINE
  5
505
  8
PREDEFINITO
 10
590.3290721192861
 20
-150.2379608289065
 30
0.0
 11
589.9792002366817
 21
-150.4394880707547
 31
0.0
  0
LINE
  5
506
  8
PREDEFINITO
 10
589.9792002366817
 20
-150.4394880707547
 30
0.0
 11
589.6330264128202
 21
-150.6480608333078
 31
0.0
  0
LINE
  5
507
  8
PREDEFINITO
 10
589.6330264128202
 20
-150.6480608333078
 30
0.0
 11
589.2817607507601
 21
-150.8693425443963
 31
0.0
  0
LINE
  5
508
  8
PREDEFINITO
 10
589.2817607507601
 20
-150.8693425443963
 30
0.0
 11
588.935391875943
 21
-151.0974449364832
 31
0.0
  0
LINE
  5
509
  8
PREDEFINITO
 10
588.935391875943
 20
-151.0974449364832
 30
0.0
 11
588.5937096268901
 21
-151.3325094794886
 31
0.0
  0
LINE
  5
50A
  8
PREDEFINITO
 10
588.5937096268901
 20
-151.3325094794886
 30
0.0
 11
588.2565038421233
 21
-151.574677643333
 31
0.0
  0
LINE
  5
50B
  8
PREDEFINITO
 10
588.2565038421233
 20
-151.574677643333
 30
0.0
 11
587.9244418025561
 21
-151.8234453976362
 31
0.0
  0
LINE
  5
50C
  8
PREDEFINITO
 10
587.9244418025561
 20
-151.8234453976362
 30
0.0
 11
587.5978045239666
 21
-152.0786089602516
 31
0.0
  0
LINE
  5
50D
  8
PREDEFINITO
 10
587.5978045239666
 20
-152.0786089602516
 30
0.0
 11
587.2763942957461
 21
-152.3403260224074
 31
0.0
  0
LINE
  5
50E
  8
PREDEFINITO
 10
587.2763942957461
 20
-152.3403260224074
 30
0.0
 11
586.9600134072862
 21
-152.6087542753316
 31
0.0
  0
LINE
  5
50F
  8
PREDEFINITO
 10
586.9600134072862
 20
-152.6087542753316
 30
0.0
 11
586.644872430157
 21
-152.8873348419419
 31
0.0
  0
LINE
  5
510
  8
PREDEFINITO
 10
586.644872430157
 20
-152.8873348419419
 30
0.0
 11
586.335598882284
 21
-153.1722200125818
 31
0.0
  0
LINE
  5
511
  8
PREDEFINITO
 10
586.335598882284
 20
-153.1722200125818
 30
0.0
 11
586.0322852574698
 21
-153.4633153940626
 31
0.0
  0
LINE
  5
512
  8
PREDEFINITO
 10
586.0322852574698
 20
-153.4633153940626
 30
0.0
 11
585.7350240495148
 21
-153.7605265931965
 31
0.0
  0
LINE
  5
513
  8
PREDEFINITO
 10
585.7350240495148
 20
-153.7605265931965
 30
0.0
 11
585.4439077522211
 21
-154.0637592167951
 31
0.0
  0
LINE
  5
514
  8
PREDEFINITO
 10
585.4439077522211
 20
-154.0637592167951
 30
0.0
 11
585.15902885939
 21
-154.3729188716705
 31
0.0
  0
LINE
  5
515
  8
PREDEFINITO
 10
585.15902885939
 20
-154.3729188716705
 30
0.0
 11
584.880479864823
 21
-154.6879111646346
 31
0.0
  0
LINE
  5
516
  8
PREDEFINITO
 10
584.880479864823
 20
-154.6879111646346
 30
0.0
 11
584.6083532623218
 21
-155.0086417024989
 31
0.0
  0
LINE
  5
517
  8
PREDEFINITO
 10
584.6083532623218
 20
-155.0086417024989
 30
0.0
 11
584.3431448722076
 21
-155.334510045311
 31
0.0
  0
LINE
  5
518
  8
PREDEFINITO
 10
584.3431448722076
 20
-155.334510045311
 30
0.0
 11
584.0847379012222
 21
-155.6656304534704
 31
0.0
  0
LINE
  5
519
  8
PREDEFINITO
 10
584.0847379012222
 20
-155.6656304534704
 30
0.0
 11
583.8332079711661
 21
-156.0018950844775
 31
0.0
  0
LINE
  5
51A
  8
PREDEFINITO
 10
583.8332079711661
 20
-156.0018950844775
 30
0.0
 11
583.5886307038393
 21
-156.3431960958324
 31
0.0
  0
LINE
  5
51B
  8
PREDEFINITO
 10
583.5886307038393
 20
-156.3431960958324
 30
0.0
 11
583.3510817210424
 21
-156.6894256450354
 31
0.0
  0
LINE
  5
51C
  8
PREDEFINITO
 10
583.3510817210424
 20
-156.6894256450354
 30
0.0
 11
583.1206366445754
 21
-157.0404758895872
 31
0.0
  0
LINE
  5
51D
  8
PREDEFINITO
 10
583.1206366445754
 20
-157.0404758895872
 30
0.0
 11
582.8973710962387
 21
-157.3962389869878
 31
0.0
  0
LINE
  5
51E
  8
PREDEFINITO
 10
582.8973710962387
 20
-157.3962389869878
 30
0.0
 11
582.5421034445305
 21
-157.9981432968274
 31
0.0
  0
LINE
  5
51F
  8
PREDEFINITO
 10
582.5421034445305
 20
-157.9981432968274
 30
0.0
 11
579.1073982657877
 21
-156.9724129167674
 31
0.0
  0
LINE
  5
520
  8
PREDEFINITO
 10
579.1073982657877
 20
-156.9724129167674
 30
0.0
 11
575.6620587834796
 21
-156.0108893908196
 31
0.0
  0
LINE
  5
521
  8
PREDEFINITO
 10
575.6620587834796
 20
-156.0108893908196
 30
0.0
 11
572.2067610652307
 21
-155.1139614817407
 31
0.0
  0
LINE
  5
522
  8
PREDEFINITO
 10
572.2067610652307
 20
-155.1139614817407
 30
0.0
 11
568.7421878680304
 21
-154.2819928830355
 31
0.0
  0
LINE
  5
523
  8
PREDEFINITO
 10
568.7421878680304
 20
-154.2819928830355
 30
0.0
 11
565.2690282009257
 21
-153.5153218534531
 31
0.0
  0
LINE
  5
524
  8
PREDEFINITO
 10
565.2690282009257
 20
-153.5153218534531
 30
0.0
 11
561.7879768789339
 21
-152.8142608757132
 31
0.0
  0
LINE
  5
525
  8
PREDEFINITO
 10
561.7879768789339
 20
-152.8142608757132
 30
0.0
 11
558.2997340687714
 21
-152.1790963400992
 31
0.0
  0
LINE
  5
526
  8
PREDEFINITO
 10
558.2997340687714
 20
-152.1790963400992
 30
0.0
 11
554.8050048270018
 21
-151.6100882535123
 31
0.0
  0
LINE
  5
527
  8
PREDEFINITO
 10
554.8050048270018
 20
-151.6100882535123
 30
0.0
 11
551.3044986312389
 21
-151.1074699745353
 31
0.0
  0
LINE
  5
528
  8
PREDEFINITO
 10
551.3044986312389
 20
-151.1074699745353
 30
0.0
 11
547.7989289050442
 21
-150.6714479750092
 31
0.0
  0
LINE
  5
529
  8
PREDEFINITO
 10
547.7989289050442
 20
-150.6714479750092
 30
0.0
 11
544.2890125371841
 21
-150.302201628573
 31
0.0
  0
LINE
  5
52A
  8
PREDEFINITO
 10
544.2890125371841
 20
-150.302201628573
 30
0.0
 11
540.7754693959181
 21
-149.9998830265721
 31
0.0
  0
LINE
  5
52B
  8
PREDEFINITO
 10
540.7754693959181
 20
-149.9998830265721
 30
0.0
 11
537.2590218390064
 21
-149.7646168216868
 31
0.0
  0
LINE
  5
52C
  8
PREDEFINITO
 10
537.2590218390064
 20
-149.7646168216868
 30
0.0
 11
533.7403942201338
 21
-149.5965000995797
 31
0.0
  0
LINE
  5
52D
  8
PREDEFINITO
 10
533.7403942201338
 20
-149.5965000995797
 30
0.0
 11
530.2203123924561
 21
-149.4956022788085
 31
0.0
  0
LINE
  5
52E
  8
PREDEFINITO
 10
530.2203123924561
 20
-149.4956022788085
 30
0.0
 11
526.6995032099818
 21
-149.4619650391984
 31
0.0
  0
LINE
  5
52F
  8
PREDEFINITO
 10
526.6995032099818
 20
-149.4619650391984
 30
0.0
 11
523.1786940275078
 21
-149.4956022788087
 31
0.0
  0
LINE
  5
530
  8
PREDEFINITO
 10
523.1786940275078
 20
-149.4956022788087
 30
0.0
 11
519.6586121998303
 21
-149.5965000995799
 31
0.0
  0
LINE
  5
531
  8
PREDEFINITO
 10
519.6586121998303
 20
-149.5965000995799
 30
0.0
 11
516.1399845809575
 21
-149.7646168216868
 31
0.0
  0
LINE
  5
532
  8
PREDEFINITO
 10
516.1399845809575
 20
-149.7646168216868
 30
0.0
 11
512.6235370240458
 21
-149.9998830265723
 31
0.0
  0
LINE
  5
533
  8
PREDEFINITO
 10
512.6235370240458
 20
-149.9998830265723
 30
0.0
 11
509.1099938827799
 21
-150.3022016285732
 31
0.0
  0
LINE
  5
534
  8
PREDEFINITO
 10
509.1099938827799
 20
-150.3022016285732
 30
0.0
 11
505.6000775149197
 21
-150.6714479750096
 31
0.0
  0
LINE
  5
535
  8
PREDEFINITO
 10
632.9531157346635
 20
-157.1024452582928
 30
0.0
 11
632.6018500726034
 21
-156.8811635472043
 31
0.0
  0
LINE
  5
536
  8
PREDEFINITO
 10
632.6018500726034
 20
-156.8811635472043
 30
0.0
 11
632.2556762487418
 21
-156.6725907846512
 31
0.0
  0
LINE
  5
537
  8
PREDEFINITO
 10
632.2556762487418
 20
-156.6725907846512
 30
0.0
 11
631.9058043661373
 21
-156.471063542803
 31
0.0
  0
LINE
  5
538
  8
PREDEFINITO
 10
631.9058043661373
 20
-156.471063542803
 30
0.0
 11
631.5520307059589
 21
-156.2764671378372
 31
0.0
  0
LINE
  5
539
  8
PREDEFINITO
 10
631.5520307059589
 20
-156.2764671378372
 30
0.0
 11
631.1941515493754
 21
-156.0886868859314
 31
0.0
  0
LINE
  5
53A
  8
PREDEFINITO
 10
631.1941515493754
 20
-156.0886868859314
 30
0.0
 11
630.8320208979924
 21
-155.9076566683429
 31
0.0
  0
LINE
  5
53B
  8
PREDEFINITO
 10
630.8320208979924
 20
-155.9076566683429
 30
0.0
 11
630.4667472682577
 21
-155.7339668148138
 31
0.0
  0
LINE
  5
53C
  8
PREDEFINITO
 10
630.4667472682577
 20
-155.7339668148138
 30
0.0
 11
630.0981174397077
 21
-155.5675185065691
 31
0.0
  0
LINE
  5
53D
  8
PREDEFINITO
 10
630.0981174397077
 20
-155.5675185065691
 30
0.0
 11
629.7259181918787
 21
-155.4082129248339
 31
0.0
  0
LINE
  5
53E
  8
PREDEFINITO
 10
629.7259181918787
 20
-155.4082129248339
 30
0.0
 11
629.365384384666
 21
-155.2620579326478
 31
0.0
  0
LINE
  5
53F
  8
PREDEFINITO
 10
629.365384384666
 20
-155.2620579326478
 30
0.0
 11
629.0024725296878
 21
-155.1228814439422
 31
0.0
  0
LINE
  5
540
  8
PREDEFINITO
 10
629.0024725296878
 20
-155.1228814439422
 30
0.0
 11
628.6369871814763
 21
-154.9906106242356
 31
0.0
  0
LINE
  5
541
  8
PREDEFINITO
 10
628.6369871814763
 20
-154.9906106242356
 30
0.0
 11
628.2687328945633
 21
-154.8651726390461
 31
0.0
  0
LINE
  5
542
  8
PREDEFINITO
 10
628.2687328945633
 20
-154.8651726390461
 30
0.0
 11
627.8976252182122
 21
-154.7465451418055
 31
0.0
  0
LINE
  5
543
  8
PREDEFINITO
 10
627.8976252182122
 20
-154.7465451418055
 30
0.0
 11
627.5246695625051
 21
-154.6350753289425
 31
0.0
  0
LINE
  5
544
  8
PREDEFINITO
 10
627.5246695625051
 20
-154.6350753289425
 30
0.0
 11
627.1496646410403
 21
-154.5307030785627
 31
0.0
  0
LINE
  5
545
  8
PREDEFINITO
 10
627.1496646410403
 20
-154.5307030785627
 30
0.0
 11
626.7724091674168
 21
-154.4333682687715
 31
0.0
  0
LINE
  5
546
  8
PREDEFINITO
 10
626.7724091674168
 20
-154.4333682687715
 30
0.0
 11
626.7724091674168
 21
-166.8681776098242
 31
0.0
  0
LINE
  5
547
  8
PREDEFINITO
 10
626.7724091674168
 20
-166.8681776098242
 30
0.0
 11
630.7724091674168
 21
-166.8681776098242
 31
0.0
  0
LINE
  5
548
  8
PREDEFINITO
 10
630.7724091674168
 20
-166.8681776098242
 30
0.0
 11
630.7724091674168
 21
-177.2186090680233
 31
0.0
  0
LINE
  5
549
  8
PREDEFINITO
 10
630.7724091674168
 20
-177.2186090680233
 30
0.0
 11
642.5787780754415
 21
-177.2186090680233
 31
0.0
  0
LINE
  5
54A
  8
PREDEFINITO
 10
642.5787780754415
 20
-177.2186090680233
 30
0.0
 11
666.8341560918864
 21
-177.2186090680233
 31
0.0
  0
LINE
  5
54B
  8
PREDEFINITO
 10
666.8341560918864
 20
-177.2186090680233
 30
0.0
 11
666.8341560918864
 21
-167.2185028010144
 31
0.0
  0
LINE
  5
54C
  8
PREDEFINITO
 10
666.8341560918864
 20
-167.2185028010144
 30
0.0
 11
671.0341560918862
 21
-167.2185028010144
 31
0.0
  0
LINE
  5
54D
  8
PREDEFINITO
 10
671.0341560918862
 20
-167.2185028010144
 30
0.0
 11
671.0341560918862
 21
-177.2186090680233
 31
0.0
  0
LINE
  5
54E
  8
PREDEFINITO
 10
671.0341560918862
 20
-177.2186090680233
 30
0.0
 11
693.4353732754416
 21
-177.2186090680233
 31
0.0
  0
LINE
  5
54F
  8
PREDEFINITO
 10
693.4353732754416
 20
-177.2186090680233
 30
0.0
 11
693.4353732754416
 21
-167.2185028010144
 31
0.0
  0
LINE
  5
550
  8
PREDEFINITO
 10
693.4353732754416
 20
-167.2185028010144
 30
0.0
 11
697.6353732754417
 21
-167.2185028010144
 31
0.0
  0
LINE
  5
551
  8
PREDEFINITO
 10
697.6353732754417
 20
-167.2185028010144
 30
0.0
 11
697.6353732754417
 21
-177.2186090680233
 31
0.0
  0
LINE
  5
552
  8
PREDEFINITO
 10
697.6353732754417
 20
-177.2186090680233
 30
0.0
 11
720.0365904589969
 21
-177.2186090680233
 31
0.0
  0
LINE
  5
553
  8
PREDEFINITO
 10
720.0365904589969
 20
-177.2186090680233
 30
0.0
 11
720.0365904589969
 21
-167.2185028010144
 31
0.0
  0
LINE
  5
554
  8
PREDEFINITO
 10
720.0365904589969
 20
-167.2185028010144
 30
0.0
 11
724.236590458997
 21
-167.2185028010144
 31
0.0
  0
LINE
  5
555
  8
PREDEFINITO
 10
724.236590458997
 20
-167.2185028010144
 30
0.0
 11
724.236590458997
 21
-177.2186090680233
 31
0.0
  0
LINE
  5
556
  8
PREDEFINITO
 10
724.236590458997
 20
-177.2186090680233
 30
0.0
 11
748.4919684754416
 21
-177.2186090680233
 31
0.0
  0
LINE
  5
557
  8
PREDEFINITO
 10
748.4919684754416
 20
-177.2186090680233
 30
0.0
 11
760.2983373834666
 21
-177.2186090680233
 31
0.0
  0
LINE
  5
558
  8
PREDEFINITO
 10
591.4624673180069
 20
-170.9855063541268
 30
0.0
 11
595.4636703001208
 21
-170.9855063541268
 31
0.0
  0
LINE
  5
559
  8
PREDEFINITO
 10
595.4636703001208
 20
-170.9855063541268
 30
0.0
 11
595.4624673180069
 21
-160.6350748959277
 31
0.0
  0
LINE
  5
55A
  8
PREDEFINITO
 10
595.4624673180069
 20
-160.6350748959277
 30
0.0
 11
595.4624673180069
 21
-148.200265554875
 31
0.0
  0
LINE
  5
55B
  8
PREDEFINITO
 10
595.4624673180069
 20
-148.200265554875
 30
0.0
 11
595.0852118443831
 21
-148.2976003646663
 31
0.0
  0
LINE
  5
55C
  8
PREDEFINITO
 10
595.0852118443831
 20
-148.2976003646663
 30
0.0
 11
594.7102069229186
 21
-148.4019726150462
 31
0.0
  0
LINE
  5
55D
  8
PREDEFINITO
 10
594.7102069229186
 20
-148.4019726150462
 30
0.0
 11
594.3372512672113
 21
-148.5134424279092
 31
0.0
  0
LINE
  5
55E
  8
PREDEFINITO
 10
594.3372512672113
 20
-148.5134424279092
 30
0.0
 11
593.9661435908604
 21
-148.6320699251497
 31
0.0
  0
LINE
  5
55F
  8
PREDEFINITO
 10
593.9661435908604
 20
-148.6320699251497
 30
0.0
 11
593.5978893039473
 21
-148.7575079103391
 31
0.0
  0
LINE
  5
560
  8
PREDEFINITO
 10
593.5978893039473
 20
-148.7575079103391
 30
0.0
 11
593.2324039557357
 21
-148.8897787300459
 31
0.0
  0
LINE
  5
561
  8
PREDEFINITO
 10
593.2324039557357
 20
-148.8897787300459
 30
0.0
 11
592.8694921007577
 21
-149.0289552187515
 31
0.0
  0
LINE
  5
562
  8
PREDEFINITO
 10
592.8694921007577
 20
-149.0289552187515
 30
0.0
 11
592.5089582935448
 21
-149.1751102109376
 31
0.0
  0
LINE
  5
563
  8
PREDEFINITO
 10
592.5089582935448
 20
-149.1751102109376
 30
0.0
 11
592.1367590457157
 21
-149.3344157926726
 31
0.0
  0
LINE
  5
564
  8
PREDEFINITO
 10
592.1367590457157
 20
-149.3344157926726
 30
0.0
 11
591.7681292171658
 21
-149.5008641009173
 31
0.0
  0
LINE
  5
565
  8
PREDEFINITO
 10
591.7681292171658
 20
-149.5008641009173
 30
0.0
 11
591.4028555874312
 21
-149.6745539544465
 31
0.0
  0
LINE
  5
566
  8
PREDEFINITO
 10
591.4028555874312
 20
-149.6745539544465
 30
0.0
 11
591.0407249360483
 21
-149.8555841720351
 31
0.0
  0
LINE
  5
567
  8
PREDEFINITO
 10
734.1048982663854
 20
-159.7484245673496
 30
0.0
 11
730.6238469443936
 21
-159.0473635896097
 31
0.0
  0
LINE
  5
568
  8
PREDEFINITO
 10
730.6238469443936
 20
-159.0473635896097
 30
0.0
 11
727.135604134231
 21
-158.4121990539957
 31
0.0
  0
LINE
  5
569
  8
PREDEFINITO
 10
727.135604134231
 20
-158.4121990539957
 30
0.0
 11
723.6408748924614
 21
-157.8431909674086
 31
0.0
  0
LINE
  5
56A
  8
PREDEFINITO
 10
723.6408748924614
 20
-157.8431909674086
 30
0.0
 11
720.1403686966985
 21
-157.3405726884318
 31
0.0
  0
LINE
  5
56B
  8
PREDEFINITO
 10
720.1403686966985
 20
-157.3405726884318
 30
0.0
 11
716.6347989705039
 21
-156.9045506889057
 31
0.0
  0
LINE
  5
56C
  8
PREDEFINITO
 10
716.6347989705039
 20
-156.9045506889057
 30
0.0
 11
713.1248826026438
 21
-156.5353043424695
 31
0.0
  0
LINE
  5
56D
  8
PREDEFINITO
 10
713.1248826026438
 20
-156.5353043424695
 30
0.0
 11
709.6113394613778
 21
-156.2329857404686
 31
0.0
  0
LINE
  5
56E
  8
PREDEFINITO
 10
709.6113394613778
 20
-156.2329857404686
 30
0.0
 11
706.0948919044661
 21
-155.9977195355833
 31
0.0
  0
LINE
  5
56F
  8
PREDEFINITO
 10
706.0948919044661
 20
-155.9977195355833
 30
0.0
 11
702.5762642855934
 21
-155.829602813476
 31
0.0
  0
LINE
  5
570
  8
PREDEFINITO
 10
702.5762642855934
 20
-155.829602813476
 30
0.0
 11
699.0561824579158
 21
-155.728704992705
 31
0.0
  0
LINE
  5
571
  8
PREDEFINITO
 10
699.0561824579158
 20
-155.728704992705
 30
0.0
 11
695.5353732754415
 21
-155.6950677530949
 31
0.0
  0
LINE
  5
572
  8
PREDEFINITO
 10
695.5353732754415
 20
-155.6950677530949
 30
0.0
 11
692.0145640929675
 21
-155.7287049927052
 31
0.0
  0
LINE
  5
573
  8
PREDEFINITO
 10
692.0145640929675
 20
-155.7287049927052
 30
0.0
 11
688.4944822652899
 21
-155.8296028134764
 31
0.0
  0
LINE
  5
574
  8
PREDEFINITO
 10
688.4944822652899
 20
-155.8296028134764
 30
0.0
 11
684.9758546464172
 21
-155.9977195355833
 31
0.0
  0
LINE
  5
575
  8
PREDEFINITO
 10
684.9758546464172
 20
-155.9977195355833
 30
0.0
 11
681.4594070895055
 21
-156.2329857404688
 31
0.0
  0
LINE
  5
576
  8
PREDEFINITO
 10
681.4594070895055
 20
-156.2329857404688
 30
0.0
 11
677.9458639482395
 21
-156.5353043424697
 31
0.0
  0
LINE
  5
577
  8
PREDEFINITO
 10
677.9458639482395
 20
-156.5353043424697
 30
0.0
 11
674.4359475803794
 21
-156.9045506889059
 31
0.0
  0
LINE
  5
578
  8
PREDEFINITO
 10
674.4359475803794
 20
-156.9045506889059
 30
0.0
 11
670.9303778541848
 21
-157.340572688432
 31
0.0
  0
LINE
  5
579
  8
PREDEFINITO
 10
670.9303778541848
 20
-157.340572688432
 30
0.0
 11
667.4298716584219
 21
-157.8431909674088
 31
0.0
  0
LINE
  5
57A
  8
PREDEFINITO
 10
667.4298716584219
 20
-157.8431909674088
 30
0.0
 11
663.9351424166523
 21
-158.4121990539957
 31
0.0
  0
LINE
  5
57B
  8
PREDEFINITO
 10
663.9351424166523
 20
-158.4121990539957
 30
0.0
 11
660.4468996064898
 21
-159.0473635896097
 31
0.0
  0
LINE
  5
57C
  8
PREDEFINITO
 10
660.4468996064898
 20
-159.0473635896097
 30
0.0
 11
656.965848284498
 21
-159.7484245673496
 31
0.0
  0
LINE
  5
57D
  8
PREDEFINITO
 10
656.965848284498
 20
-159.7484245673496
 30
0.0
 11
653.4926886173932
 21
-160.5150955969322
 31
0.0
  0
LINE
  5
57E
  8
PREDEFINITO
 10
653.4926886173932
 20
-160.5150955969322
 30
0.0
 11
650.028115420193
 21
-161.3470641956374
 31
0.0
  0
LINE
  5
57F
  8
PREDEFINITO
 10
650.028115420193
 20
-161.3470641956374
 30
0.0
 11
646.5728177019439
 21
-162.2439921047163
 31
0.0
  0
LINE
  5
580
  8
PREDEFINITO
 10
646.5728177019439
 20
-162.2439921047163
 30
0.0
 11
643.127478219636
 21
-163.205515630664
 31
0.0
  0
LINE
  5
581
  8
PREDEFINITO
 10
643.127478219636
 20
-163.205515630664
 30
0.0
 11
639.6927730408934
 21
-164.231246010724
 31
0.0
  0
LINE
  5
582
  8
PREDEFINITO
 10
639.6927730408934
 20
-164.231246010724
 30
0.0
 11
639.337505389185
 21
-163.6293417008843
 31
0.0
  0
LINE
  5
583
  8
PREDEFINITO
 10
639.337505389185
 20
-163.6293417008843
 30
0.0
 11
639.1142398408483
 21
-163.2735786034835
 31
0.0
  0
LINE
  5
584
  8
PREDEFINITO
 10
639.1142398408483
 20
-163.2735786034835
 30
0.0
 11
638.8837947643813
 21
-162.9225283589319
 31
0.0
  0
LINE
  5
585
  8
PREDEFINITO
 10
638.8837947643813
 20
-162.9225283589319
 30
0.0
 11
638.6462457815842
 21
-162.5762988097287
 31
0.0
  0
LINE
  5
586
  8
PREDEFINITO
 10
638.6462457815842
 20
-162.5762988097287
 30
0.0
 11
638.4016685142576
 21
-162.234997798374
 31
0.0
  0
LINE
  5
587
  8
PREDEFINITO
 10
638.4016685142576
 20
-162.234997798374
 30
0.0
 11
638.1501385842014
 21
-161.8987331673669
 31
0.0
  0
LINE
  5
588
  8
PREDEFINITO
 10
638.1501385842014
 20
-161.8987331673669
 30
0.0
 11
637.891731613216
 21
-161.5676127592075
 31
0.0
  0
LINE
  5
589
  8
PREDEFINITO
 10
637.891731613216
 20
-161.5676127592075
 30
0.0
 11
637.6265232231019
 21
-161.2417444163952
 31
0.0
  0
LINE
  5
58A
  8
PREDEFINITO
 10
637.6265232231019
 20
-161.2417444163952
 30
0.0
 11
637.3543966206005
 21
-160.9210138785309
 31
0.0
  0
LINE
  5
58B
  8
PREDEFINITO
 10
637.3543966206005
 20
-160.9210138785309
 30
0.0
 11
637.0758476260337
 21
-160.606021585567
 31
0.0
  0
LINE
  5
58C
  8
PREDEFINITO
 10
637.0758476260337
 20
-160.606021585567
 30
0.0
 11
636.7909687332026
 21
-160.2968619306916
 31
0.0
  0
LINE
  5
58D
  8
PREDEFINITO
 10
636.7909687332026
 20
-160.2968619306916
 30
0.0
 11
636.4998524359089
 21
-159.9936293070928
 31
0.0
  0
LINE
  5
58E
  8
PREDEFINITO
 10
636.4998524359089
 20
-159.9936293070928
 30
0.0
 11
636.2025912279539
 21
-159.6964181079591
 31
0.0
  0
LINE
  5
58F
  8
PREDEFINITO
 10
636.2025912279539
 20
-159.6964181079591
 30
0.0
 11
635.8992776031394
 21
-159.4053227264781
 31
0.0
  0
LINE
  5
590
  8
PREDEFINITO
 10
635.8992776031394
 20
-159.4053227264781
 30
0.0
 11
635.5900040552667
 21
-159.1204375558384
 31
0.0
  0
LINE
  5
591
  8
PREDEFINITO
 10
635.5900040552667
 20
-159.1204375558384
 30
0.0
 11
635.2748630781373
 21
-158.8418569892279
 31
0.0
  0
LINE
  5
592
  8
PREDEFINITO
 10
635.2748630781373
 20
-158.8418569892279
 30
0.0
 11
634.9584821896774
 21
-158.5734287363038
 31
0.0
  0
LINE
  5
593
  8
PREDEFINITO
 10
634.9584821896774
 20
-158.5734287363038
 30
0.0
 11
634.637071961457
 21
-158.3117116741481
 31
0.0
  0
LINE
  5
594
  8
PREDEFINITO
 10
634.637071961457
 20
-158.3117116741481
 30
0.0
 11
634.3104346828675
 21
-158.0565481115327
 31
0.0
  0
LINE
  5
595
  8
PREDEFINITO
 10
634.3104346828675
 20
-158.0565481115327
 30
0.0
 11
633.9783726433002
 21
-157.8077803572295
 31
0.0
  0
LINE
  5
596
  8
PREDEFINITO
 10
633.9783726433002
 20
-157.8077803572295
 30
0.0
 11
633.6411668585333
 21
-157.565612193385
 31
0.0
  0
LINE
  5
597
  8
PREDEFINITO
 10
633.6411668585333
 20
-157.565612193385
 30
0.0
 11
633.2994846094805
 21
-157.3305476503795
 31
0.0
  0
LINE
  5
598
  8
PREDEFINITO
 10
633.2994846094805
 20
-157.3305476503795
 30
0.0
 11
632.9531157346635
 21
-157.1024452582928
 31
0.0
  0
LINE
  5
599
  8
PREDEFINITO
 10
718.8934860556615
 20
-263.7769004020562
 30
0.0
 11
743.1488640721061
 21
-263.7769004020562
 31
0.0
  0
LINE
  5
59A
  8
PREDEFINITO
 10
743.1488640721061
 20
-263.7769004020562
 30
0.0
 11
754.9552329801311
 21
-263.7769004020562
 31
0.0
  0
LINE
  5
59B
  8
PREDEFINITO
 10
760.2983373834666
 20
-177.2186090680233
 30
0.0
 11
764.2995403655805
 21
-177.2186090680233
 31
0.0
  0
LINE
  5
59C
  8
PREDEFINITO
 10
764.2995403655805
 20
-177.2186090680233
 30
0.0
 11
764.2983373834666
 21
-166.8681776098242
 31
0.0
  0
LINE
  5
59D
  8
PREDEFINITO
 10
764.2983373834666
 20
-166.8681776098242
 30
0.0
 11
764.2983373834666
 21
-154.4333682687715
 31
0.0
  0
LINE
  5
59E
  8
PREDEFINITO
 10
764.2983373834666
 20
-154.4333682687715
 30
0.0
 11
763.9210819098428
 21
-154.5307030785627
 31
0.0
  0
LINE
  5
59F
  8
PREDEFINITO
 10
763.9210819098428
 20
-154.5307030785627
 30
0.0
 11
763.5460769883782
 21
-154.6350753289425
 31
0.0
  0
LINE
  5
5A0
  8
PREDEFINITO
 10
763.5460769883782
 20
-154.6350753289425
 30
0.0
 11
763.1731213326709
 21
-154.7465451418055
 31
0.0
  0
LINE
  5
5A1
  8
PREDEFINITO
 10
763.1731213326709
 20
-154.7465451418055
 30
0.0
 11
762.80201365632
 21
-154.8651726390461
 31
0.0
  0
LINE
  5
5A2
  8
PREDEFINITO
 10
762.80201365632
 20
-154.8651726390461
 30
0.0
 11
762.433759369407
 21
-154.9906106242356
 31
0.0
  0
LINE
  5
5A3
  8
PREDEFINITO
 10
762.433759369407
 20
-154.9906106242356
 30
0.0
 11
762.0682740211953
 21
-155.1228814439422
 31
0.0
  0
LINE
  5
5A4
  8
PREDEFINITO
 10
762.0682740211953
 20
-155.1228814439422
 30
0.0
 11
761.7053621662174
 21
-155.2620579326478
 31
0.0
  0
LINE
  5
5A5
  8
PREDEFINITO
 10
761.7053621662174
 20
-155.2620579326478
 30
0.0
 11
761.3448283590044
 21
-155.4082129248339
 31
0.0
  0
LINE
  5
5A6
  8
PREDEFINITO
 10
761.3448283590044
 20
-155.4082129248339
 30
0.0
 11
760.9726291111754
 21
-155.5675185065691
 31
0.0
  0
LINE
  5
5A7
  8
PREDEFINITO
 10
760.9726291111754
 20
-155.5675185065691
 30
0.0
 11
760.6039992826254
 21
-155.7339668148138
 31
0.0
  0
LINE
  5
5A8
  8
PREDEFINITO
 10
760.6039992826254
 20
-155.7339668148138
 30
0.0
 11
760.2387256528909
 21
-155.9076566683429
 31
0.0
  0
LINE
  5
5A9
  8
PREDEFINITO
 10
760.2387256528909
 20
-155.9076566683429
 30
0.0
 11
759.8765950015079
 21
-156.0886868859315
 31
0.0
  0
LINE
  5
5AA
  8
PREDEFINITO
 10
759.8765950015079
 20
-156.0886868859315
 30
0.0
 11
759.5187158449244
 21
-156.2764671378372
 31
0.0
  0
LINE
  5
5AB
  8
PREDEFINITO
 10
759.5187158449244
 20
-156.2764671378372
 30
0.0
 11
759.1649421847458
 21
-156.471063542803
 31
0.0
  0
LINE
  5
5AC
  8
PREDEFINITO
 10
759.1649421847458
 20
-156.471063542803
 30
0.0
 11
758.8150703021413
 21
-156.6725907846512
 31
0.0
  0
LINE
  5
5AD
  8
PREDEFINITO
 10
758.8150703021413
 20
-156.6725907846512
 30
0.0
 11
758.4688964782799
 21
-156.8811635472043
 31
0.0
  0
LINE
  5
5AE
  8
PREDEFINITO
 10
758.4688964782799
 20
-156.8811635472043
 30
0.0
 11
758.1176308162198
 21
-157.1024452582928
 31
0.0
  0
LINE
  5
5AF
  8
PREDEFINITO
 10
758.1176308162198
 20
-157.1024452582928
 30
0.0
 11
757.7712619414026
 21
-157.3305476503795
 31
0.0
  0
LINE
  5
5B0
  8
PREDEFINITO
 10
757.7712619414026
 20
-157.3305476503795
 30
0.0
 11
757.4295796923498
 21
-157.565612193385
 31
0.0
  0
LINE
  5
5B1
  8
PREDEFINITO
 10
757.4295796923498
 20
-157.565612193385
 30
0.0
 11
757.0923739075829
 21
-157.8077803572295
 31
0.0
  0
LINE
  5
5B2
  8
PREDEFINITO
 10
757.0923739075829
 20
-157.8077803572295
 30
0.0
 11
756.7603118680158
 21
-158.0565481115327
 31
0.0
  0
LINE
  5
5B3
  8
PREDEFINITO
 10
756.7603118680158
 20
-158.0565481115327
 30
0.0
 11
756.4336745894263
 21
-158.3117116741481
 31
0.0
  0
LINE
  5
5B4
  8
PREDEFINITO
 10
756.4336745894263
 20
-158.3117116741481
 30
0.0
 11
756.1122643612057
 21
-158.5734287363038
 31
0.0
  0
LINE
  5
5B5
  8
PREDEFINITO
 10
756.1122643612057
 20
-158.5734287363038
 30
0.0
 11
755.7958834727458
 21
-158.8418569892279
 31
0.0
  0
LINE
  5
5B6
  8
PREDEFINITO
 10
755.7958834727458
 20
-158.8418569892279
 30
0.0
 11
755.4807424956166
 21
-159.1204375558384
 31
0.0
  0
LINE
  5
5B7
  8
PREDEFINITO
 10
755.4807424956166
 20
-159.1204375558384
 30
0.0
 11
755.1714689477437
 21
-159.4053227264781
 31
0.0
  0
LINE
  5
5B8
  8
PREDEFINITO
 10
755.1714689477437
 20
-159.4053227264781
 30
0.0
 11
754.8681553229294
 21
-159.6964181079591
 31
0.0
  0
LINE
  5
5B9
  8
PREDEFINITO
 10
754.8681553229294
 20
-159.6964181079591
 30
0.0
 11
754.5708941149744
 21
-159.9936293070928
 31
0.0
  0
LINE
  5
5BA
  8
PREDEFINITO
 10
754.5708941149744
 20
-159.9936293070928
 30
0.0
 11
754.2797778176807
 21
-160.2968619306916
 31
0.0
  0
LINE
  5
5BB
  8
PREDEFINITO
 10
754.2797778176807
 20
-160.2968619306916
 30
0.0
 11
753.9948989248496
 21
-160.606021585567
 31
0.0
  0
LINE
  5
5BC
  8
PREDEFINITO
 10
753.9948989248496
 20
-160.606021585567
 30
0.0
 11
753.7163499302826
 21
-160.9210138785309
 31
0.0
  0
LINE
  5
5BD
  8
PREDEFINITO
 10
753.7163499302826
 20
-160.9210138785309
 30
0.0
 11
753.4442233277814
 21
-161.2417444163952
 31
0.0
  0
LINE
  5
5BE
  8
PREDEFINITO
 10
753.4442233277814
 20
-161.2417444163952
 30
0.0
 11
753.1790149376673
 21
-161.5676127592075
 31
0.0
  0
LINE
  5
5BF
  8
PREDEFINITO
 10
753.1790149376673
 20
-161.5676127592075
 30
0.0
 11
752.9206079666819
 21
-161.8987331673669
 31
0.0
  0
LINE
  5
5C0
  8
PREDEFINITO
 10
752.9206079666819
 20
-161.8987331673669
 30
0.0
 11
752.6690780366257
 21
-162.234997798374
 31
0.0
  0
LINE
  5
5C1
  8
PREDEFINITO
 10
752.6690780366257
 20
-162.234997798374
 30
0.0
 11
752.4245007692989
 21
-162.5762988097287
 31
0.0
  0
LINE
  5
5C2
  8
PREDEFINITO
 10
752.4245007692989
 20
-162.5762988097287
 30
0.0
 11
752.186951786502
 21
-162.9225283589319
 31
0.0
  0
LINE
  5
5C3
  8
PREDEFINITO
 10
752.186951786502
 20
-162.9225283589319
 30
0.0
 11
751.956506710035
 21
-163.2735786034835
 31
0.0
  0
LINE
  5
5C4
  8
PREDEFINITO
 10
751.956506710035
 20
-163.2735786034835
 30
0.0
 11
751.7332411616983
 21
-163.6293417008843
 31
0.0
  0
LINE
  5
5C5
  8
PREDEFINITO
 10
751.7332411616983
 20
-163.6293417008843
 30
0.0
 11
751.3779735099902
 21
-164.2312460107239
 31
0.0
  0
LINE
  5
5C6
  8
PREDEFINITO
 10
751.3779735099902
 20
-164.2312460107239
 30
0.0
 11
747.9432683312473
 21
-163.2055156306638
 31
0.0
  0
LINE
  5
5C7
  8
PREDEFINITO
 10
747.9432683312473
 20
-163.2055156306638
 30
0.0
 11
744.4979288489392
 21
-162.2439921047159
 31
0.0
  0
LINE
  5
5C8
  8
PREDEFINITO
 10
744.4979288489392
 20
-162.2439921047159
 30
0.0
 11
741.0426311306903
 21
-161.3470641956372
 31
0.0
  0
LINE
  5
5C9
  8
PREDEFINITO
 10
741.0426311306903
 20
-161.3470641956372
 30
0.0
 11
737.5780579334901
 21
-160.515095596932
 31
0.0
  0
LINE
  5
5CA
  8
PREDEFINITO
 10
737.5780579334901
 20
-160.515095596932
 30
0.0
 11
734.1048982663854
 21
-159.7484245673496
 31
0.0
  0
LINE
  5
5CB
  8
PREDEFINITO
 10
457.9365391019571
 20
-148.200265554875
 30
0.0
 11
457.9365391019571
 21
-160.6350748959277
 31
0.0
  0
LINE
  5
5CC
  8
PREDEFINITO
 10
457.9365391019571
 20
-160.6350748959277
 30
0.0
 11
461.9365391019571
 21
-160.6350748959277
 31
0.0
  0
LINE
  5
5CD
  8
PREDEFINITO
 10
461.9365391019571
 20
-160.6350748959277
 30
0.0
 11
461.9365391019571
 21
-170.9855063541268
 31
0.0
  0
LINE
  5
5CE
  8
PREDEFINITO
 10
461.9365391019571
 20
-170.9855063541268
 30
0.0
 11
473.7429080099818
 21
-170.9855063541268
 31
0.0
  0
LINE
  5
5CF
  8
PREDEFINITO
 10
473.7429080099818
 20
-170.9855063541268
 30
0.0
 11
497.9982860264267
 21
-170.9855063541268
 31
0.0
  0
LINE
  5
5D0
  8
PREDEFINITO
 10
497.9982860264267
 20
-170.9855063541268
 30
0.0
 11
497.9982860264267
 21
-160.985400087118
 31
0.0
  0
LINE
  5
5D1
  8
PREDEFINITO
 10
497.9982860264267
 20
-160.985400087118
 30
0.0
 11
502.1982860264265
 21
-160.985400087118
 31
0.0
  0
LINE
  5
5D2
  8
PREDEFINITO
 10
502.1982860264265
 20
-160.985400087118
 30
0.0
 11
502.1982860264265
 21
-170.9855063541268
 31
0.0
  0
LINE
  5
5D3
  8
PREDEFINITO
 10
502.1982860264265
 20
-170.9855063541268
 30
0.0
 11
524.5995032099819
 21
-170.9855063541268
 31
0.0
  0
LINE
  5
5D4
  8
PREDEFINITO
 10
524.5995032099819
 20
-170.9855063541268
 30
0.0
 11
524.5995032099819
 21
-160.985400087118
 31
0.0
  0
LINE
  5
5D5
  8
PREDEFINITO
 10
524.5995032099819
 20
-160.985400087118
 30
0.0
 11
528.799503209982
 21
-160.985400087118
 31
0.0
  0
LINE
  5
5D6
  8
PREDEFINITO
 10
528.799503209982
 20
-160.985400087118
 30
0.0
 11
528.799503209982
 21
-170.9855063541268
 31
0.0
  0
LINE
  5
5D7
  8
PREDEFINITO
 10
528.799503209982
 20
-170.9855063541268
 30
0.0
 11
551.2007203935373
 21
-170.9855063541268
 31
0.0
  0
LINE
  5
5D8
  8
PREDEFINITO
 10
551.2007203935373
 20
-170.9855063541268
 30
0.0
 11
551.2007203935373
 21
-160.985400087118
 31
0.0
  0
LINE
  5
5D9
  8
PREDEFINITO
 10
551.2007203935373
 20
-160.985400087118
 30
0.0
 11
555.4007203935372
 21
-160.985400087118
 31
0.0
  0
LINE
  5
5DA
  8
PREDEFINITO
 10
555.4007203935372
 20
-160.985400087118
 30
0.0
 11
555.4007203935372
 21
-170.9855063541268
 31
0.0
  0
LINE
  5
5DB
  8
PREDEFINITO
 10
555.4007203935372
 20
-170.9855063541268
 30
0.0
 11
579.656098409982
 21
-170.9855063541268
 31
0.0
  0
LINE
  5
5DC
  8
PREDEFINITO
 10
579.656098409982
 20
-170.9855063541268
 30
0.0
 11
591.4624673180069
 21
-170.9855063541268
 31
0.0
  0
LINE
  5
5DD
  8
PREDEFINITO
 10
264.2325434870125
 20
-259.4428760226859
 30
0.0
 11
268.2337464691264
 21
-259.4428760226859
 31
0.0
  0
LINE
  5
5DE
  8
PREDEFINITO
 10
268.2337464691264
 20
-259.4428760226859
 30
0.0
 11
268.2325434870125
 21
-249.0924445644868
 31
0.0
  0
LINE
  5
5DF
  8
PREDEFINITO
 10
268.2325434870125
 20
-249.0924445644868
 30
0.0
 11
268.2325434870125
 21
-236.6576352234342
 31
0.0
  0
LINE
  5
5E0
  8
PREDEFINITO
 10
268.2325434870125
 20
-236.6576352234342
 30
0.0
 11
267.8552880133887
 21
-236.7549700332253
 31
0.0
  0
LINE
  5
5E1
  8
PREDEFINITO
 10
267.8552880133887
 20
-236.7549700332253
 30
0.0
 11
267.4802830919241
 21
-236.8593422836051
 31
0.0
  0
LINE
  5
5E2
  8
PREDEFINITO
 10
267.4802830919241
 20
-236.8593422836051
 30
0.0
 11
267.1073274362168
 21
-236.9708120964681
 31
0.0
  0
LINE
  5
5E3
  8
PREDEFINITO
 10
267.1073274362168
 20
-236.9708120964681
 30
0.0
 11
266.7362197598659
 21
-237.0894395937087
 31
0.0
  0
LINE
  5
5E4
  8
PREDEFINITO
 10
266.7362197598659
 20
-237.0894395937087
 30
0.0
 11
266.3679654729529
 21
-237.2148775788982
 31
0.0
  0
LINE
  5
5E5
  8
PREDEFINITO
 10
266.3679654729529
 20
-237.2148775788982
 30
0.0
 11
266.0024801247412
 21
-237.3471483986049
 31
0.0
  0
LINE
  5
5E6
  8
PREDEFINITO
 10
266.0024801247412
 20
-237.3471483986049
 30
0.0
 11
265.6395682697633
 21
-237.4863248873104
 31
0.0
  0
LINE
  5
5E7
  8
PREDEFINITO
 10
265.6395682697633
 20
-237.4863248873104
 30
0.0
 11
265.2790344625503
 21
-237.6324798794965
 31
0.0
  0
LINE
  5
5E8
  8
PREDEFINITO
 10
265.2790344625503
 20
-237.6324798794965
 30
0.0
 11
264.9068352147213
 21
-237.7917854612318
 31
0.0
  0
LINE
  5
5E9
  8
PREDEFINITO
 10
264.9068352147213
 20
-237.7917854612318
 30
0.0
 11
264.5382053861713
 21
-237.9582337694764
 31
0.0
  0
LINE
  5
5EA
  8
PREDEFINITO
 10
264.5382053861713
 20
-237.9582337694764
 30
0.0
 11
264.1729317564369
 21
-238.1319236230054
 31
0.0
  0
LINE
  5
5EB
  8
PREDEFINITO
 10
264.1729317564369
 20
-238.1319236230054
 30
0.0
 11
263.8108011050538
 21
-238.3129538405942
 31
0.0
  0
LINE
  5
5EC
  8
PREDEFINITO
 10
263.8108011050538
 20
-238.3129538405942
 30
0.0
 11
263.4529219484703
 21
-238.5007340924997
 31
0.0
  0
LINE
  5
5ED
  8
PREDEFINITO
 10
263.4529219484703
 20
-238.5007340924997
 30
0.0
 11
263.0991482882917
 21
-238.6953304974655
 31
0.0
  0
LINE
  5
5EE
  8
PREDEFINITO
 10
263.0991482882917
 20
-238.6953304974655
 30
0.0
 11
262.7492764056872
 21
-238.8968577393138
 31
0.0
  0
LINE
  5
5EF
  8
PREDEFINITO
 10
262.7492764056872
 20
-238.8968577393138
 30
0.0
 11
262.4031025818259
 21
-239.1054305018669
 31
0.0
  0
LINE
  5
5F0
  8
PREDEFINITO
 10
262.4031025818259
 20
-239.1054305018669
 30
0.0
 11
262.0518369197658
 21
-239.3267122129553
 31
0.0
  0
LINE
  5
5F1
  8
PREDEFINITO
 10
262.0518369197658
 20
-239.3267122129553
 30
0.0
 11
261.7054680449485
 21
-239.5548146050423
 31
0.0
  0
LINE
  5
5F2
  8
PREDEFINITO
 10
261.7054680449485
 20
-239.5548146050423
 30
0.0
 11
261.3637857958958
 21
-239.7898791480475
 31
0.0
  0
LINE
  5
5F3
  8
PREDEFINITO
 10
261.3637857958958
 20
-239.7898791480475
 30
0.0
 11
261.0265800111288
 21
-240.0320473118921
 31
0.0
  0
LINE
  5
5F4
  8
PREDEFINITO
 10
261.0265800111288
 20
-240.0320473118921
 30
0.0
 11
260.6945179715618
 21
-240.2808150661953
 31
0.0
  0
LINE
  5
5F5
  8
PREDEFINITO
 10
260.6945179715618
 20
-240.2808150661953
 30
0.0
 11
260.3678806929723
 21
-240.5359786288107
 31
0.0
  0
LINE
  5
5F6
  8
PREDEFINITO
 10
260.3678806929723
 20
-240.5359786288107
 30
0.0
 11
260.0464704647516
 21
-240.7976956909665
 31
0.0
  0
LINE
  5
5F7
  8
PREDEFINITO
 10
260.0464704647516
 20
-240.7976956909665
 30
0.0
 11
259.7300895762917
 21
-241.0661239438905
 31
0.0
  0
LINE
  5
5F8
  8
PREDEFINITO
 10
259.7300895762917
 20
-241.0661239438905
 30
0.0
 11
259.4149485991625
 21
-241.3447045105009
 31
0.0
  0
LINE
  5
5F9
  8
PREDEFINITO
 10
259.4149485991625
 20
-241.3447045105009
 30
0.0
 11
259.1056750512897
 21
-241.6295896811408
 31
0.0
  0
LINE
  5
5FA
  8
PREDEFINITO
 10
259.1056750512897
 20
-241.6295896811408
 30
0.0
 11
258.8023614264753
 21
-241.9206850626218
 31
0.0
  0
LINE
  5
5FB
  8
PREDEFINITO
 10
258.8023614264753
 20
-241.9206850626218
 30
0.0
 11
258.5051002185203
 21
-242.2178962617555
 31
0.0
  0
LINE
  5
5FC
  8
PREDEFINITO
 10
258.5051002185203
 20
-242.2178962617555
 30
0.0
 11
258.2139839212266
 21
-242.5211288853541
 31
0.0
  0
LINE
  5
5FD
  8
PREDEFINITO
 10
655.1037952031543
 20
-245.6056549236428
 30
0.0
 11
651.6227438811625
 21
-246.3067159013826
 31
0.0
  0
LINE
  5
5FE
  8
PREDEFINITO
 10
651.6227438811625
 20
-246.3067159013826
 30
0.0
 11
648.1495842140578
 21
-247.0733869309652
 31
0.0
  0
LINE
  5
5FF
  8
PREDEFINITO
 10
648.1495842140578
 20
-247.0733869309652
 30
0.0
 11
644.6850110168575
 21
-247.9053555296704
 31
0.0
  0
LINE
  5
600
  8
PREDEFINITO
 10
644.6850110168575
 20
-247.9053555296704
 30
0.0
 11
641.2297132986084
 21
-248.8022834387493
 31
0.0
  0
LINE
  5
601
  8
PREDEFINITO
 10
641.2297132986084
 20
-248.8022834387493
 30
0.0
 11
637.7843738163006
 21
-249.763806964697
 31
0.0
  0
LINE
  5
602
  8
PREDEFINITO
 10
637.7843738163006
 20
-249.763806964697
 30
0.0
 11
634.3496686375579
 21
-250.789537344757
 31
0.0
  0
LINE
  5
603
  8
PREDEFINITO
 10
634.3496686375579
 20
-250.789537344757
 30
0.0
 11
633.9944009858496
 21
-250.1876330349173
 31
0.0
  0
LINE
  5
604
  8
PREDEFINITO
 10
633.9944009858496
 20
-250.1876330349173
 30
0.0
 11
633.7711354375128
 21
-249.8318699375166
 31
0.0
  0
LINE
  5
605
  8
PREDEFINITO
 10
633.7711354375128
 20
-249.8318699375166
 30
0.0
 11
633.5406903610458
 21
-249.4808196929649
 31
0.0
  0
LINE
  5
606
  8
PREDEFINITO
 10
633.5406903610458
 20
-249.4808196929649
 30
0.0
 11
633.3031413782487
 21
-249.1345901437617
 31
0.0
  0
LINE
  5
607
  8
PREDEFINITO
 10
633.3031413782487
 20
-249.1345901437617
 30
0.0
 11
633.0585641109221
 21
-248.7932891324069
 31
0.0
  0
LINE
  5
608
  8
PREDEFINITO
 10
633.0585641109221
 20
-248.7932891324069
 30
0.0
 11
632.8070341808659
 21
-248.4570245013999
 31
0.0
  0
LINE
  5
609
  8
PREDEFINITO
 10
632.8070341808659
 20
-248.4570245013999
 30
0.0
 11
632.5486272098806
 21
-248.1259040932405
 31
0.0
  0
LINE
  5
60A
  8
PREDEFINITO
 10
632.5486272098806
 20
-248.1259040932405
 30
0.0
 11
632.2834188197664
 21
-247.8000357504283
 31
0.0
  0
LINE
  5
60B
  8
PREDEFINITO
 10
632.2834188197664
 20
-247.8000357504283
 30
0.0
 11
632.011292217265
 21
-247.4793052125639
 31
0.0
  0
LINE
  5
60C
  8
PREDEFINITO
 10
632.011292217265
 20
-247.4793052125639
 30
0.0
 11
631.7327432226982
 21
-247.1643129196
 31
0.0
  0
LINE
  5
60D
  8
PREDEFINITO
 10
631.7327432226982
 20
-247.1643129196
 30
0.0
 11
631.4478643298671
 21
-246.8551532647245
 31
0.0
  0
LINE
  5
60E
  8
PREDEFINITO
 10
631.4478643298671
 20
-246.8551532647245
 30
0.0
 11
631.1567480325734
 21
-246.5519206411258
 31
0.0
  0
LINE
  5
60F
  8
PREDEFINITO
 10
631.1567480325734
 20
-246.5519206411258
 30
0.0
 11
630.8594868246184
 21
-246.2547094419921
 31
0.0
  0
LINE
  5
610
  8
PREDEFINITO
 10
630.8594868246184
 20
-246.2547094419921
 30
0.0
 11
630.5561731998039
 21
-245.9636140605111
 31
0.0
  0
LINE
  5
611
  8
PREDEFINITO
 10
630.5561731998039
 20
-245.9636140605111
 30
0.0
 11
630.2468996519312
 21
-245.6787288898714
 31
0.0
  0
LINE
  5
612
  8
PREDEFINITO
 10
630.2468996519312
 20
-245.6787288898714
 30
0.0
 11
629.9317586748018
 21
-245.400148323261
 31
0.0
  0
LINE
  5
613
  8
PREDEFINITO
 10
629.9317586748018
 20
-245.400148323261
 30
0.0
 11
629.6153777863419
 21
-245.1317200703368
 31
0.0
  0
LINE
  5
614
  8
PREDEFINITO
 10
629.6153777863419
 20
-245.1317200703368
 30
0.0
 11
629.2939675581215
 21
-244.8700030081811
 31
0.0
  0
LINE
  5
615
  8
PREDEFINITO
 10
629.2939675581215
 20
-244.8700030081811
 30
0.0
 11
628.967330279532
 21
-244.6148394455657
 31
0.0
  0
LINE
  5
616
  8
PREDEFINITO
 10
628.967330279532
 20
-244.6148394455657
 30
0.0
 11
628.6352682399647
 21
-244.3660716912626
 31
0.0
  0
LINE
  5
617
  8
PREDEFINITO
 10
628.6352682399647
 20
-244.3660716912626
 30
0.0
 11
628.2980624551979
 21
-244.123903527418
 31
0.0
  0
LINE
  5
618
  8
PREDEFINITO
 10
628.2980624551979
 20
-244.123903527418
 30
0.0
 11
627.956380206145
 21
-243.8888389844125
 31
0.0
  0
LINE
  5
619
  8
PREDEFINITO
 10
627.956380206145
 20
-243.8888389844125
 30
0.0
 11
627.610011331328
 21
-243.6607365923257
 31
0.0
  0
LINE
  5
61A
  8
PREDEFINITO
 10
627.610011331328
 20
-243.6607365923257
 30
0.0
 11
627.2587456692679
 21
-243.4394548812373
 31
0.0
  0
LINE
  5
61B
  8
PREDEFINITO
 10
627.2587456692679
 20
-243.4394548812373
 30
0.0
 11
626.9125718454063
 21
-243.2308821186842
 31
0.0
  0
LINE
  5
61C
  8
PREDEFINITO
 10
626.9125718454063
 20
-243.2308821186842
 30
0.0
 11
626.5626999628018
 21
-243.0293548768358
 31
0.0
  0
LINE
  5
61D
  8
PREDEFINITO
 10
626.5626999628018
 20
-243.0293548768358
 30
0.0
 11
626.2089263026235
 21
-242.8347584718701
 31
0.0
  0
LINE
  5
61E
  8
PREDEFINITO
 10
626.2089263026235
 20
-242.8347584718701
 30
0.0
 11
625.85104714604
 21
-242.6469782199644
 31
0.0
  0
LINE
  5
61F
  8
PREDEFINITO
 10
625.85104714604
 20
-242.6469782199644
 30
0.0
 11
625.488916494657
 21
-242.4659480023759
 31
0.0
  0
LINE
  5
620
  8
PREDEFINITO
 10
625.488916494657
 20
-242.4659480023759
 30
0.0
 11
625.1236428649222
 21
-242.2922581488468
 31
0.0
  0
LINE
  5
621
  8
PREDEFINITO
 10
625.1236428649222
 20
-242.2922581488468
 30
0.0
 11
624.7550130363722
 21
-242.1258098406021
 31
0.0
  0
LINE
  5
622
  8
PREDEFINITO
 10
624.7550130363722
 20
-242.1258098406021
 30
0.0
 11
624.3828137885433
 21
-241.9665042588668
 31
0.0
  0
LINE
  5
623
  8
PREDEFINITO
 10
624.3828137885433
 20
-241.9665042588668
 30
0.0
 11
624.0222799813305
 21
-241.8203492666809
 31
0.0
  0
LINE
  5
624
  8
PREDEFINITO
 10
624.0222799813305
 20
-241.8203492666809
 30
0.0
 11
623.6593681263524
 21
-241.6811727779752
 31
0.0
  0
LINE
  5
625
  8
PREDEFINITO
 10
623.6593681263524
 20
-241.6811727779752
 30
0.0
 11
623.2938827781409
 21
-241.5489019582686
 31
0.0
  0
LINE
  5
626
  8
PREDEFINITO
 10
623.2938827781409
 20
-241.5489019582686
 30
0.0
 11
622.9256284912278
 21
-241.423463973079
 31
0.0
  0
LINE
  5
627
  8
PREDEFINITO
 10
622.9256284912278
 20
-241.423463973079
 30
0.0
 11
622.5545208148767
 21
-241.3048364758386
 31
0.0
  0
LINE
  5
628
  8
PREDEFINITO
 10
622.5545208148767
 20
-241.3048364758386
 30
0.0
 11
622.1815651591697
 21
-241.1933666629756
 31
0.0
  0
LINE
  5
629
  8
PREDEFINITO
 10
622.1815651591697
 20
-241.1933666629756
 30
0.0
 11
621.8065602377048
 21
-241.0889944125956
 31
0.0
  0
LINE
  5
62A
  8
PREDEFINITO
 10
621.8065602377048
 20
-241.0889944125956
 30
0.0
 11
621.4293047640813
 21
-240.9916596028045
 31
0.0
  0
LINE
  5
62B
  8
PREDEFINITO
 10
621.4293047640813
 20
-240.9916596028045
 30
0.0
 11
621.4293047640813
 21
-253.4264689438572
 31
0.0
  0
LINE
  5
62C
  8
PREDEFINITO
 10
621.4293047640813
 20
-253.4264689438572
 30
0.0
 11
625.4293047640813
 21
-253.4264689438572
 31
0.0
  0
LINE
  5
62D
  8
PREDEFINITO
 10
625.4293047640813
 20
-253.4264689438572
 30
0.0
 11
625.4293047640813
 21
-263.7769004020562
 31
0.0
  0
LINE
  5
62E
  8
PREDEFINITO
 10
625.4293047640813
 20
-263.7769004020562
 30
0.0
 11
637.235673672106
 21
-263.7769004020562
 31
0.0
  0
LINE
  5
62F
  8
PREDEFINITO
 10
753.1257920749445
 20
-243.4394548812373
 30
0.0
 11
752.7745264128844
 21
-243.6607365923257
 31
0.0
  0
LINE
  5
630
  8
PREDEFINITO
 10
752.7745264128844
 20
-243.6607365923257
 30
0.0
 11
752.4281575380671
 21
-243.8888389844125
 31
0.0
  0
LINE
  5
631
  8
PREDEFINITO
 10
752.4281575380671
 20
-243.8888389844125
 30
0.0
 11
752.0864752890143
 21
-244.123903527418
 31
0.0
  0
LINE
  5
632
  8
PREDEFINITO
 10
752.0864752890143
 20
-244.123903527418
 30
0.0
 11
751.7492695042474
 21
-244.3660716912626
 31
0.0
  0
LINE
  5
633
  8
PREDEFINITO
 10
751.7492695042474
 20
-244.3660716912626
 30
0.0
 11
751.4172074646804
 21
-244.6148394455657
 31
0.0
  0
LINE
  5
634
  8
PREDEFINITO
 10
751.4172074646804
 20
-244.6148394455657
 30
0.0
 11
751.0905701860909
 21
-244.8700030081811
 31
0.0
  0
LINE
  5
635
  8
PREDEFINITO
 10
751.0905701860909
 20
-244.8700030081811
 30
0.0
 11
750.7691599578702
 21
-245.1317200703368
 31
0.0
  0
LINE
  5
636
  8
PREDEFINITO
 10
750.7691599578702
 20
-245.1317200703368
 30
0.0
 11
750.4527790694103
 21
-245.400148323261
 31
0.0
  0
LINE
  5
637
  8
PREDEFINITO
 10
750.4527790694103
 20
-245.400148323261
 30
0.0
 11
750.1376380922811
 21
-245.6787288898714
 31
0.0
  0
LINE
  5
638
  8
PREDEFINITO
 10
750.1376380922811
 20
-245.6787288898714
 30
0.0
 11
749.8283645444083
 21
-245.9636140605111
 31
0.0
  0
LINE
  5
639
  8
PREDEFINITO
 10
749.8283645444083
 20
-245.9636140605111
 30
0.0
 11
749.5250509195939
 21
-246.2547094419921
 31
0.0
  0
LINE
  5
63A
  8
PREDEFINITO
 10
749.5250509195939
 20
-246.2547094419921
 30
0.0
 11
749.2277897116389
 21
-246.5519206411258
 31
0.0
  0
LINE
  5
63B
  8
PREDEFINITO
 10
749.2277897116389
 20
-246.5519206411258
 30
0.0
 11
748.9366734143453
 21
-246.8551532647245
 31
0.0
  0
LINE
  5
63C
  8
PREDEFINITO
 10
748.9366734143453
 20
-246.8551532647245
 30
0.0
 11
748.6517945215141
 21
-247.1643129196
 31
0.0
  0
LINE
  5
63D
  8
PREDEFINITO
 10
748.6517945215141
 20
-247.1643129196
 30
0.0
 11
748.3732455269471
 21
-247.4793052125639
 31
0.0
  0
LINE
  5
63E
  8
PREDEFINITO
 10
748.3732455269471
 20
-247.4793052125639
 30
0.0
 11
748.1011189244459
 21
-247.8000357504283
 31
0.0
  0
LINE
  5
63F
  8
PREDEFINITO
 10
748.1011189244459
 20
-247.8000357504283
 30
0.0
 11
747.8359105343318
 21
-248.1259040932405
 31
0.0
  0
LINE
  5
640
  8
PREDEFINITO
 10
747.8359105343318
 20
-248.1259040932405
 30
0.0
 11
747.5775035633465
 21
-248.4570245013999
 31
0.0
  0
LINE
  5
641
  8
PREDEFINITO
 10
747.5775035633465
 20
-248.4570245013999
 30
0.0
 11
747.3259736332902
 21
-248.7932891324069
 31
0.0
  0
LINE
  5
642
  8
PREDEFINITO
 10
747.3259736332902
 20
-248.7932891324069
 30
0.0
 11
747.0813963659634
 21
-249.1345901437617
 31
0.0
  0
LINE
  5
643
  8
PREDEFINITO
 10
747.0813963659634
 20
-249.1345901437617
 30
0.0
 11
746.8438473831666
 21
-249.4808196929649
 31
0.0
  0
LINE
  5
644
  8
PREDEFINITO
 10
746.8438473831666
 20
-249.4808196929649
 30
0.0
 11
746.6134023066995
 21
-249.8318699375166
 31
0.0
  0
LINE
  5
645
  8
PREDEFINITO
 10
746.6134023066995
 20
-249.8318699375166
 30
0.0
 11
746.3901367583628
 21
-250.1876330349173
 31
0.0
  0
LINE
  5
646
  8
PREDEFINITO
 10
746.3901367583628
 20
-250.1876330349173
 30
0.0
 11
746.0348691066547
 21
-250.7895373447569
 31
0.0
  0
LINE
  5
647
  8
PREDEFINITO
 10
746.0348691066547
 20
-250.7895373447569
 30
0.0
 11
742.6001639279118
 21
-249.7638069646968
 31
0.0
  0
LINE
  5
648
  8
PREDEFINITO
 10
742.6001639279118
 20
-249.7638069646968
 30
0.0
 11
739.1548244456037
 21
-248.8022834387489
 31
0.0
  0
LINE
  5
649
  8
PREDEFINITO
 10
739.1548244456037
 20
-248.8022834387489
 30
0.0
 11
735.6995267273549
 21
-247.9053555296701
 31
0.0
  0
LINE
  5
64A
  8
PREDEFINITO
 10
735.6995267273549
 20
-247.9053555296701
 30
0.0
 11
732.2349535301546
 21
-247.0733869309649
 31
0.0
  0
LINE
  5
64B
  8
PREDEFINITO
 10
732.2349535301546
 20
-247.0733869309649
 30
0.0
 11
728.7617938630499
 21
-246.3067159013826
 31
0.0
  0
LINE
  5
64C
  8
PREDEFINITO
 10
728.7617938630499
 20
-246.3067159013826
 30
0.0
 11
725.2807425410581
 21
-245.6056549236426
 31
0.0
  0
LINE
  5
64D
  8
PREDEFINITO
 10
725.2807425410581
 20
-245.6056549236426
 30
0.0
 11
721.7924997308955
 21
-244.9704903880287
 31
0.0
  0
LINE
  5
64E
  8
PREDEFINITO
 10
721.7924997308955
 20
-244.9704903880287
 30
0.0
 11
718.2977704891259
 21
-244.4014823014417
 31
0.0
  0
LINE
  5
64F
  8
PREDEFINITO
 10
718.2977704891259
 20
-244.4014823014417
 30
0.0
 11
714.797264293363
 21
-243.8988640224647
 31
0.0
  0
LINE
  5
650
  8
PREDEFINITO
 10
714.797264293363
 20
-243.8988640224647
 30
0.0
 11
711.2916945671684
 21
-243.4628420229387
 31
0.0
  0
LINE
  5
651
  8
PREDEFINITO
 10
711.2916945671684
 20
-243.4628420229387
 30
0.0
 11
707.7817781993083
 21
-243.0935956765024
 31
0.0
  0
LINE
  5
652
  8
PREDEFINITO
 10
707.7817781993083
 20
-243.0935956765024
 30
0.0
 11
704.2682350580424
 21
-242.7912770745016
 31
0.0
  0
LINE
  5
653
  8
PREDEFINITO
 10
704.2682350580424
 20
-242.7912770745016
 30
0.0
 11
700.7517875011306
 21
-242.5560108696163
 31
0.0
  0
LINE
  5
654
  8
PREDEFINITO
 10
700.7517875011306
 20
-242.5560108696163
 30
0.0
 11
697.233159882258
 21
-242.387894147509
 31
0.0
  0
LINE
  5
655
  8
PREDEFINITO
 10
697.233159882258
 20
-242.387894147509
 30
0.0
 11
693.7130780545804
 21
-242.2869963267379
 31
0.0
  0
LINE
  5
656
  8
PREDEFINITO
 10
693.7130780545804
 20
-242.2869963267379
 30
0.0
 11
690.1922688721061
 21
-242.2533590871279
 31
0.0
  0
LINE
  5
657
  8
PREDEFINITO
 10
690.1922688721061
 20
-242.2533590871279
 30
0.0
 11
686.671459689632
 21
-242.2869963267382
 31
0.0
  0
LINE
  5
658
  8
PREDEFINITO
 10
686.671459689632
 20
-242.2869963267382
 30
0.0
 11
683.1513778619544
 21
-242.3878941475094
 31
0.0
  0
LINE
  5
659
  8
PREDEFINITO
 10
683.1513778619544
 20
-242.3878941475094
 30
0.0
 11
679.6327502430818
 21
-242.5560108696163
 31
0.0
  0
LINE
  5
65A
  8
PREDEFINITO
 10
679.6327502430818
 20
-242.5560108696163
 30
0.0
 11
676.11630268617
 21
-242.7912770745017
 31
0.0
  0
LINE
  5
65B
  8
PREDEFINITO
 10
676.11630268617
 20
-242.7912770745017
 30
0.0
 11
672.6027595449041
 21
-243.0935956765027
 31
0.0
  0
LINE
  5
65C
  8
PREDEFINITO
 10
672.6027595449041
 20
-243.0935956765027
 30
0.0
 11
669.092843177044
 21
-243.462842022939
 31
0.0
  0
LINE
  5
65D
  8
PREDEFINITO
 10
669.092843177044
 20
-243.462842022939
 30
0.0
 11
665.5872734508494
 21
-243.898864022465
 31
0.0
  0
LINE
  5
65E
  8
PREDEFINITO
 10
665.5872734508494
 20
-243.898864022465
 30
0.0
 11
662.0867672550864
 21
-244.4014823014418
 31
0.0
  0
LINE
  5
65F
  8
PREDEFINITO
 10
662.0867672550864
 20
-244.4014823014418
 30
0.0
 11
658.5920380133168
 21
-244.9704903880287
 31
0.0
  0
LINE
  5
660
  8
PREDEFINITO
 10
658.5920380133168
 20
-244.9704903880287
 30
0.0
 11
655.1037952031543
 21
-245.6056549236428
 31
0.0
  0
LINE
  5
661
  8
PREDEFINITO
 10
627.2775471832906
 20
-204.3644067678555
 30
0.0
 11
626.9196680267071
 21
-204.1766265159497
 31
0.0
  0
LINE
  5
662
  8
PREDEFINITO
 10
626.9196680267071
 20
-204.1766265159497
 30
0.0
 11
626.557537375324
 21
-203.9955962983612
 31
0.0
  0
LINE
  5
663
  8
PREDEFINITO
 10
626.557537375324
 20
-203.9955962983612
 30
0.0
 11
626.1922637455893
 21
-203.8219064448321
 31
0.0
  0
LINE
  5
664
  8
PREDEFINITO
 10
626.1922637455893
 20
-203.8219064448321
 30
0.0
 11
625.8236339170394
 21
-203.6554581365874
 31
0.0
  0
LINE
  5
665
  8
PREDEFINITO
 10
625.8236339170394
 20
-203.6554581365874
 30
0.0
 11
625.4514346692104
 21
-203.4961525548522
 31
0.0
  0
LINE
  5
666
  8
PREDEFINITO
 10
625.4514346692104
 20
-203.4961525548522
 30
0.0
 11
625.0909008619976
 21
-203.3499975626663
 31
0.0
  0
LINE
  5
667
  8
PREDEFINITO
 10
625.0909008619976
 20
-203.3499975626663
 30
0.0
 11
624.7279890070195
 21
-203.2108210739605
 31
0.0
  0
LINE
  5
668
  8
PREDEFINITO
 10
624.7279890070195
 20
-203.2108210739605
 30
0.0
 11
624.3625036588079
 21
-203.0785502542539
 31
0.0
  0
LINE
  5
669
  8
PREDEFINITO
 10
624.3625036588079
 20
-203.0785502542539
 30
0.0
 11
623.994249371895
 21
-202.9531122690645
 31
0.0
  0
LINE
  5
66A
  8
PREDEFINITO
 10
623.994249371895
 20
-202.9531122690645
 30
0.0
 11
623.6231416955438
 21
-202.834484771824
 31
0.0
  0
LINE
  5
66B
  8
PREDEFINITO
 10
623.6231416955438
 20
-202.834484771824
 30
0.0
 11
623.2501860398368
 21
-202.723014958961
 31
0.0
  0
LINE
  5
66C
  8
PREDEFINITO
 10
623.2501860398368
 20
-202.723014958961
 30
0.0
 11
622.875181118372
 21
-202.6186427085811
 31
0.0
  0
LINE
  5
66D
  8
PREDEFINITO
 10
622.875181118372
 20
-202.6186427085811
 30
0.0
 11
622.4979256447484
 21
-202.5213078987898
 31
0.0
  0
LINE
  5
66E
  8
PREDEFINITO
 10
622.4979256447484
 20
-202.5213078987898
 30
0.0
 11
622.4979256447484
 21
-214.9561172398425
 31
0.0
  0
LINE
  5
66F
  8
PREDEFINITO
 10
622.4979256447484
 20
-214.9561172398425
 30
0.0
 11
626.4979256447484
 21
-214.9561172398425
 31
0.0
  0
LINE
  5
670
  8
PREDEFINITO
 10
626.4979256447484
 20
-214.9561172398425
 30
0.0
 11
626.4979256447484
 21
-225.3065486980417
 31
0.0
  0
LINE
  5
671
  8
PREDEFINITO
 10
626.4979256447484
 20
-225.3065486980417
 30
0.0
 11
638.3042945527732
 21
-225.3065486980417
 31
0.0
  0
LINE
  5
672
  8
PREDEFINITO
 10
638.3042945527732
 20
-225.3065486980417
 30
0.0
 11
662.559672569218
 21
-225.3065486980417
 31
0.0
  0
LINE
  5
673
  8
PREDEFINITO
 10
662.559672569218
 20
-225.3065486980417
 30
0.0
 11
662.559672569218
 21
-215.3064424310328
 31
0.0
  0
LINE
  5
674
  8
PREDEFINITO
 10
662.559672569218
 20
-215.3064424310328
 30
0.0
 11
666.7596725692179
 21
-215.3064424310328
 31
0.0
  0
LINE
  5
675
  8
PREDEFINITO
 10
666.7596725692179
 20
-215.3064424310328
 30
0.0
 11
666.7596725692179
 21
-225.3065486980417
 31
0.0
  0
LINE
  5
676
  8
PREDEFINITO
 10
666.7596725692179
 20
-225.3065486980417
 30
0.0
 11
689.1608897527733
 21
-225.3065486980417
 31
0.0
  0
LINE
  5
677
  8
PREDEFINITO
 10
689.1608897527733
 20
-225.3065486980417
 30
0.0
 11
689.1608897527733
 21
-215.3064424310328
 31
0.0
  0
LINE
  5
678
  8
PREDEFINITO
 10
689.1608897527733
 20
-215.3064424310328
 30
0.0
 11
693.3608897527733
 21
-215.3064424310328
 31
0.0
  0
LINE
  5
679
  8
PREDEFINITO
 10
693.3608897527733
 20
-215.3064424310328
 30
0.0
 11
693.3608897527733
 21
-225.3065486980417
 31
0.0
  0
LINE
  5
67A
  8
PREDEFINITO
 10
693.3608897527733
 20
-225.3065486980417
 30
0.0
 11
715.7621069363286
 21
-225.3065486980417
 31
0.0
  0
LINE
  5
67B
  8
PREDEFINITO
 10
715.7621069363286
 20
-225.3065486980417
 30
0.0
 11
715.7621069363286
 21
-215.3064424310328
 31
0.0
  0
LINE
  5
67C
  8
PREDEFINITO
 10
715.7621069363286
 20
-215.3064424310328
 30
0.0
 11
719.9621069363286
 21
-215.3064424310328
 31
0.0
  0
LINE
  5
67D
  8
PREDEFINITO
 10
719.9621069363286
 20
-215.3064424310328
 30
0.0
 11
719.9621069363286
 21
-225.3065486980417
 31
0.0
  0
LINE
  5
67E
  8
PREDEFINITO
 10
719.9621069363286
 20
-225.3065486980417
 30
0.0
 11
744.2174849527732
 21
-225.3065486980417
 31
0.0
  0
LINE
  5
67F
  8
PREDEFINITO
 10
744.2174849527732
 20
-225.3065486980417
 30
0.0
 11
756.0238538607982
 21
-225.3065486980417
 31
0.0
  0
LINE
  5
680
  8
PREDEFINITO
 10
754.9552329801311
 20
-263.7769004020562
 30
0.0
 11
758.956435962245
 21
-263.7769004020562
 31
0.0
  0
LINE
  5
681
  8
PREDEFINITO
 10
758.956435962245
 20
-263.7769004020562
 30
0.0
 11
758.9552329801311
 21
-253.4264689438572
 31
0.0
  0
LINE
  5
682
  8
PREDEFINITO
 10
758.9552329801311
 20
-253.4264689438572
 30
0.0
 11
758.9552329801311
 21
-240.9916596028045
 31
0.0
  0
LINE
  5
683
  8
PREDEFINITO
 10
758.9552329801311
 20
-240.9916596028045
 30
0.0
 11
758.5779775065073
 21
-241.0889944125956
 31
0.0
  0
LINE
  5
684
  8
PREDEFINITO
 10
758.5779775065073
 20
-241.0889944125956
 30
0.0
 11
758.2029725850427
 21
-241.1933666629756
 31
0.0
  0
LINE
  5
685
  8
PREDEFINITO
 10
758.2029725850427
 20
-241.1933666629756
 30
0.0
 11
757.8300169293354
 21
-241.3048364758386
 31
0.0
  0
LINE
  5
686
  8
PREDEFINITO
 10
757.8300169293354
 20
-241.3048364758386
 30
0.0
 11
757.4589092529845
 21
-241.423463973079
 31
0.0
  0
LINE
  5
687
  8
PREDEFINITO
 10
757.4589092529845
 20
-241.423463973079
 30
0.0
 11
757.0906549660715
 21
-241.5489019582686
 31
0.0
  0
LINE
  5
688
  8
PREDEFINITO
 10
757.0906549660715
 20
-241.5489019582686
 30
0.0
 11
756.7251696178598
 21
-241.6811727779752
 31
0.0
  0
LINE
  5
689
  8
PREDEFINITO
 10
756.7251696178598
 20
-241.6811727779752
 30
0.0
 11
756.3622577628819
 21
-241.8203492666809
 31
0.0
  0
LINE
  5
68A
  8
PREDEFINITO
 10
756.3622577628819
 20
-241.8203492666809
 30
0.0
 11
756.0017239556689
 21
-241.966504258867
 31
0.0
  0
LINE
  5
68B
  8
PREDEFINITO
 10
756.0017239556689
 20
-241.966504258867
 30
0.0
 11
755.6295247078399
 21
-242.1258098406021
 31
0.0
  0
LINE
  5
68C
  8
PREDEFINITO
 10
755.6295247078399
 20
-242.1258098406021
 30
0.0
 11
755.2608948792899
 21
-242.2922581488468
 31
0.0
  0
LINE
  5
68D
  8
PREDEFINITO
 10
755.2608948792899
 20
-242.2922581488468
 30
0.0
 11
754.8956212495555
 21
-242.4659480023759
 31
0.0
  0
LINE
  5
68E
  8
PREDEFINITO
 10
754.8956212495555
 20
-242.4659480023759
 30
0.0
 11
754.5334905981724
 21
-242.6469782199645
 31
0.0
  0
LINE
  5
68F
  8
PREDEFINITO
 10
754.5334905981724
 20
-242.6469782199645
 30
0.0
 11
754.1756114415889
 21
-242.8347584718701
 31
0.0
  0
LINE
  5
690
  8
PREDEFINITO
 10
754.1756114415889
 20
-242.8347584718701
 30
0.0
 11
753.8218377814103
 21
-243.0293548768358
 31
0.0
  0
LINE
  5
691
  8
PREDEFINITO
 10
753.8218377814103
 20
-243.0293548768358
 30
0.0
 11
753.4719658988058
 21
-243.2308821186842
 31
0.0
  0
LINE
  5
692
  8
PREDEFINITO
 10
753.4719658988058
 20
-243.2308821186842
 30
0.0
 11
753.1257920749445
 21
-243.4394548812373
 31
0.0
  0
LINE
  5
693
  8
PREDEFINITO
 10
892.5863750638043
 20
-196.2705901933797
 30
0.0
 11
892.5863750638043
 21
-174.2705901933797
 31
0.0
  0
LINE
  5
694
  8
PREDEFINITO
 10
887.5863750638043
 20
-174.2705901933797
 30
0.0
 11
787.5863750638043
 21
-174.2705901933797
 31
0.0
  0
LINE
  5
695
  8
PREDEFINITO
 10
782.5863750638043
 20
-174.2705901933797
 30
0.0
 11
782.5863750638043
 21
-196.2705901933797
 31
0.0
  0
LINE
  5
696
  8
PREDEFINITO
 10
787.5863750638043
 20
-196.2705901933797
 30
0.0
 11
801.19051001191
 21
-196.2705901933797
 31
0.0
  0
LINE
  5
697
  8
PREDEFINITO
 10
887.5863750638043
 20
-196.2705901933797
 30
0.0
 11
892.5863750638043
 21
-196.2705901933797
 31
0.0
  0
LINE
  5
698
  8
PREDEFINITO
 10
892.5863750638043
 20
-174.2705901933797
 30
0.0
 11
887.5863750638043
 21
-174.2705901933797
 31
0.0
  0
LINE
  5
699
  8
PREDEFINITO
 10
787.5863750638043
 20
-174.2705901933797
 30
0.0
 11
782.5863750638043
 21
-174.2705901933797
 31
0.0
  0
LINE
  5
69A
  8
PREDEFINITO
 10
782.5863750638043
 20
-196.2705901933797
 30
0.0
 11
787.5863750638043
 21
-196.2705901933797
 31
0.0
  0
LINE
  5
69B
  8
PREDEFINITO
 10
801.19051001191
 20
-196.2705901933797
 30
0.0
 11
801.19051001191
 21
-200.5705901933796
 31
0.0
  0
LINE
  5
69C
  8
PREDEFINITO
 10
801.19051001191
 20
-200.5705901933796
 30
0.0
 11
821.19051001191
 21
-200.5705901933796
 31
0.0
  0
LINE
  5
69D
  8
PREDEFINITO
 10
821.19051001191
 20
-200.5705901933796
 30
0.0
 11
821.19051001191
 21
-196.2705901933797
 31
0.0
  0
LINE
  5
69E
  8
PREDEFINITO
 10
821.19051001191
 20
-196.2705901933797
 30
0.0
 11
853.9822401156987
 21
-196.2705901933797
 31
0.0
  0
LINE
  5
69F
  8
PREDEFINITO
 10
853.9822401156987
 20
-196.2705901933797
 30
0.0
 11
853.9822401156987
 21
-200.5705901933796
 31
0.0
  0
LINE
  5
6A0
  8
PREDEFINITO
 10
853.9822401156987
 20
-200.5705901933796
 30
0.0
 11
873.9822401156987
 21
-200.5705901933796
 31
0.0
  0
LINE
  5
6A1
  8
PREDEFINITO
 10
873.9822401156987
 20
-200.5705901933796
 30
0.0
 11
873.9822401156987
 21
-196.2705901933797
 31
0.0
  0
LINE
  5
6A2
  8
PREDEFINITO
 10
873.9822401156987
 20
-196.2705901933797
 30
0.0
 11
887.5863750638043
 21
-196.2705901933797
 31
0.0
  0
LINE
  5
6A3
  8
PREDEFINITO
 10
756.0238538607982
 20
-225.3065486980417
 30
0.0
 11
760.0250568429121
 21
-225.3065486980417
 31
0.0
  0
LINE
  5
6A4
  8
PREDEFINITO
 10
760.0250568429121
 20
-225.3065486980417
 30
0.0
 11
760.0238538607982
 21
-214.9561172398425
 31
0.0
  0
LINE
  5
6A5
  8
PREDEFINITO
 10
760.0238538607982
 20
-214.9561172398425
 30
0.0
 11
760.0238538607982
 21
-202.5213078987898
 31
0.0
  0
LINE
  5
6A6
  8
PREDEFINITO
 10
760.0238538607982
 20
-202.5213078987898
 30
0.0
 11
759.6465983871744
 21
-202.6186427085811
 31
0.0
  0
LINE
  5
6A7
  8
PREDEFINITO
 10
759.6465983871744
 20
-202.6186427085811
 30
0.0
 11
759.2715934657099
 21
-202.723014958961
 31
0.0
  0
LINE
  5
6A8
  8
PREDEFINITO
 10
759.2715934657099
 20
-202.723014958961
 30
0.0
 11
758.8986378100026
 21
-202.834484771824
 31
0.0
  0
LINE
  5
6A9
  8
PREDEFINITO
 10
758.8986378100026
 20
-202.834484771824
 30
0.0
 11
758.5275301336517
 21
-202.9531122690645
 31
0.0
  0
LINE
  5
6AA
  8
PREDEFINITO
 10
758.5275301336517
 20
-202.9531122690645
 30
0.0
 11
758.1592758467386
 21
-203.0785502542539
 31
0.0
  0
LINE
  5
6AB
  8
PREDEFINITO
 10
758.1592758467386
 20
-203.0785502542539
 30
0.0
 11
757.793790498527
 21
-203.2108210739605
 31
0.0
  0
LINE
  5
6AC
  8
PREDEFINITO
 10
757.793790498527
 20
-203.2108210739605
 30
0.0
 11
757.430878643549
 21
-203.3499975626663
 31
0.0
  0
LINE
  5
6AD
  8
PREDEFINITO
 10
757.430878643549
 20
-203.3499975626663
 30
0.0
 11
757.0703448363361
 21
-203.4961525548524
 31
0.0
  0
LINE
  5
6AE
  8
PREDEFINITO
 10
757.0703448363361
 20
-203.4961525548524
 30
0.0
 11
756.698145588507
 21
-203.6554581365874
 31
0.0
  0
LINE
  5
6AF
  8
PREDEFINITO
 10
756.698145588507
 20
-203.6554581365874
 30
0.0
 11
756.3295157599571
 21
-203.8219064448321
 31
0.0
  0
LINE
  5
6B0
  8
PREDEFINITO
 10
756.3295157599571
 20
-203.8219064448321
 30
0.0
 11
755.9642421302226
 21
-203.9955962983612
 31
0.0
  0
LINE
  5
6B1
  8
PREDEFINITO
 10
630.3625884387886
 20
-206.3996513041664
 30
0.0
 11
630.0359511601991
 21
-206.144487741551
 31
0.0
  0
LINE
  5
6B2
  8
PREDEFINITO
 10
629.7038891206319
 20
-205.8957199872478
 30
0.0
 11
629.366683335865
 21
-205.6535518234033
 31
0.0
  0
LINE
  5
6B3
  8
PREDEFINITO
 10
629.366683335865
 20
-205.6535518234033
 30
0.0
 11
629.0250010868122
 21
-205.418487280398
 31
0.0
  0
LINE
  5
6B4
  8
PREDEFINITO
 10
629.0250010868122
 20
-205.418487280398
 30
0.0
 11
628.6786322119951
 21
-205.1903848883111
 31
0.0
  0
LINE
  5
6B5
  8
PREDEFINITO
 10
628.6786322119951
 20
-205.1903848883111
 30
0.0
 11
628.327366549935
 21
-204.9691031772226
 31
0.0
  0
LINE
  5
6B6
  8
PREDEFINITO
 10
628.327366549935
 20
-204.9691031772226
 30
0.0
 11
627.9811927260735
 21
-204.7605304146695
 31
0.0
  0
LINE
  5
6B7
  8
PREDEFINITO
 10
627.9811927260735
 20
-204.7605304146695
 30
0.0
 11
627.631320843469
 21
-204.5590031728213
 31
0.0
  0
LINE
  5
6B8
  8
PREDEFINITO
 10
627.631320843469
 20
-204.5590031728213
 30
0.0
 11
627.2775471832906
 21
-204.3644067678555
 31
0.0
  0
LINE
  5
6B9
  8
PREDEFINITO
 10
631.3155205325984
 20
-207.2083771858566
 30
0.0
 11
631.000379555469
 21
-206.9297966192464
 31
0.0
  0
LINE
  5
6BA
  8
PREDEFINITO
 10
630.0359511601991
 20
-206.144487741551
 30
0.0
 11
629.7038891206319
 21
-205.8957199872478
 31
0.0
  0
LINE
  5
6BB
  8
PREDEFINITO
 10
630.6839986670091
 20
-206.6613683663222
 30
0.0
 11
630.3625884387886
 21
-206.3996513041664
 31
0.0
  0
LINE
  5
6BC
  8
PREDEFINITO
 10
631.000379555469
 20
-206.9297966192464
 30
0.0
 11
630.6839986670091
 21
-206.6613683663222
 31
0.0
  0
LINE
  5
6BD
  8
PREDEFINITO
 10
755.9642421302226
 20
-203.9955962983612
 30
0.0
 11
755.6021114788396
 21
-204.1766265159499
 31
0.0
  0
LINE
  5
6BE
  8
PREDEFINITO
 10
755.6021114788396
 20
-204.1766265159499
 30
0.0
 11
755.244232322256
 21
-204.3644067678555
 31
0.0
  0
LINE
  5
6BF
  8
PREDEFINITO
 10
631.9281077052856
 20
-207.7843577379774
 30
0.0
 11
631.624794080471
 21
-207.4932623564966
 31
0.0
  0
LINE
  5
6C0
  8
PREDEFINITO
 10
631.624794080471
 20
-207.4932623564966
 30
0.0
 11
631.3155205325984
 21
-207.2083771858566
 31
0.0
  0
LINE
  5
6C1
  8
PREDEFINITO
 10
632.5164852105343
 20
-208.3848015607099
 30
0.0
 11
632.2253689132406
 21
-208.0815689371113
 31
0.0
  0
LINE
  5
6C2
  8
PREDEFINITO
 10
632.2253689132406
 20
-208.0815689371113
 30
0.0
 11
631.9281077052856
 21
-207.7843577379774
 31
0.0
  0
LINE
  5
6C3
  8
PREDEFINITO
 10
633.0799130979321
 20
-209.0089535085494
 30
0.0
 11
632.8013641033654
 21
-208.6939612155853
 31
0.0
  0
LINE
  5
6C4
  8
PREDEFINITO
 10
632.8013641033654
 20
-208.6939612155853
 30
0.0
 11
632.5164852105343
 21
-208.3848015607099
 31
0.0
  0
LINE
  5
6C5
  8
PREDEFINITO
 10
633.6172480905477
 20
-209.6555523892258
 30
0.0
 11
633.3520397004336
 21
-209.3296840464137
 31
0.0
  0
LINE
  5
6C6
  8
PREDEFINITO
 10
633.3520397004336
 20
-209.3296840464137
 30
0.0
 11
633.0799130979321
 21
-209.0089535085494
 31
0.0
  0
LINE
  5
6C7
  8
PREDEFINITO
 10
634.1271849915893
 20
-210.3229374283923
 30
0.0
 11
633.875655061533
 21
-209.9866727973852
 31
0.0
  0
LINE
  5
6C8
  8
PREDEFINITO
 10
634.6093112417129
 20
-211.0104679889502
 30
0.0
 11
634.3717622589159
 21
-210.6642384397472
 31
0.0
  0
LINE
  5
6C9
  8
PREDEFINITO
 10
634.3717622589159
 20
-210.6642384397472
 30
0.0
 11
634.1271849915893
 21
-210.3229374283923
 31
0.0
  0
LINE
  5
6CA
  8
PREDEFINITO
 10
633.875655061533
 20
-209.9866727973852
 30
0.0
 11
633.6172480905477
 21
-209.6555523892258
 31
0.0
  0
LINE
  5
6CB
  8
PREDEFINITO
 10
635.0630218665167
 20
-211.7172813309026
 30
0.0
 11
634.83975631818
 21
-211.361518233502
 31
0.0
  0
LINE
  5
6CC
  8
PREDEFINITO
 10
634.83975631818
 20
-211.361518233502
 30
0.0
 11
634.6093112417129
 21
-211.0104679889502
 31
0.0
  0
LINE
  5
6CD
  8
PREDEFINITO
 10
638.8529946969677
 20
-211.2934552606824
 30
0.0
 11
635.418289518225
 21
-212.3191856407423
 31
0.0
  0
LINE
  5
6CE
  8
PREDEFINITO
 10
635.418289518225
 20
-212.3191856407423
 30
0.0
 11
635.0630218665167
 21
-211.7172813309026
 31
0.0
  0
LINE
  5
6CF
  8
PREDEFINITO
 10
753.4967784187343
 20
-205.418487280398
 30
0.0
 11
753.1550961696814
 21
-205.6535518234033
 31
0.0
  0
LINE
  5
6D0
  8
PREDEFINITO
 10
753.1550961696814
 20
-205.6535518234033
 30
0.0
 11
752.8178903849146
 21
-205.8957199872478
 31
0.0
  0
LINE
  5
6D1
  8
PREDEFINITO
 10
753.8431472935515
 20
-205.1903848883111
 30
0.0
 11
753.4967784187343
 21
-205.418487280398
 31
0.0
  0
LINE
  5
6D2
  8
PREDEFINITO
 10
680.7013711237489
 20
-204.0856591656016
 30
0.0
 11
677.1849235668371
 21
-204.3209253704871
 31
0.0
  0
LINE
  5
6D3
  8
PREDEFINITO
 10
677.1849235668371
 20
-204.3209253704871
 30
0.0
 11
673.6713804255712
 21
-204.623243972488
 31
0.0
  0
LINE
  5
6D4
  8
PREDEFINITO
 10
673.6713804255712
 20
-204.623243972488
 30
0.0
 11
670.1614640577111
 21
-204.9924903189244
 31
0.0
  0
LINE
  5
6D5
  8
PREDEFINITO
 10
747.45875763903
 20
-211.7172813309026
 30
0.0
 11
747.1034899873218
 21
-212.3191856407421
 31
0.0
  0
LINE
  5
6D6
  8
PREDEFINITO
 10
752.159191066758
 20
-206.3996513041664
 30
0.0
 11
751.8377808385374
 21
-206.6613683663222
 31
0.0
  0
LINE
  5
6D7
  8
PREDEFINITO
 10
752.4858283453475
 20
-206.144487741551
 30
0.0
 11
752.159191066758
 21
-206.3996513041664
 31
0.0
  0
LINE
  5
6D8
  8
PREDEFINITO
 10
751.2062589729483
 20
-207.2083771858566
 30
0.0
 11
750.8969854250754
 21
-207.4932623564966
 31
0.0
  0
LINE
  5
6D9
  8
PREDEFINITO
 10
752.8178903849146
 20
-205.8957199872478
 30
0.0
 11
752.4858283453475
 21
-206.144487741551
 31
0.0
  0
LINE
  5
6DA
  8
PREDEFINITO
 10
751.5213999500775
 20
-206.9297966192464
 30
0.0
 11
751.2062589729483
 21
-207.2083771858566
 31
0.0
  0
LINE
  5
6DB
  8
PREDEFINITO
 10
751.8377808385374
 20
-206.6613683663222
 30
0.0
 11
751.5213999500775
 21
-206.9297966192464
 31
0.0
  0
LINE
  5
6DC
  8
PREDEFINITO
 10
743.668784808579
 20
-211.2934552606822
 30
0.0
 11
740.2234453262708
 21
-210.3319317347344
 31
0.0
  0
LINE
  5
6DD
  8
PREDEFINITO
 10
747.1034899873218
 20
-212.3191856407421
 30
0.0
 11
743.668784808579
 21
-211.2934552606822
 31
0.0
  0
LINE
  5
6DE
  8
PREDEFINITO
 10
740.2234453262708
 20
-210.3319317347344
 30
0.0
 11
736.768147608022
 21
-209.4350038256555
 31
0.0
  0
LINE
  5
6DF
  8
PREDEFINITO
 10
698.3017807629251
 20
-203.9175424434945
 30
0.0
 11
694.7816989352475
 21
-203.8166446227233
 31
0.0
  0
LINE
  5
6E0
  8
PREDEFINITO
 10
694.7816989352475
 20
-203.8166446227233
 30
0.0
 11
691.2608897527732
 21
-203.7830073831132
 31
0.0
  0
LINE
  5
6E1
  8
PREDEFINITO
 10
691.2608897527732
 20
-203.7830073831132
 30
0.0
 11
687.7400805702991
 21
-203.8166446227235
 31
0.0
  0
LINE
  5
6E2
  8
PREDEFINITO
 10
687.7400805702991
 20
-203.8166446227235
 30
0.0
 11
684.2199987426216
 21
-203.9175424434947
 31
0.0
  0
LINE
  5
6E3
  8
PREDEFINITO
 10
684.2199987426216
 20
-203.9175424434947
 30
0.0
 11
680.7013711237489
 21
-204.0856591656016
 31
0.0
  0
LINE
  5
6E4
  8
PREDEFINITO
 10
666.6558943315165
 20
-205.4285123184505
 30
0.0
 11
663.1553881357536
 21
-205.9311305974273
 31
0.0
  0
LINE
  5
6E5
  8
PREDEFINITO
 10
663.1553881357536
 20
-205.9311305974273
 30
0.0
 11
659.660658893984
 21
-206.500138684014
 31
0.0
  0
LINE
  5
6E6
  8
PREDEFINITO
 10
659.660658893984
 20
-206.500138684014
 30
0.0
 11
656.1724160838214
 21
-207.1353032196282
 31
0.0
  0
LINE
  5
6E7
  8
PREDEFINITO
 10
755.244232322256
 20
-204.3644067678555
 30
0.0
 11
754.8904586620774
 21
-204.5590031728213
 31
0.0
  0
LINE
  5
6E8
  8
PREDEFINITO
 10
754.8904586620774
 20
-204.5590031728213
 30
0.0
 11
754.540586779473
 21
-204.7605304146695
 31
0.0
  0
LINE
  5
6E9
  8
PREDEFINITO
 10
754.540586779473
 20
-204.7605304146695
 30
0.0
 11
754.1944129556116
 21
-204.9691031772226
 31
0.0
  0
LINE
  5
6EA
  8
PREDEFINITO
 10
754.1944129556116
 20
-204.9691031772226
 30
0.0
 11
753.8431472935515
 21
-205.1903848883111
 31
0.0
  0
LINE
  5
6EB
  8
PREDEFINITO
 10
645.7536318975247
 20
-209.4350038256557
 30
0.0
 11
642.2983341792756
 21
-210.3319317347346
 31
0.0
  0
LINE
  5
6EC
  8
PREDEFINITO
 10
642.2983341792756
 20
-210.3319317347346
 30
0.0
 11
638.8529946969677
 21
-211.2934552606824
 31
0.0
  0
LINE
  5
6ED
  8
PREDEFINITO
 10
637.235673672106
 20
-263.7769004020562
 30
0.0
 11
661.4910516885509
 21
-263.7769004020562
 31
0.0
  0
LINE
  5
6EE
  8
PREDEFINITO
 10
661.4910516885509
 20
-263.7769004020562
 30
0.0
 11
661.4910516885509
 21
-253.7767941350473
 31
0.0
  0
LINE
  5
6EF
  8
PREDEFINITO
 10
661.4910516885509
 20
-253.7767941350473
 30
0.0
 11
665.6910516885507
 21
-253.7767941350473
 31
0.0
  0
LINE
  5
6F0
  8
PREDEFINITO
 10
665.6910516885507
 20
-253.7767941350473
 30
0.0
 11
665.6910516885507
 21
-263.7769004020562
 31
0.0
  0
LINE
  5
6F1
  8
PREDEFINITO
 10
665.6910516885507
 20
-263.7769004020562
 30
0.0
 11
688.0922688721062
 21
-263.7769004020562
 31
0.0
  0
LINE
  5
6F2
  8
PREDEFINITO
 10
688.0922688721062
 20
-263.7769004020562
 30
0.0
 11
688.0922688721062
 21
-253.7767941350473
 31
0.0
  0
LINE
  5
6F3
  8
PREDEFINITO
 10
688.0922688721062
 20
-253.7767941350473
 30
0.0
 11
692.2922688721062
 21
-253.7767941350473
 31
0.0
  0
LINE
  5
6F4
  8
PREDEFINITO
 10
692.2922688721062
 20
-253.7767941350473
 30
0.0
 11
692.2922688721062
 21
-263.7769004020562
 31
0.0
  0
LINE
  5
6F5
  8
PREDEFINITO
 10
692.2922688721062
 20
-263.7769004020562
 30
0.0
 11
714.6934860556614
 21
-263.7769004020562
 31
0.0
  0
LINE
  5
6F6
  8
PREDEFINITO
 10
714.6934860556614
 20
-263.7769004020562
 30
0.0
 11
714.6934860556614
 21
-253.7767941350473
 31
0.0
  0
LINE
  5
6F7
  8
PREDEFINITO
 10
714.6934860556614
 20
-253.7767941350473
 30
0.0
 11
718.8934860556615
 21
-253.7767941350473
 31
0.0
  0
LINE
  5
6F8
  8
PREDEFINITO
 10
718.8934860556615
 20
-253.7767941350473
 30
0.0
 11
718.8934860556615
 21
-263.7769004020562
 31
0.0
  0
LINE
  5
6F9
  8
PREDEFINITO
 10
649.2182050947249
 20
-208.6030352269506
 30
0.0
 11
645.7536318975247
 21
-209.4350038256557
 31
0.0
  0
LINE
  5
6FA
  8
PREDEFINITO
 10
719.3663913697931
 20
-205.9311305974271
 30
0.0
 11
715.8658851740302
 21
-205.4285123184501
 31
0.0
  0
LINE
  5
6FB
  8
PREDEFINITO
 10
712.3603154478355
 20
-204.992490318924
 30
0.0
 11
708.8503990799754
 21
-204.6232439724878
 31
0.0
  0
LINE
  5
6FC
  8
PREDEFINITO
 10
715.8658851740302
 20
-205.4285123184501
 30
0.0
 11
712.3603154478355
 21
-204.992490318924
 31
0.0
  0
LINE
  5
6FD
  8
PREDEFINITO
 10
708.8503990799754
 20
-204.6232439724878
 30
0.0
 11
705.3368559387095
 21
-204.3209253704869
 31
0.0
  0
LINE
  5
6FE
  8
PREDEFINITO
 10
705.3368559387095
 20
-204.3209253704869
 30
0.0
 11
701.8204083817977
 21
-204.0856591656016
 31
0.0
  0
LINE
  5
6FF
  8
PREDEFINITO
 10
701.8204083817977
 20
-204.0856591656016
 30
0.0
 11
698.3017807629251
 21
-203.9175424434945
 31
0.0
  0
LINE
  5
700
  8
PREDEFINITO
 10
748.6461244440136
 20
-209.9866727973852
 30
0.0
 11
748.3945945139574
 21
-210.3229374283923
 31
0.0
  0
LINE
  5
701
  8
PREDEFINITO
 10
748.9045314149989
 20
-209.6555523892258
 30
0.0
 11
748.6461244440136
 21
-209.9866727973852
 31
0.0
  0
LINE
  5
702
  8
PREDEFINITO
 10
733.3035744108217
 20
-208.6030352269504
 30
0.0
 11
729.830414743717
 21
-207.8363641973679
 31
0.0
  0
LINE
  5
703
  8
PREDEFINITO
 10
726.3493634217252
 20
-207.135303219628
 30
0.0
 11
722.8611206115627
 21
-206.500138684014
 31
0.0
  0
LINE
  5
704
  8
PREDEFINITO
 10
736.768147608022
 20
-209.4350038256555
 30
0.0
 11
733.3035744108217
 21
-208.6030352269504
 31
0.0
  0
LINE
  5
705
  8
PREDEFINITO
 10
729.830414743717
 20
-207.8363641973679
 30
0.0
 11
726.3493634217252
 21
-207.135303219628
 31
0.0
  0
LINE
  5
706
  8
PREDEFINITO
 10
722.8611206115627
 20
-206.500138684014
 30
0.0
 11
719.3663913697931
 21
-205.9311305974271
 31
0.0
  0
LINE
  5
707
  8
PREDEFINITO
 10
748.3945945139574
 20
-210.3229374283923
 30
0.0
 11
748.1500172466306
 21
-210.6642384397472
 31
0.0
  0
LINE
  5
708
  8
PREDEFINITO
 10
748.1500172466306
 20
-210.6642384397472
 30
0.0
 11
747.9124682638337
 21
-211.0104679889502
 31
0.0
  0
LINE
  5
709
  8
PREDEFINITO
 10
747.9124682638337
 20
-211.0104679889502
 30
0.0
 11
747.6820231873667
 21
-211.361518233502
 31
0.0
  0
LINE
  5
70A
  8
PREDEFINITO
 10
749.7204154021813
 20
-208.6939612155853
 30
0.0
 11
749.4418664076143
 21
-209.0089535085494
 31
0.0
  0
LINE
  5
70B
  8
PREDEFINITO
 10
749.4418664076143
 20
-209.0089535085494
 30
0.0
 11
749.1697398051131
 21
-209.3296840464137
 31
0.0
  0
LINE
  5
70C
  8
PREDEFINITO
 10
749.1697398051131
 20
-209.3296840464137
 30
0.0
 11
748.9045314149989
 21
-209.6555523892258
 31
0.0
  0
LINE
  5
70D
  8
PREDEFINITO
 10
750.2964105923061
 20
-208.0815689371113
 30
0.0
 11
750.0052942950124
 21
-208.3848015607099
 31
0.0
  0
LINE
  5
70E
  8
PREDEFINITO
 10
750.0052942950124
 20
-208.3848015607099
 30
0.0
 11
749.7204154021813
 21
-208.6939612155853
 31
0.0
  0
LINE
  5
70F
  8
PREDEFINITO
 10
750.8969854250754
 20
-207.4932623564966
 30
0.0
 11
750.5936718002611
 21
-207.7843577379774
 31
0.0
  0
LINE
  5
710
  8
PREDEFINITO
 10
750.5936718002611
 20
-207.7843577379774
 30
0.0
 11
750.2964105923061
 21
-208.0815689371113
 31
0.0
  0
LINE
  5
711
  8
PREDEFINITO
 10
670.1614640577111
 20
-204.9924903189244
 30
0.0
 11
666.6558943315165
 21
-205.4285123184505
 31
0.0
  0
LINE
  5
712
  8
PREDEFINITO
 10
652.6913647618296
 20
-207.8363641973679
 30
0.0
 11
649.2182050947249
 21
-208.6030352269506
 31
0.0
  0
LINE
  5
713
  8
PREDEFINITO
 10
656.1724160838214
 20
-207.1353032196282
 30
0.0
 11
652.6913647618296
 21
-207.8363641973679
 31
0.0
  0
LINE
  5
714
  8
PREDEFINITO
 10
747.6820231873667
 20
-211.361518233502
 30
0.0
 11
747.45875763903
 21
-211.7172813309026
 31
0.0
  0
VIEWPORT
  5
719
 67
     1
  8
0
 10
6.0
 20
4.5
 30
0.0
 40
12.696
 41
9.522
 68
     1
 69
     1
1001
ACAD
1000
MVIEW
1002
{
1070
    16
1010
0.0
1020
0.0
1030
0.0
1020
0.0
1030
0.0
1010
0.0
1020
0.0
1030
1.0
1020
0.0
1030
1.0
1040
0.0
1040
9.522
1040
6.0
1040
4.5
1040
50.0
1040
0.0
1040
0.0
1070
     0
1070
   100
1070
     0
1070
     3
1070
     0
1070
     0
1070
     0
1070
     0
1040
0.0
1040
0.0
1040
0.0
1040
0.5
1040
0.5
1040
0.5
1040
0.5
1070
     0
1002
{
1002
}
1002
}
  0
ENDSEC
  0
EOF
