  0
SECTION
  2
HEADER
  9
$ACADVER
  1
AC1024
  9
$ACADMAINTVER
 70
     6
  9
$DWGCODEPAGE
  3
ANSI_1256
  9
$INSBASE
 10
0.0
 20
0.0
 30
0.0
  9
$EXTMIN
 10
1.000000000000000E+20
 20
1.000000000000000E+20
 30
1.000000000000000E+20
  9
$EXTMAX
 10
-1.000000000000000E+20
 20
-1.000000000000000E+20
 30
-1.000000000000000E+20
  9
$LIMMIN
 10
0.0
 20
0.0
  9
$LIMMAX
 10
12.0
 20
9.0
  9
$ORTHOMODE
 70
     0
  9
$REGENMODE
 70
     1
  9
$FILLMODE
 70
     1
  9
$QTEXTMODE
 70
     0
  9
$MIRRTEXT
 70
     1
  9
$LTSCALE
 40
1.0
  9
$ATTMODE
 70
     1
  9
$TEXTSIZE
 40
0.2
  9
$TRACEWID
 40
0.05
  9
$TEXTSTYLE
  7
Standard
  9
$CLAYER
  8
0
  9
$CELTYPE
  6
ByLayer
  9
$CECOLOR
 62
   256
  9
$CELTSCALE
 40
1.0
  9
$DISPSILH
 70
     0
  9
$DIMSCALE
 40
1.0
  9
$DIMASZ
 40
0.18
  9
$DIMEXO
 40
0.0625
  9
$DIMDLI
 40
0.38
  9
$DIMRND
 40
0.0
  9
$DIMDLE
 40
0.0
  9
$DIMEXE
 40
0.18
  9
$DIMTP
 40
0.0
  9
$DIMTM
 40
0.0
  9
$DIMTXT
 40
0.18
  9
$DIMCEN
 40
0.09
  9
$DIMTSZ
 40
0.0
  9
$DIMTOL
 70
     0
  9
$DIMLIM
 70
     0
  9
$DIMTIH
 70
     1
  9
$DIMTOH
 70
     1
  9
$DIMSE1
 70
     0
  9
$DIMSE2
 70
     0
  9
$DIMTAD
 70
     0
  9
$DIMZIN
 70
     0
  9
$DIMBLK
  1

  9
$DIMASO
 70
     1
  9
$DIMSHO
 70
     1
  9
$DIMPOST
  1

  9
$DIMAPOST
  1

  9
$DIMALT
 70
     0
  9
$DIMALTD
 70
     2
  9
$DIMALTF
 40
25.4
  9
$DIMLFAC
 40
1.0
  9
$DIMTOFL
 70
     0
  9
$DIMTVP
 40
0.0
  9
$DIMTIX
 70
     0
  9
$DIMSOXD
 70
     0
  9
$DIMSAH
 70
     0
  9
$DIMBLK1
  1

  9
$DIMBLK2
  1

  9
$DIMSTYLE
  2
Standard
  9
$DIMCLRD
 70
     0
  9
$DIMCLRE
 70
     0
  9
$DIMCLRT
 70
     0
  9
$DIMTFAC
 40
1.0
  9
$DIMGAP
 40
0.09
  9
$DIMJUST
 70
     0
  9
$DIMSD1
 70
     0
  9
$DIMSD2
 70
     0
  9
$DIMTOLJ
 70
     1
  9
$DIMTZIN
 70
     0
  9
$DIMALTZ
 70
     0
  9
$DIMALTTZ
 70
     0
  9
$DIMUPT
 70
     0
  9
$DIMDEC
 70
     4
  9
$DIMTDEC
 70
     4
  9
$DIMALTU
 70
     2
  9
$DIMALTTD
 70
     2
  9
$DIMTXSTY
  7
Standard
  9
$DIMAUNIT
 70
     0
  9
$DIMADEC
 70
     0
  9
$DIMALTRND
 40
0.0
  9
$DIMAZIN
 70
     0
  9
$DIMDSEP
 70
    46
  9
$DIMATFIT
 70
     3
  9
$DIMFRAC
 70
     0
  9
$DIMLDRBLK
  1

  9
$DIMLUNIT
 70
     2
  9
$DIMLWD
 70
    -2
  9
$DIMLWE
 70
    -2
  9
$DIMTMOVE
 70
     0
  9
$DIMFXL
 40
1.0
  9
$DIMFXLON
 70
     0
  9
$DIMJOGANG
 40
0.7853981633974483
  9
$DIMTFILL
 70
     0
  9
$DIMTFILLCLR
 70
     0
  9
$DIMARCSYM
 70
     0
  9
$DIMLTYPE
  6

  9
$DIMLTEX1
  6

  9
$DIMLTEX2
  6

  9
$DIMTXTDIRECTION
 70
     0
  9
$LUNITS
 70
     2
  9
$LUPREC
 70
     4
  9
$SKETCHINC
 40
0.1
  9
$FILLETRAD
 40
0.5
  9
$AUNITS
 70
     0
  9
$AUPREC
 70
     0
  9
$MENU
  1
.
  9
$ELEVATION
 40
0.0
  9
$PELEVATION
 40
0.0
  9
$THICKNESS
 40
0.0
  9
$LIMCHECK
 70
     0
  9
$CHAMFERA
 40
0.5
  9
$CHAMFERB
 40
0.5
  9
$CHAMFERC
 40
1.0
  9
$CHAMFERD
 40
0.0
  9
$SKPOLY
 70
     0
  9
$TDCREATE
 40
2457816.930082222
  9
$TDUCREATE
 40
2457816.805082222
  9
$TDUPDATE
 40
2457816.93008743
  9
$TDUUPDATE
 40
2457816.80508743
  9
$TDINDWG
 40
0.0000000116
  9
$TDUSRTIMER
 40
0.0000000116
  9
$USRTIMER
 70
     1
  9
$ANGBASE
 50
0.0
  9
$ANGDIR
 70
     0
  9
$PDMODE
 70
     0
  9
$PDSIZE
 40
0.0
  9
$PLINEWID
 40
0.0
  9
$SPLFRAME
 70
     0
  9
$SPLINETYPE
 70
     6
  9
$SPLINESEGS
 70
     8
  9
$HANDSEED
  5
C6
  9
$SURFTAB1
 70
     6
  9
$SURFTAB2
 70
     6
  9
$SURFTYPE
 70
     6
  9
$SURFU
 70
     6
  9
$SURFV
 70
     6
  9
$UCSBASE
  2

  9
$UCSNAME
  2

  9
$UCSORG
 10
0.0
 20
0.0
 30
0.0
  9
$UCSXDIR
 10
1.0
 20
0.0
 30
0.0
  9
$UCSYDIR
 10
0.0
 20
1.0
 30
0.0
  9
$UCSORTHOREF
  2

  9
$UCSORTHOVIEW
 70
     0
  9
$UCSORGTOP
 10
0.0
 20
0.0
 30
0.0
  9
$UCSORGBOTTOM
 10
0.0
 20
0.0
 30
0.0
  9
$UCSORGLEFT
 10
0.0
 20
0.0
 30
0.0
  9
$UCSORGRIGHT
 10
0.0
 20
0.0
 30
0.0
  9
$UCSORGFRONT
 10
0.0
 20
0.0
 30
0.0
  9
$UCSORGBACK
 10
0.0
 20
0.0
 30
0.0
  9
$PUCSBASE
  2

  9
$PUCSNAME
  2

  9
$PUCSORG
 10
0.0
 20
0.0
 30
0.0
  9
$PUCSXDIR
 10
1.0
 20
0.0
 30
0.0
  9
$PUCSYDIR
 10
0.0
 20
1.0
 30
0.0
  9
$PUCSORTHOREF
  2

  9
$PUCSORTHOVIEW
 70
     0
  9
$PUCSORGTOP
 10
0.0
 20
0.0
 30
0.0
  9
$PUCSORGBOTTOM
 10
0.0
 20
0.0
 30
0.0
  9
$PUCSORGLEFT
 10
0.0
 20
0.0
 30
0.0
  9
$PUCSORGRIGHT
 10
0.0
 20
0.0
 30
0.0
  9
$PUCSORGFRONT
 10
0.0
 20
0.0
 30
0.0
  9
$PUCSORGBACK
 10
0.0
 20
0.0
 30
0.0
  9
$USERI1
 70
     0
  9
$USERI2
 70
     0
  9
$USERI3
 70
     0
  9
$USERI4
 70
     0
  9
$USERI5
 70
     0
  9
$USERR1
 40
0.0
  9
$USERR2
 40
0.0
  9
$USERR3
 40
0.0
  9
$USERR4
 40
0.0
  9
$USERR5
 40
0.0
  9
$WORLDVIEW
 70
     1
  9
$SHADEDGE
 70
     3
  9
$SHADEDIF
 70
    70
  9
$TILEMODE
 70
     1
  9
$MAXACTVP
 70
    64
  9
$PINSBASE
 10
0.0
 20
0.0
 30
0.0
  9
$PLIMCHECK
 70
     0
  9
$PEXTMIN
 10
1.000000000000000E+20
 20
1.000000000000000E+20
 30
1.000000000000000E+20
  9
$PEXTMAX
 10
-1.000000000000000E+20
 20
-1.000000000000000E+20
 30
-1.000000000000000E+20
  9
$PLIMMIN
 10
0.0
 20
0.0
  9
$PLIMMAX
 10
12.0
 20
9.0
  9
$UNITMODE
 70
     0
  9
$VISRETAIN
 70
     1
  9
$PLINEGEN
 70
     0
  9
$PSLTSCALE
 70
     1
  9
$TREEDEPTH
 70
  3020
  9
$CMLSTYLE
  2
Standard
  9
$CMLJUST
 70
     0
  9
$CMLSCALE
 40
1.0
  9
$PROXYGRAPHICS
 70
     1
  9
$MEASUREMENT
 70
     0
  9
$CELWEIGHT
370
    -1
  9
$ENDCAPS
280
     0
  9
$JOINSTYLE
280
     0
  9
$LWDISPLAY
290
     1
  9
$INSUNITS
 70
     1
  9
$HYPERLINKBASE
  1

  9
$STYLESHEET
  1

  9
$XEDIT
290
     1
  9
$CEPSNTYPE
380
     0
  9
$PSTYLEMODE
290
     1
  9
$FINGERPRINTGUID
  2
{15F187AA-72D4-41F0-85AB-D916670569F7}
  9
$VERSIONGUID
  2
{FAEB1C32-E019-11D5-929B-00C0DF256EC4}
  9
$EXTNAMES
290
     1
  9
$PSVPSCALE
 40
0.0
  9
$OLESTARTUP
290
     0
  9
$SORTENTS
280
   127
  9
$INDEXCTL
280
     0
  9
$HIDETEXT
280
     1
  9
$XCLIPFRAME
280
     2
  9
$HALOGAP
280
     0
  9
$OBSCOLOR
 70
   257
  9
$OBSLTYPE
280
     0
  9
$INTERSECTIONDISPLAY
280
     0
  9
$INTERSECTIONCOLOR
 70
   257
  9
$DIMASSOC
280
     2
  9
$PROJECTNAME
  1

  9
$CAMERADISPLAY
290
     0
  9
$LENSLENGTH
 40
50.0
  9
$CAMERAHEIGHT
 40
0.0
  9
$STEPSPERSEC
 40
2.0
  9
$STEPSIZE
 40
6.0
  9
$3DDWFPREC
 40
2.0
  9
$PSOLWIDTH
 40
0.25
  9
$PSOLHEIGHT
 40
4.0
  9
$LOFTANG1
 40
1.570796326794897
  9
$LOFTANG2
 40
1.570796326794897
  9
$LOFTMAG1
 40
0.0
  9
$LOFTMAG2
 40
0.0
  9
$LOFTPARAM
 70
     7
  9
$LOFTNORMALS
280
     1
  9
$LATITUDE
 40
37.795
  9
$LONGITUDE
 40
-122.394
  9
$NORTHDIRECTION
 40
0.0
  9
$TIMEZONE
 70
 -8000
  9
$LIGHTGLYPHDISPLAY
280
     1
  9
$TILEMODELIGHTSYNCH
280
     1
  9
$CMATERIAL
347
3C
  9
$SOLIDHIST
280
     1
  9
$SHOWHIST
280
     1
  9
$DWFFRAME
280
     2
  9
$DGNFRAME
280
     2
  9
$REALWORLDSCALE
290
     1
  9
$INTERFERECOLOR
 62
   256
  9
$CSHADOW
280
     0
  9
$SHADOWPLANELOCATION
 40
0.0
  0
ENDSEC
  0
SECTION
  2
CLASSES
  0
CLASS
  1
ACDBDICTIONARYWDFLT
  2
AcDbDictionaryWithDefault
  3
ObjectDBX Classes
 90
        0
 91
        4
280
     0
281
     0
  0
CLASS
  1
VISUALSTYLE
  2
AcDbVisualStyle
  3
ObjectDBX Classes
 90
     4095
 91
        4
280
     0
281
     0
  0
CLASS
  1
MATERIAL
  2
AcDbMaterial
  3
ObjectDBX Classes
 90
     1153
 91
        4
280
     0
281
     0
  0
CLASS
  1
SUN
  2
AcDbSun
  3
SCENEOE
 90
     1024
 91
        4
280
     0
281
     0
  0
ENDSEC
  0
SECTION
  2
TABLES
  0
TABLE
  2
VPORT
  5
8
330
0
100
AcDbSymbolTable
 70
     1
  0
VPORT
  5
29
330
8
100
AcDbSymbolTableRecord
100
AcDbViewportTableRecord
  2
*Active
 70
     0
 10
0.0
 20
0.0
 11
1.0
 21
1.0
 12
0.0
 22
0.0
 13
0.0
 23
0.0
 14
0.5
 24
0.5
 15
0.5
 25
0.5
 16
0.0
 26
0.0
 36
1.0
 17
10.50007777515277
 27
-14.85000416295415
 37
0.0
 40
29.70000832590831
 41
0.7070757462376334
 42
50.0
 43
0.0
 44
0.0
 50
0.0
 51
0.0
 71
     0
 72
   100
 73
     1
 74
     3
 75
     0
 76
     0
 77
     0
 78
     0
281
     0
 65
     1
110
0.0
120
0.0
130
0.0
111
1.0
121
0.0
131
0.0
112
0.0
122
1.0
132
0.0
 79
     0
146
0.0
 60
     3
 61
     5
292
     1
282
     1
141
0.0
142
0.0
 63
   250
361
3F
  0
ENDTAB
  0
TABLE
  2
LTYPE
  5
5
330
0
100
AcDbSymbolTable
 70
     1
  0
LTYPE
  5
14
330
5
100
AcDbSymbolTableRecord
100
AcDbLinetypeTableRecord
  2
ByBlock
 70
     0
  3

 72
    65
 73
     0
 40
0.0
  0
LTYPE
  5
15
330
5
100
AcDbSymbolTableRecord
100
AcDbLinetypeTableRecord
  2
ByLayer
 70
     0
  3

 72
    65
 73
     0
 40
0.0
  0
LTYPE
  5
16
330
5
100
AcDbSymbolTableRecord
100
AcDbLinetypeTableRecord
  2
Continuous
 70
     0
  3
Solid line
 72
    65
 73
     0
 40
0.0
  0
ENDTAB
  0
TABLE
  2
LAYER
  5
2
330
0
100
AcDbSymbolTable
 70
     2
  0
LAYER
  5
10
330
2
100
AcDbSymbolTableRecord
100
AcDbLayerTableRecord
  2
0
 70
     0
 62
     7
  6
Continuous
370
    -3
390
F
347
3E
  0
LAYER
  5
40
330
2
100
AcDbSymbolTableRecord
100
AcDbLayerTableRecord
  2
Layer 1
 70
     0
 62
     7
  6
Continuous
370
    -3
390
F
347
3E
  0
ENDTAB
  0
TABLE
  2
STYLE
  5
3
330
0
100
AcDbSymbolTable
 70
     1
  0
STYLE
  5
11
330
3
100
AcDbSymbolTableRecord
100
AcDbTextStyleTableRecord
  2
Standard
 70
     0
 40
0.0
 41
1.0
 50
0.0
 71
     0
 42
0.2
  3
txt
  4

  0
ENDTAB
  0
TABLE
  2
VIEW
  5
6
330
0
100
AcDbSymbolTable
 70
     0
  0
ENDTAB
  0
TABLE
  2
UCS
  5
7
330
0
100
AcDbSymbolTable
 70
     0
  0
ENDTAB
  0
TABLE
  2
APPID
  5
9
330
0
100
AcDbSymbolTable
 70
     1
  0
APPID
  5
12
330
9
100
AcDbSymbolTableRecord
100
AcDbRegAppTableRecord
  2
ACAD
 70
     0
  0
ENDTAB
  0
TABLE
  2
DIMSTYLE
  5
A
330
0
100
AcDbSymbolTable
 70
     1
100
AcDbDimStyleTable
  0
DIMSTYLE
105
27
330
A
100
AcDbSymbolTableRecord
100
AcDbDimStyleTableRecord
  2
Standard
 70
     0
178
     0
340
11
  0
ENDTAB
  0
TABLE
  2
BLOCK_RECORD
  5
1
330
0
100
AcDbSymbolTable
 70
     2
  0
BLOCK_RECORD
  5
1F
330
1
100
AcDbSymbolTableRecord
100
AcDbBlockTableRecord
  2
*Model_Space
340
22
 70
     0
280
     1
281
     0
  0
BLOCK_RECORD
  5
1B
330
1
100
AcDbSymbolTableRecord
100
AcDbBlockTableRecord
  2
*Paper_Space
340
1E
 70
     0
280
     1
281
     0
  0
BLOCK_RECORD
  5
23
330
1
100
AcDbSymbolTableRecord
100
AcDbBlockTableRecord
  2
*Paper_Space0
340
26
 70
     0
280
     1
281
     0
  0
BLOCK_RECORD
  5
41
330
1
100
AcDbSymbolTableRecord
100
AcDbBlockTableRecord
  2
block 2
340
0
102
{BLKREFS
331
42
102
}
 70
     0
280
     1
281
     0
  0
ENDTAB
  0
ENDSEC
  0
SECTION
  2
BLOCKS
  0
BLOCK
  5
20
330
1F
100
AcDbEntity
  8
0
100
AcDbBlockBegin
  2
*Model_Space
 70
     0
 10
0.0
 20
0.0
 30
0.0
  3
*Model_Space
  1

  0
ENDBLK
  5
21
330
1F
100
AcDbEntity
  8
0
100
AcDbBlockEnd
  0
BLOCK
  5
1C
330
1B
100
AcDbEntity
 67
     1
  8
0
100
AcDbBlockBegin
  2
*Paper_Space
 70
     0
 10
0.0
 20
0.0
 30
0.0
  3
*Paper_Space
  1

  0
ENDBLK
  5
1D
330
1B
100
AcDbEntity
 67
     1
  8
0
100
AcDbBlockEnd
  0
BLOCK
  5
24
330
23
100
AcDbEntity
  8
0
100
AcDbBlockBegin
  2
*Paper_Space0
 70
     0
 10
0.0
 20
0.0
 30
0.0
  3
*Paper_Space0
  1

  0
ENDBLK
  5
25
330
23
100
AcDbEntity
  8
0
100
AcDbBlockEnd
  0
BLOCK
  5
43
330
41
100
AcDbEntity
  8
0
100
AcDbBlockBegin
  2
block 2
 70
     0
 10
0.0
 20
0.0
 30
0.0
  3
block 2
  1

  0
POLYLINE
  5
45
330
41
100
AcDbEntity
  8
Layer 1
370
     0
100
AcDb2dPolyline
 66
     1
 10
0.0
 20
0.0
 30
0.0
  0
VERTEX
  5
46
330
45
100
AcDbEntity
  8
Layer 1
370
     0
100
AcDbVertex
100
AcDb2dVertex
 10
17.5016902224676
 20
-28.92777777054583
 30
0.0
  0
VERTEX
  5
47
330
45
100
AcDbEntity
  8
Layer 1
370
     0
100
AcDbVertex
100
AcDb2dVertex
 10
3.498465327837971
 20
-28.92777777054583
 30
0.0
  0
VERTEX
  5
48
330
45
100
AcDbEntity
  8
Layer 1
370
     0
100
AcDbVertex
100
AcDb2dVertex
 10
3.498465327837971
 20
-0.9232230656712079
 30
0.0
  0
VERTEX
  5
49
330
45
100
AcDbEntity
  8
Layer 1
370
     0
100
AcDbVertex
100
AcDb2dVertex
 10
17.5016902224676
 20
-0.9232230656712079
 30
0.0
  0
VERTEX
  5
4A
330
45
100
AcDbEntity
  8
Layer 1
370
     0
100
AcDbVertex
100
AcDb2dVertex
 10
17.5016902224676
 20
-28.92777777054583
 30
0.0
  0
SEQEND
  5
4C
330
45
100
AcDbEntity
  8
Layer 1
370
     0
  0
HATCH
  5
4B
330
41
100
AcDbEntity
  8
Layer 1
 62
   242
420
 12850460
100
AcDbHatch
 10
0.0
 20
0.0
 30
0.0
210
0.0
220
0.0
230
1.0
  2
SOLID
 70
     1
 71
     0
 91
        1
 92
        1
 93
        4
 72
     1
 10
17.5016902224676
 20
-28.92777777054583
 11
3.498465327837971
 21
-28.92777777054583
 72
     1
 10
3.498465327837971
 20
-28.92777777054583
 11
3.498465327837971
 21
-0.923223065671209
 72
     1
 10
3.498465327837971
 20
-0.9232230656712079
 11
17.5016902224676
 21
-0.9232230656712079
 72
     1
 10
17.5016902224676
 20
-0.9232230656712079
 11
17.5016902224676
 21
-28.92777777054583
 97
        0
 75
     2
 76
     1
 98
        0
  0
SPLINE
  5
4D
330
41
100
AcDbEntity
  8
Layer 1
370
     0
100
AcDbSpline
210
0.0
220
0.0
230
1.0
 70
    11
 71
     3
 72
   131
 73
   127
 74
     0
 42
0.0000000001
 43
0.0000000001
 12
1.0
 22
0.0
 32
0.0
 13
1.0
 23
0.0
 33
0.0
 40
0.0
 40
0.0
 40
0.0
 40
0.0
 40
1.0
 40
1.0
 40
1.0
 40
2.0
 40
2.0
 40
2.0
 40
3.0
 40
3.0
 40
3.0
 40
4.0
 40
4.0
 40
4.0
 40
5.0
 40
5.0
 40
5.0
 40
6.0
 40
6.0
 40
6.0
 40
7.0
 40
7.0
 40
7.0
 40
8.0
 40
8.0
 40
8.0
 40
9.0
 40
9.0
 40
9.0
 40
10.0
 40
10.0
 40
10.0
 40
11.0
 40
11.0
 40
11.0
 40
12.0
 40
12.0
 40
12.0
 40
13.0
 40
13.0
 40
13.0
 40
14.0
 40
14.0
 40
14.0
 40
15.0
 40
15.0
 40
15.0
 40
16.0
 40
16.0
 40
16.0
 40
17.0
 40
17.0
 40
17.0
 40
18.0
 40
18.0
 40
18.0
 40
19.0
 40
19.0
 40
19.0
 40
20.0
 40
20.0
 40
20.0
 40
21.0
 40
21.0
 40
21.0
 40
22.0
 40
22.0
 40
22.0
 40
23.0
 40
23.0
 40
23.0
 40
24.0
 40
24.0
 40
24.0
 40
25.0
 40
25.0
 40
25.0
 40
26.0
 40
26.0
 40
26.0
 40
27.0
 40
27.0
 40
27.0
 40
28.0
 40
28.0
 40
28.0
 40
29.0
 40
29.0
 40
29.0
 40
30.0
 40
30.0
 40
30.0
 40
31.0
 40
31.0
 40
31.0
 40
32.0
 40
32.0
 40
32.0
 40
33.0
 40
33.0
 40
33.0
 40
34.0
 40
34.0
 40
34.0
 40
35.0
 40
35.0
 40
35.0
 40
36.0
 40
36.0
 40
36.0
 40
37.0
 40
37.0
 40
37.0
 40
38.0
 40
38.0
 40
38.0
 40
39.0
 40
39.0
 40
39.0
 40
40.0
 40
40.0
 40
40.0
 40
41.0
 40
41.0
 40
41.0
 40
42.0
 40
42.0
 40
42.0
 40
42.0
 10
7.17285793950053
 20
-13.68479096897969
 30
0.0
 10
7.1980584650137
 20
-13.66853256542287
 30
0.0
 10
7.231902035576001
 20
-13.6394478566442
 30
0.0
 10
7.271008249440611
 20
-13.62253717398612
 30
0.0
 10
8.04345069252021
 20
-13.28852170014565
 30
0.0
 10
8.221016330000314
 20
-12.32103982576747
 30
0.0
 10
7.894568681562739
 20
-11.68306229072184
 30
0.0
 10
7.847853007458832
 20
-11.59176472787211
 30
0.0
 10
7.820976679786624
 20
-11.49031589802992
 30
0.0
 10
7.770980527542917
 20
-11.35616637388062
 30
0.0
 10
8.060218428907204
 20
-11.38977401370411
 30
0.0
 10
8.144376658210472
 20
-11.56335033995718
 30
0.0
 10
8.223154625798864
 20
-11.73131845376699
 30
0.0
 10
8.306643228152398
 20
-11.90932958399502
 30
0.0
 10
8.360712308252507
 20
-12.10159786998401
 30
0.0
 10
8.4494240008139
 20
-12.27659116849766
 30
0.0
 10
8.578871564122336
 20
-12.53194039489366
 30
0.0
 10
8.727725818522291
 20
-12.77745269731091
 30
0.0
 10
8.868440115477767
 20
-13.02708268503361
 30
0.0
 10
8.896997449663822
 20
-13.07774395378646
 30
0.0
 10
8.926147386352504
 20
-13.12807214384927
 30
0.0
 10
8.972030363731365
 20
-13.20828443154655
 30
0.0
 10
8.745347069052514
 20
-13.20828443154655
 30
0.0
 10
8.548380638749405
 20
-13.20828443154655
 30
0.0
 10
8.328257953393141
 20
-13.20828443154655
 30
0.0
 10
8.31572309202519
 20
-13.66989541239618
 30
0.0
 10
8.532763064713869
 20
-14.01691344559858
 30
0.0
 10
8.796013542159793
 20
-14.3751742724171
 30
0.0
 10
8.34035981246403
 20
-14.40872084781409
 30
0.0
 10
7.944608897341361
 20
-14.52307925255054
 30
0.0
 10
7.617048210948008
 20
-14.87065241690294
 30
0.0
 10
7.923437930063641
 20
-15.25024970947329
 30
0.0
 10
8.329933755552403
 20
-15.35217595210456
 30
0.0
 10
8.777985311105244
 20
-15.38815400193872
 30
0.0
 10
8.66355473931935
 20
-15.58186424108989
 30
0.0
 10
8.537830024285912
 20
-15.75383693223326
 30
0.0
 10
8.456197294758407
 20
-15.9446715920273
 30
0.0
 10
8.378624655679458
 20
-16.12601489698353
 30
0.0
 10
8.347160862965953
 20
-16.3270806238726
 30
0.0
 10
8.287120306476297
 20
-16.55034882110785
 30
0.0
 10
8.541299940930612
 20
-16.55034882110785
 30
0.0
 10
8.739663219990044
 20
-16.55034882110785
 30
0.0
 10
8.961429440507366
 20
-16.55034882110785
 30
0.0
 10
8.939899025809884
 20
-16.60836141411499
 30
0.0
 10
8.93557628893595
 20
-16.6478881398258
 30
0.0
 10
8.914306438922186
 20
-16.67313550452966
 30
0.0
 10
8.595096659810197
 20
-17.05203194402318
 30
0.0
 10
8.433708931870148
 20
-17.51079093858949
 30
0.0
 10
8.254903270183727
 20
-17.96140199570104
 30
0.0
 10
8.176895547065891
 20
-18.15799058986526
 30
0.0
 10
8.085095243568464
 20
-18.34739578694785
 30
0.0
 10
7.851401683335482
 20
-18.41175214117208
 30
0.0
 10
7.751324027433927
 20
-18.30028319407175
 30
0.0
 10
7.822046695078305
 20
-18.21743958472314
 30
0.0
 10
7.86717400017904
 20
-18.13478471996563
 30
0.0
 10
8.025186183769842
 20
-17.84536293140797
 30
0.0
 10
8.081066379246975
 20
-17.53476150164827
 30
0.0
 10
8.03726896020745
 20
-17.21134209363416
 30
0.0
 10
7.973178721978281
 20
-16.73807613428943
 30
0.0
 10
7.741573495740391
 20
-16.37472753048071
 30
0.0
 10
7.302791936479299
 20
-16.15926031373158
 30
0.0
 10
7.25615814422001
 20
-16.13636392944798
 30
0.0
 10
7.211603318117679
 20
-16.10923328231769
 30
0.0
 10
7.140124284281469
 20
-16.06971210791844
 30
0.0
 10
7.198351990609294
 20
-16.02355434062025
 30
0.0
 10
7.245931587565377
 20
-15.99396029901157
 30
0.0
 10
7.28328462786686
 20
-15.95464868662144
 30
0.0
 10
7.381108451299247
 20
-15.85169406353473
 30
0.0
 10
7.494858640469349
 20
-15.75633363458067
 30
0.0
 10
7.564649728652477
 20
-15.63611165707196
 30
0.0
 10
7.66039979028259
 20
-15.47117525325523
 30
0.0
 10
7.614430767575562
 20
-15.29543183377509
 30
0.0
 10
7.484580387226382
 20
-15.18219895744554
 30
0.0
 10
7.330426018171327
 20
-15.04777256163514
 30
0.0
 10
7.149745747982578
 20
-15.03257445857489
 30
0.0
 10
6.971517769649018
 20
-15.13905555229212
 30
0.0
 10
6.975353031981867
 20
-15.15282280481319
 30
0.0
 10
6.974699712009722
 20
-15.17323358937232
 30
0.0
 10
6.983738288003257
 20
-15.1793733398918
 30
0.0
 10
7.273528544861822
 20
-15.37616733258143
 30
0.0
 10
7.282186856017633
 20
-15.53009964917637
 30
0.0
 10
6.992900727634694
 20
-15.72470087382334
 30
0.0
 10
6.863681808968627
 20
-15.81162469712476
 30
0.0
 10
6.714128436276611
 20
-15.88114654670026
 30
0.0
 10
6.563840208724717
 20
-15.9209105909777
 30
0.0
 10
6.339673219461987
 20
-15.98022219087599
 30
0.0
 10
6.106691614928944
 20
-16.00621759480444
 30
0.0
 10
5.863532548152341
 20
-16.04882807405384
 30
0.0
 10
5.847926423696856
 20
-15.9892680529659
 30
0.0
 10
5.827835359984389
 20
-15.93349957763276
 30
0.0
 10
5.819125005283358
 20
-15.87600742007864
 30
0.0
 10
5.754770559322363
 20
-15.45124049365729
 30
0.0
 10
5.511584082945292
 20
-15.17923455710423
 30
0.0
 10
5.110929104547462
 20
-15.04031021115064
 30
0.0
 10
5.060851937851587
 20
-15.02294570877744
 30
0.0
 10
5.004254929276943
 20
-15.01711544387401
 30
0.0
 10
4.960915840393225
 20
-14.98973637555401
 30
0.0
 10
4.921511763970887
 20
-14.96484151913041
 30
0.0
 10
4.870229789200978
 20
-14.91687818776676
 30
0.0
 10
4.871624642954708
 20
-14.88092650666236
 30
0.0
 10
4.873049768703921
 20
-14.84418792715253
 30
0.0
 10
4.92701675671596
 20
-14.80122493962296
 30
0.0
 10
4.967463438829445
 20
-14.77648968340508
 30
0.0
 10
5.011580752194154
 20
-14.74951308516878
 30
0.0
 10
5.066705622350238
 20
-14.74068788771097
 30
0.0
 10
5.116821127791193
 20
-14.72334142710007
 30
0.0
 10
5.518983634218358
 20
-14.5841520060223
 30
0.0
 10
5.75657126599028
 20
-14.30718180915997
 30
0.0
 10
5.821082189544201
 20
-13.88415799454974
 30
0.0
 10
5.828950479682054
 20
-13.8325613298092
 30
0.0
 10
5.844489467964097
 20
-13.78213599179516
 30
0.0
 10
5.868430366202134
 20
-13.68031383625458
 30
0.0
 10
6.227300796414897
 20
-13.78513508783328
 30
0.0
 10
6.597150159469005
 20
-13.84581092253278
 30
0.0
 10
6.922207204375753
 20
-14.00056899671347
 30
0.0
 10
7.294963893349793
 20
-14.17803609841441
 30
0.0
 10
7.288232234241527
 20
-14.3664059759022
 30
0.0
 10
6.970365178598756
 20
-14.61029035622206
 30
0.0
 10
7.121361545323959
 20
-14.73301597521737
 30
0.0
 10
7.308052844996864
 20
-14.72739666015115
 30
0.0
 10
7.471779756820286
 20
-14.59519495242449
 30
0.0
 10
7.609967860086164
 20
-14.48361497909406
 30
0.0
 10
7.665504221207294
 20
-14.28920249903813
 30
0.0
 10
7.560654172200071
 20
-14.12452423120615
 30
0.0
 10
7.462113535670269
 20
-13.96975366657466
 30
0.0
 10
7.317013355672377
 20
-13.84462710535526
 30
0.0
 10
7.17285793950053
 20
-13.68479096897969
 30
0.0
  0
SPLINE
  5
4E
330
41
100
AcDbEntity
  8
Layer 1
370
     0
100
AcDbSpline
210
0.0
220
0.0
230
1.0
 70
    11
 71
     3
 72
   134
 73
   130
 74
     0
 42
0.0000000001
 43
0.0000000001
 12
1.0
 22
0.0
 32
0.0
 13
1.0
 23
0.0
 33
0.0
 40
0.0
 40
0.0
 40
0.0
 40
0.0
 40
1.0
 40
1.0
 40
1.0
 40
2.0
 40
2.0
 40
2.0
 40
3.0
 40
3.0
 40
3.0
 40
4.0
 40
4.0
 40
4.0
 40
5.0
 40
5.0
 40
5.0
 40
6.0
 40
6.0
 40
6.0
 40
7.0
 40
7.0
 40
7.0
 40
8.0
 40
8.0
 40
8.0
 40
9.0
 40
9.0
 40
9.0
 40
10.0
 40
10.0
 40
10.0
 40
11.0
 40
11.0
 40
11.0
 40
12.0
 40
12.0
 40
12.0
 40
13.0
 40
13.0
 40
13.0
 40
14.0
 40
14.0
 40
14.0
 40
15.0
 40
15.0
 40
15.0
 40
16.0
 40
16.0
 40
16.0
 40
17.0
 40
17.0
 40
17.0
 40
18.0
 40
18.0
 40
18.0
 40
19.0
 40
19.0
 40
19.0
 40
20.0
 40
20.0
 40
20.0
 40
21.0
 40
21.0
 40
21.0
 40
22.0
 40
22.0
 40
22.0
 40
23.0
 40
23.0
 40
23.0
 40
24.0
 40
24.0
 40
24.0
 40
25.0
 40
25.0
 40
25.0
 40
26.0
 40
26.0
 40
26.0
 40
27.0
 40
27.0
 40
27.0
 40
28.0
 40
28.0
 40
28.0
 40
29.0
 40
29.0
 40
29.0
 40
30.0
 40
30.0
 40
30.0
 40
31.0
 40
31.0
 40
31.0
 40
32.0
 40
32.0
 40
32.0
 40
33.0
 40
33.0
 40
33.0
 40
34.0
 40
34.0
 40
34.0
 40
35.0
 40
35.0
 40
35.0
 40
36.0
 40
36.0
 40
36.0
 40
37.0
 40
37.0
 40
37.0
 40
38.0
 40
38.0
 40
38.0
 40
39.0
 40
39.0
 40
39.0
 40
40.0
 40
40.0
 40
40.0
 40
41.0
 40
41.0
 40
41.0
 40
42.0
 40
42.0
 40
42.0
 40
43.0
 40
43.0
 40
43.0
 40
43.0
 10
13.15244861173049
 20
-18.40254667887652
 30
0.0
 10
12.9468315033249
 20
-18.3758282166251
 30
0.0
 10
12.86515713896112
 20
-18.20883921538113
 30
0.0
 10
12.78751927197203
 20
-18.04813429875564
 30
0.0
 10
12.71521968490462
 20
-17.89848065549963
 30
0.0
 10
12.67345578065919
 20
-17.73365805356874
 30
0.0
 10
12.59718908761073
 20
-17.58642200647109
 30
0.0
 10
12.44468137632949
 20
-17.29200264973518
 30
0.0
 10
12.27749669135519
 20
-17.00519552889423
 30
0.0
 10
12.1170977907762
 20
-16.71484250783228
 30
0.0
 10
12.09302175279886
 20
-16.67125916124253
 30
0.0
 10
12.0728725737942
 20
-16.62550525185619
 30
0.0
 10
12.0328809257452
 20
-16.54403420427601
 30
0.0
 10
12.26339566623024
 20
-16.56100040004918
 30
0.0
 10
12.4599905056198
 20
-16.57547128130294
 30
0.0
 10
12.67513158281832
 20
-16.5913063973579
 30
0.0
 10
12.69039560770264
 20
-16.11313585430247
 30
0.0
 10
12.48311588150268
 20
-15.75962139881681
 30
0.0
 10
12.20512285549643
 20
-15.39341386958534
 30
0.0
 10
12.6571321491921
 20
-15.35733589614413
 30
0.0
 10
13.0460355215791
 20
-15.23170555340615
 30
0.0
 10
13.36981160135719
 20
-14.88390062179859
 30
0.0
 10
13.04867100671395
 20
-14.5462337728187
 30
0.0
 10
12.67348631287249
 20
-14.40631990559022
 30
0.0
 10
12.19672719076606
 20
-14.37989566284829
 30
0.0
 10
12.48055603298711
 20
-14.02035525872888
 30
0.0
 10
12.6853043611428
 20
-13.65891630607619
 30
0.0
 10
12.67793638295397
 20
-13.17633524603381
 30
0.0
 10
12.46319985758088
 20
-13.19148616294635
 30
0.0
 10
12.2659444121228
 20
-13.20540330087775
 30
0.0
 10
12.04243195718168
 20
-13.22117318902263
 30
0.0
 10
12.06456364830599
 20
-13.15913728300551
 30
0.0
 10
12.06824763740047
 20
-13.11959667901601
 30
0.0
 10
12.08920383831448
 20
-13.09444646226325
 30
0.0
 10
12.41098491552199
 20
-12.7082680899091
 30
0.0
 10
12.57524961064719
 20
-12.24270735092688
 30
0.0
 10
12.7571459650115
 20
-11.78526818066985
 30
0.0
 10
12.83267919102801
 20
-11.59531409766272
 30
0.0
 10
12.92721802587997
 20
-11.416088618044
 30
0.0
 10
13.20844538474915
 20
-11.38255730875356
 30
0.0
 10
13.18499664497145
 20
-11.46555843656591
 30
0.0
 10
13.17340828221432
 20
-11.55435443967086
 30
0.0
 10
13.13615273682111
 20
-11.63061003009625
 30
0.0
 10
12.91200535062704
 20
-12.08939955687585
 30
0.0
 10
12.91119694088976
 20
-12.55009040784422
 30
0.0
 10
13.11310160972947
 20
-13.0141189848523
 30
0.0
 10
13.23287184926482
 20
-13.28938076560026
 30
0.0
 10
13.42834809938716
 20
-13.49229230356342
 30
0.0
 10
13.70511289772392
 20
-13.61391043591449
 30
0.0
 10
13.73972116144531
 20
-13.62911825376998
 30
0.0
 10
13.77437175391696
 20
-13.64467857990552
 30
0.0
 10
13.80718625010992
 20
-13.66327963691555
 30
0.0
 10
13.81881347204751
 20
-13.66986904366662
 30
0.0
 10
13.8250295531001
 20
-13.6860067061983
 30
0.0
 10
13.8382500014383
 20
-13.70393466668888
 30
0.0
 10
13.72038316783364
 20
-13.81422534792326
 30
0.0
 10
13.58816966357011
 20
-13.91388804329022
 30
0.0
 10
13.4869685610037
 20
-14.03869679192613
 30
0.0
 10
13.35921345378881
 20
-14.1962555027588
 30
0.0
 10
13.36271147394804
 20
-14.38705546685592
 30
0.0
 10
13.46360031524262
 20
-14.52442128210577
 30
0.0
 10
13.56582771652278
 20
-14.66360931535558
 30
0.0
 10
13.78391654012797
 20
-14.73771238474668
 30
0.0
 10
13.95222952916483
 20
-14.68636136553997
 30
0.0
 10
13.98446738287559
 20
-14.676527217217
 30
0.0
 10
14.01166325791612
 20
-14.65016542672943
 30
0.0
 10
14.06120385565971
 20
-14.6187214105633
 30
0.0
 10
14.01360344128551
 20
-14.5854565642249
 30
0.0
 10
13.9851120289235
 20
-14.56568418048834
 30
0.0
 10
13.9567628689188
 20
-14.54571194953768
 30
0.0
 10
13.75455634751618
 20
-14.40325419381416
 30
0.0
 10
13.73905569797931
 20
-14.23512578588469
 30
0.0
 10
13.94559848757751
 20
-14.09266525450542
 30
0.0
 10
14.1039392394177
 20
-13.98345291552985
 30
0.0
 10
14.28678486804881
 20
-13.89754775788872
 30
0.0
 10
14.47095170881683
 20
-13.84125052013517
 30
0.0
 10
14.67820853585683
 20
-13.7778947898088
 30
0.0
 10
14.89917363273318
 20
-13.75938532943857
 30
0.0
 10
15.1277606802997
 20
-13.7189662304041
 30
0.0
 10
15.14208861528225
 20
-13.7643079549116
 30
0.0
 10
15.16408568710257
 20
-13.81181746656003
 30
0.0
 10
15.17171874041573
 20
-13.86153362452976
 30
0.0
 10
15.23961128006588
 20
-14.30371640295583
 30
0.0
 10
15.49971798041772
 20
-14.58065190412129
 30
0.0
 10
15.91121172104156
 20
-14.72906205360121
 30
0.0
 10
15.95394571697175
 20
-14.74447388215428
 30
0.0
 10
16.002956858381
 20
-14.74970738107122
 30
0.0
 10
16.03906813969129
 20
-14.77431773278047
 30
0.0
 10
16.0784005694995
 20
-14.80112224036022
 30
0.0
 10
16.13113247744193
 20
-14.84459456071997
 30
0.0
 10
16.13175699998571
 20
-14.88158017359148
 30
0.0
 10
16.13237180773441
 20
-14.91808559801809
 30
0.0
 10
16.08150236480033
 20
-14.96627236966971
 30
0.0
 10
16.04168974654728
 20
-14.98993622276798
 30
0.0
 10
15.99079948619512
 20
-15.02018115565017
 30
0.0
 10
15.92732856615518
 20
-15.02839154535925
 30
0.0
 10
15.87105492147546
 20
-15.0505954035331
 30
0.0
 10
15.48973117102836
 20
-15.20106092609607
 30
0.0
 10
15.24859607772925
 20
-15.46956814857595
 30
0.0
 10
15.17573233863057
 20
-15.87943535493022
 30
0.0
 10
15.16658794076147
 20
-15.93087103163727
 30
0.0
 10
15.15226833274622
 20
-15.98138657846316
 30
0.0
 10
15.1290957707156
 20
-16.080406709524
 30
0.0
 10
14.77778518589549
 20
-15.979965442719
 30
0.0
 10
14.41486125741652
 20
-15.92410537074622
 30
0.0
 10
14.09713680108795
 20
-15.77312357621367
 30
0.0
 10
13.70842009155017
 20
-15.58840923734888
 30
0.0
 10
13.71191186648412
 20
-15.41276019016436
 30
0.0
 10
14.03421754262836
 20
-15.15077298304155
 30
0.0
 10
13.872021404951
 20
-15.03363753472708
 30
0.0
 10
13.71629740256933
 20
-15.03653670715822
 30
0.0
 10
13.54774917670773
 20
-15.15983133558245
 30
0.0
 10
13.40441917116461
 20
-15.26467618023509
 30
0.0
 10
13.33305428617106
 20
-15.44381422669759
 30
0.0
 10
13.42583335527745
 20
-15.60083584814256
 30
0.0
 10
13.52612959406934
 20
-15.77057829989067
 30
0.0
 10
13.6767380629034
 20
-15.91059347855408
 30
0.0
 10
13.83497125808347
 20
-16.09873575227045
 30
0.0
 10
13.84044554513669
 20
-16.09660821213789
 30
0.0
 10
13.80689688799794
 20
-16.11133306589273
 30
0.0
 10
13.77227890948134
 20
-16.12283815897732
 30
0.0
 10
13.02805482362921
 20
-16.37017823070613
 30
0.0
 10
12.76835059336117
 20
-17.42120664925162
 30
0.0
 10
13.12452829053925
 20
-18.11044221903634
 30
0.0
 10
13.16594038041831
 20
-18.19057956402843
 30
0.0
 10
13.18760367963475
 20
-18.28092160738608
 30
0.0
 10
13.2184224793433
 20
-18.36653254551769
 30
0.0
 10
13.19643095883429
 20
-18.37853725663721
 30
0.0
 10
13.17443943832554
 20
-18.39054196775686
 30
0.0
 10
13.15244861173049
 20
-18.40254667887652
 30
0.0
  0
SPLINE
  5
4F
330
41
100
AcDbEntity
  8
Layer 1
370
     0
100
AcDbSpline
210
0.0
220
0.0
230
1.0
 70
    11
 71
     3
 72
    71
 73
    67
 74
     0
 42
0.0000000001
 43
0.0000000001
 12
1.0
 22
0.0
 32
0.0
 13
1.0
 23
0.0
 33
0.0
 40
0.0
 40
0.0
 40
0.0
 40
0.0
 40
1.0
 40
1.0
 40
1.0
 40
2.0
 40
2.0
 40
2.0
 40
3.0
 40
3.0
 40
3.0
 40
4.0
 40
4.0
 40
4.0
 40
5.0
 40
5.0
 40
5.0
 40
6.0
 40
6.0
 40
6.0
 40
7.0
 40
7.0
 40
7.0
 40
8.0
 40
8.0
 40
8.0
 40
9.0
 40
9.0
 40
9.0
 40
10.0
 40
10.0
 40
10.0
 40
11.0
 40
11.0
 40
11.0
 40
12.0
 40
12.0
 40
12.0
 40
13.0
 40
13.0
 40
13.0
 40
14.0
 40
14.0
 40
14.0
 40
15.0
 40
15.0
 40
15.0
 40
16.0
 40
16.0
 40
16.0
 40
17.0
 40
17.0
 40
17.0
 40
18.0
 40
18.0
 40
18.0
 40
19.0
 40
19.0
 40
19.0
 40
20.0
 40
20.0
 40
20.0
 40
21.0
 40
21.0
 40
21.0
 40
22.0
 40
22.0
 40
22.0
 40
22.0
 10
13.35018493954737
 20
-3.379110604103636
 30
0.0
 10
13.1711634706263
 20
-3.524311575100871
 30
0.0
 10
12.99755453041815
 20
-3.676897351699996
 30
0.0
 10
12.81186663029898
 20
-3.813002672282287
 30
0.0
 10
12.52523923316781
 20
-4.023093443843338
 30
0.0
 10
12.20527204699298
 20
-4.155394381263026
 30
0.0
 10
11.84544228076165
 20
-4.172491379813369
 30
0.0
 10
11.627590081809
 20
-4.182842840976817
 30
0.0
 10
11.42191676637454
 20
-4.142537890785017
 30
0.0
 10
11.24745500593709
 20
-4.001151885137952
 30
0.0
 10
11.0861040554357
 20
-3.870390048831743
 30
0.0
 10
11.02780418205841
 20
-3.677558651682478
 30
0.0
 10
11.10418051350894
 20
-3.540356600121903
 30
0.0
 10
11.17601587215224
 20
-3.411311853854182
 30
0.0
 10
11.30729536825582
 20
-3.383815340600197
 30
0.0
 10
11.52919933068968
 20
-3.451261693588418
 30
0.0
 10
11.55749158975155
 20
-3.459860848581061
 30
0.0
 10
11.58587613936709
 20
-3.468157630575385
 30
0.0
 10
11.62890574263466
 20
-3.480966934905652
 30
0.0
 10
11.67360906631962
 20
-3.329161464529244
 30
0.0
 10
11.6221359182599
 20
-3.217684710896997
 30
0.0
 10
11.49851168071537
 20
-3.152468423825616
 30
0.0
 10
11.21132915243424
 20
-3.000969316452681
 30
0.0
 10
10.95725187028565
 20
-3.083289888170813
 30
0.0
 10
10.71844416433295
 20
-3.30576997265134
 30
0.0
 10
10.63574558299744
 20
-3.151011031078297
 30
0.0
 10
10.63649015265246
 20
-2.988787310322013
 30
0.0
 10
10.72548461514349
 20
-2.878228257872195
 30
0.0
 10
10.78333968968679
 20
-2.806353172656014
 30
0.0
 10
10.93461015241736
 20
-2.79479482167671
 30
0.0
 10
11.04649336613852
 20
-2.785323243386082
 30
0.0
 10
11.16688674038973
 20
-2.775130861992854
 30
0.0
 10
11.29015846965398
 20
-2.798943906587802
 30
0.0
 10
11.4456111516861
 20
-2.810379955235617
 30
0.0
 10
11.32976846503733
 20
-2.541631944619422
 30
0.0
 10
11.12833704550304
 20
-2.560885107252259
 30
0.0
 10
10.92842182792228
 20
-2.507632590378157
 30
0.0
 10
10.99883813256325
 20
-2.46331265414369
 30
0.0
 10
11.07759875230314
 20
-2.427905175044702
 30
0.0
 10
11.13723510392425
 20
-2.37207129832289
 30
0.0
 10
11.19265315271895
 20
-2.320186746037456
 30
0.0
 10
11.22767707088896
 20
-2.246518847424404
 30
0.0
 10
11.27946525587642
 20
-2.171106275693871
 30
0.0
 10
11.03338116837446
 20
-2.061014400802522
 30
0.0
 10
10.90303359868915
 20
-2.248681777167769
 30
0.0
 10
10.72908325282354
 20
-2.319470106418468
 30
0.0
 10
10.68028791864887
 20
-2.079057551006737
 30
0.0
 10
10.63363400288543
 20
-1.849196824407868
 30
0.0
 10
10.58201860246859
 20
-1.594887514786491
 30
0.0
 10
11.23258096068563
 20
-1.594887514786491
 30
0.0
 10
11.87545197681896
 20
-1.594887514786491
 30
0.0
 10
12.55593659793713
 20
-1.594887514786491
 30
0.0
 10
12.49900789850046
 20
-1.664136482705991
 30
0.0
 10
12.46272175087793
 20
-1.707068938022331
 30
0.0
 10
12.42773252840479
 20
-1.751033503581514
 30
0.0
 10
12.20401259319637
 20
-2.032138213162193
 30
0.0
 10
12.12696663479607
 20
-2.34435863087737
 30
0.0
 10
12.25102248680977
 20
-2.687757902895398
 30
0.0
 10
12.36922239910435
 20
-3.014948039246207
 30
0.0
 10
12.62176404970898
 20
-3.170231232799098
 30
0.0
 10
12.95852256534467
 20
-3.210738805860656
 30
0.0
 10
13.08091926913374
 20
-3.22546157787364
 30
0.0
 10
13.20135913561886
 20
-3.256445182142305
 30
0.0
 10
13.32269206934152
 20
-3.280009632069154
 30
0.0
 10
13.33185589680079
 20
-3.313043231587796
 30
0.0
 10
13.34102041817414
 20
-3.34607700458493
 30
0.0
 10
13.35018493954737
 20
-3.379110604103636
 30
0.0
  0
SPLINE
  5
50
330
41
100
AcDbEntity
  8
Layer 1
370
     0
100
AcDbSpline
210
0.0
220
0.0
230
1.0
 70
    11
 71
     3
 72
    65
 73
    61
 74
     0
 42
0.0000000001
 43
0.0000000001
 12
1.0
 22
0.0
 32
0.0
 13
1.0
 23
0.0
 33
0.0
 40
0.0
 40
0.0
 40
0.0
 40
0.0
 40
1.0
 40
1.0
 40
1.0
 40
2.0
 40
2.0
 40
2.0
 40
3.0
 40
3.0
 40
3.0
 40
4.0
 40
4.0
 40
4.0
 40
5.0
 40
5.0
 40
5.0
 40
6.0
 40
6.0
 40
6.0
 40
7.0
 40
7.0
 40
7.0
 40
8.0
 40
8.0
 40
8.0
 40
9.0
 40
9.0
 40
9.0
 40
10.0
 40
10.0
 40
10.0
 40
11.0
 40
11.0
 40
11.0
 40
12.0
 40
12.0
 40
12.0
 40
13.0
 40
13.0
 40
13.0
 40
14.0
 40
14.0
 40
14.0
 40
15.0
 40
15.0
 40
15.0
 40
16.0
 40
16.0
 40
16.0
 40
17.0
 40
17.0
 40
17.0
 40
18.0
 40
18.0
 40
18.0
 40
19.0
 40
19.0
 40
19.0
 40
20.0
 40
20.0
 40
20.0
 40
20.0
 10
10.27363977905086
 20
-27.43756428178449
 30
0.0
 10
10.32408454665513
 20
-27.6880866428309
 30
0.0
 10
10.37039983241706
 20
-27.91810523485049
 30
0.0
 10
10.42149063389714
 20
-28.17183347828849
 30
0.0
 10
9.7705244177684
 20
-28.17183347828849
 30
0.0
 10
9.1276117667989
 20
-28.17183347828849
 30
0.0
 10
8.442583050260513
 20
-28.17183347828849
 30
0.0
 10
8.507405020736925
 20
-28.09606640327509
 30
0.0
 10
8.551160111026217
 20
-28.04974626011558
 30
0.0
 10
8.589496774334199
 20
-27.9993098194786
 30
0.0
 10
8.800695726453425
 20
-27.72145835191564
 30
0.0
 10
8.874455308445505
 20
-27.41609458455662
 30
0.0
 10
8.752937099701422
 20
-27.08110624337567
 30
0.0
 10
8.634343391247253
 20
-26.75418118214901
 30
0.0
 10
8.385094362276243
 20
-26.59693473258834
 30
0.0
 10
8.047864332120012
 20
-26.55691532798182
 30
0.0
 10
7.92526500546118
 20
-26.54235978922779
 30
0.0
 10
7.804642986567508
 20
-26.51113643769369
 30
0.0
 10
7.664752365455861
 20
-26.48395166527622
 30
0.0
 10
7.691288328341778
 20
-26.41024412682949
 30
0.0
 10
7.69377149936734
 20
-26.36674404991228
 30
0.0
 10
7.716795563815304
 20
-26.34483579907582
 30
0.0
 10
8.117813979637953
 20
-25.96328583268515
 30
0.0
 10
8.550316658635115
 20
-25.63807890236795
 30
0.0
 10
9.130926593678533
 20
-25.59691592759237
 30
0.0
 10
9.347317409878679
 20
-25.58157210260519
 30
0.0
 10
9.55472481624318
 20
-25.61263446610577
 30
0.0
 10
9.734109202153503
 20
-25.74869155966944
 30
0.0
 10
9.910598579116526
 20
-25.88255033387894
 30
0.0
 10
9.97913090741707
 20
-26.07613011720982
 30
0.0
 10
9.902150176926849
 20
-26.22101379605914
 30
0.0
 10
9.83038420967733
 20
-26.35608275617568
 30
0.0
 10
9.695152873699438
 20
-26.38340908703644
 30
0.0
 10
9.457753119126034
 20
-26.31086732400474
 30
0.0
 10
9.43619251917233
 20
-26.30427791725385
 30
0.0
 10
9.41454101649292
 20
-26.2979882813238
 30
0.0
 10
9.37890922971357
 20
-26.28738805201386
 30
0.0
 10
9.326774087757444
 20
-26.42206286901383
 30
0.0
 10
9.37821462186207
 20
-26.52004629265194
 30
0.0
 10
9.479249185083523
 20
-26.59891099948246
 30
0.0
 10
9.671822793204983
 20
-26.7492238609792
 30
0.0
 10
9.927293454540118
 20
-26.71092813859365
 30
0.0
 10
10.32014103374807
 20
-26.46318976026474
 30
0.0
 10
10.32473127444502
 20
-26.55695696281806
 30
0.0
 10
10.33528986891872
 20
-26.6352443332528
 30
0.0
 10
10.33108405654323
 20
-26.71272953917553
 30
0.0
 10
10.31894750177544
 20
-26.93632248813341
 30
0.0
 10
10.23926328258463
 20
-27.00406514237298
 30
0.0
 10
10.01097045452761
 20
-26.9899148493584
 30
0.0
 10
9.874347821104863
 20
-26.98144909932025
 30
0.0
 10
9.737988181064447
 20
-26.96873104467283
 30
0.0
 10
9.570161625697892
 20
-26.95543842928502
 30
0.0
 10
9.675075861744219
 20
-27.23541049784118
 30
0.0
 10
9.885533713778228
 20
-27.19707036496354
 30
0.0
 10
10.08642735001103
 20
-27.22703634444285
 30
0.0
 10
9.951411127353632
 20
-27.34540973522188
 30
0.0
 10
9.835424106605787
 20
-27.44709865928652
 30
0.0
 10
9.69612574103985
 20
-27.56922473663987
 30
0.0
 10
9.966468365884584
 20
-27.71951261723476
 30
0.0
 10
10.10045620808641
 20
-27.51831088321377
 30
0.0
 10
10.27363977905086
 20
-27.43756428178449
 30
0.0
  0
SPLINE
  5
51
330
41
100
AcDbEntity
  8
Layer 1
370
     0
100
AcDbSpline
210
0.0
220
0.0
230
1.0
 70
    11
 71
     3
 72
    62
 73
    58
 74
     0
 42
0.0000000001
 43
0.0000000001
 12
1.0
 22
0.0
 32
0.0
 13
1.0
 23
0.0
 33
0.0
 40
0.0
 40
0.0
 40
0.0
 40
0.0
 40
1.0
 40
1.0
 40
1.0
 40
2.0
 40
2.0
 40
2.0
 40
3.0
 40
3.0
 40
3.0
 40
4.0
 40
4.0
 40
4.0
 40
5.0
 40
5.0
 40
5.0
 40
6.0
 40
6.0
 40
6.0
 40
7.0
 40
7.0
 40
7.0
 40
8.0
 40
8.0
 40
8.0
 40
9.0
 40
9.0
 40
9.0
 40
10.0
 40
10.0
 40
10.0
 40
11.0
 40
11.0
 40
11.0
 40
12.0
 40
12.0
 40
12.0
 40
13.0
 40
13.0
 40
13.0
 40
14.0
 40
14.0
 40
14.0
 40
15.0
 40
15.0
 40
15.0
 40
16.0
 40
16.0
 40
16.0
 40
17.0
 40
17.0
 40
17.0
 40
18.0
 40
18.0
 40
18.0
 40
19.0
 40
19.0
 40
19.0
 40
19.0
 10
7.680119783516915
 20
-3.285969832357269
 30
0.0
 10
7.785628009893824
 20
-3.262124520764183
 30
0.0
 10
7.890041240077225
 20
-3.226504877478748
 30
0.0
 10
7.996843268990609
 20
-3.216576183381811
 30
0.0
 10
8.360285551180812
 20
-3.182788819848468
 30
0.0
 10
8.63836566338623
 20
-3.029393072205686
 30
0.0
 10
8.758303830094427
 20
-2.669058136627815
 30
0.0
 10
8.87925164158183
 20
-2.305692184970662
 30
0.0
 10
8.79082896417544
 20
-1.983110070861452
 30
0.0
 10
8.53048390438602
 20
-1.704961521393962
 30
0.0
 10
8.5067333120454
 20
-1.679586650004052
 30
0.0
 10
8.490137666314931
 20
-1.647514641724389
 30
0.0
 10
8.452320050632272
 20
-1.592526906310233
 30
0.0
 10
9.124497481047172
 20
-1.592526906310233
 30
0.0
 10
9.767687697591718
 20
-1.592526906310233
 30
0.0
 10
10.42112979864967
 20
-1.592526906310233
 30
0.0
 10
10.37045187596235
 20
-1.844372301017817
 30
0.0
 10
10.32420736942212
 20
-2.074185928208173
 30
0.0
 10
10.27524202633272
 20
-2.317518299990606
 30
0.0
 10
10.10301675051607
 20
-2.255369719697879
 30
0.0
 10
9.974140278378176
 20
-2.061660694896074
 30
0.0
 10
9.755519916696757
 20
-2.155246091997949
 30
0.0
 10
9.741600003109387
 20
-2.379706259899324
 30
0.0
 10
9.960603405284406
 20
-2.392896349502784
 30
0.0
 10
10.08544754353106
 20
-2.520692918075325
 30
0.0
 10
9.899071280785959
 20
-2.581735486290833
 30
0.0
 10
9.669837505429708
 20
-2.530132576324796
 30
0.0
 10
9.567150039208999
 20
-2.791328374601691
 30
0.0
 10
9.684772615107565
 20
-2.791328374601691
 30
0.0
 10
9.784532458425758
 20
-2.800952267001572
 30
0.0
 10
9.88186360296254
 20
-2.789653960270354
 30
0.0
 10
10.29200906880579
 20
-2.742044178057953
 30
0.0
 10
10.39714605122597
 20
-2.861878604632564
 30
0.0
 10
10.29774704315539
 20
-3.302996745599961
 30
0.0
 10
10.05997743245325
 20
-3.103036944048657
 30
0.0
 10
9.80254230076099
 20
-2.993814890278032
 30
0.0
 10
9.50901045995113
 20
-3.149131044742991
 30
0.0
 10
9.394641646505695
 20
-3.20964675880139
 30
0.0
 10
9.335225959516771
 20
-3.314567240073182
 30
0.0
 10
9.370110400985377
 20
-3.471475059632311
 30
0.0
 10
9.456694900371257
 20
-3.452227274832518
 30
0.0
 10
9.540481538760975
 20
-3.424301055372724
 30
0.0
 10
9.626120927363957
 20
-3.416364067755048
 30
0.0
 10
9.853537342117654
 20
-3.395287646251303
 30
0.0
 10
9.986409370707952
 20
-3.563053831105256
 30
0.0
 10
9.912329894390785
 20
-3.779204379604494
 30
0.0
 10
9.838292052909761
 20
-3.995230370551865
 30
0.0
 10
9.664230680814253
 20
-4.115537352517925
 30
0.0
 10
9.453868588903555
 20
-4.138866739098451
 30
0.0
 10
9.24705621374058
 20
-4.161803023433248
 30
0.0
 10
9.02611783255073
 20
-4.161548010061225
 30
0.0
 10
8.82529636336753
 20
-4.113408424557507
 30
0.0
 10
8.355429194488899
 20
-4.000774048998936
 30
0.0
 10
7.997236024279228
 20
-3.701126050743568
 30
0.0
 10
7.663731965010758
 20
-3.374217990408462
 30
0.0
 10
7.669194802484056
 20
-3.34480193772472
 30
0.0
 10
7.674657293000469
 20
-3.315385885040979
 30
0.0
 10
7.680119783516915
 20
-3.285969832357269
 30
0.0
  0
SPLINE
  5
52
330
41
100
AcDbEntity
  8
Layer 1
370
     0
100
AcDbSpline
210
0.0
220
0.0
230
1.0
 70
    11
 71
     3
 72
    68
 73
    64
 74
     0
 42
0.0000000001
 43
0.0000000001
 12
1.0
 22
0.0
 32
0.0
 13
1.0
 23
0.0
 33
0.0
 40
0.0
 40
0.0
 40
0.0
 40
0.0
 40
1.0
 40
1.0
 40
1.0
 40
2.0
 40
2.0
 40
2.0
 40
3.0
 40
3.0
 40
3.0
 40
4.0
 40
4.0
 40
4.0
 40
5.0
 40
5.0
 40
5.0
 40
6.0
 40
6.0
 40
6.0
 40
7.0
 40
7.0
 40
7.0
 40
8.0
 40
8.0
 40
8.0
 40
9.0
 40
9.0
 40
9.0
 40
10.0
 40
10.0
 40
10.0
 40
11.0
 40
11.0
 40
11.0
 40
12.0
 40
12.0
 40
12.0
 40
13.0
 40
13.0
 40
13.0
 40
14.0
 40
14.0
 40
14.0
 40
15.0
 40
15.0
 40
15.0
 40
16.0
 40
16.0
 40
16.0
 40
17.0
 40
17.0
 40
17.0
 40
18.0
 40
18.0
 40
18.0
 40
19.0
 40
19.0
 40
19.0
 40
20.0
 40
20.0
 40
20.0
 40
21.0
 40
21.0
 40
21.0
 40
21.0
 10
10.7316611431016
 20
-27.43280680782871
 30
0.0
 10
10.90334239039123
 20
-27.54017472355808
 30
0.0
 10
11.03714565148576
 20
-27.68626858831451
 30
0.0
 10
11.2449478948807
 20
-27.61569754086555
 30
0.0
 10
11.27540238977195
 20
-27.37959193578567
 30
0.0
 10
11.02471279546662
 20
-27.37935045373538
 30
0.0
 10
10.91412511906687
 20
-27.22463540221886
 30
0.0
 10
11.11953058372152
 20
-27.20430094819291
 30
0.0
 10
11.3211965461668
 20
-27.22330308745875
 30
0.0
 10
11.44955605242109
 20
-26.97065179845192
 30
0.0
 10
11.32952628907322
 20
-26.97065179845192
 30
0.0
 10
11.23978101170171
 20
-26.96163924423103
 30
0.0
 10
11.1523908782343
 20
-26.97217285780313
 30
0.0
 10
10.71108728876713
 20
-27.02535719763282
 30
0.0
 10
10.62488236030498
 20
-26.93719959535041
 30
0.0
 10
10.69697585493307
 20
-26.46419732330197
 30
0.0
 10
10.95224736296809
 20
-26.66071930172815
 30
0.0
 10
11.22371829187519
 20
-26.79111960887284
 30
0.0
 10
11.5193311805837
 20
-26.59526378782674
 30
0.0
 10
11.59563673281262
 20
-26.54470799399254
 30
0.0
 10
11.62314486912518
 20
-26.42050017482644
 30
0.0
 10
11.67306920127617
 20
-26.33012759925543
 30
0.0
 10
11.6576074109197
 20
-26.31732349927981
 30
0.0
 10
11.64214492664926
 20
-26.30451939930413
 30
0.0
 10
11.62668244237876
 20
-26.29171529932838
 30
0.0
 10
11.54912229375071
 20
-26.31101998507109
 30
0.0
 10
11.47255860553707
 20
-26.33847954740786
 30
0.0
 10
11.3938139458176
 20
-26.34810552154959
 30
0.0
 10
11.1545545018916
 20
-26.37736093315673
 30
0.0
 10
11.01725322063796
 20
-26.20882866731574
 30
0.0
 10
11.09429293381274
 20
-25.97962611808662
 30
0.0
 10
11.1613277958361
 20
-25.78018692546699
 30
0.0
 10
11.32263086627565
 20
-25.6584327859842
 30
0.0
 10
11.51302905420291
 20
-25.63849525073041
 30
0.0
 10
11.74834151565211
 20
-25.61385297898004
 30
0.0
 10
11.99873689044798
 20
-25.61310632758332
 30
0.0
 10
12.2269880836686
 20
-25.66755636643515
 30
0.0
 10
12.63351409441372
 20
-25.76452945138012
 30
0.0
 10
12.95223848072638
 20
-26.03184730537104
 30
0.0
 10
13.25635806039531
 20
-26.3083581312066
 30
0.0
 10
13.28770631643807
 20
-26.33686134010551
 30
0.0
 10
13.30413958630729
 20
-26.38177145014387
 30
0.0
 10
13.35760704302343
 20
-26.46716449929893
 30
0.0
 10
13.19985126063248
 20
-26.50212110781701
 30
0.0
 10
13.06954879535296
 20
-26.54019755339836
 30
0.0
 10
12.93652271786863
 20
-26.5586667667603
 30
0.0
 10
12.59940128524356
 20
-26.60547542533168
 30
0.0
 10
12.35609285349195
 20
-26.76995245812172
 30
0.0
 10
12.24418604669691
 20
-27.09824869328901
 30
0.0
 10
12.13245549404211
 20
-27.42602310517523
 30
0.0
 10
12.20730243917434
 20
-27.72408134659963
 30
0.0
 10
12.41036663820361
 20
-27.99569869134756
 30
0.0
 10
12.44589364397849
 20
-28.04322069344689
 30
0.0
 10
12.48528921995505
 20
-28.08783935963143
 30
0.0
 10
12.52193412108319
 20
-28.13455642156317
 30
0.0
 10
12.52514902435597
 20
-28.13865606510627
 30
0.0
 10
12.52114028353861
 20
-28.14841804637973
 30
0.0
 10
12.51884828580298
 20
-28.17344335862355
 30
0.0
 10
11.87801321316251
 20
-28.17344335862355
 30
0.0
 10
11.2355960167443
 20
-28.17344335862355
 30
0.0
 10
10.58221012271534
 20
-28.17344335862355
 30
0.0
 10
10.63303376732947
 20
-27.92157480453837
 30
0.0
 10
10.67941497491545
 20
-27.69172552751939
 30
0.0
 10
10.7316611431016
 20
-27.43280680782871
 30
0.0
  0
SPLINE
  5
53
330
41
100
AcDbEntity
  8
Layer 1
370
     0
100
AcDbSpline
210
0.0
220
0.0
230
1.0
 70
    11
 71
     3
 72
    62
 73
    58
 74
     0
 42
0.0000000001
 43
0.0000000001
 12
1.0
 22
0.0
 32
0.0
 13
1.0
 23
0.0
 33
0.0
 40
0.0
 40
0.0
 40
0.0
 40
0.0
 40
1.0
 40
1.0
 40
1.0
 40
2.0
 40
2.0
 40
2.0
 40
3.0
 40
3.0
 40
3.0
 40
4.0
 40
4.0
 40
4.0
 40
5.0
 40
5.0
 40
5.0
 40
6.0
 40
6.0
 40
6.0
 40
7.0
 40
7.0
 40
7.0
 40
8.0
 40
8.0
 40
8.0
 40
9.0
 40
9.0
 40
9.0
 40
10.0
 40
10.0
 40
10.0
 40
11.0
 40
11.0
 40
11.0
 40
12.0
 40
12.0
 40
12.0
 40
13.0
 40
13.0
 40
13.0
 40
14.0
 40
14.0
 40
14.0
 40
15.0
 40
15.0
 40
15.0
 40
16.0
 40
16.0
 40
16.0
 40
17.0
 40
17.0
 40
17.0
 40
18.0
 40
18.0
 40
18.0
 40
19.0
 40
19.0
 40
19.0
 40
19.0
 10
15.20659069143341
 20
-26.13372497402658
 30
0.0
 10
15.02486573381166
 20
-26.14834435286293
 30
0.0
 10
14.96100552805269
 20
-26.23641313416129
 30
0.0
 10
14.96280901037632
 20
-26.37757465864956
 30
0.0
 10
14.96485605649225
 20
-26.53775497633825
 30
0.0
 10
15.03575532523365
 20
-26.64942515848055
 30
0.0
 10
15.19469284306017
 20
-26.70279269158976
 30
0.0
 10
15.62304452888304
 20
-26.84662994822127
 30
0.0
 10
16.12853168800402
 20
-26.52444293136028
 30
0.0
 10
16.1921233490691
 20
-26.06418091920527
 30
0.0
 10
16.28789041159054
 20
-25.37101918436176
 30
0.0
 10
15.60076295234821
 20
-24.79486244201256
 30
0.0
 10
14.92959759541126
 20
-25.01105826839618
 30
0.0
 10
14.78779767010041
 20
-25.05673445942154
 30
0.0
 10
14.65542664737304
 20
-25.13167994033297
 30
0.0
 10
14.47977829410241
 20
-25.2106445707706
 30
0.0
 10
14.48715043577488
 20
-25.07602249122981
 30
0.0
 10
14.49332280024954
 20
-24.96330588686964
 30
0.0
 10
14.49917457648482
 20
-24.85644314048664
 30
0.0
 10
15.12157096797677
 20
-24.6310709961929
 30
0.0
 10
15.12157096797677
 20
-24.6310709961929
 30
0.0
 10
15.33265126081271
 20
-23.96862605570919
 30
0.0
 10
15.41351443978349
 20
-24.00419469632019
 30
0.0
 10
15.50262131633237
 20
-24.02467487227314
 30
0.0
 10
15.5680116023236
 20
-24.07560537963369
 30
0.0
 10
15.77687969752671
 20
-24.23828795098116
 30
0.0
 10
15.97802730626066
 20
-24.41099757872629
 30
0.0
 10
16.18020190762206
 20
-24.58214173662826
 30
0.0
 10
16.67387171238656
 20
-25.00003891506787
 30
0.0
 10
16.75475154529178
 20
-25.92769359900029
 30
0.0
 10
16.52766265791656
 20
-26.39253821879889
 30
0.0
 10
16.45979509916815
 20
-26.53146256475248
 30
0.0
 10
16.36484824292095
 20
-26.67257135178151
 30
0.0
 10
16.24644431992863
 20
-26.76833980213088
 30
0.0
 10
15.95598721177598
 20
-27.00326852917267
 30
0.0
 10
15.61132293464984
 20
-27.11650140550235
 30
0.0
 10
15.23513692299636
 20
-27.11541334844824
 30
0.0
 10
14.92594968984152
 20
-27.11451958729672
 30
0.0
 10
14.69253161344189
 20
-26.96949712565991
 30
0.0
 10
14.55753759603047
 20
-26.69704430853108
 30
0.0
 10
14.38247906960682
 20
-26.34373386374298
 30
0.0
 10
14.41000594159551
 20
-25.98698438148043
 30
0.0
 10
14.62847017264102
 20
-25.6611917877999
 30
0.0
 10
14.7769309778384
 20
-25.43979438254035
 30
0.0
 10
15.0102539880287
 20
-25.3600331389024
 30
0.0
 10
15.26766344490527
 20
-25.41366713496369
 30
0.0
 10
15.50882490693416
 20
-25.46392038232115
 30
0.0
 10
15.66654183014439
 20
-25.62148325663742
 30
0.0
 10
15.71987327972887
 20
-25.86961022677147
 30
0.0
 10
15.72776863251041
 20
-25.90634325496963
 30
0.0
 10
15.73370853581591
 20
-25.94481106801183
 30
0.0
 10
15.73195432138177
 20
-25.98207147080251
 30
0.0
 10
15.72409505212497
 20
-26.14890503532452
 30
0.0
 10
15.65187526516037
 20
-26.27301015522772
 30
0.0
 10
15.48539004543517
 20
-26.32507868144585
 30
0.0
 10
15.32220091691321
 20
-26.37612021503645
 30
0.0
 10
15.25304545389678
 20
-26.26941845668704
 30
0.0
 10
15.20659069143341
 20
-26.13372497402658
 30
0.0
  0
SPLINE
  5
54
330
41
100
AcDbEntity
  8
Layer 1
370
     0
100
AcDbSpline
210
0.0
220
0.0
230
1.0
 70
    11
 71
     3
 72
    62
 73
    58
 74
     0
 42
0.0000000001
 43
0.0000000001
 12
1.0
 22
0.0
 32
0.0
 13
1.0
 23
0.0
 33
0.0
 40
0.0
 40
0.0
 40
0.0
 40
0.0
 40
1.0
 40
1.0
 40
1.0
 40
2.0
 40
2.0
 40
2.0
 40
3.0
 40
3.0
 40
3.0
 40
4.0
 40
4.0
 40
4.0
 40
5.0
 40
5.0
 40
5.0
 40
6.0
 40
6.0
 40
6.0
 40
7.0
 40
7.0
 40
7.0
 40
8.0
 40
8.0
 40
8.0
 40
9.0
 40
9.0
 40
9.0
 40
10.0
 40
10.0
 40
10.0
 40
11.0
 40
11.0
 40
11.0
 40
12.0
 40
12.0
 40
12.0
 40
13.0
 40
13.0
 40
13.0
 40
14.0
 40
14.0
 40
14.0
 40
15.0
 40
15.0
 40
15.0
 40
16.0
 40
16.0
 40
16.0
 40
17.0
 40
17.0
 40
17.0
 40
18.0
 40
18.0
 40
18.0
 40
19.0
 40
19.0
 40
19.0
 40
19.0
 10
14.47445181071769
 20
-4.544976748437795
 30
0.0
 10
14.63053387269126
 20
-4.621655279408188
 30
0.0
 10
14.7410500759555
 20
-4.685431868537638
 30
0.0
 10
14.85839092279551
 20
-4.73201639290733
 30
0.0
 10
15.49902961779162
 20
-4.986352157997559
 30
0.0
 10
16.19781899466847
 20
-4.510886491470758
 30
0.0
 10
16.20020467078588
 20
-3.822029451738949
 30
0.0
 10
16.20203521575313
 20
-3.293470174629776
 30
0.0
 10
15.65724199555347
 20
-2.892631829473925
 30
0.0
 10
15.17942396077825
 20
-3.068141573435568
 30
0.0
 10
15.01906322546587
 20
-3.1270444580246
 30
0.0
 10
14.96035324895133
 20
-3.247790514034697
 30
0.0
 10
14.96288187133989
 20
-3.40404830971284
 30
0.0
 10
14.96519468649361
 20
-3.546921372928135
 30
0.0
 10
15.04069044115758
 20
-3.626880555516754
 30
0.0
 10
15.20205804559341
 20
-3.627687577426106
 30
0.0
 10
15.25881049089003
 20
-3.504557406605142
 30
0.0
 10
15.32107400067858
 20
-3.380118514097938
 30
0.0
 10
15.49976377873753
 20
-3.444868837960252
 30
0.0
 10
15.65043469982599
 20
-3.49946598656684
 30
0.0
 10
15.74134297695674
 20
-3.6399818241362
 30
0.0
 10
15.73159348613415
 20
-3.821736273100336
 30
0.0
 10
15.7190267047251
 20
-4.055960330538532
 30
0.0
 10
15.55324927721617
 20
-4.265714900796775
 30
0.0
 10
15.32003174194448
 20
-4.342475660568736
 30
0.0
 10
15.10284084297431
 20
-4.413961286587456
 30
0.0
 10
14.81385483236935
 20
-4.329936635717205
 30
0.0
 10
14.6576867250677
 20
-4.149891643738201
 30
0.0
 10
14.3825255618406
 20
-3.832662988918003
 30
0.0
 10
14.38696036581557
 20
-3.221040825656017
 30
0.0
 10
14.66576041373103
 20
-2.906930793549585
 30
0.0
 10
14.87242672001035
 20
-2.674089706588986
 30
0.0
 10
15.14201228474913
 20
-2.60133786111275
 30
0.0
 10
15.42953136129006
 20
-2.663919183484757
 30
0.0
 10
15.67019181745602
 20
-2.716300664888734
 30
0.0
 10
15.90642371487255
 20
-2.808950839481251
 30
0.0
 10
16.12982098009997
 20
-2.914951918232257
 30
0.0
 10
16.34178948277598
 20
-3.015530753475261
 30
0.0
 10
16.48816230093522
 20
-3.202133579121038
 30
0.0
 10
16.55266160143066
 20
-3.428197902567546
 30
0.0
 10
16.73926893751716
 20
-4.082238851353591
 30
0.0
 10
16.67678059961278
 20
-4.691696523565862
 30
0.0
 10
16.16686626957015
 20
-5.191946367243246
 30
0.0
 10
15.98376458669621
 20
-5.371578827386358
 30
0.0
 10
15.77701431683058
 20
-5.527965170621455
 30
0.0
 10
15.57415274067087
 20
-5.68610364654893
 30
0.0
 10
15.50775350381455
 20
-5.737864768892734
 30
0.0
 10
15.41953622493354
 20
-5.761634790823488
 30
0.0
 10
15.36153334672155
 20
-5.788746355320637
 30
0.0
 10
15.2639954158314
 20
-5.56700789136086
 30
0.0
 10
15.21822901599413
 20
-5.334781612148867
 30
0.0
 10
15.08110190713872
 20
-5.187777332306455
 30
0.0
 10
14.94768654393536
 20
-5.044750914110998
 30
0.0
 10
14.72068578363022
 20
-4.989020951001391
 30
0.0
 10
14.49915306515277
 20
-4.876935461367449
 30
0.0
 10
14.49436505898364
 20
-4.812589515852231
 30
0.0
 10
14.48616507798373
 20
-4.702392859956257
 30
0.0
 10
14.47445181071769
 20
-4.544976748437795
 30
0.0
  0
SPLINE
  5
55
330
41
100
AcDbEntity
  8
Layer 1
370
     0
100
AcDbSpline
210
0.0
220
0.0
230
1.0
 70
    11
 71
     3
 72
    56
 73
    52
 74
     0
 42
0.0000000001
 43
0.0000000001
 12
1.0
 22
0.0
 32
0.0
 13
1.0
 23
0.0
 33
0.0
 40
0.0
 40
0.0
 40
0.0
 40
0.0
 40
1.0
 40
1.0
 40
1.0
 40
2.0
 40
2.0
 40
2.0
 40
3.0
 40
3.0
 40
3.0
 40
4.0
 40
4.0
 40
4.0
 40
5.0
 40
5.0
 40
5.0
 40
6.0
 40
6.0
 40
6.0
 40
7.0
 40
7.0
 40
7.0
 40
8.0
 40
8.0
 40
8.0
 40
9.0
 40
9.0
 40
9.0
 40
10.0
 40
10.0
 40
10.0
 40
11.0
 40
11.0
 40
11.0
 40
12.0
 40
12.0
 40
12.0
 40
13.0
 40
13.0
 40
13.0
 40
14.0
 40
14.0
 40
14.0
 40
15.0
 40
15.0
 40
15.0
 40
16.0
 40
16.0
 40
16.0
 40
17.0
 40
17.0
 40
17.0
 40
17.0
 10
6.525357129575902
 20
-4.548415438955364
 30
0.0
 10
6.517225499098804
 20
-4.690606037813011
 30
0.0
 10
6.510989988455889
 20
-4.799639346992667
 30
0.0
 10
6.503253541966181
 20
-4.934917869118333
 30
0.0
 10
6.008553448482907
 20
-4.991598494322374
 30
0.0
 10
5.697298698750996
 20
-5.236257282596497
 30
0.0
 10
5.709965577245614
 20
-5.815916208588502
 30
0.0
 10
5.588731179302012
 20
-5.759503781121279
 30
0.0
 10
5.49673363076771
 20
-5.733005983501953
 30
0.0
 10
5.4244099301909
 20
-5.679776539266347
 30
0.0
 10
5.25382975084162
 20
-5.554231894899611
 30
0.0
 10
5.088446986884668
 20
-5.420767263806656
 30
0.0
 10
4.928377174990501
 20
-5.281955331910956
 30
0.0
 10
4.365568734622594
 20
-4.793891310890966
 30
0.0
 10
4.250158963531562
 20
-4.171193066836238
 30
0.0
 10
4.436407199155213
 20
-3.485916623022204
 30
0.0
 10
4.593073796881912
 20
-2.909481794662551
 30
0.0
 10
5.466839471380984
 20
-2.488355140757519
 30
0.0
 10
6.029215082930383
 20
-2.696534526377578
 30
0.0
 10
6.334489855826906
 20
-2.809540666328158
 30
0.0
 10
6.50450015835501
 20
-3.046659038799854
 30
0.0
 10
6.539750292468652
 20
-3.363680039874261
 30
0.0
 10
6.577037410946062
 20
-3.699029216302798
 30
0.0
 10
6.532881932314731
 20
-4.024028492874205
 30
0.0
 10
6.237104065567581
 20
-4.243824691722742
 30
0.0
 10
5.885077881999395
 20
-4.505419490513753
 30
0.0
 10
5.390916612688655
 20
-4.335725612741248
 30
0.0
 10
5.290285386943355
 20
-3.925995801346562
 30
0.0
 10
5.272770825681087
 20
-3.854684000769239
 30
0.0
 10
5.269160738420925
 20
-3.773789248714281
 30
0.0
 10
5.283394821543422
 20
-3.702141593791163
 30
0.0
 10
5.312377698451611
 20
-3.556255729737574
 30
0.0
 10
5.404968022967062
 20
-3.439341639969136
 30
0.0
 10
5.555703131094808
 20
-3.441196471924285
 30
0.0
 10
5.644082612358675
 20
-3.442284008542893
 30
0.0
 10
5.731424518807393
 20
-3.527665781596528
 30
0.0
 10
5.813371417870122
 20
-3.600825821946522
 30
0.0
 10
5.94998745911042
 20
-3.635675394239729
 30
0.0
 10
6.024976830078328
 20
-3.560661042370154
 30
0.0
 10
6.040682184226999
 20
-3.419283537168768
 30
0.0
 10
6.058973755620792
 20
-3.254627301104409
 30
0.0
 10
5.972784613700857
 20
-3.121785284291907
 30
0.0
 10
5.816737941338088
 20
-3.065432012987885
 30
0.0
 10
5.377720104381304
 20
-2.906889158713346
 30
0.0
 10
4.851656835705476
 20
-3.257575741425077
 30
0.0
 10
4.806799289647844
 20
-3.738681366957764
 30
0.0
 10
4.738971804429385
 20
-4.466143961648305
 30
0.0
 10
5.490919325884954
 20
-5.008180608731099
 30
0.0
 10
6.174140570094393
 20
-4.722345661316624
 30
0.0
 10
6.28319209451494
 20
-4.676721860793492
 30
0.0
 10
6.38660279253702
 20
-4.617614965506777
 30
0.0
 10
6.525357129575902
 20
-4.548415438955364
 30
0.0
  0
SPLINE
  5
56
330
41
100
AcDbEntity
  8
Layer 1
370
     0
100
AcDbSpline
210
0.0
220
0.0
230
1.0
 70
    11
 71
     3
 72
    65
 73
    61
 74
     0
 42
0.0000000001
 43
0.0000000001
 12
1.0
 22
0.0
 32
0.0
 13
1.0
 23
0.0
 33
0.0
 40
0.0
 40
0.0
 40
0.0
 40
0.0
 40
1.0
 40
1.0
 40
1.0
 40
2.0
 40
2.0
 40
2.0
 40
3.0
 40
3.0
 40
3.0
 40
4.0
 40
4.0
 40
4.0
 40
5.0
 40
5.0
 40
5.0
 40
6.0
 40
6.0
 40
6.0
 40
7.0
 40
7.0
 40
7.0
 40
8.0
 40
8.0
 40
8.0
 40
9.0
 40
9.0
 40
9.0
 40
10.0
 40
10.0
 40
10.0
 40
11.0
 40
11.0
 40
11.0
 40
12.0
 40
12.0
 40
12.0
 40
13.0
 40
13.0
 40
13.0
 40
14.0
 40
14.0
 40
14.0
 40
15.0
 40
15.0
 40
15.0
 40
16.0
 40
16.0
 40
16.0
 40
17.0
 40
17.0
 40
17.0
 40
18.0
 40
18.0
 40
18.0
 40
19.0
 40
19.0
 40
19.0
 40
20.0
 40
20.0
 40
20.0
 40
20.0
 10
5.798226052269086
 20
-26.12859556220024
 30
0.0
 10
5.750377910619171
 20
-26.28294700281349
 30
0.0
 10
5.671307805263014
 20
-26.38035586571128
 30
0.0
 10
5.499110459482297
 20
-26.3179702270696
 30
0.0
 10
5.348022496117395
 20
-26.26323429567548
 30
0.0
 10
5.25965706661068
 20
-26.11885578617273
 30
0.0
 10
5.272319261186185
 20
-25.93858804781981
 30
0.0
 10
5.288853495533302
 20
-25.70319301061204
 30
0.0
 10
5.457602436001336
 20
-25.49439153114697
 30
0.0
 10
5.689555313121893
 20
-25.42232718090438
 30
0.0
 10
5.919884084671619
 20
-25.35076800000829
 30
0.0
 10
6.211058005921616
 20
-25.44390512870639
 30
0.0
 10
6.364310460336235
 20
-25.63815939638472
 30
0.0
 10
6.590021581588572
 20
-25.92425733718149
 30
0.0
 10
6.614269710222373
 20
-26.44497313157601
 30
0.0
 10
6.416312023859406
 20
-26.75483901256188
 30
0.0
 10
6.219824567651669
 20
-27.06239832361929
 30
0.0
 10
5.892538150742076
 20
-27.17974749742658
 30
0.0
 10
5.478384117560021
 20
-27.08980792415253
 30
0.0
 10
5.411863445764471
 20
-27.07536341162855
 30
0.0
 10
5.345557713811149
 20
-27.0587289067175
 30
0.0
 10
5.280603205772758
 20
-27.0384582927738
 30
0.0
 10
4.641198289757504
 20
-26.83893305482585
 30
0.0
 10
4.349978656926853
 20
-26.4464608830582
 30
0.0
 10
4.357366498402278
 20
-25.77538226536334
 30
0.0
 10
4.363232413134106
 20
-25.24254518230773
 30
0.0
 10
4.53206783262658
 20
-24.78051230178401
 30
0.0
 10
4.972396299533031
 20
-24.44483004666552
 30
0.0
 10
5.116841424773842
 20
-24.3347114560876
 30
0.0
 10
5.251460034744917
 20
-24.2115944696314
 30
0.0
 10
5.397151082460595
 20
-24.10326895266807
 30
0.0
 10
5.47306283852995
 20
-24.04682599298761
 30
0.0
 10
5.563284314341023
 20
-24.00962665462334
 30
0.0
 10
5.640129731613354
 20
-23.96752273254844
 30
0.0
 10
5.733466881004111
 20
-24.18621942476297
 30
0.0
 10
5.775585375271608
 20
-24.42016556966914
 30
0.0
 10
5.911836764737846
 20
-24.56640376852457
 30
0.0
 10
6.050231307400114
 20
-24.71494298599688
 30
0.0
 10
6.281478994481541
 20
-24.77696778939094
 30
0.0
 10
6.505869250553819
 20
-24.89460285574053
 30
0.0
 10
6.510074715972328
 20
-24.9596031620989
 30
0.0
 10
6.517207457336371
 20
-25.06984388152982
 30
0.0
 10
6.527194266725663
 20
-25.22418977083156
 30
0.0
 10
6.403462819477677
 20
-25.15904790602996
 30
0.0
 10
6.3159281784329
 20
-25.10512524177078
 30
0.0
 10
6.222434898406198
 20
-25.06513636937744
 30
0.0
 10
5.87127975030817
 20
-24.91493175845504
 30
0.0
 10
5.527158981273549
 20
-24.91233652032864
 30
0.0
 10
5.212597905107781
 20
-25.15273051354246
 30
0.0
 10
4.90655826557365
 20
-25.38661559402216
 30
0.0
 10
4.760982320832315
 20
-25.70001488477803
 30
0.0
 10
4.816888191125206
 20
-26.08694684766838
 30
0.0
 10
4.882668283270821
 20
-26.54222100644029
 30
0.0
 10
5.418561623525197
 20
-26.85763819892657
 30
0.0
 10
5.829930459640415
 20
-26.69545385778625
 30
0.0
 10
5.988259067986687
 20
-26.63302935996406
 30
0.0
 10
6.043786928662072
 20
-26.51189141605782
 30
0.0
 10
6.040792690021521
 20
-26.35536386133635
 30
0.0
 10
6.038223994103103
 20
-26.2210748604856
 30
0.0
 10
5.962861991350829
 20
-26.1501651830351
 30
0.0
 10
5.798226052269086
 20
-26.12859556220024
 30
0.0
  0
SPLINE
  5
57
330
41
100
AcDbEntity
  8
Layer 1
370
     0
100
AcDbSpline
210
0.0
220
0.0
230
1.0
 70
    11
 71
     3
 72
    59
 73
    55
 74
     0
 42
0.0000000001
 43
0.0000000001
 12
1.0
 22
0.0
 32
0.0
 13
1.0
 23
0.0
 33
0.0
 40
0.0
 40
0.0
 40
0.0
 40
0.0
 40
1.0
 40
1.0
 40
1.0
 40
2.0
 40
2.0
 40
2.0
 40
3.0
 40
3.0
 40
3.0
 40
4.0
 40
4.0
 40
4.0
 40
5.0
 40
5.0
 40
5.0
 40
6.0
 40
6.0
 40
6.0
 40
7.0
 40
7.0
 40
7.0
 40
8.0
 40
8.0
 40
8.0
 40
9.0
 40
9.0
 40
9.0
 40
10.0
 40
10.0
 40
10.0
 40
11.0
 40
11.0
 40
11.0
 40
12.0
 40
12.0
 40
12.0
 40
13.0
 40
13.0
 40
13.0
 40
14.0
 40
14.0
 40
14.0
 40
15.0
 40
15.0
 40
15.0
 40
16.0
 40
16.0
 40
16.0
 40
17.0
 40
17.0
 40
17.0
 40
18.0
 40
18.0
 40
18.0
 40
18.0
 10
7.065720750155282
 20
-17.5721523602593
 30
0.0
 10
7.263003605213957
 20
-17.41239949355614
 30
0.0
 10
7.26710359571404
 20
-17.26255849353701
 30
0.0
 10
7.085025088941014
 20
-17.10815015198094
 30
0.0
 10
6.813299146661796
 20
-16.87771798725436
 30
0.0
 10
6.338401448692936
 20
-16.94900099040328
 30
0.0
 10
6.116034819141141
 20
-17.25359728894751
 30
0.0
 10
5.785350999593302
 20
-17.70656348996304
 30
0.0
 10
5.99775250456641
 20
-18.3595240147483
 30
0.0
 10
6.542473557716505
 20
-18.48899586504466
 30
0.0
 10
6.792246144753496
 20
-18.54836159023007
 30
0.0
 10
7.06275669677108
 20
-18.52047735256349
 30
0.0
 10
7.326235818859467
 20
-18.49770726061667
 30
0.0
 10
7.338369251014532
 20
-18.5064686179922
 30
0.0
 10
7.353593028890505
 20
-18.51290397584906
 30
0.0
 10
7.362185418222213
 20
-18.52432857491689
 30
0.0
 10
7.61582831024575
 20
-18.86159017815726
 30
0.0
 10
7.758577162866128
 20
-18.89005314004774
 30
0.0
 10
8.10917648590026
 20
-18.6472623680935
 30
0.0
 10
8.268996662255322
 20
-18.5365844828819
 30
0.0
 10
8.412075470953107
 20
-18.40173341174176
 30
0.0
 10
8.562786986006918
 20
-18.27789614261837
 30
0.0
 10
8.670612191021188
 20
-18.4602220297101
 30
0.0
 10
8.678530789919579
 20
-18.5832168873133
 30
0.0
 10
8.52123576638327
 20
-18.68211766517673
 30
0.0
 10
8.314116334302861
 20
-18.81234588166496
 30
0.0
 10
8.086877908473978
 20
-18.93366701885072
 30
0.0
 10
7.851723659402585
 20
-18.99176565718618
 30
0.0
 10
7.220486110432344
 20
-19.14771726333941
 30
0.0
 10
6.61642882343898
 20
-19.03557244406384
 30
0.0
 10
6.06127199858192
 20
-18.69973336439541
 30
0.0
 10
5.50549585553563
 20
-18.36351818337291
 30
0.0
 10
5.325916479808743
 20
-17.84606794796845
 30
0.0
 10
5.545442919614145
 20
-17.23412606385977
 30
0.0
 10
5.59607816659426
 20
-17.09297702982236
 30
0.0
 10
5.665143767755707
 20
-16.95458283411695
 30
0.0
 10
5.747726985899218
 20
-16.82943684330744
 30
0.0
 10
6.067510978794547
 20
-16.34483788153458
 30
0.0
 10
6.443611292076581
 20
-16.24354587624237
 30
0.0
 10
7.00606739764274
 20
-16.47802911053619
 30
0.0
 10
7.406992482040751
 20
-16.64517216067419
 30
0.0
 10
7.658672291535058
 20
-17.15452580825528
 30
0.0
 10
7.566225607204752
 20
-17.6105230253501
 30
0.0
 10
7.460156698366279
 20
-18.13371331684596
 30
0.0
 10
7.063662948373457
 20
-18.20719602717692
 30
0.0
 10
6.666963799855158
 20
-18.08020422529351
 30
0.0
 10
6.414828435860923
 20
-17.99948815607753
 30
0.0
 10
6.334188003264122
 20
-17.64175886733507
 30
0.0
 10
6.497862871542324
 20
-17.4305370160559
 30
0.0
 10
6.598425920243209
 20
-17.30075984362714
 30
0.0
 10
6.809724449012536
 20
-17.2901540630055
 30
0.0
 10
6.942438612181982
 20
-17.41435910651582
 30
0.0
 10
6.990544195902753
 20
-17.45938163061202
 30
0.0
 10
7.024955388065981
 20
-17.51903602399551
 30
0.0
 10
7.065720750155282
 20
-17.5721523602593
 30
0.0
  0
SPLINE
  5
58
330
41
100
AcDbEntity
  8
Layer 1
370
     0
100
AcDbSpline
210
0.0
220
0.0
230
1.0
 70
    11
 71
     3
 72
    65
 73
    61
 74
     0
 42
0.0000000001
 43
0.0000000001
 12
1.0
 22
0.0
 32
0.0
 13
1.0
 23
0.0
 33
0.0
 40
0.0
 40
0.0
 40
0.0
 40
0.0
 40
1.0
 40
1.0
 40
1.0
 40
2.0
 40
2.0
 40
2.0
 40
3.0
 40
3.0
 40
3.0
 40
4.0
 40
4.0
 40
4.0
 40
5.0
 40
5.0
 40
5.0
 40
6.0
 40
6.0
 40
6.0
 40
7.0
 40
7.0
 40
7.0
 40
8.0
 40
8.0
 40
8.0
 40
9.0
 40
9.0
 40
9.0
 40
10.0
 40
10.0
 40
10.0
 40
11.0
 40
11.0
 40
11.0
 40
12.0
 40
12.0
 40
12.0
 40
13.0
 40
13.0
 40
13.0
 40
14.0
 40
14.0
 40
14.0
 40
15.0
 40
15.0
 40
15.0
 40
16.0
 40
16.0
 40
16.0
 40
17.0
 40
17.0
 40
17.0
 40
18.0
 40
18.0
 40
18.0
 40
19.0
 40
19.0
 40
19.0
 40
20.0
 40
20.0
 40
20.0
 40
20.0
 10
7.075062913496632
 20
-12.19222788762586
 30
0.0
 10
7.05176579391418
 20
-12.2131473111012
 30
0.0
 10
7.036483380310543
 20
-12.22091567763207
 30
0.0
 10
7.030412327270892
 20
-12.23322571088425
 30
0.0
 10
6.953873273001905
 20
-12.38843066564073
 30
0.0
 10
6.827358883907522
 20
-12.45584648641575
 30
0.0
 10
6.659168370680709
 20
-12.43199388872632
 30
0.0
 10
6.506196084018366
 20
-12.41029936338258
 30
0.0
 10
6.45065000810209
 20
-12.29134239098212
 30
0.0
 10
6.427790054300409
 20
-12.1581511619806
 30
0.0
 10
6.397452830864654
 20
-11.9813946281517
 30
0.0
 10
6.43827439998288
 20
-11.8243542710304
 30
0.0
 10
6.59584282561069
 20
-11.71934635660255
 30
0.0
 10
6.912322053378257
 20
-11.50843746050911
 30
0.0
 10
7.388997211898303
 20
-11.6610742397827
 30
0.0
 10
7.52604243890897
 20
-12.01448807774741
 30
0.0
 10
7.687684486307143
 20
-12.43133258874377
 30
0.0
 10
7.488532227100631
 20
-13.02911724069854
 30
0.0
 10
7.119271823501009
 20
-13.235470591792
 30
0.0
 10
6.576351823975714
 20
-13.53886919487982
 30
0.0
 10
6.102895905690544
 20
-13.46226109617403
 30
0.0
 10
5.784140119772196
 20
-12.9809498986374
 30
0.0
 10
5.645376761852162
 20
-12.77142119736571
 30
0.0
 10
5.543215455874567
 20
-12.52377164002085
 30
0.0
 10
5.483364164411349
 20
-12.27902264293485
 30
0.0
 10
5.386321167637182
 20
-11.88218783424165
 30
0.0
 10
5.515073429180283
 20
-11.53292360162341
 30
0.0
 10
5.816366176946079
 20
-11.25080039986096
 30
0.0
 10
6.39905507814639
 20
-10.70518489164523
 30
0.0
 10
7.562709892240106
 20
-10.53943938417739
 30
0.0
 10
8.272813882825835
 20
-10.90261173384594
 30
0.0
 10
8.58691749622828
 20
-11.06325558604489
 30
0.0
 10
8.674338161908949
 20
-11.19874713974942
 30
0.0
 10
8.614712565953923
 20
-11.4367866829732
 30
0.0
 10
8.60971777343132
 20
-11.45672699388273
 30
0.0
 10
8.59005086461332
 20
-11.47299164266501
 30
0.0
 10
8.569175157716002
 20
-11.50218807158747
 30
0.0
 10
8.448114238256784
 20
-11.39616843063859
 30
0.0
 10
8.335521497534483
 20
-11.28643149272632
 30
0.0
 10
8.21114956772223
 20
-11.19224794181038
 30
0.0
 10
8.115522328859111
 20
-11.11983177720135
 30
0.0
 10
8.010323588098439
 20
-11.05454627221471
 30
0.0
 10
7.900119993063134
 20
-11.00802905749698
 30
0.0
 10
7.667790320674473
 20
-10.9099602824446
 30
0.0
 10
7.564851657608402
 20
-10.94779177640598
 30
0.0
 10
7.420885332984441
 20
-11.15738639950165
 30
0.0
 10
7.395557821220859
 20
-11.19425959831524
 30
0.0
 10
7.368655818732863
 20
-11.23005029138639
 30
0.0
 10
7.36046138904433
 20
-11.2414117442858
 30
0.0
 10
7.111451413424828
 20
-11.2414117442858
 30
0.0
 10
6.883618650308415
 20
-11.21705883464757
 30
0.0
 10
6.662816970164346
 20
-11.24612341992179
 30
0.0
 10
6.07552863390741
 20
-11.32343098387665
 30
0.0
 10
5.78116132071685
 20
-11.93510015980782
 30
0.0
 10
6.072048655510583
 20
-12.44440662124114
 30
0.0
 10
6.278166769779169
 20
-12.80529391231339
 30
0.0
 10
6.801182021484259
 20
-12.91159458840687
 30
0.0
 10
7.092263999137542
 20
-12.65176267797438
 30
0.0
 10
7.261704945279877
 20
-12.50051095092018
 30
0.0
 10
7.25945145976769
 20
-12.36899691190565
 30
0.0
 10
7.075062913496632
 20
-12.19222788762586
 30
0.0
  0
SPLINE
  5
59
330
41
100
AcDbEntity
  8
Layer 1
370
     0
100
AcDbSpline
210
0.0
220
0.0
230
1.0
 70
    11
 71
     3
 72
    62
 73
    58
 74
     0
 42
0.0000000001
 43
0.0000000001
 12
1.0
 22
0.0
 32
0.0
 13
1.0
 23
0.0
 33
0.0
 40
0.0
 40
0.0
 40
0.0
 40
0.0
 40
1.0
 40
1.0
 40
1.0
 40
2.0
 40
2.0
 40
2.0
 40
3.0
 40
3.0
 40
3.0
 40
4.0
 40
4.0
 40
4.0
 40
5.0
 40
5.0
 40
5.0
 40
6.0
 40
6.0
 40
6.0
 40
7.0
 40
7.0
 40
7.0
 40
8.0
 40
8.0
 40
8.0
 40
9.0
 40
9.0
 40
9.0
 40
10.0
 40
10.0
 40
10.0
 40
11.0
 40
11.0
 40
11.0
 40
12.0
 40
12.0
 40
12.0
 40
13.0
 40
13.0
 40
13.0
 40
14.0
 40
14.0
 40
14.0
 40
15.0
 40
15.0
 40
15.0
 40
16.0
 40
16.0
 40
16.0
 40
17.0
 40
17.0
 40
17.0
 40
18.0
 40
18.0
 40
18.0
 40
19.0
 40
19.0
 40
19.0
 40
19.0
 10
13.92962111916536
 20
-12.18968469304464
 30
0.0
 10
13.73935338705845
 20
-12.37700329091702
 30
0.0
 10
13.74235317701048
 20
-12.51870329262098
 30
0.0
 10
13.92771493757896
 20
-12.668112678171
 30
0.0
 10
14.16938712026585
 20
-12.86291097437619
 30
0.0
 10
14.59175657403296
 20
-12.82589760494713
 30
0.0
 10
14.82313176780056
 20
-12.58964489011255
 30
0.0
 10
15.22905962473141
 20
-12.17516246215953
 30
0.0
 10
15.05313856328324
 20
-11.43275296125426
 30
0.0
 10
14.49282873352597
 20
-11.2864890875832
 30
0.0
 10
14.23748644626933
 20
-11.21983518431171
 30
0.0
 10
13.95803897664998
 20
-11.24552596002162
 30
0.0
 10
13.68952481503068
 20
-11.22933209046105
 30
0.0
 10
13.68642440755777
 20
-11.24502426024473
 30
0.0
 10
13.6833233061709
 20
-11.26071643002864
 30
0.0
 10
13.68022289869787
 20
-11.27640859981229
 30
0.0
 10
13.65544045633219
 20
-11.24906630893095
 30
0.0
 10
13.6273716375581
 20
-11.22402364883876
 30
0.0
 10
13.60639114965631
 20
-11.19402297366257
 30
0.0
 10
13.42256640845946
 20
-10.93118364022465
 30
0.0
 10
13.30019121600256
 20
-10.8904390955534
 30
0.0
 10
13.01907557727727
 20
-11.04610272742257
 30
0.0
 10
12.86226421175551
 20
-11.13293426017023
 30
0.0
 10
12.7267865363297
 20
-11.25889559985637
 30
0.0
 10
12.5840900742115
 20
-11.3702916859934
 30
0.0
 10
12.53304784670706
 20
-11.41013691820157
 30
0.0
 10
12.48904329435724
 20
-11.45899748028641
 30
0.0
 10
12.43038605530201
 20
-11.51458623190977
 30
0.0
 10
12.32923491453906
 20
-11.31960682416671
 30
0.0
 10
12.35572022170749
 20
-11.17693881252007
 30
0.0
 10
12.5071648568364
 20
-11.05251588003345
 30
0.0
 10
12.83042605247271
 20
-10.78692934131669
 30
0.0
 10
13.21836627231431
 20
-10.72164730589973
 30
0.0
 10
13.61539051951238
 20
-10.71239604528425
 30
0.0
 10
14.10216004408184
 20
-10.70105332806104
 30
0.0
 10
14.56107378145632
 20
-10.81888269031307
 30
0.0
 10
14.97561033469628
 20
-11.08480855294527
 30
0.0
 10
15.478391229461
 20
-11.40734252677502
 30
0.0
 10
15.65865202867456
 20
-11.89189430240021
 30
0.0
 10
15.48068392111059
 20
-12.45946455368605
 30
0.0
 10
15.44241179179885
 20
-12.58152470921537
 30
0.0
 10
15.39317998575754
 20
-12.70233790139885
 30
0.0
 10
15.33247361884474
 20
-12.81480469674155
 30
0.0
 10
15.01876137290309
 20
-13.39599786644933
 30
0.0
 10
14.5907247240079
 20
-13.54251918219128
 30
0.0
 10
13.98436607144074
 20
-13.28294263208774
 30
0.0
 10
13.50197930730077
 20
-13.07643661992811
 30
0.0
 10
13.26508541598793
 20
-12.36304868163287
 30
0.0
 10
13.52800524344258
 20
-11.90864607876659
 30
0.0
 10
13.69129082600178
 20
-11.62644099515933
 30
0.0
 10
14.19990059784181
 20
-11.53747359531202
 30
0.0
 10
14.44785755906109
 20
-11.74774270275493
 30
0.0
 10
14.6094041932928
 20
-11.88473519230645
 30
0.0
 10
14.63492287834628
 20
-12.18938006482614
 30
0.0
 10
14.49813786906216
 20
-12.34798311613473
 30
0.0
 10
14.35654958750225
 20
-12.51215552070611
 30
0.0
 10
14.13175616743247
 20
-12.45361069570885
 30
0.0
 10
13.92962111916536
 20
-12.18968469304464
 30
0.0
  0
SPLINE
  5
5A
330
41
100
AcDbEntity
  8
Layer 1
370
     0
100
AcDbSpline
210
0.0
220
0.0
230
1.0
 70
    11
 71
     3
 72
    62
 73
    58
 74
     0
 42
0.0000000001
 43
0.0000000001
 12
1.0
 22
0.0
 32
0.0
 13
1.0
 23
0.0
 33
0.0
 40
0.0
 40
0.0
 40
0.0
 40
0.0
 40
1.0
 40
1.0
 40
1.0
 40
2.0
 40
2.0
 40
2.0
 40
3.0
 40
3.0
 40
3.0
 40
4.0
 40
4.0
 40
4.0
 40
5.0
 40
5.0
 40
5.0
 40
6.0
 40
6.0
 40
6.0
 40
7.0
 40
7.0
 40
7.0
 40
8.0
 40
8.0
 40
8.0
 40
9.0
 40
9.0
 40
9.0
 40
10.0
 40
10.0
 40
10.0
 40
11.0
 40
11.0
 40
11.0
 40
12.0
 40
12.0
 40
12.0
 40
13.0
 40
13.0
 40
13.0
 40
14.0
 40
14.0
 40
14.0
 40
15.0
 40
15.0
 40
15.0
 40
16.0
 40
16.0
 40
16.0
 40
17.0
 40
17.0
 40
17.0
 40
18.0
 40
18.0
 40
18.0
 40
19.0
 40
19.0
 40
19.0
 40
19.0
 10
13.93162306087518
 20
-17.56766273708333
 30
0.0
 10
13.94375545215946
 20
-17.55916784265981
 30
0.0
 10
13.96088263596609
 20
-17.55316548709998
 30
0.0
 10
13.96699809949767
 20
-17.54142723893234
 30
0.0
 10
14.04965227034141
 20
-17.38275132666035
 30
0.0
 10
14.17617498640292
 20
-17.3010540631366
 30
0.0
 10
14.3562789610666
 20
-17.33569008341563
 30
0.0
 10
14.51928212065331
 20
-17.36703833945832
 30
0.0
 10
14.56337826964288
 20
-17.50090405280725
 30
0.0
 10
14.58069350412665
 20
-17.64114683524221
 30
0.0
 10
14.60296536586626
 20
-17.82153392679235
 30
0.0
 10
14.5446585533496
 20
-17.97118618222057
 30
0.0
 10
14.37898313118948
 20
-18.0634031810375
 30
0.0
 10
14.02215037925431
 20
-18.26201800389931
 30
0.0
 10
13.56484929787074
 20
-18.09034647140476
 30
0.0
 10
13.46229367529814
 20
-17.6975911827506
 30
0.0
 10
13.27914203062086
 20
-16.99618158684535
 30
0.0
 10
13.7562279861918
 20
-16.27525219187696
 30
0.0
 10
14.66098975541043
 20
-16.37533123560641
 30
0.0
 10
14.74076487732717
 20
-16.38415643306419
 30
0.0
 10
14.82178071736418
 20
-16.42177350761891
 30
0.0
 10
14.89294506122979
 20
-16.46230363288343
 30
0.0
 10
15.72198139027114
 20
-16.93446904472319
 30
0.0
 10
15.76565772132864
 20
-18.18868795463464
 30
0.0
 10
14.96169597242054
 20
-18.68713466294521
 30
0.0
 10
14.32138202914719
 20
-19.08411866313497
 30
0.0
 10
13.62891212649953
 20
-19.1623768891842
 30
0.0
 10
12.91055784615329
 20
-18.93142151334887
 30
0.0
 10
12.76984389615486
 20
-18.88618387593204
 30
0.0
 10
12.63995708532377
 20
-18.79886590951411
 30
0.0
 10
12.51453214111139
 20
-18.7165455112745
 30
0.0
 10
12.34867560741349
 20
-18.60768984406287
 30
0.0
 10
12.33359130623902
 20
-18.45449585189736
 30
0.0
 10
12.42491940130198
 20
-18.2516079070082
 30
0.0
 10
12.48538775573418
 20
-18.30656172737873
 30
0.0
 10
12.52878513338861
 20
-18.35299983590753
 30
0.0
 10
12.57896621369673
 20
-18.39031713964109
 30
0.0
 10
12.74207137863211
 20
-18.51162439854813
 30
0.0
 10
12.89659699164364
 20
-18.65085684229009
 30
0.0
 10
13.07498908062345
 20
-18.74366089229828
 30
0.0
 10
13.31823783577652
 20
-18.87020720143379
 30
0.0
 10
13.43492501568724
 20
-18.82273099765434
 30
0.0
 10
13.59023336362035
 20
-18.59809023865079
 30
0.0
 10
13.61550293357023
 20
-18.56153901590417
 30
0.0
 10
13.64388331970219
 20
-18.52714031419177
 30
0.0
 10
13.64633977504115
 20
-18.52391361438229
 30
0.0
 10
13.90377213107769
 20
-18.52391361438229
 30
0.0
 10
14.13256457716962
 20
-18.55059876876476
 30
0.0
 10
14.35289543670711
 20
-18.51874673120323
 30
0.0
 10
14.93784406864508
 20
-18.43418499094528
 30
0.0
 10
15.2232238085166
 20
-17.81644059849075
 30
0.0
 10
14.92611692310044
 20
-17.31105197514883
 30
0.0
 10
14.72146851855167
 20
-16.96293894575309
 30
0.0
 10
14.20909495751437
 20
-16.85956797430379
 30
0.0
 10
13.91984942309689
 20
-17.1080363500951
 30
0.0
 10
13.73669361493571
 20
-17.26537162063982
 30
0.0
 10
13.74038315534175
 20
-17.4108881490002
 30
0.0
 10
13.93162306087518
 20
-17.56766273708333
 30
0.0
  0
SPLINE
  5
5B
330
41
100
AcDbEntity
  8
Layer 1
370
     0
100
AcDbSpline
210
0.0
220
0.0
230
1.0
 70
    11
 71
     3
 72
    44
 73
    40
 74
     0
 42
0.0000000001
 43
0.0000000001
 12
1.0
 22
0.0
 32
0.0
 13
1.0
 23
0.0
 33
0.0
 40
0.0
 40
0.0
 40
0.0
 40
0.0
 40
1.0
 40
1.0
 40
1.0
 40
2.0
 40
2.0
 40
2.0
 40
3.0
 40
3.0
 40
3.0
 40
4.0
 40
4.0
 40
4.0
 40
5.0
 40
5.0
 40
5.0
 40
6.0
 40
6.0
 40
6.0
 40
7.0
 40
7.0
 40
7.0
 40
8.0
 40
8.0
 40
8.0
 40
9.0
 40
9.0
 40
9.0
 40
10.0
 40
10.0
 40
10.0
 40
11.0
 40
11.0
 40
11.0
 40
12.0
 40
12.0
 40
12.0
 40
13.0
 40
13.0
 40
13.0
 40
13.0
 10
7.542932304148995
 20
-4.806698880436295
 30
0.0
 10
7.372608352521204
 20
-5.064376535049806
 30
0.0
 10
7.448632175691463
 20
-5.296927565984556
 30
0.0
 10
7.719442151573125
 20
-5.380701713923345
 30
0.0
 10
8.125784969038577
 20
-5.506402488925962
 30
0.0
 10
8.556991069843448
 20
-5.204476024256644
 30
0.0
 10
8.596087915870054
 20
-4.763786895581158
 30
0.0
 10
8.60398118690967
 20
-4.674818454862805
 30
0.0
 10
8.597229751254194
 20
-4.58455100725336
 30
0.0
 10
8.597229751254194
 20
-4.460107604305564
 30
0.0
 10
9.072344297328614
 20
-4.548012274957637
 30
0.0
 10
9.528050764483622
 20
-4.566044669495828
 30
0.0
 10
9.953879379229495
 20
-4.364889427708654
 30
0.0
 10
10.13478621231892
 20
-4.523901888240433
 30
0.0
 10
10.08521716410389
 20
-4.689702214909373
 30
0.0
 10
10.00190308110568
 20
-4.834288898593345
 30
0.0
 10
9.719998462233406
 20
-5.323517307200628
 30
0.0
 10
9.347729594757558
 20
-5.697261782664717
 30
0.0
 10
8.7575405247632
 20
-5.803314384525598
 30
0.0
 10
8.148536325309035
 20
-5.912747041176288
 30
0.0
 10
7.597783425256758
 20
-5.831551824386437
 30
0.0
 10
7.130632582486586
 20
-5.39312034470675
 30
0.0
 10
6.926481714231066
 20
-5.201519950882652
 30
0.0
 10
6.816177848631762
 20
-4.980508014815468
 30
0.0
 10
6.923269586614109
 20
-4.702428596524109
 30
0.0
 10
7.03913135589619
 20
-4.40157735150096
 30
0.0
 10
7.238007437355451
 20
-4.181954284179763
 30
0.0
 10
7.578047125044811
 20
-4.144287247821643
 30
0.0
 10
7.872030356871019
 20
-4.111722213689266
 30
0.0
 10
8.142706407362747
 20
-4.351777229944661
 30
0.0
 10
8.164818321939785
 20
-4.653989934113262
 30
0.0
 10
8.176299128036572
 20
-4.810897059758525
 30
0.0
 10
8.12927362135967
 20
-4.9452079188983
 30
0.0
 10
7.969366705762354
 20
-5.000377546503357
 30
0.0
 10
7.820064182958718
 20
-5.051888512872647
 30
0.0
 10
7.684230529682958
 20
-5.02930473681809
 30
0.0
 10
7.59875976216682
 20
-4.873840258248968
 30
0.0
 10
7.585591357373964
 20
-4.84988843086648
 30
0.0
 10
7.563406928790375
 20
-4.830893577696921
 30
0.0
 10
7.542932304148995
 20
-4.806698880436295
 30
0.0
  0
SPLINE
  5
5C
330
41
100
AcDbEntity
  8
Layer 1
370
     0
100
AcDbSpline
210
0.0
220
0.0
230
1.0
 70
    11
 71
     3
 72
    44
 73
    40
 74
     0
 42
0.0000000001
 43
0.0000000001
 12
1.0
 22
0.0
 32
0.0
 13
1.0
 23
0.0
 33
0.0
 40
0.0
 40
0.0
 40
0.0
 40
0.0
 40
1.0
 40
1.0
 40
1.0
 40
2.0
 40
2.0
 40
2.0
 40
3.0
 40
3.0
 40
3.0
 40
4.0
 40
4.0
 40
4.0
 40
5.0
 40
5.0
 40
5.0
 40
6.0
 40
6.0
 40
6.0
 40
7.0
 40
7.0
 40
7.0
 40
8.0
 40
8.0
 40
8.0
 40
9.0
 40
9.0
 40
9.0
 40
10.0
 40
10.0
 40
10.0
 40
11.0
 40
11.0
 40
11.0
 40
12.0
 40
12.0
 40
12.0
 40
13.0
 40
13.0
 40
13.0
 40
13.0
 10
8.594590449592749
 20
-25.28672251922803
 30
0.0
 10
8.594590449592749
 20
-25.17303443535524
 30
0.0
 10
8.603872242421403
 20
-25.07497329335616
 30
0.0
 10
8.592999304933954
 20
-24.97919929169528
 30
0.0
 10
8.543385846226835
 20
-24.54218062079256
 30
0.0
 10
8.09198233939865
 20
-24.24757529512128
 30
0.0
 10
7.698562975106094
 20
-24.39112943486627
 30
0.0
 10
7.443693937154929
 20
-24.48412778077698
 30
0.0
 10
7.376022409093958
 20
-24.71643351313473
 30
0.0
 10
7.546413670373649
 20
-24.95734100266247
 30
0.0
 10
7.570528567531477
 20
-24.92556251997834
 30
0.0
 10
7.593746233968048
 20
-24.89879409592333
 30
0.0
 10
7.612728943643659
 20
-24.8692999779217
 30
0.0
 10
7.70308521223715
 20
-24.72890731007621
 30
0.0
 10
7.835379904431374
 20
-24.72084680577758
 30
0.0
 10
7.973564885084519
 20
-24.76653132377023
 30
0.0
 10
8.114314918607814
 20
-24.81305964111094
 30
0.0
 10
8.164347501333177
 20
-24.93167173828452
 30
0.0
 10
8.167135994491236
 20
-25.0702185950561
 30
0.0
 10
8.174445336952429
 20
-25.43335763685563
 30
0.0
 10
7.816531467102582
 20
-25.70758964932038
 30
0.0
 10
7.463742498638609
 20
-25.60188435138525
 30
0.0
 10
7.152202550278422
 20
-25.50854182416155
 30
0.0
 10
6.973353172013907
 20
-25.27873973329037
 30
0.0
 10
6.898927085684727
 20
-24.97414482257427
 30
0.0
 10
6.830703549086458
 20
-24.69493605934935
 30
0.0
 10
6.986418183630126
 20
-24.50217787012056
 30
0.0
 10
7.182474198847214
 20
-24.32639004014846
 30
0.0
 10
7.964187679089408
 20
-23.62549810404072
 30
0.0
 10
9.40805708466043
 20
-23.81450638235102
 30
0.0
 10
9.972492926690423
 20
-24.87017708513876
 30
0.0
 10
10.05814966314175
 20
-25.03038238372912
 30
0.0
 10
10.14387995447053
 20
-25.19812636333716
 30
0.0
 10
9.989630519206061
 20
-25.37569616430084
 30
0.0
 10
9.759929739769833
 20
-25.33205452894041
 30
0.0
 10
9.533919888567477
 20
-25.26733178815699
 30
0.0
 10
9.30457092349759
 20
-25.25174925677544
 30
0.0
 10
9.081236110524463
 20
-25.23656641982178
 30
0.0
 10
8.854483077494844
 20
-25.27168679202909
 30
0.0
 10
8.594590449592749
 20
-25.28672251922803
 30
0.0
  0
SPLINE
  5
5D
330
41
100
AcDbEntity
  8
Layer 1
370
     0
100
AcDbSpline
210
0.0
220
0.0
230
1.0
 70
    11
 71
     3
 72
    38
 73
    34
 74
     0
 42
0.0000000001
 43
0.0000000001
 12
1.0
 22
0.0
 32
0.0
 13
1.0
 23
0.0
 33
0.0
 40
0.0
 40
0.0
 40
0.0
 40
0.0
 40
1.0
 40
1.0
 40
1.0
 40
2.0
 40
2.0
 40
2.0
 40
3.0
 40
3.0
 40
3.0
 40
4.0
 40
4.0
 40
4.0
 40
5.0
 40
5.0
 40
5.0
 40
6.0
 40
6.0
 40
6.0
 40
7.0
 40
7.0
 40
7.0
 40
8.0
 40
8.0
 40
8.0
 40
9.0
 40
9.0
 40
9.0
 40
10.0
 40
10.0
 40
10.0
 40
11.0
 40
11.0
 40
11.0
 40
11.0
 10
11.03078384850624
 20
-4.360001497932531
 30
0.0
 10
11.47107640536651
 20
-4.557403359231506
 30
0.0
 10
11.92560599448333
 20
-4.553805762422273
 30
0.0
 10
12.4057430896378
 20
-4.458558094482976
 30
0.0
 10
12.4057430896378
 20
-4.577044940190892
 30
0.0
 10
12.39981220721355
 20
-4.666471017151058
 30
0.0
 10
12.40674440744968
 20
-4.754889184116921
 30
0.0
 10
12.44128327977732
 20
-5.195411079533456
 30
0.0
 10
12.8708083740686
 20
-5.505710309773298
 30
0.0
 10
13.2742062207831
 20
-5.384298963775597
 30
0.0
 10
13.54847709242811
 20
-5.301750961764466
 30
0.0
 10
13.62912030068066
 20
-5.075660963502235
 30
0.0
 10
13.47442884223814
 20
-4.822905587404776
 30
0.0
 10
13.4606359149015
 20
-4.827125278059055
 30
0.0
 10
13.44116260807188
 20
-4.826946248263136
 30
0.0
 10
13.43390635002695
 20
-4.836272104626862
 30
0.0
 10
13.291241114036
 20
-5.019630882614684
 30
0.0
 10
13.14791041457892
 20
-5.069336631875434
 30
0.0
 10
12.99411757468551
 20
-4.986846918635019
 30
0.0
 10
12.85070221772804
 20
-4.909923783001648
 30
0.0
 10
12.79862814019841
 20
-4.720262184719108
 30
0.0
 10
12.86728051561004
 20
-4.524881694720239
 30
0.0
 10
12.97792092946897
 20
-4.210001938578658
 30
0.0
 10
13.28684308749973
 20
-4.065837848482543
 30
0.0
 10
13.59858253611694
 20
-4.183607534135968
 30
0.0
 10
14.16320989839385
 20
-4.396913555926645
 30
0.0
 10
14.27177759132129
 20
-5.038838073449115
 30
0.0
 10
13.82668800741083
 20
-5.437122815314771
 30
0.0
 10
13.0404967005296
 20
-6.140639133934295
 30
0.0
 10
11.57099793063205
 20
-5.955762766165106
 30
0.0
 10
11.01259358854723
 20
-4.861795300120935
 30
0.0
 10
10.90707634128923
 20
-4.65507729725338
 30
0.0
 10
10.90719014317501
 20
-4.575273377908254
 30
0.0
 10
11.03078384850624
 20
-4.360001497932531
 30
0.0
  0
SPLINE
  5
5E
330
41
100
AcDbEntity
  8
Layer 1
370
     0
100
AcDbSpline
210
0.0
220
0.0
230
1.0
 70
    11
 71
     3
 72
    44
 73
    40
 74
     0
 42
0.0000000001
 43
0.0000000001
 12
1.0
 22
0.0
 32
0.0
 13
1.0
 23
0.0
 33
0.0
 40
0.0
 40
0.0
 40
0.0
 40
0.0
 40
1.0
 40
1.0
 40
1.0
 40
2.0
 40
2.0
 40
2.0
 40
3.0
 40
3.0
 40
3.0
 40
4.0
 40
4.0
 40
4.0
 40
5.0
 40
5.0
 40
5.0
 40
6.0
 40
6.0
 40
6.0
 40
7.0
 40
7.0
 40
7.0
 40
8.0
 40
8.0
 40
8.0
 40
9.0
 40
9.0
 40
9.0
 40
10.0
 40
10.0
 40
10.0
 40
11.0
 40
11.0
 40
11.0
 40
12.0
 40
12.0
 40
12.0
 40
13.0
 40
13.0
 40
13.0
 40
13.0
 10
11.04214946488949
 20
-25.40578982394466
 30
0.0
 10
10.88985547910102
 20
-25.24840459159641
 30
0.0
 10
10.92050982120624
 20
-25.10389285061766
 30
0.0
 10
10.98700620601396
 20
-24.96210957924125
 30
0.0
 10
11.13870065016031
 20
-24.6386790686042
 30
0.0
 10
11.37177870873059
 20
-24.3758189177481
 30
0.0
 10
11.66805706090529
 20
-24.18748789944083
 30
0.0
 10
12.18328330213995
 20
-23.85997439919512
 30
0.0
 10
13.22077137802176
 20
-23.70836114297949
 30
0.0
 10
13.89672543504181
 20
-24.39434919553651
 30
0.0
 10
14.11359088837526
 20
-24.6144309399704
 30
0.0
 10
14.17679950894683
 20
-24.83547028563812
 30
0.0
 10
14.06812911675649
 20
-25.09265699614086
 30
0.0
 10
13.94212197875034
 20
-25.39087622559878
 30
0.0
 10
13.73882046115443
 20
-25.60415761344468
 30
0.0
 10
13.39576675827731
 20
-25.62317918230081
 30
0.0
 10
13.11649831845385
 20
-25.638667341387
 30
0.0
 10
12.87211501401295
 20
-25.41294824012436
 30
0.0
 10
12.84038094182084
 20
-25.12725276941132
 30
0.0
 10
12.82301574553362
 20
-24.97092228624817
 30
0.0
 10
12.86445767371202
 20
-24.8321533770166
 30
0.0
 10
13.01938506289338
 20
-24.77105009133158
 30
0.0
 10
13.17401753865145
 20
-24.71006060753233
 30
0.0
 10
13.31883668350461
 20
-24.73219368648443
 30
0.0
 10
13.4080101757914
 20
-24.89843881198728
 30
0.0
 10
13.41829744991561
 20
-24.91761304190977
 30
0.0
 10
13.43344281551668
 20
-24.93418648239422
 30
0.0
 10
13.44699287297525
 20
-24.95287219690459
 30
0.0
 10
13.63601919304792
 20
-24.73123886090639
 30
0.0
 10
13.56028403807568
 20
-24.47321667802282
 30
0.0
 10
13.29270180287464
 20
-24.38598892041692
 30
0.0
 10
12.89031429485315
 20
-24.25481698097359
 30
0.0
 10
12.45259754652912
 20
-24.55326936551457
 30
0.0
 10
12.4086374046712
 20
-24.99225597634431
 30
0.0
 10
12.39970742620889
 20
-25.08143224428688
 30
0.0
 10
12.4073460308335
 20
-25.17227113002401
 30
0.0
 10
12.4073460308335
 20
-25.30587176824866
 30
0.0
 10
11.93190534520852
 20
-25.21576287997393
 30
0.0
 10
11.47073430579515
 20
-25.20003323883759
 30
0.0
 10
11.04214946488949
 20
-25.40578982394466
 30
0.0
  0
SPLINE
  5
5F
330
41
100
AcDbEntity
  8
Layer 1
370
     0
100
AcDbSpline
210
0.0
220
0.0
230
1.0
 70
    11
 71
     3
 72
    59
 73
    55
 74
     0
 42
0.0000000001
 43
0.0000000001
 12
1.0
 22
0.0
 32
0.0
 13
1.0
 23
0.0
 33
0.0
 40
0.0
 40
0.0
 40
0.0
 40
0.0
 40
1.0
 40
1.0
 40
1.0
 40
2.0
 40
2.0
 40
2.0
 40
3.0
 40
3.0
 40
3.0
 40
4.0
 40
4.0
 40
4.0
 40
5.0
 40
5.0
 40
5.0
 40
6.0
 40
6.0
 40
6.0
 40
7.0
 40
7.0
 40
7.0
 40
8.0
 40
8.0
 40
8.0
 40
9.0
 40
9.0
 40
9.0
 40
10.0
 40
10.0
 40
10.0
 40
11.0
 40
11.0
 40
11.0
 40
12.0
 40
12.0
 40
12.0
 40
13.0
 40
13.0
 40
13.0
 40
14.0
 40
14.0
 40
14.0
 40
15.0
 40
15.0
 40
15.0
 40
16.0
 40
16.0
 40
16.0
 40
17.0
 40
17.0
 40
17.0
 40
18.0
 40
18.0
 40
18.0
 40
18.0
 10
13.82219352683732
 20
-10.40407898020701
 30
0.0
 10
14.04216632678304
 20
-10.14270102952153
 30
0.0
 10
14.26213912672863
 20
-9.881323772750005
 30
0.0
 10
14.49599645065088
 20
-9.603448712113181
 30
0.0
 10
14.54839874947307
 20
-9.659555817447874
 30
0.0
 10
14.58895593738108
 20
-9.699765354473247
 30
0.0
 10
14.62590546672785
 20
-9.74305378763954
 30
0.0
 10
14.90402131550099
 20
-10.06887899527512
 30
0.0
 10
15.38310157972855
 20
-10.16211188409669
 30
0.0
 10
15.7609127378236
 20
-9.963107081601953
 30
0.0
 10
15.99265778771995
 20
-9.841042068675128
 30
0.0
 10
16.12116787329871
 20
-9.6062049382732
 30
0.0
 10
16.08810148634656
 20
-9.365204464277827
 30
0.0
 10
16.05593718751307
 20
-9.130777437012892
 30
0.0
 10
15.88604623818237
 20
-8.95177747942387
 30
0.0
 10
15.64879428727763
 20
-8.90234374442663
 30
0.0
 10
15.41310225490461
 20
-8.853234067238253
 30
0.0
 10
15.26628810748099
 20
-8.97015995354353
 30
0.0
 10
15.27653582851079
 20
-9.214802087883177
 30
0.0
 10
15.32672384795814
 20
-9.212283874203788
 30
0.0
 10
15.38346102714812
 20
-9.193546810062035
 30
0.0
 10
15.42561352319863
 20
-9.210685790405662
 30
0.0
 10
15.50897479234454
 20
-9.244580710599251
 30
0.0
 10
15.63899761030729
 20
-9.288150178910273
 30
0.0
 10
15.64979352334776
 20
-9.346278655545042
 30
0.0
 10
15.66515261444152
 20
-9.428980706450297
 30
0.0
 10
15.61588611270314
 20
-9.559269293451063
 30
0.0
 10
15.54902334133643
 20
-9.614326506998234
 30
0.0
 10
15.4052818448284
 20
-9.732683937756743
 30
0.0
 10
15.22532914340315
 20
-9.73091376330206
 30
0.0
 10
15.05590727989403
 20
-9.651009573392967
 30
0.0
 10
14.89642989702413
 20
-9.575794159959951
 30
0.0
 10
14.81476941093908
 20
-9.438699665059687
 30
0.0
 10
14.82032002852567
 20
-9.267212019758597
 30
0.0
 10
14.8350344735714
 20
-8.812572098325589
 30
0.0
 10
15.05126360782397
 20
-8.376845495174502
 30
0.0
 10
15.70142072030156
 20
-8.471956115111034
 30
0.0
 10
16.33955924338065
 20
-8.565308357129917
 30
0.0
 10
16.70917250221769
 20
-9.060098138989659
 30
0.0
 10
16.63419510126517
 20
-9.723756041036253
 30
0.0
 10
16.57186913922223
 20
-10.27543427532432
 30
0.0
 10
16.00152323218598
 20
-10.69253137099396
 30
0.0
 10
15.38668772695773
 20
-10.63103533002022
 30
0.0
 10
15.27439441009951
 20
-10.61980363902704
 30
0.0
 10
15.16184156942864
 20
-10.59573939758666
 30
0.0
 10
15.05344735498552
 20
-10.56386584869315
 30
0.0
 10
14.7440866433461
 20
-10.47289581322193
 30
0.0
 10
14.43139098132298
 20
-10.44257940720423
 30
0.0
 10
14.11044468258228
 20
-10.47895923320826
 30
0.0
 10
14.02529103373573
 20
-10.48861157607955
 30
0.0
 10
13.93719310805194
 20
-10.47228933244048
 30
0.0
 10
13.85044623280477
 20
-10.46789408156003
 30
0.0
 10
13.84102912675826
 20
-10.44662214980438
 30
0.0
 10
13.83161132679766
 20
-10.42535021804876
 30
0.0
 10
13.82219352683732
 20
-10.40407898020701
 30
0.0
  0
SPLINE
  5
60
330
41
100
AcDbEntity
  8
Layer 1
370
     0
100
AcDbSpline
210
0.0
220
0.0
230
1.0
 70
    11
 71
     3
 72
    53
 73
    49
 74
     0
 42
0.0000000001
 43
0.0000000001
 12
1.0
 22
0.0
 32
0.0
 13
1.0
 23
0.0
 33
0.0
 40
0.0
 40
0.0
 40
0.0
 40
0.0
 40
1.0
 40
1.0
 40
1.0
 40
2.0
 40
2.0
 40
2.0
 40
3.0
 40
3.0
 40
3.0
 40
4.0
 40
4.0
 40
4.0
 40
5.0
 40
5.0
 40
5.0
 40
6.0
 40
6.0
 40
6.0
 40
7.0
 40
7.0
 40
7.0
 40
8.0
 40
8.0
 40
8.0
 40
9.0
 40
9.0
 40
9.0
 40
10.0
 40
10.0
 40
10.0
 40
11.0
 40
11.0
 40
11.0
 40
12.0
 40
12.0
 40
12.0
 40
13.0
 40
13.0
 40
13.0
 40
14.0
 40
14.0
 40
14.0
 40
15.0
 40
15.0
 40
15.0
 40
16.0
 40
16.0
 40
16.0
 40
16.0
 10
6.502855582323009
 20
-9.596272948084973
 30
0.0
 10
6.741245205128219
 20
-9.879949129239726
 30
0.0
 10
6.961207943321842
 20
-10.14169832388178
 30
0.0
 10
7.215544402326064
 20
-10.4443509694868
 30
0.0
 10
7.091377524082373
 20
-10.46216165852193
 30
0.0
 10
7.013174811148136
 20
-10.49041644623114
 30
0.0
 10
6.939785432241781
 20
-10.48103126022579
 30
0.0
 10
6.571873650379796
 20
-10.43398389525976
 30
0.0
 10
6.214892574340504
 20
-10.48187020217623
 30
0.0
 10
5.862839501607224
 20
-10.58558674276638
 30
0.0
 10
5.55827841919548
 20
-10.6753132844615
 30
0.0
 10
5.26286745944283
 20
-10.64552564086421
 30
0.0
 10
4.976799530423821
 20
-10.51663043305008
 30
0.0
 10
4.455225624706275
 20
-10.28162190590546
 30
0.0
 10
4.227418623144784
 20
-9.72749068584809
 30
0.0
 10
4.416474261081349
 20
-9.162105569551525
 30
0.0
 10
4.57009353575127
 20
-8.702695683711845
 30
0.0
 10
5.150669382272544
 20
-8.376244565704557
 30
0.0
 10
5.641919162179773
 20
-8.473053193046395
 30
0.0
 10
6.025398209316883
 20
-8.548624584329364
 30
0.0
 10
6.303436166250589
 20
-9.08225689275749
 30
0.0
 10
6.147476406608535
 20
-9.44336068497822
 30
0.0
 10
6.035226285892936
 20
-9.70326198680455
 30
0.0
 10
5.643984770493477
 20
-9.797976381882815
 30
0.0
 10
5.436393303456962
 20
-9.60114630566841
 30
0.0
 10
5.376660150841623
 20
-9.544510437913278
 30
0.0
 10
5.328583017592263
 20
-9.416720635001672
 30
0.0
 10
5.352198123236567
 20
-9.34804397260215
 30
0.0
 10
5.374595756877417
 20
-9.282908353025954
 30
0.0
 10
5.494888513607739
 20
-9.245344709844504
 30
0.0
 10
5.578238159695242
 20
-9.21009526964476
 30
0.0
 10
5.614232863464005
 20
-9.194873573510609
 30
0.0
 10
5.665588046154298
 20
-9.215972026781907
 30
0.0
 10
5.708783841809915
 20
-9.220449159506979
 30
0.0
 10
5.766873459264195
 20
-9.008172559042654
 30
0.0
 10
5.632042858585132
 20
-8.869840121677797
 30
0.0
 10
5.401670717414358
 20
-8.896528745630011
 30
0.0
 10
5.172512405198739
 20
-8.9230758111389
 30
0.0
 10
4.985684231001753
 20
-9.081668453738475
 30
0.0
 10
4.92929331486658
 20
-9.297515935325398
 30
0.0
 10
4.869046839415877
 20
-9.528120884622249
 30
0.0
 10
4.96129315609677
 20
-9.77012892165494
 30
0.0
 10
5.164832686173397
 20
-9.915452541940645
 30
0.0
 10
5.491159593585768
 20
-10.14844316735478
 30
0.0
 10
6.03451901411208
 20
-10.09987404912377
 30
0.0
 10
6.316791407371211
 20
-9.810525121529524
 30
0.0
 10
6.374311494961233
 20
-9.751562560341851
 30
0.0
 10
6.425210429237604
 20
-9.686141048223387
 30
0.0
 10
6.502855582323009
 20
-9.596272948084973
 30
0.0
  0
SPLINE
  5
61
330
41
100
AcDbEntity
  8
Layer 1
370
     0
100
AcDbSpline
210
0.0
220
0.0
230
1.0
 70
    11
 71
     3
 72
    53
 73
    49
 74
     0
 42
0.0000000001
 43
0.0000000001
 12
1.0
 22
0.0
 32
0.0
 13
1.0
 23
0.0
 33
0.0
 40
0.0
 40
0.0
 40
0.0
 40
0.0
 40
1.0
 40
1.0
 40
1.0
 40
2.0
 40
2.0
 40
2.0
 40
3.0
 40
3.0
 40
3.0
 40
4.0
 40
4.0
 40
4.0
 40
5.0
 40
5.0
 40
5.0
 40
6.0
 40
6.0
 40
6.0
 40
7.0
 40
7.0
 40
7.0
 40
8.0
 40
8.0
 40
8.0
 40
9.0
 40
9.0
 40
9.0
 40
10.0
 40
10.0
 40
10.0
 40
11.0
 40
11.0
 40
11.0
 40
12.0
 40
12.0
 40
12.0
 40
13.0
 40
13.0
 40
13.0
 40
14.0
 40
14.0
 40
14.0
 40
15.0
 40
15.0
 40
15.0
 40
16.0
 40
16.0
 40
16.0
 40
16.0
 10
14.50261153221758
 20
-20.17024386081389
 30
0.0
 10
14.26321399941804
 20
-19.88576135166375
 30
0.0
 10
14.04310033494293
 20
-19.62419465638717
 30
0.0
 10
13.78885651344938
 20
-19.32206869146089
 30
0.0
 10
13.91224620808306
 20
-19.30331080990092
 30
0.0
 10
13.99064946214533
 20
-19.27338230177433
 30
0.0
 10
14.06362283964601
 20
-19.28332053718796
 30
0.0
 10
14.4394778543512
 20
-19.33451195618902
 30
0.0
 10
14.80223940696873
 20
-19.27882397487263
 30
0.0
 10
15.1621468915611
 20
-19.17506024813474
 30
0.0
 10
15.47515759051202
 20
-19.08481535272829
 30
0.0
 10
15.77804130945816
 20
-19.12623507566067
 30
0.0
 10
16.06684412678359
 20
-19.26829730043995
 30
0.0
 10
16.5589651156395
 20
-19.51037195321065
 30
0.0
 10
16.76949305298113
 20
-20.0555995635352
 30
0.0
 10
16.58655235814083
 20
-20.60217753038237
 30
0.0
 10
16.43089219584122
 20
-21.06724559046882
 30
0.0
 10
15.85595396636642
 20
-21.39192930967721
 30
0.0
 10
15.36400645599496
 20
-21.2925816512379
 30
0.0
 10
14.9797425921945
 20
-21.21497986777367
 30
0.0
 10
14.70066914218754
 20
-20.68339738111706
 30
0.0
 10
14.85560832790587
 20
-20.3241831165482
 30
0.0
 10
14.96803765189588
 20
-20.06352406070211
 30
0.0
 10
15.35783062195074
 20
-19.96740726555599
 30
0.0
 10
15.56594512661764
 20
-20.1634060328733
 30
0.0
 10
15.62587708557614
 20
-20.2198489925537
 30
0.0
 10
15.67419570087565
 20
-20.34711280870074
 30
0.0
 10
15.65109114241086
 20
-20.41626688388919
 30
0.0
 10
15.62934110395226
 20
-20.48137266516611
 30
0.0
 10
15.5095007791092
 20
-20.51983770255246
 30
0.0
 10
15.4265752879161
 20
-20.55552569636074
 30
0.0
 10
15.39063887291818
 20
-20.57099165020086
 30
0.0
 10
15.33905192297275
 20
-20.55009928936903
 30
0.0
 10
15.29553241646526
 20
-20.54581645254653
 30
0.0
 10
15.23813879469027
 20
-20.75862736674273
 30
0.0
 10
15.37114266692871
 20
-20.90223840743054
 30
0.0
 10
15.60145964194147
 20
-20.86784386920186
 30
0.0
 10
15.82609068615007
 20
-20.83429868163272
 30
0.0
 10
15.99699058634597
 20
-20.7211574019428
 30
0.0
 10
16.06745477104852
 20
-20.49081544602825
 30
0.0
 10
16.13559989537182
 20
-20.26805241813963
 30
0.0
 10
16.06116652294646
 20
-20.03183023551825
 30
0.0
 10
15.87521146596132
 20
-19.8794286930696
 30
0.0
 10
15.55448305619709
 20
-19.61657270569714
 30
0.0
 10
14.98045940529189
 20
-19.65215106110328
 30
0.0
 10
14.68792333098248
 20
-19.95482383021243
 30
0.0
 10
14.63074482252824
 20
-20.01398415687242
 30
0.0
 10
14.58021470350974
 20
-20.07957151442191
 30
0.0
 10
14.50261153221758
 20
-20.17024386081389
 30
0.0
  0
SPLINE
  5
62
330
41
100
AcDbEntity
  8
Layer 1
370
     0
100
AcDbSpline
210
0.0
220
0.0
230
1.0
 70
    11
 71
     3
 72
    59
 73
    55
 74
     0
 42
0.0000000001
 43
0.0000000001
 12
1.0
 22
0.0
 32
0.0
 13
1.0
 23
0.0
 33
0.0
 40
0.0
 40
0.0
 40
0.0
 40
0.0
 40
1.0
 40
1.0
 40
1.0
 40
2.0
 40
2.0
 40
2.0
 40
3.0
 40
3.0
 40
3.0
 40
4.0
 40
4.0
 40
4.0
 40
5.0
 40
5.0
 40
5.0
 40
6.0
 40
6.0
 40
6.0
 40
7.0
 40
7.0
 40
7.0
 40
8.0
 40
8.0
 40
8.0
 40
9.0
 40
9.0
 40
9.0
 40
10.0
 40
10.0
 40
10.0
 40
11.0
 40
11.0
 40
11.0
 40
12.0
 40
12.0
 40
12.0
 40
13.0
 40
13.0
 40
13.0
 40
14.0
 40
14.0
 40
14.0
 40
15.0
 40
15.0
 40
15.0
 40
16.0
 40
16.0
 40
16.0
 40
17.0
 40
17.0
 40
17.0
 40
18.0
 40
18.0
 40
18.0
 40
18.0
 10
7.182657392126712
 20
-19.35980789486849
 30
0.0
 10
6.959544631613573
 20
-19.62467900831559
 30
0.0
 10
6.736431871100435
 20
-19.8895487339349
 30
0.0
 10
6.502189424942921
 20
-20.16763196875298
 30
0.0
 10
6.434468628992354
 20
-20.08911977020267
 30
0.0
 10
6.3877338722552
 20
-20.03174557801792
 30
0.0
 10
6.33767821689147
 20
-19.9774329341258
 30
0.0
 10
6.054590821712746
 20
-19.67027470532426
 30
0.0
 10
5.516359078227994
 20
-19.61044960911224
 30
0.0
 10
5.171728976363291
 20
-19.8469687868988
 30
0.0
 10
4.966671509548283
 20
-19.98769730909004
 30
0.0
 10
4.870947816647793
 20
-20.22901837132453
 30
0.0
 10
4.928187389528622
 20
-20.46093412404941
 30
0.0
 10
4.9820626941617
 20
-20.67921863138512
 30
0.0
 10
5.164166181836393
 20
-20.83894235370285
 30
0.0
 10
5.393244693949086
 20
-20.86883755396048
 30
0.0
 10
5.610449297719457
 20
-20.89718116265374
 30
0.0
 10
5.731151637151429
 20
-20.79145088381681
 30
0.0
 10
5.732078706172023
 20
-20.55821114329905
 30
0.0
 10
5.682564477157992
 20
-20.55821114329905
 30
0.0
 10
5.62752235623898
 20
-20.57216991606681
 30
0.0
 10
5.584677334078729
 20
-20.55524813078566
 30
0.0
 10
5.50063117187646
 20
-20.52205267584108
 30
0.0
 10
5.369112275464393
 20
-20.48356543320878
 30
0.0
 10
5.356378781231836
 20
-20.4255195323325
 30
0.0
 10
5.338501996894119
 20
-20.34403044299007
 30
0.0
 10
5.385223048830975
 20
-20.21367315850949
 30
0.0
 10
5.450243305215108
 20
-20.15596311197903
 30
0.0
 10
5.583158529947898
 20
-20.03798663997224
 30
0.0
 10
5.756240615999006
 20
-20.0380657461612
 30
0.0
 10
5.921604991236641
 20
-20.10352126006261
 30
0.0
 10
6.085666890013629
 20
-20.16845911416652
 30
0.0
 10
6.180328027197113
 20
-20.29689286921217
 30
0.0
 10
6.182560868769672
 20
-20.46933325834952
 30
0.0
 10
6.188051289322058
 20
-20.89334520640687
 30
0.0
 10
5.985989622453984
 20
-21.38127356725211
 30
0.0
 10
5.331672669399209
 20
-21.29883797929887
 30
0.0
 10
4.684221734538878
 20
-21.21726978376754
 30
0.0
 10
4.300419670463916
 20
-20.72291716768844
 30
0.0
 10
4.368235706102324
 20
-20.04865626067612
 30
0.0
 10
4.4226636264474
 20
-19.50750608864859
 30
0.0
 10
4.979614392311504
 20
-19.08784775663536
 30
0.0
 10
5.58803743884287
 20
-19.13185161507121
 30
0.0
 10
5.663152928668929
 20
-19.13728357337449
 30
0.0
 10
5.739507054873481
 20
-19.14758403186347
 30
0.0
 10
5.811661613927913
 20
-19.16827376982547
 30
0.0
 10
6.186137127725282
 20
-19.27565278817798
 30
0.0
 10
6.563901620108101
 20
-19.33730704152946
 30
0.0
 10
6.954979718775399
 20
-19.282886147063
 30
0.0
 10
7.018349327380491
 20
-19.27406927657251
 30
0.0
 10
7.085570505295929
 20
-19.29293402087876
 30
0.0
 10
7.151011447004686
 20
-19.29900299217663
 30
0.0
 10
7.161560326683274
 20
-19.3192708304646
 30
0.0
 10
7.172108859405041
 20
-19.33954005658044
 30
0.0
 10
7.182657392126712
 20
-19.35980789486849
 30
0.0
  0
SPLINE
  5
63
330
41
100
AcDbEntity
  8
Layer 1
370
     0
100
AcDbSpline
210
0.0
220
0.0
230
1.0
 70
    11
 71
     3
 72
    71
 73
    67
 74
     0
 42
0.0000000001
 43
0.0000000001
 12
1.0
 22
0.0
 32
0.0
 13
1.0
 23
0.0
 33
0.0
 40
0.0
 40
0.0
 40
0.0
 40
0.0
 40
1.0
 40
1.0
 40
1.0
 40
2.0
 40
2.0
 40
2.0
 40
3.0
 40
3.0
 40
3.0
 40
4.0
 40
4.0
 40
4.0
 40
5.0
 40
5.0
 40
5.0
 40
6.0
 40
6.0
 40
6.0
 40
7.0
 40
7.0
 40
7.0
 40
8.0
 40
8.0
 40
8.0
 40
9.0
 40
9.0
 40
9.0
 40
10.0
 40
10.0
 40
10.0
 40
11.0
 40
11.0
 40
11.0
 40
12.0
 40
12.0
 40
12.0
 40
13.0
 40
13.0
 40
13.0
 40
14.0
 40
14.0
 40
14.0
 40
15.0
 40
15.0
 40
15.0
 40
16.0
 40
16.0
 40
16.0
 40
17.0
 40
17.0
 40
17.0
 40
18.0
 40
18.0
 40
18.0
 40
19.0
 40
19.0
 40
19.0
 40
20.0
 40
20.0
 40
20.0
 40
21.0
 40
21.0
 40
21.0
 40
22.0
 40
22.0
 40
22.0
 40
22.0
 10
7.925431197849317
 20
-20.28604977002403
 30
0.0
 10
7.889718917053142
 20
-20.23855968796586
 30
0.0
 10
7.851066175946765
 20
-20.19297786923591
 30
0.0
 10
7.818791891754261
 20
-20.14325615995468
 30
0.0
 10
7.659115355584217
 20
-19.89725534212527
 30
0.0
 10
7.753380441387859
 20
-19.62106094104525
 30
0.0
 10
8.038081880385382
 20
-19.56057246310886
 30
0.0
 10
8.33323470415331
 20
-19.49786346057229
 30
0.0
 10
8.600983825656355
 20
-19.39391515272701
 30
0.0
 10
8.839426879834868
 20
-19.20696085967187
 30
0.0
 10
8.880997182091763
 20
-19.1743663341972
 30
0.0
 10
8.960216131987522
 20
-19.18979065320114
 30
0.0
 10
9.073482663143169
 20
-19.17741677986671
 30
0.0
 10
8.602475740622156
 20
-19.87903454995309
 30
0.0
 10
8.311105441727834
 20
-20.54828817399207
 30
0.0
 10
8.789646881782758
 20
-21.32512343925339
 30
0.0
 10
8.622923996533945
 20
-21.35604008082697
 30
0.0
 10
8.464133588462122
 20
-21.385485624853
 30
0.0
 10
8.279292957260722
 20
-21.4197621977124
 30
0.0
 10
8.270053146225289
 20
-21.33943194464564
 30
0.0
 10
8.264292272715709
 20
-21.26704423050815
 30
0.0
 10
8.253082440011555
 20
-21.19551280616951
 30
0.0
 10
8.180526104787226
 20
-20.73253203920724
 30
0.0
 10
7.769022302411227
 20
-20.48433984116308
 30
0.0
 10
7.323780404391386
 20
-20.63403789491112
 30
0.0
 10
7.04218874070503
 20
-20.72871412472279
 30
0.0
 10
6.891294379328733
 20
-21.00393149497876
 30
0.0
 10
6.967271710265148
 20
-21.2815900544671
 30
0.0
 10
7.003286190581024
 20
-21.4132019353467
 30
0.0
 10
7.088121332930341
 20
-21.48936454130459
 30
0.0
 10
7.222157402150885
 20
-21.50606427412569
 30
0.0
 10
7.345063091813126
 20
-21.52137895472744
 30
0.0
 10
7.444654314044476
 20
-21.48858874552237
 30
0.0
 10
7.488405934764021
 20
-21.37027086785831
 30
0.0
 10
7.48265581692053
 20
-21.34825159079191
 30
0.0
 10
7.483168619320359
 20
-21.33822037091073
 30
0.0
 10
7.478466311522536
 20
-21.33400414982613
 30
0.0
 10
7.403672103849615
 20
-21.26691932599937
 30
0.0
 10
7.260459022804914
 20
-21.21671187696173
 30
0.0
 10
7.332428653795167
 20
-21.09374755157182
 30
0.0
 10
7.37613829272146
 20
-21.01906714578461
 30
0.0
 10
7.495238558350122
 20
-20.96841559182701
 30
0.0
 10
7.589323226530017
 20
-20.9482324110393
 30
0.0
 10
7.716485384285234
 20
-20.92095326632635
 30
0.0
 10
7.826570666994202
 20
-20.98023155835563
 30
0.0
 10
7.884573892163239
 20
-21.1075814198308
 30
0.0
 10
8.04923515910363
 20
-21.46910225432805
 30
0.0
 10
7.7919627502297
 20
-21.85982992645677
 30
0.0
 10
7.395229599928453
 20
-21.85140025994342
 30
0.0
 10
7.088151171229709
 20
-21.84487608110252
 30
0.0
 10
6.836476913046936
 20
-21.64632371049517
 30
0.0
 10
6.74739744609859
 20
-21.3403035005512
 30
0.0
 10
6.605157232394365
 20
-20.8516534692109
 30
0.0
 10
6.846282610898519
 20
-20.0799517792597
 30
0.0
 10
7.240671719918723
 20
-19.76573228222959
 30
0.0
 10
7.262594542947843
 20
-19.74826785624934
 30
0.0
 10
7.292096640959783
 20
-19.74031560252505
 30
0.0
 10
7.333771724221238
 20
-19.72045300997652
 30
0.0
 10
7.432355036458286
 20
-19.92140909846358
 30
0.0
 10
7.331882543526257
 20
-20.20860619893754
 30
0.0
 10
7.58561599131865
 20
-20.31685260971197
 30
0.0
 10
7.680507681407961
 20
-20.35733693665654
 30
0.0
 10
7.801300750087343
 20
-20.33710656972116
 30
0.0
 10
7.910284097463377
 20
-20.34455781758259
 30
0.0
 10
7.915333015272987
 20
-20.32505606028169
 30
0.0
 10
7.920382280039706
 20
-20.30555291515292
 30
0.0
 10
7.925431197849317
 20
-20.28604977002403
 30
0.0
  0
SPLINE
  5
64
330
41
100
AcDbEntity
  8
Layer 1
370
     0
100
AcDbSpline
210
0.0
220
0.0
230
1.0
 70
    11
 71
     3
 72
    62
 73
    58
 74
     0
 42
0.0000000001
 43
0.0000000001
 12
1.0
 22
0.0
 32
0.0
 13
1.0
 23
0.0
 33
0.0
 40
0.0
 40
0.0
 40
0.0
 40
0.0
 40
1.0
 40
1.0
 40
1.0
 40
2.0
 40
2.0
 40
2.0
 40
3.0
 40
3.0
 40
3.0
 40
4.0
 40
4.0
 40
4.0
 40
5.0
 40
5.0
 40
5.0
 40
6.0
 40
6.0
 40
6.0
 40
7.0
 40
7.0
 40
7.0
 40
8.0
 40
8.0
 40
8.0
 40
9.0
 40
9.0
 40
9.0
 40
10.0
 40
10.0
 40
10.0
 40
11.0
 40
11.0
 40
11.0
 40
12.0
 40
12.0
 40
12.0
 40
13.0
 40
13.0
 40
13.0
 40
14.0
 40
14.0
 40
14.0
 40
15.0
 40
15.0
 40
15.0
 40
16.0
 40
16.0
 40
16.0
 40
17.0
 40
17.0
 40
17.0
 40
18.0
 40
18.0
 40
18.0
 40
19.0
 40
19.0
 40
19.0
 40
19.0
 10
12.72326284135479
 20
-21.40893714028649
 30
0.0
 10
12.68557984497606
 20
-21.40893714028649
 30
0.0
 10
12.66297212889068
 20
-21.41241364911374
 30
0.0
 10
12.64179942682799
 20
-21.40837229434145
 30
0.0
 10
12.50308047940001
 20
-21.38189947762382
 30
0.0
 10
12.36467101758801
 20
-21.3538042901202
 30
0.0
 10
12.21738639651477
 20
-21.32449197757017
 30
0.0
 10
12.68799397156475
 20
-20.55550210328681
 30
0.0
 10
12.40720794195995
 20
-19.88478154518385
 30
0.0
 10
11.97091788069151
 20
-19.23783864206507
 30
0.0
 10
12.04656768424952
 20
-19.10455581642369
 30
0.0
 10
12.12465937095373
 20
-19.17106746733812
 30
0.0
 10
12.19652734355209
 20
-19.22664442242451
 30
0.0
 10
12.40392364729342
 20
-19.38703152646654
 30
0.0
 10
12.63256967754465
 20
-19.48940603750142
 30
0.0
 10
12.89287344945475
 20
-19.53980361895795
 30
0.0
 10
13.27551633029713
 20
-19.61388309527525
 30
0.0
 10
13.36991360670599
 20
-19.89222446607806
 30
0.0
 10
13.13505565888582
 20
-20.2089725854966
 30
0.0
 10
13.11410986668072
 20
-20.23722320972217
 30
0.0
 10
13.09601050944758
 20
-20.26758472014585
 30
0.0
 10
13.07433471978034
 20
-20.30037631717871
 30
0.0
 10
13.45203207598974
 20
-20.4229770316654
 30
0.0
 10
13.52168438138546
 20
-20.35463899926737
 30
0.0
 10
13.66331152212583
 20
-19.71223151764437
 30
0.0
 10
13.73099449976666
 20
-19.7596633109318
 30
0.0
 10
13.79775873535424
 20
-19.78926845516355
 30
0.0
 10
13.84076405163405
 20
-19.83929687440524
 30
0.0
 10
14.19472538769553
 20
-20.25108899802224
 30
0.0
 10
14.36336174062722
 20
-20.72345980838761
 30
0.0
 10
14.27083386836632
 20
-21.26799628043041
 30
0.0
 10
14.20527079780446
 20
-21.65383463495515
 30
0.0
 10
13.87342033544921
 20
-21.89514875805027
 30
0.0
 10
13.50013210839895
 20
-21.84531185905533
 30
0.0
 10
13.16127103353256
 20
-21.80007283381058
 30
0.0
 10
12.95549432492136
 20
-21.36090858101286
 30
0.0
 10
13.13746839764672
 20
-21.07132302876591
 30
0.0
 10
13.23705961987807
 20
-20.91283863674061
 30
0.0
 10
13.55004950141064
 20
-20.89369632685934
 30
0.0
 10
13.65423651565048
 20
-21.04503340532781
 30
0.0
 10
13.76924095426283
 20
-21.21208208317033
 30
0.0
 10
13.59282998957474
 20
-21.2593098657602
 30
0.0
 10
13.47302089085881
 20
-21.38529132895053
 30
0.0
 10
13.58135681653131
 20
-21.43342952662642
 30
0.0
 10
13.67338507075721
 20
-21.5119111929635
 30
0.0
 10
13.74935199298465
 20
-21.49861580191998
 30
0.0
 10
13.84563671530359
 20
-21.48176757151622
 30
0.0
 10
13.96348064974828
 20
-21.41010291570158
 30
0.0
 10
14.01084374555597
 20
-21.32714411663947
 30
0.0
 10
14.12483645764726
 20
-21.12747732024828
 30
0.0
 10
14.03920331426959
 20
-20.867598223668
 30
0.0
 10
13.84559091698364
 20
-20.72307676789417
 30
0.0
 10
13.43454544476342
 20
-20.41624884212688
 30
0.0
 10
12.84664351510734
 20
-20.65473595984034
 30
0.0
 10
12.75471102100459
 20
-21.16653357230946
 30
0.0
 10
12.74033520596035
 20
-21.24656544238306
 30
0.0
 10
12.73357162681105
 20
-21.32796571074157
 30
0.0
 10
12.72326284135479
 20
-21.40893714028649
 30
0.0
  0
SPLINE
  5
65
330
41
100
AcDbEntity
  8
Layer 1
370
     0
100
AcDbSpline
210
0.0
220
0.0
230
1.0
 70
    11
 71
     3
 72
    68
 73
    64
 74
     0
 42
0.0000000001
 43
0.0000000001
 12
1.0
 22
0.0
 32
0.0
 13
1.0
 23
0.0
 33
0.0
 40
0.0
 40
0.0
 40
0.0
 40
0.0
 40
1.0
 40
1.0
 40
1.0
 40
2.0
 40
2.0
 40
2.0
 40
3.0
 40
3.0
 40
3.0
 40
4.0
 40
4.0
 40
4.0
 40
5.0
 40
5.0
 40
5.0
 40
6.0
 40
6.0
 40
6.0
 40
7.0
 40
7.0
 40
7.0
 40
8.0
 40
8.0
 40
8.0
 40
9.0
 40
9.0
 40
9.0
 40
10.0
 40
10.0
 40
10.0
 40
11.0
 40
11.0
 40
11.0
 40
12.0
 40
12.0
 40
12.0
 40
13.0
 40
13.0
 40
13.0
 40
14.0
 40
14.0
 40
14.0
 40
15.0
 40
15.0
 40
15.0
 40
16.0
 40
16.0
 40
16.0
 40
17.0
 40
17.0
 40
17.0
 40
18.0
 40
18.0
 40
18.0
 40
19.0
 40
19.0
 40
19.0
 40
20.0
 40
20.0
 40
20.0
 40
21.0
 40
21.0
 40
21.0
 40
21.0
 10
13.53519488574948
 20
-8.37621195174947
 30
0.0
 10
13.59560703315282
 20
-8.494247406440973
 30
0.0
 10
13.69774353170704
 20
-8.617080582096696
 30
0.0
 10
13.67140325255152
 20
-8.658800769764134
 30
0.0
 10
13.62128115492825
 20
-8.73819076944551
 30
0.0
 10
13.5031013661378
 20
-8.795238128165527
 30
0.0
 10
13.40334499238929
 20
-8.81752109252818
 30
0.0
 10
13.27438594449282
 20
-8.846324766162022
 30
0.0
 10
13.16854533333986
 20
-8.776212395825754
 30
0.0
 10
13.11546161103119
 20
-8.648103392502797
 30
0.0
 10
12.96093114062205
 20
-8.27516697981894
 30
0.0
 10
13.2198241854971
 20
-7.89969361777946
 30
0.0
 10
13.62012856387805
 20
-7.914968051372856
 30
0.0
 10
13.91110680139762
 20
-7.926071368287577
 30
0.0
 10
14.1474462554744
 20
-8.107135025926906
 30
0.0
 10
14.24561148456405
 20
-8.394162811400022
 30
0.0
 10
14.40943554433884
 20
-8.87317021466411
 30
0.0
 10
14.1712912201105
 20
-9.679797980920224
 30
0.0
 10
13.77149478673184
 20
-9.993826651617413
 30
0.0
 10
13.74449459542176
 20
-10.01503543720474
 30
0.0
 10
13.70737505716034
 20
-10.02335962879963
 30
0.0
 10
13.69793713369562
 20
-10.02752866373642
 30
0.0
 10
13.6102569442024
 20
-9.82851206470478
 30
0.0
 10
13.55188074029198
 20
-9.626406854737073
 30
0.0
 10
13.43573481325244
 20
-9.46617796307275
 30
0.0
 10
13.38838282006775
 20
-9.400852211077726
 30
0.0
 10
13.2157300932655
 20
-9.426353548282737
 30
0.0
 10
13.10008447817505
 20
-9.410532310506564
 30
0.0
 10
13.09197054250321
 20
-9.426760875764106
 30
0.0
 10
13.08385591291741
 20
-9.442989441021618
 30
0.0
 10
13.0757419772457
 20
-9.459218006279128
 30
0.0
 10
13.11543801795725
 20
-9.51759698584539
 30
0.0
 10
13.15735458326905
 20
-9.5746034036431
 30
0.0
 10
13.19443734409176
 20
-9.634597814855958
 30
0.0
 10
13.34051455491361
 20
-9.870924084567937
 30
0.0
 10
13.24373437804332
 20
-10.14577298652312
 30
0.0
 10
12.97343824543243
 20
-10.20447671781207
 30
0.0
 10
12.67938319351376
 20
-10.2683396992268
 30
0.0
 10
12.40864850729433
 20
-10.36666730417789
 30
0.0
 10
12.1699504397437
 20
-10.55425930414164
 30
0.0
 10
12.126778584119
 20
-10.58818683829035
 30
0.0
 10
12.04901303696541
 20
-10.57809663572445
 30
0.0
 10
11.97477673609824
 20
-10.56715708249891
 30
0.0
 10
12.3964148045752
 20
-9.89274143267847
 30
0.0
 10
12.69045597821528
 20
-9.223804927308986
 30
0.0
 10
12.21716573188271
 20
-8.44427311248636
 30
0.0
 10
12.37747650539162
 20
-8.41286795550065
 30
0.0
 10
12.53490476040396
 20
-8.382027644460116
 30
0.0
 10
12.72376315330375
 20
-8.34502954113774
 30
0.0
 10
12.73267231434797
 20
-8.420845190126771
 30
0.0
 10
12.73938801343569
 20
-8.491320477452387
 30
0.0
 10
12.74943033593995
 20
-8.56131835198895
 30
0.0
 10
12.81745541315207
 20
-9.035455173325385
 30
0.0
 10
13.24367608927257
 20
-9.29101187998875
 30
0.0
 10
13.69241219092485
 20
-9.127276641197946
 30
0.0
 10
13.96742832613891
 20
-9.026928358860737
 30
0.0
 10
14.12166943443619
 20
-8.76340898976397
 30
0.0
 10
14.03119485351636
 20
-8.49641380575402
 30
0.0
 10
14.0002934780493
 20
-8.405222411736714
 30
0.0
 10
13.90068352014162
 20
-8.315132953052307
 30
0.0
 10
13.80990986231473
 20
-8.271894481689444
 30
0.0
 10
13.6901174175335
 20
-8.21483255077674
 30
0.0
 10
13.62030343019017
 20
-8.262441986032126
 30
0.0
 10
13.53519488574948
 20
-8.37621195174947
 30
0.0
  0
SPLINE
  5
66
330
41
100
AcDbEntity
  8
Layer 1
370
     0
100
AcDbSpline
210
0.0
220
0.0
230
1.0
 70
    11
 71
     3
 72
    68
 73
    64
 74
     0
 42
0.0000000001
 43
0.0000000001
 12
1.0
 22
0.0
 32
0.0
 13
1.0
 23
0.0
 33
0.0
 40
0.0
 40
0.0
 40
0.0
 40
0.0
 40
1.0
 40
1.0
 40
1.0
 40
2.0
 40
2.0
 40
2.0
 40
3.0
 40
3.0
 40
3.0
 40
4.0
 40
4.0
 40
4.0
 40
5.0
 40
5.0
 40
5.0
 40
6.0
 40
6.0
 40
6.0
 40
7.0
 40
7.0
 40
7.0
 40
8.0
 40
8.0
 40
8.0
 40
9.0
 40
9.0
 40
9.0
 40
10.0
 40
10.0
 40
10.0
 40
11.0
 40
11.0
 40
11.0
 40
12.0
 40
12.0
 40
12.0
 40
13.0
 40
13.0
 40
13.0
 40
14.0
 40
14.0
 40
14.0
 40
15.0
 40
15.0
 40
15.0
 40
16.0
 40
16.0
 40
16.0
 40
17.0
 40
17.0
 40
17.0
 40
18.0
 40
18.0
 40
18.0
 40
19.0
 40
19.0
 40
19.0
 40
20.0
 40
20.0
 40
20.0
 40
21.0
 40
21.0
 40
21.0
 40
21.0
 10
7.337885246043064
 20
-10.0555516841905
 30
0.0
 10
7.28467557835457
 20
-10.02246239807834
 30
0.0
 10
7.240268555920995
 20
-10.0061776257919
 30
0.0
 10
7.211574173732306
 20
-9.975294986001137
 30
0.0
 10
6.811159116078436
 20
-9.544343204654327
 30
0.0
 10
6.625806029434091
 20
-9.041221598146436
 30
0.0
 10
6.743480995835083
 20
-8.455232095302133
 30
0.0
 10
6.798051775711984
 20
-8.183484294733919
 30
0.0
 10
6.976112867743478
 20
-7.997249590431946
 30
0.0
 10
7.253462982486557
 20
-7.931827384399551
 30
0.0
 10
7.691747699368463
 20
-7.828443228585617
 30
0.0
 10
8.01446625430564
 20
-8.150132709153294
 30
0.0
 10
7.899569372353729
 20
-8.585238953244241
 30
0.0
 10
7.876686519392011
 20
-8.671894925765727
 30
0.0
 10
7.78371697090978
 20
-8.784121626885948
 30
0.0
 10
7.705060785217406
 20
-8.801088516573019
 30
0.0
 10
7.601016370291772
 20
-8.82353177505526
 30
0.0
 10
7.473427108508039
 20
-8.776963904620109
 30
0.0
 10
7.368798071090084
 20
-8.730896346133921
 30
0.0
 10
7.339298401776915
 20
-8.717906971136888
 30
0.0
 10
7.335493324700383
 20
-8.59632908579423
 30
0.0
 10
7.35571675249637
 20
-8.536703142882223
 30
0.0
 10
7.371599054699042
 20
-8.489877136462251
 30
0.0
 10
7.442643351453381
 20
-8.461761131540579
 30
0.0
 10
7.539786445313091
 20
-8.385724124005458
 30
0.0
 10
7.42279359631283
 20
-8.332326058682977
 30
0.0
 10
7.340556467745698
 20
-8.268742030671158
 30
0.0
 10
7.253447022466042
 20
-8.261163796559186
 30
0.0
 10
7.124169468072279
 20
-8.249916145545424
 30
0.0
 10
7.024411706495874
 20
-8.322296226629586
 30
0.0
 10
6.97695666709156
 20
-8.453281503223673
 30
0.0
 10
6.896990718842068
 20
-8.674003730221925
 30
0.0
 10
6.974385022038964
 20
-8.913633724190626
 30
0.0
 10
7.174262768267094
 20
-9.054927092327016
 30
0.0
 10
7.535096627966134
 20
-9.310001528803722
 30
0.0
 10
8.061149661411408
 20
-9.150061999251383
 30
0.0
 10
8.208178575198634
 20
-8.733855195163665
 30
0.0
 10
8.250077098748031
 20
-8.61524864930152
 30
0.0
 10
8.262088402050066
 20
-8.486084202879603
 30
0.0
 10
8.289959108394928
 20
-8.35134832145307
 30
0.0
 10
8.455701146292926
 20
-8.380362251009995
 30
0.0
 10
8.616320711504207
 20
-8.408479643759623
 30
0.0
 10
8.791228311646439
 20
-8.439097902340139
 30
0.0
 10
8.313422420365292
 20
-9.203928456481735
 30
0.0
 10
8.591301297528746
 20
-9.874270831488726
 30
0.0
 10
9.034428492823874
 20
-10.52687954190768
 30
0.0
 10
8.966167484872944
 20
-10.64904239669973
 30
0.0
 10
8.888198273978746
 20
-10.60294499991427
 30
0.0
 10
8.813215321714823
 20
-10.54466039264353
 30
0.0
 10
8.600340567436241
 20
-10.37919383857853
 30
0.0
 10
8.364870934480223
 20
-10.27512270796639
 30
0.0
 10
8.09724428878703
 20
-10.22206049698963
 30
0.0
 10
7.730539570219393
 20
-10.14935427635482
 30
0.0
 10
7.638876314724599
 20
-9.869746512615913
 30
0.0
 10
7.863452539731967
 20
-9.563829001934748
 30
0.0
 10
7.884863254275125
 20
-9.53466241131159
 30
0.0
 10
7.905522460023959
 20
-9.504943465194122
 30
0.0
 10
7.928135727420904
 20
-9.47323021042013
 30
0.0
 10
7.70102151218681
 20
-9.383372518990827
 30
0.0
 10
7.537787626215977
 20
-9.400730776138657
 30
0.0
 10
7.469407612024781
 20
-9.553810966418292
 30
0.0
 10
7.403913585899861
 20
-9.700430124025441
 30
0.0
 10
7.384778562114935
 20
-9.867757755270862
 30
0.0
 10
7.337885246043064
 20
-10.0555516841905
 30
0.0
  0
SPLINE
  5
67
330
41
100
AcDbEntity
  8
Layer 1
370
     0
100
AcDbSpline
210
0.0
220
0.0
230
1.0
 70
    11
 71
     3
 72
    50
 73
    46
 74
     0
 42
0.0000000001
 43
0.0000000001
 12
1.0
 22
0.0
 32
0.0
 13
1.0
 23
0.0
 33
0.0
 40
0.0
 40
0.0
 40
0.0
 40
0.0
 40
1.0
 40
1.0
 40
1.0
 40
2.0
 40
2.0
 40
2.0
 40
3.0
 40
3.0
 40
3.0
 40
4.0
 40
4.0
 40
4.0
 40
5.0
 40
5.0
 40
5.0
 40
6.0
 40
6.0
 40
6.0
 40
7.0
 40
7.0
 40
7.0
 40
8.0
 40
8.0
 40
8.0
 40
9.0
 40
9.0
 40
9.0
 40
10.0
 40
10.0
 40
10.0
 40
11.0
 40
11.0
 40
11.0
 40
12.0
 40
12.0
 40
12.0
 40
13.0
 40
13.0
 40
13.0
 40
14.0
 40
14.0
 40
14.0
 40
15.0
 40
15.0
 40
15.0
 40
15.0
 10
4.745035918329704
 20
-15.89465982672006
 30
0.0
 10
4.743880725102119
 20
-15.91634324944075
 30
0.0
 10
4.737039254113324
 20
-15.93456820509651
 30
0.0
 10
4.743226624476751
 20
-15.94524198928398
 30
0.0
 10
4.829360253281721
 20
-16.09384365901075
 30
0.0
 10
4.839486279154763
 20
-16.2349302407937
 30
0.0
 10
4.689397985556073
 20
-16.34741369007076
 30
0.0
 10
4.572234954162586
 20
-16.43522017190081
 30
0.0
 10
4.407139644054221
 20
-16.39244315330639
 30
0.0
 10
4.263849278344756
 20
-16.24890289184026
 30
0.0
 10
3.986842867848901
 20
-15.97141364735272
 30
0.0
 10
4.13751652122352
 20
-15.47097401821346
 30
0.0
 10
4.530530466297941
 20
-15.36316199756379
 30
0.0
 10
4.805651295777468
 20
-15.28769052988784
 30
0.0
 10
5.131299989055129
 20
-15.40529922750765
 30
0.0
 10
5.31679550153512
 20
-15.64712407126091
 30
0.0
 10
5.530701238446341
 20
-15.92598587751693
 30
0.0
 10
5.550981046749745
 20
-16.17871072140109
 30
0.0
 10
5.379073930473464
 20
-16.46684044220708
 30
0.0
 10
5.332637556729476
 20
-16.54467121727078
 30
0.0
 10
5.280816237351592
 20
-16.61956673637862
 30
0.0
 10
5.227656878423542
 20
-16.69305361019316
 30
0.0
 10
5.099137251528089
 20
-16.87071361996874
 30
0.0
 10
5.03075168602539
 20
-17.06498870506509
 30
0.0
 10
5.042307781784446
 20
-17.28723268532848
 30
0.0
 10
5.046404649671732
 20
-17.36602522510959
 30
0.0
 10
5.031646488047877
 20
-17.4457989591984
 30
0.0
 10
5.0206227977574
 20
-17.58797498586339
 30
0.0
 10
4.724116494854326
 20
-17.28611687171686
 30
0.0
 10
4.418333603476993
 20
-17.19197634346498
 30
0.0
 10
4.03850384973758
 20
-17.33537365866003
 30
0.0
 10
4.03850384973758
 20
-17.06824038577657
 30
0.0
 10
4.03850384973758
 20
-16.81972898732102
 30
0.0
 10
4.03850384973758
 20
-16.53892422204002
 30
0.0
 10
4.132368937525906
 20
-16.57523673839202
 30
0.0
 10
4.213295826470031
 20
-16.60610619381799
 30
0.0
 10
4.293894971187573
 20
-16.6378111216246
 30
0.0
 10
4.496374894681468
 20
-16.71745995120482
 30
0.0
 10
4.694235606571754
 20
-16.70774931956268
 30
0.0
 10
4.884817594953148
 20
-16.60271989380279
 30
0.0
 10
5.081169044029098
 20
-16.49451095438082
 30
0.0
 10
5.170022988947808
 20
-16.23587673940452
 30
0.0
 10
5.076487206692478
 20
-16.03350784214059
 30
0.0
 10
5.009968963595697
 20
-15.88959425497597
 30
0.0
 10
4.898397057014775
 20
-15.83766451154536
 30
0.0
 10
4.745035918329704
 20
-15.89465982672006
 30
0.0
  0
SPLINE
  5
68
330
41
100
AcDbEntity
  8
Layer 1
370
     0
100
AcDbSpline
210
0.0
220
0.0
230
1.0
 70
    11
 71
     3
 72
    47
 73
    43
 74
     0
 42
0.0000000001
 43
0.0000000001
 12
1.0
 22
0.0
 32
0.0
 13
1.0
 23
0.0
 33
0.0
 40
0.0
 40
0.0
 40
0.0
 40
0.0
 40
1.0
 40
1.0
 40
1.0
 40
2.0
 40
2.0
 40
2.0
 40
3.0
 40
3.0
 40
3.0
 40
4.0
 40
4.0
 40
4.0
 40
5.0
 40
5.0
 40
5.0
 40
6.0
 40
6.0
 40
6.0
 40
7.0
 40
7.0
 40
7.0
 40
8.0
 40
8.0
 40
8.0
 40
9.0
 40
9.0
 40
9.0
 40
10.0
 40
10.0
 40
10.0
 40
11.0
 40
11.0
 40
11.0
 40
12.0
 40
12.0
 40
12.0
 40
13.0
 40
13.0
 40
13.0
 40
14.0
 40
14.0
 40
14.0
 40
14.0
 10
16.96679915415676
 20
-17.33364581295555
 30
0.0
 10
16.59450461186506
 20
-17.20381451523961
 30
0.0
 10
16.28749904412988
 20
-17.26630285314406
 30
0.0
 10
16.00012846517154
 20
-17.58480241134089
 30
0.0
 10
15.98168562053931
 20
-17.46075419238058
 30
0.0
 10
15.9567505171074
 20
-17.38488858158792
 30
0.0
 10
15.9619298907372
 20
-17.3111366326493
 30
0.0
 10
15.97938321409451
 20
-17.06264882726776
 30
0.0
 10
15.89773591237435
 20
-16.85028201799153
 30
0.0
 10
15.7505984010559
 20
-16.65659814756994
 30
0.0
 10
15.71401387044026
 20
-16.60844190813175
 30
0.0
 10
15.68207439972261
 20
-16.55673421716118
 30
0.0
 10
15.64847092338279
 20
-16.50634357484402
 30
0.0
 10
15.48199541845255
 20
-16.25670248449832
 30
0.0
 10
15.45507294550351
 20
-16.00217624003221
 30
0.0
 10
15.62122786219451
 20
-15.74048464024692
 30
0.0
 10
15.79370155920087
 20
-15.46883815111368
 30
0.0
 10
16.03774970320984
 20
-15.3261291985446
 30
0.0
 10
16.36206287237546
 20
-15.34337712337637
 30
0.0
 10
16.59960487930615
 20
-15.35600774486773
 30
0.0
 10
16.7485576694852
 20
-15.49893458641302
 30
0.0
 10
16.8421097587181
 20
-15.70657167829099
 30
0.0
 10
16.92040684394778
 20
-15.88034715784404
 30
0.0
 10
16.90424836399799
 20
-16.04540291485798
 30
0.0
 10
16.78589162715328
 20
-16.19770869718348
 30
0.0
 10
16.64793182157295
 20
-16.3752410267945
 30
0.0
 10
16.4487341110036
 20
-16.43894232626172
 30
0.0
 10
16.31333484785279
 20
-16.34883898929862
 30
0.0
 10
16.18424326239422
 20
-16.26293660731321
 30
0.0
 10
16.17265906312073
 20
-16.13238502693022
 30
0.0
 10
16.27417867218463
 20
-15.90756385030279
 30
0.0
 10
16.0624016897553
 20
-15.84176276726053
 30
0.0
 10
15.94124986757028
 20
-15.91108615744985
 30
0.0
 10
15.90443356969957
 20
-16.11913265855085
 30
0.0
 10
15.84116110904568
 20
-16.47665932442349
 30
0.0
 10
16.1567198599752
 20
-16.75322149989037
 30
0.0
 10
16.55620611382379
 20
-16.67885057971939
 30
0.0
 10
16.68781938253132
 20
-16.65434709075653
 30
0.0
 10
16.8130000690377
 20
-16.5952977903266
 30
0.0
 10
16.96679915415676
 20
-16.54337776169113
 30
0.0
 10
16.96679915415676
 20
-16.80302509101641
 30
0.0
 10
16.96679915415676
 20
-17.05198753353116
 30
0.0
 10
16.96679915415676
 20
-17.33364581295555
 30
0.0
  0
SPLINE
  5
69
330
41
100
AcDbEntity
  8
Layer 1
370
     0
100
AcDbSpline
210
0.0
220
0.0
230
1.0
 70
    11
 71
     3
 72
    53
 73
    49
 74
     0
 42
0.0000000001
 43
0.0000000001
 12
1.0
 22
0.0
 32
0.0
 13
1.0
 23
0.0
 33
0.0
 40
0.0
 40
0.0
 40
0.0
 40
0.0
 40
1.0
 40
1.0
 40
1.0
 40
2.0
 40
2.0
 40
2.0
 40
3.0
 40
3.0
 40
3.0
 40
4.0
 40
4.0
 40
4.0
 40
5.0
 40
5.0
 40
5.0
 40
6.0
 40
6.0
 40
6.0
 40
7.0
 40
7.0
 40
7.0
 40
8.0
 40
8.0
 40
8.0
 40
9.0
 40
9.0
 40
9.0
 40
10.0
 40
10.0
 40
10.0
 40
11.0
 40
11.0
 40
11.0
 40
12.0
 40
12.0
 40
12.0
 40
13.0
 40
13.0
 40
13.0
 40
14.0
 40
14.0
 40
14.0
 40
15.0
 40
15.0
 40
15.0
 40
16.0
 40
16.0
 40
16.0
 40
16.0
 10
4.72681287093715
 20
-13.87343979987035
 30
0.0
 10
4.881853628308112
 20
-13.92575813510597
 30
0.0
 10
4.997971885529369
 20
-13.88747490317126
 30
0.0
 10
5.071193510741431
 20
-13.74535022613765
 30
0.0
 10
5.158238595503365
 20
-13.57639467279471
 30
0.0
 10
5.103611435118983
 20
-13.31771327167054
 30
0.0
 10
4.954681023664305
 20
-13.20931003634624
 30
0.0
 10
4.757048349241943
 20
-13.06545890143604
 30
0.0
 10
4.538997257207032
 20
-13.03818808369018
 30
0.0
 10
4.308867465478893
 20
-13.12240286697936
 30
0.0
 10
4.225638300198778
 20
-13.15286013752635
 30
0.0
 10
4.14384072274154
 20
-13.18723108268117
 30
0.0
 10
4.034373413763589
 20
-13.2304938410318
 30
0.0
 10
4.034373413763589
 20
-12.95650331061733
 30
0.0
 10
4.034373413763589
 20
-12.70769908048045
 30
0.0
 10
4.034373413763589
 20
-12.43641065093875
 30
0.0
 10
4.400820516781911
 20
-12.55766517238658
 30
0.0
 10
4.716972303910231
 20
-12.50424073833444
 30
0.0
 10
5.006839758694397
 20
-12.18182542378794
 30
0.0
 10
5.023705336946589
 20
-12.30856117142848
 30
0.0
 10
5.046249559906697
 20
-12.3859069006499
 30
0.0
 10
5.041812500711514
 20
-12.46167258783541
 30
0.0
 10
5.02780845005934
 20
-12.70080712725269
 30
0.0
 10
5.10362600731167
 20
-12.90741722650288
 30
0.0
 10
5.244369969087959
 20
-13.09566358730972
 30
0.0
 10
5.285073919793907
 20
-13.15010529919435
 30
0.0
 10
5.321538403298271
 20
-13.20777371088854
 30
0.0
 10
5.358840961360756
 20
-13.26468991987441
 30
0.0
 10
5.517535435830617
 20
-13.50681869793211
 30
0.0
 10
5.546795357878477
 20
-13.75552578011801
 30
0.0
 10
5.392161320814121
 20
-14.01117200167926
 30
0.0
 10
5.226011608477674
 20
-14.28585644603114
 30
0.0
 10
4.982919330917532
 20
-14.43278161968475
 30
0.0
 10
4.660210664254024
 20
-14.42486683731308
 30
0.0
 10
4.415460019122449
 20
-14.41886586958118
 30
0.0
 10
4.223462359569139
 20
-14.25807768328312
 30
0.0
 10
4.144116076465826
 20
-14.0148136620235
 30
0.0
 10
4.077190158930758
 20
-13.80962886200104
 30
0.0
 10
4.140252537139959
 20
-13.60704485141645
 30
0.0
 10
4.317933624551515
 20
-13.46994966260209
 30
0.0
 10
4.440179575537559
 20
-13.37562871672647
 30
0.0
 10
4.575589507615191
 20
-13.32135076853127
 30
0.0
 10
4.709654461003326
 20
-13.43585211953878
 30
0.0
 10
4.829743553993043
 20
-13.53841537516467
 30
0.0
 10
4.83917956919431
 20
-13.66754720763153
 30
0.0
 10
4.747316032789203
 20
-13.80075231491187
 30
0.0
 10
4.735700954345533
 20
-13.81759499400409
 30
0.0
 10
4.735228919389556
 20
-13.84212068821287
 30
0.0
 10
4.72681287093715
 20
-13.87343979987035
 30
0.0
  0
SPLINE
  5
6A
330
41
100
AcDbEntity
  8
Layer 1
370
     0
100
AcDbSpline
210
0.0
220
0.0
230
1.0
 70
    11
 71
     3
 72
    47
 73
    43
 74
     0
 42
0.0000000001
 43
0.0000000001
 12
1.0
 22
0.0
 32
0.0
 13
1.0
 23
0.0
 33
0.0
 40
0.0
 40
0.0
 40
0.0
 40
0.0
 40
1.0
 40
1.0
 40
1.0
 40
2.0
 40
2.0
 40
2.0
 40
3.0
 40
3.0
 40
3.0
 40
4.0
 40
4.0
 40
4.0
 40
5.0
 40
5.0
 40
5.0
 40
6.0
 40
6.0
 40
6.0
 40
7.0
 40
7.0
 40
7.0
 40
8.0
 40
8.0
 40
8.0
 40
9.0
 40
9.0
 40
9.0
 40
10.0
 40
10.0
 40
10.0
 40
11.0
 40
11.0
 40
11.0
 40
12.0
 40
12.0
 40
12.0
 40
13.0
 40
13.0
 40
13.0
 40
14.0
 40
14.0
 40
14.0
 40
14.0
 10
5.701619874318579
 20
-23.53333800616661
 30
0.0
 10
5.17463023053612
 20
-23.82707316376013
 30
0.0
 10
4.6182840371901
 20
-23.47089130309847
 30
0.0
 10
4.472854941985968
 20
-23.13066946300042
 30
0.0
 10
4.42616737139646
 20
-23.0214474092298
 30
0.0
 10
4.413299778295605
 20
-22.87085420650245
 30
0.0
 10
4.448027221735749
 20
-22.75871771419404
 30
0.0
 10
4.558984841003506
 20
-22.40042496733433
 30
0.0
 10
4.779344324490901
 20
-22.11229663435621
 30
0.0
 10
5.111107093472406
 20
-21.92674127179909
 30
0.0
 10
5.411117314803128
 20
-21.75894316690407
 30
0.0
 10
5.816846885826356
 20
-21.85743869902798
 30
0.0
 10
6.097277111059726
 20
-22.16144517072511
 30
0.0
 10
6.236450572116881
 20
-22.31231871468338
 30
0.0
 10
6.362595798996613
 20
-22.47466959516873
 30
0.0
 10
6.359866288523198
 20
-22.69872191515329
 30
0.0
 10
6.357088377552706
 20
-22.92676562810662
 30
0.0
 10
6.234866019640532
 20
-23.11589048395854
 30
0.0
 10
6.044949061028988
 20
-23.17825669300986
 30
0.0
 10
5.830615873132239
 20
-23.2486431593515
 30
0.0
 10
5.489449442686738
 20
-23.15367687351394
 30
0.0
 10
5.381611573743016
 20
-22.98914293978108
 30
0.0
 10
5.313710013211753
 20
-22.88554575238821
 30
0.0
 10
5.293973712999933
 20
-22.77410317401734
 30
0.0
 10
5.38994131664944
 20
-22.67713147690035
 30
0.0
 10
5.484228434220667
 20
-22.58185570544656
 30
0.0
 10
5.592220699015367
 20
-22.58863802027225
 30
0.0
 10
5.698192286424081
 20
-22.66388327200463
 30
0.0
 10
5.733515108022731
 20
-22.6889668730192
 30
0.0
 10
5.767433447811702
 20
-22.71602674092788
 30
0.0
 10
5.801778371193909
 20
-22.74202075702866
 30
0.0
 10
5.930771073916217
 20
-22.57736191878701
 30
0.0
 10
5.924575289846372
 20
-22.48277312213146
 30
0.0
 10
5.786833720199365
 20
-22.37591731488789
 30
0.0
 10
5.563598136919265
 20
-22.20273721349306
 30
0.0
 10
5.224738276402274
 20
-22.25867222817122
 30
0.0
 10
5.03844389550163
 20
-22.49945758884597
 30
0.0
 10
4.857217948740246
 20
-22.73368962629438
 30
0.0
 10
4.877039340148647
 20
-23.03520078347215
 30
0.0
 10
5.112514697894754
 20
-23.20427569001237
 30
0.0
 10
5.287656840947871
 20
-23.33002816160336
 30
0.0
 10
5.490344591666206
 20
-23.4174182950707
 30
0.0
 10
5.701619874318579
 20
-23.53333800616661
 30
0.0
  0
SPLINE
  5
6B
330
41
100
AcDbEntity
  8
Layer 1
370
     0
100
AcDbSpline
210
0.0
220
0.0
230
1.0
 70
    11
 71
     3
 72
    53
 73
    49
 74
     0
 42
0.0000000001
 43
0.0000000001
 12
1.0
 22
0.0
 32
0.0
 13
1.0
 23
0.0
 33
0.0
 40
0.0
 40
0.0
 40
0.0
 40
0.0
 40
1.0
 40
1.0
 40
1.0
 40
2.0
 40
2.0
 40
2.0
 40
3.0
 40
3.0
 40
3.0
 40
4.0
 40
4.0
 40
4.0
 40
5.0
 40
5.0
 40
5.0
 40
6.0
 40
6.0
 40
6.0
 40
7.0
 40
7.0
 40
7.0
 40
8.0
 40
8.0
 40
8.0
 40
9.0
 40
9.0
 40
9.0
 40
10.0
 40
10.0
 40
10.0
 40
11.0
 40
11.0
 40
11.0
 40
12.0
 40
12.0
 40
12.0
 40
13.0
 40
13.0
 40
13.0
 40
14.0
 40
14.0
 40
14.0
 40
15.0
 40
15.0
 40
15.0
 40
16.0
 40
16.0
 40
16.0
 40
16.0
 10
16.0329797388032
 20
-12.21651903892373
 30
0.0
 10
16.28691615642227
 20
-12.50275715033596
 30
0.0
 10
16.59598819986367
 20
-12.55811899210173
 30
0.0
 10
16.96644803370435
 20
-12.43497008560447
 30
0.0
 10
16.96644803370435
 20
-12.70405048099671
 30
0.0
 10
16.96644803370435
 20
-12.95225655731956
 30
0.0
 10
16.96644803370435
 20
-13.22692018425339
 30
0.0
 10
16.86411376967778
 20
-13.18754195612533
 30
0.0
 10
16.78205983439018
 20
-13.15603132422103
 30
0.0
 10
16.70005308525032
 20
-13.12439856346374
 30
0.0
 10
16.48735319728424
 20
-13.04235017948774
 30
0.0
 10
16.28238489841006
 20
-13.06270822658756
 30
0.0
 10
16.08996672701062
 20
-13.18081237875889
 30
0.0
 10
15.91068295862118
 20
-13.29085325097583
 30
0.0
 10
15.83766378280042
 20
-13.55435874179384
 30
0.0
 10
15.9321929028573
 20
-13.74339477666162
 30
0.0
 10
16.00434052277256
 20
-13.88767197472961
 30
0.0
 10
16.1213163708813
 20
-13.92379297083483
 30
0.0
 10
16.26759204108933
 20
-13.87805571538293
 30
0.0
 10
16.2708131895875
 20
-13.85801825652219
 30
0.0
 10
16.27521954309093
 20
-13.84925273566305
 30
0.0
 10
16.27271867725995
 20
-13.84347798387478
 30
0.0
 10
16.17481852329451
 20
-13.61733837076606
 30
0.0
 10
16.19138918812318
 20
-13.48752095132879
 30
0.0
 10
16.32893403316892
 20
-13.40857575048148
 30
0.0
 10
16.45931907420708
 20
-13.33373990797232
 30
0.0
 10
16.63083516997962
 20
-13.38843559235797
 30
0.0
 10
16.76719758567582
 20
-13.54833556881583
 30
0.0
 10
17.00823691885152
 20
-13.83098336951524
 30
0.0
 10
16.84903363198695
 20
-14.29867164862992
 30
0.0
 10
16.47620338813551
 20
-14.40318202676459
 30
0.0
 10
16.20350908895654
 20
-14.47962219829741
 30
0.0
 10
15.87628425690885
 20
-14.36219391830122
 30
0.0
 10
15.68788384720789
 20
-14.12028441704775
 30
0.0
 10
15.47891999188137
 20
-13.85197287829827
 30
0.0
 10
15.4538211247601
 20
-13.59994056052365
 30
0.0
 10
15.61281762527146
 20
-13.31916910311161
 30
0.0
 10
15.65748625325947
 20
-13.24029051800223
 30
0.0
 10
15.70883866029398
 20
-13.16457895610387
 30
0.0
 10
15.76309579107119
 20
-13.09187065372707
 30
0.0
 10
15.90428645994478
 20
-12.9026611403749
 30
0.0
 10
15.97807865589191
 20
-12.69504070243157
 30
0.0
 10
15.9618563358598
 20
-12.45593391957184
 30
0.0
 10
15.95704473661686
 20
-12.38503326300245
 30
0.0
 10
15.97386104697946
 20
-12.31266497845522
 30
0.0
 10
15.98076826631386
 20
-12.24096840259946
 30
0.0
 10
15.99817162786771
 20
-12.23281838340295
 30
0.0
 10
16.01557637724936
 20
-12.22466905812037
 30
0.0
 10
16.0329797388032
 20
-12.21651903892373
 30
0.0
  0
SPLINE
  5
6C
330
41
100
AcDbEntity
  8
Layer 1
370
     0
100
AcDbSpline
210
0.0
220
0.0
230
1.0
 70
    11
 71
     3
 72
    50
 73
    46
 74
     0
 42
0.0000000001
 43
0.0000000001
 12
1.0
 22
0.0
 32
0.0
 13
1.0
 23
0.0
 33
0.0
 40
0.0
 40
0.0
 40
0.0
 40
0.0
 40
1.0
 40
1.0
 40
1.0
 40
2.0
 40
2.0
 40
2.0
 40
3.0
 40
3.0
 40
3.0
 40
4.0
 40
4.0
 40
4.0
 40
5.0
 40
5.0
 40
5.0
 40
6.0
 40
6.0
 40
6.0
 40
7.0
 40
7.0
 40
7.0
 40
8.0
 40
8.0
 40
8.0
 40
9.0
 40
9.0
 40
9.0
 40
10.0
 40
10.0
 40
10.0
 40
11.0
 40
11.0
 40
11.0
 40
12.0
 40
12.0
 40
12.0
 40
13.0
 40
13.0
 40
13.0
 40
14.0
 40
14.0
 40
14.0
 40
15.0
 40
15.0
 40
15.0
 40
15.0
 10
15.27592518424573
 20
-6.246875622988637
 30
0.0
 10
15.82609762528943
 20
-5.937342473735837
 30
0.0
 10
16.40231404423717
 20
-6.297951158362094
 30
0.0
 10
16.5383850160795
 20
-6.654314477518443
 30
0.0
 10
16.58301756054291
 20
-6.771206362040838
 30
0.0
 10
16.58257761910645
 20
-6.929023902772186
 30
0.0
 10
16.54399877983432
 20
-7.049279188149911
 30
0.0
 10
16.44956541990085
 20
-7.343632623061747
 30
0.0
 10
16.2578800216194
 20
-7.581046255913845
 30
0.0
 10
16.01113532804899
 20
-7.76808312472766
 30
0.0
 10
15.76319987816189
 20
-7.956023469488069
 30
0.0
 10
15.50096147419372
 20
-7.970552639512543
 30
0.0
 10
15.22314470232764
 20
-7.825920157508655
 30
0.0
 10
14.92591915762822
 20
-7.671183594660018
 30
0.0
 10
14.69917653330781
 20
-7.458993733437884
 30
0.0
 10
14.64826337379579
 20
-7.114695148956809
 30
0.0
 10
14.61298548312451
 20
-6.876128925054418
 30
0.0
 10
14.75430660781844
 20
-6.65800540575225
 30
0.0
 10
14.95771776381661
 20
-6.589321457256449
 30
0.0
 10
15.17089714631369
 20
-6.517339335815427
 30
0.0
 10
15.51366842621819
 20
-6.61088066938226
 30
0.0
 10
15.62094613313573
 20
-6.775771621835993
 30
0.0
 10
15.68776726966627
 20
-6.878480599388785
 30
0.0
 10
15.71067614440059
 20
-6.990626112578347
 30
0.0
 10
15.61416659396595
 20
-7.087914234450965
 30
0.0
 10
15.52046184366682
 20
-7.182373963114092
 30
0.0
 10
15.412508264574
 20
-7.178882188180362
 30
0.0
 10
15.30611737966861
 20
-7.102630067324618
 30
0.0
 10
15.2708387950835
 20
-7.077345231268059
 30
0.0
 10
15.23674125202011
 20
-7.050413737437772
 30
0.0
 10
15.19326893166036
 20
-7.017556912494705
 30
0.0
 10
15.06450834315007
 20
-7.15123249342464
 30
0.0
 10
15.07987645512496
 20
-7.267028687839662
 30
0.0
 10
15.20073683345624
 20
-7.375452046668189
 30
0.0
 10
15.40152360694269
 20
-7.555576838750024
 30
0.0
 10
15.73760139300548
 20
-7.519737571703341
 30
0.0
 10
15.93646047357335
 20
-7.30053779188406
 30
0.0
 10
16.13447297913732
 20
-7.082272020224702
 30
0.0
 10
16.13735827328973
 20
-6.772082081430045
 30
0.0
 10
15.92521490430147
 20
-6.590173236614804
 30
0.0
 10
15.81813565676999
 20
-6.498354891354912
 30
0.0
 10
15.6847140483411
 20
-6.435816591647036
 30
0.0
 10
15.55911284998855
 20
-6.367566686319113
 30
0.0
 10
15.48149024910598
 20
-6.325387821538981
 30
0.0
 10
15.39617353048416
 20
-6.297370352396404
 30
0.0
 10
15.27592518424573
 20
-6.246875622988637
 30
0.0
  0
SPLINE
  5
6D
330
41
100
AcDbEntity
  8
Layer 1
370
     0
100
AcDbSpline
210
0.0
220
0.0
230
1.0
 70
    11
 71
     3
 72
    50
 73
    46
 74
     0
 42
0.0000000001
 43
0.0000000001
 12
1.0
 22
0.0
 32
0.0
 13
1.0
 23
0.0
 33
0.0
 40
0.0
 40
0.0
 40
0.0
 40
0.0
 40
1.0
 40
1.0
 40
1.0
 40
2.0
 40
2.0
 40
2.0
 40
3.0
 40
3.0
 40
3.0
 40
4.0
 40
4.0
 40
4.0
 40
5.0
 40
5.0
 40
5.0
 40
6.0
 40
6.0
 40
6.0
 40
7.0
 40
7.0
 40
7.0
 40
8.0
 40
8.0
 40
8.0
 40
9.0
 40
9.0
 40
9.0
 40
10.0
 40
10.0
 40
10.0
 40
11.0
 40
11.0
 40
11.0
 40
12.0
 40
12.0
 40
12.0
 40
13.0
 40
13.0
 40
13.0
 40
14.0
 40
14.0
 40
14.0
 40
15.0
 40
15.0
 40
15.0
 40
15.0
 10
15.18803265708761
 20
-22.74175013059301
 30
0.0
 10
15.2156282265561
 20
-22.7302117296394
 30
0.0
 10
15.23094290715784
 20
-22.7269961324528
 30
0.0
 10
15.24239109929967
 20
-22.7185456485213
 30
0.0
 10
15.42860568009732
 20
-22.58105631659053
 30
0.0
 10
15.56557457657494
 20
-22.58088145027829
 30
0.0
 10
15.64615186300355
 20
-22.71884125585868
 30
0.0
 10
15.72215625658351
 20
-22.8489667730842
 30
0.0
 10
15.65206817323498
 20
-23.01389762558924
 30
0.0
 10
15.47947095954776
 20
-23.11107194557611
 30
0.0
 10
15.23664410406891
 20
-23.24778686955258
 30
0.0
 10
14.93808555069536
 20
-23.22788402999574
 30
0.0
 10
14.78301521524284
 20
-23.06464771532604
 30
0.0
 10
14.60848059384195
 20
-22.88091734642473
 30
0.0
 10
14.60053389142916
 20
-22.60236363795702
 30
0.0
 10
14.75610592665844
 20
-22.35075321985643
 30
0.0
 10
14.91685247812016
 20
-22.09077836315274
 30
0.0
 10
15.15442779291974
 20
-21.92578089490954
 30
0.0
 10
15.4425866581111
 20
-21.86651092984755
 30
0.0
 10
15.58531226461468
 20
-21.83715281897758
 30
0.0
 10
15.76740638445121
 20
-21.86672465534031
 30
0.0
 10
15.89758325130812
 20
-21.93483092048309
 30
0.0
 10
16.22508009761925
 20
-22.1061679864598
 30
0.0
 10
16.43445752565244
 20
-22.39677498002277
 30
0.0
 10
16.55444357242238
 20
-22.74379995236453
 30
0.0
 10
16.58482451243622
 20
-22.83167304993249
 30
0.0
 10
16.58529082260234
 20
-22.94015816710135
 30
0.0
 10
16.56704782518408
 20
-23.03278041165792
 30
0.0
 10
16.49198021541972
 20
-23.41391125403029
 30
0.0
 10
15.82301109609512
 20
-23.85751933168415
 30
0.0
 10
15.29475106937147
 20
-23.51849102355877
 30
0.0
 10
15.37577939985941
 20
-23.48242554056843
 30
0.0
 10
15.44305435610513
 20
-23.45667717000164
 30
0.0
 10
15.50638094204613
 20
-23.42341093583538
 30
0.0
 10
15.63328392294555
 20
-23.35674939951056
 30
0.0
 10
15.76816413847106
 20
-23.29944459871968
 30
0.0
 10
15.88154828803905
 20
-23.21409318440086
 30
0.0
 10
16.11811465197342
 20
-23.03602098974633
 30
0.0
 10
16.14898827088303
 20
-22.74716265930586
 30
0.0
 10
15.97307692423008
 20
-22.51022852098464
 30
0.0
 10
15.79617466847428
 20
-22.27196900704267
 30
0.0
 10
15.48081854041446
 20
-22.20524085497982
 30
0.0
 10
15.24727764124781
 20
-22.35665287615349
 30
0.0
 10
15.0883255512286
 20
-22.45970742284719
 30
0.0
 10
15.07115950824151
 20
-22.55498319430098
 30
0.0
 10
15.18803265708761
 20
-22.74175013059301
 30
0.0
  0
SPLINE
  5
6E
330
41
100
AcDbEntity
  8
Layer 1
370
     0
100
AcDbSpline
210
0.0
220
0.0
230
1.0
 70
    11
 71
     3
 72
    47
 73
    43
 74
     0
 42
0.0000000001
 43
0.0000000001
 12
1.0
 22
0.0
 32
0.0
 13
1.0
 23
0.0
 33
0.0
 40
0.0
 40
0.0
 40
0.0
 40
0.0
 40
1.0
 40
1.0
 40
1.0
 40
2.0
 40
2.0
 40
2.0
 40
3.0
 40
3.0
 40
3.0
 40
4.0
 40
4.0
 40
4.0
 40
5.0
 40
5.0
 40
5.0
 40
6.0
 40
6.0
 40
6.0
 40
7.0
 40
7.0
 40
7.0
 40
8.0
 40
8.0
 40
8.0
 40
9.0
 40
9.0
 40
9.0
 40
10.0
 40
10.0
 40
10.0
 40
11.0
 40
11.0
 40
11.0
 40
12.0
 40
12.0
 40
12.0
 40
13.0
 40
13.0
 40
13.0
 40
14.0
 40
14.0
 40
14.0
 40
14.0
 10
5.81084904070709
 20
-7.014146325491631
 30
0.0
 10
5.768655777212762
 20
-7.047155811500963
 30
0.0
 10
5.740029225111443
 20
-7.070070237546826
 30
0.0
 10
5.710864716230107
 20
-7.092276871376362
 30
0.0
 10
5.589990980055572
 20
-7.184315534311369
 30
0.0
 10
5.468093894301564
 20
-7.191472562663278
 30
0.0
 10
5.373231695554607
 20
-7.064713221948903
 30
0.0
 10
5.278951517122839
 20
-6.938731064844609
 30
0.0
 10
5.328996069863595
 20
-6.818578478729654
 30
0.0
 10
5.432116364902845
 20
-6.721345176058071
 30
0.0
 10
5.62811547917711
 20
-6.536534383155974
 30
0.0
 10
6.005922473788588
 20
-6.513600874476928
 30
0.0
 10
6.187843982533217
 20
-6.670794586578326
 30
0.0
 10
6.386796047568613
 20
-6.842703784596462
 30
0.0
 10
6.413252557308745
 20
-7.136919130634784
 30
0.0
 10
6.259503087036354
 20
-7.396109864589068
 30
0.0
 10
6.10369130454145
 20
-7.658779189112352
 30
0.0
 10
5.871079382658756
 20
-7.831672704050949
 30
0.0
 10
5.583119844245965
 20
-7.893315854779388
 30
0.0
 10
5.433879773696655
 20
-7.925263652464262
 30
0.0
 10
5.243621235949323
 20
-7.899064237838071
 30
0.0
 10
5.106978999457925
 20
-7.829859506932135
 30
0.0
 10
4.776814227535283
 20
-7.662643595830575
 30
0.0
 10
4.570457493611496
 20
-7.368678752723715
 30
0.0
 10
4.449247122438007
 20
-7.022664812989024
 30
0.0
 10
4.418530067860644
 20
-6.93497837827034
 30
0.0
 10
4.415847830274266
 20
-6.825212295972626
 30
0.0
 10
4.436560901092389
 20
-6.73381342168802
 30
0.0
 10
4.547304014214189
 20
-6.245148818155035
 30
0.0
 10
5.241126268386857
 20
-5.968530782616051
 30
0.0
 10
5.692684691501779
 20
-6.23714035740175
 30
0.0
 10
5.498345592844593
 20
-6.343566284960991
 30
0.0
 10
5.299029916905887
 20
-6.432109356435669
 30
0.0
 10
5.123067914535476
 20
-6.554286783420348
 30
0.0
 10
4.902323829248193
 20
-6.70755918786073
 30
0.0
 10
4.862431237413795
 20
-6.965294784288007
 30
0.0
 10
4.993383553095813
 20
-7.199165986488919
 30
0.0
 10
5.15328803999436
 20
-7.484744879660428
 30
0.0
 10
5.526039004178407
 20
-7.579553647034209
 30
0.0
 10
5.775066327646379
 20
-7.397986207876234
 30
0.0
 10
5.916434465009567
 20
-7.294913619420165
 30
0.0
 10
5.928846503610526
 20
-7.205563179079219
 30
0.0
 10
5.81084904070709
 20
-7.014146325491631
 30
0.0
  0
SPLINE
  5
6F
330
41
100
AcDbEntity
  8
Layer 1
370
     0
100
AcDbSpline
210
0.0
220
0.0
230
1.0
 70
    11
 71
     3
 72
    23
 73
    19
 74
     0
 42
0.0000000001
 43
0.0000000001
 12
1.0
 22
0.0
 32
0.0
 13
1.0
 23
0.0
 33
0.0
 40
0.0
 40
0.0
 40
0.0
 40
0.0
 40
1.0
 40
1.0
 40
1.0
 40
2.0
 40
2.0
 40
2.0
 40
3.0
 40
3.0
 40
3.0
 40
4.0
 40
4.0
 40
4.0
 40
5.0
 40
5.0
 40
5.0
 40
6.0
 40
6.0
 40
6.0
 40
6.0
 10
14.48276906317318
 20
-1.594190174648919
 30
0.0
 10
15.31013652919489
 20
-1.594190174648919
 30
0.0
 10
16.12860524288142
 20
-1.594190174648919
 30
0.0
 10
16.96882399502655
 20
-1.594190174648919
 30
0.0
 10
16.96882399502655
 20
-2.014960286898848
 30
0.0
 10
16.96882399502655
 20
-2.425394420940115
 30
0.0
 10
16.96882399502655
 20
-2.879337826258357
 30
0.0
 10
16.89773389995216
 20
-2.826297647049127
 30
0.0
 10
16.84111607395953
 20
-2.796595354866136
 30
0.0
 10
16.80088433168811
 20
-2.752084071863439
 30
0.0
 10
16.42878547312688
 20
-2.340412515793049
 30
0.0
 10
15.95243437241582
 20
-2.170276094406825
 30
0.0
 10
15.41318413674916
 20
-2.107731115777275
 30
0.0
 10
15.17039891610649
 20
-2.079571567755967
 30
0.0
 10
14.9312289870785
 20
-1.989906090487345
 30
0.0
 10
14.70042210882569
 20
-1.901910343630946
 30
0.0
 10
14.58903365574212
 20
-1.859443244349036
 30
0.0
 10
14.47666609009241
 20
-1.773398956963486
 30
0.0
 10
14.48276906317318
 20
-1.594190174648919
 30
0.0
  0
SPLINE
  5
70
330
41
100
AcDbEntity
  8
Layer 1
370
     0
100
AcDbSpline
210
0.0
220
0.0
230
1.0
 70
    11
 71
     3
 72
    26
 73
    22
 74
     0
 42
0.0000000001
 43
0.0000000001
 12
1.0
 22
0.0
 32
0.0
 13
1.0
 23
0.0
 33
0.0
 40
0.0
 40
0.0
 40
0.0
 40
0.0
 40
1.0
 40
1.0
 40
1.0
 40
2.0
 40
2.0
 40
2.0
 40
3.0
 40
3.0
 40
3.0
 40
4.0
 40
4.0
 40
4.0
 40
5.0
 40
5.0
 40
5.0
 40
6.0
 40
6.0
 40
6.0
 40
7.0
 40
7.0
 40
7.0
 40
7.0
 10
4.029292836130542
 20
-2.876105401658719
 30
0.0
 10
4.029292836130542
 20
-2.435662959388033
 30
0.0
 10
4.029292836130542
 20
-2.025650725020823
 30
0.0
 10
4.029292836130542
 20
-1.594637055224675
 30
0.0
 10
4.868061047928389
 20
-1.594637055224675
 30
0.0
 10
5.690414899011968
 20
-1.594637055224675
 30
0.0
 10
6.512768836834807
 20
-1.594637055224675
 30
0.0
 10
6.525356435662068
 20
-1.612779044795417
 30
0.0
 10
6.53794368753222
 20
-1.630921077735709
 30
0.0
 10
6.550531286359481
 20
-1.649063110676034
 30
0.0
 10
6.481760251664475
 20
-1.727137189314055
 30
0.0
 10
6.427680762855289
 20
-1.837426222502953
 30
0.0
 10
6.341274599351302
 20
-1.876832207188623
 30
0.0
 10
6.137731079269554
 20
-1.969659069617486
 30
0.0
 10
5.922687150022366
 20
-2.073993974265179
 30
0.0
 10
5.70530455732705
 20
-2.092781347167406
 30
0.0
 10
5.083070021261014
 20
-2.146558029282095
 30
0.0
 10
4.543393635697657
 20
-2.347254507217315
 30
0.0
 10
4.124912051613677
 20
-2.826247685245634
 30
0.0
 10
4.111501080530018
 20
-2.841597755458217
 30
0.0
 10
4.086571962105691
 20
-2.846884859226915
 30
0.0
 10
4.029292836130542
 20
-2.876105401658719
 30
0.0
  0
SPLINE
  5
71
330
41
100
AcDbEntity
  8
Layer 1
370
     0
100
AcDbSpline
210
0.0
220
0.0
230
1.0
 70
    11
 71
     3
 72
    26
 73
    22
 74
     0
 42
0.0000000001
 43
0.0000000001
 12
1.0
 22
0.0
 32
0.0
 13
1.0
 23
0.0
 33
0.0
 40
0.0
 40
0.0
 40
0.0
 40
0.0
 40
1.0
 40
1.0
 40
1.0
 40
2.0
 40
2.0
 40
2.0
 40
3.0
 40
3.0
 40
3.0
 40
4.0
 40
4.0
 40
4.0
 40
5.0
 40
5.0
 40
5.0
 40
6.0
 40
6.0
 40
6.0
 40
7.0
 40
7.0
 40
7.0
 40
7.0
 10
4.031725958613253
 20
-28.16843052433864
 30
0.0
 10
4.031725958613253
 20
-27.73885893781371
 30
0.0
 10
4.031725958613253
 20
-27.32856705612963
 30
0.0
 10
4.031725958613253
 20
-26.88600262503786
 30
0.0
 10
4.100260238546742
 20
-26.93385215451573
 30
0.0
 10
4.148385772293214
 20
-26.95561607125312
 30
0.0
 10
4.180465717213599
 20
-26.99165796116953
 30
0.0
 10
4.566371207911809
 20
-27.42522371631913
 30
0.0
 10
5.063321230598296
 20
-27.60153059391653
 30
0.0
 10
5.627508998395695
 20
-27.66409387452616
 30
0.0
 10
5.869098084888538
 20
-27.69088450382706
 30
0.0
 10
6.106548842136315
 20
-27.79113563821303
 30
0.0
 10
6.334642516893203
 20
-27.88524424642387
 30
0.0
 10
6.422686664246649
 20
-27.92157202888258
 30
0.0
 10
6.479574075804155
 20
-28.03341707733719
 30
0.0
 10
6.550655843911283
 20
-28.11085509711211
 30
0.0
 10
6.53905325591835
 20
-28.13004598096911
 30
0.0
 10
6.527450667925546
 20
-28.14923964048177
 30
0.0
 10
6.515848079932677
 20
-28.16843052433864
 30
0.0
 10
5.69749160682564
 20
-28.16843052433864
 30
0.0
 10
4.879135220457831
 20
-28.16843052433864
 30
0.0
 10
4.031725958613253
 20
-28.16843052433864
 30
0.0
  0
SPLINE
  5
72
330
41
100
AcDbEntity
  8
Layer 1
370
     0
100
AcDbSpline
210
0.0
220
0.0
230
1.0
 70
    11
 71
     3
 72
    29
 73
    25
 74
     0
 42
0.0000000001
 43
0.0000000001
 12
1.0
 22
0.0
 32
0.0
 13
1.0
 23
0.0
 33
0.0
 40
0.0
 40
0.0
 40
0.0
 40
0.0
 40
1.0
 40
1.0
 40
1.0
 40
2.0
 40
2.0
 40
2.0
 40
3.0
 40
3.0
 40
3.0
 40
4.0
 40
4.0
 40
4.0
 40
5.0
 40
5.0
 40
5.0
 40
6.0
 40
6.0
 40
6.0
 40
7.0
 40
7.0
 40
7.0
 40
8.0
 40
8.0
 40
8.0
 40
8.0
 10
14.45081432634888
 20
-28.10060460042672
 30
0.0
 10
14.53850908803492
 20
-28.01656329562193
 30
0.0
 10
14.61237830842913
 20
-27.90068799501798
 30
0.0
 10
14.71686439957603
 20
-27.85530879915792
 30
0.0
 10
14.91561106608592
 20
-27.7689942322937
 30
0.0
 10
15.12852259780307
 20
-27.68681816815304
 30
0.0
 10
15.34148062175413
 20
-27.66716097413012
 30
0.0
 10
15.93174324662589
 20
-27.61267762740934
 30
0.0
 10
16.44767242267908
 20
-27.42299208909595
 30
0.0
 10
16.84700601546144
 20
-26.96845347909781
 30
0.0
 10
16.8616961735194
 20
-26.95173570451428
 30
0.0
 10
16.88102584016378
 20
-26.93823213928956
 30
0.0
 10
16.90026946148009
 20
-26.92668818702439
 30
0.0
 10
16.91251843030574
 20
-26.91934102625365
 30
0.0
 10
16.92860335537814
 20
-26.91839175198705
 30
0.0
 10
16.96685466727166
 20
-26.90822730062979
 30
0.0
 10
16.96685466727166
 20
-27.32325445102376
 30
0.0
 10
16.96685466727166
 20
-27.73238610860426
 30
0.0
 10
16.96685466727166
 20
-28.16795866286115
 30
0.0
 10
16.14264589749374
 20
-28.16795866286115
 30
0.0
 10
15.31851345824906
 20
-28.16795866286115
 30
0.0
 10
14.49438101900425
 20
-28.16795866286115
 30
0.0
 10
14.47985878811917
 20
-28.14550638349779
 30
0.0
 10
14.46533655723409
 20
-28.12305410413436
 30
0.0
 10
14.45081432634888
 20
-28.10060460042672
 30
0.0
  0
SPLINE
  5
73
330
41
100
AcDbEntity
  8
Layer 1
370
     0
100
AcDbSpline
210
0.0
220
0.0
230
1.0
 70
    11
 71
     3
 72
    47
 73
    43
 74
     0
 42
0.0000000001
 43
0.0000000001
 12
1.0
 22
0.0
 32
0.0
 13
1.0
 23
0.0
 33
0.0
 40
0.0
 40
0.0
 40
0.0
 40
0.0
 40
1.0
 40
1.0
 40
1.0
 40
2.0
 40
2.0
 40
2.0
 40
3.0
 40
3.0
 40
3.0
 40
4.0
 40
4.0
 40
4.0
 40
5.0
 40
5.0
 40
5.0
 40
6.0
 40
6.0
 40
6.0
 40
7.0
 40
7.0
 40
7.0
 40
8.0
 40
8.0
 40
8.0
 40
9.0
 40
9.0
 40
9.0
 40
10.0
 40
10.0
 40
10.0
 40
11.0
 40
11.0
 40
11.0
 40
12.0
 40
12.0
 40
12.0
 40
13.0
 40
13.0
 40
13.0
 40
14.0
 40
14.0
 40
14.0
 40
14.0
 10
10.59662063345653
 20
-7.275426434311917
 30
0.0
 10
10.79546583574548
 20
-7.538739710969243
 30
0.0
 10
10.63800496677814
 20
-7.739668042898858
 30
0.0
 10
10.50796410705312
 20
-7.974241486004528
 30
0.0
 10
10.35149692284415
 20
-7.746609957930079
 30
0.0
 10
10.21637314352657
 20
-7.543346605600671
 30
0.0
 10
10.42563885141587
 20
-7.275606158021765
 30
0.0
 10
10.17909053548975
 20
-7.322697933479719
 30
0.0
 10
10.08412008616862
 20
-7.469901366622305
 30
0.0
 10
10.14857705791383
 20
-7.658277489335497
 30
0.0
 10
10.16558974592085
 20
-7.707997116875037
 30
0.0
 10
10.2102028607939
 20
-7.753147321135745
 30
0.0
 10
10.21273842232166
 20
-7.801924613548107
 30
0.0
 10
10.21788865156621
 20
-7.901003727293526
 30
0.0
 10
10.23938263578188
 20
-8.036029664745973
 30
0.0
 10
10.18639953099406
 20
-8.091290888990793
 30
0.0
 10
10.13007870016654
 20
-8.150032785546339
 30
0.0
 10
9.981496460030161
 20
-8.170355443035417
 30
0.0
 10
9.89883535004712
 20
-8.139276425600356
 30
0.0
 10
9.82121066742292
 20
-8.110090405386938
 30
0.0
 10
9.73134395511243
 20
-7.995004084930064
 30
0.0
 10
9.725720476562497
 20
-7.91235060800041
 30
0.0
 10
9.693602669962921
 20
-7.440264302349456
 30
0.0
 10
9.813186940562986
 20
-7.010955015292858
 30
0.0
 10
10.1700710421295
 20
-6.677013443286636
 30
0.0
 10
10.38775600782314
 20
-6.47332229301472
 30
0.0
 10
10.62138225840412
 20
-6.473696659584022
 30
0.0
 10
10.83684947515319
 20
-6.678160483025427
 30
0.0
 10
11.18394661454442
 20
-7.007533325666778
 30
0.0
 10
11.29845490469133
 20
-7.429457286686016
 30
0.0
 10
11.28842299089618
 20
-7.893312385209707
 30
0.0
 10
11.28580069012616
 20
-8.014518332681865
 30
0.0
 10
11.23974909166061
 20
-8.13120343085089
 30
0.0
 10
11.10672370809012
 20
-8.145548713681872
 30
0.0
 10
11.00960004382061
 20
-8.15602334456923
 30
0.0
 10
10.86163677491648
 20
-8.148433313920258
 30
0.0
 10
10.81850169673041
 20
-8.089130734903147
 30
0.0
 10
10.76688768414137
 20
-8.018173177391
 30
0.0
 10
10.77300592332879
 20
-7.873153491409868
 30
0.0
 10
10.80620207218727
 20
-7.778471016372761
 30
0.0
 10
10.9143686828589
 20
-7.469951328425799
 30
0.0
 10
10.88782439300576
 20
-7.368990320081678
 30
0.0
 10
10.59662063345653
 20
-7.275426434311917
 30
0.0
  0
SPLINE
  5
74
330
41
100
AcDbEntity
  8
Layer 1
370
     0
100
AcDbSpline
210
0.0
220
0.0
230
1.0
 70
    11
 71
     3
 72
    44
 73
    40
 74
     0
 42
0.0000000001
 43
0.0000000001
 12
1.0
 22
0.0
 32
0.0
 13
1.0
 23
0.0
 33
0.0
 40
0.0
 40
0.0
 40
0.0
 40
0.0
 40
1.0
 40
1.0
 40
1.0
 40
2.0
 40
2.0
 40
2.0
 40
3.0
 40
3.0
 40
3.0
 40
4.0
 40
4.0
 40
4.0
 40
5.0
 40
5.0
 40
5.0
 40
6.0
 40
6.0
 40
6.0
 40
7.0
 40
7.0
 40
7.0
 40
8.0
 40
8.0
 40
8.0
 40
9.0
 40
9.0
 40
9.0
 40
10.0
 40
10.0
 40
10.0
 40
11.0
 40
11.0
 40
11.0
 40
12.0
 40
12.0
 40
12.0
 40
13.0
 40
13.0
 40
13.0
 40
13.0
 10
10.40986479978741
 20
-22.50019036196397
 30
0.0
 10
10.20673606676183
 20
-22.22780971188468
 30
0.0
 10
10.35861439810164
 20
-22.0245609317479
 30
0.0
 10
10.49370348172248
 20
-21.80417108952576
 30
0.0
 10
10.69017758008689
 20
-22.12432493854973
 30
0.0
 10
10.73468105655787
 20
-22.05458103651425
 30
0.0
 10
10.62238565795776
 20
-22.49133463229301
 30
0.0
 10
10.84008242018827
 20
-22.42540586908619
 30
0.0
 10
10.91972153497322
 20
-22.29000799376318
 30
0.0
 10
10.8506895886377
 20
-22.09825181626018
 30
0.0
 10
10.8328337951966
 20
-22.04864807234824
 30
0.0
 10
10.8024806117402
 20
-22.00355060554671
 30
0.0
 10
10.78454709993812
 20
-21.95396767905292
 30
0.0
 10
10.71644499827885
 20
-21.76568523472125
 30
0.0
 10
10.7621531093455
 20
-21.65258975335122
 30
0.0
 10
10.91943078503337
 20
-21.61220535001357
 30
0.0
 10
11.11110369286389
 20
-21.56298742225098
 30
0.0
 10
11.26869779330736
 20
-21.65124772379603
 30
0.0
 10
11.28132286348722
 20
-21.84321207548029
 30
0.0
 10
11.31303473043332
 20
-22.32537401150442
 30
0.0
 10
11.18957356266407
 20
-22.76064818276828
 30
0.0
 10
10.82462479331538
 20
-23.09854124769187
 30
0.0
 10
10.61087431964771
 20
-23.29644966616527
 30
0.0
 10
10.37272444410778
 20
-23.28787427772499
 30
0.0
 10
10.15709068801362
 20
-23.07864395944646
 30
0.0
 10
9.813486017470115
 20
-22.74524468118256
 30
0.0
 10
9.694189721154109
 20
-22.3228120812471
 30
0.0
 10
9.725073748772735
 20
-21.85866831452539
 30
0.0
 10
9.730644489863359
 20
-21.77493788316463
 30
0.0
 10
9.818543262247044
 20
-21.65263138818753
 30
0.0
 10
9.893859987114906
 20
-21.62892867590854
 30
0.0
 10
9.984713445044628
 20
-21.60033664602571
 30
0.0
 10
10.13401249827849
 20
-21.62566034126275
 30
0.0
 10
10.19883655049682
 20
-21.68859833539868
 30
0.0
 10
10.24906342912468
 20
-21.73736383127407
 30
0.0
 10
10.23521707041471
 20
-21.88941008978679
 30
0.0
 10
10.20321861701235
 20
-21.97886392330444
 30
0.0
 10
10.08971025684944
 20
-22.29618382780739
 30
0.0
 10
10.10775826445123
 20
-22.37671947939963
 30
0.0
 10
10.40986479978741
 20
-22.50019036196397
 30
0.0
  0
SPLINE
  5
75
330
41
100
AcDbEntity
  8
Layer 1
370
     0
100
AcDbSpline
210
0.0
220
0.0
230
1.0
 70
    11
 71
     3
 72
    50
 73
    46
 74
     0
 42
0.0000000001
 43
0.0000000001
 12
1.0
 22
0.0
 32
0.0
 13
1.0
 23
0.0
 33
0.0
 40
0.0
 40
0.0
 40
0.0
 40
0.0
 40
1.0
 40
1.0
 40
1.0
 40
2.0
 40
2.0
 40
2.0
 40
3.0
 40
3.0
 40
3.0
 40
4.0
 40
4.0
 40
4.0
 40
5.0
 40
5.0
 40
5.0
 40
6.0
 40
6.0
 40
6.0
 40
7.0
 40
7.0
 40
7.0
 40
8.0
 40
8.0
 40
8.0
 40
9.0
 40
9.0
 40
9.0
 40
10.0
 40
10.0
 40
10.0
 40
11.0
 40
11.0
 40
11.0
 40
12.0
 40
12.0
 40
12.0
 40
13.0
 40
13.0
 40
13.0
 40
14.0
 40
14.0
 40
14.0
 40
15.0
 40
15.0
 40
15.0
 40
15.0
 10
6.240469027729262
 20
-2.177029785282549
 30
0.0
 10
6.446638491629201
 20
-1.959735059439534
 30
0.0
 10
6.847526104674583
 20
-2.007624835925752
 30
0.0
 10
6.76958846686456
 20
-1.596700278209094
 30
0.0
 10
7.051896943648396
 20
-1.596700278209094
 30
0.0
 10
7.306655996240478
 20
-1.596700278209094
 30
0.0
 10
7.620327301259885
 20
-1.596700278209094
 30
0.0
 10
7.535034175711806
 20
-1.699827599127033
 30
0.0
 10
7.480865172004709
 20
-1.757230068304647
 30
0.0
 10
7.435989410706219
 20
-1.821156456105381
 30
0.0
 10
7.319090240087545
 20
-1.987680361532671
 30
0.0
 10
7.279245007879411
 20
-2.168900670243355
 30
0.0
 10
7.378626668101544
 20
-2.35537017767393
 30
0.0
 10
7.458847976680103
 20
-2.505888958131588
 30
0.0
 10
7.605638184072867
 20
-2.549469876022564
 30
0.0
 10
7.765598878000276
 20
-2.542847681838005
 30
0.0
 10
7.898227689755453
 20
-2.53735691432867
 30
0.0
 10
7.995066155396532
 20
-2.479211436802412
 30
0.0
 10
8.020129979863887
 20
-2.316475434081707
 30
0.0
 10
7.962754746808316
 20
-2.307160420123299
 30
0.0
 10
7.905550216581505
 20
-2.312777393230015
 30
0.0
 10
7.867442197915986
 20
-2.288463602989893
 30
0.0
 10
7.796544317002351
 20
-2.243229608621202
 30
0.0
 10
7.687871149156291
 20
-2.18339288935064
 30
0.0
 10
7.684452235185963
 20
-2.124442992092324
 30
0.0
 10
7.679937284151347
 20
-2.046585241124328
 30
0.0
 10
7.743017530644424
 20
-1.938855622754848
 30
0.0
 10
7.810357367843276
 20
-1.888671853530342
 30
0.0
 10
7.920078692692018
 20
-1.806904244481253
 30
0.0
 10
8.065708675981067
 20
-1.806005539192875
 30
0.0
 10
8.167634224698379
 20
-1.906729402448819
 30
0.0
 10
8.338723910356295
 20
-2.075802053768699
 30
0.0
 10
8.409331041329992
 20
-2.293231745872527
 30
0.0
 10
8.364343212930727
 20
-2.53089536122068
 30
0.0
 10
8.323851252932702
 20
-2.74480838422818
 30
0.0
 10
8.155126772930991
 20
-2.836048005264172
 30
0.0
 10
7.960828441717784
 20
-2.881870091694929
 30
0.0
 10
7.642147078069254
 20
-2.957025828529337
 30
0.0
 10
7.355781286492551
 20
-2.917445324488373
 30
0.0
 10
7.088449901179825
 20
-2.69660183602951
 30
0.0
 10
6.910436689210003
 20
-2.54954447177084
 30
0.0
 10
6.689313726912794
 20
-2.454877262840382
 30
0.0
 10
6.488396150649205
 20
-2.335232274770701
 30
0.0
 10
6.414599097304562
 20
-2.291286705105569
 30
0.0
 10
6.343420007767707
 20
-2.24294423651434
 30
0.0
 10
6.240469027729262
 20
-2.177029785282549
 30
0.0
  0
SPLINE
  5
76
330
41
100
AcDbEntity
  8
Layer 1
370
     0
100
AcDbSpline
210
0.0
220
0.0
230
1.0
 70
    11
 71
     3
 72
    53
 73
    49
 74
     0
 42
0.0000000001
 43
0.0000000001
 12
1.0
 22
0.0
 32
0.0
 13
1.0
 23
0.0
 33
0.0
 40
0.0
 40
0.0
 40
0.0
 40
0.0
 40
1.0
 40
1.0
 40
1.0
 40
2.0
 40
2.0
 40
2.0
 40
3.0
 40
3.0
 40
3.0
 40
4.0
 40
4.0
 40
4.0
 40
5.0
 40
5.0
 40
5.0
 40
6.0
 40
6.0
 40
6.0
 40
7.0
 40
7.0
 40
7.0
 40
8.0
 40
8.0
 40
8.0
 40
9.0
 40
9.0
 40
9.0
 40
10.0
 40
10.0
 40
10.0
 40
11.0
 40
11.0
 40
11.0
 40
12.0
 40
12.0
 40
12.0
 40
13.0
 40
13.0
 40
13.0
 40
14.0
 40
14.0
 40
14.0
 40
15.0
 40
15.0
 40
15.0
 40
16.0
 40
16.0
 40
16.0
 40
16.0
 10
12.98408982437395
 20
-27.44192761262388
 30
0.0
 10
13.01572952427044
 20
-27.45620003449146
 30
0.0
 10
13.02910610324469
 20
-27.46742201068952
 30
0.0
 10
13.04252848053862
 20
-27.46748029946027
 30
0.0
 10
13.17139454396753
 20
-27.46801877667579
 30
0.0
 10
13.30699434824628
 20
-27.48967999415035
 30
0.0
 10
13.32071510853344
 20
-27.63700902571568
 30
0.0
 10
13.32787074905749
 20
-27.71383917688133
 30
0.0
 10
13.26404246333961
 20
-27.82599232312425
 30
0.0
 10
13.1975072193515
 20
-27.87465511973674
 30
0.0
 10
13.07985758080935
 20
-27.96070322364896
 30
0.0
 10
12.92806876436751
 20
-27.96190785824457
 30
0.0
 10
12.82309623955038
 20
-27.84790890092787
 30
0.0
 10
12.66182925263544
 20
-27.67277890136851
 30
0.0
 10
12.58823065867687
 20
-27.45586140448984
 30
0.0
 10
12.6434058375935
 20
-27.21868439629042
 30
0.0
 10
12.69242114248639
 20
-27.00798714394799
 30
0.0
 10
12.86308164237391
 20
-26.9230853858607
 30
0.0
 10
13.05838996532324
 20
-26.88030697943848
 30
0.0
 10
13.36994760848884
 20
-26.81206470716398
 30
0.0
 10
13.64896415755299
 20
-26.85274749349473
 30
0.0
 10
13.90971342221098
 20
-27.06450227067798
 30
0.0
 10
14.08925255092955
 20
-27.21030746723632
 30
0.0
 10
14.30749681125683
 20
-27.30835473095668
 30
0.0
 10
14.50800116177053
 20
-27.42848233616978
 30
0.0
 10
14.58225342265825
 20
-27.4729705465341
 30
0.0
 10
14.65524969931904
 20
-27.51955715264562
 30
0.0
 10
14.76441901563029
 20
-27.5872664990161
 30
0.0
 10
14.68355444883171
 20
-27.65207528512778
 30
0.0
 10
14.64011890591066
 20
-27.71254572130174
 30
0.0
 10
14.58480771986237
 20
-27.72673487349678
 30
0.0
 10
14.35587093967136
 20
-27.78548162744996
 30
0.0
 10
14.19540958683798
 20
-27.89575010343839
 30
0.0
 10
14.2255754135312
 20
-28.17257735402955
 30
0.0
 10
13.9470022754732
 20
-28.17257735402955
 30
0.0
 10
13.69682548356776
 20
-28.17257735402955
 30
0.0
 10
13.38439073318509
 20
-28.17257735402955
 30
0.0
 10
13.46778947368354
 20
-28.06923413913783
 30
0.0
 10
13.51892329782787
 20
-28.01133951150005
 30
0.0
 10
13.56393610712906
 20
-27.94902603990784
 30
0.0
 10
13.67766998932167
 20
-27.79157141616591
 30
0.0
 10
13.71932356125101
 20
-27.61906996260203
 30
0.0
 10
13.63865675992452
 20
-27.43580174038306
 30
0.0
 10
13.56920083217322
 20
-27.27800571098386
 30
0.0
 10
13.42675626081446
 20
-27.22419129729889
 30
0.0
 10
13.26693469663138
 20
-27.22269799450526
 30
0.0
 10
13.12917751392075
 20
-27.22141009023717
 30
0.0
 10
13.01599806896421
 20
-27.26952608266705
 30
0.0
 10
12.98408982437395
 20
-27.44192761262388
 30
0.0
  0
SPLINE
  5
77
330
41
100
AcDbEntity
  8
Layer 1
370
     0
100
AcDbSpline
210
0.0
220
0.0
230
1.0
 70
    11
 71
     3
 72
    50
 73
    46
 74
     0
 42
0.0000000001
 43
0.0000000001
 12
1.0
 22
0.0
 32
0.0
 13
1.0
 23
0.0
 33
0.0
 40
0.0
 40
0.0
 40
0.0
 40
0.0
 40
1.0
 40
1.0
 40
1.0
 40
2.0
 40
2.0
 40
2.0
 40
3.0
 40
3.0
 40
3.0
 40
4.0
 40
4.0
 40
4.0
 40
5.0
 40
5.0
 40
5.0
 40
6.0
 40
6.0
 40
6.0
 40
7.0
 40
7.0
 40
7.0
 40
8.0
 40
8.0
 40
8.0
 40
9.0
 40
9.0
 40
9.0
 40
10.0
 40
10.0
 40
10.0
 40
11.0
 40
11.0
 40
11.0
 40
12.0
 40
12.0
 40
12.0
 40
13.0
 40
13.0
 40
13.0
 40
14.0
 40
14.0
 40
14.0
 40
15.0
 40
15.0
 40
15.0
 40
15.0
 10
7.554667776660855
 20
-28.17421499092212
 30
0.0
 10
7.310130076368885
 20
-28.17421499092212
 30
0.0
 10
7.065592029119901
 20
-28.17421499092212
 30
0.0
 10
6.786969623172364
 20
-28.17421499092212
 30
0.0
 10
6.84274295590302
 20
-27.79505208847666
 30
0.0
 10
6.491782450664413
 20
-27.78716089917884
 30
0.0
 10
6.240638169251512
 20
-27.61874243522349
 30
0.0
 10
6.332055085298551
 20
-27.54502379415369
 30
0.0
 10
6.391543459772453
 20
-27.48635475856167
 30
0.0
 10
6.460720087163957
 20
-27.4432210682034
 30
0.0
 10
6.690993692555667
 20
-27.29964194755675
 30
0.0
 10
6.933772667972846
 20
-27.17441823838614
 30
0.0
 10
7.154883486776138
 20
-27.01826817284674
 30
0.0
 10
7.432684298621732
 20
-26.8220848244221
 30
0.0
 10
7.871408609983019
 20
-26.78581810638992
 30
0.0
 10
8.16495502298547
 20
-26.96312699571316
 30
0.0
 10
8.324074346263663
 20
-27.05923685171985
 30
0.0
 10
8.393747469077468
 20
-27.20431205081585
 30
0.0
 10
8.374651998386895
 20
-27.38534864581163
 30
0.0
 10
8.353617385198008
 20
-27.58477118449669
 30
0.0
 10
8.309634344180216
 20
-27.79314521297623
 30
0.0
 10
8.115908838922362
 20
-27.88609082142764
 30
0.0
 10
8.026261403416076
 20
-27.92909405596563
 30
0.0
 10
7.881147345139587
 20
-27.89576953302868
 30
0.0
 10
7.777776373690319
 20
-27.85498682309082
 30
0.0
 10
7.722712914917811
 20
-27.83326176553401
 30
0.0
 10
7.662656745364524
 20
-27.71133831105041
 30
0.0
 10
7.677714677809341
 20
-27.65366018456112
 30
0.0
 10
7.696020474438968
 20
-27.58354156899941
 30
0.0
 10
7.785213396316045
 20
-27.52458386520925
 30
0.0
 10
7.855280662246425
 20
-27.47824706811524
 30
0.0
 10
7.89343100966205
 20
-27.45301635734588
 30
0.0
 10
7.955483569613778
 20
-27.46392190878848
 30
0.0
 10
8.01358428969103
 20
-27.45780991482652
 30
0.0
 10
8.012514968313184
 20
-27.30417181774104
 30
0.0
 10
7.9200093012982
 20
-27.24449244345589
 30
0.0
 10
7.800904525228978
 20
-27.22749710329734
 30
0.0
 10
7.642411459279474
 20
-27.20487550893323
 30
0.0
 10
7.487905275858077
 20
-27.2396711294178
 30
0.0
 10
7.398635676490902
 20
-27.38149881128603
 30
0.0
 10
7.210723782201841
 20
-27.68004834377827
 30
0.0
 10
7.400341316949372
 20
-27.90689991258693
 30
0.0
 10
7.58713843849775
 20
-28.12938537490053
 30
0.0
 10
7.576315115856718
 20
-28.14432950545963
 30
0.0
 10
7.565491446258803
 20
-28.15927086036302
 30
0.0
 10
7.554667776660855
 20
-28.17421499092212
 30
0.0
  0
SPLINE
  5
78
330
41
100
AcDbEntity
  8
Layer 1
370
     0
100
AcDbSpline
210
0.0
220
0.0
230
1.0
 70
    11
 71
     3
 72
    50
 73
    46
 74
     0
 42
0.0000000001
 43
0.0000000001
 12
1.0
 22
0.0
 32
0.0
 13
1.0
 23
0.0
 33
0.0
 40
0.0
 40
0.0
 40
0.0
 40
0.0
 40
1.0
 40
1.0
 40
1.0
 40
2.0
 40
2.0
 40
2.0
 40
3.0
 40
3.0
 40
3.0
 40
4.0
 40
4.0
 40
4.0
 40
5.0
 40
5.0
 40
5.0
 40
6.0
 40
6.0
 40
6.0
 40
7.0
 40
7.0
 40
7.0
 40
8.0
 40
8.0
 40
8.0
 40
9.0
 40
9.0
 40
9.0
 40
10.0
 40
10.0
 40
10.0
 40
11.0
 40
11.0
 40
11.0
 40
12.0
 40
12.0
 40
12.0
 40
13.0
 40
13.0
 40
13.0
 40
14.0
 40
14.0
 40
14.0
 40
15.0
 40
15.0
 40
15.0
 40
15.0
 10
13.38377523152243
 20
-1.594955171395436
 30
0.0
 10
13.69448213620062
 20
-1.594955171395436
 30
0.0
 10
13.94440773126069
 20
-1.594955171395436
 30
0.0
 10
14.22753710823264
 20
-1.594955171395436
 30
0.0
 10
14.14815543551858
 20
-1.995047298850682
 30
0.0
 10
14.54139230044557
 20
-1.966318654661325
 30
0.0
 10
14.75704687395782
 20
-2.162495150685833
 30
0.0
 10
14.66605879672426
 20
-2.229363907060261
 30
0.0
 10
14.60161500934372
 20
-2.283655473316568
 30
0.0
 10
14.53072823105325
 20
-2.32753867746657
 30
0.0
 10
14.30632826018589
 20
-2.466456084280825
 30
0.0
 10
14.07045095279159
 20
-2.588720077029269
 30
0.0
 10
13.85588513024722
 20
-2.741171581281478
 30
0.0
 10
13.57377719459129
 20
-2.941613306062363
 30
0.0
 10
13.14706245174723
 20
-2.980523489239661
 30
0.0
 10
12.84732771424967
 20
-2.807006666106713
 30
0.0
 10
12.68601562292887
 20
-2.713623024482209
 30
0.0
 10
12.61154894263436
 20
-2.570821954837993
 30
0.0
 10
12.62931244552174
 20
-2.389854924714523
 30
0.0
 10
12.64960457079768
 20
-2.183117665735166
 30
0.0
 10
12.69428846489234
 20
-1.969131955242658
 30
0.0
 10
12.90056479153866
 20
-1.873852714219217
 30
0.0
 10
12.98621944624813
 20
-1.834288690634271
 30
0.0
 10
13.12372196254386
 20
-1.864362226773832
 30
0.0
 10
13.21948486158166
 20
-1.905277387534448
 30
0.0
 10
13.27690277034428
 20
-1.929809673925677
 30
0.0
 10
13.3397005938649
 20
-2.045302020775291
 30
0.0
 10
13.32691592347951
 20
-2.10396767353695
 30
0.0
 10
13.31148813490582
 20
-2.174763549101744
 30
0.0
 10
13.22508405314379
 20
-2.237914835034251
 30
0.0
 10
13.15658225705651
 20
-2.286178457654268
 30
0.0
 10
13.11970489475921
 20
-2.312160070043313
 30
0.0
 10
13.05602163705436
 20
-2.300093600583264
 30
0.0
 10
12.9923356036938
 20
-2.306390435870301
 30
0.0
 10
12.9948281425575
 20
-2.48134140563371
 30
0.0
 10
13.10297948712242
 20
-2.530890330344617
 30
0.0
 10
13.23956326136464
 20
-2.542857396633118
 30
0.0
 10
13.44088018509926
 20
-2.560495821533289
 30
0.0
 10
13.61705452513467
 20
-2.447797258935551
 30
0.0
 10
13.66172245920872
 20
-2.270954332821346
 30
0.0
 10
13.70541405637274
 20
-2.097975553207741
 30
0.0
 10
13.66224011900609
 20
-1.940908306921379
 30
0.0
 10
13.55226031121568
 20
-1.801846479268917
 30
0.0
 10
13.50881435958571
 20
-1.746913042620325
 30
0.0
 10
13.46386261471099
 20
-1.693170275549354
 30
0.0
 10
13.38377523152243
 20
-1.594955171395436
 30
0.0
  0
SPLINE
  5
79
330
41
100
AcDbEntity
  8
Layer 1
370
     0
100
AcDbSpline
210
0.0
220
0.0
230
1.0
 70
    11
 71
     3
 72
    44
 73
    40
 74
     0
 42
0.0000000001
 43
0.0000000001
 12
1.0
 22
0.0
 32
0.0
 13
1.0
 23
0.0
 33
0.0
 40
0.0
 40
0.0
 40
0.0
 40
0.0
 40
1.0
 40
1.0
 40
1.0
 40
2.0
 40
2.0
 40
2.0
 40
3.0
 40
3.0
 40
3.0
 40
4.0
 40
4.0
 40
4.0
 40
5.0
 40
5.0
 40
5.0
 40
6.0
 40
6.0
 40
6.0
 40
7.0
 40
7.0
 40
7.0
 40
8.0
 40
8.0
 40
8.0
 40
9.0
 40
9.0
 40
9.0
 40
10.0
 40
10.0
 40
10.0
 40
11.0
 40
11.0
 40
11.0
 40
12.0
 40
12.0
 40
12.0
 40
13.0
 40
13.0
 40
13.0
 40
13.0
 10
12.2512008226917
 20
-22.0677307056309
 30
0.0
 10
12.2512008226917
 20
-22.20883671700415
 30
0.0
 10
12.28368848542002
 20
-22.32041807816247
 30
0.0
 10
12.24189404896115
 20
-22.37903992760687
 30
0.0
 10
12.20160679357484
 20
-22.43554672736951
 30
0.0
 10
12.06508685941493
 20
-22.47993223847107
 30
0.0
 10
12.00605629466127
 20
-22.45286126793931
 30
0.0
 10
11.92500020761587
 20
-22.41568968613262
 30
0.0
 10
11.84758994439833
 20
-22.31499305899868
 30
0.0
 10
11.82096932401208
 20
-22.22587785548252
 30
0.0
 10
11.75920265660268
 20
-22.0191123195103
 30
0.0
 10
11.84780505771896
 20
-21.85328354236992
 30
0.0
 10
12.0370249797802
 20
-21.75358753913398
 30
0.0
 10
12.25972624932845
 20
-21.63625085577761
 30
0.0
 10
12.50910573411962
 20
-21.65901123292929
 30
0.0
 10
12.6671356125159
 20
-21.8262306136006
 30
0.0
 10
12.87325858418203
 20
-22.04434441810752
 30
0.0
 10
12.94219615822199
 20
-22.31406598997809
 30
0.0
 10
12.81365900999961
 20
-22.58096888343441
 30
0.0
 10
12.71491922016964
 20
-22.78599824673492
 30
0.0
 10
12.5696483373433
 20
-22.98661986870415
 30
0.0
 10
12.39817942771851
 20
-23.13502307904467
 30
0.0
 10
11.99125441645941
 20
-23.48721077108178
 30
0.0
 10
11.49316854339627
 20
-23.48091835949607
 30
0.0
 10
10.96958133312806
 20
-23.45328115519128
 30
0.0
 10
11.18099886813769
 20
-23.14930105222382
 30
0.0
 10
11.36775400789281
 20
-22.88078133929307
 30
0.0
 10
11.56380065527176
 20
-22.59890239523649
 30
0.0
 10
11.59584768264973
 20
-22.61993492668368
 30
0.0
 10
11.6549448631413
 20
-22.66354047851944
 30
0.0
 10
11.71836512746388
 20
-22.69953240663239
 30
0.0
 10
12.04254853472317
 20
-22.88350425758391
 30
0.0
 10
12.49518304487672
 20
-22.74249955764551
 30
0.0
 10
12.60289861148882
 20
-22.42646200609915
 30
0.0
 10
12.64619606553633
 20
-22.29942718155151
 30
0.0
 10
12.62921044017306
 20
-22.1860666250574
 30
0.0
 10
12.52715582346339
 20
-22.09490298759751
 30
0.0
 10
12.42713715024638
 20
-22.00556018030992
 30
0.0
 10
12.3239028798429
 20
-22.01388853538842
 30
0.0
 10
12.2512008226917
 20
-22.0677307056309
 30
0.0
  0
SPLINE
  5
7A
330
41
100
AcDbEntity
  8
Layer 1
370
     0
100
AcDbSpline
210
0.0
220
0.0
230
1.0
 70
    11
 71
     3
 72
    44
 73
    40
 74
     0
 42
0.0000000001
 43
0.0000000001
 12
1.0
 22
0.0
 32
0.0
 13
1.0
 23
0.0
 33
0.0
 40
0.0
 40
0.0
 40
0.0
 40
0.0
 40
1.0
 40
1.0
 40
1.0
 40
2.0
 40
2.0
 40
2.0
 40
3.0
 40
3.0
 40
3.0
 40
4.0
 40
4.0
 40
4.0
 40
5.0
 40
5.0
 40
5.0
 40
6.0
 40
6.0
 40
6.0
 40
7.0
 40
7.0
 40
7.0
 40
8.0
 40
8.0
 40
8.0
 40
9.0
 40
9.0
 40
9.0
 40
10.0
 40
10.0
 40
10.0
 40
11.0
 40
11.0
 40
11.0
 40
12.0
 40
12.0
 40
12.0
 40
13.0
 40
13.0
 40
13.0
 40
13.0
 10
10.01498891013999
 20
-6.341120585288121
 30
0.0
 10
9.823216772616377
 20
-6.616809470064689
 30
0.0
 10
9.636590700853741
 20
-6.885100538353033
 30
0.0
 10
9.440085376361997
 20
-7.167594290158187
 30
0.0
 10
9.408968193660412
 20
-7.147277183980613
 30
0.0
 10
9.34978080435697
 20
-7.104243417229426
 30
0.0
 10
9.286629778642181
 20
-7.068143932456134
 30
0.0
 10
8.974648847974724
 20
-6.889809438333237
 30
0.0
 10
8.529680699003235
 20
-7.015869313798571
 30
0.0
 10
8.408695416163171
 20
-7.315789326317483
 30
0.0
 10
8.35554126158977
 20
-7.44755803174705
 30
0.0
 10
8.367096316477916
 20
-7.569907549388286
 30
0.0
 10
8.476104644755841
 20
-7.668851349915943
 30
0.0
 10
8.573999247409875
 20
-7.75770841744729
 30
0.0
 10
8.677258498715123
 20
-7.753734372326933
 30
0.0
 10
8.792408659254216
 20
-7.669349580123085
 30
0.0
 10
8.745637125078362
 20
-7.546681555984526
 30
0.0
 10
8.64260894711438
 20
-7.414960730616662
 30
0.0
 10
8.831257084091083
 20
-7.325289008122607
 30
0.0
 10
8.9851717058807
 20
-7.252126886030759
 30
0.0
 10
9.127402898703677
 20
-7.321200467202511
 30
0.0
 10
9.18002863781362
 20
-7.498875049170818
 30
0.0
 10
9.243133171294595
 20
-7.711927445417333
 30
0.0
 10
9.170941834801466
 20
-7.897321126026941
 30
0.0
 10
8.983139231957525
 20
-8.004512787616308
 30
0.0
 10
8.751570783158494
 20
-8.13668396312964
 30
0.0
 10
8.483960444442827
 20
-8.103849343432584
 30
0.0
 10
8.316888520483296
 20
-7.922764868375166
 30
0.0
 10
8.123681715893914
 20
-7.713354826386825
 30
0.0
 10
8.07943221192408
 20
-7.394479860749753
 30
0.0
 10
8.209885603484963
 20
-7.116142653430556
 30
0.0
 10
8.37233189713677
 20
-6.769547213816148
 30
0.0
 10
8.633658498190835
 20
-6.508369110344705
 30
0.0
 10
8.998966714959193
 20
-6.412931309986548
 30
0.0
 10
9.301175602601132
 20
-6.333977782171917
 30
0.0
 10
9.624926007563367
 20
-6.336862729367316
 30
0.0
 10
9.939458459779328
 20
-6.306916526435275
 30
0.0
 10
9.963716997122203
 20
-6.304607527808091
 30
0.0
 10
9.990561751710267
 20
-6.329468382448772
 30
0.0
 10
10.01498891013999
 20
-6.341120585288121
 30
0.0
  0
SPLINE
  5
7B
330
41
100
AcDbEntity
  8
Layer 1
370
     0
100
AcDbSpline
210
0.0
220
0.0
230
1.0
 70
    11
 71
     3
 72
    38
 73
    34
 74
     0
 42
0.0000000001
 43
0.0000000001
 12
1.0
 22
0.0
 32
0.0
 13
1.0
 23
0.0
 33
0.0
 40
0.0
 40
0.0
 40
0.0
 40
0.0
 40
1.0
 40
1.0
 40
1.0
 40
2.0
 40
2.0
 40
2.0
 40
3.0
 40
3.0
 40
3.0
 40
4.0
 40
4.0
 40
4.0
 40
5.0
 40
5.0
 40
5.0
 40
6.0
 40
6.0
 40
6.0
 40
7.0
 40
7.0
 40
7.0
 40
8.0
 40
8.0
 40
8.0
 40
9.0
 40
9.0
 40
9.0
 40
10.0
 40
10.0
 40
10.0
 40
11.0
 40
11.0
 40
11.0
 40
11.0
 10
9.439893162201347
 20
-22.59638487547106
 30
0.0
 10
9.64032395783775
 20
-22.88651861972869
 30
0.0
 10
9.825306841396307
 20
-23.15429306909051
 30
0.0
 10
10.00962426148877
 20
-23.42110297807907
 30
0.0
 10
9.331624546180906
 20
-23.65497973159155
 30
0.0
 10
8.417387729102026
 20
-23.23643582536209
 30
0.0
 10
8.181291491860371
 20
-22.57943672146032
 30
0.0
 10
8.080745791007828
 20
-22.29964090704434
 30
0.0
 10
8.13145042938173
 20
-22.0393329716506
 30
0.0
 10
8.34024427579351
 20
-21.82348271440783
 30
0.0
 10
8.50507381686373
 20
-21.65308104441906
 30
0.0
 10
8.771295980747244
 20
-21.63569572462752
 30
0.0
 10
8.990129374007495
 20
-21.76661369156971
 30
0.0
 10
9.170420011520356
 20
-21.87447289836705
 30
0.0
 10
9.241780733030263
 20
-22.04891592312805
 30
0.0
 10
9.18344442917128
 20
-22.25338460396709
 30
0.0
 10
9.147765456244153
 20
-22.37843483465338
 30
0.0
 10
9.081689930239582
 20
-22.47615595882299
 30
0.0
 10
8.931435357513655
 20
-22.46773045579316
 30
0.0
 10
8.739112946237555
 20
-22.45694980885935
 30
0.0
 10
8.68987350714282
 20
-22.33744256270639
 30
0.0
 10
8.785222139560014
 20
-22.10158537881621
 30
0.0
 10
8.690164257082662
 20
-22.01021911848669
 30
0.0
 10
8.587191245276664
 20
-22.0041321054264
 30
0.0
 10
8.485905485209722
 20
-22.08748643543301
 30
0.0
 10
8.381984586965043
 20
-22.17300994040837
 30
0.0
 10
8.356099515352597
 20
-22.28652177014099
 30
0.0
 10
8.396134186065629
 20
-22.4154662458447
 30
0.0
 10
8.494631799931492
 20
-22.7327112076424
 30
0.0
 10
8.946472819497396
 20
-22.88333494258324
 30
0.0
 10
9.273352429361058
 20
-22.70529050448622
 30
0.0
 10
9.338384655760553
 20
-22.66986897362982
 30
0.0
 10
9.397819772339739
 20
-22.62417196518637
 30
0.0
 10
9.439893162201347
 20
-22.59638487547106
 30
0.0
  0
SPLINE
  5
7C
330
41
100
AcDbEntity
  8
Layer 1
370
     0
100
AcDbSpline
210
0.0
220
0.0
230
1.0
 70
    11
 71
     3
 72
    44
 73
    40
 74
     0
 42
0.0000000001
 43
0.0000000001
 12
1.0
 22
0.0
 32
0.0
 13
1.0
 23
0.0
 33
0.0
 40
0.0
 40
0.0
 40
0.0
 40
0.0
 40
1.0
 40
1.0
 40
1.0
 40
2.0
 40
2.0
 40
2.0
 40
3.0
 40
3.0
 40
3.0
 40
4.0
 40
4.0
 40
4.0
 40
5.0
 40
5.0
 40
5.0
 40
6.0
 40
6.0
 40
6.0
 40
7.0
 40
7.0
 40
7.0
 40
8.0
 40
8.0
 40
8.0
 40
9.0
 40
9.0
 40
9.0
 40
10.0
 40
10.0
 40
10.0
 40
11.0
 40
11.0
 40
11.0
 40
12.0
 40
12.0
 40
12.0
 40
13.0
 40
13.0
 40
13.0
 40
13.0
 10
11.55706552659388
 20
-7.156918424228963
 30
0.0
 10
11.36821684848924
 20
-6.885879109790973
 30
0.0
 10
11.18140203213551
 20
-6.617758397374249
 30
0.0
 10
10.96556773491335
 20
-6.307988623468809
 30
0.0
 10
11.15029595205686
 20
-6.307988623468809
 30
0.0
 10
11.31055676376237
 20
-6.302891478640514
 30
0.0
 10
11.47039012448217
 20
-6.308987165624946
 30
0.0
 10
11.87730611486008
 20
-6.324506550838271
 30
0.0
 10
12.24756957105653
 20
-6.439805902874043
 30
0.0
 10
12.53535788620506
 20
-6.743419966239462
 30
0.0
 10
12.74931930970989
 20
-6.969146006641371
 30
0.0
 10
12.90990556705206
 20
-7.222836778726711
 30
0.0
 10
12.85933936450856
 20
-7.555750317234407
 30
0.0
 10
12.79358685544203
 20
-7.988650608917793
 30
0.0
 10
12.40653692718226
 20
-8.205073345159
 30
0.0
 10
12.0424645711368
 20
-8.014768141699397
 30
0.0
 10
11.85169513925287
 20
-7.915050627131373
 30
0.0
 10
11.76155988224855
 20
-7.752136288528743
 30
0.0
 10
11.81970570673182
 20
-7.545654563356944
 30
0.0
 10
11.84504952547306
 20
-7.455655313484316
 30
0.0
 10
11.91989647060523
 20
-7.353387665195842
 30
0.0
 10
12.00033011684859
 20
-7.313976823112632
 30
0.0
 10
12.05753430011852
 20
-7.285948251347016
 30
0.0
 10
12.19663559412617
 20
-7.329437919555208
 30
0.0
 10
12.23539138145243
 20
-7.385282031507542
 30
0.0
 10
12.27724133102619
 20
-7.445584540508648
 30
0.0
 10
12.24486191887221
 20
-7.557402526319702
 30
0.0
 10
12.24486191887221
 20
-7.69024541052456
 30
0.0
 10
12.30594299931122
 20
-7.75451363767877
 30
0.0
 10
12.40820648411612
 20
-7.76281631794161
 30
0.0
 10
12.51143659103596
 20
-7.68425207584595
 30
0.0
 10
12.62779554965424
 20
-7.595696860877419
 30
0.0
 10
12.65049902586316
 20
-7.473292524035117
 30
0.0
 10
12.60465976506232
 20
-7.337757947666455
 30
0.0
 10
12.52201183944424
 20
-7.093392684987893
 30
0.0
 10
12.19802897331281
 20
-6.927279403133164
 30
0.0
 10
11.91007689447492
 20
-7.000027952518209
 30
0.0
 10
11.78227390719839
 20
-7.03231646194642
 30
0.0
 10
11.66530014083134
 20
-7.107464565727567
 30
0.0
 10
11.55706552659388
 20
-7.156918424228963
 30
0.0
  0
SPLINE
  5
7D
330
41
100
AcDbEntity
  8
Layer 1
370
     0
100
AcDbSpline
210
0.0
220
0.0
230
1.0
 70
    11
 71
     3
 72
    26
 73
    22
 74
     0
 42
0.0000000001
 43
0.0000000001
 12
1.0
 22
0.0
 32
0.0
 13
1.0
 23
0.0
 33
0.0
 40
0.0
 40
0.0
 40
0.0
 40
0.0
 40
1.0
 40
1.0
 40
1.0
 40
2.0
 40
2.0
 40
2.0
 40
3.0
 40
3.0
 40
3.0
 40
4.0
 40
4.0
 40
4.0
 40
5.0
 40
5.0
 40
5.0
 40
6.0
 40
6.0
 40
6.0
 40
7.0
 40
7.0
 40
7.0
 40
7.0
 10
14.55832102486602
 20
-21.28422692742981
 30
0.0
 10
14.74153442788386
 20
-21.40151087332686
 30
0.0
 10
14.89581508927543
 20
-21.50027425623077
 30
0.0
 10
15.02443342542853
 20
-21.58260853274917
 30
0.0
 10
14.81509832614548
 20
-21.79714035351049
 30
0.0
 10
14.57184263185317
 20
-22.00040023627022
 30
0.0
 10
14.38759599098223
 20
-22.24763483308055
 30
0.0
 10
14.18565593253174
 20
-22.51861100135025
 30
0.0
 10
14.26083318069823
 20
-22.83777810475508
 30
0.0
 10
14.36787356904926
 20
-23.15740319135856
 30
0.0
 10
13.88343073791238
 20
-23.15740319135856
 30
0.0
 10
13.41648911019437
 20
-23.15740319135856
 30
0.0
 10
12.91159316574816
 20
-23.15740319135856
 30
0.0
 10
13.17332986993931
 20
-22.87215876470498
 30
0.0
 10
13.25398973212644
 20
-22.53583949659179
 30
0.0
 10
13.22540186572718
 20
-22.12838711074017
 30
0.0
 10
13.55527050987687
 20
-22.2483134809115
 30
0.0
 10
13.86066689119083
 20
-22.28617481317222
 30
0.0
 10
14.15269571441204
 20
-22.1012037261505
 30
0.0
 10
14.45243045190947
 20
-21.91135303632001
 30
0.0
 10
14.53041874543714
 20
-21.61062461406382
 30
0.0
 10
14.55832102486602
 20
-21.28422692742981
 30
0.0
  0
SPLINE
  5
7E
330
41
100
AcDbEntity
  8
Layer 1
370
     0
100
AcDbSpline
210
0.0
220
0.0
230
1.0
 70
    11
 71
     3
 72
    23
 73
    19
 74
     0
 42
0.0000000001
 43
0.0000000001
 12
1.0
 22
0.0
 32
0.0
 13
1.0
 23
0.0
 33
0.0
 40
0.0
 40
0.0
 40
0.0
 40
0.0
 40
1.0
 40
1.0
 40
1.0
 40
2.0
 40
2.0
 40
2.0
 40
3.0
 40
3.0
 40
3.0
 40
4.0
 40
4.0
 40
4.0
 40
5.0
 40
5.0
 40
5.0
 40
6.0
 40
6.0
 40
6.0
 40
6.0
 10
13.22986373234564
 20
-7.637077030715454
 30
0.0
 10
13.24843078757269
 20
-7.241134595346
 30
0.0
 10
13.18593689835674
 20
-6.89845144251152
 30
0.0
 10
12.90414608137024
 20
-6.61037168350903
 30
0.0
 10
13.4076861179826
 20
-6.61037168350903
 30
0.0
 10
13.86833117063113
 20
-6.61037168350903
 30
0.0
 10
14.3634928903614
 20
-6.61037168350903
 30
0.0
 10
14.07593426072618
 20
-7.365208489122034
 30
0.0
 10
14.47282458253422
 20
-7.806228267788794
 30
0.0
 10
15.07398373796733
 20
-8.151017449423687
 30
0.0
 10
14.89647153186043
 20
-8.265194742622432
 30
0.0
 10
14.73871574946948
 20
-8.366663695968775
 30
0.0
 10
14.56344627320872
 20
-8.479398342091315
 30
0.0
 10
14.5257979725268
 20
-8.167154418041465
 30
0.0
 10
14.45890605677484
 20
-7.860596424795968
 30
0.0
 10
14.16217388488502
 20
-7.670546581665369
 30
0.0
 10
13.87382211161892
 20
-7.485864162841704
 30
0.0
 10
13.57541136191425
 20
-7.510634114756582
 30
0.0
 10
13.22986373234564
 20
-7.637077030715454
 30
0.0
  0
SPLINE
  5
7F
330
41
100
AcDbEntity
  8
Layer 1
370
     0
100
AcDbSpline
210
0.0
220
0.0
230
1.0
 70
    11
 71
     3
 72
    23
 73
    19
 74
     0
 42
0.0000000001
 43
0.0000000001
 12
1.0
 22
0.0
 32
0.0
 13
1.0
 23
0.0
 33
0.0
 40
0.0
 40
0.0
 40
0.0
 40
0.0
 40
1.0
 40
1.0
 40
1.0
 40
2.0
 40
2.0
 40
2.0
 40
3.0
 40
3.0
 40
3.0
 40
4.0
 40
4.0
 40
4.0
 40
5.0
 40
5.0
 40
5.0
 40
6.0
 40
6.0
 40
6.0
 40
6.0
 10
6.630438598881244
 20
-23.156786995782
 30
0.0
 10
6.93438747572158
 20
-22.39221318979739
 30
0.0
 10
6.521215157282695
 20
-21.96691056181617
 30
0.0
 10
5.932558596219434
 20
-21.61520722170741
 30
0.0
 10
6.104032883677239
 20
-21.50408384374792
 30
0.0
 10
6.261038892058643
 20
-21.40233663091254
 30
0.0
 10
6.4394863206748
 20
-21.28669309756384
 30
0.0
 10
6.477500660958701
 20
-21.5935265746425
 30
0.0
 10
6.543810035960322
 20
-21.90061541205036
 30
0.0
 10
6.83572471033865
 20
-22.09089355286638
 30
0.0
 10
7.128500878870512
 20
-22.28173237614399
 30
0.0
 10
7.434480147892074
 20
-22.26072204994281
 30
0.0
 10
7.779083707548731
 20
-22.12400435031055
 30
0.0
 10
7.753985881298363
 20
-22.51862626745696
 30
0.0
 10
7.81634168164067
 20
-22.86166262248548
 30
0.0
 10
8.097354968060106
 20
-23.156786995782
 30
0.0
 10
7.595704806056751
 20
-23.156786995782
 30
0.0
 10
7.130246072423335
 20
-23.156786995782
 30
0.0
 10
6.630438598881244
 20
-23.156786995782
 30
0.0
  0
SPLINE
  5
80
330
41
100
AcDbEntity
  8
Layer 1
370
     0
100
AcDbSpline
210
0.0
220
0.0
230
1.0
 70
    11
 71
     3
 72
    23
 73
    19
 74
     0
 42
0.0000000001
 43
0.0000000001
 12
1.0
 22
0.0
 32
0.0
 13
1.0
 23
0.0
 33
0.0
 40
0.0
 40
0.0
 40
0.0
 40
0.0
 40
1.0
 40
1.0
 40
1.0
 40
2.0
 40
2.0
 40
2.0
 40
3.0
 40
3.0
 40
3.0
 40
4.0
 40
4.0
 40
4.0
 40
5.0
 40
5.0
 40
5.0
 40
6.0
 40
6.0
 40
6.0
 40
6.0
 10
5.941744628924742
 20
-8.159853055590577
 30
0.0
 10
6.746009965180464
 20
-7.561010184880998
 30
0.0
 10
6.768253376448667
 20
-7.513513857597426
 30
0.0
 10
6.667956790699857
 20
-6.639585113323013
 30
0.0
 10
6.897610037031265
 20
-6.639585113323013
 30
0.0
 10
7.12840234309132
 20
-6.646623482391604
 30
0.0
 10
7.358566310080833
 20
-6.637610234256718
 30
0.0
 10
7.589806190630638
 20
-6.628555351285593
 30
0.0
 10
7.820419813851658
 20
-6.603513732064249
 30
0.0
 10
8.108854162876275
 20
-6.580982693468872
 30
0.0
 10
7.835050642268024
 20
-6.900102263768956
 30
0.0
 10
7.741298011907229
 20
-7.239130571894331
 30
0.0
 10
7.778051163609614
 20
-7.617485758516541
 30
0.0
 10
6.96758605327883
 20
-7.378206885000283
 30
0.0
 10
6.513775705958198
 20
-7.724584435638316
 30
0.0
 10
6.428805597348068
 20
-8.47429599290853
 30
0.0
 10
6.270651334878472
 20
-8.372017935910948
 30
0.0
 10
6.112273979078076
 20
-8.269855068627034
 30
0.0
 10
5.941744628924742
 20
-8.159853055590577
 30
0.0
  0
SPLINE
  5
81
330
41
100
AcDbEntity
  8
Layer 1
370
     0
100
AcDbSpline
210
0.0
220
0.0
230
1.0
 70
    11
 71
     3
 72
    20
 73
    16
 74
     0
 42
0.0000000001
 43
0.0000000001
 12
1.0
 22
0.0
 32
0.0
 13
1.0
 23
0.0
 33
0.0
 40
0.0
 40
0.0
 40
0.0
 40
0.0
 40
1.0
 40
1.0
 40
1.0
 40
2.0
 40
2.0
 40
2.0
 40
3.0
 40
3.0
 40
3.0
 40
4.0
 40
4.0
 40
4.0
 40
5.0
 40
5.0
 40
5.0
 40
5.0
 10
9.6470528412902
 20
-21.19116751709256
 30
0.0
 10
9.150116783621572
 20
-21.24717886230384
 30
0.0
 10
8.969891027061808
 20
-21.11169771730841
 30
0.0
 10
8.928928246457303
 20
-20.66342931364998
 30
0.0
 10
8.900471876749146
 20
-20.3520257193786
 30
0.0
 10
8.92617826552275
 20
-20.04241103523809
 30
0.0
 10
9.083441369017935
 20
-19.76222385336138
 30
0.0
 10
9.136479986920781
 20
-19.66772942900138
 30
0.0
 10
9.217731757696603
 20
-19.58907012069621
 30
0.0
 10
9.297636641519595
 20
-19.48866354958828
 30
0.0
 10
9.59823946535304
 20
-19.76843299527455
 30
0.0
 10
9.875961864923664
 20
-20.02690761004538
 30
0.0
 10
10.17947010641361
 20
-20.30938193226031
 30
0.0
 10
9.923175769234712
 20
-20.54297973236978
 30
0.0
 10
9.67046410971525
 20
-20.80294209862268
 30
0.0
 10
9.6470528412902
 20
-21.19116751709256
 30
0.0
  0
SPLINE
  5
82
330
41
100
AcDbEntity
  8
Layer 1
370
     0
100
AcDbSpline
210
0.0
220
0.0
230
1.0
 70
    11
 71
     3
 72
    20
 73
    16
 74
     0
 42
0.0000000001
 43
0.0000000001
 12
1.0
 22
0.0
 32
0.0
 13
1.0
 23
0.0
 33
0.0
 40
0.0
 40
0.0
 40
0.0
 40
0.0
 40
1.0
 40
1.0
 40
1.0
 40
2.0
 40
2.0
 40
2.0
 40
3.0
 40
3.0
 40
3.0
 40
4.0
 40
4.0
 40
4.0
 40
5.0
 40
5.0
 40
5.0
 40
5.0
 10
9.64194424688192
 20
-8.579217862008116
 30
0.0
 10
9.686180566486861
 20
-8.953264536992066
 30
0.0
 10
9.902384025923771
 20
-9.218781684315005
 30
0.0
 10
10.18227074306559
 20
-9.451617566921145
 30
0.0
 10
9.895504563146876
 20
-9.720428029791698
 30
0.0
 10
9.619120723561892
 20
-9.979505655774167
 30
0.0
 10
9.310274202150286
 20
-10.26901348966014
 30
0.0
 10
9.236674914277861
 20
-10.1857243875637
 30
0.0
 10
9.141263482649293
 20
-10.11144090054879
 30
0.0
 10
9.090183436835213
 20
-10.01393419578587
 30
0.0
 10
8.90016967722935
 20
-9.651214971918508
 30
0.0
 10
8.86798005053728
 20
-9.26334414347066
 30
0.0
 10
8.97620460302268
 20
-8.871696341460742
 30
0.0
 10
9.052759617312148
 20
-8.594654671462893
 30
0.0
 10
9.237704335604116
 20
-8.518326913987963
 30
0.0
 10
9.64194424688192
 20
-8.579217862008116
 30
0.0
  0
SPLINE
  5
83
330
41
100
AcDbEntity
  8
Layer 1
370
     0
100
AcDbSpline
210
0.0
220
0.0
230
1.0
 70
    11
 71
     3
 72
    20
 73
    16
 74
     0
 42
0.0000000001
 43
0.0000000001
 12
1.0
 22
0.0
 32
0.0
 13
1.0
 23
0.0
 33
0.0
 40
0.0
 40
0.0
 40
0.0
 40
0.0
 40
1.0
 40
1.0
 40
1.0
 40
2.0
 40
2.0
 40
2.0
 40
3.0
 40
3.0
 40
3.0
 40
4.0
 40
4.0
 40
4.0
 40
5.0
 40
5.0
 40
5.0
 40
5.0
 10
11.67625912364715
 20
-19.51541670753665
 30
0.0
 10
11.85748793280358
 20
-19.58228225455908
 30
0.0
 10
11.94945651043093
 20
-19.74296080245491
 30
0.0
 10
11.981880333077
 20
-19.90605972216497
 30
0.0
 10
12.0355129413103
 20
-20.17584097063421
 30
0.0
 10
12.08109545395421
 20
-20.45860534887501
 30
0.0
 10
12.05773553516042
 20
-20.72966617464505
 30
0.0
 10
12.02175401575658
 20
-21.14718586390272
 30
0.0
 10
11.80537013869596
 20
-21.27084271540224
 30
0.0
 10
11.36336014484025
 20
-21.18088232471023
 30
0.0
 10
11.32473689507616
 20
-20.8122905071894
 30
0.0
 10
11.09526163766963
 20
-20.54653118390215
 30
0.0
 10
10.82320365757122
 20
-20.31162049862279
 30
0.0
 10
11.11568144310988
 20
-20.03863475558995
 30
0.0
 10
11.39317901456477
 20
-19.77963137839875
 30
0.0
 10
11.67625912364715
 20
-19.51541670753665
 30
0.0
  0
SPLINE
  5
84
330
41
100
AcDbEntity
  8
Layer 1
370
     0
100
AcDbSpline
210
0.0
220
0.0
230
1.0
 70
    11
 71
     3
 72
    20
 73
    16
 74
     0
 42
0.0000000001
 43
0.0000000001
 12
1.0
 22
0.0
 32
0.0
 13
1.0
 23
0.0
 33
0.0
 40
0.0
 40
0.0
 40
0.0
 40
0.0
 40
1.0
 40
1.0
 40
1.0
 40
2.0
 40
2.0
 40
2.0
 40
3.0
 40
3.0
 40
3.0
 40
4.0
 40
4.0
 40
4.0
 40
5.0
 40
5.0
 40
5.0
 40
5.0
 10
10.82424522239149
 20
-9.455556916344625
 30
0.0
 10
11.09565231121646
 20
-9.216807499162703
 30
0.0
 10
11.32942220198253
 20
-8.953740561953229
 30
0.0
 10
11.35948394158506
 20
-8.583762304385152
 30
0.0
 10
11.82062583661299
 20
-8.497560151578849
 30
0.0
 10
12.013804537688
 20
-8.628622452620013
 30
0.0
 10
12.06957717650467
 20
-9.060030829337695
 30
0.0
 10
12.1088908706368
 20
-9.364125428104932
 30
0.0
 10
12.08441444431742
 20
-9.666372827970378
 30
0.0
 10
11.94976599604704
 20
-9.945096545352857
 30
0.0
 10
11.89136550514879
 20
-10.06598537415552
 30
0.0
 10
11.78988822483516
 20
-10.16606511179893
 30
0.0
 10
11.70557421185302
 20
-10.27880947271658
 30
0.0
 10
11.3953301477712
 20
-9.989009501062935
 30
0.0
 10
11.12187531891653
 20
-9.733573535424677
 30
0.0
 10
10.82424522239149
 20
-9.455556916344625
 30
0.0
  0
SPLINE
  5
85
330
41
100
AcDbEntity
  8
Layer 1
370
     0
100
AcDbSpline
210
0.0
220
0.0
230
1.0
 70
    11
 71
     3
 72
    29
 73
    25
 74
     0
 42
0.0000000001
 43
0.0000000001
 12
1.0
 22
0.0
 32
0.0
 13
1.0
 23
0.0
 33
0.0
 40
0.0
 40
0.0
 40
0.0
 40
0.0
 40
1.0
 40
1.0
 40
1.0
 40
2.0
 40
2.0
 40
2.0
 40
3.0
 40
3.0
 40
3.0
 40
4.0
 40
4.0
 40
4.0
 40
5.0
 40
5.0
 40
5.0
 40
6.0
 40
6.0
 40
6.0
 40
7.0
 40
7.0
 40
7.0
 40
8.0
 40
8.0
 40
8.0
 40
8.0
 10
4.054826960769066
 20
-19.48824581339777
 30
0.0
 10
4.032670939287371
 20
-19.37213458205511
 30
0.0
 10
4.015600960010933
 20
-19.32345929499162
 30
0.0
 10
4.015311381050878
 20
-19.27468547214907
 30
0.0
 10
4.013065094895772
 20
-18.89632750987107
 30
0.0
 10
4.002023666430294
 20
-18.51733392242636
 30
0.0
 10
4.021359621669816
 20
-18.13995437880041
 30
0.0
 10
4.027181559605896
 20
-18.02632735935415
 30
0.0
 10
4.095459958774814
 20
-17.89175940510047
 30
0.0
 10
4.17825451708187
 20
-17.81099614973674
 30
0.0
 10
4.381504901894684
 20
-17.61272550818792
 30
0.0
 10
4.59865728864128
 20
-17.66645387654469
 30
0.0
 10
4.724322934250811
 20
-17.92472448061778
 30
0.0
 10
4.753852355124055
 20
-17.98541696925185
 30
0.0
 10
4.772551947913148
 20
-18.05175097819819
 30
0.0
 10
4.792615775503604
 20
-18.11660833828534
 30
0.0
 10
4.858052293510871
 20
-18.32813551169717
 30
0.0
 10
4.981661091470258
 20
-18.49269997764327
 30
0.0
 10
5.174343297122972
 20
-18.60526669659286
 30
0.0
 10
5.23089294607132
 20
-18.63830393915977
 30
0.0
 10
5.282144562106454
 20
-18.68040924906247
 30
0.0
 10
5.385472163934545
 20
-18.75346034492433
 30
0.0
 10
4.842761899896894
 20
-18.85074152765755
 30
0.0
 10
4.3996657572506
 20
-19.04020778916662
 30
0.0
 10
4.054826960769066
 20
-19.48824581339777
 30
0.0
  0
SPLINE
  5
86
330
41
100
AcDbEntity
  8
Layer 1
370
     0
100
AcDbSpline
210
0.0
220
0.0
230
1.0
 70
    11
 71
     3
 72
    29
 73
    25
 74
     0
 42
0.0000000001
 43
0.0000000001
 12
1.0
 22
0.0
 32
0.0
 13
1.0
 23
0.0
 33
0.0
 40
0.0
 40
0.0
 40
0.0
 40
0.0
 40
1.0
 40
1.0
 40
1.0
 40
2.0
 40
2.0
 40
2.0
 40
3.0
 40
3.0
 40
3.0
 40
4.0
 40
4.0
 40
4.0
 40
5.0
 40
5.0
 40
5.0
 40
6.0
 40
6.0
 40
6.0
 40
7.0
 40
7.0
 40
7.0
 40
8.0
 40
8.0
 40
8.0
 40
8.0
 10
5.385362872489425
 20
-11.01152499591435
 30
0.0
 10
5.283430558111307
 20
-11.08487794433905
 30
0.0
 10
5.233388781026302
 20
-11.12757516283045
 30
0.0
 10
5.177391487572137
 20
-11.15998163762805
 30
0.0
 10
4.976749568620296
 20
-11.27609842028222
 30
0.0
 10
4.850823792023354
 20
-11.44754443074707
 30
0.0
 10
4.787125354951186
 20
-11.66820004200742
 30
0.0
 10
4.772494873491801
 20
-11.71888004643644
 30
0.0
 10
4.758148549789844
 20
-11.77049267119759
 30
0.0
 10
4.735705464786125
 20
-11.81790572880865
 30
0.0
 10
4.668132819461326
 20
-11.96065978578368
 30
0.0
 10
4.581850346116753
 20
-12.08348255273023
 30
0.0
 10
4.397840850334015
 20
-12.06856479090084
 30
0.0
 10
4.239179076558407
 20
-12.05570309606834
 30
0.0
 10
4.026475849131327
 20
-11.87900068752658
 30
0.0
 10
4.023126716881444
 20
-11.72090488730626
 30
0.0
 10
4.013693477335833
 20
-11.27561198661198
 30
0.0
 10
4.024021215316566
 20
-10.82989441058809
 30
0.0
 10
4.028106113188457
 20
-10.38435864001577
 30
0.0
 10
4.028207684840992
 20
-10.37327822226096
 30
0.0
 10
4.046331892867117
 20
-10.36236226210931
 30
0.0
 10
4.08068019907968
 20
-10.32351140857364
 30
0.0
 10
4.406487711909873
 20
-10.71383730453256
 30
0.0
 10
4.839151899376025
 20
-10.92196846313393
 30
0.0
 10
5.385362872489425
 20
-11.01152499591435
 30
0.0
  0
SPLINE
  5
87
330
41
100
AcDbEntity
  8
Layer 1
370
     0
100
AcDbSpline
210
0.0
220
0.0
230
1.0
 70
    11
 71
     3
 72
    26
 73
    22
 74
     0
 42
0.0000000001
 43
0.0000000001
 12
1.0
 22
0.0
 32
0.0
 13
1.0
 23
0.0
 33
0.0
 40
0.0
 40
0.0
 40
0.0
 40
0.0
 40
1.0
 40
1.0
 40
1.0
 40
2.0
 40
2.0
 40
2.0
 40
3.0
 40
3.0
 40
3.0
 40
4.0
 40
4.0
 40
4.0
 40
5.0
 40
5.0
 40
5.0
 40
6.0
 40
6.0
 40
6.0
 40
7.0
 40
7.0
 40
7.0
 40
7.0
 10
16.98192925365105
 20
-19.44367710901675
 30
0.0
 10
16.74987749379445
 20
-19.27080232975452
 30
0.0
 10
16.57110999737458
 20
-19.10346637154178
 30
0.0
 10
16.36253195819729
 20
-18.99182672161271
 30
0.0
 10
16.15319616500028
 20
-18.87977627463257
 30
0.0
 10
15.91414558916951
 20
-18.82324449396813
 30
0.0
 10
15.6851290088757
 20
-18.74131129970567
 30
0.0
 10
15.6851290088757
 20
-18.73438742643675
 30
0.0
 10
15.67993714479497
 20
-18.71132866629191
 30
0.0
 10
15.6858728846167
 20
-18.70797567414565
 30
0.0
 10
15.99055661631704
 20
-18.5359266524691
 30
0.0
 10
16.18745053261366
 20
-18.2880397765576
 30
0.0
 10
16.27568446542912
 20
-17.94290918926528
 30
0.0
 10
16.31451172589089
 20
-17.79103640923694
 30
0.0
 10
16.42964592640937
 20
-17.67899984053565
 30
0.0
 10
16.61250890288888
 20
-17.69699580459212
 30
0.0
 10
16.76069699990872
 20
-17.71158326338731
 30
0.0
 10
16.97344407402267
 20
-17.88416243531223
 30
0.0
 10
16.97736885125347
 20
-18.02965120711503
 30
0.0
 10
16.98973994893218
 20
-18.48808961344216
 30
0.0
 10
16.98192925365105
 20
-18.9470734361243
 30
0.0
 10
16.98192925365105
 20
-19.44367710901675
 30
0.0
  0
SPLINE
  5
88
330
41
100
AcDbEntity
  8
Layer 1
370
     0
100
AcDbSpline
210
0.0
220
0.0
230
1.0
 70
    11
 71
     3
 72
    32
 73
    28
 74
     0
 42
0.0000000001
 43
0.0000000001
 12
1.0
 22
0.0
 32
0.0
 13
1.0
 23
0.0
 33
0.0
 40
0.0
 40
0.0
 40
0.0
 40
0.0
 40
1.0
 40
1.0
 40
1.0
 40
2.0
 40
2.0
 40
2.0
 40
3.0
 40
3.0
 40
3.0
 40
4.0
 40
4.0
 40
4.0
 40
5.0
 40
5.0
 40
5.0
 40
6.0
 40
6.0
 40
6.0
 40
7.0
 40
7.0
 40
7.0
 40
8.0
 40
8.0
 40
8.0
 40
9.0
 40
9.0
 40
9.0
 40
9.0
 10
15.65945696884202
 20
-11.03538730839883
 30
0.0
 10
15.907694965206
 20
-10.94548798213335
 30
0.0
 10
16.1518388693385
 20
-10.88577946346276
 30
0.0
 10
16.36662188694525
 20
-10.77108867395023
 30
0.0
 10
16.57498064931815
 20
-10.65982790103106
 30
0.0
 10
16.75318885110446
 20
-10.49210057535759
 30
0.0
 10
16.95948530125491
 20
-10.33808498909014
 30
0.0
 10
16.97065870347744
 20
-10.39442455559386
 30
0.0
 10
16.98833130363889
 20
-10.44288056585308
 30
0.0
 10
16.98861997183691
 20
-10.49144066320297
 30
0.0
 10
16.99087102865033
 20
-10.86965706703767
 30
0.0
 10
16.98594146403797
 20
-11.24794841357763
 30
0.0
 10
16.99137203451325
 20
-11.62610028341609
 30
0.0
 10
16.99400196833666
 20
-11.80915824971194
 30
0.0
 10
16.8977463904031
 20
-11.92396214719623
 30
0.0
 10
16.75653767976714
 20
-12.01206146070779
 30
0.0
 10
16.58764041519488
 20
-12.11743576169476
 30
0.0
 10
16.43712215517266
 20
-12.08592582370443
 30
0.0
 10
16.32554218184214
 20
-11.91985972799737
 30
0.0
 10
16.28412384673768
 20
-11.85821935292475
 30
0.0
 10
16.25007765330555
 20
-11.78694328891515
 30
0.0
 10
16.23193596732214
 20
-11.71518981211653
 30
0.0
 10
16.16699811321829
 20
-11.45832715942268
 30
0.0
 10
16.02270564904375
 20
-11.26645509829208
 30
0.0
 10
15.79200563353749
 20
-11.13677993121212
 30
0.0
 10
15.74786993145337
 20
-11.11197112011682
 30
0.0
 10
15.71056789382638
 20
-11.07500424292161
 30
0.0
 10
15.65945696884202
 20
-11.03538730839883
 30
0.0
  0
SPLINE
  5
89
330
41
100
AcDbEntity
  8
Layer 1
370
     0
100
AcDbSpline
210
0.0
220
0.0
230
1.0
 70
    11
 71
     3
 72
    14
 73
    10
 74
     0
 42
0.0000000001
 43
0.0000000001
 12
1.0
 22
0.0
 32
0.0
 13
1.0
 23
0.0
 33
0.0
 40
0.0
 40
0.0
 40
0.0
 40
0.0
 40
1.0
 40
1.0
 40
1.0
 40
2.0
 40
2.0
 40
2.0
 40
3.0
 40
3.0
 40
3.0
 40
3.0
 10
11.89645258822499
 20
-18.41008535989407
 30
0.0
 10
11.5900833395705
 20
-17.97003150942842
 30
0.0
 10
11.24918146381364
 20
-17.5728532133362
 30
0.0
 10
11.15115016011396
 20
-17.04166625762409
 30
0.0
 10
11.10121264359807
 20
-16.77107729333147
 30
0.0
 10
11.18206957734333
 20
-16.51887427272839
 30
0.0
 10
11.2870303056235
 20
-16.27153142534372
 30
0.0
 10
11.77622922288843
 20
-16.52844612158295
 30
0.0
 10
12.1304764514922
 20
-17.74492582808669
 30
0.0
 10
11.89645258822499
 20
-18.41008535989407
 30
0.0
  0
SPLINE
  5
8A
330
41
100
AcDbEntity
  8
Layer 1
370
     0
100
AcDbSpline
210
0.0
220
0.0
230
1.0
 70
    11
 71
     3
 72
    14
 73
    10
 74
     0
 42
0.0000000001
 43
0.0000000001
 12
1.0
 22
0.0
 32
0.0
 13
1.0
 23
0.0
 33
0.0
 40
0.0
 40
0.0
 40
0.0
 40
0.0
 40
1.0
 40
1.0
 40
1.0
 40
2.0
 40
2.0
 40
2.0
 40
3.0
 40
3.0
 40
3.0
 40
3.0
 10
11.89420222532554
 20
-11.35538572070082
 30
0.0
 10
12.13281771711753
 20
-11.99301768660568
 30
0.0
 10
11.8318047901469
 20
-13.07783555042626
 30
0.0
 10
11.29686167829071
 20
-13.51251850701519
 30
0.0
 10
11.17313821105316
 20
-13.23379964703038
 30
0.0
 10
11.0947078943474
 20
-12.95978274788619
 30
0.0
 10
11.16367530668676
 20
-12.65999666075727
 30
0.0
 10
11.27903225357932
 20
-12.15856057120369
 30
0.0
 10
11.60519747904424
 20
-11.77867599826309
 30
0.0
 10
11.89420222532554
 20
-11.35538572070082
 30
0.0
  0
SPLINE
  5
8B
330
41
100
AcDbEntity
  8
Layer 1
370
     0
100
AcDbSpline
210
0.0
220
0.0
230
1.0
 70
    11
 71
     3
 72
    14
 73
    10
 74
     0
 42
0.0000000001
 43
0.0000000001
 12
1.0
 22
0.0
 32
0.0
 13
1.0
 23
0.0
 33
0.0
 40
0.0
 40
0.0
 40
0.0
 40
0.0
 40
1.0
 40
1.0
 40
1.0
 40
2.0
 40
2.0
 40
2.0
 40
3.0
 40
3.0
 40
3.0
 40
3.0
 10
9.709091522962979
 20
-13.51049227831754
 30
0.0
 10
9.17385766116695
 20
-13.08173812241091
 30
0.0
 10
8.871109602395594
 20
-11.99812905666961
 30
0.0
 10
9.108410127275972
 20
-11.35777347855996
 30
0.0
 10
9.411250476600992
 20
-11.78885294007124
 30
0.0
 10
9.74291982741863
 20
-12.18287115209185
 30
0.0
 10
9.848842320416272
 20
-12.70237953623509
 30
0.0
 10
9.905467085548366
 20
-12.98010332363357
 30
0.0
 10
9.825963283981185
 20
-13.23961880931058
 30
0.0
 10
9.709091522962979
 20
-13.51049227831754
 30
0.0
  0
SPLINE
  5
8C
330
41
100
AcDbEntity
  8
Layer 1
370
     0
100
AcDbSpline
210
0.0
220
0.0
230
1.0
 70
    11
 71
     3
 72
    14
 73
    10
 74
     0
 42
0.0000000001
 43
0.0000000001
 12
1.0
 22
0.0
 32
0.0
 13
1.0
 23
0.0
 33
0.0
 40
0.0
 40
0.0
 40
0.0
 40
0.0
 40
1.0
 40
1.0
 40
1.0
 40
2.0
 40
2.0
 40
2.0
 40
3.0
 40
3.0
 40
3.0
 40
3.0
 10
9.110157055613731
 20
-18.40818126004955
 30
0.0
 10
8.867324301866269
 20
-17.78834818664291
 30
0.0
 10
9.169356588411059
 20
-16.69592225041099
 30
0.0
 10
9.708085347753517
 20
-16.25364371186159
 30
0.0
 10
9.828540480345314
 20
-16.53372125533616
 30
0.0
 10
9.910505594648901
 20
-16.8065362955404
 30
0.0
 10
9.840611807202906
 20
-17.10590187082325
 30
0.0
 10
9.723765721000426
 20
-17.60637203217574
 30
0.0
 10
9.400480932290213
 20
-17.98824675028916
 30
0.0
 10
9.110157055613731
 20
-18.40818126004955
 30
0.0
  0
SPLINE
  5
8D
330
41
100
AcDbEntity
  8
Layer 1
370
     0
100
AcDbSpline
210
0.0
220
0.0
230
1.0
 70
    11
 71
     3
 72
    23
 73
    19
 74
     0
 42
0.0000000001
 43
0.0000000001
 12
1.0
 22
0.0
 32
0.0
 13
1.0
 23
0.0
 33
0.0
 40
0.0
 40
0.0
 40
0.0
 40
0.0
 40
1.0
 40
1.0
 40
1.0
 40
2.0
 40
2.0
 40
2.0
 40
3.0
 40
3.0
 40
3.0
 40
4.0
 40
4.0
 40
4.0
 40
5.0
 40
5.0
 40
5.0
 40
6.0
 40
6.0
 40
6.0
 40
6.0
 10
10.92331670308371
 20
-13.47405624528456
 30
0.0
 10
10.91159996624812
 20
-13.77474719618809
 30
0.0
 10
10.83486279955003
 20
-13.99051002027474
 30
0.0
 10
10.66326065844929
 20
-14.16718328443112
 30
0.0
 10
10.56114567122699
 20
-14.27231540945389
 30
0.0
 10
10.45798981309841
 20
-14.27399745683842
 30
0.0
 10
10.34615517335291
 20
-14.17477886639156
 30
0.0
 10
10.10176146020294
 20
-13.95795296615269
 30
0.0
 10
10.00699710332118
 20
-13.48046245875607
 30
0.0
 10
10.15786578988188
 20
-13.19013719425176
 30
0.0
 10
10.23014525344509
 20
-13.05104630895306
 30
0.0
 10
10.32575202184707
 20
-12.92777943708638
 30
0.0
 10
10.49716403052901
 20
-12.92576847449538
 30
0.0
 10
10.68027959168165
 20
-12.92361872911678
 30
0.0
 10
10.78328903396936
 20
-13.05286297564162
 30
0.0
 10
10.84870638260415
 20
-13.20329380250765
 30
0.0
 10
10.89286984124566
 20
-13.30484810726843
 30
0.0
 10
10.90874312256718
 20
-13.41870411831403
 30
0.0
 10
10.92331670308371
 20
-13.47405624528456
 30
0.0
  0
SPLINE
  5
8E
330
41
100
AcDbEntity
  8
Layer 1
370
     0
100
AcDbSpline
210
0.0
220
0.0
230
1.0
 70
    11
 71
     3
 72
    26
 73
    22
 74
     0
 42
0.0000000001
 43
0.0000000001
 12
1.0
 22
0.0
 32
0.0
 13
1.0
 23
0.0
 33
0.0
 40
0.0
 40
0.0
 40
0.0
 40
0.0
 40
1.0
 40
1.0
 40
1.0
 40
2.0
 40
2.0
 40
2.0
 40
3.0
 40
3.0
 40
3.0
 40
4.0
 40
4.0
 40
4.0
 40
5.0
 40
5.0
 40
5.0
 40
6.0
 40
6.0
 40
6.0
 40
7.0
 40
7.0
 40
7.0
 40
7.0
 10
10.50134833157245
 20
-21.60250304533872
 30
0.0
 10
10.38625854154589
 20
-21.53090361743432
 30
0.0
 10
10.26401935622069
 20
-21.44851660345661
 30
0.0
 10
10.13588259634022
 20
-21.37664238563292
 30
0.0
 10
9.949176724474691
 20
-21.27191966983341
 30
0.0
 10
9.90553925259784
 20
-21.17631637100108
 30
0.0
 10
10.0156141265977
 20
-20.99055838557426
 30
0.0
 10
10.11074556395245
 20
-20.830018620466
 30
0.0
 10
10.23085165783362
 20
-20.68220940045596
 30
0.0
 10
10.3539554599249
 20
-20.54101040461502
 30
0.0
 10
10.4427361969232
 20
-20.4391785342793
 30
0.0
 10
10.56774548668705
 20
-20.43967954014223
 30
0.0
 10
10.65158971993352
 20
-20.54293115839412
 30
0.0
 10
10.7883643205086
 20
-20.71136211280033
 30
0.0
 10
10.91974165847741
 20
-20.88780360970165
 30
0.0
 10
11.02561557749938
 20
-21.0764552162481
 30
0.0
 10
11.09912049307635
 20
-21.20743008413304
 30
0.0
 10
11.00026204396306
 20
-21.30003706258297
 30
0.0
 10
10.88539083682684
 20
-21.36708580288494
 30
0.0
 10
10.7522842653257
 20
-21.44477779516113
 30
0.0
 10
10.62239884232259
 20
-21.52798779106867
 30
0.0
 10
10.50134833157245
 20
-21.60250304533872
 30
0.0
  0
SPLINE
  5
8F
330
41
100
AcDbEntity
  8
Layer 1
370
     0
100
AcDbSpline
210
0.0
220
0.0
230
1.0
 70
    11
 71
     3
 72
    26
 73
    22
 74
     0
 42
0.0000000001
 43
0.0000000001
 12
1.0
 22
0.0
 32
0.0
 13
1.0
 23
0.0
 33
0.0
 40
0.0
 40
0.0
 40
0.0
 40
0.0
 40
1.0
 40
1.0
 40
1.0
 40
2.0
 40
2.0
 40
2.0
 40
3.0
 40
3.0
 40
3.0
 40
4.0
 40
4.0
 40
4.0
 40
5.0
 40
5.0
 40
5.0
 40
6.0
 40
6.0
 40
6.0
 40
7.0
 40
7.0
 40
7.0
 40
7.0
 10
10.50582754603934
 20
-8.165232276434478
 30
0.0
 10
10.61583233473155
 20
-8.235563923575015
 30
0.0
 10
10.72332931845342
 20
-8.315021232908322
 30
0.0
 10
10.84020316121347
 20
-8.376712957612394
 30
0.0
 10
11.06252208418193
 20
-8.494061437505724
 30
0.0
 10
11.1028107273963
 20
-8.59017962047961
 30
0.0
 10
10.97259500135893
 20
-8.80952442831183
 30
0.0
 10
10.88858075919769
 20
-8.951044706305844
 30
0.0
 10
10.78473931409889
 20
-9.083069465978346
 30
0.0
 10
10.67537986536862
 20
-9.206597943399496
 30
0.0
 10
10.5754056026437
 20
-9.319525497596647
 30
0.0
 10
10.44159401458195
 20
-9.336263395684337
 30
0.0
 10
10.341265161835
 20
-9.214047803433036
 30
0.0
 10
10.20842644111378
 20
-9.052229154937843
 30
0.0
 10
10.08277250530183
 20
-8.880615911214008
 30
0.0
 10
9.981603322776543
 20
-8.697940985411725
 30
0.0
 10
9.902305613648833
 20
-8.554758783537272
 30
0.0
 10
10.00632817028544
 20
-8.46196999963577
 30
0.0
 10
10.13017446028995
 20
-8.392599423298742
 30
0.0
 10
10.25839934724044
 20
-8.320775861192502
 30
0.0
 10
10.3819757047233
 20
-8.240653782306968
 30
0.0
 10
10.50582754603934
 20
-8.165232276434478
 30
0.0
  0
SPLINE
  5
90
330
41
100
AcDbEntity
  8
Layer 1
370
     0
100
AcDbSpline
210
0.0
220
0.0
230
1.0
 70
    11
 71
     3
 72
    29
 73
    25
 74
     0
 42
0.0000000001
 43
0.0000000001
 12
1.0
 22
0.0
 32
0.0
 13
1.0
 23
0.0
 33
0.0
 40
0.0
 40
0.0
 40
0.0
 40
0.0
 40
1.0
 40
1.0
 40
1.0
 40
2.0
 40
2.0
 40
2.0
 40
3.0
 40
3.0
 40
3.0
 40
4.0
 40
4.0
 40
4.0
 40
5.0
 40
5.0
 40
5.0
 40
6.0
 40
6.0
 40
6.0
 40
7.0
 40
7.0
 40
7.0
 40
8.0
 40
8.0
 40
8.0
 40
8.0
 10
13.07943568113526
 20
-6.207378735577132
 30
0.0
 10
13.48096620544381
 20
-5.999092140253742
 30
0.0
 10
13.83699887460885
 20
-5.814406251860396
 30
0.0
 10
14.21004839526456
 20
-5.620893778181408
 30
0.0
 10
14.49431093369653
 20
-5.799539492705319
 30
0.0
 10
14.50186626864866
 20
-5.800267755382752
 30
0.0
 10
14.64662990038667
 20
-5.646111651542952
 30
0.0
 10
14.64342263016735
 20
-5.640208525676216
 30
0.0
 10
14.64152061206458
 20
-5.630608920264137
 30
0.0
 10
14.63681518165397
 20
-5.628946302469734
 30
0.0
 10
14.53671670833429
 20
-5.593576121244851
 30
0.0
 10
14.39031058230604
 20
-5.601821206650873
 30
0.0
 10
14.42795541341814
 20
-5.429399900146807
 30
0.0
 10
14.4503847936216
 20
-5.326668023434042
 30
0.0
 10
14.62028060035003
 20
-5.287019862784164
 30
0.0
 10
14.76436072685954
 20
-5.342789725945202
 30
0.0
 10
15.0114544591406
 20
-5.438433618742799
 30
0.0
 10
15.0605002962468
 20
-5.800146667400727
 30
0.0
 10
14.82182720959796
 20
-5.948674435293022
 30
0.0
 10
14.62808366257783
 20
-6.069242675856569
 30
0.0
 10
14.3986396312985
 20
-6.170399020974105
 30
0.0
 10
14.1752333451897
 20
-6.19658316949368
 30
0.0
 10
13.82709672272003
 20
-6.23738704380655
 30
0.0
 10
13.4706595017293
 20
-6.207378735577132
 30
0.0
 10
13.07943568113526
 20
-6.207378735577132
 30
0.0
  0
SPLINE
  5
91
330
41
100
AcDbEntity
  8
Layer 1
370
     0
100
AcDbSpline
210
0.0
220
0.0
230
1.0
 70
    11
 71
     3
 72
    29
 73
    25
 74
     0
 42
0.0000000001
 43
0.0000000001
 12
1.0
 22
0.0
 32
0.0
 13
1.0
 23
0.0
 33
0.0
 40
0.0
 40
0.0
 40
0.0
 40
0.0
 40
1.0
 40
1.0
 40
1.0
 40
2.0
 40
2.0
 40
2.0
 40
3.0
 40
3.0
 40
3.0
 40
4.0
 40
4.0
 40
4.0
 40
5.0
 40
5.0
 40
5.0
 40
6.0
 40
6.0
 40
6.0
 40
7.0
 40
7.0
 40
7.0
 40
8.0
 40
8.0
 40
8.0
 40
8.0
 10
6.336432814852075
 20
-5.636403795556599
 30
0.0
 10
6.51632306402296
 20
-5.798631506318004
 30
0.0
 10
6.536498264800391
 20
-5.796276362413987
 30
0.0
 10
6.843332782749991
 20
-5.580349080724234
 30
0.0
 10
7.130384855210939
 20
-5.869044341389293
 30
0.0
 10
7.497055571995629
 20
-6.044046313827106
 30
0.0
 10
7.898059415625623
 20
-6.161467654683871
 30
0.0
 10
7.357650343683277
 20
-6.25065537220649
 30
0.0
 10
6.82535139088614
 20
-6.300043655840827
 30
0.0
 10
6.327057170163313
 20
-6.041290087667121
 30
0.0
 10
6.210786512093446
 20
-5.980913329874751
 30
0.0
 10
6.091073173500988
 20
-5.862839362959708
 30
0.0
 10
6.046032087206973
 20
-5.743684625086928
 30
0.0
 10
5.964867576108848
 20
-5.528965447562465
 30
0.0
 10
6.155792965150165
 20
-5.302870244945742
 30
0.0
 10
6.381344312718289
 20
-5.325537290672843
 30
0.0
 10
6.452419835599888
 20
-5.332680093789015
 30
0.0
 10
6.516132237690138
 20
-5.413090493915556
 30
0.0
 10
6.5832146328181
 20
-5.459967503009866
 30
0.0
 10
6.52922604673475
 20
-5.510388330583288
 30
0.0
 10
6.476564918013937
 20
-5.562369076688308
 30
0.0
 10
6.420374889963713
 20
-5.610203687016478
 30
0.0
 10
6.405096986800731
 20
-5.623209715947986
 30
0.0
 10
6.379178260362191
 20
-5.623716620079364
 30
0.0
 10
6.336432814852075
 20
-5.636403795556599
 30
0.0
  0
SPLINE
  5
92
330
41
100
AcDbEntity
  8
Layer 1
370
     0
100
AcDbSpline
210
0.0
220
0.0
230
1.0
 70
    11
 71
     3
 72
    32
 73
    28
 74
     0
 42
0.0000000001
 43
0.0000000001
 12
1.0
 22
0.0
 32
0.0
 13
1.0
 23
0.0
 33
0.0
 40
0.0
 40
0.0
 40
0.0
 40
0.0
 40
1.0
 40
1.0
 40
1.0
 40
2.0
 40
2.0
 40
2.0
 40
3.0
 40
3.0
 40
3.0
 40
4.0
 40
4.0
 40
4.0
 40
5.0
 40
5.0
 40
5.0
 40
6.0
 40
6.0
 40
6.0
 40
7.0
 40
7.0
 40
7.0
 40
8.0
 40
8.0
 40
8.0
 40
9.0
 40
9.0
 40
9.0
 40
9.0
 10
6.329727350994972
 20
-24.13601613920904
 30
0.0
 10
6.394526942746946
 20
-24.14806942430436
 30
0.0
 10
6.44075930579322
 20
-24.14323839547099
 30
0.0
 10
6.464941165646096
 20
-24.16404193531884
 30
0.0
 10
6.511228000936518
 20
-24.20385594139987
 30
0.0
 10
6.586543337976554
 20
-24.27504318442539
 30
0.0
 10
6.575218662515714
 20
-24.30307175619098
 30
0.0
 10
6.552103695341914
 20
-24.36028079685844
 30
0.0
 10
6.48485961826647
 20
-24.42661896928849
 30
0.0
 10
6.426322426322537
 20
-24.43730524392669
 30
0.0
 10
6.27366725832966
 20
-24.46516450069147
 30
0.0
 10
6.139847343300649
 20
-24.41166928741782
 30
0.0
 10
6.069372923367389
 20
-24.26129536149455
 30
0.0
 10
5.998515636419178
 20
-24.11010816843659
 30
0.0
 10
5.998032325361705
 20
-23.94203527362215
 30
0.0
 10
6.141946779918745
 20
-23.85244126948913
 30
0.0
 10
6.330509218524167
 20
-23.73505184867352
 30
0.0
 10
6.539883523944624
 20
-23.63401104022661
 30
0.0
 10
6.753935850175232
 20
-23.57842437034507
 30
0.0
 10
7.128372504791985
 20
-23.48118621027594
 30
0.0
 10
7.510890481125585
 20
-23.53744320102115
 30
0.0
 10
7.898786984389126
 20
-23.60284458963546
 30
0.0
 10
7.505653165681923
 20
-23.72758811036123
 30
0.0
 10
7.135404628635239
 20
-23.88382422122877
 30
0.0
 10
6.85583225450704
 20
-24.1789694119435
 30
0.0
 10
6.503921434130981
 20
-23.97568871176556
 30
0.0
 10
6.503921434130981
 20
-23.97568871176556
 30
0.0
 10
6.329727350994972
 20
-24.13601613920904
 30
0.0
  0
SPLINE
  5
93
330
41
100
AcDbEntity
  8
Layer 1
370
     0
100
AcDbSpline
210
0.0
220
0.0
230
1.0
 70
    11
 71
     3
 72
    29
 73
    25
 74
     0
 42
0.0000000001
 43
0.0000000001
 12
1.0
 22
0.0
 32
0.0
 13
1.0
 23
0.0
 33
0.0
 40
0.0
 40
0.0
 40
0.0
 40
0.0
 40
1.0
 40
1.0
 40
1.0
 40
2.0
 40
2.0
 40
2.0
 40
3.0
 40
3.0
 40
3.0
 40
4.0
 40
4.0
 40
4.0
 40
5.0
 40
5.0
 40
5.0
 40
6.0
 40
6.0
 40
6.0
 40
7.0
 40
7.0
 40
7.0
 40
8.0
 40
8.0
 40
8.0
 40
8.0
 10
13.11337639964889
 20
-23.57553352488122
 30
0.0
 10
13.64675959297335
 20
-23.51850073835385
 30
0.0
 10
14.17611114632073
 20
-23.47063455494154
 30
0.0
 10
14.68054425017065
 20
-23.72014102598337
 30
0.0
 10
14.83385204422187
 20
-23.79597194107902
 30
0.0
 10
14.9694039684389
 20
-23.89119775072922
 30
0.0
 10
14.97336205353859
 20
-24.08816244624752
 30
0.0
 10
14.97776632530026
 20
-24.30739345219407
 30
0.0
 10
14.80913136019649
 20
-24.4753816895081
 30
0.0
 10
14.59935215599346
 20
-24.43937865877209
 30
0.0
 10
14.53377659498094
 20
-24.428123374705
 30
0.0
 10
14.47927173692792
 20
-24.3523618510031
 30
0.0
 10
14.41969922538912
 20
-24.30612775317199
 30
0.0
 10
14.46610680170474
 20
-24.25637689950525
 30
0.0
 10
14.5094687897484
 20
-24.20312871959325
 30
0.0
 10
14.56049575114632
 20
-24.15868214406523
 30
0.0
 10
14.57952634088364
 20
-24.14210454009706
 30
0.0
 10
14.61645921629584
 20
-24.14607789130346
 30
0.0
 10
14.64866584387946
 20
-24.14003251307953
 30
0.0
 10
14.52879082333959
 20
-23.95913331304347
 30
0.0
 10
14.47486815908034
 20
-23.96274444117451
 30
0.0
 10
14.21436107038646
 20
-24.14817351139492
 30
0.0
 10
13.84372012500801
 20
-23.95539728040371
 30
0.0
 10
13.48335326938901
 20
-23.76796418673153
 30
0.0
 10
13.11337639964889
 20
-23.57553352488122
 30
0.0
  0
SPLINE
  5
94
330
41
100
AcDbEntity
  8
Layer 1
370
     0
100
AcDbSpline
210
0.0
220
0.0
230
1.0
 70
    11
 71
     3
 72
    32
 73
    28
 74
     0
 42
0.0000000001
 43
0.0000000001
 12
1.0
 22
0.0
 32
0.0
 13
1.0
 23
0.0
 33
0.0
 40
0.0
 40
0.0
 40
0.0
 40
0.0
 40
1.0
 40
1.0
 40
1.0
 40
2.0
 40
2.0
 40
2.0
 40
3.0
 40
3.0
 40
3.0
 40
4.0
 40
4.0
 40
4.0
 40
5.0
 40
5.0
 40
5.0
 40
6.0
 40
6.0
 40
6.0
 40
7.0
 40
7.0
 40
7.0
 40
8.0
 40
8.0
 40
8.0
 40
9.0
 40
9.0
 40
9.0
 40
9.0
 10
11.16645651374848
 20
-10.5156943431483
 30
0.0
 10
11.06348593064128
 20
-10.5253813817165
 30
0.0
 10
10.96051534753402
 20
-10.53506842028474
 30
0.0
 10
10.84787437979307
 20
-10.54566518002509
 30
0.0
 10
10.80802567801523
 20
-10.30697960292543
 30
0.0
 10
10.76809231873691
 20
-10.06778677473743
 30
0.0
 10
10.72267010021269
 20
-9.795716998102144
 30
0.0
 10
10.7913127608293
 20
-9.834627528236423
 30
0.0
 10
10.87012403628674
 20
-9.859220532097202
 30
0.0
 10
10.92032385227092
 20
-9.91135983753697
 30
0.0
 10
11.10312437649605
 20
-10.10122024216258
 30
0.0
 10
11.27826339693659
 20
-10.29861655215005
 30
0.0
 10
11.45226856200301
 20
-10.49670469433324
 30
0.0
 10
11.52235317578186
 20
-10.57648883713109
 30
0.0
 10
11.51515590042151
 20
-10.65469918311865
 30
0.0
 10
11.43694486052015
 20
-10.73589960426308
 30
0.0
 10
11.20125699163065
 20
-10.98059308823408
 30
0.0
 10
11.04859870102494
 20
-11.26989621750842
 30
0.0
 10
10.97168319844493
 20
-11.60302070585313
 30
0.0
 10
10.95182268763828
 20
-11.68903550189626
 30
0.0
 10
10.8828025378398
 20
-11.76369855983503
 30
0.0
 10
10.80644286032365
 20
-11.83043989626274
 30
0.0
 10
10.77631450498309
 20
-11.35870471106416
 30
0.0
 10
10.74497110633774
 20
-10.89154311262803
 30
0.0
 10
11.19582225767171
 20
-10.56281109950805
 30
0.0
 10
11.1860339076686
 20
-10.54710574535945
 30
0.0
 10
11.17624486375159
 20
-10.53140039121087
 30
0.0
 10
11.16645651374848
 20
-10.5156943431483
 30
0.0
  0
SPLINE
  5
95
330
41
100
AcDbEntity
  8
Layer 1
370
     0
100
AcDbSpline
210
0.0
220
0.0
230
1.0
 70
    11
 71
     3
 72
    32
 73
    28
 74
     0
 42
0.0000000001
 43
0.0000000001
 12
1.0
 22
0.0
 32
0.0
 13
1.0
 23
0.0
 33
0.0
 40
0.0
 40
0.0
 40
0.0
 40
0.0
 40
1.0
 40
1.0
 40
1.0
 40
2.0
 40
2.0
 40
2.0
 40
3.0
 40
3.0
 40
3.0
 40
4.0
 40
4.0
 40
4.0
 40
5.0
 40
5.0
 40
5.0
 40
6.0
 40
6.0
 40
6.0
 40
7.0
 40
7.0
 40
7.0
 40
8.0
 40
8.0
 40
8.0
 40
9.0
 40
9.0
 40
9.0
 40
9.0
 10
10.28326505927866
 20
-9.7836678764905
 30
0.0
 10
10.23680960290146
 20
-10.06377525826444
 30
0.0
 10
10.19700947509915
 20
-10.30375359702974
 30
0.0
 10
10.15667642139295
 20
-10.54694267558411
 30
0.0
 10
10.05051244634503
 20
-10.53548546256119
 30
0.0
 10
9.947599458094718
 20
-10.52437936999065
 30
0.0
 10
9.844687163758206
 20
-10.51327327742012
 30
0.0
 10
9.830984445233376
 20
-10.52255160067919
 30
0.0
 10
9.817281032794584
 20
-10.53182992393819
 30
0.0
 10
9.803578314269755
 20
-10.54110824719719
 30
0.0
 10
10.2247882378472
 20
-10.88037040431955
 30
0.0
 10
10.25220685926166
 20
-11.33336852537625
 30
0.0
 10
10.22262114462026
 20
-11.80283114242923
 30
0.0
 10
10.20450374562478
 20
-11.81343414739508
 30
0.0
 10
10.1863863466292
 20
-11.82403715236094
 30
0.0
 10
10.16826894763363
 20
-11.83464015732669
 30
0.0
 10
10.12059636620992
 20
-11.75283603105659
 30
0.0
 10
10.05082193196127
 20
-11.67644929089695
 30
0.0
 10
10.02920651280656
 20
-11.5882583807456
 30
0.0
 10
9.949847739252352
 20
-11.26448438270952
 30
0.0
 10
9.795378333269685
 20
-10.98659891336359
 30
0.0
 10
9.576587268759635
 20
-10.73749907588913
 30
0.0
 10
9.536315279479936
 20
-10.69164871246539
 30
0.0
 10
9.503312732609967
 20
-10.58225387412434
 30
0.0
 10
9.529031958791352
 20
-10.544677046578
 30
0.0
 10
9.72822134239348
 20
-10.25364468377126
 30
0.0
 10
9.939112890638354
 20
-9.969398799273794
 30
0.0
 10
10.28326505927866
 20
-9.7836678764905
 30
0.0
  0
SPLINE
  5
96
330
41
100
AcDbEntity
  8
Layer 1
370
     0
100
AcDbSpline
210
0.0
220
0.0
230
1.0
 70
    11
 71
     3
 72
    35
 73
    31
 74
     0
 42
0.0000000001
 43
0.0000000001
 12
1.0
 22
0.0
 32
0.0
 13
1.0
 23
0.0
 33
0.0
 40
0.0
 40
0.0
 40
0.0
 40
0.0
 40
1.0
 40
1.0
 40
1.0
 40
2.0
 40
2.0
 40
2.0
 40
3.0
 40
3.0
 40
3.0
 40
4.0
 40
4.0
 40
4.0
 40
5.0
 40
5.0
 40
5.0
 40
6.0
 40
6.0
 40
6.0
 40
7.0
 40
7.0
 40
7.0
 40
8.0
 40
8.0
 40
8.0
 40
9.0
 40
9.0
 40
9.0
 40
10.0
 40
10.0
 40
10.0
 40
10.0
 10
10.22518168704988
 20
-17.96519076580011
 30
0.0
 10
10.2440276956798
 20
-18.43037262777234
 30
0.0
 10
10.23236300238956
 20
-18.88635041527693
 30
0.0
 10
9.806458057110534
 20
-19.21737373221877
 30
0.0
 10
9.816937545395433
 20
-19.22799061546335
 30
0.0
 10
9.827417727594325
 20
-19.2386074987078
 30
0.0
 10
9.837897215879224
 20
-19.24922438195237
 30
0.0
 10
9.939035172277379
 20
-19.2398482168282
 30
0.0
 10
10.04017243476157
 20
-19.23047066387611
 30
0.0
 10
10.15784011506628
 20
-19.21956094894993
 30
0.0
 10
10.19572157083106
 20
-19.45656447866498
 30
0.0
 10
10.23388753131035
 20
-19.69534442806016
 30
0.0
 10
10.27437671565259
 20
-19.94866187444708
 30
0.0
 10
10.24638977872328
 20
-19.93950637395497
 30
0.0
 10
10.18986563111207
 20
-19.93801307116134
 30
0.0
 10
10.16142834403722
 20
-19.90899636594863
 30
0.0
 10
9.951215443623237
 20
-19.69449368957268
 30
0.0
 10
9.740588276588454
 20
-19.47962879012125
 30
0.0
 10
9.546015502412995
 20
-19.25130889942077
 30
0.0
 10
9.512792984824797
 20
-19.21232481440913
 30
0.0
 10
9.52806533667631
 20
-19.08399653428197
 30
0.0
 10
9.56813053960267
 20
-19.0385340687493
 30
0.0
 10
9.792464588645863
 20
-18.78398839469297
 30
0.0
 10
9.954013998533393
 20
-18.5026493156799
 30
0.0
 10
10.03028416115144
 20
-18.16935134885084
 30
0.0
 10
10.04961105214016
 20
-18.08489647133924
 30
0.0
 10
10.11763890500804
 20
-18.01158446383701
 30
0.0
 10
10.16328872730388
 20
-17.93315275930339
 30
0.0
 10
10.18391948258117
 20
-17.9438320948023
 30
0.0
 10
10.20455093177246
 20
-17.9545114303012
 30
0.0
 10
10.22518168704988
 20
-17.96519076580011
 30
0.0
  0
SPLINE
  5
97
330
41
100
AcDbEntity
  8
Layer 1
370
     0
100
AcDbSpline
210
0.0
220
0.0
230
1.0
 70
    11
 71
     3
 72
    32
 73
    28
 74
     0
 42
0.0000000001
 43
0.0000000001
 12
1.0
 22
0.0
 32
0.0
 13
1.0
 23
0.0
 33
0.0
 40
0.0
 40
0.0
 40
0.0
 40
0.0
 40
1.0
 40
1.0
 40
1.0
 40
2.0
 40
2.0
 40
2.0
 40
3.0
 40
3.0
 40
3.0
 40
4.0
 40
4.0
 40
4.0
 40
5.0
 40
5.0
 40
5.0
 40
6.0
 40
6.0
 40
6.0
 40
7.0
 40
7.0
 40
7.0
 40
8.0
 40
8.0
 40
8.0
 40
9.0
 40
9.0
 40
9.0
 40
9.0
 10
10.83981179375268
 20
-17.91976993510375
 30
0.0
 10
10.88791390790371
 20
-18.01366759347742
 30
0.0
 10
10.95564198995059
 20
-18.10268009773088
 30
0.0
 10
10.98046606715257
 20
-18.20237332531103
 30
0.0
 10
11.0572871974371
 20
-18.51088884977435
 30
0.0
 10
11.21130347761848
 20
-18.77230288398464
 30
0.0
 10
11.41262248309492
 20
-19.01385016216275
 30
0.0
 10
11.45688378360166
 20
-19.0669553958036
 30
0.0
 10
11.50061423994614
 20
-19.18391597780576
 30
0.0
 10
11.47387010287896
 20
-19.22267384687377
 30
0.0
 10
11.27400345927381
 20
-19.51232601485869
 30
0.0
 10
11.06386272590939
 20
-19.79744970048719
 30
0.0
 10
10.7207250594457
 20
-19.98132995479902
 30
0.0
 10
10.76556161460672
 20
-19.70995409210136
 30
0.0
 10
10.80573090462375
 20
-19.4668260779735
 30
0.0
 10
10.84662949818908
 20
-19.21928615903064
 30
0.0
 10
10.95335831918205
 20
-19.23038184289206
 30
0.0
 10
11.0561484846655
 20
-19.24106811753046
 30
0.0
 10
11.15893934406297
 20
-19.25175577999653
 30
0.0
 10
11.17208346186806
 20
-19.2424198618808
 30
0.0
 10
11.18522827358711
 20
-19.23308533159281
 30
0.0
 10
11.19837239139233
 20
-19.22374941347695
 30
0.0
 10
10.76635475823735
 20
-18.88622412294035
 30
0.0
 10
10.76725615244218
 20
-18.42171674531536
 30
0.0
 10
10.7738025365291
 20
-17.95555507686329
 30
0.0
 10
10.79580585357489
 20
-17.94362669627676
 30
0.0
 10
10.8178091706208
 20
-17.93169831569028
 30
0.0
 10
10.83981179375268
 20
-17.91976993510375
 30
0.0
  0
SPLINE
  5
98
330
41
100
AcDbEntity
  8
Layer 1
370
     0
100
AcDbSpline
210
0.0
220
0.0
230
1.0
 70
    11
 71
     3
 72
    20
 73
    16
 74
     0
 42
0.0000000001
 43
0.0000000001
 12
1.0
 22
0.0
 32
0.0
 13
1.0
 23
0.0
 33
0.0
 40
0.0
 40
0.0
 40
0.0
 40
0.0
 40
1.0
 40
1.0
 40
1.0
 40
2.0
 40
2.0
 40
2.0
 40
3.0
 40
3.0
 40
3.0
 40
4.0
 40
4.0
 40
4.0
 40
5.0
 40
5.0
 40
5.0
 40
5.0
 10
4.87150554997518
 20
-23.9766921113192
 30
0.0
 10
4.564299441111998
 20
-24.29442558852908
 30
0.0
 10
4.208736638421881
 20
-24.52311741710013
 30
0.0
 10
4.093867686505879
 20
-24.94748742474919
 30
0.0
 10
4.074611357890728
 20
-24.93845266528222
 30
0.0
 10
4.055354985905961
 20
-24.92941790581532
 30
0.0
 10
4.036098657290745
 20
-24.92038314634841
 30
0.0
 10
4.036098657290745
 20
-24.40973465535987
 30
0.0
 10
4.036098657290745
 20
-23.89908477654347
 30
0.0
 10
4.036098657290745
 20
-23.35369756601326
 30
0.0
 10
4.169256144727037
 20
-23.47849243637041
 30
0.0
 10
4.277164879631666
 20
-23.59839660129573
 30
0.0
 10
4.403869401145038
 20
-23.69317691819797
 30
0.0
 10
4.535046024507355
 20
-23.79130328810717
 30
0.0
 10
4.684455149839653
 20
-23.86505523704592
 30
0.0
 10
4.87150554997518
 20
-23.9766921113192
 30
0.0
  0
SPLINE
  5
99
330
41
100
AcDbEntity
  8
Layer 1
370
     0
100
AcDbSpline
210
0.0
220
0.0
230
1.0
 70
    11
 71
     3
 72
    17
 73
    13
 74
     0
 42
0.0000000001
 43
0.0000000001
 12
1.0
 22
0.0
 32
0.0
 13
1.0
 23
0.0
 33
0.0
 40
0.0
 40
0.0
 40
0.0
 40
0.0
 40
1.0
 40
1.0
 40
1.0
 40
2.0
 40
2.0
 40
2.0
 40
3.0
 40
3.0
 40
3.0
 40
4.0
 40
4.0
 40
4.0
 40
4.0
 10
4.843315556479868
 20
-5.805996361894225
 30
0.0
 10
4.690507640681464
 20
-5.896942804291636
 30
0.0
 10
4.542514880434946
 20
-5.969367642824739
 30
0.0
 10
4.413054046022487
 20
-6.06649408274994
 30
0.0
 10
4.2845413582663
 20
-6.162909607846082
 30
0.0
 10
4.174679992911163
 20
-6.284185987582905
 30
0.0
 10
4.030287865347351
 20
-6.419199087627504
 30
0.0
 10
4.030287865347351
 20
-5.879135931783081
 30
0.0
 10
4.030287865347351
 20
-5.374046038391342
 30
0.0
 10
4.030287865347351
 20
-4.86336076996407
 30
0.0
 10
4.302437745672703
 20
-5.178894886948804
 30
0.0
 10
4.565188605083689
 20
-5.483532126415206
 30
0.0
 10
4.843315556479868
 20
-5.805996361894225
 30
0.0
  0
SPLINE
  5
9A
330
41
100
AcDbEntity
  8
Layer 1
370
     0
100
AcDbSpline
210
0.0
220
0.0
230
1.0
 70
    11
 71
     3
 72
    14
 73
    10
 74
     0
 42
0.0000000001
 43
0.0000000001
 12
1.0
 22
0.0
 32
0.0
 13
1.0
 23
0.0
 33
0.0
 40
0.0
 40
0.0
 40
0.0
 40
0.0
 40
1.0
 40
1.0
 40
1.0
 40
2.0
 40
2.0
 40
2.0
 40
3.0
 40
3.0
 40
3.0
 40
3.0
 10
16.17972033134929
 20
-23.9832412710619
 30
0.0
 10
16.44634843488632
 20
-23.78222689380396
 30
0.0
 10
16.70489660453448
 20
-23.5873023052621
 30
0.0
 10
16.97256419114989
 20
-23.38550380525484
 30
0.0
 10
16.97256419114989
 20
-23.88517180209559
 30
0.0
 10
16.97256419114989
 20
-24.39058540633924
 30
0.0
 10
16.97256419114989
 20
-24.89818345165834
 30
0.0
 10
16.70264554772093
 20
-24.58669658771428
 30
0.0
 10
16.43933851628914
 20
-24.28284000142774
 30
0.0
 10
16.17972033134929
 20
-23.9832412710619
 30
0.0
  0
SPLINE
  5
9B
330
41
100
AcDbEntity
  8
Layer 1
370
     0
100
AcDbSpline
210
0.0
220
0.0
230
1.0
 70
    11
 71
     3
 72
    17
 73
    13
 74
     0
 42
0.0000000001
 43
0.0000000001
 12
1.0
 22
0.0
 32
0.0
 13
1.0
 23
0.0
 33
0.0
 40
0.0
 40
0.0
 40
0.0
 40
0.0
 40
1.0
 40
1.0
 40
1.0
 40
2.0
 40
2.0
 40
2.0
 40
3.0
 40
3.0
 40
3.0
 40
4.0
 40
4.0
 40
4.0
 40
4.0
 10
16.97185084762206
 20
-6.377735995073941
 30
0.0
 10
16.70134237734639
 20
-6.17474153439528
 30
0.0
 10
16.44621659123817
 20
-5.983289985110849
 30
0.0
 10
16.15625077415337
 20
-5.76569384040126
 30
0.0
 10
16.30153414743076
 20
-5.628336699075586
 30
0.0
 10
16.46297461283002
 20
-5.497727176878725
 30
0.0
 10
16.5965877415056
 20
-5.343077353272313
 30
0.0
 10
16.72570014438226
 20
-5.193638129423022
 30
0.0
 10
16.82613585987562
 20
-5.019426178003072
 30
0.0
 10
16.97185084762206
 20
-4.866302618102292
 30
0.0
 10
16.97185084762206
 20
-5.371454616791538
 30
0.0
 10
16.97185084762206
 20
-5.876606615480719
 30
0.0
 10
16.97185084762206
 20
-6.377735995073941
 30
0.0
  0
SPLINE
  5
9C
330
41
100
AcDbEntity
  8
Layer 1
370
     0
100
AcDbSpline
210
0.0
220
0.0
230
1.0
 70
    11
 71
     3
 72
    11
 73
     7
 74
     0
 42
0.0000000001
 43
0.0000000001
 12
1.0
 22
0.0
 32
0.0
 13
1.0
 23
0.0
 33
0.0
 40
0.0
 40
0.0
 40
0.0
 40
0.0
 40
1.0
 40
1.0
 40
1.0
 40
2.0
 40
2.0
 40
2.0
 40
2.0
 10
11.16586460515975
 20
-14.36746488857097
 30
0.0
 10
11.14988307326409
 20
-13.88384712110571
 30
0.0
 10
11.61784822403986
 20
-13.52188356951639
 30
0.0
 10
12.15099687445347
 20
-13.59044781785793
 30
0.0
 10
12.20947022631515
 20
-14.11836227544067
 30
0.0
 10
11.65889739692961
 20
-14.56039516845632
 30
0.0
 10
11.16586460515975
 20
-14.36746488857097
 30
0.0
  0
SPLINE
  5
9D
330
41
100
AcDbEntity
  8
Layer 1
370
     0
100
AcDbSpline
210
0.0
220
0.0
230
1.0
 70
    11
 71
     3
 72
    14
 73
    10
 74
     0
 42
0.0000000001
 43
0.0000000001
 12
1.0
 22
0.0
 32
0.0
 13
1.0
 23
0.0
 33
0.0
 40
0.0
 40
0.0
 40
0.0
 40
0.0
 40
1.0
 40
1.0
 40
1.0
 40
2.0
 40
2.0
 40
2.0
 40
3.0
 40
3.0
 40
3.0
 40
3.0
 10
8.829425498252986
 20
-13.59571046116049
 30
0.0
 10
9.378478309158327
 20
-13.5163780563359
 30
0.0
 10
9.849854046937237
 20
-13.87766018443853
 30
0.0
 10
9.839380109963745
 20
-14.37522007073695
 30
0.0
 10
9.59514044570796
 20
-14.49136183429288
 30
0.0
 10
9.376924635852161
 20
-14.39059442793743
 30
0.0
 10
9.169923169141043
 20
-14.26502376179802
 30
0.0
 10
8.920462149462175
 20
-14.11369639812466
 30
0.0
 10
8.840037871056875
 20
-13.8724447272839
 30
0.0
 10
8.829425498252986
 20
-13.59571046116049
 30
0.0
  0
SPLINE
  5
9E
330
41
100
AcDbEntity
  8
Layer 1
370
     0
100
AcDbSpline
210
0.0
220
0.0
230
1.0
 70
    11
 71
     3
 72
    14
 73
    10
 74
     0
 42
0.0000000001
 43
0.0000000001
 12
1.0
 22
0.0
 32
0.0
 13
1.0
 23
0.0
 33
0.0
 40
0.0
 40
0.0
 40
0.0
 40
0.0
 40
1.0
 40
1.0
 40
1.0
 40
2.0
 40
2.0
 40
2.0
 40
3.0
 40
3.0
 40
3.0
 40
3.0
 10
12.17439634634161
 20
-16.17012006685423
 30
0.0
 10
11.62843457507107
 20
-16.25032541541227
 30
0.0
 10
11.15418464576286
 20
-15.88695599418534
 30
0.0
 10
11.16429497183307
 20
-15.3839239025754
 30
0.0
 10
11.4071065612054
 20
-15.28432227163494
 30
0.0
 10
11.62608151290891
 20
-15.37209405776805
 30
0.0
 10
11.83369015431528
 20
-15.50043066486243
 30
0.0
 10
12.08177757135478
 20
-15.6537911963729
 30
0.0
 10
12.16232501948405
 20
-15.89397146409402
 30
0.0
 10
12.17439634634161
 20
-16.17012006685423
 30
0.0
  0
SPLINE
  5
9F
330
41
100
AcDbEntity
  8
Layer 1
370
     0
100
AcDbSpline
210
0.0
220
0.0
230
1.0
 70
    11
 71
     3
 72
    11
 73
     7
 74
     0
 42
0.0000000001
 43
0.0000000001
 12
1.0
 22
0.0
 32
0.0
 13
1.0
 23
0.0
 33
0.0
 40
0.0
 40
0.0
 40
0.0
 40
0.0
 40
1.0
 40
1.0
 40
1.0
 40
2.0
 40
2.0
 40
2.0
 40
2.0
 10
9.83813245270407
 20
-15.39950643395707
 30
0.0
 10
9.855057013641003
 20
-15.88253715023099
 30
0.0
 10
9.386239042635868
 20
-16.24427864936042
 30
0.0
 10
8.852450950528777
 20
-16.17498856704006
 30
0.0
 10
8.799606975485446
 20
-15.64088162147866
 30
0.0
 10
9.346632516822295
 20
-15.20274297348073
 30
0.0
 10
9.83813245270407
 20
-15.39950643395707
 30
0.0
  0
SPLINE
  5
A0
330
41
100
AcDbEntity
  8
Layer 1
370
     0
100
AcDbSpline
210
0.0
220
0.0
230
1.0
 70
    11
 71
     3
 72
    14
 73
    10
 74
     0
 42
0.0000000001
 43
0.0000000001
 12
1.0
 22
0.0
 32
0.0
 13
1.0
 23
0.0
 33
0.0
 40
0.0
 40
0.0
 40
0.0
 40
0.0
 40
1.0
 40
1.0
 40
1.0
 40
2.0
 40
2.0
 40
2.0
 40
3.0
 40
3.0
 40
3.0
 40
3.0
 10
16.97523437198155
 20
-7.409237328459678
 30
0.0
 10
16.97523437198155
 20
-7.866104713632264
 30
0.0
 10
16.97523437198155
 20
-8.305471589299735
 30
0.0
 10
16.97523437198155
 20
-8.775004985574393
 30
0.0
 10
16.73390081929626
 20
-8.555336119933346
 30
0.0
 10
16.51577313651048
 20
-8.3567893006374
 30
0.0
 10
16.30997491656711
 20
-8.169466539281412
 30
0.0
 10
16.52510072765911
 20
-7.923631566883158
 30
0.0
 10
16.74003501850417
 20
-7.678013095633418
 30
0.0
 10
16.97523437198155
 20
-7.409237328459678
 30
0.0
  0
SPLINE
  5
A1
330
41
100
AcDbEntity
  8
Layer 1
370
     0
100
AcDbSpline
210
0.0
220
0.0
230
1.0
 70
    11
 71
     3
 72
    14
 73
    10
 74
     0
 42
0.0000000001
 43
0.0000000001
 12
1.0
 22
0.0
 32
0.0
 13
1.0
 23
0.0
 33
0.0
 40
0.0
 40
0.0
 40
0.0
 40
0.0
 40
1.0
 40
1.0
 40
1.0
 40
2.0
 40
2.0
 40
2.0
 40
3.0
 40
3.0
 40
3.0
 40
3.0
 10
4.034409020222405
 20
-7.415692115906795
 30
0.0
 10
4.25827090420084
 20
-7.672058620135296
 30
0.0
 10
4.47228940212683
 20
-7.917151798534277
 30
0.0
 10
4.692471677342408
 20
-8.169303469506104
 30
0.0
 10
4.4934388580725
 20
-8.351384404977805
 30
0.0
 10
4.274544226907258
 20
-8.551635476904423
 30
0.0
 10
4.034409020222405
 20
-8.771318220824197
 30
0.0
 10
4.034409020222405
 20
-8.310537854957785
 30
0.0
 10
4.034409020222405
 20
-7.867691694807417
 30
0.0
 10
4.034409020222405
 20
-7.415692115906795
 30
0.0
  0
SPLINE
  5
A2
330
41
100
AcDbEntity
  8
Layer 1
370
     0
100
AcDbSpline
210
0.0
220
0.0
230
1.0
 70
    11
 71
     3
 72
    14
 73
    10
 74
     0
 42
0.0000000001
 43
0.0000000001
 12
1.0
 22
0.0
 32
0.0
 13
1.0
 23
0.0
 33
0.0
 40
0.0
 40
0.0
 40
0.0
 40
0.0
 40
1.0
 40
1.0
 40
1.0
 40
2.0
 40
2.0
 40
2.0
 40
3.0
 40
3.0
 40
3.0
 40
3.0
 10
4.031279078037465
 20
-20.9935852381699
 30
0.0
 10
4.268880327870552
 20
-21.21001005615286
 30
0.0
 10
4.483942906054842
 20
-21.40590612420734
 30
0.0
 10
4.693683771512882
 20
-21.59695450949408
 30
0.0
 10
4.480967316351392
 20
-21.83974528144832
 30
0.0
 10
4.26276833390856
 20
-22.08879515711919
 30
0.0
 10
4.031279078037465
 20
-22.35301260363714
 30
0.0
 10
4.031279078037465
 20
-21.90422792800919
 30
0.0
 10
4.031279078037465
 20
-21.46549390185273
 30
0.0
 10
4.031279078037465
 20
-20.9935852381699
 30
0.0
  0
SPLINE
  5
A3
330
41
100
AcDbEntity
  8
Layer 1
370
     0
100
AcDbSpline
210
0.0
220
0.0
230
1.0
 70
    11
 71
     3
 72
    17
 73
    13
 74
     0
 42
0.0000000001
 43
0.0000000001
 12
1.0
 22
0.0
 32
0.0
 13
1.0
 23
0.0
 33
0.0
 40
0.0
 40
0.0
 40
0.0
 40
0.0
 40
1.0
 40
1.0
 40
1.0
 40
2.0
 40
2.0
 40
2.0
 40
3.0
 40
3.0
 40
3.0
 40
4.0
 40
4.0
 40
4.0
 40
4.0
 10
16.3031398642823
 20
-21.58918267339353
 30
0.0
 10
16.40256524108266
 20
-21.50709681806477
 30
0.0
 10
16.52109961989508
 20
-21.41691576274057
 30
0.0
 10
16.63049237649436
 20
-21.31674928585494
 30
0.0
 10
16.73893030751555
 20
-21.21745714053065
 30
0.0
 10
16.83815028579036
 20
-21.10810046745616
 30
0.0
 10
16.9726835443471
 20
-20.97137721651247
 30
0.0
 10
16.9726835443471
 20
-21.45593593127689
 30
0.0
 10
16.9726835443471
 20
-21.89489756120484
 30
0.0
 10
16.9726835443471
 20
-22.3497664742373
 30
0.0
 10
16.74647870332831
 20
-22.09280459185038
 30
0.0
 10
16.52943768976878
 20
-21.84625003069887
 30
0.0
 10
16.3031398642823
 20
-21.58918267339353
 30
0.0
  0
SPLINE
  5
A4
330
41
100
AcDbEntity
  8
Layer 1
370
     0
100
AcDbSpline
210
0.0
220
0.0
230
1.0
 70
    11
 71
     3
 72
    11
 73
     7
 74
     0
 42
0.0000000001
 43
0.0000000001
 12
1.0
 22
0.0
 32
0.0
 13
1.0
 23
0.0
 33
0.0
 40
0.0
 40
0.0
 40
0.0
 40
0.0
 40
1.0
 40
1.0
 40
1.0
 40
2.0
 40
2.0
 40
2.0
 40
2.0
 10
11.58963992856436
 20
-14.87740697517108
 30
0.0
 10
11.87143282729262
 20
-14.53272049279886
 30
0.0
 10
12.52633769893103
 20
-14.53787210987124
 30
0.0
 10
12.81915827795469
 20
-14.87640218778948
 30
0.0
 10
12.56188066472627
 20
-15.23000823991496
 30
0.0
 10
11.85058418303892
 20
-15.23762463929343
 30
0.0
 10
11.58963992856436
 20
-14.87740697517108
 30
0.0
  0
SPLINE
  5
A5
330
41
100
AcDbEntity
  8
Layer 1
370
     0
100
AcDbSpline
210
0.0
220
0.0
230
1.0
 70
    11
 71
     3
 72
    11
 73
     7
 74
     0
 42
0.0000000001
 43
0.0000000001
 12
1.0
 22
0.0
 32
0.0
 13
1.0
 23
0.0
 33
0.0
 40
0.0
 40
0.0
 40
0.0
 40
0.0
 40
1.0
 40
1.0
 40
1.0
 40
2.0
 40
2.0
 40
2.0
 40
2.0
 10
8.174498074411643
 20
-14.88358974835465
 30
0.0
 10
8.491953292132546
 20
-14.53550169986058
 30
0.0
 10
9.144679967920883
 20
-14.53500763313702
 30
0.0
 10
9.405272408028967
 20
-14.8712075480529
 30
0.0
 10
9.203729268350779
 20
-15.23050924577782
 30
0.0
 10
8.509424657252255
 20
-15.24393509264157
 30
0.0
 10
8.174498074411643
 20
-14.88358974835465
 30
0.0
  0
SPLINE
  5
A6
330
41
100
AcDbEntity
  8
Layer 1
370
     0
100
AcDbSpline
210
0.0
220
0.0
230
1.0
 70
    11
 71
     3
 72
    17
 73
    13
 74
     0
 42
0.0000000001
 43
0.0000000001
 12
1.0
 22
0.0
 32
0.0
 13
1.0
 23
0.0
 33
0.0
 40
0.0
 40
0.0
 40
0.0
 40
0.0
 40
1.0
 40
1.0
 40
1.0
 40
2.0
 40
2.0
 40
2.0
 40
3.0
 40
3.0
 40
3.0
 40
4.0
 40
4.0
 40
4.0
 40
4.0
 10
10.73802086433924
 20
-4.961543693859142
 30
0.0
 10
10.86587936473066
 20
-5.390015079836174
 30
0.0
 10
11.18984418909972
 20
-5.655612374218955
 30
0.0
 10
11.55421007074081
 20
-5.940098352938842
 30
0.0
 10
11.24811561200561
 20
-6.088372495287006
 30
0.0
 10
10.98246939669031
 20
-6.00292740258656
 30
0.0
 10
10.69635272021714
 20
-6.019547682261843
 30
0.0
 10
10.69635272021714
 20
-5.661423556488978
 30
0.0
 10
10.69635272021714
 20
-5.32477086272882
 30
0.0
 10
10.69635272021714
 20
-4.988118515925579
 30
0.0
 10
10.71024210159122
 20
-4.979260010598812
 30
0.0
 10
10.72413148296516
 20
-4.970401852228993
 30
0.0
 10
10.73802086433924
 20
-4.961543693859142
 30
0.0
  0
SPLINE
  5
A7
330
41
100
AcDbEntity
  8
Layer 1
370
     0
100
AcDbSpline
210
0.0
220
0.0
230
1.0
 70
    11
 71
     3
 72
    17
 73
    13
 74
     0
 42
0.0000000001
 43
0.0000000001
 12
1.0
 22
0.0
 32
0.0
 13
1.0
 23
0.0
 33
0.0
 40
0.0
 40
0.0
 40
0.0
 40
0.0
 40
1.0
 40
1.0
 40
1.0
 40
2.0
 40
2.0
 40
2.0
 40
3.0
 40
3.0
 40
3.0
 40
4.0
 40
4.0
 40
4.0
 40
4.0
 10
10.26696016348797
 20
-24.80261762417867
 30
0.0
 10
10.13577157011029
 20
-24.3774149198045
 30
0.0
 10
9.817020815067943
 20
-24.10659002477317
 30
0.0
 10
9.437383275489214
 20
-23.8267678416276
 30
0.0
 10
9.758358024701266
 20
-23.68165100769523
 30
0.0
 10
10.02302304570903
 20
-23.76061008682143
 30
0.0
 10
10.30852144486371
 20
-23.749392274107
 30
0.0
 10
10.30852144486371
 20
-24.10732557354694
 30
0.0
 10
10.30852144486371
 20
-24.44344777010195
 30
0.0
 10
10.30852144486371
 20
-24.77957135448469
 30
0.0
 10
10.29466745310051
 20
-24.78725436960125
 30
0.0
 10
10.28081415525127
 20
-24.79493460906216
 30
0.0
 10
10.26696016348797
 20
-24.80261762417867
 30
0.0
  0
SPLINE
  5
A8
330
41
100
AcDbEntity
  8
Layer 1
370
     0
100
AcDbSpline
210
0.0
220
0.0
230
1.0
 70
    11
 71
     3
 72
    17
 73
    13
 74
     0
 42
0.0000000001
 43
0.0000000001
 12
1.0
 22
0.0
 32
0.0
 13
1.0
 23
0.0
 33
0.0
 40
0.0
 40
0.0
 40
0.0
 40
0.0
 40
1.0
 40
1.0
 40
1.0
 40
2.0
 40
2.0
 40
2.0
 40
3.0
 40
3.0
 40
3.0
 40
4.0
 40
4.0
 40
4.0
 40
4.0
 10
10.31873308236877
 20
-4.989598981311362
 30
0.0
 10
10.31873308236877
 20
-5.318049265372712
 30
0.0
 10
10.31873308236877
 20
-5.64649954943403
 30
0.0
 10
10.31873308236877
 20
-6.000715204953726
 30
0.0
 10
10.03740302423689
 20
-6.031924678209008
 30
0.0
 10
9.772198832099738
 20
-6.060715514434973
 30
0.0
 10
9.4884962822153
 20
-5.939937364905291
 30
0.0
 10
9.825038990616502
 20
-5.664311973254025
 30
0.0
 10
10.12835154837602
 20
-5.377156507616376
 30
0.0
 10
10.27871020819252
 20
-4.961992656176784
 30
0.0
 10
10.29205070364203
 20
-4.971194648902639
 30
0.0
 10
10.3053918930054
 20
-4.980396641628494
 30
0.0
 10
10.31873308236877
 20
-4.989598981311362
 30
0.0
  0
SPLINE
  5
A9
330
41
100
AcDbEntity
  8
Layer 1
370
     0
100
AcDbSpline
210
0.0
220
0.0
230
1.0
 70
    11
 71
     3
 72
    17
 73
    13
 74
     0
 42
0.0000000001
 43
0.0000000001
 12
1.0
 22
0.0
 32
0.0
 13
1.0
 23
0.0
 33
0.0
 40
0.0
 40
0.0
 40
0.0
 40
0.0
 40
1.0
 40
1.0
 40
1.0
 40
2.0
 40
2.0
 40
2.0
 40
3.0
 40
3.0
 40
3.0
 40
4.0
 40
4.0
 40
4.0
 40
4.0
 10
10.68899029333963
 20
-24.78001823506045
 30
0.0
 10
10.68899029333963
 20
-24.44918782619335
 30
0.0
 10
10.68899029333963
 20
-24.11835741732619
 30
0.0
 10
10.68899029333963
 20
-23.76330802421066
 30
0.0
 10
10.97004278589657
 20
-23.74812379942914
 30
0.0
 10
11.23662925459741
 20
-23.6862197370601
 30
0.0
 10
11.55989947111484
 20
-23.82599759715688
 30
0.0
 10
11.18992537703044
 20
-24.11100331741596
 30
0.0
 10
10.8655497556103
 20
-24.37651560734142
 30
0.0
 10
10.73647690582818
 20
-24.80290906803247
 30
0.0
 10
10.72064803499875
 20
-24.79527879037515
 30
0.0
 10
10.70481916416925
 20
-24.78764851271783
 30
0.0
 10
10.68899029333963
 20
-24.78001823506045
 30
0.0
  0
SPLINE
  5
AA
330
41
100
AcDbEntity
  8
Layer 1
370
     0
100
AcDbSpline
210
0.0
220
0.0
230
1.0
 70
    11
 71
     3
 72
    17
 73
    13
 74
     0
 42
0.0000000001
 43
0.0000000001
 12
1.0
 22
0.0
 32
0.0
 13
1.0
 23
0.0
 33
0.0
 40
0.0
 40
0.0
 40
0.0
 40
0.0
 40
1.0
 40
1.0
 40
1.0
 40
2.0
 40
2.0
 40
2.0
 40
3.0
 40
3.0
 40
3.0
 40
4.0
 40
4.0
 40
4.0
 40
4.0
 10
13.43650644555089
 20
-3.728999879701034
 30
0.0
 10
13.63004390013164
 20
-3.520134907110756
 30
0.0
 10
13.79987309112204
 20
-3.336855582268847
 30
0.0
 10
13.9697022821123
 20
-3.153576257426937
 30
0.0
 10
13.98734226831882
 20
-3.163086174462582
 30
0.0
 10
14.00498156061138
 20
-3.172596264976718
 30
0.0
 10
14.02262085290394
 20
-3.182106182012427
 30
0.0
 10
14.02262085290394
 20
-3.416160577492837
 30
0.0
 10
14.02262085290394
 20
-3.650214799494821
 30
0.0
 10
14.02262085290394
 20
-3.901841351094348
 30
0.0
 10
13.84662415483675
 20
-3.849941099006056
 30
0.0
 10
13.67289933100094
 20
-3.79871082082448
 30
0.0
 10
13.43650644555089
 20
-3.728999879701034
 30
0.0
  0
SPLINE
  5
AB
330
41
100
AcDbEntity
  8
Layer 1
370
     0
100
AcDbSpline
210
0.0
220
0.0
230
1.0
 70
    11
 71
     3
 72
    17
 73
    13
 74
     0
 42
0.0000000001
 43
0.0000000001
 12
1.0
 22
0.0
 32
0.0
 13
1.0
 23
0.0
 33
0.0
 40
0.0
 40
0.0
 40
0.0
 40
0.0
 40
1.0
 40
1.0
 40
1.0
 40
2.0
 40
2.0
 40
2.0
 40
3.0
 40
3.0
 40
3.0
 40
4.0
 40
4.0
 40
4.0
 40
4.0
 10
7.564738549636555
 20
-3.727909914383654
 30
0.0
 10
7.334892048273456
 20
-3.797983599017925
 30
0.0
 10
7.171058967617519
 20
-3.847931524242917
 30
0.0
 10
6.984286480013956
 20
-3.904873061087463
 30
0.0
 10
6.984286480013956
 20
-3.665146266124538
 30
0.0
 10
6.984286480013956
 20
-3.426779195522224
 30
0.0
 10
6.984286480013956
 20
-3.188412124919878
 30
0.0
 10
6.999349269856314
 20
-3.176243823589445
 30
0.0
 10
7.014412406655781
 20
-3.164075522259044
 30
0.0
 10
7.029475196498171
 20
-3.151907047450154
 30
0.0
 10
7.201586323472167
 20
-3.337117881737213
 30
0.0
 10
7.373697450446162
 20
-3.522328542545845
 30
0.0
 10
7.564738549636555
 20
-3.727909914383654
 30
0.0
  0
SPLINE
  5
AC
330
41
100
AcDbEntity
  8
Layer 1
370
     0
100
AcDbSpline
210
0.0
220
0.0
230
1.0
 70
    11
 71
     3
 72
    17
 73
    13
 74
     0
 42
0.0000000001
 43
0.0000000001
 12
1.0
 22
0.0
 32
0.0
 13
1.0
 23
0.0
 33
0.0
 40
0.0
 40
0.0
 40
0.0
 40
0.0
 40
1.0
 40
1.0
 40
1.0
 40
2.0
 40
2.0
 40
2.0
 40
3.0
 40
3.0
 40
3.0
 40
4.0
 40
4.0
 40
4.0
 40
4.0
 10
13.97035386729971
 20
-26.61322505618628
 30
0.0
 10
13.80020061850051
 20
-26.42963208224468
 30
0.0
 10
13.63004806361528
 20
-26.24603910830296
 30
0.0
 10
13.44032227829351
 20
-26.04132616975792
 30
0.0
 10
13.6586317665309
 20
-25.97378336273245
 30
0.0
 10
13.83231634335833
 20
-25.92004666740846
 30
0.0
 10
14.02582049007007
 20
-25.86017854853221
 30
0.0
 10
14.02582049007007
 20
-26.10457503733793
 30
0.0
 10
14.02582049007007
 20
-26.339612014954
 30
0.0
 10
14.02582049007007
 20
-26.57464899256993
 30
0.0
 10
14.00733184711789
 20
-26.58750860566064
 30
0.0
 10
13.98884251025188
 20
-26.60036544309557
 30
0.0
 10
13.97035386729971
 20
-26.61322505618628
 30
0.0
  0
SPLINE
  5
AD
330
41
100
AcDbEntity
  8
Layer 1
370
     0
100
AcDbSpline
210
0.0
220
0.0
230
1.0
 70
    11
 71
     3
 72
    17
 73
    13
 74
     0
 42
0.0000000001
 43
0.0000000001
 12
1.0
 22
0.0
 32
0.0
 13
1.0
 23
0.0
 33
0.0
 40
0.0
 40
0.0
 40
0.0
 40
0.0
 40
1.0
 40
1.0
 40
1.0
 40
2.0
 40
2.0
 40
2.0
 40
3.0
 40
3.0
 40
3.0
 40
4.0
 40
4.0
 40
4.0
 40
4.0
 10
6.970031405994847
 20
-26.57274766838107
 30
0.0
 10
6.970031405994847
 20
-26.34105535594404
 30
0.0
 10
6.970031405994847
 20
-26.10936581916285
 30
0.0
 10
6.970031405994847
 20
-25.86012303541724
 30
0.0
 10
7.158739566527108
 20
-25.91665204042596
 30
0.0
 10
7.333316863635177
 20
-25.96895094607136
 30
0.0
 10
7.561912932082816
 20
-26.03743192474048
 30
0.0
 10
7.375381926529595
 20
-26.24131494221613
 30
0.0
 10
7.20475577538191
 20
-26.42781680338408
 30
0.0
 10
7.034129624234354
 20
-26.61431588889617
 30
0.0
 10
7.012763667140104
 20
-26.60045981539118
 30
0.0
 10
6.991397363088969
 20
-26.58660374188606
 30
0.0
 10
6.970031405994847
 20
-26.57274766838107
 30
0.0
  0
SPLINE
  5
AE
330
41
100
AcDbEntity
  8
Layer 1
370
     0
100
AcDbSpline
210
0.0
220
0.0
230
1.0
 70
    11
 71
     3
 72
    23
 73
    19
 74
     0
 42
0.0000000001
 43
0.0000000001
 12
1.0
 22
0.0
 32
0.0
 13
1.0
 23
0.0
 33
0.0
 40
0.0
 40
0.0
 40
0.0
 40
0.0
 40
1.0
 40
1.0
 40
1.0
 40
2.0
 40
2.0
 40
2.0
 40
3.0
 40
3.0
 40
3.0
 40
4.0
 40
4.0
 40
4.0
 40
5.0
 40
5.0
 40
5.0
 40
6.0
 40
6.0
 40
6.0
 40
6.0
 10
11.15904343115354
 20
-17.87301123833577
 30
0.0
 10
11.37872964464312
 20
-18.16998419836184
 30
0.0
 10
11.60111865291929
 20
-18.46505999768276
 30
0.0
 10
11.81315099567762
 20
-18.76740107592979
 30
0.0
 10
11.83078265491686
 20
-18.7925429657151
 30
0.0
 10
11.77977026571175
 20
-18.90950771120096
 30
0.0
 10
11.75838869555397
 20
-18.91016554161383
 30
0.0
 10
11.69340365530225
 20
-18.91215985027032
 30
0.0
 10
11.59458059579979
 20
-18.89840508820017
 30
0.0
 10
11.56723275360692
 20
-18.85448311160888
 30
0.0
 10
11.43952691428172
 20
-18.64938296908675
 30
0.0
 10
11.32845835552317
 20
-18.43360487889352
 30
0.0
 10
11.21765834145864
 20
-18.21844298427678
 30
0.0
 10
11.16762228916357
 20
-18.12127837908512
 30
0.0
 10
11.1320730781428
 20
-18.01665281123681
 30
0.0
 10
11.08995111430559
 20
-17.91541215557592
 30
0.0
 10
11.11298142397889
 20
-17.90127851649585
 30
0.0
 10
11.13601242756628
 20
-17.88714487741578
 30
0.0
 10
11.15904343115354
 20
-17.87301123833577
 30
0.0
  0
SPLINE
  5
AF
330
41
100
AcDbEntity
  8
Layer 1
370
     0
100
AcDbSpline
210
0.0
220
0.0
230
1.0
 70
    11
 71
     3
 72
    20
 73
    16
 74
     0
 42
0.0000000001
 43
0.0000000001
 12
1.0
 22
0.0
 32
0.0
 13
1.0
 23
0.0
 33
0.0
 40
0.0
 40
0.0
 40
0.0
 40
0.0
 40
1.0
 40
1.0
 40
1.0
 40
2.0
 40
2.0
 40
2.0
 40
3.0
 40
3.0
 40
3.0
 40
4.0
 40
4.0
 40
4.0
 40
5.0
 40
5.0
 40
5.0
 40
5.0
 10
9.908082447179023
 20
-17.9104506709224
 30
0.0
 10
9.790949774520216
 20
-18.25522458645074
 30
0.0
 10
9.637954241741015
 20
-18.57655392568489
 30
0.0
 10
9.427615742904253
 20
-18.86738852301941
 30
0.0
 10
9.398077214410499
 20
-18.90823229738374
 30
0.0
 10
9.299667727614816
 20
-18.89926692931053
 30
0.0
 10
9.23313734102415
 20
-18.91335615789858
 30
0.0
 10
9.221034094125434
 20
-18.85305642455328
 30
0.0
 10
9.177296004727634
 20
-18.7696785014728
 30
0.0
 10
9.201802269346157
 20
-18.73608751558384
 30
0.0
 10
9.40880165431539
 20
-18.45235720914186
 30
0.0
 10
9.628104827311372
 20
-18.1775964342568
 30
0.0
 10
9.84518608787931
 20
-17.90129655825828
 30
0.0
 10
9.849385655029302
 20
-17.89595064528333
 30
0.0
 10
9.871516652239716
 20
-17.90469118524078
 30
0.0
 10
9.908082447179023
 20
-17.9104506709224
 30
0.0
  0
SPLINE
  5
B0
330
41
100
AcDbEntity
  8
Layer 1
370
     0
100
AcDbSpline
210
0.0
220
0.0
230
1.0
 70
    11
 71
     3
 72
    20
 73
    16
 74
     0
 42
0.0000000001
 43
0.0000000001
 12
1.0
 22
0.0
 32
0.0
 13
1.0
 23
0.0
 33
0.0
 40
0.0
 40
0.0
 40
0.0
 40
0.0
 40
1.0
 40
1.0
 40
1.0
 40
2.0
 40
2.0
 40
2.0
 40
3.0
 40
3.0
 40
3.0
 40
4.0
 40
4.0
 40
4.0
 40
5.0
 40
5.0
 40
5.0
 40
5.0
 10
9.843451303035435
 20
-11.89280471748623
 30
0.0
 10
9.62430495458936
 20
-11.59541193952795
 30
0.0
 10
9.402462056581909
 20
-11.29990244399601
 30
0.0
 10
9.190947373621078
 20
-10.99717763134152
 30
0.0
 10
9.173347981379885
 20
-10.9719885554084
 30
0.0
 10
9.216250945353872
 20
-10.86274499030572
 30
0.0
 10
9.247277919243585
 20
-10.85462966680605
 30
0.0
 10
9.30099171540764
 20
-10.84058276696821
 30
0.0
 10
9.396871191987064
 20
-10.85442149262476
 30
0.0
 10
9.423850565879023
 20
-10.89267904974385
 30
0.0
 10
9.6320233593167
 20
-11.18787281443408
 30
0.0
 10
9.794780873369486
 20
-11.5072758485776
 30
0.0
 10
9.902988424963429
 20
-11.85136417713566
 30
0.0
 10
9.88314248634938
 20
-11.86517792189054
 30
0.0
 10
9.863297241649388
 20
-11.87899097273144
 30
0.0
 10
9.843451303035435
 20
-11.89280471748623
 30
0.0
  0
SPLINE
  5
B1
330
41
100
AcDbEntity
  8
Layer 1
370
     0
100
AcDbSpline
210
0.0
220
0.0
230
1.0
 70
    11
 71
     3
 72
    26
 73
    22
 74
     0
 42
0.0000000001
 43
0.0000000001
 12
1.0
 22
0.0
 32
0.0
 13
1.0
 23
0.0
 33
0.0
 40
0.0
 40
0.0
 40
0.0
 40
0.0
 40
1.0
 40
1.0
 40
1.0
 40
2.0
 40
2.0
 40
2.0
 40
3.0
 40
3.0
 40
3.0
 40
4.0
 40
4.0
 40
4.0
 40
5.0
 40
5.0
 40
5.0
 40
6.0
 40
6.0
 40
6.0
 40
7.0
 40
7.0
 40
7.0
 40
7.0
 10
11.09967631814028
 20
-11.8516014957022
 30
0.0
 10
11.20849312617139
 20
-11.50738895654945
 30
0.0
 10
11.37128186635137
 20
-11.18748075305933
 30
0.0
 10
11.58159191471666
 20
-10.89350758298528
 30
0.0
 10
11.60951084808011
 20
-10.85448255705126
 30
0.0
 10
11.71137463845693
 20
-10.86835875406054
 30
0.0
 10
11.7789937760157
 20
-10.85773562559053
 30
0.0
 10
11.78654702922588
 20
-10.9198242690669
 30
0.0
 10
11.8200214375734
 20
-10.99527353149693
 30
0.0
 10
11.79632150095013
 20
-11.04125296291297
 30
0.0
 10
11.74516547156005
 20
-11.14049792208955
 30
0.0
 10
11.66417669416652
 20
-11.22425333435207
 30
0.0
 10
11.59627305189344
 20
-11.31500548084685
 30
0.0
 10
11.49647434939472
 20
-11.44838406661157
 30
0.0
 10
11.39937982951065
 20
-11.5838409246192
 30
0.0
 10
11.29722528919399
 20
-11.71537716887974
 30
0.0
 10
11.25039234363472
 20
-11.77567967788071
 30
0.0
 10
11.19425956348427
 20
-11.82875854279204
 30
0.0
 10
11.1423443922464
 20
-11.88511337540238
 30
0.0
 10
11.12812193218235
 20
-11.87394274883569
 30
0.0
 10
11.1138987782044
 20
-11.86277212226901
 30
0.0
 10
11.09967631814028
 20
-11.8516014957022
 30
0.0
  0
SPLINE
  5
B2
330
41
100
AcDbEntity
  8
Layer 1
370
     0
100
AcDbSpline
210
0.0
220
0.0
230
1.0
 70
    11
 71
     3
 72
    20
 73
    16
 74
     0
 42
0.0000000001
 43
0.0000000001
 12
1.0
 22
0.0
 32
0.0
 13
1.0
 23
0.0
 33
0.0
 40
0.0
 40
0.0
 40
0.0
 40
0.0
 40
1.0
 40
1.0
 40
1.0
 40
2.0
 40
2.0
 40
2.0
 40
3.0
 40
3.0
 40
3.0
 40
4.0
 40
4.0
 40
4.0
 40
5.0
 40
5.0
 40
5.0
 40
5.0
 10
16.9725558641826
 20
-14.56518595028123
 30
0.0
 10
16.9725558641826
 20
-14.78498457782861
 30
0.0
 10
16.9725558641826
 20
-14.98146630924625
 30
0.0
 10
16.9725558641826
 20
-15.19879321534815
 30
0.0
 10
16.8015088542319
 20
-15.12090970282513
 30
0.0
 10
16.65160401413046
 20
-15.05691834733197
 30
0.0
 10
16.50653714200174
 20
-14.98338012388605
 30
0.0
 10
16.47337638275397
 20
-14.96656658917917
 30
0.0
 10
16.43214401658463
 20
-14.91111731425728
 30
0.0
 10
16.43850304390837
 20
-14.88358003355951
 30
0.0
 10
16.44826224952605
 20
-14.84130124517239
 30
0.0
 10
16.48885482704496
 20
-14.79409844348434
 30
0.0
 10
16.52898248222581
 20
-14.77307840248798
 30
0.0
 10
16.6617837315943
 20
-14.70351353024845
 30
0.0
 10
16.8002348282426
 20
-14.64473901973789
 30
0.0
 10
16.9725558641826
 20
-14.56518595028123
 30
0.0
  0
SPLINE
  5
B3
330
41
100
AcDbEntity
  8
Layer 1
370
     0
100
AcDbSpline
210
0.0
220
0.0
230
1.0
 70
    11
 71
     3
 72
    17
 73
    13
 74
     0
 42
0.0000000001
 43
0.0000000001
 12
1.0
 22
0.0
 32
0.0
 13
1.0
 23
0.0
 33
0.0
 40
0.0
 40
0.0
 40
0.0
 40
0.0
 40
1.0
 40
1.0
 40
1.0
 40
2.0
 40
2.0
 40
2.0
 40
3.0
 40
3.0
 40
3.0
 40
4.0
 40
4.0
 40
4.0
 40
4.0
 10
4.026102393324155
 20
-15.19930393600609
 30
0.0
 10
4.026102393324155
 20
-14.97923329419527
 30
0.0
 10
4.026102393324155
 20
-14.78640571357263
 30
0.0
 10
4.026102393324155
 20
-14.56826692816391
 30
0.0
 10
4.200374628517382
 20
-14.64637665663049
 30
0.0
 10
4.357817802679333
 20
-14.70901071646165
 30
0.0
 10
4.507397717579525
 20
-14.78676932447588
 30
0.0
 10
4.607420814497862
 20
-14.83876845930028
 30
0.0
 10
4.595751697506189
 20
-14.93604547854996
 30
0.0
 10
4.486191360690934
 20
-14.98986128006279
 30
0.0
 10
4.345176512261305
 20
-15.05912638148129
 30
0.0
 10
4.200291966019605
 20
-15.12051417188076
 30
0.0
 10
4.026102393324155
 20
-15.19930393600609
 30
0.0
  0
SPLINE
  5
B4
330
41
100
AcDbEntity
  8
Layer 1
370
     0
100
AcDbSpline
210
0.0
220
0.0
230
1.0
 70
    11
 71
     3
 72
    17
 73
    13
 74
     0
 42
0.0000000001
 43
0.0000000001
 12
1.0
 22
0.0
 32
0.0
 13
1.0
 23
0.0
 33
0.0
 40
0.0
 40
0.0
 40
0.0
 40
0.0
 40
1.0
 40
1.0
 40
1.0
 40
2.0
 40
2.0
 40
2.0
 40
3.0
 40
3.0
 40
3.0
 40
4.0
 40
4.0
 40
4.0
 40
4.0
 10
10.77570039114828
 20
-17.16381592805125
 30
0.0
 10
10.81462618738912
 20
-17.30399625823177
 30
0.0
 10
10.81258816215457
 20
-17.45787306171174
 30
0.0
 10
10.6511421454438
 20
-17.51797156001527
 30
0.0
 10
10.55351747531155
 20
-17.55431183292484
 30
0.0
 10
10.40975932486885
 20
-17.54379487328738
 30
0.0
 10
10.31627662702981
 20
-17.49624233897475
 30
0.0
 10
10.17373837728941
 20
-17.42373943512357
 30
0.0
 10
10.19397637727811
 20
-17.27612589884399
 30
0.0
 10
10.22281335878104
 20
-17.16381592805125
 30
0.0
 10
10.41466460249345
 20
-17.16381592805125
 30
0.0
 10
10.58235376290032
 20
-17.16381592805125
 30
0.0
 10
10.77570039114828
 20
-17.16381592805125
 30
0.0
  0
SPLINE
  5
B5
330
41
100
AcDbEntity
  8
Layer 1
370
     0
100
AcDbSpline
210
0.0
220
0.0
230
1.0
 70
    11
 71
     3
 72
    17
 73
    13
 74
     0
 42
0.0000000001
 43
0.0000000001
 12
1.0
 22
0.0
 32
0.0
 13
1.0
 23
0.0
 33
0.0
 40
0.0
 40
0.0
 40
0.0
 40
0.0
 40
1.0
 40
1.0
 40
1.0
 40
2.0
 40
2.0
 40
2.0
 40
3.0
 40
3.0
 40
3.0
 40
4.0
 40
4.0
 40
4.0
 40
4.0
 10
10.49763103460899
 20
-15.11329052779088
 30
0.0
 10
10.35832226033388
 20
-15.11152521073368
 30
0.0
 10
10.23413178901635
 20
-15.00840266047415
 30
0.0
 10
10.22930214801107
 20
-14.89048031375446
 30
0.0
 10
10.22416996052898
 20
-14.76513170007516
 30
0.0
 10
10.35672140088007
 20
-14.6508288084538
 30
0.0
 10
10.50520163566767
 20
-14.65256775678126
 30
0.0
 10
10.64486916344832
 20
-14.65420400584603
 30
0.0
 10
10.76904645040112
 20
-14.7572960238923
 30
0.0
 10
10.77355897273694
 20
-14.87535576557164
 30
0.0
 10
10.77837681720541
 20
-15.00142743757384
 30
0.0
 10
10.64646516550472
 20
-15.1151765858731
 30
0.0
 10
10.49763103460899
 20
-15.11329052779088
 30
0.0
  0
SPLINE
  5
B6
330
41
100
AcDbEntity
  8
Layer 1
370
     0
100
AcDbSpline
210
0.0
220
0.0
230
1.0
 70
    11
 71
     3
 72
    17
 73
    13
 74
     0
 42
0.0000000001
 43
0.0000000001
 12
1.0
 22
0.0
 32
0.0
 13
1.0
 23
0.0
 33
0.0
 40
0.0
 40
0.0
 40
0.0
 40
0.0
 40
1.0
 40
1.0
 40
1.0
 40
2.0
 40
2.0
 40
2.0
 40
3.0
 40
3.0
 40
3.0
 40
4.0
 40
4.0
 40
4.0
 40
4.0
 10
10.77628674842551
 20
-12.60081829233498
 30
0.0
 10
10.59372840016476
 20
-12.60081829233498
 30
0.0
 10
10.42658604394059
 20
-12.60081829233498
 30
0.0
 10
10.23316239124562
 20
-12.60081829233498
 30
0.0
 10
10.19270998434207
 20
-12.49569588210749
 30
0.0
 10
10.18407630713108
 20
-12.37164905097501
 30
0.0
 10
10.30702606032829
 20
-12.2706790217497
 30
0.0
 10
10.41780317523301
 20
-12.17970412888085
 30
0.0
 10
10.54205193532129
 20
-12.1731258247529
 30
0.0
 10
10.66388934447659
 20
-12.24622896416011
 30
0.0
 10
10.81467059788114
 20
-12.33669799376837
 30
0.0
 10
10.8106493666131
 20
-12.47294730149269
 30
0.0
 10
10.77628674842551
 20
-12.60081829233498
 30
0.0
  0
SPLINE
  5
B7
330
41
100
AcDbEntity
  8
Layer 1
370
     0
100
AcDbSpline
210
0.0
220
0.0
230
1.0
 70
    11
 71
     3
 72
    11
 73
     7
 74
     0
 42
0.0000000001
 43
0.0000000001
 12
1.0
 22
0.0
 32
0.0
 13
1.0
 23
0.0
 33
0.0
 40
0.0
 40
0.0
 40
0.0
 40
0.0
 40
1.0
 40
1.0
 40
1.0
 40
2.0
 40
2.0
 40
2.0
 40
2.0
 10
10.16035138960618
 20
-14.76952833878351
 30
0.0
 10
9.943816239307152
 20
-14.87930274804841
 30
0.0
 10
9.804292351711513
 20
-14.82529542628879
 30
0.0
 10
9.696857126330112
 20
-14.59011966588525
 30
0.0
 10
9.927635554111346
 20
-14.48543442143828
 30
0.0
 10
10.06516235739468
 20
-14.53866733524363
 30
0.0
 10
10.16035138960618
 20
-14.76952833878351
 30
0.0
  0
SPLINE
  5
B8
330
41
100
AcDbEntity
  8
Layer 1
370
     0
100
AcDbSpline
210
0.0
220
0.0
230
1.0
 70
    11
 71
     3
 72
    11
 73
     7
 74
     0
 42
0.0000000001
 43
0.0000000001
 12
1.0
 22
0.0
 32
0.0
 13
1.0
 23
0.0
 33
0.0
 40
0.0
 40
0.0
 40
0.0
 40
0.0
 40
1.0
 40
1.0
 40
1.0
 40
2.0
 40
2.0
 40
2.0
 40
2.0
 10
11.30759791473257
 20
-15.1661404011026
 30
0.0
 10
11.09112521668783
 20
-15.28725058845145
 30
0.0
 10
10.94003239592536
 20
-15.23116291270698
 30
0.0
 10
10.84432084651888
 20
-14.99416632213137
 30
0.0
 10
11.06558918378595
 20
-14.8904719867873
 30
0.0
 10
11.17836893431447
 20
-14.93233720246758
 30
0.0
 10
11.30759791473257
 20
-15.1661404011026
 30
0.0
  0
SPLINE
  5
B9
330
41
100
AcDbEntity
  8
Layer 1
370
     0
100
AcDbSpline
210
0.0
220
0.0
230
1.0
 70
    11
 71
     3
 72
    11
 73
     7
 74
     0
 42
0.0000000001
 43
0.0000000001
 12
1.0
 22
0.0
 32
0.0
 13
1.0
 23
0.0
 33
0.0
 40
0.0
 40
0.0
 40
0.0
 40
0.0
 40
1.0
 40
1.0
 40
1.0
 40
2.0
 40
2.0
 40
2.0
 40
2.0
 10
9.688469788566806
 20
-15.17956347231063
 30
0.0
 10
9.82310158290274
 20
-14.93426628321403
 30
0.0
 10
9.94006632838857
 20
-14.89108401888015
 30
0.0
 10
10.15996557345692
 20
-14.99455075045273
 30
0.0
 10
10.06689297875494
 20
-15.2206015425775
 30
0.0
 10
9.944584402036048
 20
-15.27193313219392
 30
0.0
 10
9.688469788566806
 20
-15.17956347231063
 30
0.0
  0
SPLINE
  5
BA
330
41
100
AcDbEntity
  8
Layer 1
370
     0
100
AcDbSpline
210
0.0
220
0.0
230
1.0
 70
    11
 71
     3
 72
    11
 73
     7
 74
     0
 42
0.0000000001
 43
0.0000000001
 12
1.0
 22
0.0
 32
0.0
 13
1.0
 23
0.0
 33
0.0
 40
0.0
 40
0.0
 40
0.0
 40
0.0
 40
1.0
 40
1.0
 40
1.0
 40
2.0
 40
2.0
 40
2.0
 40
2.0
 10
11.30780955848351
 20
-14.59547390582739
 30
0.0
 10
11.19113903250717
 20
-14.82545502649445
 30
0.0
 10
11.07210364783177
 20
-14.8719208915807
 30
0.0
 10
10.84691539073138
 20
-14.77538774807215
 30
0.0
 10
10.9312953255376
 20
-14.54141939791994
 30
0.0
 10
11.08292801134365
 20
-14.48222853904682
 30
0.0
 10
11.30780955848351
 20
-14.59547390582739
 30
0.0
  0
SPLINE
  5
BB
330
41
100
AcDbEntity
  8
Layer 1
370
     0
100
AcDbSpline
210
0.0
220
0.0
230
1.0
 70
    11
 71
     3
 72
    11
 73
     7
 74
     0
 42
0.0000000001
 43
0.0000000001
 12
1.0
 22
0.0
 32
0.0
 13
1.0
 23
0.0
 33
0.0
 40
0.0
 40
0.0
 40
0.0
 40
0.0
 40
1.0
 40
1.0
 40
1.0
 40
2.0
 40
2.0
 40
2.0
 40
2.0
 10
10.62100823879173
 20
-14.5930424313902
 30
0.0
 10
10.58367011763995
 20
-14.35214882014127
 30
0.0
 10
10.64165772974536
 20
-14.26747050234186
 30
0.0
 10
10.87261102383887
 20
-14.20682658768339
 30
0.0
 10
10.95188583380664
 20
-14.41410006865809
 30
0.0
 10
10.88913658426168
 20
-14.5158986311247
 30
0.0
 10
10.62100823879173
 20
-14.5930424313902
 30
0.0
  0
SPLINE
  5
BC
330
41
100
AcDbEntity
  8
Layer 1
370
     0
100
AcDbSpline
210
0.0
220
0.0
230
1.0
 70
    11
 71
     3
 72
    11
 73
     7
 74
     0
 42
0.0000000001
 43
0.0000000001
 12
1.0
 22
0.0
 32
0.0
 13
1.0
 23
0.0
 33
0.0
 40
0.0
 40
0.0
 40
0.0
 40
0.0
 40
1.0
 40
1.0
 40
1.0
 40
2.0
 40
2.0
 40
2.0
 40
2.0
 10
10.3826515768984
 20
-14.57993856059349
 30
0.0
 10
10.14201401989241
 20
-14.54409513006326
 30
0.0
 10
10.06799768974353
 20
-14.44262825845861
 30
0.0
 10
10.11588330274614
 20
-14.21423481288073
 30
0.0
 10
10.34848117287155
 20
-14.24142097312615
 30
0.0
 10
10.42604617889718
 20
-14.34775218143296
 30
0.0
 10
10.3826515768984
 20
-14.57993856059349
 30
0.0
  0
SPLINE
  5
BD
330
41
100
AcDbEntity
  8
Layer 1
370
     0
100
AcDbSpline
210
0.0
220
0.0
230
1.0
 70
    11
 71
     3
 72
    11
 73
     7
 74
     0
 42
0.0000000001
 43
0.0000000001
 12
1.0
 22
0.0
 32
0.0
 13
1.0
 23
0.0
 33
0.0
 40
0.0
 40
0.0
 40
0.0
 40
0.0
 40
1.0
 40
1.0
 40
1.0
 40
2.0
 40
2.0
 40
2.0
 40
2.0
 10
10.61422245439636
 20
-15.18021020010055
 30
0.0
 10
10.87295520515192
 20
-15.23339592775797
 30
0.0
 10
10.94200866281954
 20
-15.33489333157591
 30
0.0
 10
10.88257632189605
 20
-15.55615472970362
 30
0.0
 10
10.65619175716741
 20
-15.51313761688691
 30
0.0
 10
10.59266879358212
 20
-15.42877017253143
 30
0.0
 10
10.61422245439636
 20
-15.18021020010055
 30
0.0
  0
SPLINE
  5
BE
330
41
100
AcDbEntity
  8
Layer 1
370
     0
100
AcDbSpline
210
0.0
220
0.0
230
1.0
 70
    11
 71
     3
 72
    11
 73
     7
 74
     0
 42
0.0000000001
 43
0.0000000001
 12
1.0
 22
0.0
 32
0.0
 13
1.0
 23
0.0
 33
0.0
 40
0.0
 40
0.0
 40
0.0
 40
0.0
 40
1.0
 40
1.0
 40
1.0
 40
2.0
 40
2.0
 40
2.0
 40
2.0
 10
10.38872748733562
 20
-15.17879877915147
 30
0.0
 10
10.41247044662292
 20
-15.4274545117059
 30
0.0
 10
10.34932705396146
 20
-15.51217307651372
 30
0.0
 10
10.11970260505841
 20
-15.55910525176614
 30
0.0
 10
10.05562589815089
 20
-15.34273594689801
 30
0.0
 10
10.12511027637369
 20
-15.23952041217079
 30
0.0
 10
10.38872748733562
 20
-15.17879877915147
 30
0.0
  0
SPLINE
  5
BF
330
41
100
AcDbEntity
  8
Layer 1
370
     0
100
AcDbSpline
210
0.0
220
0.0
230
1.0
 70
    11
 71
     3
 72
    17
 73
    13
 74
     0
 42
0.0000000001
 43
0.0000000001
 12
1.0
 22
0.0
 32
0.0
 13
1.0
 23
0.0
 33
0.0
 40
0.0
 40
0.0
 40
0.0
 40
0.0
 40
1.0
 40
1.0
 40
1.0
 40
2.0
 40
2.0
 40
2.0
 40
3.0
 40
3.0
 40
3.0
 40
4.0
 40
4.0
 40
4.0
 40
4.0
 10
9.246942411854771
 20
-21.5330644654359
 30
0.0
 10
9.356289023177165
 20
-21.5330644654359
 30
0.0
 10
9.420884777709981
 20
-21.5330644654359
 30
0.0
 10
9.511986656829375
 20
-21.5330644654359
 30
0.0
 10
9.517574745768469
 20
-21.62318723198929
 30
0.0
 10
9.522634766201021
 20
-21.70479289887321
 30
0.0
 10
9.5276947866337
 20
-21.78639995358512
 30
0.0
 10
9.514685288132414
 20
-21.79098811254015
 30
0.0
 10
9.501676483545154
 20
-21.79557765932311
 30
0.0
 10
9.488667678957894
 20
-21.8001658182782
 30
0.0
 10
9.418451915444892
 20
-21.72257930092056
 30
0.0
 10
9.348236151931987
 20
-21.64499278356286
 30
0.0
 10
9.246942411854771
 20
-21.5330644654359
 30
0.0
  0
SPLINE
  5
C0
330
41
100
AcDbEntity
  8
Layer 1
370
     0
100
AcDbSpline
210
0.0
220
0.0
230
1.0
 70
    11
 71
     3
 72
    14
 73
    10
 74
     0
 42
0.0000000001
 43
0.0000000001
 12
1.0
 22
0.0
 32
0.0
 13
1.0
 23
0.0
 33
0.0
 40
0.0
 40
0.0
 40
0.0
 40
0.0
 40
1.0
 40
1.0
 40
1.0
 40
2.0
 40
2.0
 40
2.0
 40
3.0
 40
3.0
 40
3.0
 40
3.0
 10
9.526923154335156
 20
-8.226645741649639
 30
0.0
 10
9.421454481052729
 20
-8.226645741649639
 30
0.0
 10
9.353148368695912
 20
-8.226645741649639
 30
0.0
 10
9.257329262629025
 20
-8.226645741649639
 30
0.0
 10
9.34354806936987
 20
-8.127935096204974
 30
0.0
 10
9.409700272864571
 20
-8.052197859490914
 30
0.0
 10
9.511582105003724
 20
-7.93555370224423
 30
0.0
 10
9.517599726670232
 20
-8.049732383270802
 30
0.0
 10
9.521626509249803
 20
-8.12614341041821
 30
0.0
 10
9.526923154335156
 20
-8.226645741649639
 30
0.0
  0
SPLINE
  5
C1
330
41
100
AcDbEntity
  8
Layer 1
370
     0
100
AcDbSpline
210
0.0
220
0.0
230
1.0
 70
    11
 71
     3
 72
    14
 73
    10
 74
     0
 42
0.0000000001
 43
0.0000000001
 12
1.0
 22
0.0
 32
0.0
 13
1.0
 23
0.0
 33
0.0
 40
0.0
 40
0.0
 40
0.0
 40
0.0
 40
1.0
 40
1.0
 40
1.0
 40
2.0
 40
2.0
 40
2.0
 40
3.0
 40
3.0
 40
3.0
 40
3.0
 10
11.48828269536197
 20
-8.244398141914013
 30
0.0
 10
11.48828269536197
 20
-8.129302800575923
 30
0.0
 10
11.48828269536197
 20
-8.052832790743773
 30
0.0
 10
11.48828269536197
 20
-7.937708305020373
 30
0.0
 10
11.58114503414084
 20
-8.038660292483245
 30
0.0
 10
11.64819169270105
 20
-8.111546930741868
 30
0.0
 10
11.74989241330252
 20
-8.222107544498005
 30
0.0
 10
11.65378810860746
 20
-8.230296422875067
 30
0.0
 10
11.58616203190932
 20
-8.236058684212475
 30
0.0
 10
11.48828269536197
 20
-8.244398141914013
 30
0.0
  0
SPLINE
  5
C2
330
41
100
AcDbEntity
  8
Layer 1
370
     0
100
AcDbSpline
210
0.0
220
0.0
230
1.0
 70
    11
 71
     3
 72
    14
 73
    10
 74
     0
 42
0.0000000001
 43
0.0000000001
 12
1.0
 22
0.0
 32
0.0
 13
1.0
 23
0.0
 33
0.0
 40
0.0
 40
0.0
 40
0.0
 40
0.0
 40
1.0
 40
1.0
 40
1.0
 40
2.0
 40
2.0
 40
2.0
 40
3.0
 40
3.0
 40
3.0
 40
3.0
 10
11.49197223576789
 20
-21.52765332455084
 30
0.0
 10
11.5747367389276
 20
-21.53137686673967
 30
0.0
 10
11.63682468849007
 20
-21.53416917642446
 30
0.0
 10
11.73494203751802
 20
-21.5385838568951
 30
0.0
 10
11.64792245409332
 20
-21.64554097557359
 30
0.0
 10
11.58498376604337
 20
-21.72290127698754
 30
0.0
 10
11.49197223576789
 20
-21.83722637385491
 30
0.0
 10
11.49197223576789
 20
-21.71688920663256
 30
0.0
 10
11.49197223576789
 20
-21.64073353981422
 30
0.0
 10
11.49197223576789
 20
-21.52765332455084
 30
0.0
  0
SPLINE
  5
C3
330
41
100
AcDbEntity
  8
Layer 1
370
     0
100
AcDbSpline
210
0.0
220
0.0
230
1.0
 70
    11
 71
     3
 72
    23
 73
    19
 74
     0
 42
0.0000000001
 43
0.0000000001
 12
1.0
 22
0.0
 32
0.0
 13
1.0
 23
0.0
 33
0.0
 40
0.0
 40
0.0
 40
0.0
 40
0.0
 40
1.0
 40
1.0
 40
1.0
 40
2.0
 40
2.0
 40
2.0
 40
3.0
 40
3.0
 40
3.0
 40
4.0
 40
4.0
 40
4.0
 40
5.0
 40
5.0
 40
5.0
 40
6.0
 40
6.0
 40
6.0
 40
6.0
 10
10.08530180984287
 20
-16.31837845893119
 30
0.0
 10
10.09701854665145
 20
-16.01768750802657
 30
0.0
 10
10.17375571333023
 20
-15.80192468393299
 30
0.0
 10
10.34535785441514
 20
-15.6252514197612
 30
0.0
 10
10.44747284162795
 20
-15.52011929472929
 30
0.0
 10
10.5506286997564
 20
-15.51843724733551
 30
0.0
 10
10.66246333951069
 20
-15.61765583777233
 30
0.0
 10
10.90685705268014
 20
-15.83448173798922
 30
0.0
 10
11.00162140960483
 20
-16.31197224537731
 30
0.0
 10
10.85075272307015
 20
-16.60229750989516
 30
0.0
 10
10.77847325951945
 20
-16.74138839520037
 30
0.0
 10
10.68286649112854
 20
-16.86465526707562
 30
0.0
 10
10.51145448244686
 20
-16.86666622968202
 30
0.0
 10
10.32833892129432
 20
-16.86881597507715
 30
0.0
 10
10.22532947899508
 20
-16.73957172856151
 30
0.0
 10
10.15991213034678
 20
-16.58914090170126
 30
0.0
 10
10.11574867169607
 20
-16.48758659694453
 30
0.0
 10
10.09987539036435
 20
-16.3737305859004
 30
0.0
 10
10.08530180984287
 20
-16.31837845893119
 30
0.0
  0
ENDBLK
  5
44
330
41
100
AcDbEntity
  8
0
100
AcDbBlockEnd
  0
ENDSEC
  0
SECTION
  2
ENTITIES
  0
INSERT
  5
42
330
1F
100
AcDbEntity
  8
Layer 1
100
AcDbBlockReference
  2
block 2
 10
0.0
 20
0.0
 30
0.0
  0
ENDSEC
  0
SECTION
  2
OBJECTS
  0
DICTIONARY
  5
C
330
0
100
AcDbDictionary
281
     1
  3
ACAD_GROUP
350
D
  3
ACAD_LAYOUT
350
1A
  3
ACAD_MATERIAL
350
3B
  3
ACAD_MLEADERSTYLE
350
C5
  3
ACAD_MLINESTYLE
350
17
  3
ACAD_PLOTSETTINGS
350
19
  3
ACAD_PLOTSTYLENAME
350
E
  3
ACAD_TABLESTYLE
350
C4
  3
ACAD_VISUALSTYLE
350
2A
  0
SUN
  5
3F
330
29
100
AcDbSun
 90
        1
290
     0
 63
     7
421
 16777215
 40
1.0
291
     1
 91
  2455826
 92
 54000000
292
     0
 70
     2
 71
   256
280
     1
  0
DICTIONARY
  5
D
102
{ACAD_REACTORS
330
C
102
}
330
C
100
AcDbDictionary
281
     1
  0
DICTIONARY
  5
1A
102
{ACAD_REACTORS
330
C
102
}
330
C
100
AcDbDictionary
281
     1
  3
Layout1
350
1E
  3
Layout2
350
26
  3
Model
350
22
  0
DICTIONARY
  5
3B
102
{ACAD_REACTORS
330
C
102
}
330
C
100
AcDbDictionary
281
     1
  3
ByBlock
350
3D
  3
ByLayer
350
3C
  3
Global
350
3E
  0
DICTIONARY
  5
C5
102
{ACAD_REACTORS
330
C
102
}
330
C
100
AcDbDictionary
281
     1
  0
DICTIONARY
  5
17
102
{ACAD_REACTORS
330
C
102
}
330
C
100
AcDbDictionary
281
     1
  3
Standard
350
18
  0
DICTIONARY
  5
19
102
{ACAD_REACTORS
330
C
102
}
330
C
100
AcDbDictionary
281
     1
  0
ACDBDICTIONARYWDFLT
  5
E
102
{ACAD_REACTORS
330
C
102
}
330
C
100
AcDbDictionary
281
     1
  3
Normal
350
F
100
AcDbDictionaryWithDefault
340
F
  0
DICTIONARY
  5
C4
102
{ACAD_REACTORS
330
C
102
}
330
C
100
AcDbDictionary
281
     1
  0
DICTIONARY
  5
2A
102
{ACAD_REACTORS
330
C
102
}
330
C
100
AcDbDictionary
281
     1
  3
2dWireframe
350
2F
  3
3D Hidden
350
31
  3
3dWireframe
350
30
  3
Basic
350
32
  3
Brighten
350
36
  3
ColorChange
350
3A
  3
Conceptual
350
34
  3
Dim
350
35
  3
Facepattern
350
39
  3
Flat
350
2B
  3
FlatWithEdges
350
2C
  3
Gouraud
350
2D
  3
GouraudWithEdges
350
2E
  3
Linepattern
350
38
  3
Realistic
350
33
  3
Thicken
350
37
  0
LAYOUT
  5
1E
102
{ACAD_REACTORS
330
1A
102
}
330
1A
100
AcDbPlotSettings
  1

  2
none_device
  4

  6

 40
0.0
 41
0.0
 42
0.0
 43
0.0
 44
0.0
 45
0.0
 46
0.0
 47
0.0
 48
0.0
 49
0.0
140
0.0
141
0.0
142
1.0
143
1.0
 70
   688
 72
     0
 73
     0
 74
     5
  7

 75
    16
 76
     0
 77
     2
 78
   300
147
1.0
148
0.0
149
0.0
100
AcDbLayout
  1
Layout1
 70
     1
 71
     1
 10
0.0
 20
0.0
 11
12.0
 21
9.0
 12
0.0
 22
0.0
 32
0.0
 14
1.000000000000000E+20
 24
1.000000000000000E+20
 34
1.000000000000000E+20
 15
-1.000000000000000E+20
 25
-1.000000000000000E+20
 35
-1.000000000000000E+20
146
0.0
 13
0.0
 23
0.0
 33
0.0
 16
1.0
 26
0.0
 36
0.0
 17
0.0
 27
1.0
 37
0.0
 76
     0
330
1B
  0
LAYOUT
  5
26
102
{ACAD_REACTORS
330
1A
102
}
330
1A
100
AcDbPlotSettings
  1

  2
none_device
  4

  6

 40
0.0
 41
0.0
 42
0.0
 43
0.0
 44
0.0
 45
0.0
 46
0.0
 47
0.0
 48
0.0
 49
0.0
140
0.0
141
0.0
142
1.0
143
1.0
 70
   688
 72
     0
 73
     0
 74
     5
  7

 75
    16
 76
     0
 77
     2
 78
   300
147
1.0
148
0.0
149
0.0
100
AcDbLayout
  1
Layout2
 70
     1
 71
     2
 10
0.0
 20
0.0
 11
0.0
 21
0.0
 12
0.0
 22
0.0
 32
0.0
 14
0.0
 24
0.0
 34
0.0
 15
0.0
 25
0.0
 35
0.0
146
0.0
 13
0.0
 23
0.0
 33
0.0
 16
1.0
 26
0.0
 36
0.0
 17
0.0
 27
1.0
 37
0.0
 76
     0
330
23
  0
LAYOUT
  5
22
102
{ACAD_REACTORS
330
1A
102
}
330
1A
100
AcDbPlotSettings
  1

  2
none_device
  4

  6

 40
0.0
 41
0.0
 42
0.0
 43
0.0
 44
0.0
 45
0.0
 46
0.0
 47
0.0
 48
0.0
 49
0.0
140
0.0
141
0.0
142
1.0
143
1.0
 70
  1712
 72
     0
 73
     0
 74
     0
  7

 75
     0
 76
     0
 77
     2
 78
   300
147
1.0
148
0.0
149
0.0
100
AcDbLayout
  1
Model
 70
     1
 71
     0
 10
0.0
 20
0.0
 11
12.0
 21
9.0
 12
0.0
 22
0.0
 32
0.0
 14
1.000000000000000E+20
 24
1.000000000000000E+20
 34
1.000000000000000E+20
 15
-1.000000000000000E+20
 25
-1.000000000000000E+20
 35
-1.000000000000000E+20
146
0.0
 13
0.0
 23
0.0
 33
0.0
 16
1.0
 26
0.0
 36
0.0
 17
0.0
 27
1.0
 37
0.0
 76
     0
330
1F
331
29
  0
MATERIAL
  5
3D
102
{ACAD_REACTORS
330
3B
102
}
330
3B
100
AcDbMaterial
  1
ByBlock
 72
     1
 94
      127
  0
MATERIAL
  5
3C
102
{ACAD_REACTORS
330
3B
102
}
330
3B
100
AcDbMaterial
  1
ByLayer
 72
     1
 94
      127
  0
MATERIAL
  5
3E
102
{ACAD_REACTORS
330
3B
102
}
330
3B
100
AcDbMaterial
  1
Global
 72
     1
 94
      127
  0
MLINESTYLE
  5
18
102
{ACAD_REACTORS
330
17
102
}
330
17
100
AcDbMlineStyle
  2
Standard
 70
     0
  3

 62
   256
 51
90.0
 52
90.0
 71
     2
 49
0.5
 62
   256
  6
BYLAYER
 49
-0.5
 62
   256
  6
BYLAYER
  0
ACDBPLACEHOLDER
  5
F
102
{ACAD_REACTORS
330
E
102
}
330
E
  0
VISUALSTYLE
  5
2F
102
{ACAD_REACTORS
330
2A
102
}
330
2A
100
AcDbVisualStyle
  2
2dWireframe
 70
     4
177
     2
291
     0
 71
     0
176
     1
 72
     2
176
     1
 73
     0
176
     1
 90
        0
176
     1
 40
-0.6
176
     1
 41
-30.0
176
     1
 62
     5
 63
     7
421
 16777215
176
     1
 74
     1
176
     1
 91
        4
176
     1
 64
     7
176
     1
 65
   257
176
     1
 75
     1
176
     1
175
     1
176
     1
 42
1.0
176
     1
 92
        0
176
     1
 66
   257
176
     1
 43
1.0
176
     1
 76
     1
176
     1
 77
     6
176
     1
 78
     2
176
     1
 67
     7
176
     1
 79
     5
176
     1
170
     0
176
     1
171
     0
176
     1
290
     0
176
     1
 93
        1
176
     1
 44
0.0
176
     1
173
     0
176
     1
  0
VISUALSTYLE
  5
31
102
{ACAD_REACTORS
330
2A
102
}
330
2A
100
AcDbVisualStyle
  2
3D Hidden
 70
     6
177
     2
291
     0
 71
     1
176
     1
 72
     2
176
     1
 73
     2
176
     1
 90
        0
176
     1
 40
-0.6
176
     1
 41
-30.0
176
     1
 62
     5
 63
     7
421
 16777215
176
     1
 74
     2
176
     1
 91
        2
176
     1
 64
     7
176
     1
 65
   257
176
     1
 75
     2
176
     1
175
     1
176
     1
 42
40.0
176
     1
 92
        0
176
     1
 66
   257
176
     1
 43
1.0
176
     1
 76
     1
176
     1
 77
     6
176
     1
 78
     2
176
     1
 67
     7
176
     1
 79
     3
176
     1
170
     0
176
     1
171
     0
176
     1
290
     0
176
     1
 93
        1
176
     1
 44
0.0
176
     1
173
     0
176
     1
  0
VISUALSTYLE
  5
30
102
{ACAD_REACTORS
330
2A
102
}
330
2A
100
AcDbVisualStyle
  2
3dWireframe
 70
     5
177
     2
291
     0
 71
     0
176
     1
 72
     2
176
     1
 73
     0
176
     1
 90
        0
176
     1
 40
-0.6
176
     1
 41
-30.0
176
     1
 62
     5
 63
     7
421
 16777215
176
     1
 74
     1
176
     1
 91
        4
176
     1
 64
     7
176
     1
 65
   257
176
     1
 75
     1
176
     1
175
     1
176
     1
 42
1.0
176
     1
 92
        0
176
     1
 66
   257
176
     1
 43
1.0
176
     1
 76
     1
176
     1
 77
     6
176
     1
 78
     2
176
     1
 67
     7
176
     1
 79
     5
176
     1
170
     0
176
     1
171
     0
176
     1
290
     0
176
     1
 93
        1
176
     1
 44
0.0
176
     1
173
     0
176
     1
  0
VISUALSTYLE
  5
32
102
{ACAD_REACTORS
330
2A
102
}
330
2A
100
AcDbVisualStyle
  2
Basic
 70
     7
177
     2
291
     1
 71
     1
176
     1
 72
     0
176
     1
 73
     1
176
     1
 90
        0
176
     1
 40
-0.6
176
     1
 41
-30.0
176
     1
 62
     5
 63
     7
421
 16777215
176
     1
 74
     0
176
     1
 91
        4
176
     1
 64
     7
176
     1
 65
   257
176
     1
 75
     1
176
     1
175
     1
176
     1
 42
1.0
176
     1
 92
        8
176
     1
 66
     7
176
     1
 43
1.0
176
     1
 76
     1
176
     1
 77
     6
176
     1
 78
     2
176
     1
 67
     7
176
     1
 79
     5
176
     1
170
     0
176
     1
171
     0
176
     1
290
     0
176
     1
 93
        1
176
     1
 44
0.0
176
     1
173
     0
176
     1
  0
VISUALSTYLE
  5
36
102
{ACAD_REACTORS
330
2A
102
}
330
2A
100
AcDbVisualStyle
  2
Brighten
 70
    12
177
     2
291
     1
 71
     2
176
     1
 72
     2
176
     1
 73
     0
176
     1
 90
        0
176
     1
 40
-0.6
176
     1
 41
-30.0
176
     1
 62
     5
 63
     7
421
 16777215
176
     1
 74
     1
176
     1
 91
        4
176
     1
 64
     7
176
     1
 65
   257
176
     1
 75
     1
176
     1
175
     1
176
     1
 42
1.0
176
     1
 92
        8
176
     1
 66
     7
176
     1
 43
1.0
176
     1
 76
     1
176
     1
 77
     6
176
     1
 78
     2
176
     1
 67
     7
176
     1
 79
     5
176
     1
170
     0
176
     1
171
     0
176
     1
290
     0
176
     1
 93
        1
176
     1
 44
50.0
176
     1
173
     0
176
     1
  0
VISUALSTYLE
  5
3A
102
{ACAD_REACTORS
330
2A
102
}
330
2A
100
AcDbVisualStyle
  2
ColorChange
 70
    16
177
     2
291
     1
 71
     2
176
     1
 72
     2
176
     1
 73
     3
176
     1
 90
        0
176
     1
 40
-0.6
176
     1
 41
-30.0
176
     1
 62
     5
 63
     8
421
  8421504
176
     1
 74
     1
176
     1
 91
        4
176
     1
 64
     7
176
     1
 65
   257
176
     1
 75
     1
176
     1
175
     1
176
     1
 42
1.0
176
     1
 92
        8
176
     1
 66
     8
424
  8421504
176
     1
 43
1.0
176
     1
 76
     1
176
     1
 77
     6
176
     1
 78
     2
176
     1
 67
     7
176
     1
 79
     5
176
     1
170
     0
176
     1
171
     0
176
     1
290
     0
176
     1
 93
        1
176
     1
 44
0.0
176
     1
173
     0
176
     1
  0
VISUALSTYLE
  5
34
102
{ACAD_REACTORS
330
2A
102
}
330
2A
100
AcDbVisualStyle
  2
Conceptual
 70
     9
177
     2
291
     0
 71
     3
176
     1
 72
     2
176
     1
 73
     0
176
     1
 90
        0
176
     1
 40
-0.6
176
     1
 41
-30.0
176
     1
 62
     5
 63
     7
421
 16777215
176
     1
 74
     2
176
     1
 91
        2
176
     1
 64
     7
176
     1
 65
   257
176
     1
 75
     1
176
     1
175
     1
176
     1
 42
40.0
176
     1
 92
        8
176
     1
 66
     7
176
     1
 43
1.0
176
     1
 76
     1
176
     1
 77
     6
176
     1
 78
     2
176
     1
 67
     7
176
     1
 79
     3
176
     1
170
     0
176
     1
171
     0
176
     1
290
     0
176
     1
 93
        1
176
     1
 44
0.0
176
     1
173
     0
176
     1
  0
VISUALSTYLE
  5
35
102
{ACAD_REACTORS
330
2A
102
}
330
2A
100
AcDbVisualStyle
  2
Dim
 70
    11
177
     2
291
     1
 71
     2
176
     1
 72
     2
176
     1
 73
     0
176
     1
 90
        0
176
     1
 40
-0.6
176
     1
 41
-30.0
176
     1
 62
     5
 63
     7
421
 16777215
176
     1
 74
     1
176
     1
 91
        4
176
     1
 64
     7
176
     1
 65
   257
176
     1
 75
     1
176
     1
175
     1
176
     1
 42
1.0
176
     1
 92
        8
176
     1
 66
     7
176
     1
 43
1.0
176
     1
 76
     1
176
     1
 77
     6
176
     1
 78
     2
176
     1
 67
     7
176
     1
 79
     5
176
     1
170
     0
176
     1
171
     0
176
     1
290
     0
176
     1
 93
        1
176
     1
 44
-50.0
176
     1
173
     0
176
     1
  0
VISUALSTYLE
  5
39
102
{ACAD_REACTORS
330
2A
102
}
330
2A
100
AcDbVisualStyle
  2
Facepattern
 70
    15
177
     2
291
     1
 71
     2
176
     1
 72
     2
176
     1
 73
     0
176
     1
 90
        0
176
     1
 40
-0.6
176
     1
 41
-30.0
176
     1
 62
     5
 63
     7
421
 16777215
176
     1
 74
     1
176
     1
 91
        4
176
     1
 64
     7
176
     1
 65
   257
176
     1
 75
     1
176
     1
175
     1
176
     1
 42
1.0
176
     1
 92
        8
176
     1
 66
     7
176
     1
 43
1.0
176
     1
 76
     1
176
     1
 77
     6
176
     1
 78
     2
176
     1
 67
     7
176
     1
 79
     5
176
     1
170
     0
176
     1
171
     0
176
     1
290
     0
176
     1
 93
        1
176
     1
 44
0.0
176
     1
173
     0
176
     1
  0
VISUALSTYLE
  5
2B
102
{ACAD_REACTORS
330
2A
102
}
330
2A
100
AcDbVisualStyle
  2
Flat
 70
     0
177
     2
291
     1
 71
     2
176
     1
 72
     1
176
     1
 73
     1
176
     1
 90
        2
176
     1
 40
-0.6
176
     1
 41
30.0
176
     1
 62
     5
 63
     7
421
 16777215
176
     1
 74
     0
176
     1
 91
        4
176
     1
 64
     7
176
     1
 65
   257
176
     1
 75
     1
176
     1
175
     1
176
     1
 42
1.0
176
     1
 92
        8
176
     1
 66
     7
176
     1
 43
1.0
176
     1
 76
     1
176
     1
 77
     6
176
     1
 78
     2
176
     1
 67
     7
176
     1
 79
     5
176
     1
170
     0
176
     1
171
     0
176
     1
290
     0
176
     1
 93
       13
176
     1
 44
0.0
176
     1
173
     0
176
     1
  0
VISUALSTYLE
  5
2C
102
{ACAD_REACTORS
330
2A
102
}
330
2A
100
AcDbVisualStyle
  2
FlatWithEdges
 70
     1
177
     2
291
     1
 71
     2
176
     1
 72
     1
176
     1
 73
     1
176
     1
 90
        2
176
     1
 40
-0.6
176
     1
 41
30.0
176
     1
 62
     5
 63
     7
421
 16777215
176
     1
 74
     1
176
     1
 91
        4
176
     1
 64
     7
176
     1
 65
   257
176
     1
 75
     1
176
     1
175
     1
176
     1
 42
1.0
176
     1
 92
        0
176
     1
 66
   257
176
     1
 43
1.0
176
     1
 76
     1
176
     1
 77
     6
176
     1
 78
     2
176
     1
 67
     7
176
     1
 79
     5
176
     1
170
     0
176
     1
171
     0
176
     1
290
     0
176
     1
 93
       13
176
     1
 44
0.0
176
     1
173
     0
176
     1
  0
VISUALSTYLE
  5
2D
102
{ACAD_REACTORS
330
2A
102
}
330
2A
100
AcDbVisualStyle
  2
Gouraud
 70
     2
177
     2
291
     1
 71
     2
176
     1
 72
     2
176
     1
 73
     1
176
     1
 90
        2
176
     1
 40
-0.6
176
     1
 41
30.0
176
     1
 62
     5
 63
     7
421
 16777215
176
     1
 74
     0
176
     1
 91
        4
176
     1
 64
     7
176
     1
 65
   257
176
     1
 75
     1
176
     1
175
     1
176
     1
 42
1.0
176
     1
 92
        0
176
     1
 66
     7
176
     1
 43
1.0
176
     1
 76
     1
176
     1
 77
     6
176
     1
 78
     2
176
     1
 67
     7
176
     1
 79
     5
176
     1
170
     0
176
     1
171
     0
176
     1
290
     0
176
     1
 93
       13
176
     1
 44
0.0
176
     1
173
     0
176
     1
  0
VISUALSTYLE
  5
2E
102
{ACAD_REACTORS
330
2A
102
}
330
2A
100
AcDbVisualStyle
  2
GouraudWithEdges
 70
     3
177
     2
291
     1
 71
     2
176
     1
 72
     2
176
     1
 73
     1
176
     1
 90
        2
176
     1
 40
-0.6
176
     1
 41
30.0
176
     1
 62
     5
 63
     7
421
 16777215
176
     1
 74
     1
176
     1
 91
        4
176
     1
 64
     7
176
     1
 65
   257
176
     1
 75
     1
176
     1
175
     1
176
     1
 42
1.0
176
     1
 92
        0
176
     1
 66
   257
176
     1
 43
1.0
176
     1
 76
     1
176
     1
 77
     6
176
     1
 78
     2
176
     1
 67
     7
176
     1
 79
     5
176
     1
170
     0
176
     1
171
     0
176
     1
290
     0
176
     1
 93
       13
176
     1
 44
0.0
176
     1
173
     0
176
     1
  0
VISUALSTYLE
  5
38
102
{ACAD_REACTORS
330
2A
102
}
330
2A
100
AcDbVisualStyle
  2
Linepattern
 70
    14
177
     2
291
     1
 71
     2
176
     1
 72
     2
176
     1
 73
     0
176
     1
 90
        0
176
     1
 40
-0.6
176
     1
 41
-30.0
176
     1
 62
     5
 63
     7
421
 16777215
176
     1
 74
     1
176
     1
 91
        4
176
     1
 64
     7
176
     1
 65
   257
176
     1
 75
     7
176
     1
175
     7
176
     1
 42
1.0
176
     1
 92
        8
176
     1
 66
     7
176
     1
 43
1.0
176
     1
 76
     1
176
     1
 77
     6
176
     1
 78
     2
176
     1
 67
     7
176
     1
 79
     5
176
     1
170
     0
176
     1
171
     0
176
     1
290
     0
176
     1
 93
        1
176
     1
 44
0.0
176
     1
173
     0
176
     1
  0
VISUALSTYLE
  5
33
102
{ACAD_REACTORS
330
2A
102
}
330
2A
100
AcDbVisualStyle
  2
Realistic
 70
     8
177
     2
291
     0
 71
     2
176
     1
 72
     2
176
     1
 73
     0
176
     1
 90
        0
176
     1
 40
-0.6
176
     1
 41
-30.0
176
     1
 62
     5
 63
     7
421
 16777215
176
     1
 74
     1
176
     1
 91
        0
176
     1
 64
     7
176
     1
 65
   257
176
     1
 75
     1
176
     1
175
     1
176
     1
 42
1.0
176
     1
 92
        8
176
     1
 66
     8
424
  7895160
176
     1
 43
1.0
176
     1
 76
     1
176
     1
 77
     6
176
     1
 78
     2
176
     1
 67
     7
176
     1
 79
     5
176
     1
170
     0
176
     1
171
     0
176
     1
290
     0
176
     1
 93
       13
176
     1
 44
0.0
176
     1
173
     0
176
     1
  0
VISUALSTYLE
  5
37
102
{ACAD_REACTORS
330
2A
102
}
330
2A
100
AcDbVisualStyle
  2
Thicken
 70
    13
177
     2
291
     1
 71
     2
176
     1
 72
     2
176
     1
 73
     0
176
     1
 90
        0
176
     1
 40
-0.6
176
     1
 41
-30.0
176
     1
 62
     5
 63
     7
421
 16777215
176
     1
 74
     1
176
     1
 91
        4
176
     1
 64
     7
176
     1
 65
   257
176
     1
 75
     1
176
     1
175
     1
176
     1
 42
1.0
176
     1
 92
       12
176
     1
 66
     7
176
     1
 43
1.0
176
     1
 76
     1
176
     1
 77
     6
176
     1
 78
     2
176
     1
 67
     7
176
     1
 79
     5
176
     1
170
     0
176
     1
171
     0
176
     1
290
     0
176
     1
 93
        1
176
     1
 44
0.0
176
     1
173
     0
176
     1
  0
ENDSEC
  0
EOF
