  0
SECTION
  2
HEADER
  9
$ACADVER
  1
AC1014
  9
$ACADMAINTVER
 70
     0
  9
$DWGCODEPAGE
  3
ANSI_1252
  9
$INSBASE
 10
0.0
 20
0.0
 30
0.0
  9
$EXTMIN
 10
0.378393
 20
13.547905
 30
0.0
  9
$EXTMAX
 10
257.384094
 20
406.517792
 30
2.0
  9
$LIMMIN
 10
0.0
 20
0.0
  9
$LIMMAX
 10
12.0
 20
9.0
  9
$ORTHOMODE
 70
     0
  9
$REGENMODE
 70
     1
  9
$FILLMODE
 70
     1
  9
$QTEXTMODE
 70
     0
  9
$MIRRTEXT
 70
     1
  9
$DRAGMODE
 70
     2
  9
$LTSCALE
 40
1.0
  9
$OSMODE
 70
     0
  9
$ATTMODE
 70
     1
  9
$TEXTSIZE
 40
0.2
  9
$TRACEWID
 40
0.05
  9
$TEXTSTYLE
  7
STANDARD
  9
$CLAYER
  8
0
  9
$CELTYPE
  6
BYLAYER
  9
$CECOLOR
 62
   256
  9
$CELTSCALE
 40
1.0
  9
$DELOBJ
 70
     1
  9
$DISPSILH
 70
     0
  9
$DIMSCALE
 40
1.0
  9
$DIMASZ
 40
0.18
  9
$DIMEXO
 40
0.0625
  9
$DIMDLI
 40
0.38
  9
$DIMRND
 40
0.0
  9
$DIMDLE
 40
0.0
  9
$DIMEXE
 40
0.18
  9
$DIMTP
 40
0.0
  9
$DIMTM
 40
0.0
  9
$DIMTXT
 40
0.18
  9
$DIMCEN
 40
0.09
  9
$DIMTSZ
 40
0.0
  9
$DIMTOL
 70
     0
  9
$DIMLIM
 70
     0
  9
$DIMTIH
 70
     1
  9
$DIMTOH
 70
     1
  9
$DIMSE1
 70
     0
  9
$DIMSE2
 70
     0
  9
$DIMTAD
 70
     0
  9
$DIMZIN
 70
     0
  9
$DIMBLK
  1

  9
$DIMASO
 70
     1
  9
$DIMSHO
 70
     1
  9
$DIMPOST
  1

  9
$DIMAPOST
  1

  9
$DIMALT
 70
     0
  9
$DIMALTD
 70
     2
  9
$DIMALTF
 40
25.4
  9
$DIMLFAC
 40
1.0
  9
$DIMTOFL
 70
     0
  9
$DIMTVP
 40
0.0
  9
$DIMTIX
 70
     0
  9
$DIMSOXD
 70
     0
  9
$DIMSAH
 70
     0
  9
$DIMBLK1
  1

  9
$DIMBLK2
  1

  9
$DIMSTYLE
  2

  9
$DIMCLRD
 70
     0
  9
$DIMCLRE
 70
     0
  9
$DIMCLRT
 70
     0
  9
$DIMTFAC
 40
1.0
  9
$DIMGAP
 40
0.09
  9
$DIMJUST
 70
     0
  9
$DIMSD1
 70
     0
  9
$DIMSD2
 70
     0
  9
$DIMTOLJ
 70
     1
  9
$DIMTZIN
 70
     0
  9
$DIMALTZ
 70
     0
  9
$DIMALTTZ
 70
     0
  9
$DIMFIT
 70
     3
  9
$DIMUPT
 70
     0
  9
$DIMUNIT
 70
     2
  9
$DIMDEC
 70
     4
  9
$DIMTDEC
 70
     4
  9
$DIMALTU
 70
     2
  9
$DIMALTTD
 70
     2
  9
$DIMTXSTY
  7
STANDARD
  9
$DIMAUNIT
 70
     0
  9
$LUNITS
 70
     2
  9
$LUPREC
 70
     4
  9
$SKETCHINC
 40
0.1
  9
$FILLETRAD
 40
0.5
  9
$AUNITS
 70
     0
  9
$AUPREC
 70
     0
  9
$MENU
  1
.
  9
$ELEVATION
 40
0.0
  9
$PELEVATION
 40
0.0
  9
$THICKNESS
 40
0.0
  9
$LIMCHECK
 70
     0
  9
$BLIPMODE
 70
     1
  9
$CHAMFERA
 40
0.0
  9
$CHAMFERB
 40
0.0
  9
$CHAMFERC
 40
0.0
  9
$CHAMFERD
 40
0.0
  9
$SKPOLY
 70
     0
  9
$TDCREATE
 40
0.000000000
  9
$TDUPDATE
 40
0.000000000
  9
$TDINDWG
 40
0.0000000000
  9
$TDUSRTIMER
 40
0.0000000000
  9
$USRTIMER
 70
     1
  9
$ANGBASE
 50
0.0
  9
$ANGDIR
 70
     0
  9
$PDMODE
 70
     0
  9
$PDSIZE
 40
0.0
  9
$PLINEWID
 40
0.0
  9
$COORDS
 70
     0
  9
$SPLFRAME
 70
     0
  9
$SPLINETYPE
 70
     6
  9
$SPLINESEGS
 70
     8
  9
$ATTDIA
 70
     0
  9
$ATTREQ
 70
     1
  9
$HANDLING
 70
     1
  9
$HANDSEED
  5
57C
  9
$SURFTAB1
 70
     6
  9
$SURFTAB2
 70
     6
  9
$SURFTYPE
 70
     6
  9
$SURFU
 70
     6
  9
$SURFV
 70
     6
  9
$UCSNAME
  2

  9
$UCSORG
 10
0.0
 20
0.0
 30
0.0
  9
$UCSXDIR
 10
1.0
 20
0.0
 30
0.0
  9
$UCSYDIR
 10
0.0
 20
1.0
 30
0.0
  9
$PUCSNAME
  2

  9
$PUCSORG
 10
0.0
 20
0.0
 30
0.0
  9
$PUCSXDIR
 10
1.0
 20
0.0
 30
0.0
  9
$PUCSYDIR
 10
0.0
 20
1.0
 30
0.0
  9
$USERI1
 70
     0
  9
$USERI2
 70
     0
  9
$USERI3
 70
     0
  9
$USERI4
 70
     0
  9
$USERI5
 70
     0
  9
$USERR1
 40
0.0
  9
$USERR2
 40
0.0
  9
$USERR3
 40
0.0
  9
$USERR4
 40
0.0
  9
$USERR5
 40
0.0
  9
$WORLDVIEW
 70
     1
  9
$SHADEDGE
 70
     3
  9
$SHADEDIF
 70
    70
  9
$TILEMODE
 70
     1
  9
$MAXACTVP
 70
    48
  9
$PINSBASE
 10
0.0
 20
0.0
 30
0.0
  9
$PLIMCHECK
 70
     0
  9
$PEXTMIN
 10
0.378393
 20
13.547905
 30
0.0
  9
$PEXTMAX
 10
257.384094
 20
406.517792
 30
2.0
  9
$PLIMMIN
 10
0.0
 20
0.0
  9
$PLIMMAX
 10
12.0
 20
9.0
  9
$UNITMODE
 70
     0
  9
$VISRETAIN
 70
     0
  9
$PLINEGEN
 70
     0
  9
$PSLTSCALE
 70
     1
  9
$TREEDEPTH
 70
  3020
  9
$PICKSTYLE
 70
     1
  9
$CMLSTYLE
  2
STANDARD
  9
$CMLJUST
 70
     0
  9
$CMLSCALE
 40
1.0
  9
$PROXYGRAPHICS
 70
     1
  9
$MEASUREMENT
 70
     0
  0
ENDSEC
  0
SECTION
  2
CLASSES
  0
CLASS
  1
LWPOLYLINE
  2
AcDbPolyline
  3
\"AutoCAD\"
 90
        0
280
     0
281
     1
  0
CLASS
  1
IMAGE
  2
AcDbRasterImage
  3
ISM
 90
      127
280
     0
281
     1
  0
CLASS
  1
OLE2FRAME
  2
AcDbOle2Frame
  3
\"\"
 90
        0
280
     0
281
     1
  0
CLASS
  1
HATCH
  2
AcDbHatch
  3
\"ACAD_SEDONA\"
 90
        0
280
     0
281
     1
  0
CLASS
  1
DICTIONARYVAR
  2
AcDbDictionaryVar
  3
\"AutoCAD\"
 90
        0
280
     0
281
     0
  0
CLASS
  1
RASTERVARIABLES
  2
AcDbRasterVariables
  3
ISM
 90
        0
280
     0
281
     0
  0
CLASS
  1
IMAGEDEF
  2
AcDbRasterImageDef
  3
ISM
 90
        0
280
     0
281
     0
  0
CLASS
  1
IMAGEDEF_REACTOR
  2
AcDbRasterImageDefReactor
  3
ISM
 90
        1
280
     0
281
     0
  0
CLASS
  1
IDBUFFER
  2
AcDbIdBuffer
  3
\"Acad\"
 90
        0
280
     0
281
     0
  0
CLASS
  1
SPATIAL_FILTER
  2
AcDbSpatialFilter
  3
\"Acad\"
 90
        0
280
     0
281
     0
  0
CLASS
  1
XRECORD
  2
AcDbXrecord
  3
\"<Built In>\"
 90
        0
280
     0
281
     0
  0
CLASS
  1
SORTENTSTABLE
  2
AcDbSortentsTable
  3
\"AutoCAD\"
 90
        0
280
     0
281
     0
  0
CLASS
  1
LAYER_INDEX
  2
AcDbLayerIndex
  3
\"Acad\"
 90
        0
280
     0
281
     0
  0
CLASS
  1
SPATIAL_INDEX
  2
AcDbSpatialIndex
  3
\"Acad\"
 90
        0
280
     0
281
     0
  0
CLASS
  1
OBJECT_PTR
  2
CAseDLPNTableRecord
  3
\"ASE-LPNTableRecord\"
 90
        1
280
     0
281
     0
  0
CLASS
  1
LAYOUT
  2
AcDbLayout
  3
\"AutoCAD 2000\"
 90
        1
280
     0
281
     0
  0
CLASS
  1
PLOTSETTINGS
  2
AcDbPlotSettings
  3
\"AutoCAD 2000\"
 90
        1
280
     0
281
     0
  0
CLASS
  1
ACDBDICTIONARYWDFLT
  2
AcDbDictionaryWithDefault
  3
\"AutoCAD 2000\"
 90
        1
280
     0
281
     0
  0
CLASS
  1
ACDBPLACEHOLDER
  2
AcDbPlaceHolder
  3
\"AutoCAD 2000\"
 90
        1
280
     0
281
     0
  0
CLASS
  1
VBA_PROJECT
  2
AcDbVbaProject
  3
\"acadvba\"
 90
        1
280
     0
281
     0
  0
CLASS
  1
WIPEOUT
  2
AcDbWipeout
  3
WipeOut|AutoCAD Express Tool|expresstools@autodesk.com
 90
      127
280
     0
281
     1
  0
CLASS
  1
WIPEOUTVARIABLES
  2
AcDbWipeoutVariables
  3
WipeOut|AutoCAD Express Tool|expresstools@autodesk.com
 90
        0
280
     0
281
     0
  0
CLASS
  1
RTEXT
  2
RText
  3
RText|AutoCAD Express Tool|expresstools@autodesk.com
 90
        0
280
     0
281
     1
  0
CLASS
  1
ARCALIGNEDTEXT
  2
AcDbArcAlignedText
  3
ATEXT|AutoCAD Express Tool|expresstools@autodesk.com
 90
        0
280
     0
281
     1
  0
ENDSEC
  0
SECTION
  2
TABLES
  0
TABLE
  2
VPORT
  5
7
100
AcDbSymbolTable
 70
     1
  0
VPORT
  5
15
100
AcDbSymbolTableRecord
100
AcDbViewportTableRecord
  2
*ACTIVE
 70
     0
 10
0.0
 20
0.0
 11
1.0
 21
1.0
 12
6.591288
 22
4.579184
 13
0.0
 23
0.0
 14
1.0
 24
1.0
 15
0.0
 25
0.0
 16
0.0
 26
0.0
 36
1.0
 17
0.0
 27
0.0
 37
0.0
 40
9.158369
 41
0.688564
 42
50.0
 43
0.0
 44
0.0
 50
0.0
 51
0.0
 71
     0
 72
   100
 73
     1
 74
     1
 75
     0
 76
     0
 77
     0
 78
     0
  0
ENDTAB
  0
TABLE
  2
LTYPE
  5
4
100
AcDbSymbolTable
 70
    10
  0
LTYPE
  5
11
100
AcDbSymbolTableRecord
100
AcDbLinetypeTableRecord
  2
BYBLOCK
 70
    64
  3

 72
    65
 73
     0
 40
0.0
  0
LTYPE
  5
12
100
AcDbSymbolTableRecord
100
AcDbLinetypeTableRecord
  2
BYLAYER
 70
    64
  3

 72
    65
 73
     0
 40
0.0
  0
LTYPE
  5
13
100
AcDbSymbolTableRecord
100
AcDbLinetypeTableRecord
  2
CONTINUOUS
 70
    64
  3
Solid line
 72
    65
 73
     0
 40
0.0
  0
LTYPE
  5
1D
100
AcDbSymbolTableRecord
100
AcDbLinetypeTableRecord
  2
DASHED
 70
     0
  3
__ __ __ __ __ __ __ __ __ __ __ __ __ __ __ __
 72
    65
 73
     2
 40
15.0
 49
12.0
 74
     0
 49
-3.0
 74
     0
  0
LTYPE
  5
1E
100
AcDbSymbolTableRecord
100
AcDbLinetypeTableRecord
  2
DASHDOT
 70
     0
  3
 __ . __ . __ . __ . __ . __ . __ . 
 72
    65
 73
     4
 40
18.5
 49
12.0
 74
     0
 49
-3.0
 74
     0
 49
0.5
 74
     0
 49
-3.0
 74
     0
  0
LTYPE
  5
1F
100
AcDbSymbolTableRecord
100
AcDbLinetypeTableRecord
  2
DOT
 70
     0
  3
 . . . . . . . . . . . . . . . .
 72
    65
 73
     2
 40
3.5
 49
0.5
 74
     0
 49
-3.0
 74
     0
  0
LTYPE
  5
20
100
AcDbSymbolTableRecord
100
AcDbLinetypeTableRecord
  2
DASHSPACE
 70
     0
  3
__    __    __    __    __   
 72
    65
 73
     2
 40
30.0
 49
12.0
 74
     0
 49
-18.0
 74
     0
  0
LTYPE
  5
21
100
AcDbSymbolTableRecord
100
AcDbLinetypeTableRecord
  2
DASHDOT2
 70
     0
  3
__ . . __ . . __ . . __ 
 72
    65
 73
     6
 40
22.0
 49
12.0
 74
     0
 49
-3.0
 74
     0
 49
0.5
 74
     0
 49
-3.0
 74
     0
 49
0.5
 74
     0
 49
-3.0
 74
     0
  0
LTYPE
  5
22
100
AcDbSymbolTableRecord
100
AcDbLinetypeTableRecord
  2
PHANTOM
 70
     0
  3
____________    ____    ____   _
 72
    65
 73
     6
 40
20.0
 49
10.0
 74
     0
 49
-2.0
 74
     0
 49
2.0
 74
     0
 49
-2.0
 74
     0
 49
2.0
 74
     0
 49
-2.0
 74
     0
  0
LTYPE
  5
23
100
AcDbSymbolTableRecord
100
AcDbLinetypeTableRecord
  2
AXES
 70
     0
  3
________  __  ________  __  _____
 72
    65
 73
     4
 40
24.0
 49
15.0
 74
     0
 49
-3.0
 74
     0
 49
3.0
 74
     0
 49
-3.0
 74
     0
  0
ENDTAB
  0
TABLE
  2
LAYER
  5
2
100
AcDbSymbolTable
 70
     1
  0
LAYER
  5
14
100
AcDbSymbolTableRecord
100
AcDbLayerTableRecord
  2
0
 70
     0
 62
     7
  6
CONTINUOUS
  0
ENDTAB
  0
TABLE
  2
STYLE
  5
3
100
AcDbSymbolTable
 70
     1
  0
STYLE
  5
17
100
AcDbSymbolTableRecord
100
AcDbTextStyleTableRecord
  2
STANDARD
 70
     0
 40
0.0
 41
1.0
 50
0.0
 71
     0
 42
0.0
  3
txt
  4

  0
ENDTAB
  0
TABLE
  2
VIEW
  5
5
100
AcDbSymbolTable
 70
     0
  0
ENDTAB
  0
TABLE
  2
UCS
  5
6
100
AcDbSymbolTable
 70
     0
  0
ENDTAB
  0
TABLE
  2
APPID
  5
8
100
AcDbSymbolTable
 70
     1
  0
APPID
  5
16
100
AcDbSymbolTableRecord
100
AcDbRegAppTableRecord
  2
ACAD
 70
     0
  0
ENDTAB
  0
TABLE
  2
DIMSTYLE
  5
9
100
AcDbSymbolTable
 70
     1
  0
DIMSTYLE
105
18
100
AcDbSymbolTableRecord
100
AcDbDimStyleTableRecord
  2
STANDARD
 70
     0
  3

  4

  5

  6

  7

 40
1.0
 41
0.18
 42
0.0625
 43
0.38
 44
0.18
 45
0.0
 46
0.0
 47
0.0
 48
0.0
 71
     0
 72
     0
 73
     1
 74
     1
 75
     0
 76
     0
 77
     0
 78
     0
140
0.18
141
0.09
142
0.0
143
25.4
144
1.0
145
0.0
146
1.0
147
0.09
170
     0
171
     2
172
     0
173
     0
174
     0
175
     0
176
     0
177
     0
178
     0
270
     2
271
     4
272
     4
273
     2
274
     2
275
     0
280
     0
281
     0
282
     0
283
     1
284
     0
285
     0
286
     0
287
     0
288
     0
340
17
  0
ENDTAB
  0
TABLE
  2
BLOCK_RECORD
  5
1
100
AcDbSymbolTable
 70
     0
  0
BLOCK_RECORD
  5
A
100
AcDbSymbolTableRecord
100
AcDbBlockTableRecord
  2
*MODEL_SPACE
  0
BLOCK_RECORD
  5
B
100
AcDbSymbolTableRecord
100
AcDbBlockTableRecord
  2
*PAPER_SPACE
  0
ENDTAB
  0
ENDSEC
  0
SECTION
  2
BLOCKS
  0
BLOCK
  5
D
100
AcDbEntity
  8
0
100
AcDbBlockBegin
  2
*MODEL_SPACE
 70
     0
 10
0.0
 20
0.0
 30
0.0
  3
*MODEL_SPACE
  1

  0
ENDBLK
  5
E
100
AcDbEntity
  8
0
100
AcDbBlockEnd
  0
BLOCK
  5
F
100
AcDbEntity
 67
     1
  8
0
100
AcDbBlockBegin
  2
*PAPER_SPACE
 70
     0
 10
0.0
 20
0.0
 30
0.0
  3
*PAPER_SPACE
  1

  0
ENDBLK
  5
10
100
AcDbEntity
 67
     1
  8
0
100
AcDbBlockEnd
  0
ENDSEC
  0
SECTION
  2
ENTITIES
  0
VIEWPORT
  5
57B
100
AcDbEntity
 67
     1
  8
0
 62
     0
 48
0.0
100
AcDbViewport
 10
0.0
 20
0.0
 30
0.0
 40
1000.0
 41
1000.0
 68
     1
 69
     1
1001
ACAD
1000
MVIEW
1002
{
1070
    16
1010
0.0
1020
0.0
1030
0.0
1010
0.0
1020
0.0
1030
1.0
1040
0.0
1040
1000.0
1040
0.0
1040
0.0
1040
50.0
1040
0.0
1040
0.0
1070
     0
1070
   100
1070
     1
1070
     1
1070
     0
1070
     0
1070
     0
1070
     0
1040
0.0
1040
0.0
1040
0.0
1040
1.0
1040
1.0
1040
1.0
1040
1.0
1070
     0
1002
{
1002
}
1002
}
  0
LINE
  5
24
100
AcDbEntity
  8
0
 62
     1
 48
0.15
100
AcDbLine
 10
80.733795
 20
200.642975
 30
0.0
 11
86.733795
 21
200.642975
 31
0.0
210
0.0
220
0.0
230
1.0
  0
LINE
  5
25
100
AcDbEntity
  8
0
 62
     1
 48
0.175
100
AcDbLine
 10
86.733795
 20
200.642975
 30
0.0
 11
86.733795
 21
207.642975
 31
0.0
210
0.0
220
0.0
230
1.0
  0
LINE
  5
26
100
AcDbEntity
  8
0
 62
     1
 48
0.15
100
AcDbLine
 10
86.733795
 20
207.642975
 30
0.0
 11
80.733795
 21
207.642975
 31
0.0
210
0.0
220
0.0
230
1.0
  0
LINE
  5
27
100
AcDbEntity
  8
0
 62
     1
 48
0.175
100
AcDbLine
 10
80.733795
 20
207.642975
 30
0.0
 11
80.733795
 21
200.642975
 31
0.0
210
0.0
220
0.0
230
1.0
  0
CIRCLE
  5
28
100
AcDbEntity
  8
0
 62
     1
100
AcDbCircle
 10
83.733795
 20
204.142975
 30
0.0
 40
8.243683
210
0.0
220
0.0
230
1.0
  0
CIRCLE
  5
29
100
AcDbEntity
  8
0
 62
     1
100
AcDbCircle
 10
209.738754
 20
226.818268
 30
0.0
 40
8.243683
210
0.0
220
0.0
230
1.0
  0
LINE
  5
2A
100
AcDbEntity
  8
0
 62
     1
 48
0.15
100
AcDbLine
 10
206.738754
 20
223.318268
 30
0.0
 11
212.738754
 21
223.318268
 31
0.0
210
0.0
220
0.0
230
1.0
  0
LINE
  5
2B
100
AcDbEntity
  8
0
 62
     1
 48
0.175
100
AcDbLine
 10
212.738754
 20
223.318268
 30
0.0
 11
212.738754
 21
230.318268
 31
0.0
210
0.0
220
0.0
230
1.0
  0
LINE
  5
2C
100
AcDbEntity
  8
0
 62
     1
 48
0.15
100
AcDbLine
 10
212.738754
 20
230.318268
 30
0.0
 11
206.738754
 21
230.318268
 31
0.0
210
0.0
220
0.0
230
1.0
  0
LINE
  5
2D
100
AcDbEntity
  8
0
 62
     1
 48
0.175
100
AcDbLine
 10
206.738754
 20
230.318268
 30
0.0
 11
206.738754
 21
223.318268
 31
0.0
210
0.0
220
0.0
230
1.0
  0
LINE
  5
2E
100
AcDbEntity
  8
0
 62
     1
100
AcDbLine
 10
211.964584
 20
68.462021
 30
0.0
 11
211.964584
 21
116.46022
 31
0.0
210
0.0
220
0.0
230
1.0
  0
LINE
  5
2F
100
AcDbEntity
  8
0
 62
     1
100
AcDbLine
 10
211.964584
 20
116.46022
 30
0.0
 11
211.964584
 21
154.46022
 31
0.0
210
0.0
220
0.0
230
1.0
  0
LINE
  5
30
100
AcDbEntity
  8
0
 62
     1
100
AcDbLine
 10
211.964584
 20
154.46022
 30
0.0
 11
190.964584
 21
154.46022
 31
0.0
210
0.0
220
0.0
230
1.0
  0
LINE
  5
31
100
AcDbEntity
  8
0
 62
     1
 48
0.3
100
AcDbLine
 10
190.964584
 20
154.46022
 30
0.0
 11
190.964584
 21
142.46022
 31
0.0
210
0.0
220
0.0
230
1.0
  0
LINE
  5
32
100
AcDbEntity
  8
0
 62
     1
 48
0.125
100
AcDbLine
 10
190.964584
 20
142.46022
 30
0.0
 11
185.964584
 21
142.46022
 31
0.0
210
0.0
220
0.0
230
1.0
  0
LINE
  5
33
100
AcDbEntity
  8
0
 62
     1
 48
0.15
100
AcDbLine
 10
185.964584
 20
142.46022
 30
0.0
 11
185.964584
 21
136.46022
 31
0.0
210
0.0
220
0.0
230
1.0
  0
LINE
  5
34
100
AcDbEntity
  8
0
 62
     1
 48
0.4
100
AcDbLine
 10
185.964584
 20
136.46022
 30
0.0
 11
169.964584
 21
136.46022
 31
0.0
210
0.0
220
0.0
230
1.0
  0
LINE
  5
35
100
AcDbEntity
  8
0
 62
     1
100
AcDbLine
 10
169.964584
 20
136.46022
 30
0.0
 11
169.964584
 21
116.46022
 31
0.0
210
0.0
220
0.0
230
1.0
  0
LINE
  5
36
100
AcDbEntity
  8
0
 62
     1
100
AcDbLine
 10
169.964584
 20
116.46022
 30
0.0
 11
169.964584
 21
86.462013
 31
0.0
210
0.0
220
0.0
230
1.0
  0
LINE
  5
37
100
AcDbEntity
  8
0
 62
     1
 48
0.4
100
AcDbLine
 10
169.964584
 20
86.462013
 30
0.0
 11
185.964584
 21
86.462013
 31
0.0
210
0.0
220
0.0
230
1.0
  0
LINE
  5
38
100
AcDbEntity
  8
0
 62
     1
 48
0.15
100
AcDbLine
 10
185.964584
 20
86.462013
 30
0.0
 11
185.964584
 21
80.462013
 31
0.0
210
0.0
220
0.0
230
1.0
  0
LINE
  5
39
100
AcDbEntity
  8
0
 62
     1
 48
0.125
100
AcDbLine
 10
185.964584
 20
80.462013
 30
0.0
 11
190.964584
 21
80.462013
 31
0.0
210
0.0
220
0.0
230
1.0
  0
LINE
  5
3A
100
AcDbEntity
  8
0
 62
     1
 48
0.3
100
AcDbLine
 10
190.964584
 20
80.462013
 30
0.0
 11
190.964584
 21
68.462021
 31
0.0
210
0.0
220
0.0
230
1.0
  0
LINE
  5
3B
100
AcDbEntity
  8
0
 62
     1
100
AcDbLine
 10
190.964584
 20
68.462021
 30
0.0
 11
211.964584
 21
68.462021
 31
0.0
210
0.0
220
0.0
230
1.0
  0
LINE
  5
3C
100
AcDbEntity
  8
0
 62
     1
100
AcDbLine
 10
200.673431
 20
295.636536
 30
0.0
 11
230.673431
 21
295.636536
 31
0.0
210
0.0
220
0.0
230
1.0
  0
LINE
  5
3D
100
AcDbEntity
  8
0
 62
     1
100
AcDbLine
 10
230.673431
 20
295.636536
 30
0.0
 11
230.673431
 21
333.636536
 31
0.0
210
0.0
220
0.0
230
1.0
  0
LINE
  5
3E
100
AcDbEntity
  8
0
 62
     1
 48
0.15
100
AcDbLine
 10
230.673431
 20
333.636536
 30
0.0
 11
236.673431
 21
333.636536
 31
0.0
210
0.0
220
0.0
230
1.0
  0
LINE
  5
3F
100
AcDbEntity
  8
0
 62
     1
 48
0.175
100
AcDbLine
 10
236.673431
 20
333.636536
 30
0.0
 11
236.673431
 21
340.636536
 31
0.0
210
0.0
220
0.0
230
1.0
  0
ARC
  5
40
100
AcDbEntity
  8
0
 62
     1
100
AcDbCircle
 10
231.673431
 20
340.636536
 30
0.0
 40
5.0
210
0.0
220
0.0
230
1.0
100
AcDbArc
 50
0.0
 51
90.000003
  0
LINE
  5
41
100
AcDbEntity
  8
0
 62
     1
100
AcDbLine
 10
231.673431
 20
345.636536
 30
0.0
 11
200.673431
 21
345.636536
 31
0.0
210
0.0
220
0.0
230
1.0
  0
LINE
  5
42
100
AcDbEntity
  8
0
 62
     1
100
AcDbLine
 10
200.673431
 20
345.636536
 30
0.0
 11
179.673431
 21
345.636536
 31
0.0
210
0.0
220
0.0
230
1.0
  0
ARC
  5
43
100
AcDbEntity
  8
0
 62
     1
100
AcDbCircle
 10
179.673431
 20
340.636536
 30
0.0
 40
5.0
210
0.0
220
0.0
230
1.0
100
AcDbArc
 50
90.000003
 51
180.000005
  0
LINE
  5
44
100
AcDbEntity
  8
0
 62
     1
 48
0.175
100
AcDbLine
 10
174.673431
 20
340.636536
 30
0.0
 11
174.673431
 21
333.636536
 31
0.0
210
0.0
220
0.0
230
1.0
  0
LINE
  5
45
100
AcDbEntity
  8
0
 62
     1
 48
0.15
100
AcDbLine
 10
174.673431
 20
333.636536
 30
0.0
 11
180.673431
 21
333.636536
 31
0.0
210
0.0
220
0.0
230
1.0
  0
LINE
  5
46
100
AcDbEntity
  8
0
 62
     1
100
AcDbLine
 10
180.673431
 20
333.636536
 30
0.0
 11
180.673431
 21
295.636536
 31
0.0
210
0.0
220
0.0
230
1.0
  0
LINE
  5
47
100
AcDbEntity
  8
0
 62
     1
100
AcDbLine
 10
180.673431
 20
295.636536
 30
0.0
 11
200.673431
 21
295.636536
 31
0.0
210
0.0
220
0.0
230
1.0
  0
LINE
  5
48
100
AcDbEntity
  8
0
 62
     1
100
AcDbLine
 10
1.595582
 20
265.524567
 30
0.0
 11
1.595582
 21
315.524567
 31
0.0
210
0.0
220
0.0
230
1.0
  0
LINE
  5
49
100
AcDbEntity
  8
0
 62
     1
 48
0.15
100
AcDbLine
 10
1.595582
 20
315.524567
 30
0.0
 11
7.595582
 21
315.524567
 31
0.0
210
0.0
220
0.0
230
1.0
  0
LINE
  5
4A
100
AcDbEntity
  8
0
 62
     1
 48
0.15
100
AcDbLine
 10
7.595582
 20
315.524567
 30
0.0
 11
7.595582
 21
321.524567
 31
0.0
210
0.0
220
0.0
230
1.0
  0
LINE
  5
4B
100
AcDbEntity
  8
0
 62
     1
 48
0.4
100
AcDbLine
 10
7.595582
 20
321.524567
 30
0.0
 11
23.595583
 21
321.524567
 31
0.0
210
0.0
220
0.0
230
1.0
  0
LINE
  5
4C
100
AcDbEntity
  8
0
 62
     1
 48
0.15
100
AcDbLine
 10
23.595583
 20
321.524567
 30
0.0
 11
23.595583
 21
315.524567
 31
0.0
210
0.0
220
0.0
230
1.0
  0
LINE
  5
4D
100
AcDbEntity
  8
0
 62
     1
 48
0.125
100
AcDbLine
 10
23.595583
 20
315.524567
 30
0.0
 11
18.595583
 21
315.524567
 31
0.0
210
0.0
220
0.0
230
1.0
  0
ARC
  5
4E
100
AcDbEntity
  8
0
 62
     1
100
AcDbCircle
 10
18.595583
 20
310.524567
 30
0.0
 40
5.0
210
0.0
220
0.0
230
1.0
100
AcDbArc
 50
90.000003
 51
180.000005
  0
LINE
  5
4F
100
AcDbEntity
  8
0
 62
     1
100
AcDbLine
 10
13.595582
 20
310.524567
 30
0.0
 11
13.595582
 21
270.524567
 31
0.0
210
0.0
220
0.0
230
1.0
  0
ARC
  5
50
100
AcDbEntity
  8
0
 62
     1
100
AcDbCircle
 10
18.595583
 20
270.524567
 30
0.0
 40
5.0
210
0.0
220
0.0
230
1.0
100
AcDbArc
 50
180.000005
 51
270.000001
  0
LINE
  5
51
100
AcDbEntity
  8
0
 62
     1
 48
0.125
100
AcDbLine
 10
18.595583
 20
265.524567
 30
0.0
 11
23.595583
 21
265.524567
 31
0.0
210
0.0
220
0.0
230
1.0
  0
LINE
  5
52
100
AcDbEntity
  8
0
 62
     1
 48
0.15
100
AcDbLine
 10
23.595583
 20
265.524567
 30
0.0
 11
23.595583
 21
259.524567
 31
0.0
210
0.0
220
0.0
230
1.0
  0
LINE
  5
53
100
AcDbEntity
  8
0
 62
     1
 48
0.4
100
AcDbLine
 10
23.595583
 20
259.524567
 30
0.0
 11
7.595582
 21
259.524567
 31
0.0
210
0.0
220
0.0
230
1.0
  0
LINE
  5
54
100
AcDbEntity
  8
0
 62
     1
 48
0.15
100
AcDbLine
 10
7.595582
 20
259.524567
 30
0.0
 11
7.595582
 21
265.524567
 31
0.0
210
0.0
220
0.0
230
1.0
  0
LINE
  5
55
100
AcDbEntity
  8
0
 62
     1
 48
0.15
100
AcDbLine
 10
7.595582
 20
265.524567
 30
0.0
 11
1.595582
 21
265.524567
 31
0.0
210
0.0
220
0.0
230
1.0
  0
LINE
  5
56
100
AcDbEntity
  8
0
 62
     1
100
AcDbLine
 10
163.905457
 20
291.952911
 30
0.0
 11
163.905457
 21
341.952911
 31
0.0
210
0.0
220
0.0
230
1.0
  0
LINE
  5
57
100
AcDbEntity
  8
0
 62
     1
 48
0.025
100
AcDbLine
 10
163.905457
 20
341.952911
 30
0.0
 11
162.905457
 21
341.952911
 31
0.0
210
0.0
220
0.0
230
1.0
  0
LINE
  5
58
100
AcDbEntity
  8
0
 62
     1
 48
0.15
100
AcDbLine
 10
162.905457
 20
341.952911
 30
0.0
 11
162.905457
 21
347.952911
 31
0.0
210
0.0
220
0.0
230
1.0
  0
LINE
  5
59
100
AcDbEntity
  8
0
 62
     1
 48
0.15
100
AcDbLine
 10
162.905457
 20
347.952911
 30
0.0
 11
156.905457
 21
347.952911
 31
0.0
210
0.0
220
0.0
230
1.0
  0
LINE
  5
5A
100
AcDbEntity
  8
0
 62
     1
 48
0.15
100
AcDbLine
 10
156.905457
 20
347.952911
 30
0.0
 11
156.905457
 21
341.952911
 31
0.0
210
0.0
220
0.0
230
1.0
  0
LINE
  5
5B
100
AcDbEntity
  8
0
 62
     1
 48
0.025
100
AcDbLine
 10
156.905457
 20
341.952911
 30
0.0
 11
155.905457
 21
341.952911
 31
0.0
210
0.0
220
0.0
230
1.0
  0
LINE
  5
5C
100
AcDbEntity
  8
0
 62
     1
100
AcDbLine
 10
155.905457
 20
341.952911
 30
0.0
 11
155.905457
 21
291.952911
 31
0.0
210
0.0
220
0.0
230
1.0
  0
LINE
  5
5D
100
AcDbEntity
  8
0
 62
     1
 48
0.025
100
AcDbLine
 10
155.905457
 20
291.952911
 30
0.0
 11
156.905457
 21
291.952911
 31
0.0
210
0.0
220
0.0
230
1.0
  0
LINE
  5
5E
100
AcDbEntity
  8
0
 62
     1
 48
0.15
100
AcDbLine
 10
156.905457
 20
291.952911
 30
0.0
 11
156.905457
 21
285.952911
 31
0.0
210
0.0
220
0.0
230
1.0
  0
LINE
  5
5F
100
AcDbEntity
  8
0
 62
     1
 48
0.15
100
AcDbLine
 10
156.905457
 20
285.952911
 30
0.0
 11
162.905457
 21
285.952911
 31
0.0
210
0.0
220
0.0
230
1.0
  0
LINE
  5
60
100
AcDbEntity
  8
0
 62
     1
 48
0.15
100
AcDbLine
 10
162.905457
 20
285.952911
 30
0.0
 11
162.905457
 21
291.952911
 31
0.0
210
0.0
220
0.0
230
1.0
  0
LINE
  5
61
100
AcDbEntity
  8
0
 62
     1
 48
0.025
100
AcDbLine
 10
162.905457
 20
291.952911
 30
0.0
 11
163.905457
 21
291.952911
 31
0.0
210
0.0
220
0.0
230
1.0
  0
LINE
  5
62
100
AcDbEntity
  8
0
 62
     1
100
AcDbLine
 10
90.343964
 20
274.023407
 30
0.0
 11
34.343964
 21
274.023407
 31
0.0
210
0.0
220
0.0
230
1.0
  0
LINE
  5
63
100
AcDbEntity
  8
0
 62
     1
 48
0.15
100
AcDbLine
 10
34.343964
 20
274.023407
 30
0.0
 11
28.343966
 21
274.023407
 31
0.0
210
0.0
220
0.0
230
1.0
  0
LINE
  5
64
100
AcDbEntity
  8
0
 62
     1
 48
0.3
100
AcDbLine
 10
28.343966
 20
274.023407
 30
0.0
 11
28.343966
 21
286.023407
 31
0.0
210
0.0
220
0.0
230
1.0
  0
LINE
  5
65
100
AcDbEntity
  8
0
 62
     1
 48
0.15
100
AcDbLine
 10
28.343966
 20
286.023407
 30
0.0
 11
34.343964
 21
286.023407
 31
0.0
210
0.0
220
0.0
230
1.0
  0
LINE
  5
66
100
AcDbEntity
  8
0
 62
     1
 48
0.2
100
AcDbLine
 10
34.343964
 20
286.023407
 30
0.0
 11
34.343964
 21
294.023407
 31
0.0
210
0.0
220
0.0
230
1.0
  0
LINE
  5
67
100
AcDbEntity
  8
0
 62
     1
100
AcDbLine
 10
34.343964
 20
294.023407
 30
0.0
 11
84.343964
 21
294.023407
 31
0.0
210
0.0
220
0.0
230
1.0
  0
LINE
  5
68
100
AcDbEntity
  8
0
 62
     1
 48
0.2
100
AcDbLine
 10
84.343964
 20
294.023407
 30
0.0
 11
84.343964
 21
286.023407
 31
0.0
210
0.0
220
0.0
230
1.0
  0
LINE
  5
69
100
AcDbEntity
  8
0
 62
     1
 48
0.15
100
AcDbLine
 10
84.343964
 20
286.023407
 30
0.0
 11
90.343964
 21
286.023407
 31
0.0
210
0.0
220
0.0
230
1.0
  0
LINE
  5
6A
100
AcDbEntity
  8
0
 62
     1
 48
0.3
100
AcDbLine
 10
90.343964
 20
286.023407
 30
0.0
 11
90.343964
 21
274.023407
 31
0.0
210
0.0
220
0.0
230
1.0
  0
LINE
  5
6B
100
AcDbEntity
  8
0
 62
     1
100
AcDbLine
 10
155.845795
 20
64.536819
 30
0.0
 11
155.845795
 21
94.516693
 31
0.0
210
0.0
220
0.0
230
1.0
  0
LINE
  5
6C
100
AcDbEntity
  8
0
 62
     1
100
AcDbLine
 10
155.845795
 20
94.516693
 30
0.0
 11
155.845795
 21
114.516693
 31
0.0
210
0.0
220
0.0
230
1.0
  0
LINE
  5
6D
100
AcDbEntity
  8
0
 62
     1
100
AcDbLine
 10
155.845795
 20
114.516693
 30
0.0
 11
129.845795
 21
114.516693
 31
0.0
210
0.0
220
0.0
230
1.0
  0
LINE
  5
6E
100
AcDbEntity
  8
0
 62
     1
 48
0.15
100
AcDbLine
 10
129.845795
 20
114.516693
 30
0.0
 11
129.845795
 21
120.516693
 31
0.0
210
0.0
220
0.0
230
1.0
  0
LINE
  5
6F
100
AcDbEntity
  8
0
 62
     1
 48
0.15
100
AcDbLine
 10
129.845795
 20
120.516693
 30
0.0
 11
135.845795
 21
120.516693
 31
0.0
210
0.0
220
0.0
230
1.0
  0
LINE
  5
70
100
AcDbEntity
  8
0
 62
     1
 48
0.3
100
AcDbLine
 10
135.845795
 20
120.516693
 30
0.0
 11
135.845795
 21
132.516693
 31
0.0
210
0.0
220
0.0
230
1.0
  0
LINE
  5
71
100
AcDbEntity
  8
0
 62
     1
100
AcDbLine
 10
135.845795
 20
132.516693
 30
0.0
 11
95.845795
 21
132.516693
 31
0.0
210
0.0
220
0.0
230
1.0
  0
LINE
  5
72
100
AcDbEntity
  8
0
 62
     1
 48
0.3
100
AcDbLine
 10
95.845795
 20
132.516693
 30
0.0
 11
95.845795
 21
120.516693
 31
0.0
210
0.0
220
0.0
230
1.0
  0
LINE
  5
73
100
AcDbEntity
  8
0
 62
     1
 48
0.15
100
AcDbLine
 10
95.845795
 20
120.516693
 30
0.0
 11
101.845795
 21
120.516693
 31
0.0
210
0.0
220
0.0
230
1.0
  0
LINE
  5
74
100
AcDbEntity
  8
0
 62
     1
 48
0.15
100
AcDbLine
 10
101.845795
 20
120.516693
 30
0.0
 11
101.845795
 21
114.516693
 31
0.0
210
0.0
220
0.0
230
1.0
  0
LINE
  5
75
100
AcDbEntity
  8
0
 62
     1
100
AcDbLine
 10
101.845795
 20
114.516693
 30
0.0
 11
80.845795
 21
114.516693
 31
0.0
210
0.0
220
0.0
230
1.0
  0
LINE
  5
76
100
AcDbEntity
  8
0
 62
     1
100
AcDbLine
 10
80.845795
 20
114.516693
 30
0.0
 11
80.845795
 21
94.516693
 31
0.0
210
0.0
220
0.0
230
1.0
  0
LINE
  5
77
100
AcDbEntity
  8
0
 62
     1
100
AcDbLine
 10
80.845795
 20
94.516693
 30
0.0
 11
80.845795
 21
64.536819
 31
0.0
210
0.0
220
0.0
230
1.0
  0
LINE
  5
78
100
AcDbEntity
  8
0
 62
     1
100
AcDbLine
 10
80.845795
 20
64.536819
 30
0.0
 11
101.845795
 21
64.536819
 31
0.0
210
0.0
220
0.0
230
1.0
  0
LINE
  5
79
100
AcDbEntity
  8
0
 62
     1
 48
0.15
100
AcDbLine
 10
101.845795
 20
64.536819
 30
0.0
 11
101.845795
 21
58.536819
 31
0.0
210
0.0
220
0.0
230
1.0
  0
LINE
  5
7A
100
AcDbEntity
  8
0
 62
     1
 48
0.15
100
AcDbLine
 10
101.845795
 20
58.536819
 30
0.0
 11
95.845795
 21
58.536819
 31
0.0
210
0.0
220
0.0
230
1.0
  0
LINE
  5
7B
100
AcDbEntity
  8
0
 62
     1
 48
0.3
100
AcDbLine
 10
95.845795
 20
58.536819
 30
0.0
 11
95.845795
 21
46.536819
 31
0.0
210
0.0
220
0.0
230
1.0
  0
LINE
  5
7C
100
AcDbEntity
  8
0
 62
     1
100
AcDbLine
 10
95.845795
 20
46.536819
 30
0.0
 11
135.845795
 21
46.536819
 31
0.0
210
0.0
220
0.0
230
1.0
  0
LINE
  5
7D
100
AcDbEntity
  8
0
 62
     1
 48
0.3
100
AcDbLine
 10
135.845795
 20
46.536819
 30
0.0
 11
135.845795
 21
58.536819
 31
0.0
210
0.0
220
0.0
230
1.0
  0
LINE
  5
7E
100
AcDbEntity
  8
0
 62
     1
 48
0.15
100
AcDbLine
 10
135.845795
 20
58.536819
 30
0.0
 11
129.845795
 21
58.536819
 31
0.0
210
0.0
220
0.0
230
1.0
  0
LINE
  5
7F
100
AcDbEntity
  8
0
 62
     1
 48
0.15
100
AcDbLine
 10
129.845795
 20
58.536819
 30
0.0
 11
129.845795
 21
64.536819
 31
0.0
210
0.0
220
0.0
230
1.0
  0
LINE
  5
80
100
AcDbEntity
  8
0
 62
     1
100
AcDbLine
 10
129.845795
 20
64.536819
 30
0.0
 11
155.845795
 21
64.536819
 31
0.0
210
0.0
220
0.0
230
1.0
  0
LINE
  5
81
100
AcDbEntity
  8
0
 62
     7
 48
0.148938
100
AcDbLine
 10
49.78952
 20
352.919098
 30
0.0
 11
55.747059
 21
352.919098
 31
0.0
210
0.0
220
0.0
230
1.0
  0
ARC
  5
82
100
AcDbEntity
  8
0
 62
     7
100
AcDbCircle
 10
49.78952
 20
344.919098
 30
0.0
 40
8.0
210
0.0
220
0.0
230
1.0
100
AcDbArc
 50
90.000003
 51
141.995289
  0
LINE
  5
83
100
AcDbEntity
  8
0
 62
     7
 48
0.423061
100
AcDbLine
 10
43.48584
 20
349.84491
 30
0.0
 11
33.442974
 21
336.224731
 31
0.0
210
0.0
220
0.0
230
1.0
  0
ARC
  5
84
100
AcDbEntity
  8
0
 62
     7
100
AcDbCircle
 10
28.71213
 20
339.925415
 30
0.0
 40
6.006323
210
0.0
220
0.0
230
1.0
100
AcDbArc
 50
270.029425
 51
321.965883
  0
LINE
  5
85
100
AcDbEntity
  8
0
 62
     7
 48
0.274204
100
AcDbLine
 10
17.747061
 20
333.919098
 30
0.0
 11
28.715214
 21
333.919098
 31
0.0
210
0.0
220
0.0
230
1.0
  0
LINE
  5
86
100
AcDbEntity
  8
0
 62
     7
 48
0.1
100
AcDbLine
 10
17.747061
 20
329.919098
 30
0.0
 11
17.747061
 21
333.919098
 31
0.0
210
0.0
220
0.0
230
1.0
  0
LINE
  5
87
100
AcDbEntity
  8
0
 62
     7
 48
0.304138
100
AcDbLine
 10
29.747061
 20
327.919098
 30
0.0
 11
17.747061
 21
329.919098
 31
0.0
210
0.0
220
0.0
230
1.0
  0
LINE
  5
88
100
AcDbEntity
  8
0
 62
     7
 48
0.15
100
AcDbLine
 10
35.747059
 20
327.919098
 30
0.0
 11
29.747061
 21
327.919098
 31
0.0
210
0.0
220
0.0
230
1.0
  0
LINE
  5
89
100
AcDbEntity
  8
0
 62
     7
100
AcDbLine
 10
35.747059
 20
302.919098
 30
0.0
 11
35.747059
 21
327.919098
 31
0.0
210
0.0
220
0.0
230
1.0
  0
LINE
  5
8A
100
AcDbEntity
  8
0
 62
     7
100
AcDbLine
 10
35.747059
 20
302.919098
 30
0.0
 11
85.747055
 21
302.919098
 31
0.0
210
0.0
220
0.0
230
1.0
  0
LINE
  5
8B
100
AcDbEntity
  8
0
 62
     7
100
AcDbLine
 10
85.747055
 20
327.919098
 30
0.0
 11
85.747055
 21
302.919098
 31
0.0
210
0.0
220
0.0
230
1.0
  0
LINE
  5
8C
100
AcDbEntity
  8
0
 62
     7
 48
0.15
100
AcDbLine
 10
85.747055
 20
327.919098
 30
0.0
 11
91.747055
 21
327.919098
 31
0.0
210
0.0
220
0.0
230
1.0
  0
LINE
  5
8D
100
AcDbEntity
  8
0
 62
     7
 48
0.304138
100
AcDbLine
 10
91.747055
 20
327.919098
 30
0.0
 11
103.747055
 21
329.919098
 31
0.0
210
0.0
220
0.0
230
1.0
  0
LINE
  5
8E
100
AcDbEntity
  8
0
 62
     7
 48
0.1
100
AcDbLine
 10
103.747055
 20
329.919098
 30
0.0
 11
103.747055
 21
333.919098
 31
0.0
210
0.0
220
0.0
230
1.0
  0
LINE
  5
8F
100
AcDbEntity
  8
0
 62
     7
 48
0.278445
100
AcDbLine
 10
103.747055
 20
333.919098
 30
0.0
 11
92.609238
 21
333.921478
 31
0.0
210
0.0
220
0.0
230
1.0
  0
ARC
  5
90
100
AcDbEntity
  8
0
 62
     7
100
AcDbCircle
 10
92.782074
 20
339.925354
 30
0.0
 40
6.006348
210
0.0
220
0.0
230
1.0
100
AcDbArc
 50
218.033189
 51
268.351166
  0
LINE
  5
91
100
AcDbEntity
  8
0
 62
     7
 48
0.423061
100
AcDbLine
 10
88.051147
 20
336.224731
 30
0.0
 11
78.008278
 21
349.84491
 31
0.0
210
0.0
220
0.0
230
1.0
  0
ARC
  5
92
100
AcDbEntity
  8
0
 62
     7
100
AcDbCircle
 10
71.700317
 20
344.910339
 30
0.0
 40
8.008769
210
0.0
220
0.0
230
1.0
100
AcDbArc
 50
38.035302
 51
89.96941
  0
LINE
  5
93
100
AcDbEntity
  8
0
 62
     7
 48
0.148939
100
AcDbLine
 10
71.704597
 20
352.919098
 30
0.0
 11
65.747055
 21
352.919098
 31
0.0
210
0.0
220
0.0
230
1.0
  0
ARC
  5
94
100
AcDbEntity
  8
0
 62
     7
100
AcDbCircle
 10
65.747055
 20
354.919098
 30
0.0
 40
2.0
210
0.0
220
0.0
230
1.0
100
AcDbArc
 50
180.000005
 51
270.000001
  0
LINE
  5
95
100
AcDbEntity
  8
0
 62
     7
 48
0.05
100
AcDbLine
 10
63.747059
 20
356.919098
 30
0.0
 11
63.747059
 21
354.919098
 31
0.0
210
0.0
220
0.0
230
1.0
  0
ARC
  5
96
100
AcDbEntity
  8
0
 62
     7
100
AcDbCircle
 10
61.747059
 20
356.919098
 30
0.0
 40
2.0
210
0.0
220
0.0
230
1.0
100
AcDbArc
 50
0.0
 51
90.000003
  0
LINE
  5
97
100
AcDbEntity
  8
0
 62
     7
 48
0.05
100
AcDbLine
 10
59.747059
 20
358.919098
 30
0.0
 11
61.747059
 21
358.919098
 31
0.0
210
0.0
220
0.0
230
1.0
  0
ARC
  5
98
100
AcDbEntity
  8
0
 62
     7
100
AcDbCircle
 10
59.747059
 20
356.919098
 30
0.0
 40
2.0
210
0.0
220
0.0
230
1.0
100
AcDbArc
 50
90.000003
 51
180.000005
  0
LINE
  5
99
100
AcDbEntity
  8
0
 62
     7
 48
0.05
100
AcDbLine
 10
57.747059
 20
354.919098
 30
0.0
 11
57.747059
 21
356.919098
 31
0.0
210
0.0
220
0.0
230
1.0
  0
ARC
  5
9A
100
AcDbEntity
  8
0
 62
     7
100
AcDbCircle
 10
55.747059
 20
354.919098
 30
0.0
 40
2.0
210
0.0
220
0.0
230
1.0
100
AcDbArc
 50
270.000001
 51
360.00001
  0
LINE
  5
9B
100
AcDbEntity
  8
0
 62
     7
100
AcDbLine
 10
42.02626
 20
4.87078
 30
0.0
 11
2.853577
 21
4.87078
 31
0.0
210
0.0
220
0.0
230
1.0
  0
LINE
  5
9C
100
AcDbEntity
  8
0
 62
     7
 48
0.06973
100
AcDbLine
 10
44.803776
 20
5.126032
 30
0.0
 11
42.02626
 21
4.87078
 31
0.0
210
0.0
220
0.0
230
1.0
  0
LINE
  5
9D
100
AcDbEntity
  8
0
 62
     7
 48
0.065793
100
AcDbLine
 10
47.416409
 20
5.442381
 30
0.0
 11
44.803776
 21
5.126032
 31
0.0
210
0.0
220
0.0
230
1.0
  0
LINE
  5
9E
100
AcDbEntity
  8
0
 62
     7
 48
0.062074
100
AcDbLine
 10
49.871311
 20
5.81458
 30
0.0
 11
47.416409
 21
5.442381
 31
0.0
210
0.0
220
0.0
230
1.0
  0
LINE
  5
9F
100
AcDbEntity
  8
0
 62
     7
 48
0.05857
100
AcDbLine
 10
52.175648
 20
6.237386
 30
0.0
 11
49.871311
 21
5.81458
 31
0.0
210
0.0
220
0.0
230
1.0
  0
LINE
  5
A0
100
AcDbEntity
  8
0
 62
     7
 48
0.055277
100
AcDbLine
 10
54.336578
 20
6.705551
 30
0.0
 11
52.175648
 21
6.237386
 31
0.0
210
0.0
220
0.0
230
1.0
  0
LINE
  5
A1
100
AcDbEntity
  8
0
 62
     7
 48
0.052188
100
AcDbLine
 10
56.361263
 20
7.213831
 30
0.0
 11
54.336578
 21
6.705551
 31
0.0
210
0.0
220
0.0
230
1.0
  0
LINE
  5
A2
100
AcDbEntity
  8
0
 62
     7
 48
0.049297
100
AcDbLine
 10
58.256863
 20
7.75698
 30
0.0
 11
56.361263
 21
7.213831
 31
0.0
210
0.0
220
0.0
230
1.0
  0
LINE
  5
A3
100
AcDbEntity
  8
0
 62
     7
 48
0.046597
100
AcDbLine
 10
60.030537
 20
8.329756
 30
0.0
 11
58.256863
 21
7.75698
 31
0.0
210
0.0
220
0.0
230
1.0
  0
LINE
  5
A4
100
AcDbEntity
  8
0
 62
     7
 48
0.044078
100
AcDbLine
 10
61.689445
 20
8.926908
 30
0.0
 11
60.030537
 21
8.329756
 31
0.0
210
0.0
220
0.0
230
1.0
  0
LINE
  5
A5
100
AcDbEntity
  8
0
 62
     7
 48
0.041731
100
AcDbLine
 10
63.240749
 20
9.543194
 30
0.0
 11
61.689445
 21
8.926908
 31
0.0
210
0.0
220
0.0
230
1.0
  0
LINE
  5
A6
100
AcDbEntity
  8
0
 62
     7
 48
0.039545
100
AcDbLine
 10
64.691597
 20
10.17337
 30
0.0
 11
63.240749
 21
9.543194
 31
0.0
210
0.0
220
0.0
230
1.0
  0
LINE
  5
A7
100
AcDbEntity
  8
0
 62
     7
 48
0.037509
100
AcDbLine
 10
66.049171
 20
10.812187
 30
0.0
 11
64.691597
 21
10.17337
 31
0.0
210
0.0
220
0.0
230
1.0
  0
LINE
  5
A8
100
AcDbEntity
  8
0
 62
     7
 48
0.035611
100
AcDbLine
 10
67.320618
 20
11.454405
 30
0.0
 11
66.049171
 21
10.812187
 31
0.0
210
0.0
220
0.0
230
1.0
  0
LINE
  5
A9
100
AcDbEntity
  8
0
 62
     7
 48
0.033839
100
AcDbLine
 10
68.5131
 20
12.094772
 30
0.0
 11
67.320618
 21
11.454405
 31
0.0
210
0.0
220
0.0
230
1.0
  0
LINE
  5
AA
100
AcDbEntity
  8
0
 62
     7
 48
0.062805
100
AcDbLine
 10
70.689819
 20
13.348986
 30
0.0
 11
68.5131
 21
12.094772
 31
0.0
210
0.0
220
0.0
230
1.0
  0
LINE
  5
AB
100
AcDbEntity
  8
0
 62
     7
 48
0.039818
100
AcDbLine
 10
72.050224
 20
14.177282
 30
0.0
 11
70.689819
 21
13.348986
 31
0.0
210
0.0
220
0.0
230
1.0
  0
LINE
  5
AC
100
AcDbEntity
  8
0
 62
     7
 48
0.037245
100
AcDbLine
 10
73.3088
 20
14.974428
 30
0.0
 11
72.050224
 21
14.177282
 31
0.0
210
0.0
220
0.0
230
1.0
  0
LINE
  5
AD
100
AcDbEntity
  8
0
 62
     7
 48
0.034867
100
AcDbLine
 10
74.472832
 20
15.742653
 30
0.0
 11
73.3088
 21
14.974428
 31
0.0
210
0.0
220
0.0
230
1.0
  0
LINE
  5
AE
100
AcDbEntity
  8
0
 62
     7
 48
0.032685
100
AcDbLine
 10
75.549614
 20
16.484184
 30
0.0
 11
74.472832
 21
15.742653
 31
0.0
210
0.0
220
0.0
230
1.0
  0
LINE
  5
AF
100
AcDbEntity
  8
0
 62
     7
 48
0.030699
100
AcDbLine
 10
76.54644
 20
17.20125
 30
0.0
 11
75.549614
 21
16.484184
 31
0.0
210
0.0
220
0.0
230
1.0
  0
LINE
  5
B0
100
AcDbEntity
  8
0
 62
     7
 48
0.028905
100
AcDbLine
 10
77.470589
 20
17.89608
 30
0.0
 11
76.54644
 21
17.20125
 31
0.0
210
0.0
220
0.0
230
1.0
  0
LINE
  5
B1
100
AcDbEntity
  8
0
 62
     7
 48
0.027305
100
AcDbLine
 10
78.329369
 20
18.570902
 30
0.0
 11
77.470589
 21
17.89608
 31
0.0
210
0.0
220
0.0
230
1.0
  0
LINE
  5
B2
100
AcDbEntity
  8
0
 62
     7
 48
0.025894
100
AcDbLine
 10
79.130051
 20
19.227942
 30
0.0
 11
78.329369
 21
18.570902
 31
0.0
210
0.0
220
0.0
230
1.0
  0
LINE
  5
B3
100
AcDbEntity
  8
0
 62
     7
 48
0.024671
100
AcDbLine
 10
79.879936
 20
19.869432
 30
0.0
 11
79.130051
 21
19.227942
 31
0.0
210
0.0
220
0.0
230
1.0
  0
LINE
  5
B4
100
AcDbEntity
  8
0
 62
     7
 48
0.023632
100
AcDbLine
 10
80.586319
 20
20.497599
 30
0.0
 11
79.879936
 21
19.869432
 31
0.0
210
0.0
220
0.0
230
1.0
  0
LINE
  5
B5
100
AcDbEntity
  8
0
 62
     7
 48
0.044869
100
AcDbLine
 10
81.897728
 20
21.722878
 30
0.0
 11
80.586319
 21
20.497599
 31
0.0
210
0.0
220
0.0
230
1.0
  0
LINE
  5
B6
100
AcDbEntity
  8
0
 62
     7
 48
0.123942
100
AcDbLine
 10
85.430946
 20
25.200659
 30
0.0
 11
81.897728
 21
21.722878
 31
0.0
210
0.0
220
0.0
230
1.0
  0
LINE
  5
B7
100
AcDbEntity
  8
0
 62
     7
 48
0.041152
100
AcDbLine
 10
86.628273
 20
26.33028
 30
0.0
 11
85.430946
 21
25.200659
 31
0.0
210
0.0
220
0.0
230
1.0
  0
LINE
  5
B8
100
AcDbEntity
  8
0
 62
     7
 48
0.045095
100
AcDbLine
 10
87.972084
 20
27.533579
 30
0.0
 11
86.628273
 21
26.33028
 31
0.0
210
0.0
220
0.0
230
1.0
  0
LINE
  5
B9
100
AcDbEntity
  8
0
 62
     7
 48
0.05076
100
AcDbLine
 10
89.523262
 20
28.843657
 30
0.0
 11
87.972084
 21
27.533579
 31
0.0
210
0.0
220
0.0
230
1.0
  0
LINE
  5
BA
100
AcDbEntity
  8
0
 62
     7
 48
0.058163
100
AcDbLine
 10
91.34269
 20
30.293608
 30
0.0
 11
89.523262
 21
28.843657
 31
0.0
210
0.0
220
0.0
230
1.0
  0
LINE
  5
BB
100
AcDbEntity
  8
0
 62
     7
 48
0.067316
100
AcDbLine
 10
93.491257
 20
31.916538
 30
0.0
 11
91.34269
 21
30.293608
 31
0.0
210
0.0
220
0.0
230
1.0
  0
LINE
  5
BC
100
AcDbEntity
  8
0
 62
     7
 48
0.078221
100
AcDbLine
 10
96.029831
 20
33.745544
 30
0.0
 11
93.491257
 21
31.916538
 31
0.0
210
0.0
220
0.0
230
1.0
  0
LINE
  5
BD
100
AcDbEntity
  8
0
 62
     7
 48
0.090879
100
AcDbLine
 10
99.019302
 20
35.813732
 30
0.0
 11
96.029831
 21
33.745544
 31
0.0
210
0.0
220
0.0
230
1.0
  0
LINE
  5
BE
100
AcDbEntity
  8
0
 62
     7
 48
0.025
100
AcDbLine
 10
99.019302
 20
36.813732
 30
0.0
 11
99.019302
 21
35.813732
 31
0.0
210
0.0
220
0.0
230
1.0
  0
LINE
  5
BF
100
AcDbEntity
  8
0
 62
     7
 48
0.15
100
AcDbLine
 10
93.019302
 20
36.813732
 30
0.0
 11
99.019302
 21
36.813732
 31
0.0
210
0.0
220
0.0
230
1.0
  0
LINE
  5
C0
100
AcDbEntity
  8
0
 62
     7
 48
0.15
100
AcDbLine
 10
93.019302
 20
42.813732
 30
0.0
 11
93.019302
 21
36.813732
 31
0.0
210
0.0
220
0.0
230
1.0
  0
LINE
  5
C1
100
AcDbEntity
  8
0
 62
     7
 48
0.3
100
AcDbLine
 10
81.019302
 20
42.813732
 30
0.0
 11
93.019302
 21
42.813732
 31
0.0
210
0.0
220
0.0
230
1.0
  0
LINE
  5
C2
100
AcDbEntity
  8
0
 62
     7
 48
0.025101
100
AcDbLine
 10
80.515015
 20
41.945515
 30
0.0
 11
81.019302
 21
42.813732
 31
0.0
210
0.0
220
0.0
230
1.0
  0
LINE
  5
C3
100
AcDbEntity
  8
0
 62
     7
 48
0.024816
100
AcDbLine
 10
80.001472
 20
41.096031
 30
0.0
 11
80.515015
 21
41.945515
 31
0.0
210
0.0
220
0.0
230
1.0
  0
LINE
  5
C4
100
AcDbEntity
  8
0
 62
     7
 48
0.048872
100
AcDbLine
 10
78.947258
 20
39.449787
 30
0.0
 11
80.001472
 21
41.096031
 31
0.0
210
0.0
220
0.0
230
1.0
  0
LINE
  5
C5
100
AcDbEntity
  8
0
 62
     7
 48
0.048014
100
AcDbLine
 10
77.857941
 20
37.868015
 30
0.0
 11
78.947258
 21
39.449787
 31
0.0
210
0.0
220
0.0
230
1.0
  0
LINE
  5
C6
100
AcDbEntity
  8
0
 62
     7
 48
0.047335
100
AcDbLine
 10
76.734772
 20
36.343735
 30
0.0
 11
77.857941
 21
37.868015
 31
0.0
210
0.0
220
0.0
230
1.0
  0
LINE
  5
C7
100
AcDbEntity
  8
0
 62
     7
 48
0.046823
100
AcDbLine
 10
75.579018
 20
34.869965
 30
0.0
 11
76.734772
 21
36.343735
 31
0.0
210
0.0
220
0.0
230
1.0
  0
LINE
  5
C8
100
AcDbEntity
  8
0
 62
     7
 48
0.046467
100
AcDbLine
 10
74.39196
 20
33.43972
 30
0.0
 11
75.579018
 21
34.869965
 31
0.0
210
0.0
220
0.0
230
1.0
  0
LINE
  5
C9
100
AcDbEntity
  8
0
 62
     7
 48
0.046258
100
AcDbLine
 10
73.17485
 20
32.046021
 30
0.0
 11
74.39196
 21
33.43972
 31
0.0
210
0.0
220
0.0
230
1.0
  0
LINE
  5
CA
100
AcDbEntity
  8
0
 62
     7
 48
0.046187
100
AcDbLine
 10
71.928955
 20
30.681889
 30
0.0
 11
73.17485
 21
32.046021
 31
0.0
210
0.0
220
0.0
230
1.0
  0
LINE
  5
CB
100
AcDbEntity
  8
0
 62
     7
 48
0.063272
100
AcDbLine
 10
70.178322
 20
28.854172
 30
0.0
 11
71.928955
 21
30.681889
 31
0.0
210
0.0
220
0.0
230
1.0
  0
LINE
  5
CC
100
AcDbEntity
  8
0
 62
     7
 48
0.063217
100
AcDbLine
 10
68.376884
 20
27.07963
 30
0.0
 11
70.178322
 21
28.854172
 31
0.0
210
0.0
220
0.0
230
1.0
  0
LINE
  5
CD
100
AcDbEntity
  8
0
 62
     7
 48
0.063017
100
AcDbLine
 10
66.525421
 20
25.369101
 30
0.0
 11
68.376884
 21
27.07963
 31
0.0
210
0.0
220
0.0
230
1.0
  0
LINE
  5
CE
100
AcDbEntity
  8
0
 62
     7
 48
0.031395
100
AcDbLine
 10
65.581169
 20
24.541227
 30
0.0
 11
66.525421
 21
25.369101
 31
0.0
210
0.0
220
0.0
230
1.0
  0
LINE
  5
CF
100
AcDbEntity
  8
0
 62
     7
 48
0.031299
100
AcDbLine
 10
64.62471
 20
23.733423
 30
0.0
 11
65.581169
 21
24.541227
 31
0.0
210
0.0
220
0.0
230
1.0
  0
LINE
  5
D0
100
AcDbEntity
  8
0
 62
     7
 48
0.03119
100
AcDbLine
 10
63.656132
 20
22.947042
 30
0.0
 11
64.62471
 21
23.733423
 31
0.0
210
0.0
220
0.0
230
1.0
  0
LINE
  5
D1
100
AcDbEntity
  8
0
 62
     7
 48
0.031071
100
AcDbLine
 10
62.675533
 20
22.183437
 30
0.0
 11
63.656132
 21
22.947042
 31
0.0
210
0.0
220
0.0
230
1.0
  0
LINE
  5
D2
100
AcDbEntity
  8
0
 62
     7
 48
0.030943
100
AcDbLine
 10
61.683006
 20
21.443968
 30
0.0
 11
62.675533
 21
22.183437
 31
0.0
210
0.0
220
0.0
230
1.0
  0
LINE
  5
D3
100
AcDbEntity
  8
0
 62
     7
 48
0.030807
100
AcDbLine
 10
60.678658
 20
20.729984
 30
0.0
 11
61.683006
 21
21.443968
 31
0.0
210
0.0
220
0.0
230
1.0
  0
LINE
  5
D4
100
AcDbEntity
  8
0
 62
     7
 48
0.030665
100
AcDbLine
 10
59.662582
 20
20.042843
 30
0.0
 11
60.678658
 21
20.729984
 31
0.0
210
0.0
220
0.0
230
1.0
  0
LINE
  5
D5
100
AcDbEntity
  8
0
 62
     7
 48
0.03052
100
AcDbLine
 10
58.634876
 20
19.383902
 30
0.0
 11
59.662582
 21
20.042843
 31
0.0
210
0.0
220
0.0
230
1.0
  0
LINE
  5
D6
100
AcDbEntity
  8
0
 62
     7
 48
0.030374
100
AcDbLine
 10
57.595634
 20
18.754511
 30
0.0
 11
58.634876
 21
19.383902
 31
0.0
210
0.0
220
0.0
230
1.0
  0
LINE
  5
D7
100
AcDbEntity
  8
0
 62
     7
 48
0.030229
100
AcDbLine
 10
56.544956
 20
18.156027
 30
0.0
 11
57.595634
 21
18.754511
 31
0.0
210
0.0
220
0.0
230
1.0
  0
LINE
  5
D8
100
AcDbEntity
  8
0
 62
     7
 48
0.021706
100
AcDbLine
 10
55.780529
 20
17.744368
 30
0.0
 11
56.544956
 21
18.156027
 31
0.0
210
0.0
220
0.0
230
1.0
  0
LINE
  5
D9
100
AcDbEntity
  8
0
 62
     7
 48
0.021638
100
AcDbLine
 10
55.010536
 20
17.349121
 30
0.0
 11
55.780529
 21
17.744368
 31
0.0
210
0.0
220
0.0
230
1.0
  0
LINE
  5
DA
100
AcDbEntity
  8
0
 62
     7
 48
0.021575
100
AcDbLine
 10
54.235321
 20
16.969934
 30
0.0
 11
55.010536
 21
17.349121
 31
0.0
210
0.0
220
0.0
230
1.0
  0
LINE
  5
DB
100
AcDbEntity
  8
0
 62
     7
 48
0.021516
100
AcDbLine
 10
53.455215
 20
16.606453
 30
0.0
 11
54.235321
 21
16.969934
 31
0.0
210
0.0
220
0.0
230
1.0
  0
LINE
  5
DC
100
AcDbEntity
  8
0
 62
     7
 48
0.021461
100
AcDbLine
 10
52.670547
 20
16.258326
 30
0.0
 11
53.455215
 21
16.606453
 31
0.0
210
0.0
220
0.0
230
1.0
  0
LINE
  5
DD
100
AcDbEntity
  8
0
 62
     7
 48
0.021409
100
AcDbLine
 10
51.881657
 20
15.925198
 30
0.0
 11
52.670547
 21
16.258326
 31
0.0
210
0.0
220
0.0
230
1.0
  0
LINE
  5
DE
100
AcDbEntity
  8
0
 62
     7
 48
0.042669
100
AcDbLine
 10
50.292538
 20
15.302525
 30
0.0
 11
51.881657
 21
15.925198
 31
0.0
210
0.0
220
0.0
230
1.0
  0
LINE
  5
DF
100
AcDbEntity
  8
0
 62
     7
 48
0.042484
100
AcDbLine
 10
48.690521
 20
14.735605
 30
0.0
 11
50.292538
 21
15.302525
 31
0.0
210
0.0
220
0.0
230
1.0
  0
LINE
  5
E0
100
AcDbEntity
  8
0
 62
     7
 48
0.042305
100
AcDbLine
 10
47.078281
 20
14.221613
 30
0.0
 11
48.690521
 21
14.735605
 31
0.0
210
0.0
220
0.0
230
1.0
  0
LINE
  5
E1
100
AcDbEntity
  8
0
 62
     7
 48
0.042123
100
AcDbLine
 10
45.458485
 20
13.757715
 30
0.0
 11
47.078281
 21
14.221613
 31
0.0
210
0.0
220
0.0
230
1.0
  0
LINE
  5
E2
100
AcDbEntity
  8
0
 62
     7
 48
0.041931
100
AcDbLine
 10
43.833801
 20
13.341087
 30
0.0
 11
45.458485
 21
13.757715
 31
0.0
210
0.0
220
0.0
230
1.0
  0
LINE
  5
E3
100
AcDbEntity
  8
0
 62
     7
 48
0.041723
100
AcDbLine
 10
42.206902
 20
12.968901
 30
0.0
 11
43.833801
 21
13.341087
 31
0.0
210
0.0
220
0.0
230
1.0
  0
LINE
  5
E4
100
AcDbEntity
  8
0
 62
     7
 48
0.041493
100
AcDbLine
 10
40.580452
 20
12.638325
 30
0.0
 11
42.206902
 21
12.968901
 31
0.0
210
0.0
220
0.0
230
1.0
  0
LINE
  5
E5
100
AcDbEntity
  8
0
 62
     7
 48
0.041234
100
AcDbLine
 10
38.957123
 20
12.346533
 30
0.0
 11
40.580452
 21
12.638325
 31
0.0
210
0.0
220
0.0
230
1.0
  0
LINE
  5
E6
100
AcDbEntity
  8
0
 62
     7
 48
0.040941
100
AcDbLine
 10
37.339581
 20
12.090694
 30
0.0
 11
38.957123
 21
12.346533
 31
0.0
210
0.0
220
0.0
230
1.0
  0
LINE
  5
E7
100
AcDbEntity
  8
0
 62
     7
 48
0.04061
100
AcDbLine
 10
35.730503
 20
11.867983
 30
0.0
 11
37.339581
 21
12.090694
 31
0.0
210
0.0
220
0.0
230
1.0
  0
LINE
  5
E8
100
AcDbEntity
  8
0
 62
     7
 48
0.040237
100
AcDbLine
 10
34.132549
 20
11.67557
 30
0.0
 11
35.730503
 21
11.867983
 31
0.0
210
0.0
220
0.0
230
1.0
  0
LINE
  5
E9
100
AcDbEntity
  8
0
 62
     7
 48
0.079165
100
AcDbLine
 10
30.980707
 20
11.370319
 30
0.0
 11
34.132549
 21
11.67557
 31
0.0
210
0.0
220
0.0
230
1.0
  0
LINE
  5
EA
100
AcDbEntity
  8
0
 62
     7
 48
0.090653
100
AcDbLine
 10
27.362984
 20
11.123724
 30
0.0
 11
30.980707
 21
11.370319
 31
0.0
210
0.0
220
0.0
230
1.0
  0
LINE
  5
EB
100
AcDbEntity
  8
0
 62
     7
 48
0.088862
100
AcDbLine
 10
23.811607
 20
10.97501
 30
0.0
 11
27.362984
 21
11.123724
 31
0.0
210
0.0
220
0.0
230
1.0
  0
LINE
  5
EC
100
AcDbEntity
  8
0
 62
     7
 48
0.176549
100
AcDbLine
 10
16.750263
 20
10.880562
 30
0.0
 11
23.811607
 21
10.97501
 31
0.0
210
0.0
220
0.0
230
1.0
  0
LINE
  5
ED
100
AcDbEntity
  8
0
 62
     7
 48
0.376514
100
AcDbLine
 10
1.689716
 20
10.868891
 30
0.0
 11
16.750263
 21
10.880562
 31
0.0
210
0.0
220
0.0
230
1.0
  0
LINE
  5
EE
100
AcDbEntity
  8
0
 62
     7
 48
0.15275
100
AcDbLine
 10
2.853577
 20
4.87078
 30
0.0
 11
1.689716
 21
10.868891
 31
0.0
210
0.0
220
0.0
230
1.0
  0
LINE
  5
EF
100
AcDbEntity
  8
0
 62
     7
100
AcDbLine
 10
210.234467
 20
4.300552
 30
0.0
 11
171.061783
 21
4.300552
 31
0.0
210
0.0
220
0.0
230
1.0
  0
LINE
  5
F0
100
AcDbEntity
  8
0
 62
     7
 48
0.069731
100
AcDbLine
 10
213.011993
 20
4.555805
 30
0.0
 11
210.234467
 21
4.300552
 31
0.0
210
0.0
220
0.0
230
1.0
  0
LINE
  5
F1
100
AcDbEntity
  8
0
 62
     7
 48
0.065793
100
AcDbLine
 10
215.624619
 20
4.872153
 30
0.0
 11
213.011993
 21
4.555805
 31
0.0
210
0.0
220
0.0
230
1.0
  0
LINE
  5
F2
100
AcDbEntity
  8
0
 62
     7
 48
0.062074
100
AcDbLine
 10
218.079529
 20
5.244353
 30
0.0
 11
215.624619
 21
4.872153
 31
0.0
210
0.0
220
0.0
230
1.0
  0
LINE
  5
F3
100
AcDbEntity
  8
0
 62
     7
 48
0.05857
100
AcDbLine
 10
220.38385
 20
5.667158
 30
0.0
 11
218.079529
 21
5.244353
 31
0.0
210
0.0
220
0.0
230
1.0
  0
LINE
  5
F4
100
AcDbEntity
  8
0
 62
     7
 48
0.055277
100
AcDbLine
 10
222.544785
 20
6.135323
 30
0.0
 11
220.38385
 21
5.667158
 31
0.0
210
0.0
220
0.0
230
1.0
  0
LINE
  5
F5
100
AcDbEntity
  8
0
 62
     7
 48
0.052188
100
AcDbLine
 10
224.569473
 20
6.643604
 30
0.0
 11
222.544785
 21
6.135323
 31
0.0
210
0.0
220
0.0
230
1.0
  0
LINE
  5
F6
100
AcDbEntity
  8
0
 62
     7
 48
0.049297
100
AcDbLine
 10
226.465073
 20
7.186753
 30
0.0
 11
224.569473
 21
6.643604
 31
0.0
210
0.0
220
0.0
230
1.0
  0
LINE
  5
F7
100
AcDbEntity
  8
0
 62
     7
 48
0.046596
100
AcDbLine
 10
228.238739
 20
7.759528
 30
0.0
 11
226.465073
 21
7.186753
 31
0.0
210
0.0
220
0.0
230
1.0
  0
LINE
  5
F8
100
AcDbEntity
  8
0
 62
     7
 48
0.044078
100
AcDbLine
 10
229.897659
 20
8.35668
 30
0.0
 11
228.238739
 21
7.759528
 31
0.0
210
0.0
220
0.0
230
1.0
  0
LINE
  5
F9
100
AcDbEntity
  8
0
 62
     7
 48
0.041731
100
AcDbLine
 10
231.448959
 20
8.972967
 30
0.0
 11
229.897659
 21
8.35668
 31
0.0
210
0.0
220
0.0
230
1.0
  0
LINE
  5
FA
100
AcDbEntity
  8
0
 62
     7
 48
0.039545
100
AcDbLine
 10
232.899811
 20
9.603142
 30
0.0
 11
231.448959
 21
8.972967
 31
0.0
210
0.0
220
0.0
230
1.0
  0
LINE
  5
FB
100
AcDbEntity
  8
0
 62
     7
 48
0.037509
100
AcDbLine
 10
234.257385
 20
10.241961
 30
0.0
 11
232.899811
 21
9.603142
 31
0.0
210
0.0
220
0.0
230
1.0
  0
LINE
  5
FC
100
AcDbEntity
  8
0
 62
     7
 48
0.035611
100
AcDbLine
 10
235.528839
 20
10.884176
 30
0.0
 11
234.257385
 21
10.241961
 31
0.0
210
0.0
220
0.0
230
1.0
  0
LINE
  5
FD
100
AcDbEntity
  8
0
 62
     7
 48
0.033838
100
AcDbLine
 10
236.721313
 20
11.524546
 30
0.0
 11
235.528839
 21
10.884176
 31
0.0
210
0.0
220
0.0
230
1.0
  0
LINE
  5
FE
100
AcDbEntity
  8
0
 62
     7
 48
0.062805
100
AcDbLine
 10
238.898041
 20
12.778759
 30
0.0
 11
236.721313
 21
11.524546
 31
0.0
210
0.0
220
0.0
230
1.0
  0
LINE
  5
FF
100
AcDbEntity
  8
0
 62
     7
 48
0.039818
100
AcDbLine
 10
240.258438
 20
13.607056
 30
0.0
 11
238.898041
 21
12.778759
 31
0.0
210
0.0
220
0.0
230
1.0
  0
LINE
  5
100
100
AcDbEntity
  8
0
 62
     7
 48
0.037245
100
AcDbLine
 10
241.517014
 20
14.404202
 30
0.0
 11
240.258438
 21
13.607056
 31
0.0
210
0.0
220
0.0
230
1.0
  0
LINE
  5
101
100
AcDbEntity
  8
0
 62
     7
 48
0.034867
100
AcDbLine
 10
242.681046
 20
15.172426
 30
0.0
 11
241.517014
 21
14.404202
 31
0.0
210
0.0
220
0.0
230
1.0
  0
LINE
  5
102
100
AcDbEntity
  8
0
 62
     7
 48
0.032685
100
AcDbLine
 10
243.757828
 20
15.913958
 30
0.0
 11
242.681046
 21
15.172426
 31
0.0
210
0.0
220
0.0
230
1.0
  0
LINE
  5
103
100
AcDbEntity
  8
0
 62
     7
 48
0.030699
100
AcDbLine
 10
244.754654
 20
16.631023
 30
0.0
 11
243.757828
 21
15.913958
 31
0.0
210
0.0
220
0.0
230
1.0
  0
LINE
  5
104
100
AcDbEntity
  8
0
 62
     7
 48
0.028905
100
AcDbLine
 10
245.678802
 20
17.325853
 30
0.0
 11
244.754654
 21
16.631023
 31
0.0
210
0.0
220
0.0
230
1.0
  0
LINE
  5
105
100
AcDbEntity
  8
0
 62
     7
 48
0.027305
100
AcDbLine
 10
246.537582
 20
18.000675
 30
0.0
 11
245.678802
 21
17.325853
 31
0.0
210
0.0
220
0.0
230
1.0
  0
LINE
  5
106
100
AcDbEntity
  8
0
 62
     7
 48
0.025894
100
AcDbLine
 10
247.338257
 20
18.657715
 30
0.0
 11
246.537582
 21
18.000675
 31
0.0
210
0.0
220
0.0
230
1.0
  0
LINE
  5
107
100
AcDbEntity
  8
0
 62
     7
 48
0.024671
100
AcDbLine
 10
248.08815
 20
19.299206
 30
0.0
 11
247.338257
 21
18.657715
 31
0.0
210
0.0
220
0.0
230
1.0
  0
LINE
  5
108
100
AcDbEntity
  8
0
 62
     7
 48
0.023632
100
AcDbLine
 10
248.794525
 20
19.927372
 30
0.0
 11
248.08815
 21
19.299206
 31
0.0
210
0.0
220
0.0
230
1.0
  0
LINE
  5
109
100
AcDbEntity
  8
0
 62
     7
 48
0.044869
100
AcDbLine
 10
250.105942
 20
21.152651
 30
0.0
 11
248.794525
 21
19.927372
 31
0.0
210
0.0
220
0.0
230
1.0
  0
LINE
  5
10A
100
AcDbEntity
  8
0
 62
     7
 48
0.123942
100
AcDbLine
 10
253.63916
 20
24.630432
 30
0.0
 11
250.105942
 21
21.152651
 31
0.0
210
0.0
220
0.0
230
1.0
  0
LINE
  5
10B
100
AcDbEntity
  8
0
 62
     7
 48
0.041152
100
AcDbLine
 10
254.836487
 20
25.760054
 30
0.0
 11
253.63916
 21
24.630432
 31
0.0
210
0.0
220
0.0
230
1.0
  0
LINE
  5
10C
100
AcDbEntity
  8
0
 62
     7
 48
0.045095
100
AcDbLine
 10
256.180298
 20
26.963352
 30
0.0
 11
254.836487
 21
25.760054
 31
0.0
210
0.0
220
0.0
230
1.0
  0
LINE
  5
10D
100
AcDbEntity
  8
0
 62
     7
 48
0.05076
100
AcDbLine
 10
257.731476
 20
28.27343
 30
0.0
 11
256.180298
 21
26.963352
 31
0.0
210
0.0
220
0.0
230
1.0
  0
LINE
  5
10E
100
AcDbEntity
  8
0
 62
     7
 48
0.058163
100
AcDbLine
 10
259.550903
 20
29.723381
 30
0.0
 11
257.731476
 21
28.27343
 31
0.0
210
0.0
220
0.0
230
1.0
  0
LINE
  5
10F
100
AcDbEntity
  8
0
 62
     7
 48
0.067316
100
AcDbLine
 10
261.699463
 20
31.346312
 30
0.0
 11
259.550903
 21
29.723381
 31
0.0
210
0.0
220
0.0
230
1.0
  0
LINE
  5
110
100
AcDbEntity
  8
0
 62
     7
 48
0.078221
100
AcDbLine
 10
264.238037
 20
33.175316
 30
0.0
 11
261.699463
 21
31.346312
 31
0.0
210
0.0
220
0.0
230
1.0
  0
LINE
  5
111
100
AcDbEntity
  8
0
 62
     7
 48
0.090879
100
AcDbLine
 10
267.227509
 20
35.243504
 30
0.0
 11
264.238037
 21
33.175316
 31
0.0
210
0.0
220
0.0
230
1.0
  0
LINE
  5
112
100
AcDbEntity
  8
0
 62
     7
 48
0.025
100
AcDbLine
 10
267.227509
 20
36.243504
 30
0.0
 11
267.227509
 21
35.243504
 31
0.0
210
0.0
220
0.0
230
1.0
  0
LINE
  5
113
100
AcDbEntity
  8
0
 62
     7
 48
0.15
100
AcDbLine
 10
261.227509
 20
36.243504
 30
0.0
 11
267.227509
 21
36.243504
 31
0.0
210
0.0
220
0.0
230
1.0
  0
LINE
  5
114
100
AcDbEntity
  8
0
 62
     7
 48
0.15
100
AcDbLine
 10
261.227509
 20
42.243504
 30
0.0
 11
261.227509
 21
36.243504
 31
0.0
210
0.0
220
0.0
230
1.0
  0
LINE
  5
115
100
AcDbEntity
  8
0
 62
     7
 48
0.3
100
AcDbLine
 10
249.227509
 20
42.243504
 30
0.0
 11
261.227509
 21
42.243504
 31
0.0
210
0.0
220
0.0
230
1.0
  0
LINE
  5
116
100
AcDbEntity
  8
0
 62
     7
 48
0.025101
100
AcDbLine
 10
248.723236
 20
41.375286
 30
0.0
 11
249.227509
 21
42.243504
 31
0.0
210
0.0
220
0.0
230
1.0
  0
LINE
  5
117
100
AcDbEntity
  8
0
 62
     7
 48
0.024816
100
AcDbLine
 10
248.209686
 20
40.525803
 30
0.0
 11
248.723236
 21
41.375286
 31
0.0
210
0.0
220
0.0
230
1.0
  0
LINE
  5
118
100
AcDbEntity
  8
0
 62
     7
 48
0.048872
100
AcDbLine
 10
247.155472
 20
38.879559
 30
0.0
 11
248.209686
 21
40.525803
 31
0.0
210
0.0
220
0.0
230
1.0
  0
LINE
  5
119
100
AcDbEntity
  8
0
 62
     7
 48
0.048014
100
AcDbLine
 10
246.066162
 20
37.297787
 30
0.0
 11
247.155472
 21
38.879559
 31
0.0
210
0.0
220
0.0
230
1.0
  0
LINE
  5
11A
100
AcDbEntity
  8
0
 62
     7
 48
0.047335
100
AcDbLine
 10
244.942993
 20
35.773506
 30
0.0
 11
246.066162
 21
37.297787
 31
0.0
210
0.0
220
0.0
230
1.0
  0
LINE
  5
11B
100
AcDbEntity
  8
0
 62
     7
 48
0.046823
100
AcDbLine
 10
243.787231
 20
34.299736
 30
0.0
 11
244.942993
 21
35.773506
 31
0.0
210
0.0
220
0.0
230
1.0
  0
LINE
  5
11C
100
AcDbEntity
  8
0
 62
     7
 48
0.046467
100
AcDbLine
 10
242.600174
 20
32.869492
 30
0.0
 11
243.787231
 21
34.299736
 31
0.0
210
0.0
220
0.0
230
1.0
  0
LINE
  5
11D
100
AcDbEntity
  8
0
 62
     7
 48
0.046259
100
AcDbLine
 10
241.383057
 20
31.475794
 30
0.0
 11
242.600174
 21
32.869492
 31
0.0
210
0.0
220
0.0
230
1.0
  0
LINE
  5
11E
100
AcDbEntity
  8
0
 62
     7
 48
0.046186
100
AcDbLine
 10
240.137177
 20
30.111662
 30
0.0
 11
241.383057
 21
31.475794
 31
0.0
210
0.0
220
0.0
230
1.0
  0
LINE
  5
11F
100
AcDbEntity
  8
0
 62
     7
 48
0.063272
100
AcDbLine
 10
238.386536
 20
28.283945
 30
0.0
 11
240.137177
 21
30.111662
 31
0.0
210
0.0
220
0.0
230
1.0
  0
LINE
  5
120
100
AcDbEntity
  8
0
 62
     7
 48
0.063217
100
AcDbLine
 10
236.585098
 20
26.509403
 30
0.0
 11
238.386536
 21
28.283945
 31
0.0
210
0.0
220
0.0
230
1.0
  0
LINE
  5
121
100
AcDbEntity
  8
0
 62
     7
 48
0.063017
100
AcDbLine
 10
234.733643
 20
24.798874
 30
0.0
 11
236.585098
 21
26.509403
 31
0.0
210
0.0
220
0.0
230
1.0
  0
LINE
  5
122
100
AcDbEntity
  8
0
 62
     7
 48
0.031395
100
AcDbLine
 10
233.789383
 20
23.971001
 30
0.0
 11
234.733643
 21
24.798874
 31
0.0
210
0.0
220
0.0
230
1.0
  0
LINE
  5
123
100
AcDbEntity
  8
0
 62
     7
 48
0.031299
100
AcDbLine
 10
232.832916
 20
23.163197
 30
0.0
 11
233.789383
 21
23.971001
 31
0.0
210
0.0
220
0.0
230
1.0
  0
LINE
  5
124
100
AcDbEntity
  8
0
 62
     7
 48
0.03119
100
AcDbLine
 10
231.864349
 20
22.376816
 30
0.0
 11
232.832916
 21
23.163197
 31
0.0
210
0.0
220
0.0
230
1.0
  0
LINE
  5
125
100
AcDbEntity
  8
0
 62
     7
 48
0.031071
100
AcDbLine
 10
230.883743
 20
21.613211
 30
0.0
 11
231.864349
 21
22.376816
 31
0.0
210
0.0
220
0.0
230
1.0
  0
LINE
  5
126
100
AcDbEntity
  8
0
 62
     7
 48
0.030943
100
AcDbLine
 10
229.89122
 20
20.873741
 30
0.0
 11
230.883743
 21
21.613211
 31
0.0
210
0.0
220
0.0
230
1.0
  0
LINE
  5
127
100
AcDbEntity
  8
0
 62
     7
 48
0.030807
100
AcDbLine
 10
228.886871
 20
20.159758
 30
0.0
 11
229.89122
 21
20.873741
 31
0.0
210
0.0
220
0.0
230
1.0
  0
LINE
  5
128
100
AcDbEntity
  8
0
 62
     7
 48
0.030665
100
AcDbLine
 10
227.870789
 20
19.472616
 30
0.0
 11
228.886871
 21
20.159758
 31
0.0
210
0.0
220
0.0
230
1.0
  0
LINE
  5
129
100
AcDbEntity
  8
0
 62
     7
 48
0.03052
100
AcDbLine
 10
226.843079
 20
18.813675
 30
0.0
 11
227.870789
 21
19.472616
 31
0.0
210
0.0
220
0.0
230
1.0
  0
LINE
  5
12A
100
AcDbEntity
  8
0
 62
     7
 48
0.030374
100
AcDbLine
 10
225.803848
 20
18.184284
 30
0.0
 11
226.843079
 21
18.813675
 31
0.0
210
0.0
220
0.0
230
1.0
  0
LINE
  5
12B
100
AcDbEntity
  8
0
 62
     7
 48
0.030229
100
AcDbLine
 10
224.753174
 20
17.5858
 30
0.0
 11
225.803848
 21
18.184284
 31
0.0
210
0.0
220
0.0
230
1.0
  0
LINE
  5
12C
100
AcDbEntity
  8
0
 62
     7
 48
0.021706
100
AcDbLine
 10
223.988739
 20
17.174141
 30
0.0
 11
224.753174
 21
17.5858
 31
0.0
210
0.0
220
0.0
230
1.0
  0
LINE
  5
12D
100
AcDbEntity
  8
0
 62
     7
 48
0.021638
100
AcDbLine
 10
223.21875
 20
16.778894
 30
0.0
 11
223.988739
 21
17.174141
 31
0.0
210
0.0
220
0.0
230
1.0
  0
LINE
  5
12E
100
AcDbEntity
  8
0
 62
     7
 48
0.021575
100
AcDbLine
 10
222.443527
 20
16.399708
 30
0.0
 11
223.21875
 21
16.778894
 31
0.0
210
0.0
220
0.0
230
1.0
  0
LINE
  5
12F
100
AcDbEntity
  8
0
 62
     7
 48
0.021516
100
AcDbLine
 10
221.663422
 20
16.036226
 30
0.0
 11
222.443527
 21
16.399708
 31
0.0
210
0.0
220
0.0
230
1.0
  0
LINE
  5
130
100
AcDbEntity
  8
0
 62
     7
 48
0.021461
100
AcDbLine
 10
220.878754
 20
15.688099
 30
0.0
 11
221.663422
 21
16.036226
 31
0.0
210
0.0
220
0.0
230
1.0
  0
LINE
  5
131
100
AcDbEntity
  8
0
 62
     7
 48
0.021408
100
AcDbLine
 10
220.089874
 20
15.354971
 30
0.0
 11
220.878754
 21
15.688099
 31
0.0
210
0.0
220
0.0
230
1.0
  0
LINE
  5
132
100
AcDbEntity
  8
0
 62
     7
 48
0.042669
100
AcDbLine
 10
218.500748
 20
14.732298
 30
0.0
 11
220.089874
 21
15.354971
 31
0.0
210
0.0
220
0.0
230
1.0
  0
LINE
  5
133
100
AcDbEntity
  8
0
 62
     7
 48
0.042484
100
AcDbLine
 10
216.898727
 20
14.165379
 30
0.0
 11
218.500748
 21
14.732298
 31
0.0
210
0.0
220
0.0
230
1.0
  0
LINE
  5
134
100
AcDbEntity
  8
0
 62
     7
 48
0.042304
100
AcDbLine
 10
215.286499
 20
13.651384
 30
0.0
 11
216.898727
 21
14.165379
 31
0.0
210
0.0
220
0.0
230
1.0
  0
LINE
  5
135
100
AcDbEntity
  8
0
 62
     7
 48
0.042123
100
AcDbLine
 10
213.666687
 20
13.187489
 30
0.0
 11
215.286499
 21
13.651384
 31
0.0
210
0.0
220
0.0
230
1.0
  0
LINE
  5
136
100
AcDbEntity
  8
0
 62
     7
 48
0.041931
100
AcDbLine
 10
212.042007
 20
12.770861
 30
0.0
 11
213.666687
 21
13.187489
 31
0.0
210
0.0
220
0.0
230
1.0
  0
LINE
  5
137
100
AcDbEntity
  8
0
 62
     7
 48
0.041723
100
AcDbLine
 10
210.415115
 20
12.398672
 30
0.0
 11
212.042007
 21
12.770861
 31
0.0
210
0.0
220
0.0
230
1.0
  0
LINE
  5
138
100
AcDbEntity
  8
0
 62
     7
 48
0.041493
100
AcDbLine
 10
208.788666
 20
12.068098
 30
0.0
 11
210.415115
 21
12.398672
 31
0.0
210
0.0
220
0.0
230
1.0
  0
LINE
  5
139
100
AcDbEntity
  8
0
 62
     7
 48
0.041234
100
AcDbLine
 10
207.165329
 20
11.776304
 30
0.0
 11
208.788666
 21
12.068098
 31
0.0
210
0.0
220
0.0
230
1.0
  0
LINE
  5
13A
100
AcDbEntity
  8
0
 62
     7
 48
0.040941
100
AcDbLine
 10
205.547791
 20
11.520468
 30
0.0
 11
207.165329
 21
11.776304
 31
0.0
210
0.0
220
0.0
230
1.0
  0
LINE
  5
13B
100
AcDbEntity
  8
0
 62
     7
 48
0.04061
100
AcDbLine
 10
203.938721
 20
11.297756
 30
0.0
 11
205.547791
 21
11.520468
 31
0.0
210
0.0
220
0.0
230
1.0
  0
LINE
  5
13C
100
AcDbEntity
  8
0
 62
     7
 48
0.040238
100
AcDbLine
 10
202.340759
 20
11.105341
 30
0.0
 11
203.938721
 21
11.297756
 31
0.0
210
0.0
220
0.0
230
1.0
  0
LINE
  5
13D
100
AcDbEntity
  8
0
 62
     7
 48
0.079165
100
AcDbLine
 10
199.188919
 20
10.800093
 30
0.0
 11
202.340759
 21
11.105341
 31
0.0
210
0.0
220
0.0
230
1.0
  0
LINE
  5
13E
100
AcDbEntity
  8
0
 62
     7
 48
0.090653
100
AcDbLine
 10
195.571198
 20
10.553495
 30
0.0
 11
199.188919
 21
10.800093
 31
0.0
210
0.0
220
0.0
230
1.0
  0
LINE
  5
13F
100
AcDbEntity
  8
0
 62
     7
 48
0.088862
100
AcDbLine
 10
192.019821
 20
10.404783
 30
0.0
 11
195.571198
 21
10.553495
 31
0.0
210
0.0
220
0.0
230
1.0
  0
LINE
  5
140
100
AcDbEntity
  8
0
 62
     7
 48
0.17655
100
AcDbLine
 10
184.958466
 20
10.310335
 30
0.0
 11
192.019821
 21
10.404783
 31
0.0
210
0.0
220
0.0
230
1.0
  0
LINE
  5
141
100
AcDbEntity
  8
0
 62
     7
 48
0.376514
100
AcDbLine
 10
169.897919
 20
10.298664
 30
0.0
 11
184.958466
 21
10.310335
 31
0.0
210
0.0
220
0.0
230
1.0
  0
LINE
  5
142
100
AcDbEntity
  8
0
 62
     7
 48
0.15275
100
AcDbLine
 10
171.061783
 20
4.300552
 30
0.0
 11
169.897919
 21
10.298664
 31
0.0
210
0.0
220
0.0
230
1.0
  0
LINE
  5
143
100
AcDbEntity
  8
0
 62
     7
100
AcDbLine
 10
65.636505
 20
103.755219
 30
0.0
 11
65.636497
 21
64.582535
 31
0.0
210
0.0
220
0.0
230
1.0
  0
LINE
  5
144
100
AcDbEntity
  8
0
 62
     7
 48
0.069731
100
AcDbLine
 10
65.891762
 20
106.532738
 30
0.0
 11
65.636505
 21
103.755219
 31
0.0
210
0.0
220
0.0
230
1.0
  0
LINE
  5
145
100
AcDbEntity
  8
0
 62
     7
 48
0.065793
100
AcDbLine
 10
66.208107
 20
109.14537
 30
0.0
 11
65.891762
 21
106.532738
 31
0.0
210
0.0
220
0.0
230
1.0
  0
LINE
  5
146
100
AcDbEntity
  8
0
 62
     7
 48
0.062074
100
AcDbLine
 10
66.580307
 20
111.600273
 30
0.0
 11
66.208107
 21
109.14537
 31
0.0
210
0.0
220
0.0
230
1.0
  0
LINE
  5
147
100
AcDbEntity
  8
0
 62
     7
 48
0.05857
100
AcDbLine
 10
67.003113
 20
113.90461
 30
0.0
 11
66.580307
 21
111.600273
 31
0.0
210
0.0
220
0.0
230
1.0
  0
LINE
  5
148
100
AcDbEntity
  8
0
 62
     7
 48
0.055277
100
AcDbLine
 10
67.471283
 20
116.065536
 30
0.0
 11
67.003113
 21
113.90461
 31
0.0
210
0.0
220
0.0
230
1.0
  0
LINE
  5
149
100
AcDbEntity
  8
0
 62
     7
 48
0.052188
100
AcDbLine
 10
67.979561
 20
118.090225
 30
0.0
 11
67.471283
 21
116.065536
 31
0.0
210
0.0
220
0.0
230
1.0
  0
LINE
  5
14A
100
AcDbEntity
  8
0
 62
     7
 48
0.049297
100
AcDbLine
 10
68.522713
 20
119.985825
 30
0.0
 11
67.979561
 21
118.090225
 31
0.0
210
0.0
220
0.0
230
1.0
  0
LINE
  5
14B
100
AcDbEntity
  8
0
 62
     7
 48
0.046596
100
AcDbLine
 10
69.09549
 20
121.759491
 30
0.0
 11
68.522713
 21
119.985825
 31
0.0
210
0.0
220
0.0
230
1.0
  0
LINE
  5
14C
100
AcDbEntity
  8
0
 62
     7
 48
0.044078
100
AcDbLine
 10
69.692642
 20
123.418404
 30
0.0
 11
69.09549
 21
121.759491
 31
0.0
210
0.0
220
0.0
230
1.0
  0
LINE
  5
14D
100
AcDbEntity
  8
0
 62
     7
 48
0.041731
100
AcDbLine
 10
70.308929
 20
124.969704
 30
0.0
 11
69.692642
 21
123.418404
 31
0.0
210
0.0
220
0.0
230
1.0
  0
LINE
  5
14E
100
AcDbEntity
  8
0
 62
     7
 48
0.039545
100
AcDbLine
 10
70.939102
 20
126.420563
 30
0.0
 11
70.308929
 21
124.969704
 31
0.0
210
0.0
220
0.0
230
1.0
  0
LINE
  5
14F
100
AcDbEntity
  8
0
 62
     7
 48
0.037509
100
AcDbLine
 10
71.577919
 20
127.778137
 30
0.0
 11
70.939102
 21
126.420563
 31
0.0
210
0.0
220
0.0
230
1.0
  0
LINE
  5
150
100
AcDbEntity
  8
0
 62
     7
 48
0.035611
100
AcDbLine
 10
72.220139
 20
129.049591
 30
0.0
 11
71.577919
 21
127.778137
 31
0.0
210
0.0
220
0.0
230
1.0
  0
LINE
  5
151
100
AcDbEntity
  8
0
 62
     7
 48
0.033838
100
AcDbLine
 10
72.860504
 20
130.242065
 30
0.0
 11
72.220139
 21
129.049591
 31
0.0
210
0.0
220
0.0
230
1.0
  0
LINE
  5
152
100
AcDbEntity
  8
0
 62
     7
 48
0.062805
100
AcDbLine
 10
74.114716
 20
132.418777
 30
0.0
 11
72.860504
 21
130.242065
 31
0.0
210
0.0
220
0.0
230
1.0
  0
LINE
  5
153
100
AcDbEntity
  8
0
 62
     7
 48
0.039818
100
AcDbLine
 10
74.943016
 20
133.779175
 30
0.0
 11
74.114716
 21
132.418777
 31
0.0
210
0.0
220
0.0
230
1.0
  0
LINE
  5
154
100
AcDbEntity
  8
0
 62
     7
 48
0.037245
100
AcDbLine
 10
75.740166
 20
135.03775
 30
0.0
 11
74.943016
 21
133.779175
 31
0.0
210
0.0
220
0.0
230
1.0
  0
LINE
  5
155
100
AcDbEntity
  8
0
 62
     7
 48
0.034867
100
AcDbLine
 10
76.508392
 20
136.201782
 30
0.0
 11
75.740166
 21
135.03775
 31
0.0
210
0.0
220
0.0
230
1.0
  0
LINE
  5
156
100
AcDbEntity
  8
0
 62
     7
 48
0.032686
100
AcDbLine
 10
77.249924
 20
137.27858
 30
0.0
 11
76.508392
 21
136.201782
 31
0.0
210
0.0
220
0.0
230
1.0
  0
LINE
  5
157
100
AcDbEntity
  8
0
 62
     7
 48
0.030698
100
AcDbLine
 10
77.966988
 20
138.275391
 30
0.0
 11
77.249924
 21
137.27858
 31
0.0
210
0.0
220
0.0
230
1.0
  0
LINE
  5
158
100
AcDbEntity
  8
0
 62
     7
 48
0.028906
100
AcDbLine
 10
78.661819
 20
139.199554
 30
0.0
 11
77.966988
 21
138.275391
 31
0.0
210
0.0
220
0.0
230
1.0
  0
LINE
  5
159
100
AcDbEntity
  8
0
 62
     7
 48
0.027305
100
AcDbLine
 10
79.336639
 20
140.058319
 30
0.0
 11
78.661819
 21
139.199554
 31
0.0
210
0.0
220
0.0
230
1.0
  0
LINE
  5
15A
100
AcDbEntity
  8
0
 62
     7
 48
0.025894
100
AcDbLine
 10
79.993683
 20
140.859009
 30
0.0
 11
79.336639
 21
140.058319
 31
0.0
210
0.0
220
0.0
230
1.0
  0
LINE
  5
15B
100
AcDbEntity
  8
0
 62
     7
 48
0.024671
100
AcDbLine
 10
80.63517
 20
141.608902
 30
0.0
 11
79.993683
 21
140.859009
 31
0.0
210
0.0
220
0.0
230
1.0
  0
LINE
  5
15C
100
AcDbEntity
  8
0
 62
     7
 48
0.023632
100
AcDbLine
 10
81.263336
 20
142.315277
 30
0.0
 11
80.63517
 21
141.608902
 31
0.0
210
0.0
220
0.0
230
1.0
  0
LINE
  5
15D
100
AcDbEntity
  8
0
 62
     7
 48
0.044868
100
AcDbLine
 10
82.488617
 20
143.626678
 30
0.0
 11
81.263336
 21
142.315277
 31
0.0
210
0.0
220
0.0
230
1.0
  0
LINE
  5
15E
100
AcDbEntity
  8
0
 62
     7
 48
0.123942
100
AcDbLine
 10
85.9664
 20
147.159912
 30
0.0
 11
82.488617
 21
143.626678
 31
0.0
210
0.0
220
0.0
230
1.0
  0
LINE
  5
15F
100
AcDbEntity
  8
0
 62
     7
 48
0.041152
100
AcDbLine
 10
87.096024
 20
148.357239
 30
0.0
 11
85.9664
 21
147.159912
 31
0.0
210
0.0
220
0.0
230
1.0
  0
LINE
  5
160
100
AcDbEntity
  8
0
 62
     7
 48
0.045095
100
AcDbLine
 10
88.299316
 20
149.70105
 30
0.0
 11
87.096024
 21
148.357239
 31
0.0
210
0.0
220
0.0
230
1.0
  0
LINE
  5
161
100
AcDbEntity
  8
0
 62
     7
 48
0.05076
100
AcDbLine
 10
89.60939
 20
151.252228
 30
0.0
 11
88.299316
 21
149.70105
 31
0.0
210
0.0
220
0.0
230
1.0
  0
LINE
  5
162
100
AcDbEntity
  8
0
 62
     7
 48
0.058163
100
AcDbLine
 10
91.059349
 20
153.071655
 30
0.0
 11
89.60939
 21
151.252228
 31
0.0
210
0.0
220
0.0
230
1.0
  0
LINE
  5
163
100
AcDbEntity
  8
0
 62
     7
 48
0.067316
100
AcDbLine
 10
92.682281
 20
155.220215
 30
0.0
 11
91.059349
 21
153.071655
 31
0.0
210
0.0
220
0.0
230
1.0
  0
LINE
  5
164
100
AcDbEntity
  8
0
 62
     7
 48
0.078221
100
AcDbLine
 10
94.511292
 20
157.758789
 30
0.0
 11
92.682281
 21
155.220215
 31
0.0
210
0.0
220
0.0
230
1.0
  0
LINE
  5
165
100
AcDbEntity
  8
0
 62
     7
 48
0.090879
100
AcDbLine
 10
96.579468
 20
160.74826
 30
0.0
 11
94.511292
 21
157.758789
 31
0.0
210
0.0
220
0.0
230
1.0
  0
LINE
  5
166
100
AcDbEntity
  8
0
 62
     7
 48
0.025
100
AcDbLine
 10
97.579468
 20
160.74826
 30
0.0
 11
96.579468
 21
160.74826
 31
0.0
210
0.0
220
0.0
230
1.0
  0
LINE
  5
167
100
AcDbEntity
  8
0
 62
     7
 48
0.15
100
AcDbLine
 10
97.579468
 20
154.74826
 30
0.0
 11
97.579468
 21
160.74826
 31
0.0
210
0.0
220
0.0
230
1.0
  0
LINE
  5
168
100
AcDbEntity
  8
0
 62
     7
 48
0.15
100
AcDbLine
 10
103.579468
 20
154.74826
 30
0.0
 11
97.579468
 21
154.74826
 31
0.0
210
0.0
220
0.0
230
1.0
  0
LINE
  5
169
100
AcDbEntity
  8
0
 62
     7
 48
0.3
100
AcDbLine
 10
103.579468
 20
142.74826
 30
0.0
 11
103.579468
 21
154.74826
 31
0.0
210
0.0
220
0.0
230
1.0
  0
LINE
  5
16A
100
AcDbEntity
  8
0
 62
     7
 48
0.025101
100
AcDbLine
 10
102.71125
 20
142.243958
 30
0.0
 11
103.579468
 21
142.74826
 31
0.0
210
0.0
220
0.0
230
1.0
  0
LINE
  5
16B
100
AcDbEntity
  8
0
 62
     7
 48
0.024816
100
AcDbLine
 10
101.861771
 20
141.730423
 30
0.0
 11
102.71125
 21
142.243958
 31
0.0
210
0.0
220
0.0
230
1.0
  0
LINE
  5
16C
100
AcDbEntity
  8
0
 62
     7
 48
0.048872
100
AcDbLine
 10
100.215523
 20
140.676208
 30
0.0
 11
101.861771
 21
141.730423
 31
0.0
210
0.0
220
0.0
230
1.0
  0
LINE
  5
16D
100
AcDbEntity
  8
0
 62
     7
 48
0.048015
100
AcDbLine
 10
98.633751
 20
139.586884
 30
0.0
 11
100.215523
 21
140.676208
 31
0.0
210
0.0
220
0.0
230
1.0
  0
LINE
  5
16E
100
AcDbEntity
  8
0
 62
     7
 48
0.047335
100
AcDbLine
 10
97.109467
 20
138.463715
 30
0.0
 11
98.633751
 21
139.586884
 31
0.0
210
0.0
220
0.0
230
1.0
  0
LINE
  5
16F
100
AcDbEntity
  8
0
 62
     7
 48
0.046822
100
AcDbLine
 10
95.635696
 20
137.307983
 30
0.0
 11
97.109467
 21
138.463715
 31
0.0
210
0.0
220
0.0
230
1.0
  0
LINE
  5
170
100
AcDbEntity
  8
0
 62
     7
 48
0.046467
100
AcDbLine
 10
94.20546
 20
136.120911
 30
0.0
 11
95.635696
 21
137.307983
 31
0.0
210
0.0
220
0.0
230
1.0
  0
LINE
  5
171
100
AcDbEntity
  8
0
 62
     7
 48
0.046258
100
AcDbLine
 10
92.811752
 20
134.903809
 30
0.0
 11
94.20546
 21
136.120911
 31
0.0
210
0.0
220
0.0
230
1.0
  0
LINE
  5
172
100
AcDbEntity
  8
0
 62
     7
 48
0.046187
100
AcDbLine
 10
91.447617
 20
133.657913
 30
0.0
 11
92.811752
 21
134.903809
 31
0.0
210
0.0
220
0.0
230
1.0
  0
LINE
  5
173
100
AcDbEntity
  8
0
 62
     7
 48
0.063271
100
AcDbLine
 10
89.619904
 20
131.907288
 30
0.0
 11
91.447617
 21
133.657913
 31
0.0
210
0.0
220
0.0
230
1.0
  0
LINE
  5
174
100
AcDbEntity
  8
0
 62
     7
 48
0.063217
100
AcDbLine
 10
87.845367
 20
130.105835
 30
0.0
 11
89.619904
 21
131.907288
 31
0.0
210
0.0
220
0.0
230
1.0
  0
LINE
  5
175
100
AcDbEntity
  8
0
 62
     7
 48
0.063017
100
AcDbLine
 10
86.134834
 20
128.254379
 30
0.0
 11
87.845367
 21
130.105835
 31
0.0
210
0.0
220
0.0
230
1.0
  0
LINE
  5
176
100
AcDbEntity
  8
0
 62
     7
 48
0.031395
100
AcDbLine
 10
85.306961
 20
127.310127
 30
0.0
 11
86.134834
 21
128.254379
 31
0.0
210
0.0
220
0.0
230
1.0
  0
LINE
  5
177
100
AcDbEntity
  8
0
 62
     7
 48
0.031299
100
AcDbLine
 10
84.499161
 20
126.353668
 30
0.0
 11
85.306961
 21
127.310127
 31
0.0
210
0.0
220
0.0
230
1.0
  0
LINE
  5
178
100
AcDbEntity
  8
0
 62
     7
 48
0.03119
100
AcDbLine
 10
83.712776
 20
125.385086
 30
0.0
 11
84.499161
 21
126.353668
 31
0.0
210
0.0
220
0.0
230
1.0
  0
LINE
  5
179
100
AcDbEntity
  8
0
 62
     7
 48
0.031071
100
AcDbLine
 10
82.949173
 20
124.404488
 30
0.0
 11
83.712776
 21
125.385086
 31
0.0
210
0.0
220
0.0
230
1.0
  0
LINE
  5
17A
100
AcDbEntity
  8
0
 62
     7
 48
0.030943
100
AcDbLine
 10
82.209702
 20
123.411964
 30
0.0
 11
82.949173
 21
124.404488
 31
0.0
210
0.0
220
0.0
230
1.0
  0
LINE
  5
17B
100
AcDbEntity
  8
0
 62
     7
 48
0.030807
100
AcDbLine
 10
81.495712
 20
122.407616
 30
0.0
 11
82.209702
 21
123.411964
 31
0.0
210
0.0
220
0.0
230
1.0
  0
LINE
  5
17C
100
AcDbEntity
  8
0
 62
     7
 48
0.030665
100
AcDbLine
 10
80.808578
 20
121.391541
 30
0.0
 11
81.495712
 21
122.407616
 31
0.0
210
0.0
220
0.0
230
1.0
  0
LINE
  5
17D
100
AcDbEntity
  8
0
 62
     7
 48
0.030521
100
AcDbLine
 10
80.149628
 20
120.363831
 30
0.0
 11
80.808578
 21
121.391541
 31
0.0
210
0.0
220
0.0
230
1.0
  0
LINE
  5
17E
100
AcDbEntity
  8
0
 62
     7
 48
0.030374
100
AcDbLine
 10
79.520241
 20
119.324593
 30
0.0
 11
80.149628
 21
120.363831
 31
0.0
210
0.0
220
0.0
230
1.0
  0
LINE
  5
17F
100
AcDbEntity
  8
0
 62
     7
 48
0.030229
100
AcDbLine
 10
78.921761
 20
118.273911
 30
0.0
 11
79.520241
 21
119.324593
 31
0.0
210
0.0
220
0.0
230
1.0
  0
LINE
  5
180
100
AcDbEntity
  8
0
 62
     7
 48
0.021706
100
AcDbLine
 10
78.510101
 20
117.509483
 30
0.0
 11
78.921761
 21
118.273911
 31
0.0
210
0.0
220
0.0
230
1.0
  0
LINE
  5
181
100
AcDbEntity
  8
0
 62
     7
 48
0.021638
100
AcDbLine
 10
78.114853
 20
116.739494
 30
0.0
 11
78.510101
 21
117.509483
 31
0.0
210
0.0
220
0.0
230
1.0
  0
LINE
  5
182
100
AcDbEntity
  8
0
 62
     7
 48
0.021575
100
AcDbLine
 10
77.735664
 20
115.964279
 30
0.0
 11
78.114853
 21
116.739494
 31
0.0
210
0.0
220
0.0
230
1.0
  0
LINE
  5
183
100
AcDbEntity
  8
0
 62
     7
 48
0.021516
100
AcDbLine
 10
77.372185
 20
115.184174
 30
0.0
 11
77.735664
 21
115.964279
 31
0.0
210
0.0
220
0.0
230
1.0
  0
LINE
  5
184
100
AcDbEntity
  8
0
 62
     7
 48
0.021461
100
AcDbLine
 10
77.024055
 20
114.399506
 30
0.0
 11
77.372185
 21
115.184174
 31
0.0
210
0.0
220
0.0
230
1.0
  0
LINE
  5
185
100
AcDbEntity
  8
0
 62
     7
 48
0.021409
100
AcDbLine
 10
76.690926
 20
113.610611
 30
0.0
 11
77.024055
 21
114.399506
 31
0.0
210
0.0
220
0.0
230
1.0
  0
LINE
  5
186
100
AcDbEntity
  8
0
 62
     7
 48
0.042669
100
AcDbLine
 10
76.068253
 20
112.0215
 30
0.0
 11
76.690926
 21
113.610611
 31
0.0
210
0.0
220
0.0
230
1.0
  0
LINE
  5
187
100
AcDbEntity
  8
0
 62
     7
 48
0.042484
100
AcDbLine
 10
75.501335
 20
110.419479
 30
0.0
 11
76.068253
 21
112.0215
 31
0.0
210
0.0
220
0.0
230
1.0
  0
LINE
  5
188
100
AcDbEntity
  8
0
 62
     7
 48
0.042305
100
AcDbLine
 10
74.987343
 20
108.807236
 30
0.0
 11
75.501335
 21
110.419479
 31
0.0
210
0.0
220
0.0
230
1.0
  0
LINE
  5
189
100
AcDbEntity
  8
0
 62
     7
 48
0.042123
100
AcDbLine
 10
74.523445
 20
107.187439
 30
0.0
 11
74.987343
 21
108.807236
 31
0.0
210
0.0
220
0.0
230
1.0
  0
LINE
  5
18A
100
AcDbEntity
  8
0
 62
     7
 48
0.041931
100
AcDbLine
 10
74.106812
 20
105.562759
 30
0.0
 11
74.523445
 21
107.187439
 31
0.0
210
0.0
220
0.0
230
1.0
  0
LINE
  5
18B
100
AcDbEntity
  8
0
 62
     7
 48
0.041723
100
AcDbLine
 10
73.734627
 20
103.93586
 30
0.0
 11
74.106812
 21
105.562759
 31
0.0
210
0.0
220
0.0
230
1.0
  0
LINE
  5
18C
100
AcDbEntity
  8
0
 62
     7
 48
0.041493
100
AcDbLine
 10
73.404053
 20
102.30941
 30
0.0
 11
73.734627
 21
103.93586
 31
0.0
210
0.0
220
0.0
230
1.0
  0
LINE
  5
18D
100
AcDbEntity
  8
0
 62
     7
 48
0.041234
100
AcDbLine
 10
73.112259
 20
100.686081
 30
0.0
 11
73.404053
 21
102.30941
 31
0.0
210
0.0
220
0.0
230
1.0
  0
LINE
  5
18E
100
AcDbEntity
  8
0
 62
     7
 48
0.040941
100
AcDbLine
 10
72.856422
 20
99.068542
 30
0.0
 11
73.112259
 21
100.686081
 31
0.0
210
0.0
220
0.0
230
1.0
  0
LINE
  5
18F
100
AcDbEntity
  8
0
 62
     7
 48
0.040611
100
AcDbLine
 10
72.633705
 20
97.459457
 30
0.0
 11
72.856422
 21
99.068542
 31
0.0
210
0.0
220
0.0
230
1.0
  0
LINE
  5
190
100
AcDbEntity
  8
0
 62
     7
 48
0.040237
100
AcDbLine
 10
72.441292
 20
95.861511
 30
0.0
 11
72.633705
 21
97.459457
 31
0.0
210
0.0
220
0.0
230
1.0
  0
LINE
  5
191
100
AcDbEntity
  8
0
 62
     7
 48
0.079165
100
AcDbLine
 10
72.136047
 20
92.709671
 30
0.0
 11
72.441292
 21
95.861511
 31
0.0
210
0.0
220
0.0
230
1.0
  0
LINE
  5
192
100
AcDbEntity
  8
0
 62
     7
 48
0.090653
100
AcDbLine
 10
71.88945
 20
89.091942
 30
0.0
 11
72.136047
 21
92.709671
 31
0.0
210
0.0
220
0.0
230
1.0
  0
LINE
  5
193
100
AcDbEntity
  8
0
 62
     7
 48
0.088862
100
AcDbLine
 10
71.74073
 20
85.540565
 30
0.0
 11
71.88945
 21
89.091942
 31
0.0
210
0.0
220
0.0
230
1.0
  0
LINE
  5
194
100
AcDbEntity
  8
0
 62
     7
 48
0.176549
100
AcDbLine
 10
71.646286
 20
78.479218
 30
0.0
 11
71.74073
 21
85.540565
 31
0.0
210
0.0
220
0.0
230
1.0
  0
LINE
  5
195
100
AcDbEntity
  8
0
 62
     7
 48
0.376514
100
AcDbLine
 10
71.634605
 20
63.418674
 30
0.0
 11
71.646286
 21
78.479218
 31
0.0
210
0.0
220
0.0
230
1.0
  0
LINE
  5
196
100
AcDbEntity
  8
0
 62
     7
 48
0.15275
100
AcDbLine
 10
65.636497
 20
64.582535
 30
0.0
 11
71.634605
 21
63.418674
 31
0.0
210
0.0
220
0.0
230
1.0
  0
LINE
  5
197
100
AcDbEntity
  8
0
 62
     7
100
AcDbLine
 10
237.677185
 20
231.860413
 30
0.0
 11
237.677185
 21
271.033081
 31
0.0
210
0.0
220
0.0
230
1.0
  0
LINE
  5
198
100
AcDbEntity
  8
0
 62
     7
 48
0.069731
100
AcDbLine
 10
237.421936
 20
229.082886
 30
0.0
 11
237.677185
 21
231.860413
 31
0.0
210
0.0
220
0.0
230
1.0
  0
LINE
  5
199
100
AcDbEntity
  8
0
 62
     7
 48
0.065793
100
AcDbLine
 10
237.105591
 20
226.470261
 30
0.0
 11
237.421936
 21
229.082886
 31
0.0
210
0.0
220
0.0
230
1.0
  0
LINE
  5
19A
100
AcDbEntity
  8
0
 62
     7
 48
0.062074
100
AcDbLine
 10
236.733398
 20
224.01535
 30
0.0
 11
237.105591
 21
226.470261
 31
0.0
210
0.0
220
0.0
230
1.0
  0
LINE
  5
19B
100
AcDbEntity
  8
0
 62
     7
 48
0.05857
100
AcDbLine
 10
236.310593
 20
221.711014
 30
0.0
 11
236.733398
 21
224.01535
 31
0.0
210
0.0
220
0.0
230
1.0
  0
LINE
  5
19C
100
AcDbEntity
  8
0
 62
     7
 48
0.055277
100
AcDbLine
 10
235.842422
 20
219.550079
 30
0.0
 11
236.310593
 21
221.711014
 31
0.0
210
0.0
220
0.0
230
1.0
  0
LINE
  5
19D
100
AcDbEntity
  8
0
 62
     7
 48
0.052188
100
AcDbLine
 10
235.334137
 20
217.525406
 30
0.0
 11
235.842422
 21
219.550079
 31
0.0
210
0.0
220
0.0
230
1.0
  0
LINE
  5
19E
100
AcDbEntity
  8
0
 62
     7
 48
0.049297
100
AcDbLine
 10
234.790985
 20
215.629807
 30
0.0
 11
235.334137
 21
217.525406
 31
0.0
210
0.0
220
0.0
230
1.0
  0
LINE
  5
19F
100
AcDbEntity
  8
0
 62
     7
 48
0.046597
100
AcDbLine
 10
234.218216
 20
213.856125
 30
0.0
 11
234.790985
 21
215.629807
 31
0.0
210
0.0
220
0.0
230
1.0
  0
LINE
  5
1A0
100
AcDbEntity
  8
0
 62
     7
 48
0.044078
100
AcDbLine
 10
233.621063
 20
212.19722
 30
0.0
 11
234.218216
 21
213.856125
 31
0.0
210
0.0
220
0.0
230
1.0
  0
LINE
  5
1A1
100
AcDbEntity
  8
0
 62
     7
 48
0.041731
100
AcDbLine
 10
233.004776
 20
210.64592
 30
0.0
 11
233.621063
 21
212.19722
 31
0.0
210
0.0
220
0.0
230
1.0
  0
LINE
  5
1A2
100
AcDbEntity
  8
0
 62
     7
 48
0.039545
100
AcDbLine
 10
232.374603
 20
209.195068
 30
0.0
 11
233.004776
 21
210.64592
 31
0.0
210
0.0
220
0.0
230
1.0
  0
LINE
  5
1A3
100
AcDbEntity
  8
0
 62
     7
 48
0.037509
100
AcDbLine
 10
231.735794
 20
207.837494
 30
0.0
 11
232.374603
 21
209.195068
 31
0.0
210
0.0
220
0.0
230
1.0
  0
LINE
  5
1A4
100
AcDbEntity
  8
0
 62
     7
 48
0.035611
100
AcDbLine
 10
231.093567
 20
206.56604
 30
0.0
 11
231.735794
 21
207.837494
 31
0.0
210
0.0
220
0.0
230
1.0
  0
LINE
  5
1A5
100
AcDbEntity
  8
0
 62
     7
 48
0.033838
100
AcDbLine
 10
230.453201
 20
205.373566
 30
0.0
 11
231.093567
 21
206.56604
 31
0.0
210
0.0
220
0.0
230
1.0
  0
LINE
  5
1A6
100
AcDbEntity
  8
0
 62
     7
 48
0.062805
100
AcDbLine
 10
229.19899
 20
203.196838
 30
0.0
 11
230.453201
 21
205.373566
 31
0.0
210
0.0
220
0.0
230
1.0
  0
LINE
  5
1A7
100
AcDbEntity
  8
0
 62
     7
 48
0.039818
100
AcDbLine
 10
228.370697
 20
201.836441
 30
0.0
 11
229.19899
 21
203.196838
 31
0.0
210
0.0
220
0.0
230
1.0
  0
LINE
  5
1A8
100
AcDbEntity
  8
0
 62
     7
 48
0.037245
100
AcDbLine
 10
227.573547
 20
200.577866
 30
0.0
 11
228.370697
 21
201.836441
 31
0.0
210
0.0
220
0.0
230
1.0
  0
LINE
  5
1A9
100
AcDbEntity
  8
0
 62
     7
 48
0.034867
100
AcDbLine
 10
226.805328
 20
199.413818
 30
0.0
 11
227.573547
 21
200.577866
 31
0.0
210
0.0
220
0.0
230
1.0
  0
LINE
  5
1AA
100
AcDbEntity
  8
0
 62
     7
 48
0.032685
100
AcDbLine
 10
226.063797
 20
198.337036
 30
0.0
 11
226.805328
 21
199.413818
 31
0.0
210
0.0
220
0.0
230
1.0
  0
LINE
  5
1AB
100
AcDbEntity
  8
0
 62
     7
 48
0.030698
100
AcDbLine
 10
225.346725
 20
197.340225
 30
0.0
 11
226.063797
 21
198.337036
 31
0.0
210
0.0
220
0.0
230
1.0
  0
LINE
  5
1AC
100
AcDbEntity
  8
0
 62
     7
 48
0.028905
100
AcDbLine
 10
224.651901
 20
196.416077
 30
0.0
 11
225.346725
 21
197.340225
 31
0.0
210
0.0
220
0.0
230
1.0
  0
LINE
  5
1AD
100
AcDbEntity
  8
0
 62
     7
 48
0.027305
100
AcDbLine
 10
223.977081
 20
195.557297
 30
0.0
 11
224.651901
 21
196.416077
 31
0.0
210
0.0
220
0.0
230
1.0
  0
LINE
  5
1AE
100
AcDbEntity
  8
0
 62
     7
 48
0.025894
100
AcDbLine
 10
223.320038
 20
194.756607
 30
0.0
 11
223.977081
 21
195.557297
 31
0.0
210
0.0
220
0.0
230
1.0
  0
LINE
  5
1AF
100
AcDbEntity
  8
0
 62
     7
 48
0.024671
100
AcDbLine
 10
222.678543
 20
194.006714
 30
0.0
 11
223.320038
 21
194.756607
 31
0.0
210
0.0
220
0.0
230
1.0
  0
LINE
  5
1B0
100
AcDbEntity
  8
0
 62
     7
 48
0.023632
100
AcDbLine
 10
222.050385
 20
193.300339
 30
0.0
 11
222.678543
 21
194.006714
 31
0.0
210
0.0
220
0.0
230
1.0
  0
LINE
  5
1B1
100
AcDbEntity
  8
0
 62
     7
 48
0.044868
100
AcDbLine
 10
220.825104
 20
191.988937
 30
0.0
 11
222.050385
 21
193.300339
 31
0.0
210
0.0
220
0.0
230
1.0
  0
LINE
  5
1B2
100
AcDbEntity
  8
0
 62
     7
 48
0.123942
100
AcDbLine
 10
217.347321
 20
188.455719
 30
0.0
 11
220.825104
 21
191.988937
 31
0.0
210
0.0
220
0.0
230
1.0
  0
LINE
  5
1B3
100
AcDbEntity
  8
0
 62
     7
 48
0.041152
100
AcDbLine
 10
216.217697
 20
187.258392
 30
0.0
 11
217.347321
 21
188.455719
 31
0.0
210
0.0
220
0.0
230
1.0
  0
LINE
  5
1B4
100
AcDbEntity
  8
0
 62
     7
 48
0.045095
100
AcDbLine
 10
215.014404
 20
185.914581
 30
0.0
 11
216.217697
 21
187.258392
 31
0.0
210
0.0
220
0.0
230
1.0
  0
LINE
  5
1B5
100
AcDbEntity
  8
0
 62
     7
 48
0.05076
100
AcDbLine
 10
213.70433
 20
184.363403
 30
0.0
 11
215.014404
 21
185.914581
 31
0.0
210
0.0
220
0.0
230
1.0
  0
LINE
  5
1B6
100
AcDbEntity
  8
0
 62
     7
 48
0.058163
100
AcDbLine
 10
212.254379
 20
182.543976
 30
0.0
 11
213.70433
 21
184.363403
 31
0.0
210
0.0
220
0.0
230
1.0
  0
LINE
  5
1B7
100
AcDbEntity
  8
0
 62
     7
 48
0.067316
100
AcDbLine
 10
210.631439
 20
180.395401
 30
0.0
 11
212.254379
 21
182.543976
 31
0.0
210
0.0
220
0.0
230
1.0
  0
LINE
  5
1B8
100
AcDbEntity
  8
0
 62
     7
 48
0.078221
100
AcDbLine
 10
208.802429
 20
177.856827
 30
0.0
 11
210.631439
 21
180.395401
 31
0.0
210
0.0
220
0.0
230
1.0
  0
LINE
  5
1B9
100
AcDbEntity
  8
0
 62
     7
 48
0.090879
100
AcDbLine
 10
206.734253
 20
174.867355
 30
0.0
 11
208.802429
 21
177.856827
 31
0.0
210
0.0
220
0.0
230
1.0
  0
LINE
  5
1BA
100
AcDbEntity
  8
0
 62
     7
 48
0.025
100
AcDbLine
 10
205.734253
 20
174.867355
 30
0.0
 11
206.734253
 21
174.867355
 31
0.0
210
0.0
220
0.0
230
1.0
  0
LINE
  5
1BB
100
AcDbEntity
  8
0
 62
     7
 48
0.15
100
AcDbLine
 10
205.734253
 20
180.867355
 30
0.0
 11
205.734253
 21
174.867355
 31
0.0
210
0.0
220
0.0
230
1.0
  0
LINE
  5
1BC
100
AcDbEntity
  8
0
 62
     7
 48
0.15
100
AcDbLine
 10
199.734253
 20
180.867355
 30
0.0
 11
205.734253
 21
180.867355
 31
0.0
210
0.0
220
0.0
230
1.0
  0
LINE
  5
1BD
100
AcDbEntity
  8
0
 62
     7
 48
0.3
100
AcDbLine
 10
199.734253
 20
192.867355
 30
0.0
 11
199.734253
 21
180.867355
 31
0.0
210
0.0
220
0.0
230
1.0
  0
LINE
  5
1BE
100
AcDbEntity
  8
0
 62
     7
 48
0.025101
100
AcDbLine
 10
200.602463
 20
193.371643
 30
0.0
 11
199.734253
 21
192.867355
 31
0.0
210
0.0
220
0.0
230
1.0
  0
LINE
  5
1BF
100
AcDbEntity
  8
0
 62
     7
 48
0.024816
100
AcDbLine
 10
201.45195
 20
193.885193
 30
0.0
 11
200.602463
 21
193.371643
 31
0.0
210
0.0
220
0.0
230
1.0
  0
LINE
  5
1C0
100
AcDbEntity
  8
0
 62
     7
 48
0.048871
100
AcDbLine
 10
203.09819
 20
194.939392
 30
0.0
 11
201.45195
 21
193.885193
 31
0.0
210
0.0
220
0.0
230
1.0
  0
LINE
  5
1C1
100
AcDbEntity
  8
0
 62
     7
 48
0.048015
100
AcDbLine
 10
204.679962
 20
196.028717
 30
0.0
 11
203.09819
 21
194.939392
 31
0.0
210
0.0
220
0.0
230
1.0
  0
LINE
  5
1C2
100
AcDbEntity
  8
0
 62
     7
 48
0.047335
100
AcDbLine
 10
206.204239
 20
197.151886
 30
0.0
 11
204.679962
 21
196.028717
 31
0.0
210
0.0
220
0.0
230
1.0
  0
LINE
  5
1C3
100
AcDbEntity
  8
0
 62
     7
 48
0.046822
100
AcDbLine
 10
207.678009
 20
198.307632
 30
0.0
 11
206.204239
 21
197.151886
 31
0.0
210
0.0
220
0.0
230
1.0
  0
LINE
  5
1C4
100
AcDbEntity
  8
0
 62
     7
 48
0.046467
100
AcDbLine
 10
209.108261
 20
199.49469
 30
0.0
 11
207.678009
 21
198.307632
 31
0.0
210
0.0
220
0.0
230
1.0
  0
LINE
  5
1C5
100
AcDbEntity
  8
0
 62
     7
 48
0.046258
100
AcDbLine
 10
210.501953
 20
200.711807
 30
0.0
 11
209.108261
 21
199.49469
 31
0.0
210
0.0
220
0.0
230
1.0
  0
LINE
  5
1C6
100
AcDbEntity
  8
0
 62
     7
 48
0.046187
100
AcDbLine
 10
211.866089
 20
201.957703
 30
0.0
 11
210.501953
 21
200.711807
 31
0.0
210
0.0
220
0.0
230
1.0
  0
LINE
  5
1C7
100
AcDbEntity
  8
0
 62
     7
 48
0.063272
100
AcDbLine
 10
213.693802
 20
203.708344
 30
0.0
 11
211.866089
 21
201.957703
 31
0.0
210
0.0
220
0.0
230
1.0
  0
LINE
  5
1C8
100
AcDbEntity
  8
0
 62
     7
 48
0.063217
100
AcDbLine
 10
215.468353
 20
205.509766
 30
0.0
 11
213.693802
 21
203.708344
 31
0.0
210
0.0
220
0.0
230
1.0
  0
LINE
  5
1C9
100
AcDbEntity
  8
0
 62
     7
 48
0.063017
100
AcDbLine
 10
217.178879
 20
207.361237
 30
0.0
 11
215.468353
 21
205.509766
 31
0.0
210
0.0
220
0.0
230
1.0
  0
LINE
  5
1CA
100
AcDbEntity
  8
0
 62
     7
 48
0.031394
100
AcDbLine
 10
218.006744
 20
208.305481
 30
0.0
 11
217.178879
 21
207.361237
 31
0.0
210
0.0
220
0.0
230
1.0
  0
LINE
  5
1CB
100
AcDbEntity
  8
0
 62
     7
 48
0.031299
100
AcDbLine
 10
218.814545
 20
209.261963
 30
0.0
 11
218.006744
 21
208.305481
 31
0.0
210
0.0
220
0.0
230
1.0
  0
LINE
  5
1CC
100
AcDbEntity
  8
0
 62
     7
 48
0.03119
100
AcDbLine
 10
219.600937
 20
210.23053
 30
0.0
 11
218.814545
 21
209.261963
 31
0.0
210
0.0
220
0.0
230
1.0
  0
LINE
  5
1CD
100
AcDbEntity
  8
0
 62
     7
 48
0.031071
100
AcDbLine
 10
220.364532
 20
211.211136
 30
0.0
 11
219.600937
 21
210.23053
 31
0.0
210
0.0
220
0.0
230
1.0
  0
LINE
  5
1CE
100
AcDbEntity
  8
0
 62
     7
 48
0.030943
100
AcDbLine
 10
221.104004
 20
212.203659
 30
0.0
 11
220.364532
 21
211.211136
 31
0.0
210
0.0
220
0.0
230
1.0
  0
LINE
  5
1CF
100
AcDbEntity
  8
0
 62
     7
 48
0.030807
100
AcDbLine
 10
221.817993
 20
213.208008
 30
0.0
 11
221.104004
 21
212.203659
 31
0.0
210
0.0
220
0.0
230
1.0
  0
LINE
  5
1D0
100
AcDbEntity
  8
0
 62
     7
 48
0.030665
100
AcDbLine
 10
222.505127
 20
214.224091
 30
0.0
 11
221.817993
 21
213.208008
 31
0.0
210
0.0
220
0.0
230
1.0
  0
LINE
  5
1D1
100
AcDbEntity
  8
0
 62
     7
 48
0.03052
100
AcDbLine
 10
223.164078
 20
215.251785
 30
0.0
 11
222.505127
 21
214.224091
 31
0.0
210
0.0
220
0.0
230
1.0
  0
LINE
  5
1D2
100
AcDbEntity
  8
0
 62
     7
 48
0.030374
100
AcDbLine
 10
223.793457
 20
216.291031
 30
0.0
 11
223.164078
 21
215.251785
 31
0.0
210
0.0
220
0.0
230
1.0
  0
LINE
  5
1D3
100
AcDbEntity
  8
0
 62
     7
 48
0.030229
100
AcDbLine
 10
224.391937
 20
217.341705
 30
0.0
 11
223.793457
 21
216.291031
 31
0.0
210
0.0
220
0.0
230
1.0
  0
LINE
  5
1D4
100
AcDbEntity
  8
0
 62
     7
 48
0.021706
100
AcDbLine
 10
224.803604
 20
218.10614
 30
0.0
 11
224.391937
 21
217.341705
 31
0.0
210
0.0
220
0.0
230
1.0
  0
LINE
  5
1D5
100
AcDbEntity
  8
0
 62
     7
 48
0.021638
100
AcDbLine
 10
225.198853
 20
218.876129
 30
0.0
 11
224.803604
 21
218.10614
 31
0.0
210
0.0
220
0.0
230
1.0
  0
LINE
  5
1D6
100
AcDbEntity
  8
0
 62
     7
 48
0.021574
100
AcDbLine
 10
225.578033
 20
219.651337
 30
0.0
 11
225.198853
 21
218.876129
 31
0.0
210
0.0
220
0.0
230
1.0
  0
LINE
  5
1D7
100
AcDbEntity
  8
0
 62
     7
 48
0.021516
100
AcDbLine
 10
225.941513
 20
220.431458
 30
0.0
 11
225.578033
 21
219.651337
 31
0.0
210
0.0
220
0.0
230
1.0
  0
LINE
  5
1D8
100
AcDbEntity
  8
0
 62
     7
 48
0.021461
100
AcDbLine
 10
226.289642
 20
221.216125
 30
0.0
 11
225.941513
 21
220.431458
 31
0.0
210
0.0
220
0.0
230
1.0
  0
LINE
  5
1D9
100
AcDbEntity
  8
0
 62
     7
 48
0.021408
100
AcDbLine
 10
226.622772
 20
222.005005
 30
0.0
 11
226.289642
 21
221.216125
 31
0.0
210
0.0
220
0.0
230
1.0
  0
LINE
  5
1DA
100
AcDbEntity
  8
0
 62
     7
 48
0.042669
100
AcDbLine
 10
227.245453
 20
223.594131
 30
0.0
 11
226.622772
 21
222.005005
 31
0.0
210
0.0
220
0.0
230
1.0
  0
LINE
  5
1DB
100
AcDbEntity
  8
0
 62
     7
 48
0.042484
100
AcDbLine
 10
227.812363
 20
225.196136
 30
0.0
 11
227.245453
 21
223.594131
 31
0.0
210
0.0
220
0.0
230
1.0
  0
LINE
  5
1DC
100
AcDbEntity
  8
0
 62
     7
 48
0.042305
100
AcDbLine
 10
228.326355
 20
226.80838
 30
0.0
 11
227.812363
 21
225.196136
 31
0.0
210
0.0
220
0.0
230
1.0
  0
LINE
  5
1DD
100
AcDbEntity
  8
0
 62
     7
 48
0.042123
100
AcDbLine
 10
228.790253
 20
228.428177
 30
0.0
 11
228.326355
 21
226.80838
 31
0.0
210
0.0
220
0.0
230
1.0
  0
LINE
  5
1DE
100
AcDbEntity
  8
0
 62
     7
 48
0.041931
100
AcDbLine
 10
229.206879
 20
230.052856
 30
0.0
 11
228.790253
 21
228.428177
 31
0.0
210
0.0
220
0.0
230
1.0
  0
LINE
  5
1DF
100
AcDbEntity
  8
0
 62
     7
 48
0.041723
100
AcDbLine
 10
229.579071
 20
231.679764
 30
0.0
 11
229.206879
 21
230.052856
 31
0.0
210
0.0
220
0.0
230
1.0
  0
LINE
  5
1E0
100
AcDbEntity
  8
0
 62
     7
 48
0.041493
100
AcDbLine
 10
229.909637
 20
233.306213
 30
0.0
 11
229.579071
 21
231.679764
 31
0.0
210
0.0
220
0.0
230
1.0
  0
LINE
  5
1E1
100
AcDbEntity
  8
0
 62
     7
 48
0.041233
100
AcDbLine
 10
230.201431
 20
234.929535
 30
0.0
 11
229.909637
 21
233.306213
 31
0.0
210
0.0
220
0.0
230
1.0
  0
LINE
  5
1E2
100
AcDbEntity
  8
0
 62
     7
 48
0.040942
100
AcDbLine
 10
230.457275
 20
236.547089
 30
0.0
 11
230.201431
 21
234.929535
 31
0.0
210
0.0
220
0.0
230
1.0
  0
LINE
  5
1E3
100
AcDbEntity
  8
0
 62
     7
 48
0.04061
100
AcDbLine
 10
230.679993
 20
238.156158
 30
0.0
 11
230.457275
 21
236.547089
 31
0.0
210
0.0
220
0.0
230
1.0
  0
LINE
  5
1E4
100
AcDbEntity
  8
0
 62
     7
 48
0.040238
100
AcDbLine
 10
230.872406
 20
239.75412
 30
0.0
 11
230.679993
 21
238.156158
 31
0.0
210
0.0
220
0.0
230
1.0
  0
LINE
  5
1E5
100
AcDbEntity
  8
0
 62
     7
 48
0.079165
100
AcDbLine
 10
231.177643
 20
242.90596
 30
0.0
 11
230.872406
 21
239.75412
 31
0.0
210
0.0
220
0.0
230
1.0
  0
LINE
  5
1E6
100
AcDbEntity
  8
0
 62
     7
 48
0.090653
100
AcDbLine
 10
231.42424
 20
246.523682
 30
0.0
 11
231.177643
 21
242.90596
 31
0.0
210
0.0
220
0.0
230
1.0
  0
LINE
  5
1E7
100
AcDbEntity
  8
0
 62
     7
 48
0.088862
100
AcDbLine
 10
231.572952
 20
250.075058
 30
0.0
 11
231.42424
 21
246.523682
 31
0.0
210
0.0
220
0.0
230
1.0
  0
LINE
  5
1E8
100
AcDbEntity
  8
0
 62
     7
 48
0.17655
100
AcDbLine
 10
231.667404
 20
257.136414
 30
0.0
 11
231.572952
 21
250.075058
 31
0.0
210
0.0
220
0.0
230
1.0
  0
LINE
  5
1E9
100
AcDbEntity
  8
0
 62
     7
 48
0.376514
100
AcDbLine
 10
231.679062
 20
272.19696
 30
0.0
 11
231.667404
 21
257.136414
 31
0.0
210
0.0
220
0.0
230
1.0
  0
LINE
  5
1EA
100
AcDbEntity
  8
0
 62
     7
 48
0.15275
100
AcDbLine
 10
237.677185
 20
271.033081
 30
0.0
 11
231.679062
 21
272.19696
 31
0.0
210
0.0
220
0.0
230
1.0
  0
LINE
  5
1EB
100
AcDbEntity
  8
0
 62
     7
 48
0.15
100
AcDbLine
 10
227.810471
 20
285.966583
 30
0.0
 11
232.318909
 21
289.925629
 31
0.0
210
0.0
220
0.0
230
1.0
  0
LINE
  5
1EC
100
AcDbEntity
  8
0
 62
     7
 48
0.1
100
AcDbLine
 10
232.318909
 20
289.925629
 30
0.0
 11
234.958252
 21
286.920013
 31
0.0
210
0.0
220
0.0
230
1.0
  0
LINE
  5
1ED
100
AcDbEntity
  8
0
 62
     7
 48
0.024019
100
AcDbLine
 10
234.958252
 20
286.920013
 30
0.0
 11
234.356506
 21
286.171021
 31
0.0
210
0.0
220
0.0
230
1.0
  0
LINE
  5
1EE
100
AcDbEntity
  8
0
 62
     7
 48
0.024631
100
AcDbLine
 10
234.356506
 20
286.171021
 30
0.0
 11
233.721069
 21
285.418091
 31
0.0
210
0.0
220
0.0
230
1.0
  0
LINE
  5
1EF
100
AcDbEntity
  8
0
 62
     7
 48
0.025202
100
AcDbLine
 10
233.721069
 20
285.418091
 30
0.0
 11
233.053513
 21
284.662689
 31
0.0
210
0.0
220
0.0
230
1.0
  0
LINE
  5
1F0
100
AcDbEntity
  8
0
 62
     7
 48
0.025734
100
AcDbLine
 10
233.053513
 20
284.662689
 30
0.0
 11
232.355347
 21
283.906311
 31
0.0
210
0.0
220
0.0
230
1.0
  0
LINE
  5
1F1
100
AcDbEntity
  8
0
 62
     7
 48
0.026222
100
AcDbLine
 10
232.355347
 20
283.906311
 30
0.0
 11
231.628082
 21
283.150513
 31
0.0
210
0.0
220
0.0
230
1.0
  0
LINE
  5
1F2
100
AcDbEntity
  8
0
 62
     7
 48
0.026669
100
AcDbLine
 10
231.628082
 20
283.150513
 30
0.0
 11
230.87326
 21
282.396729
 31
0.0
210
0.0
220
0.0
230
1.0
  0
LINE
  5
1F3
100
AcDbEntity
  8
0
 62
     7
 48
0.027071
100
AcDbLine
 10
230.87326
 20
282.396729
 30
0.0
 11
230.092392
 21
281.646515
 31
0.0
210
0.0
220
0.0
230
1.0
  0
LINE
  5
1F4
100
AcDbEntity
  8
0
 62
     7
 48
0.02743
100
AcDbLine
 10
230.092392
 20
281.646515
 30
0.0
 11
229.287018
 21
280.901367
 31
0.0
210
0.0
220
0.0
230
1.0
  0
LINE
  5
1F5
100
AcDbEntity
  8
0
 62
     7
 48
0.027746
100
AcDbLine
 10
229.287018
 20
280.901367
 30
0.0
 11
228.458633
 21
280.162781
 31
0.0
210
0.0
220
0.0
230
1.0
  0
LINE
  5
1F6
100
AcDbEntity
  8
0
 62
     7
 48
0.028017
100
AcDbLine
 10
228.458633
 20
280.162781
 30
0.0
 11
227.608795
 21
279.432251
 31
0.0
210
0.0
220
0.0
230
1.0
  0
LINE
  5
1F7
100
AcDbEntity
  8
0
 62
     7
 48
0.028243
100
AcDbLine
 10
227.608795
 20
279.432251
 30
0.0
 11
226.738998
 21
278.711304
 31
0.0
210
0.0
220
0.0
230
1.0
  0
LINE
  5
1F8
100
AcDbEntity
  8
0
 62
     7
 48
0.028426
100
AcDbLine
 10
226.738998
 20
278.711304
 30
0.0
 11
225.850784
 21
278.001404
 31
0.0
210
0.0
220
0.0
230
1.0
  0
LINE
  5
1F9
100
AcDbEntity
  8
0
 62
     7
 48
0.028564
100
AcDbLine
 10
225.850784
 20
278.001404
 30
0.0
 11
224.945663
 21
277.304138
 31
0.0
210
0.0
220
0.0
230
1.0
  0
LINE
  5
1FA
100
AcDbEntity
  8
0
 62
     7
 48
0.028658
100
AcDbLine
 10
224.945663
 20
277.304138
 30
0.0
 11
224.025177
 21
276.620911
 31
0.0
210
0.0
220
0.0
230
1.0
  0
LINE
  5
1FB
100
AcDbEntity
  8
0
 62
     7
 48
0.028709
100
AcDbLine
 10
224.025177
 20
276.620911
 30
0.0
 11
223.090836
 21
275.953308
 31
0.0
210
0.0
220
0.0
230
1.0
  0
LINE
  5
1FC
100
AcDbEntity
  8
0
 62
     7
 48
0.028716
100
AcDbLine
 10
223.090836
 20
275.953308
 30
0.0
 11
222.144165
 21
275.302765
 31
0.0
210
0.0
220
0.0
230
1.0
  0
LINE
  5
1FD
100
AcDbEntity
  8
0
 62
     7
 48
0.02868
100
AcDbLine
 10
222.144165
 20
275.302765
 30
0.0
 11
221.186691
 21
274.670837
 31
0.0
210
0.0
220
0.0
230
1.0
  0
LINE
  5
1FE
100
AcDbEntity
  8
0
 62
     7
 48
0.028602
100
AcDbLine
 10
221.186691
 20
274.670837
 30
0.0
 11
220.219925
 21
274.059021
 31
0.0
210
0.0
220
0.0
230
1.0
  0
LINE
  5
1FF
100
AcDbEntity
  8
0
 62
     7
 48
0.028482
100
AcDbLine
 10
220.219925
 20
274.059021
 30
0.0
 11
219.245422
 21
273.468811
 31
0.0
210
0.0
220
0.0
230
1.0
  0
LINE
  5
200
100
AcDbEntity
  8
0
 62
     7
 48
0.028323
100
AcDbLine
 10
219.245422
 20
273.468811
 30
0.0
 11
218.264664
 21
272.901703
 31
0.0
210
0.0
220
0.0
230
1.0
  0
LINE
  5
201
100
AcDbEntity
  8
0
 62
     7
 48
0.028123
100
AcDbLine
 10
218.264664
 20
272.901703
 30
0.0
 11
217.279205
 21
272.359222
 31
0.0
210
0.0
220
0.0
230
1.0
  0
LINE
  5
202
100
AcDbEntity
  8
0
 62
     7
 48
0.027884
100
AcDbLine
 10
217.279205
 20
272.359222
 30
0.0
 11
216.290558
 21
271.842865
 31
0.0
210
0.0
220
0.0
230
1.0
  0
LINE
  5
203
100
AcDbEntity
  8
0
 62
     7
 48
0.027609
100
AcDbLine
 10
216.290558
 20
271.842865
 30
0.0
 11
215.300232
 21
271.354126
 31
0.0
210
0.0
220
0.0
230
1.0
  0
LINE
  5
204
100
AcDbEntity
  8
0
 62
     7
 48
0.027297
100
AcDbLine
 10
215.300232
 20
271.354126
 30
0.0
 11
214.309784
 21
270.894501
 31
0.0
210
0.0
220
0.0
230
1.0
  0
LINE
  5
205
100
AcDbEntity
  8
0
 62
     7
 48
0.026952
100
AcDbLine
 10
214.309784
 20
270.894501
 30
0.0
 11
213.320709
 21
270.465546
 31
0.0
210
0.0
220
0.0
230
1.0
  0
LINE
  5
206
100
AcDbEntity
  8
0
 62
     7
 48
0.026575
100
AcDbLine
 10
213.320709
 20
270.465546
 30
0.0
 11
212.334549
 21
270.068695
 31
0.0
210
0.0
220
0.0
230
1.0
  0
LINE
  5
207
100
AcDbEntity
  8
0
 62
     7
 48
0.026169
100
AcDbLine
 10
212.334549
 20
270.068695
 30
0.0
 11
211.352814
 21
269.705505
 31
0.0
210
0.0
220
0.0
230
1.0
  0
LINE
  5
208
100
AcDbEntity
  8
0
 62
     7
 48
0.025736
100
AcDbLine
 10
211.352814
 20
269.705505
 30
0.0
 11
210.377029
 21
269.377472
 31
0.0
210
0.0
220
0.0
230
1.0
  0
LINE
  5
209
100
AcDbEntity
  8
0
 62
     7
 48
0.02528
100
AcDbLine
 10
210.377029
 20
269.377472
 30
0.0
 11
209.408737
 21
269.08606
 31
0.0
210
0.0
220
0.0
230
1.0
  0
LINE
  5
20A
100
AcDbEntity
  8
0
 62
     7
 48
0.012463
100
AcDbLine
 10
209.408737
 20
269.08606
 30
0.0
 11
208.927856
 21
268.95459
 31
0.0
210
0.0
220
0.0
230
1.0
  0
LINE
  5
20B
100
AcDbEntity
  8
0
 62
     7
 48
0.012342
100
AcDbLine
 10
208.927856
 20
268.95459
 30
0.0
 11
208.449432
 21
268.832825
 31
0.0
210
0.0
220
0.0
230
1.0
  0
LINE
  5
20C
100
AcDbEntity
  8
0
 62
     7
 48
0.012219
100
AcDbLine
 10
208.449432
 20
268.832825
 30
0.0
 11
207.973633
 21
268.720978
 31
0.0
210
0.0
220
0.0
230
1.0
  0
LINE
  5
20D
100
AcDbEntity
  8
0
 62
     7
 48
0.012095
100
AcDbLine
 10
207.973633
 20
268.720978
 30
0.0
 11
207.500656
 21
268.619263
 31
0.0
210
0.0
220
0.0
230
1.0
  0
LINE
  5
20E
100
AcDbEntity
  8
0
 62
     7
 48
0.01197
100
AcDbLine
 10
207.500656
 20
268.619263
 30
0.0
 11
207.030685
 21
268.527802
 31
0.0
210
0.0
220
0.0
230
1.0
  0
LINE
  5
20F
100
AcDbEntity
  8
0
 62
     7
 48
0.011843
100
AcDbLine
 10
207.030685
 20
268.527802
 30
0.0
 11
206.563919
 21
268.446838
 31
0.0
210
0.0
220
0.0
230
1.0
  0
LINE
  5
210
100
AcDbEntity
  8
0
 62
     7
 48
0.01873
100
AcDbLine
 10
206.563919
 20
268.446838
 30
0.0
 11
205.82254
 21
268.338928
 31
0.0
210
0.0
220
0.0
230
1.0
  0
LINE
  5
211
100
AcDbEntity
  8
0
 62
     7
 48
0.018442
100
AcDbLine
 10
205.82254
 20
268.338928
 30
0.0
 11
205.089493
 21
268.25647
 31
0.0
210
0.0
220
0.0
230
1.0
  0
LINE
  5
212
100
AcDbEntity
  8
0
 62
     7
 48
0.018187
100
AcDbLine
 10
205.089493
 20
268.25647
 30
0.0
 11
204.364395
 21
268.19751
 31
0.0
210
0.0
220
0.0
230
1.0
  0
LINE
  5
213
100
AcDbEntity
  8
0
 62
     7
 48
0.017962
100
AcDbLine
 10
204.364395
 20
268.19751
 30
0.0
 11
203.646881
 21
268.160095
 31
0.0
210
0.0
220
0.0
230
1.0
  0
LINE
  5
214
100
AcDbEntity
  8
0
 62
     7
 48
0.017764
100
AcDbLine
 10
203.646881
 20
268.160095
 30
0.0
 11
202.936539
 21
268.142273
 31
0.0
210
0.0
220
0.0
230
1.0
  0
LINE
  5
215
100
AcDbEntity
  8
0
 62
     7
 48
0.017588
100
AcDbLine
 10
202.936539
 20
268.142273
 30
0.0
 11
202.233002
 21
268.14209
 31
0.0
210
0.0
220
0.0
230
1.0
  0
LINE
  5
216
100
AcDbEntity
  8
0
 62
     7
 48
0.017432
100
AcDbLine
 10
202.233002
 20
268.14209
 30
0.0
 11
201.535889
 21
268.157593
 31
0.0
210
0.0
220
0.0
230
1.0
  0
LINE
  5
217
100
AcDbEntity
  8
0
 62
     7
 48
0.017293
100
AcDbLine
 10
201.535889
 20
268.157593
 30
0.0
 11
200.844803
 21
268.186768
 31
0.0
210
0.0
220
0.0
230
1.0
  0
LINE
  5
218
100
AcDbEntity
  8
0
 62
     7
 48
0.034217
100
AcDbLine
 10
200.844803
 20
268.186768
 30
0.0
 11
199.479218
 21
268.278503
 31
0.0
210
0.0
220
0.0
230
1.0
  0
LINE
  5
219
100
AcDbEntity
  8
0
 62
     7
 48
0.188414
100
AcDbLine
 10
199.479218
 20
268.278503
 30
0.0
 11
191.975739
 21
268.983826
 31
0.0
210
0.0
220
0.0
230
1.0
  0
LINE
  5
21A
100
AcDbEntity
  8
0
 62
     7
 48
0.086863
100
AcDbLine
 10
191.975739
 20
268.983826
 30
0.0
 11
188.5065
 21
269.175537
 31
0.0
210
0.0
220
0.0
230
1.0
  0
LINE
  5
21B
100
AcDbEntity
  8
0
 62
     7
 48
0.086522
100
AcDbLine
 10
188.5065
 20
269.175537
 30
0.0
 11
185.046539
 21
269.255737
 31
0.0
210
0.0
220
0.0
230
1.0
  0
LINE
  5
21C
100
AcDbEntity
  8
0
 62
     7
 48
0.087098
100
AcDbLine
 10
185.046539
 20
269.255737
 30
0.0
 11
181.562744
 21
269.225769
 31
0.0
210
0.0
220
0.0
230
1.0
  0
LINE
  5
21D
100
AcDbEntity
  8
0
 62
     7
 48
0.07596
100
AcDbLine
 10
181.562744
 20
269.225769
 30
0.0
 11
178.526596
 21
269.10849
 31
0.0
210
0.0
220
0.0
230
1.0
  0
LINE
  5
21E
100
AcDbEntity
  8
0
 62
     7
 48
0.038082
100
AcDbLine
 10
178.526596
 20
269.10849
 30
0.0
 11
177.006363
 21
269.012146
 31
0.0
210
0.0
220
0.0
230
1.0
  0
LINE
  5
21F
100
AcDbEntity
  8
0
 62
     7
 48
0.037988
100
AcDbLine
 10
177.006363
 20
269.012146
 30
0.0
 11
175.492035
 21
268.88678
 31
0.0
210
0.0
220
0.0
230
1.0
  0
LINE
  5
220
100
AcDbEntity
  8
0
 62
     7
 48
0.037779
100
AcDbLine
 10
175.492035
 20
268.88678
 30
0.0
 11
173.98909
 21
268.72937
 31
0.0
210
0.0
220
0.0
230
1.0
  0
LINE
  5
221
100
AcDbEntity
  8
0
 62
     7
 48
0.037462
100
AcDbLine
 10
173.98909
 20
268.72937
 30
0.0
 11
172.503021
 21
268.537048
 31
0.0
210
0.0
220
0.0
230
1.0
  0
LINE
  5
222
100
AcDbEntity
  8
0
 62
     7
 48
0.037043
100
AcDbLine
 10
172.503021
 20
268.537048
 30
0.0
 11
171.039307
 21
268.306793
 31
0.0
210
0.0
220
0.0
230
1.0
  0
LINE
  5
223
100
AcDbEntity
  8
0
 62
     7
 48
0.036531
100
AcDbLine
 10
171.039307
 20
268.306793
 30
0.0
 11
169.603439
 21
268.035706
 31
0.0
210
0.0
220
0.0
230
1.0
  0
LINE
  5
224
100
AcDbEntity
  8
0
 62
     7
 48
0.264215
100
AcDbLine
 10
169.603439
 20
268.035706
 30
0.0
 11
177.544754
 21
275.009308
 31
0.0
210
0.0
220
0.0
230
1.0
  0
LINE
  5
225
100
AcDbEntity
  8
0
 62
     7
 48
0.15
100
AcDbLine
 10
177.544754
 20
275.009308
 30
0.0
 11
173.585709
 21
279.517761
 31
0.0
210
0.0
220
0.0
230
1.0
  0
LINE
  5
226
100
AcDbEntity
  8
0
 62
     7
 48
0.204766
100
AcDbLine
 10
173.585709
 20
279.517761
 30
0.0
 11
179.740219
 21
284.922272
 31
0.0
210
0.0
220
0.0
230
1.0
  0
LINE
  5
227
100
AcDbEntity
  8
0
 62
     7
 48
0.003045
100
AcDbLine
 10
179.740219
 20
284.922272
 30
0.0
 11
179.833466
 21
284.843903
 31
0.0
210
0.0
220
0.0
230
1.0
  0
LINE
  5
228
100
AcDbEntity
  8
0
 62
     7
 48
0.003194
100
AcDbLine
 10
179.833466
 20
284.843903
 30
0.0
 11
179.933258
 21
284.76413
 31
0.0
210
0.0
220
0.0
230
1.0
  0
LINE
  5
229
100
AcDbEntity
  8
0
 62
     7
 48
0.00334
100
AcDbLine
 10
179.933258
 20
284.76413
 30
0.0
 11
180.039459
 21
284.683075
 31
0.0
210
0.0
220
0.0
230
1.0
  0
LINE
  5
22A
100
AcDbEntity
  8
0
 62
     7
 48
0.003485
100
AcDbLine
 10
180.039459
 20
284.683075
 30
0.0
 11
180.151947
 21
284.600739
 31
0.0
210
0.0
220
0.0
230
1.0
  0
LINE
  5
22B
100
AcDbEntity
  8
0
 62
     7
 48
0.007395
100
AcDbLine
 10
180.151947
 20
284.600739
 30
0.0
 11
180.395233
 21
284.432465
 31
0.0
210
0.0
220
0.0
230
1.0
  0
LINE
  5
22C
100
AcDbEntity
  8
0
 62
     7
 48
0.007948
100
AcDbLine
 10
180.395233
 20
284.432465
 30
0.0
 11
180.662094
 21
284.259705
 31
0.0
210
0.0
220
0.0
230
1.0
  0
LINE
  5
22D
100
AcDbEntity
  8
0
 62
     7
 48
0.008478
100
AcDbLine
 10
180.662094
 20
284.259705
 30
0.0
 11
180.951431
 21
284.082825
 31
0.0
210
0.0
220
0.0
230
1.0
  0
LINE
  5
22E
100
AcDbEntity
  8
0
 62
     7
 48
0.008986
100
AcDbLine
 10
180.951431
 20
284.082825
 30
0.0
 11
181.262222
 21
283.902222
 31
0.0
210
0.0
220
0.0
230
1.0
  0
LINE
  5
22F
100
AcDbEntity
  8
0
 62
     7
 48
0.0194
100
AcDbLine
 10
181.262222
 20
283.902222
 30
0.0
 11
181.943924
 21
283.531464
 31
0.0
210
0.0
220
0.0
230
1.0
  0
LINE
  5
230
100
AcDbEntity
  8
0
 62
     7
 48
0.021138
100
AcDbLine
 10
181.943924
 20
283.531464
 30
0.0
 11
182.698746
 21
283.150452
 31
0.0
210
0.0
220
0.0
230
1.0
  0
LINE
  5
231
100
AcDbEntity
  8
0
 62
     7
 48
0.022671
100
AcDbLine
 10
182.698746
 20
283.150452
 30
0.0
 11
183.51828
 21
282.762268
 31
0.0
210
0.0
220
0.0
230
1.0
  0
LINE
  5
232
100
AcDbEntity
  8
0
 62
     7
 48
0.023991
100
AcDbLine
 10
183.51828
 20
282.762268
 30
0.0
 11
184.394089
 21
282.370026
 31
0.0
210
0.0
220
0.0
230
1.0
  0
LINE
  5
233
100
AcDbEntity
  8
0
 62
     7
 48
0.025097
100
AcDbLine
 10
184.394089
 20
282.370026
 30
0.0
 11
185.317734
 21
281.976807
 31
0.0
210
0.0
220
0.0
230
1.0
  0
LINE
  5
234
100
AcDbEntity
  8
0
 62
     7
 48
0.052643
100
AcDbLine
 10
185.317734
 20
281.976807
 30
0.0
 11
187.274826
 21
281.199768
 31
0.0
210
0.0
220
0.0
230
1.0
  0
LINE
  5
235
100
AcDbEntity
  8
0
 62
     7
 48
0.054457
100
AcDbLine
 10
187.274826
 20
281.199768
 30
0.0
 11
189.322144
 21
280.455811
 31
0.0
210
0.0
220
0.0
230
1.0
  0
LINE
  5
236
100
AcDbEntity
  8
0
 62
     7
 48
0.054521
100
AcDbLine
 10
189.322144
 20
280.455811
 30
0.0
 11
191.392212
 21
279.769653
 31
0.0
210
0.0
220
0.0
230
1.0
  0
LINE
  5
237
100
AcDbEntity
  8
0
 62
     7
 48
0.052837
100
AcDbLine
 10
191.392212
 20
279.769653
 30
0.0
 11
193.417618
 21
279.165955
 31
0.0
210
0.0
220
0.0
230
1.0
  0
LINE
  5
238
100
AcDbEntity
  8
0
 62
     7
 48
0.02902
100
AcDbLine
 10
193.417618
 20
279.165955
 30
0.0
 11
194.538635
 21
278.864655
 31
0.0
210
0.0
220
0.0
230
1.0
  0
LINE
  5
239
100
AcDbEntity
  8
0
 62
     7
 48
0.027946
100
AcDbLine
 10
194.538635
 20
278.864655
 30
0.0
 11
195.624054
 21
278.597382
 31
0.0
210
0.0
220
0.0
230
1.0
  0
LINE
  5
23A
100
AcDbEntity
  8
0
 62
     7
 48
0.02693
100
AcDbLine
 10
195.624054
 20
278.597382
 30
0.0
 11
196.675415
 21
278.362823
 31
0.0
210
0.0
220
0.0
230
1.0
  0
LINE
  5
23B
100
AcDbEntity
  8
0
 62
     7
 48
0.025973
100
AcDbLine
 10
196.675415
 20
278.362823
 30
0.0
 11
197.694244
 21
278.159546
 31
0.0
210
0.0
220
0.0
230
1.0
  0
LINE
  5
23C
100
AcDbEntity
  8
0
 62
     7
 48
0.025072
100
AcDbLine
 10
197.694244
 20
278.159546
 30
0.0
 11
198.682037
 21
277.986145
 31
0.0
210
0.0
220
0.0
230
1.0
  0
LINE
  5
23D
100
AcDbEntity
  8
0
 62
     7
 48
0.024229
100
AcDbLine
 10
198.682037
 20
277.986145
 30
0.0
 11
199.64032
 21
277.841248
 31
0.0
210
0.0
220
0.0
230
1.0
  0
LINE
  5
23E
100
AcDbEntity
  8
0
 62
     7
 48
0.023443
100
AcDbLine
 10
199.64032
 20
277.841248
 30
0.0
 11
200.570618
 21
277.72345
 31
0.0
210
0.0
220
0.0
230
1.0
  0
LINE
  5
23F
100
AcDbEntity
  8
0
 62
     7
 48
0.022712
100
AcDbLine
 10
200.570618
 20
277.72345
 30
0.0
 11
201.474426
 21
277.631378
 31
0.0
210
0.0
220
0.0
230
1.0
  0
LINE
  5
240
100
AcDbEntity
  8
0
 62
     7
 48
0.022036
100
AcDbLine
 10
201.474426
 20
277.631378
 30
0.0
 11
202.353271
 21
277.563629
 31
0.0
210
0.0
220
0.0
230
1.0
  0
LINE
  5
241
100
AcDbEntity
  8
0
 62
     7
 48
0.021415
100
AcDbLine
 10
202.353271
 20
277.563629
 30
0.0
 11
203.208679
 21
277.518829
 31
0.0
210
0.0
220
0.0
230
1.0
  0
LINE
  5
242
100
AcDbEntity
  8
0
 62
     7
 48
0.020846
100
AcDbLine
 10
203.208679
 20
277.518829
 30
0.0
 11
204.042175
 21
277.495575
 31
0.0
210
0.0
220
0.0
230
1.0
  0
LINE
  5
243
100
AcDbEntity
  8
0
 62
     7
 48
0.020327
100
AcDbLine
 10
204.042175
 20
277.495575
 30
0.0
 11
204.85524
 21
277.492462
 31
0.0
210
0.0
220
0.0
230
1.0
  0
LINE
  5
244
100
AcDbEntity
  8
0
 62
     7
 48
0.019859
100
AcDbLine
 10
204.85524
 20
277.492462
 30
0.0
 11
205.649429
 21
277.508087
 31
0.0
210
0.0
220
0.0
230
1.0
  0
LINE
  5
245
100
AcDbEntity
  8
0
 62
     7
 48
0.019438
100
AcDbLine
 10
205.649429
 20
277.508087
 30
0.0
 11
206.426239
 21
277.541107
 31
0.0
210
0.0
220
0.0
230
1.0
  0
LINE
  5
246
100
AcDbEntity
  8
0
 62
     7
 48
0.019063
100
AcDbLine
 10
206.426239
 20
277.541107
 30
0.0
 11
207.18718
 21
277.590118
 31
0.0
210
0.0
220
0.0
230
1.0
  0
LINE
  5
247
100
AcDbEntity
  8
0
 62
     7
 48
0.018732
100
AcDbLine
 10
207.18718
 20
277.590118
 30
0.0
 11
207.933777
 21
277.653687
 31
0.0
210
0.0
220
0.0
230
1.0
  0
LINE
  5
248
100
AcDbEntity
  8
0
 62
     7
 48
0.024212
100
AcDbLine
 10
207.933777
 20
277.653687
 30
0.0
 11
208.896683
 21
277.757599
 31
0.0
210
0.0
220
0.0
230
1.0
  0
LINE
  5
249
100
AcDbEntity
  8
0
 62
     7
 48
0.023726
100
AcDbLine
 10
208.896683
 20
277.757599
 30
0.0
 11
209.837372
 21
277.88324
 31
0.0
210
0.0
220
0.0
230
1.0
  0
LINE
  5
24A
100
AcDbEntity
  8
0
 62
     7
 48
0.023251
100
AcDbLine
 10
209.837372
 20
277.88324
 30
0.0
 11
210.755875
 21
278.029388
 31
0.0
210
0.0
220
0.0
230
1.0
  0
LINE
  5
24B
100
AcDbEntity
  8
0
 62
     7
 48
0.022787
100
AcDbLine
 10
210.755875
 20
278.029388
 30
0.0
 11
211.652206
 21
278.194916
 31
0.0
210
0.0
220
0.0
230
1.0
  0
LINE
  5
24C
100
AcDbEntity
  8
0
 62
     7
 48
0.022332
100
AcDbLine
 10
211.652206
 20
278.194916
 30
0.0
 11
212.526367
 21
278.378662
 31
0.0
210
0.0
220
0.0
230
1.0
  0
LINE
  5
24D
100
AcDbEntity
  8
0
 62
     7
 48
0.021884
100
AcDbLine
 10
212.526367
 20
278.378662
 30
0.0
 11
213.378387
 21
278.579437
 31
0.0
210
0.0
220
0.0
230
1.0
  0
LINE
  5
24E
100
AcDbEntity
  8
0
 62
     7
 48
0.021443
100
AcDbLine
 10
213.378387
 20
278.579437
 30
0.0
 11
214.208298
 21
278.796082
 31
0.0
210
0.0
220
0.0
230
1.0
  0
LINE
  5
24F
100
AcDbEntity
  8
0
 62
     7
 48
0.021007
100
AcDbLine
 10
214.208298
 20
278.796082
 30
0.0
 11
215.016083
 21
279.027466
 31
0.0
210
0.0
220
0.0
230
1.0
  0
LINE
  5
250
100
AcDbEntity
  8
0
 62
     7
 48
0.020574
100
AcDbLine
 10
215.016083
 20
279.027466
 30
0.0
 11
215.801773
 21
279.272369
 31
0.0
210
0.0
220
0.0
230
1.0
  0
LINE
  5
251
100
AcDbEntity
  8
0
 62
     7
 48
0.020145
100
AcDbLine
 10
215.801773
 20
279.272369
 30
0.0
 11
216.565384
 21
279.529663
 31
0.0
210
0.0
220
0.0
230
1.0
  0
LINE
  5
252
100
AcDbEntity
  8
0
 62
     7
 48
0.019716
100
AcDbLine
 10
216.565384
 20
279.529663
 30
0.0
 11
217.306915
 21
279.798187
 31
0.0
210
0.0
220
0.0
230
1.0
  0
LINE
  5
253
100
AcDbEntity
  8
0
 62
     7
 48
0.019289
100
AcDbLine
 10
217.306915
 20
279.798187
 30
0.0
 11
218.026428
 21
280.076752
 31
0.0
210
0.0
220
0.0
230
1.0
  0
LINE
  5
254
100
AcDbEntity
  8
0
 62
     7
 48
0.018859
100
AcDbLine
 10
218.026428
 20
280.076752
 30
0.0
 11
218.723877
 21
280.364227
 31
0.0
210
0.0
220
0.0
230
1.0
  0
LINE
  5
255
100
AcDbEntity
  8
0
 62
     7
 48
0.018429
100
AcDbLine
 10
218.723877
 20
280.364227
 30
0.0
 11
219.399338
 21
280.659424
 31
0.0
210
0.0
220
0.0
230
1.0
  0
LINE
  5
256
100
AcDbEntity
  8
0
 62
     7
 48
0.017994
100
AcDbLine
 10
219.399338
 20
280.659424
 30
0.0
 11
220.05278
 21
280.961182
 31
0.0
210
0.0
220
0.0
230
1.0
  0
LINE
  5
257
100
AcDbEntity
  8
0
 62
     7
 48
0.017555
100
AcDbLine
 10
220.05278
 20
280.961182
 30
0.0
 11
220.684235
 21
281.268311
 31
0.0
210
0.0
220
0.0
230
1.0
  0
LINE
  5
258
100
AcDbEntity
  8
0
 62
     7
 48
0.017111
100
AcDbLine
 10
220.684235
 20
281.268311
 30
0.0
 11
221.293732
 21
281.579712
 31
0.0
210
0.0
220
0.0
230
1.0
  0
LINE
  5
259
100
AcDbEntity
  8
0
 62
     7
 48
0.01666
100
AcDbLine
 10
221.293732
 20
281.579712
 30
0.0
 11
221.881271
 21
281.894165
 31
0.0
210
0.0
220
0.0
230
1.0
  0
LINE
  5
25A
100
AcDbEntity
  8
0
 62
     7
 48
0.016201
100
AcDbLine
 10
221.881271
 20
281.894165
 30
0.0
 11
222.446869
 21
282.21051
 31
0.0
210
0.0
220
0.0
230
1.0
  0
LINE
  5
25B
100
AcDbEntity
  8
0
 62
     7
 48
0.015735
100
AcDbLine
 10
222.446869
 20
282.21051
 30
0.0
 11
222.99054
 21
282.527618
 31
0.0
210
0.0
220
0.0
230
1.0
  0
LINE
  5
25C
100
AcDbEntity
  8
0
 62
     7
 48
0.03003
100
AcDbLine
 10
222.99054
 20
282.527618
 30
0.0
 11
224.012192
 21
283.159363
 31
0.0
210
0.0
220
0.0
230
1.0
  0
LINE
  5
25D
100
AcDbEntity
  8
0
 62
     7
 48
0.02804
100
AcDbLine
 10
224.012192
 20
283.159363
 30
0.0
 11
224.94635
 21
283.78009
 31
0.0
210
0.0
220
0.0
230
1.0
  0
LINE
  5
25E
100
AcDbEntity
  8
0
 62
     7
 48
0.025951
100
AcDbLine
 10
224.94635
 20
283.78009
 30
0.0
 11
225.793121
 21
284.380493
 31
0.0
210
0.0
220
0.0
230
1.0
  0
LINE
  5
25F
100
AcDbEntity
  8
0
 62
     7
 48
0.023752
100
AcDbLine
 10
225.793121
 20
284.380493
 30
0.0
 11
226.552643
 21
284.951263
 31
0.0
210
0.0
220
0.0
230
1.0
  0
LINE
  5
260
100
AcDbEntity
  8
0
 62
     7
 48
0.021432
100
AcDbLine
 10
226.552643
 20
284.951263
 30
0.0
 11
227.225052
 21
285.483063
 31
0.0
210
0.0
220
0.0
230
1.0
  0
LINE
  5
261
100
AcDbEntity
  8
0
 62
     7
 48
0.018982
100
AcDbLine
 10
227.225052
 20
285.483063
 30
0.0
 11
227.810471
 21
285.966583
 31
0.0
210
0.0
220
0.0
230
1.0
  0
LINE
  5
262
100
AcDbEntity
  8
0
 62
     7
 48
0.15
100
AcDbLine
 10
228.50705
 20
77.820358
 30
0.0
 11
229.681458
 21
71.936424
 31
0.0
210
0.0
220
0.0
230
1.0
  0
LINE
  5
263
100
AcDbEntity
  8
0
 62
     7
 48
0.1
100
AcDbLine
 10
229.681458
 20
71.936424
 30
0.0
 11
225.758835
 21
71.153481
 31
0.0
210
0.0
220
0.0
230
1.0
  0
LINE
  5
264
100
AcDbEntity
  8
0
 62
     7
 48
0.024019
100
AcDbLine
 10
225.758835
 20
71.153481
 30
0.0
 11
225.411087
 21
72.04911
 31
0.0
210
0.0
220
0.0
230
1.0
  0
LINE
  5
265
100
AcDbEntity
  8
0
 62
     7
 48
0.024631
100
AcDbLine
 10
225.411087
 20
72.04911
 30
0.0
 11
225.076736
 21
72.975876
 31
0.0
210
0.0
220
0.0
230
1.0
  0
LINE
  5
266
100
AcDbEntity
  8
0
 62
     7
 48
0.025203
100
AcDbLine
 10
225.076736
 20
72.975876
 30
0.0
 11
224.756317
 21
73.931709
 31
0.0
210
0.0
220
0.0
230
1.0
  0
LINE
  5
267
100
AcDbEntity
  8
0
 62
     7
 48
0.025733
100
AcDbLine
 10
224.756317
 20
73.931709
 30
0.0
 11
224.450363
 21
74.91452
 31
0.0
210
0.0
220
0.0
230
1.0
  0
LINE
  5
268
100
AcDbEntity
  8
0
 62
     7
 48
0.026222
100
AcDbLine
 10
224.450363
 20
74.91452
 30
0.0
 11
224.159439
 21
75.922256
 31
0.0
210
0.0
220
0.0
230
1.0
  0
LINE
  5
269
100
AcDbEntity
  8
0
 62
     7
 48
0.026669
100
AcDbLine
 10
224.159439
 20
75.922256
 30
0.0
 11
223.884064
 21
76.952843
 31
0.0
210
0.0
220
0.0
230
1.0
  0
LINE
  5
26A
100
AcDbEntity
  8
0
 62
     7
 48
0.027071
100
AcDbLine
 10
223.884064
 20
76.952843
 30
0.0
 11
223.624802
 21
78.004196
 31
0.0
210
0.0
220
0.0
230
1.0
  0
LINE
  5
26B
100
AcDbEntity
  8
0
 62
     7
 48
0.02743
100
AcDbLine
 10
223.624802
 20
78.004196
 30
0.0
 11
223.382156
 21
79.074249
 31
0.0
210
0.0
220
0.0
230
1.0
  0
LINE
  5
26C
100
AcDbEntity
  8
0
 62
     7
 48
0.027746
100
AcDbLine
 10
223.382156
 20
79.074249
 30
0.0
 11
223.156708
 21
80.16095
 31
0.0
210
0.0
220
0.0
230
1.0
  0
LINE
  5
26D
100
AcDbEntity
  8
0
 62
     7
 48
0.028017
100
AcDbLine
 10
223.156708
 20
80.16095
 30
0.0
 11
222.948975
 21
81.262192
 31
0.0
210
0.0
220
0.0
230
1.0
  0
LINE
  5
26E
100
AcDbEntity
  8
0
 62
     7
 48
0.028243
100
AcDbLine
 10
222.948975
 20
81.262192
 30
0.0
 11
222.759521
 21
82.375931
 31
0.0
210
0.0
220
0.0
230
1.0
  0
LINE
  5
26F
100
AcDbEntity
  8
0
 62
     7
 48
0.028426
100
AcDbLine
 10
222.759521
 20
82.375931
 30
0.0
 11
222.588852
 21
83.500092
 31
0.0
210
0.0
220
0.0
230
1.0
  0
LINE
  5
270
100
AcDbEntity
  8
0
 62
     7
 48
0.028564
100
AcDbLine
 10
222.588852
 20
83.500092
 30
0.0
 11
222.437531
 21
84.632584
 31
0.0
210
0.0
220
0.0
230
1.0
  0
LINE
  5
271
100
AcDbEntity
  8
0
 62
     7
 48
0.028658
100
AcDbLine
 10
222.437531
 20
84.632584
 30
0.0
 11
222.306107
 21
85.771362
 31
0.0
210
0.0
220
0.0
230
1.0
  0
LINE
  5
272
100
AcDbEntity
  8
0
 62
     7
 48
0.028709
100
AcDbLine
 10
222.306107
 20
85.771362
 30
0.0
 11
222.195099
 21
86.914337
 31
0.0
210
0.0
220
0.0
230
1.0
  0
LINE
  5
273
100
AcDbEntity
  8
0
 62
     7
 48
0.028716
100
AcDbLine
 10
222.195099
 20
86.914337
 30
0.0
 11
222.105057
 21
88.059433
 31
0.0
210
0.0
220
0.0
230
1.0
  0
LINE
  5
274
100
AcDbEntity
  8
0
 62
     7
 48
0.02868
100
AcDbLine
 10
222.105057
 20
88.059433
 30
0.0
 11
222.03653
 21
89.204597
 31
0.0
210
0.0
220
0.0
230
1.0
  0
LINE
  5
275
100
AcDbEntity
  8
0
 62
     7
 48
0.028602
100
AcDbLine
 10
222.03653
 20
89.204597
 30
0.0
 11
221.990067
 21
90.347748
 31
0.0
210
0.0
220
0.0
230
1.0
  0
LINE
  5
276
100
AcDbEntity
  8
0
 62
     7
 48
0.028483
100
AcDbLine
 10
221.990067
 20
90.347748
 30
0.0
 11
221.966187
 21
91.486809
 31
0.0
210
0.0
220
0.0
230
1.0
  0
LINE
  5
277
100
AcDbEntity
  8
0
 62
     7
 48
0.028323
100
AcDbLine
 10
221.966187
 20
91.486809
 30
0.0
 11
221.965424
 21
92.61972
 31
0.0
210
0.0
220
0.0
230
1.0
  0
LINE
  5
278
100
AcDbEntity
  8
0
 62
     7
 48
0.028123
100
AcDbLine
 10
221.965424
 20
92.61972
 30
0.0
 11
221.988358
 21
93.744392
 31
0.0
210
0.0
220
0.0
230
1.0
  0
LINE
  5
279
100
AcDbEntity
  8
0
 62
     7
 48
0.027884
100
AcDbLine
 10
221.988358
 20
93.744392
 30
0.0
 11
222.035492
 21
94.858772
 31
0.0
210
0.0
220
0.0
230
1.0
  0
LINE
  5
27A
100
AcDbEntity
  8
0
 62
     7
 48
0.027609
100
AcDbLine
 10
222.035492
 20
94.858772
 30
0.0
 11
222.107391
 21
95.960777
 31
0.0
210
0.0
220
0.0
230
1.0
  0
LINE
  5
27B
100
AcDbEntity
  8
0
 62
     7
 48
0.027297
100
AcDbLine
 10
222.107391
 20
95.960777
 30
0.0
 11
222.20459
 21
97.04834
 31
0.0
210
0.0
220
0.0
230
1.0
  0
LINE
  5
27C
100
AcDbEntity
  8
0
 62
     7
 48
0.026952
100
AcDbLine
 10
222.20459
 20
97.04834
 30
0.0
 11
222.327621
 21
98.119385
 31
0.0
210
0.0
220
0.0
230
1.0
  0
LINE
  5
27D
100
AcDbEntity
  8
0
 62
     7
 48
0.026575
100
AcDbLine
 10
222.327621
 20
98.119385
 30
0.0
 11
222.47702
 21
99.171844
 31
0.0
210
0.0
220
0.0
230
1.0
  0
LINE
  5
27E
100
AcDbEntity
  8
0
 62
     7
 48
0.026169
100
AcDbLine
 10
222.47702
 20
99.171844
 30
0.0
 11
222.653366
 21
100.203651
 31
0.0
210
0.0
220
0.0
230
1.0
  0
LINE
  5
27F
100
AcDbEntity
  8
0
 62
     7
 48
0.025736
100
AcDbLine
 10
222.653366
 20
100.203651
 30
0.0
 11
222.857162
 21
101.212723
 31
0.0
210
0.0
220
0.0
230
1.0
  0
LINE
  5
280
100
AcDbEntity
  8
0
 62
     7
 48
0.02528
100
AcDbLine
 10
222.857162
 20
101.212723
 30
0.0
 11
223.088959
 21
102.196991
 31
0.0
210
0.0
220
0.0
230
1.0
  0
LINE
  5
281
100
AcDbEntity
  8
0
 62
     7
 48
0.012463
100
AcDbLine
 10
223.088959
 20
102.196991
 30
0.0
 11
223.21553
 21
102.679184
 31
0.0
210
0.0
220
0.0
230
1.0
  0
LINE
  5
282
100
AcDbEntity
  8
0
 62
     7
 48
0.012342
100
AcDbLine
 10
223.21553
 20
102.679184
 30
0.0
 11
223.349304
 21
103.154388
 31
0.0
210
0.0
220
0.0
230
1.0
  0
LINE
  5
283
100
AcDbEntity
  8
0
 62
     7
 48
0.012219
100
AcDbLine
 10
223.349304
 20
103.154388
 30
0.0
 11
223.490341
 21
103.622368
 31
0.0
210
0.0
220
0.0
230
1.0
  0
LINE
  5
284
100
AcDbEntity
  8
0
 62
     7
 48
0.012095
100
AcDbLine
 10
223.490341
 20
103.622368
 30
0.0
 11
223.638733
 21
104.082848
 31
0.0
210
0.0
220
0.0
230
1.0
  0
LINE
  5
285
100
AcDbEntity
  8
0
 62
     7
 48
0.011969
100
AcDbLine
 10
223.638733
 20
104.082848
 30
0.0
 11
223.79451
 21
104.535568
 31
0.0
210
0.0
220
0.0
230
1.0
  0
LINE
  5
286
100
AcDbEntity
  8
0
 62
     7
 48
0.011844
100
AcDbLine
 10
223.79451
 20
104.535568
 30
0.0
 11
223.957779
 21
104.980286
 31
0.0
210
0.0
220
0.0
230
1.0
  0
LINE
  5
287
100
AcDbEntity
  8
0
 62
     7
 48
0.01873
100
AcDbLine
 10
223.957779
 20
104.980286
 30
0.0
 11
224.235001
 21
105.6763
 31
0.0
210
0.0
220
0.0
230
1.0
  0
LINE
  5
288
100
AcDbEntity
  8
0
 62
     7
 48
0.018442
100
AcDbLine
 10
224.235001
 20
105.6763
 30
0.0
 11
224.530121
 21
106.352371
 31
0.0
210
0.0
220
0.0
230
1.0
  0
LINE
  5
289
100
AcDbEntity
  8
0
 62
     7
 48
0.018187
100
AcDbLine
 10
224.530121
 20
106.352371
 30
0.0
 11
224.841614
 21
107.009796
 31
0.0
210
0.0
220
0.0
230
1.0
  0
LINE
  5
28A
100
AcDbEntity
  8
0
 62
     7
 48
0.017962
100
AcDbLine
 10
224.841614
 20
107.009796
 30
0.0
 11
225.167969
 21
107.649895
 31
0.0
210
0.0
220
0.0
230
1.0
  0
LINE
  5
28B
100
AcDbEntity
  8
0
 62
     7
 48
0.017764
100
AcDbLine
 10
225.167969
 20
107.649895
 30
0.0
 11
225.507706
 21
108.273972
 31
0.0
210
0.0
220
0.0
230
1.0
  0
LINE
  5
28C
100
AcDbEntity
  8
0
 62
     7
 48
0.017588
100
AcDbLine
 10
225.507706
 20
108.273972
 30
0.0
 11
225.859314
 21
108.883347
 31
0.0
210
0.0
220
0.0
230
1.0
  0
LINE
  5
28D
100
AcDbEntity
  8
0
 62
     7
 48
0.017432
100
AcDbLine
 10
225.859314
 20
108.883347
 30
0.0
 11
226.221283
 21
109.479324
 31
0.0
210
0.0
220
0.0
230
1.0
  0
LINE
  5
28E
100
AcDbEntity
  8
0
 62
     7
 48
0.017293
100
AcDbLine
 10
226.221283
 20
109.479324
 30
0.0
 11
226.592117
 21
110.063217
 31
0.0
210
0.0
220
0.0
230
1.0
  0
LINE
  5
28F
100
AcDbEntity
  8
0
 62
     7
 48
0.034217
100
AcDbLine
 10
226.592117
 20
110.063217
 30
0.0
 11
227.354355
 21
111.199997
 31
0.0
210
0.0
220
0.0
230
1.0
  0
LINE
  5
290
100
AcDbEntity
  8
0
 62
     7
 48
0.188414
100
AcDbLine
 10
227.354355
 20
111.199997
 30
0.0
 11
231.716919
 21
117.345528
 31
0.0
210
0.0
220
0.0
230
1.0
  0
LINE
  5
291
100
AcDbEntity
  8
0
 62
     7
 48
0.086863
100
AcDbLine
 10
231.716919
 20
117.345528
 30
0.0
 11
233.617569
 21
120.25412
 31
0.0
210
0.0
220
0.0
230
1.0
  0
LINE
  5
292
100
AcDbEntity
  8
0
 62
     7
 48
0.086522
100
AcDbLine
 10
233.617569
 20
120.25412
 30
0.0
 11
235.417007
 21
123.210426
 31
0.0
210
0.0
220
0.0
230
1.0
  0
LINE
  5
293
100
AcDbEntity
  8
0
 62
     7
 48
0.087098
100
AcDbLine
 10
235.417007
 20
123.210426
 30
0.0
 11
237.132935
 21
126.242462
 31
0.0
210
0.0
220
0.0
230
1.0
  0
LINE
  5
294
100
AcDbEntity
  8
0
 62
     7
 48
0.075961
100
AcDbLine
 10
237.132935
 20
126.242462
 30
0.0
 11
238.549454
 21
128.930496
 31
0.0
210
0.0
220
0.0
230
1.0
  0
LINE
  5
295
100
AcDbEntity
  8
0
 62
     7
 48
0.038082
100
AcDbLine
 10
238.549454
 20
128.930496
 30
0.0
 11
239.226135
 21
130.295212
 31
0.0
210
0.0
220
0.0
230
1.0
  0
LINE
  5
296
100
AcDbEntity
  8
0
 62
     7
 48
0.037988
100
AcDbLine
 10
239.226135
 20
130.295212
 30
0.0
 11
239.87471
 21
131.669357
 31
0.0
210
0.0
220
0.0
230
1.0
  0
LINE
  5
297
100
AcDbEntity
  8
0
 62
     7
 48
0.037779
100
AcDbLine
 10
239.87471
 20
131.669357
 30
0.0
 11
240.489883
 21
133.049637
 31
0.0
210
0.0
220
0.0
230
1.0
  0
LINE
  5
298
100
AcDbEntity
  8
0
 62
     7
 48
0.037462
100
AcDbLine
 10
240.489883
 20
133.049637
 30
0.0
 11
241.066345
 21
134.432785
 31
0.0
210
0.0
220
0.0
230
1.0
  0
LINE
  5
299
100
AcDbEntity
  8
0
 62
     7
 48
0.037043
100
AcDbLine
 10
241.066345
 20
134.432785
 30
0.0
 11
241.598816
 21
135.815521
 31
0.0
210
0.0
220
0.0
230
1.0
  0
LINE
  5
29A
100
AcDbEntity
  8
0
 62
     7
 48
0.036531
100
AcDbLine
 10
241.598816
 20
135.815521
 30
0.0
 11
242.081985
 21
137.194565
 31
0.0
210
0.0
220
0.0
230
1.0
  0
LINE
  5
29B
100
AcDbEntity
  8
0
 62
     7
 48
0.264215
100
AcDbLine
 10
242.081985
 20
137.194565
 30
0.0
 11
244.150635
 21
126.830391
 31
0.0
210
0.0
220
0.0
230
1.0
  0
LINE
  5
29C
100
AcDbEntity
  8
0
 62
     7
 48
0.15
100
AcDbLine
 10
244.150635
 20
126.830391
 30
0.0
 11
250.034576
 21
128.004807
 31
0.0
210
0.0
220
0.0
230
1.0
  0
LINE
  5
29D
100
AcDbEntity
  8
0
 62
     7
 48
0.204767
100
AcDbLine
 10
250.034576
 20
128.004807
 30
0.0
 11
251.637787
 21
119.972572
 31
0.0
210
0.0
220
0.0
230
1.0
  0
LINE
  5
29E
100
AcDbEntity
  8
0
 62
     7
 48
0.003046
100
AcDbLine
 10
251.637787
 20
119.972572
 30
0.0
 11
251.52327
 21
119.931015
 31
0.0
210
0.0
220
0.0
230
1.0
  0
LINE
  5
29F
100
AcDbEntity
  8
0
 62
     7
 48
0.003194
100
AcDbLine
 10
251.52327
 20
119.931015
 30
0.0
 11
251.404312
 21
119.884468
 31
0.0
210
0.0
220
0.0
230
1.0
  0
LINE
  5
2A0
100
AcDbEntity
  8
0
 62
     7
 48
0.00334
100
AcDbLine
 10
251.404312
 20
119.884468
 30
0.0
 11
251.280991
 21
119.833031
 31
0.0
210
0.0
220
0.0
230
1.0
  0
LINE
  5
2A1
100
AcDbEntity
  8
0
 62
     7
 48
0.003485
100
AcDbLine
 10
251.280991
 20
119.833031
 30
0.0
 11
251.153442
 21
119.776779
 31
0.0
210
0.0
220
0.0
230
1.0
  0
LINE
  5
2A2
100
AcDbEntity
  8
0
 62
     7
 48
0.007396
100
AcDbLine
 10
251.153442
 20
119.776779
 30
0.0
 11
250.886063
 21
119.650215
 31
0.0
210
0.0
220
0.0
230
1.0
  0
LINE
  5
2A3
100
AcDbEntity
  8
0
 62
     7
 48
0.007947
100
AcDbLine
 10
250.886063
 20
119.650215
 30
0.0
 11
250.603027
 21
119.505501
 31
0.0
210
0.0
220
0.0
230
1.0
  0
LINE
  5
2A4
100
AcDbEntity
  8
0
 62
     7
 48
0.008478
100
AcDbLine
 10
250.603027
 20
119.505501
 30
0.0
 11
250.305176
 21
119.343353
 31
0.0
210
0.0
220
0.0
230
1.0
  0
LINE
  5
2A5
100
AcDbEntity
  8
0
 62
     7
 48
0.008986
100
AcDbLine
 10
250.305176
 20
119.343353
 30
0.0
 11
249.993393
 21
119.164497
 31
0.0
210
0.0
220
0.0
230
1.0
  0
LINE
  5
2A6
100
AcDbEntity
  8
0
 62
     7
 48
0.0194
100
AcDbLine
 10
249.993393
 20
119.164497
 30
0.0
 11
249.331436
 21
118.759521
 31
0.0
210
0.0
220
0.0
230
1.0
  0
LINE
  5
2A7
100
AcDbEntity
  8
0
 62
     7
 48
0.021139
100
AcDbLine
 10
249.331436
 20
118.759521
 30
0.0
 11
248.624054
 21
118.296326
 31
0.0
210
0.0
220
0.0
230
1.0
  0
LINE
  5
2A8
100
AcDbEntity
  8
0
 62
     7
 48
0.02267
100
AcDbLine
 10
248.624054
 20
118.296326
 30
0.0
 11
247.878113
 21
117.780678
 31
0.0
210
0.0
220
0.0
230
1.0
  0
LINE
  5
2A9
100
AcDbEntity
  8
0
 62
     7
 48
0.023991
100
AcDbLine
 10
247.878113
 20
117.780678
 30
0.0
 11
247.100525
 21
117.21833
 31
0.0
210
0.0
220
0.0
230
1.0
  0
LINE
  5
2AA
100
AcDbEntity
  8
0
 62
     7
 48
0.025097
100
AcDbLine
 10
247.100525
 20
117.21833
 30
0.0
 11
246.298157
 21
116.615044
 31
0.0
210
0.0
220
0.0
230
1.0
  0
LINE
  5
2AB
100
AcDbEntity
  8
0
 62
     7
 48
0.052643
100
AcDbLine
 10
246.298157
 20
116.615044
 30
0.0
 11
244.646667
 21
115.30867
 31
0.0
210
0.0
220
0.0
230
1.0
  0
LINE
  5
2AC
100
AcDbEntity
  8
0
 62
     7
 48
0.054457
100
AcDbLine
 10
244.646667
 20
115.30867
 30
0.0
 11
242.978745
 21
113.907623
 31
0.0
210
0.0
220
0.0
230
1.0
  0
LINE
  5
2AD
100
AcDbEntity
  8
0
 62
     7
 48
0.054521
100
AcDbLine
 10
242.978745
 20
113.907623
 30
0.0
 11
241.349472
 21
112.457962
 31
0.0
210
0.0
220
0.0
230
1.0
  0
LINE
  5
2AE
100
AcDbEntity
  8
0
 62
     7
 48
0.052837
100
AcDbLine
 10
241.349472
 20
112.457962
 30
0.0
 11
239.81395
 21
111.005753
 31
0.0
210
0.0
220
0.0
230
1.0
  0
LINE
  5
2AF
100
AcDbEntity
  8
0
 62
     7
 48
0.02902
100
AcDbLine
 10
239.81395
 20
111.005753
 30
0.0
 11
238.992508
 21
110.185593
 31
0.0
210
0.0
220
0.0
230
1.0
  0
LINE
  5
2B0
100
AcDbEntity
  8
0
 62
     7
 48
0.027946
100
AcDbLine
 10
238.992508
 20
110.185593
 30
0.0
 11
238.218353
 21
109.379211
 31
0.0
210
0.0
220
0.0
230
1.0
  0
LINE
  5
2B1
100
AcDbEntity
  8
0
 62
     7
 48
0.026931
100
AcDbLine
 10
238.218353
 20
109.379211
 30
0.0
 11
237.489517
 21
108.585983
 31
0.0
210
0.0
220
0.0
230
1.0
  0
LINE
  5
2B2
100
AcDbEntity
  8
0
 62
     7
 48
0.025972
100
AcDbLine
 10
237.489517
 20
108.585983
 30
0.0
 11
236.804062
 21
107.805305
 31
0.0
210
0.0
220
0.0
230
1.0
  0
LINE
  5
2B3
100
AcDbEntity
  8
0
 62
     7
 48
0.025073
100
AcDbLine
 10
236.804062
 20
107.805305
 30
0.0
 11
236.159988
 21
107.036545
 31
0.0
210
0.0
220
0.0
230
1.0
  0
LINE
  5
2B4
100
AcDbEntity
  8
0
 62
     7
 48
0.024229
100
AcDbLine
 10
236.159988
 20
107.036545
 30
0.0
 11
235.555359
 21
106.279099
 31
0.0
210
0.0
220
0.0
230
1.0
  0
LINE
  5
2B5
100
AcDbEntity
  8
0
 62
     7
 48
0.023443
100
AcDbLine
 10
235.555359
 20
106.279099
 30
0.0
 11
234.98822
 21
105.532333
 31
0.0
210
0.0
220
0.0
230
1.0
  0
LINE
  5
2B6
100
AcDbEntity
  8
0
 62
     7
 48
0.022712
100
AcDbLine
 10
234.98822
 20
105.532333
 30
0.0
 11
234.456573
 21
104.795654
 31
0.0
210
0.0
220
0.0
230
1.0
  0
LINE
  5
2B7
100
AcDbEntity
  8
0
 62
     7
 48
0.022037
100
AcDbLine
 10
234.456573
 20
104.795654
 30
0.0
 11
233.958481
 21
104.068413
 31
0.0
210
0.0
220
0.0
230
1.0
  0
LINE
  5
2B8
100
AcDbEntity
  8
0
 62
     7
 48
0.021415
100
AcDbLine
 10
233.958481
 20
104.068413
 30
0.0
 11
233.491959
 21
103.350006
 31
0.0
210
0.0
220
0.0
230
1.0
  0
LINE
  5
2B9
100
AcDbEntity
  8
0
 62
     7
 48
0.020845
100
AcDbLine
 10
233.491959
 20
103.350006
 30
0.0
 11
233.055069
 21
102.639832
 31
0.0
210
0.0
220
0.0
230
1.0
  0
LINE
  5
2BA
100
AcDbEntity
  8
0
 62
     7
 48
0.020327
100
AcDbLine
 10
233.055069
 20
102.639832
 30
0.0
 11
232.645844
 21
101.937241
 31
0.0
210
0.0
220
0.0
230
1.0
  0
LINE
  5
2BB
100
AcDbEntity
  8
0
 62
     7
 48
0.019858
100
AcDbLine
 10
232.645844
 20
101.937241
 30
0.0
 11
232.262299
 21
101.241638
 31
0.0
210
0.0
220
0.0
230
1.0
  0
LINE
  5
2BC
100
AcDbEntity
  8
0
 62
     7
 48
0.019438
100
AcDbLine
 10
232.262299
 20
101.241638
 30
0.0
 11
231.902496
 21
100.552399
 31
0.0
210
0.0
220
0.0
230
1.0
  0
LINE
  5
2BD
100
AcDbEntity
  8
0
 62
     7
 48
0.019063
100
AcDbLine
 10
231.902496
 20
100.552399
 30
0.0
 11
231.564453
 21
99.868896
 31
0.0
210
0.0
220
0.0
230
1.0
  0
LINE
  5
2BE
100
AcDbEntity
  8
0
 62
     7
 48
0.018733
100
AcDbLine
 10
231.564453
 20
99.868896
 30
0.0
 11
231.246216
 21
99.190521
 31
0.0
210
0.0
220
0.0
230
1.0
  0
LINE
  5
2BF
100
AcDbEntity
  8
0
 62
     7
 48
0.024212
100
AcDbLine
 10
231.246216
 20
99.190521
 30
0.0
 11
230.854767
 21
98.304672
 31
0.0
210
0.0
220
0.0
230
1.0
  0
LINE
  5
2C0
100
AcDbEntity
  8
0
 62
     7
 48
0.023726
100
AcDbLine
 10
230.854767
 20
98.304672
 30
0.0
 11
230.49321
 21
97.4272
 31
0.0
210
0.0
220
0.0
230
1.0
  0
LINE
  5
2C1
100
AcDbEntity
  8
0
 62
     7
 48
0.023252
100
AcDbLine
 10
230.49321
 20
97.4272
 30
0.0
 11
230.160522
 21
96.55867
 31
0.0
210
0.0
220
0.0
230
1.0
  0
LINE
  5
2C2
100
AcDbEntity
  8
0
 62
     7
 48
0.022787
100
AcDbLine
 10
230.160522
 20
96.55867
 30
0.0
 11
229.855713
 21
95.699661
 31
0.0
210
0.0
220
0.0
230
1.0
  0
LINE
  5
2C3
100
AcDbEntity
  8
0
 62
     7
 48
0.022332
100
AcDbLine
 10
229.855713
 20
95.699661
 30
0.0
 11
229.577759
 21
94.850746
 31
0.0
210
0.0
220
0.0
230
1.0
  0
LINE
  5
2C4
100
AcDbEntity
  8
0
 62
     7
 48
0.021884
100
AcDbLine
 10
229.577759
 20
94.850746
 30
0.0
 11
229.325623
 21
94.012482
 31
0.0
210
0.0
220
0.0
230
1.0
  0
LINE
  5
2C5
100
AcDbEntity
  8
0
 62
     7
 48
0.021443
100
AcDbLine
 10
229.325623
 20
94.012482
 30
0.0
 11
229.098297
 21
93.18544
 31
0.0
210
0.0
220
0.0
230
1.0
  0
LINE
  5
2C6
100
AcDbEntity
  8
0
 62
     7
 48
0.021007
100
AcDbLine
 10
229.098297
 20
93.18544
 30
0.0
 11
228.894775
 21
92.370193
 31
0.0
210
0.0
220
0.0
230
1.0
  0
LINE
  5
2C7
100
AcDbEntity
  8
0
 62
     7
 48
0.020574
100
AcDbLine
 10
228.894775
 20
92.370193
 30
0.0
 11
228.714035
 21
91.567307
 31
0.0
210
0.0
220
0.0
230
1.0
  0
LINE
  5
2C8
100
AcDbEntity
  8
0
 62
     7
 48
0.020145
100
AcDbLine
 10
228.714035
 20
91.567307
 30
0.0
 11
228.555054
 21
90.777359
 31
0.0
210
0.0
220
0.0
230
1.0
  0
LINE
  5
2C9
100
AcDbEntity
  8
0
 62
     7
 48
0.019717
100
AcDbLine
 10
228.555054
 20
90.777359
 30
0.0
 11
228.416824
 21
90.0009
 31
0.0
210
0.0
220
0.0
230
1.0
  0
LINE
  5
2CA
100
AcDbEntity
  8
0
 62
     7
 48
0.019289
100
AcDbLine
 10
228.416824
 20
90.0009
 30
0.0
 11
228.298325
 21
89.23851
 31
0.0
210
0.0
220
0.0
230
1.0
  0
LINE
  5
2CB
100
AcDbEntity
  8
0
 62
     7
 48
0.01886
100
AcDbLine
 10
228.298325
 20
89.23851
 30
0.0
 11
228.198547
 21
88.490753
 31
0.0
210
0.0
220
0.0
230
1.0
  0
LINE
  5
2CC
100
AcDbEntity
  8
0
 62
     7
 48
0.018428
100
AcDbLine
 10
228.198547
 20
88.490753
 30
0.0
 11
228.11647
 21
87.758209
 31
0.0
210
0.0
220
0.0
230
1.0
  0
LINE
  5
2CD
100
AcDbEntity
  8
0
 62
     7
 48
0.017994
100
AcDbLine
 10
228.11647
 20
87.758209
 30
0.0
 11
228.051071
 21
87.041428
 31
0.0
210
0.0
220
0.0
230
1.0
  0
LINE
  5
2CE
100
AcDbEntity
  8
0
 62
     7
 48
0.017555
100
AcDbLine
 10
228.051071
 20
87.041428
 30
0.0
 11
228.001343
 21
86.340988
 31
0.0
210
0.0
220
0.0
230
1.0
  0
LINE
  5
2CF
100
AcDbEntity
  8
0
 62
     7
 48
0.017111
100
AcDbLine
 10
228.001343
 20
86.340988
 30
0.0
 11
227.966263
 21
85.657463
 31
0.0
210
0.0
220
0.0
230
1.0
  0
LINE
  5
2D0
100
AcDbEntity
  8
0
 62
     7
 48
0.01666
100
AcDbLine
 10
227.966263
 20
85.657463
 30
0.0
 11
227.944809
 21
84.991409
 31
0.0
210
0.0
220
0.0
230
1.0
  0
LINE
  5
2D1
100
AcDbEntity
  8
0
 62
     7
 48
0.016201
100
AcDbLine
 10
227.944809
 20
84.991409
 30
0.0
 11
227.935989
 21
84.343414
 31
0.0
210
0.0
220
0.0
230
1.0
  0
LINE
  5
2D2
100
AcDbEntity
  8
0
 62
     7
 48
0.015735
100
AcDbLine
 10
227.935989
 20
84.343414
 30
0.0
 11
227.938766
 21
83.714027
 31
0.0
210
0.0
220
0.0
230
1.0
  0
LINE
  5
2D3
100
AcDbEntity
  8
0
 62
     7
 48
0.03003
100
AcDbLine
 10
227.938766
 20
83.714027
 30
0.0
 11
227.975052
 21
82.513382
 31
0.0
210
0.0
220
0.0
230
1.0
  0
LINE
  5
2D4
100
AcDbEntity
  8
0
 62
     7
 48
0.02804
100
AcDbLine
 10
227.975052
 20
82.513382
 30
0.0
 11
228.045547
 21
81.394012
 31
0.0
210
0.0
220
0.0
230
1.0
  0
LINE
  5
2D5
100
AcDbEntity
  8
0
 62
     7
 48
0.025951
100
AcDbLine
 10
228.045547
 20
81.394012
 30
0.0
 11
228.142136
 21
80.360474
 31
0.0
210
0.0
220
0.0
230
1.0
  0
LINE
  5
2D6
100
AcDbEntity
  8
0
 62
     7
 48
0.023752
100
AcDbLine
 10
228.142136
 20
80.360474
 30
0.0
 11
228.256653
 21
79.417328
 31
0.0
210
0.0
220
0.0
230
1.0
  0
LINE
  5
2D7
100
AcDbEntity
  8
0
 62
     7
 48
0.021432
100
AcDbLine
 10
228.256653
 20
79.417328
 30
0.0
 11
228.381012
 21
78.569107
 31
0.0
210
0.0
220
0.0
230
1.0
  0
LINE
  5
2D8
100
AcDbEntity
  8
0
 62
     7
 48
0.018982
100
AcDbLine
 10
228.381012
 20
78.569107
 30
0.0
 11
228.50705
 21
77.820358
 31
0.0
210
0.0
220
0.0
230
1.0
  0
LINE
  5
2D9
100
AcDbEntity
  8
0
 62
     7
 48
0.15
100
AcDbLine
 10
240.378479
 20
53.934673
 30
0.0
 11
236.419434
 21
49.426239
 31
0.0
210
0.0
220
0.0
230
1.0
  0
LINE
  5
2DA
100
AcDbEntity
  8
0
 62
     7
 48
0.1
100
AcDbLine
 10
236.419434
 20
49.426239
 30
0.0
 11
239.425064
 21
46.786873
 31
0.0
210
0.0
220
0.0
230
1.0
  0
LINE
  5
2DB
100
AcDbEntity
  8
0
 62
     7
 48
0.024019
100
AcDbLine
 10
239.425064
 20
46.786873
 30
0.0
 11
240.174042
 21
47.388641
 31
0.0
210
0.0
220
0.0
230
1.0
  0
LINE
  5
2DC
100
AcDbEntity
  8
0
 62
     7
 48
0.024631
100
AcDbLine
 10
240.174042
 20
47.388641
 30
0.0
 11
240.926971
 21
48.024071
 31
0.0
210
0.0
220
0.0
230
1.0
  0
LINE
  5
2DD
100
AcDbEntity
  8
0
 62
     7
 48
0.025202
100
AcDbLine
 10
240.926971
 20
48.024071
 30
0.0
 11
241.682373
 21
48.691628
 31
0.0
210
0.0
220
0.0
230
1.0
  0
LINE
  5
2DE
100
AcDbEntity
  8
0
 62
     7
 48
0.025734
100
AcDbLine
 10
241.682373
 20
48.691628
 30
0.0
 11
242.438751
 21
49.389801
 31
0.0
210
0.0
220
0.0
230
1.0
  0
LINE
  5
2DF
100
AcDbEntity
  8
0
 62
     7
 48
0.026222
100
AcDbLine
 10
242.438751
 20
49.389801
 30
0.0
 11
243.194565
 21
50.117058
 31
0.0
210
0.0
220
0.0
230
1.0
  0
LINE
  5
2E0
100
AcDbEntity
  8
0
 62
     7
 48
0.026669
100
AcDbLine
 10
243.194565
 20
50.117058
 30
0.0
 11
243.948334
 21
50.871887
 31
0.0
210
0.0
220
0.0
230
1.0
  0
LINE
  5
2E1
100
AcDbEntity
  8
0
 62
     7
 48
0.027071
100
AcDbLine
 10
243.948334
 20
50.871887
 30
0.0
 11
244.698547
 21
51.652748
 31
0.0
210
0.0
220
0.0
230
1.0
  0
LINE
  5
2E2
100
AcDbEntity
  8
0
 62
     7
 48
0.027431
100
AcDbLine
 10
244.698547
 20
51.652748
 30
0.0
 11
245.44371
 21
52.45813
 31
0.0
210
0.0
220
0.0
230
1.0
  0
LINE
  5
2E3
100
AcDbEntity
  8
0
 62
     7
 48
0.027746
100
AcDbLine
 10
245.44371
 20
52.45813
 30
0.0
 11
246.182297
 21
53.286507
 31
0.0
210
0.0
220
0.0
230
1.0
  0
LINE
  5
2E4
100
AcDbEntity
  8
0
 62
     7
 48
0.028017
100
AcDbLine
 10
246.182297
 20
53.286507
 30
0.0
 11
246.912827
 21
54.136353
 31
0.0
210
0.0
220
0.0
230
1.0
  0
LINE
  5
2E5
100
AcDbEntity
  8
0
 62
     7
 48
0.028243
100
AcDbLine
 10
246.912827
 20
54.136353
 30
0.0
 11
247.633774
 21
55.006142
 31
0.0
210
0.0
220
0.0
230
1.0
  0
LINE
  5
2E6
100
AcDbEntity
  8
0
 62
     7
 48
0.028426
100
AcDbLine
 10
247.633774
 20
55.006142
 30
0.0
 11
248.343643
 21
55.89436
 31
0.0
210
0.0
220
0.0
230
1.0
  0
LINE
  5
2E7
100
AcDbEntity
  8
0
 62
     7
 48
0.028564
100
AcDbLine
 10
248.343643
 20
55.89436
 30
0.0
 11
249.040939
 21
56.799473
 31
0.0
210
0.0
220
0.0
230
1.0
  0
LINE
  5
2E8
100
AcDbEntity
  8
0
 62
     7
 48
0.028658
100
AcDbLine
 10
249.040939
 20
56.799473
 30
0.0
 11
249.724152
 21
57.719963
 31
0.0
210
0.0
220
0.0
230
1.0
  0
LINE
  5
2E9
100
AcDbEntity
  8
0
 62
     7
 48
0.028709
100
AcDbLine
 10
249.724152
 20
57.719963
 30
0.0
 11
250.391769
 21
58.654305
 31
0.0
210
0.0
220
0.0
230
1.0
  0
LINE
  5
2EA
100
AcDbEntity
  8
0
 62
     7
 48
0.028716
100
AcDbLine
 10
250.391769
 20
58.654305
 30
0.0
 11
251.042297
 21
59.600975
 31
0.0
210
0.0
220
0.0
230
1.0
  0
LINE
  5
2EB
100
AcDbEntity
  8
0
 62
     7
 48
0.02868
100
AcDbLine
 10
251.042297
 20
59.600975
 30
0.0
 11
251.674225
 21
60.558453
 31
0.0
210
0.0
220
0.0
230
1.0
  0
LINE
  5
2EC
100
AcDbEntity
  8
0
 62
     7
 48
0.028602
100
AcDbLine
 10
251.674225
 20
60.558453
 30
0.0
 11
252.286041
 21
61.525211
 31
0.0
210
0.0
220
0.0
230
1.0
  0
LINE
  5
2ED
100
AcDbEntity
  8
0
 62
     7
 48
0.028483
100
AcDbLine
 10
252.286041
 20
61.525211
 30
0.0
 11
252.876251
 21
62.499725
 31
0.0
210
0.0
220
0.0
230
1.0
  0
LINE
  5
2EE
100
AcDbEntity
  8
0
 62
     7
 48
0.028323
100
AcDbLine
 10
252.876251
 20
62.499725
 30
0.0
 11
253.443359
 21
63.480476
 31
0.0
210
0.0
220
0.0
230
1.0
  0
LINE
  5
2EF
100
AcDbEntity
  8
0
 62
     7
 48
0.028123
100
AcDbLine
 10
253.443359
 20
63.480476
 30
0.0
 11
253.98584
 21
64.465942
 31
0.0
210
0.0
220
0.0
230
1.0
  0
LINE
  5
2F0
100
AcDbEntity
  8
0
 62
     7
 48
0.027884
100
AcDbLine
 10
253.98584
 20
64.465942
 30
0.0
 11
254.502213
 21
65.45459
 31
0.0
210
0.0
220
0.0
230
1.0
  0
LINE
  5
2F1
100
AcDbEntity
  8
0
 62
     7
 48
0.027609
100
AcDbLine
 10
254.502213
 20
65.45459
 30
0.0
 11
254.990952
 21
66.444901
 31
0.0
210
0.0
220
0.0
230
1.0
  0
LINE
  5
2F2
100
AcDbEntity
  8
0
 62
     7
 48
0.027297
100
AcDbLine
 10
254.990952
 20
66.444901
 30
0.0
 11
255.450562
 21
67.435356
 31
0.0
210
0.0
220
0.0
230
1.0
  0
LINE
  5
2F3
100
AcDbEntity
  8
0
 62
     7
 48
0.026952
100
AcDbLine
 10
255.450562
 20
67.435356
 30
0.0
 11
255.879532
 21
68.424423
 31
0.0
210
0.0
220
0.0
230
1.0
  0
LINE
  5
2F4
100
AcDbEntity
  8
0
 62
     7
 48
0.026575
100
AcDbLine
 10
255.879532
 20
68.424423
 30
0.0
 11
256.276367
 21
69.410591
 31
0.0
210
0.0
220
0.0
230
1.0
  0
LINE
  5
2F5
100
AcDbEntity
  8
0
 62
     7
 48
0.026169
100
AcDbLine
 10
256.276367
 20
69.410591
 30
0.0
 11
256.639557
 21
70.392326
 31
0.0
210
0.0
220
0.0
230
1.0
  0
LINE
  5
2F6
100
AcDbEntity
  8
0
 62
     7
 48
0.025736
100
AcDbLine
 10
256.639557
 20
70.392326
 30
0.0
 11
256.967621
 21
71.368103
 31
0.0
210
0.0
220
0.0
230
1.0
  0
LINE
  5
2F7
100
AcDbEntity
  8
0
 62
     7
 48
0.02528
100
AcDbLine
 10
256.967621
 20
71.368103
 30
0.0
 11
257.259003
 21
72.336411
 31
0.0
210
0.0
220
0.0
230
1.0
  0
LINE
  5
2F8
100
AcDbEntity
  8
0
 62
     7
 48
0.012463
100
AcDbLine
 10
257.259003
 20
72.336411
 30
0.0
 11
257.390472
 21
72.817276
 31
0.0
210
0.0
220
0.0
230
1.0
  0
LINE
  5
2F9
100
AcDbEntity
  8
0
 62
     7
 48
0.012342
100
AcDbLine
 10
257.390472
 20
72.817276
 30
0.0
 11
257.512238
 21
73.295715
 31
0.0
210
0.0
220
0.0
230
1.0
  0
LINE
  5
2FA
100
AcDbEntity
  8
0
 62
     7
 48
0.012219
100
AcDbLine
 10
257.512238
 20
73.295715
 30
0.0
 11
257.624084
 21
73.771515
 31
0.0
210
0.0
220
0.0
230
1.0
  0
LINE
  5
2FB
100
AcDbEntity
  8
0
 62
     7
 48
0.012095
100
AcDbLine
 10
257.624084
 20
73.771515
 30
0.0
 11
257.7258
 21
74.244492
 31
0.0
210
0.0
220
0.0
230
1.0
  0
LINE
  5
2FC
100
AcDbEntity
  8
0
 62
     7
 48
0.01197
100
AcDbLine
 10
257.7258
 20
74.244492
 30
0.0
 11
257.817261
 21
74.714455
 31
0.0
210
0.0
220
0.0
230
1.0
  0
LINE
  5
2FD
100
AcDbEntity
  8
0
 62
     7
 48
0.011843
100
AcDbLine
 10
257.817261
 20
74.714455
 30
0.0
 11
257.898224
 21
75.181213
 31
0.0
210
0.0
220
0.0
230
1.0
  0
LINE
  5
2FE
100
AcDbEntity
  8
0
 62
     7
 48
0.01873
100
AcDbLine
 10
257.898224
 20
75.181213
 30
0.0
 11
258.006134
 21
75.922607
 31
0.0
210
0.0
220
0.0
230
1.0
  0
LINE
  5
2FF
100
AcDbEntity
  8
0
 62
     7
 48
0.018442
100
AcDbLine
 10
258.006134
 20
75.922607
 30
0.0
 11
258.088593
 21
76.655655
 31
0.0
210
0.0
220
0.0
230
1.0
  0
LINE
  5
300
100
AcDbEntity
  8
0
 62
     7
 48
0.018187
100
AcDbLine
 10
258.088593
 20
76.655655
 30
0.0
 11
258.147552
 21
77.380745
 31
0.0
210
0.0
220
0.0
230
1.0
  0
LINE
  5
301
100
AcDbEntity
  8
0
 62
     7
 48
0.017962
100
AcDbLine
 10
258.147552
 20
77.380745
 30
0.0
 11
258.184967
 21
78.098267
 31
0.0
210
0.0
220
0.0
230
1.0
  0
LINE
  5
302
100
AcDbEntity
  8
0
 62
     7
 48
0.017764
100
AcDbLine
 10
258.184967
 20
78.098267
 30
0.0
 11
258.202789
 21
78.808609
 31
0.0
210
0.0
220
0.0
230
1.0
  0
LINE
  5
303
100
AcDbEntity
  8
0
 62
     7
 48
0.017588
100
AcDbLine
 10
258.202789
 20
78.808609
 30
0.0
 11
258.202972
 21
79.512138
 31
0.0
210
0.0
220
0.0
230
1.0
  0
LINE
  5
304
100
AcDbEntity
  8
0
 62
     7
 48
0.017432
100
AcDbLine
 10
258.202972
 20
79.512138
 30
0.0
 11
258.1875
 21
80.209259
 31
0.0
210
0.0
220
0.0
230
1.0
  0
LINE
  5
305
100
AcDbEntity
  8
0
 62
     7
 48
0.017292
100
AcDbLine
 10
258.1875
 20
80.209259
 30
0.0
 11
258.158295
 21
80.900337
 31
0.0
210
0.0
220
0.0
230
1.0
  0
LINE
  5
306
100
AcDbEntity
  8
0
 62
     7
 48
0.034217
100
AcDbLine
 10
258.158295
 20
80.900337
 30
0.0
 11
258.066559
 21
82.26593
 31
0.0
210
0.0
220
0.0
230
1.0
  0
LINE
  5
307
100
AcDbEntity
  8
0
 62
     7
 48
0.188414
100
AcDbLine
 10
258.066559
 20
82.26593
 30
0.0
 11
257.361237
 21
89.769402
 31
0.0
210
0.0
220
0.0
230
1.0
  0
LINE
  5
308
100
AcDbEntity
  8
0
 62
     7
 48
0.086863
100
AcDbLine
 10
257.361237
 20
89.769402
 30
0.0
 11
257.169525
 21
93.23864
 31
0.0
210
0.0
220
0.0
230
1.0
  0
LINE
  5
309
100
AcDbEntity
  8
0
 62
     7
 48
0.086522
100
AcDbLine
 10
257.169525
 20
93.23864
 30
0.0
 11
257.089325
 21
96.698593
 31
0.0
210
0.0
220
0.0
230
1.0
  0
LINE
  5
30A
100
AcDbEntity
  8
0
 62
     7
 48
0.087098
100
AcDbLine
 10
257.089325
 20
96.698593
 30
0.0
 11
257.119293
 21
100.182388
 31
0.0
210
0.0
220
0.0
230
1.0
  0
LINE
  5
30B
100
AcDbEntity
  8
0
 62
     7
 48
0.075961
100
AcDbLine
 10
257.119293
 20
100.182388
 30
0.0
 11
257.236572
 21
103.218552
 31
0.0
210
0.0
220
0.0
230
1.0
  0
LINE
  5
30C
100
AcDbEntity
  8
0
 62
     7
 48
0.038082
100
AcDbLine
 10
257.236572
 20
103.218552
 30
0.0
 11
257.332916
 21
104.73877
 31
0.0
210
0.0
220
0.0
230
1.0
  0
LINE
  5
30D
100
AcDbEntity
  8
0
 62
     7
 48
0.037988
100
AcDbLine
 10
257.332916
 20
104.73877
 30
0.0
 11
257.458282
 21
106.253098
 31
0.0
210
0.0
220
0.0
230
1.0
  0
LINE
  5
30E
100
AcDbEntity
  8
0
 62
     7
 48
0.037779
100
AcDbLine
 10
257.458282
 20
106.253098
 30
0.0
 11
257.615692
 21
107.756042
 31
0.0
210
0.0
220
0.0
230
1.0
  0
LINE
  5
30F
100
AcDbEntity
  8
0
 62
     7
 48
0.037462
100
AcDbLine
 10
257.615692
 20
107.756042
 30
0.0
 11
257.808014
 21
109.242119
 31
0.0
210
0.0
220
0.0
230
1.0
  0
LINE
  5
310
100
AcDbEntity
  8
0
 62
     7
 48
0.037043
100
AcDbLine
 10
257.808014
 20
109.242119
 30
0.0
 11
258.038269
 21
110.705833
 31
0.0
210
0.0
220
0.0
230
1.0
  0
LINE
  5
311
100
AcDbEntity
  8
0
 62
     7
 48
0.036531
100
AcDbLine
 10
258.038269
 20
110.705833
 30
0.0
 11
258.309357
 21
112.141701
 31
0.0
210
0.0
220
0.0
230
1.0
  0
LINE
  5
312
100
AcDbEntity
  8
0
 62
     7
 48
0.264215
100
AcDbLine
 10
258.309357
 20
112.141701
 30
0.0
 11
251.335754
 21
104.200394
 31
0.0
210
0.0
220
0.0
230
1.0
  0
LINE
  5
313
100
AcDbEntity
  8
0
 62
     7
 48
0.15
100
AcDbLine
 10
251.335754
 20
104.200394
 30
0.0
 11
246.827316
 21
108.159431
 31
0.0
210
0.0
220
0.0
230
1.0
  0
LINE
  5
314
100
AcDbEntity
  8
0
 62
     7
 48
0.204766
100
AcDbLine
 10
246.827316
 20
108.159431
 30
0.0
 11
241.422791
 21
102.004921
 31
0.0
210
0.0
220
0.0
230
1.0
  0
LINE
  5
315
100
AcDbEntity
  8
0
 62
     7
 48
0.003045
100
AcDbLine
 10
241.422791
 20
102.004921
 30
0.0
 11
241.501175
 21
101.911674
 31
0.0
210
0.0
220
0.0
230
1.0
  0
LINE
  5
316
100
AcDbEntity
  8
0
 62
     7
 48
0.003194
100
AcDbLine
 10
241.501175
 20
101.911674
 30
0.0
 11
241.580933
 21
101.81189
 31
0.0
210
0.0
220
0.0
230
1.0
  0
LINE
  5
317
100
AcDbEntity
  8
0
 62
     7
 48
0.00334
100
AcDbLine
 10
241.580933
 20
101.81189
 30
0.0
 11
241.661987
 21
101.705681
 31
0.0
210
0.0
220
0.0
230
1.0
  0
LINE
  5
318
100
AcDbEntity
  8
0
 62
     7
 48
0.003485
100
AcDbLine
 10
241.661987
 20
101.705681
 30
0.0
 11
241.744324
 21
101.593193
 31
0.0
210
0.0
220
0.0
230
1.0
  0
LINE
  5
319
100
AcDbEntity
  8
0
 62
     7
 48
0.007396
100
AcDbLine
 10
241.744324
 20
101.593193
 30
0.0
 11
241.912613
 21
101.349899
 31
0.0
210
0.0
220
0.0
230
1.0
  0
LINE
  5
31A
100
AcDbEntity
  8
0
 62
     7
 48
0.007947
100
AcDbLine
 10
241.912613
 20
101.349899
 30
0.0
 11
242.085373
 21
101.083054
 31
0.0
210
0.0
220
0.0
230
1.0
  0
LINE
  5
31B
100
AcDbEntity
  8
0
 62
     7
 48
0.008478
100
AcDbLine
 10
242.085373
 20
101.083054
 30
0.0
 11
242.262238
 21
100.793701
 31
0.0
210
0.0
220
0.0
230
1.0
  0
LINE
  5
31C
100
AcDbEntity
  8
0
 62
     7
 48
0.008986
100
AcDbLine
 10
242.262238
 20
100.793701
 30
0.0
 11
242.442825
 21
100.48291
 31
0.0
210
0.0
220
0.0
230
1.0
  0
LINE
  5
31D
100
AcDbEntity
  8
0
 62
     7
 48
0.0194
100
AcDbLine
 10
242.442825
 20
100.48291
 30
0.0
 11
242.813599
 21
99.801216
 31
0.0
210
0.0
220
0.0
230
1.0
  0
LINE
  5
31E
100
AcDbEntity
  8
0
 62
     7
 48
0.021139
100
AcDbLine
 10
242.813599
 20
99.801216
 30
0.0
 11
243.194626
 21
99.046387
 31
0.0
210
0.0
220
0.0
230
1.0
  0
LINE
  5
31F
100
AcDbEntity
  8
0
 62
     7
 48
0.02267
100
AcDbLine
 10
243.194626
 20
99.046387
 30
0.0
 11
243.582794
 21
98.226852
 31
0.0
210
0.0
220
0.0
230
1.0
  0
LINE
  5
320
100
AcDbEntity
  8
0
 62
     7
 48
0.023991
100
AcDbLine
 10
243.582794
 20
98.226852
 30
0.0
 11
243.975037
 21
97.351051
 31
0.0
210
0.0
220
0.0
230
1.0
  0
LINE
  5
321
100
AcDbEntity
  8
0
 62
     7
 48
0.025097
100
AcDbLine
 10
243.975037
 20
97.351051
 30
0.0
 11
244.368256
 21
96.427406
 31
0.0
210
0.0
220
0.0
230
1.0
  0
LINE
  5
322
100
AcDbEntity
  8
0
 62
     7
 48
0.052643
100
AcDbLine
 10
244.368256
 20
96.427406
 30
0.0
 11
245.145309
 21
94.470306
 31
0.0
210
0.0
220
0.0
230
1.0
  0
LINE
  5
323
100
AcDbEntity
  8
0
 62
     7
 48
0.054457
100
AcDbLine
 10
245.145309
 20
94.470306
 30
0.0
 11
245.889252
 21
92.423004
 31
0.0
210
0.0
220
0.0
230
1.0
  0
LINE
  5
324
100
AcDbEntity
  8
0
 62
     7
 48
0.054521
100
AcDbLine
 10
245.889252
 20
92.423004
 30
0.0
 11
246.575424
 21
90.352928
 31
0.0
210
0.0
220
0.0
230
1.0
  0
LINE
  5
325
100
AcDbEntity
  8
0
 62
     7
 48
0.052837
100
AcDbLine
 10
246.575424
 20
90.352928
 30
0.0
 11
247.179108
 21
88.327515
 31
0.0
210
0.0
220
0.0
230
1.0
  0
LINE
  5
326
100
AcDbEntity
  8
0
 62
     7
 48
0.02902
100
AcDbLine
 10
247.179108
 20
88.327515
 30
0.0
 11
247.480423
 21
87.206512
 31
0.0
210
0.0
220
0.0
230
1.0
  0
LINE
  5
327
100
AcDbEntity
  8
0
 62
     7
 48
0.027946
100
AcDbLine
 10
247.480423
 20
87.206512
 30
0.0
 11
247.747665
 21
86.121086
 31
0.0
210
0.0
220
0.0
230
1.0
  0
LINE
  5
328
100
AcDbEntity
  8
0
 62
     7
 48
0.02693
100
AcDbLine
 10
247.747665
 20
86.121086
 30
0.0
 11
247.982239
 21
85.069717
 31
0.0
210
0.0
220
0.0
230
1.0
  0
LINE
  5
329
100
AcDbEntity
  8
0
 62
     7
 48
0.025973
100
AcDbLine
 10
247.982239
 20
85.069717
 30
0.0
 11
248.185532
 21
84.050896
 31
0.0
210
0.0
220
0.0
230
1.0
  0
LINE
  5
32A
100
AcDbEntity
  8
0
 62
     7
 48
0.025072
100
AcDbLine
 10
248.185532
 20
84.050896
 30
0.0
 11
248.358932
 21
83.063103
 31
0.0
210
0.0
220
0.0
230
1.0
  0
LINE
  5
32B
100
AcDbEntity
  8
0
 62
     7
 48
0.024229
100
AcDbLine
 10
248.358932
 20
83.063103
 30
0.0
 11
248.50383
 21
82.10482
 31
0.0
210
0.0
220
0.0
230
1.0
  0
LINE
  5
32C
100
AcDbEntity
  8
0
 62
     7
 48
0.023443
100
AcDbLine
 10
248.50383
 20
82.10482
 30
0.0
 11
248.621613
 21
81.17453
 31
0.0
210
0.0
220
0.0
230
1.0
  0
LINE
  5
32D
100
AcDbEntity
  8
0
 62
     7
 48
0.022712
100
AcDbLine
 10
248.621613
 20
81.17453
 30
0.0
 11
248.713684
 21
80.270721
 31
0.0
210
0.0
220
0.0
230
1.0
  0
LINE
  5
32E
100
AcDbEntity
  8
0
 62
     7
 48
0.022037
100
AcDbLine
 10
248.713684
 20
80.270721
 30
0.0
 11
248.781433
 21
79.391861
 31
0.0
210
0.0
220
0.0
230
1.0
  0
LINE
  5
32F
100
AcDbEntity
  8
0
 62
     7
 48
0.021415
100
AcDbLine
 10
248.781433
 20
79.391861
 30
0.0
 11
248.826233
 21
78.536453
 31
0.0
210
0.0
220
0.0
230
1.0
  0
LINE
  5
330
100
AcDbEntity
  8
0
 62
     7
 48
0.020845
100
AcDbLine
 10
248.826233
 20
78.536453
 30
0.0
 11
248.849503
 21
77.702972
 31
0.0
210
0.0
220
0.0
230
1.0
  0
LINE
  5
331
100
AcDbEntity
  8
0
 62
     7
 48
0.020327
100
AcDbLine
 10
248.849503
 20
77.702972
 30
0.0
 11
248.852615
 21
76.889893
 31
0.0
210
0.0
220
0.0
230
1.0
  0
LINE
  5
332
100
AcDbEntity
  8
0
 62
     7
 48
0.019858
100
AcDbLine
 10
248.852615
 20
76.889893
 30
0.0
 11
248.836975
 21
76.095718
 31
0.0
210
0.0
220
0.0
230
1.0
  0
LINE
  5
333
100
AcDbEntity
  8
0
 62
     7
 48
0.019438
100
AcDbLine
 10
248.836975
 20
76.095718
 30
0.0
 11
248.803955
 21
75.318909
 31
0.0
210
0.0
220
0.0
230
1.0
  0
LINE
  5
334
100
AcDbEntity
  8
0
 62
     7
 48
0.019063
100
AcDbLine
 10
248.803955
 20
75.318909
 30
0.0
 11
248.754959
 21
74.557961
 31
0.0
210
0.0
220
0.0
230
1.0
  0
LINE
  5
335
100
AcDbEntity
  8
0
 62
     7
 48
0.018733
100
AcDbLine
 10
248.754959
 20
74.557961
 30
0.0
 11
248.691376
 21
73.811356
 31
0.0
210
0.0
220
0.0
230
1.0
  0
LINE
  5
336
100
AcDbEntity
  8
0
 62
     7
 48
0.024212
100
AcDbLine
 10
248.691376
 20
73.811356
 30
0.0
 11
248.587448
 21
72.848457
 31
0.0
210
0.0
220
0.0
230
1.0
  0
LINE
  5
337
100
AcDbEntity
  8
0
 62
     7
 48
0.023726
100
AcDbLine
 10
248.587448
 20
72.848457
 30
0.0
 11
248.461838
 21
71.907761
 31
0.0
210
0.0
220
0.0
230
1.0
  0
LINE
  5
338
100
AcDbEntity
  8
0
 62
     7
 48
0.023251
100
AcDbLine
 10
248.461838
 20
71.907761
 30
0.0
 11
248.315674
 21
70.989265
 31
0.0
210
0.0
220
0.0
230
1.0
  0
LINE
  5
339
100
AcDbEntity
  8
0
 62
     7
 48
0.022787
100
AcDbLine
 10
248.315674
 20
70.989265
 30
0.0
 11
248.150146
 21
70.092941
 31
0.0
210
0.0
220
0.0
230
1.0
  0
LINE
  5
33A
100
AcDbEntity
  8
0
 62
     7
 48
0.022332
100
AcDbLine
 10
248.150146
 20
70.092941
 30
0.0
 11
247.966415
 21
69.218765
 31
0.0
210
0.0
220
0.0
230
1.0
  0
LINE
  5
33B
100
AcDbEntity
  8
0
 62
     7
 48
0.021884
100
AcDbLine
 10
247.966415
 20
69.218765
 30
0.0
 11
247.76564
 21
68.366745
 31
0.0
210
0.0
220
0.0
230
1.0
  0
LINE
  5
33C
100
AcDbEntity
  8
0
 62
     7
 48
0.021443
100
AcDbLine
 10
247.76564
 20
68.366745
 30
0.0
 11
247.548981
 21
67.53685
 31
0.0
210
0.0
220
0.0
230
1.0
  0
LINE
  5
33D
100
AcDbEntity
  8
0
 62
     7
 48
0.021007
100
AcDbLine
 10
247.548981
 20
67.53685
 30
0.0
 11
247.317612
 21
66.729065
 31
0.0
210
0.0
220
0.0
230
1.0
  0
LINE
  5
33E
100
AcDbEntity
  8
0
 62
     7
 48
0.020574
100
AcDbLine
 10
247.317612
 20
66.729065
 30
0.0
 11
247.072693
 21
65.943375
 31
0.0
210
0.0
220
0.0
230
1.0
  0
LINE
  5
33F
100
AcDbEntity
  8
0
 62
     7
 48
0.020145
100
AcDbLine
 10
247.072693
 20
65.943375
 30
0.0
 11
246.815399
 21
65.179764
 31
0.0
210
0.0
220
0.0
230
1.0
  0
LINE
  5
340
100
AcDbEntity
  8
0
 62
     7
 48
0.019717
100
AcDbLine
 10
246.815399
 20
65.179764
 30
0.0
 11
246.546875
 21
64.438217
 31
0.0
210
0.0
220
0.0
230
1.0
  0
LINE
  5
341
100
AcDbEntity
  8
0
 62
     7
 48
0.019289
100
AcDbLine
 10
246.546875
 20
64.438217
 30
0.0
 11
246.268311
 21
63.718716
 31
0.0
210
0.0
220
0.0
230
1.0
  0
LINE
  5
342
100
AcDbEntity
  8
0
 62
     7
 48
0.01886
100
AcDbLine
 10
246.268311
 20
63.718716
 30
0.0
 11
245.980835
 21
63.021252
 31
0.0
210
0.0
220
0.0
230
1.0
  0
LINE
  5
343
100
AcDbEntity
  8
0
 62
     7
 48
0.018428
100
AcDbLine
 10
245.980835
 20
63.021252
 30
0.0
 11
245.685654
 21
62.345806
 31
0.0
210
0.0
220
0.0
230
1.0
  0
LINE
  5
344
100
AcDbEntity
  8
0
 62
     7
 48
0.017994
100
AcDbLine
 10
245.685654
 20
62.345806
 30
0.0
 11
245.383896
 21
61.69236
 31
0.0
210
0.0
220
0.0
230
1.0
  0
LINE
  5
345
100
AcDbEntity
  8
0
 62
     7
 48
0.017555
100
AcDbLine
 10
245.383896
 20
61.69236
 30
0.0
 11
245.076752
 21
61.060898
 31
0.0
210
0.0
220
0.0
230
1.0
  0
LINE
  5
346
100
AcDbEntity
  8
0
 62
     7
 48
0.017111
100
AcDbLine
 10
245.076752
 20
61.060898
 30
0.0
 11
244.765366
 21
60.451405
 31
0.0
210
0.0
220
0.0
230
1.0
  0
LINE
  5
347
100
AcDbEntity
  8
0
 62
     7
 48
0.01666
100
AcDbLine
 10
244.765366
 20
60.451405
 30
0.0
 11
244.450912
 21
59.863869
 31
0.0
210
0.0
220
0.0
230
1.0
  0
LINE
  5
348
100
AcDbEntity
  8
0
 62
     7
 48
0.016202
100
AcDbLine
 10
244.450912
 20
59.863869
 30
0.0
 11
244.134552
 21
59.298271
 31
0.0
210
0.0
220
0.0
230
1.0
  0
LINE
  5
349
100
AcDbEntity
  8
0
 62
     7
 48
0.015735
100
AcDbLine
 10
244.134552
 20
59.298271
 30
0.0
 11
243.817459
 21
58.754593
 31
0.0
210
0.0
220
0.0
230
1.0
  0
LINE
  5
34A
100
AcDbEntity
  8
0
 62
     7
 48
0.03003
100
AcDbLine
 10
243.817459
 20
58.754593
 30
0.0
 11
243.185699
 21
57.732944
 31
0.0
210
0.0
220
0.0
230
1.0
  0
LINE
  5
34B
100
AcDbEntity
  8
0
 62
     7
 48
0.028039
100
AcDbLine
 10
243.185699
 20
57.732944
 30
0.0
 11
242.564972
 21
56.798794
 31
0.0
210
0.0
220
0.0
230
1.0
  0
LINE
  5
34C
100
AcDbEntity
  8
0
 62
     7
 48
0.025951
100
AcDbLine
 10
242.564972
 20
56.798794
 30
0.0
 11
241.964569
 21
55.952019
 31
0.0
210
0.0
220
0.0
230
1.0
  0
LINE
  5
34D
100
AcDbEntity
  8
0
 62
     7
 48
0.023752
100
AcDbLine
 10
241.964569
 20
55.952019
 30
0.0
 11
241.393799
 21
55.19249
 31
0.0
210
0.0
220
0.0
230
1.0
  0
LINE
  5
34E
100
AcDbEntity
  8
0
 62
     7
 48
0.021432
100
AcDbLine
 10
241.393799
 20
55.19249
 30
0.0
 11
240.862
 21
54.520084
 31
0.0
210
0.0
220
0.0
230
1.0
  0
LINE
  5
34F
100
AcDbEntity
  8
0
 62
     7
 48
0.018982
100
AcDbLine
 10
240.862
 20
54.520084
 30
0.0
 11
240.378479
 21
53.934673
 31
0.0
210
0.0
220
0.0
230
1.0
  0
CIRCLE
  5
350
100
AcDbEntity
  8
0
 62
     7
100
AcDbCircle
 10
49.971252
 20
204.737244
 30
0.0
 40
9.0
210
0.0
220
0.0
230
1.0
  0
LINE
  5
351
100
AcDbEntity
  8
0
 62
     7
 48
0.2
100
AcDbLine
 10
45.971249
 20
201.737244
 30
0.0
 11
53.971252
 21
201.737244
 31
0.0
210
0.0
220
0.0
230
1.0
  0
LINE
  5
352
100
AcDbEntity
  8
0
 62
     7
 48
0.15
100
AcDbLine
 10
45.971249
 20
207.737244
 30
0.0
 11
45.971249
 21
201.737244
 31
0.0
210
0.0
220
0.0
230
1.0
  0
LINE
  5
353
100
AcDbEntity
  8
0
 62
     7
 48
0.2
100
AcDbLine
 10
53.971252
 20
207.737244
 30
0.0
 11
45.971249
 21
207.737244
 31
0.0
210
0.0
220
0.0
230
1.0
  0
LINE
  5
354
100
AcDbEntity
  8
0
 62
     7
 48
0.15
100
AcDbLine
 10
53.971252
 20
201.737244
 30
0.0
 11
53.971252
 21
207.737244
 31
0.0
210
0.0
220
0.0
230
1.0
  0
CIRCLE
  5
355
100
AcDbEntity
  8
0
 62
     7
100
AcDbCircle
 10
227.198242
 20
142.893555
 30
0.0
 40
9.0
210
0.0
220
0.0
230
1.0
  0
LINE
  5
356
100
AcDbEntity
  8
0
 62
     7
 48
0.2
100
AcDbLine
 10
223.198242
 20
139.893555
 30
0.0
 11
231.198242
 21
139.893555
 31
0.0
210
0.0
220
0.0
230
1.0
  0
LINE
  5
357
100
AcDbEntity
  8
0
 62
     7
 48
0.15
100
AcDbLine
 10
223.198242
 20
145.893555
 30
0.0
 11
223.198242
 21
139.893555
 31
0.0
210
0.0
220
0.0
230
1.0
  0
LINE
  5
358
100
AcDbEntity
  8
0
 62
     7
 48
0.2
100
AcDbLine
 10
231.198242
 20
145.893555
 30
0.0
 11
223.198242
 21
145.893555
 31
0.0
210
0.0
220
0.0
230
1.0
  0
LINE
  5
359
100
AcDbEntity
  8
0
 62
     7
 48
0.15
100
AcDbLine
 10
231.198242
 20
139.893555
 30
0.0
 11
231.198242
 21
145.893555
 31
0.0
210
0.0
220
0.0
230
1.0
  0
CIRCLE
  5
35A
100
AcDbEntity
  8
0
 62
     7
100
AcDbCircle
 10
228.23465
 20
169.62738
 30
0.0
 40
9.0
210
0.0
220
0.0
230
1.0
  0
LINE
  5
35B
100
AcDbEntity
  8
0
 62
     7
 48
0.2
100
AcDbLine
 10
224.23465
 20
166.62738
 30
0.0
 11
232.23465
 21
166.62738
 31
0.0
210
0.0
220
0.0
230
1.0
  0
LINE
  5
35C
100
AcDbEntity
  8
0
 62
     7
 48
0.15
100
AcDbLine
 10
224.23465
 20
172.62738
 30
0.0
 11
224.23465
 21
166.62738
 31
0.0
210
0.0
220
0.0
230
1.0
  0
LINE
  5
35D
100
AcDbEntity
  8
0
 62
     7
 48
0.2
100
AcDbLine
 10
232.23465
 20
172.62738
 30
0.0
 11
224.23465
 21
172.62738
 31
0.0
210
0.0
220
0.0
230
1.0
  0
LINE
  5
35E
100
AcDbEntity
  8
0
 62
     7
 48
0.15
100
AcDbLine
 10
232.23465
 20
166.62738
 30
0.0
 11
232.23465
 21
172.62738
 31
0.0
210
0.0
220
0.0
230
1.0
  0
LINE
  5
35F
100
AcDbEntity
  8
0
 62
     7
 48
0.149314
100
AcDbLine
 10
101.98555
 20
346.673676
 30
0.0
 11
107.95813
 21
346.673676
 31
0.0
210
0.0
220
0.0
230
1.0
  0
ARC
  5
360
100
AcDbEntity
  8
0
 62
     7
100
AcDbCircle
 10
107.998276
 20
341.673828
 30
0.0
 40
5.0
210
0.0
220
0.0
230
1.0
100
AcDbArc
 50
4.088893
 51
90.460077
  0
LINE
  5
361
100
AcDbEntity
  8
0
 62
     7
100
AcDbLine
 10
112.98555
 20
342.030365
 30
0.0
 11
112.98555
 21
302.030365
 31
0.0
210
0.0
220
0.0
230
1.0
  0
ARC
  5
362
100
AcDbEntity
  8
0
 62
     7
100
AcDbCircle
 10
107.998299
 20
301.673523
 30
0.0
 40
5.0
210
0.0
220
0.0
230
1.0
100
AcDbArc
 50
269.539646
 51
364.092605
  0
LINE
  5
363
100
AcDbEntity
  8
0
 62
     7
 48
0.149314
100
AcDbLine
 10
101.98555
 20
296.673676
 30
0.0
 11
107.95813
 21
296.673676
 31
0.0
210
0.0
220
0.0
230
1.0
  0
LINE
  5
364
100
AcDbEntity
  8
0
 62
     7
 48
0.15
100
AcDbLine
 10
101.98555
 20
290.673676
 30
0.0
 11
101.98555
 21
296.673676
 31
0.0
210
0.0
220
0.0
230
1.0
  0
LINE
  5
365
100
AcDbEntity
  8
0
 62
     7
100
AcDbLine
 10
124.98555
 20
290.673676
 30
0.0
 11
101.98555
 21
290.673676
 31
0.0
210
0.0
220
0.0
230
1.0
  0
LINE
  5
366
100
AcDbEntity
  8
0
 62
     7
 48
0.15
100
AcDbLine
 10
124.98555
 20
290.673676
 30
0.0
 11
124.98555
 21
296.673676
 31
0.0
210
0.0
220
0.0
230
1.0
  0
LINE
  5
367
100
AcDbEntity
  8
0
 62
     7
100
AcDbLine
 10
124.98555
 20
296.673676
 30
0.0
 11
145.98555
 21
296.673676
 31
0.0
210
0.0
220
0.0
230
1.0
  0
LINE
  5
368
100
AcDbEntity
  8
0
 62
     7
100
AcDbLine
 10
145.98555
 20
296.673676
 30
0.0
 11
145.98555
 21
346.673676
 31
0.0
210
0.0
220
0.0
230
1.0
  0
LINE
  5
369
100
AcDbEntity
  8
0
 62
     7
100
AcDbLine
 10
145.98555
 20
346.673676
 30
0.0
 11
124.98555
 21
346.673676
 31
0.0
210
0.0
220
0.0
230
1.0
  0
LINE
  5
36A
100
AcDbEntity
  8
0
 62
     7
 48
0.15
100
AcDbLine
 10
124.98555
 20
346.673676
 30
0.0
 11
124.98555
 21
352.673676
 31
0.0
210
0.0
220
0.0
230
1.0
  0
LINE
  5
36B
100
AcDbEntity
  8
0
 62
     7
100
AcDbLine
 10
124.98555
 20
352.673676
 30
0.0
 11
101.98555
 21
352.673676
 31
0.0
210
0.0
220
0.0
230
1.0
  0
LINE
  5
36C
100
AcDbEntity
  8
0
 62
     7
 48
0.15
100
AcDbLine
 10
101.98555
 20
346.673676
 30
0.0
 11
101.98555
 21
352.673676
 31
0.0
210
0.0
220
0.0
230
1.0
  0
LINE
  5
36D
100
AcDbEntity
  8
0
 62
     7
100
AcDbLine
 10
255.638504
 20
244.209869
 30
0.0
 11
255.638504
 21
294.209869
 31
0.0
210
0.0
220
0.0
230
1.0
  0
LINE
  5
36E
100
AcDbEntity
  8
0
 62
     7
 48
0.025
100
AcDbLine
 10
255.638504
 20
294.209869
 30
0.0
 11
254.638504
 21
294.209869
 31
0.0
210
0.0
220
0.0
230
1.0
  0
LINE
  5
36F
100
AcDbEntity
  8
0
 62
     7
 48
0.375
100
AcDbLine
 10
254.638504
 20
294.209869
 30
0.0
 11
254.638504
 21
309.209869
 31
0.0
210
0.0
220
0.0
230
1.0
  0
LINE
  5
370
100
AcDbEntity
  8
0
 62
     7
 48
0.2
100
AcDbLine
 10
246.638504
 20
309.212219
 30
0.0
 11
254.638504
 21
309.209869
 31
0.0
210
0.0
220
0.0
230
1.0
  0
LINE
  5
371
100
AcDbEntity
  8
0
 62
     7
 48
0.375
100
AcDbLine
 10
246.638504
 20
294.212219
 30
0.0
 11
246.638504
 21
309.212219
 31
0.0
210
0.0
220
0.0
230
1.0
  0
LINE
  5
372
100
AcDbEntity
  8
0
 62
     7
 48
0.025
100
AcDbLine
 10
245.638504
 20
294.212219
 30
0.0
 11
246.638504
 21
294.212219
 31
0.0
210
0.0
220
0.0
230
1.0
  0
LINE
  5
373
100
AcDbEntity
  8
0
 62
     7
100
AcDbLine
 10
245.638504
 20
244.212234
 30
0.0
 11
245.638504
 21
294.212219
 31
0.0
210
0.0
220
0.0
230
1.0
  0
LINE
  5
374
100
AcDbEntity
  8
0
 62
     7
 48
0.025
100
AcDbLine
 10
245.638504
 20
244.212234
 30
0.0
 11
246.638504
 21
244.212234
 31
0.0
210
0.0
220
0.0
230
1.0
  0
LINE
  5
375
100
AcDbEntity
  8
0
 62
     7
 48
0.375
100
AcDbLine
 10
246.638504
 20
229.212234
 30
0.0
 11
246.638504
 21
244.212234
 31
0.0
210
0.0
220
0.0
230
1.0
  0
LINE
  5
376
100
AcDbEntity
  8
0
 62
     7
 48
0.2
100
AcDbLine
 10
254.638504
 20
229.209869
 30
0.0
 11
246.638504
 21
229.212234
 31
0.0
210
0.0
220
0.0
230
1.0
  0
LINE
  5
377
100
AcDbEntity
  8
0
 62
     7
 48
0.375
100
AcDbLine
 10
254.638504
 20
229.209869
 30
0.0
 11
254.638504
 21
244.209869
 31
0.0
210
0.0
220
0.0
230
1.0
  0
LINE
  5
378
100
AcDbEntity
  8
0
 62
     7
 48
0.025
100
AcDbLine
 10
255.638504
 20
244.209869
 30
0.0
 11
254.638504
 21
244.209869
 31
0.0
210
0.0
220
0.0
230
1.0
  0
LINE
  5
379
100
AcDbEntity
  8
0
 62
     7
100
AcDbLine
 10
252.777557
 20
334.222839
 30
0.0
 11
252.777557
 21
384.222839
 31
0.0
210
0.0
220
0.0
230
1.0
  0
LINE
  5
37A
100
AcDbEntity
  8
0
 62
     7
 48
0.025
100
AcDbLine
 10
252.777557
 20
384.222839
 30
0.0
 11
251.777557
 21
384.222839
 31
0.0
210
0.0
220
0.0
230
1.0
  0
LINE
  5
37B
100
AcDbEntity
  8
0
 62
     7
 48
0.375
100
AcDbLine
 10
251.777557
 20
384.222839
 30
0.0
 11
251.777557
 21
399.222839
 31
0.0
210
0.0
220
0.0
230
1.0
  0
LINE
  5
37C
100
AcDbEntity
  8
0
 62
     7
 48
0.2
100
AcDbLine
 10
243.777557
 20
399.22522
 30
0.0
 11
251.777557
 21
399.222839
 31
0.0
210
0.0
220
0.0
230
1.0
  0
LINE
  5
37D
100
AcDbEntity
  8
0
 62
     7
 48
0.375
100
AcDbLine
 10
243.777557
 20
384.22522
 30
0.0
 11
243.777557
 21
399.22522
 31
0.0
210
0.0
220
0.0
230
1.0
  0
LINE
  5
37E
100
AcDbEntity
  8
0
 62
     7
 48
0.025
100
AcDbLine
 10
242.777557
 20
384.22522
 30
0.0
 11
243.777557
 21
384.22522
 31
0.0
210
0.0
220
0.0
230
1.0
  0
LINE
  5
37F
100
AcDbEntity
  8
0
 62
     7
100
AcDbLine
 10
242.777557
 20
334.22522
 30
0.0
 11
242.777557
 21
384.22522
 31
0.0
210
0.0
220
0.0
230
1.0
  0
LINE
  5
380
100
AcDbEntity
  8
0
 62
     7
 48
0.025
100
AcDbLine
 10
242.777557
 20
334.22522
 30
0.0
 11
243.777557
 21
334.22522
 31
0.0
210
0.0
220
0.0
230
1.0
  0
LINE
  5
381
100
AcDbEntity
  8
0
 62
     7
 48
0.375
100
AcDbLine
 10
243.777557
 20
319.22522
 30
0.0
 11
243.777557
 21
334.22522
 31
0.0
210
0.0
220
0.0
230
1.0
  0
LINE
  5
382
100
AcDbEntity
  8
0
 62
     7
 48
0.2
100
AcDbLine
 10
251.777557
 20
319.22287
 30
0.0
 11
243.777557
 21
319.22522
 31
0.0
210
0.0
220
0.0
230
1.0
  0
LINE
  5
383
100
AcDbEntity
  8
0
 62
     7
 48
0.374999
100
AcDbLine
 10
251.777557
 20
319.22287
 30
0.0
 11
251.777557
 21
334.222839
 31
0.0
210
0.0
220
0.0
230
1.0
  0
LINE
  5
384
100
AcDbEntity
  8
0
 62
     7
 48
0.025
100
AcDbLine
 10
252.777557
 20
334.222839
 30
0.0
 11
251.777557
 21
334.222839
 31
0.0
210
0.0
220
0.0
230
1.0
  0
LINE
  5
385
100
AcDbEntity
  8
0
 62
     7
 48
0.2
100
AcDbLine
 10
14.619445
 20
158.262909
 30
0.0
 11
22.619444
 21
158.262909
 31
0.0
210
0.0
220
0.0
230
1.0
  0
LINE
  5
386
100
AcDbEntity
  8
0
 62
     7
 48
0.099995
100
AcDbLine
 10
22.619444
 20
162.262726
 30
0.0
 11
22.619444
 21
158.262909
 31
0.0
210
0.0
220
0.0
230
1.0
  0
LINE
  5
387
100
AcDbEntity
  8
0
 62
     7
 48
0.15
100
AcDbLine
 10
22.619444
 20
162.262726
 30
0.0
 11
28.619444
 21
162.262726
 31
0.0
210
0.0
220
0.0
230
1.0
  0
LINE
  5
388
100
AcDbEntity
  8
0
 62
     7
 48
0.15
100
AcDbLine
 10
28.619444
 20
162.262726
 30
0.0
 11
28.619444
 21
156.262726
 31
0.0
210
0.0
220
0.0
230
1.0
  0
LINE
  5
389
100
AcDbEntity
  8
0
 62
     7
100
AcDbLine
 10
28.619444
 20
156.262726
 30
0.0
 11
58.619442
 21
156.262726
 31
0.0
210
0.0
220
0.0
230
1.0
  0
LINE
  5
38A
100
AcDbEntity
  8
0
 62
     7
 48
0.325
100
AcDbLine
 10
58.619442
 20
156.262726
 30
0.0
 11
58.619442
 21
143.262726
 31
0.0
210
0.0
220
0.0
230
1.0
  0
LINE
  5
38B
100
AcDbEntity
  8
0
 62
     7
 48
0.25
100
AcDbLine
 10
58.619442
 20
143.262726
 30
0.0
 11
68.619446
 21
143.262726
 31
0.0
210
0.0
220
0.0
230
1.0
  0
LINE
  5
38C
100
AcDbEntity
  8
0
 62
     7
 48
0.4
100
AcDbLine
 10
68.619446
 20
159.262726
 30
0.0
 11
68.619446
 21
143.262726
 31
0.0
210
0.0
220
0.0
230
1.0
  0
ARC
  5
38D
100
AcDbEntity
  8
0
 62
     7
100
AcDbCircle
 10
72.80481
 20
159.50473
 30
0.0
 40
4.192356
210
0.0
220
0.0
230
1.0
100
AcDbArc
 50
89.981179
 51
183.309191
  0
LINE
  5
38E
100
AcDbEntity
  8
0
 62
     7
100
AcDbLine
 10
72.806183
 20
163.697083
 30
0.0
 11
104.59623
 21
163.697083
 31
0.0
210
0.0
220
0.0
230
1.0
  0
ARC
  5
38F
100
AcDbEntity
  8
0
 62
     7
100
AcDbCircle
 10
104.328049
 20
159.705124
 30
0.0
 40
4.000961
210
0.0
220
0.0
230
1.0
100
AcDbArc
 50
1.303238
 51
86.1566
  0
LINE
  5
390
100
AcDbEntity
  8
0
 62
     7
 48
0.437463
100
AcDbLine
 10
108.327972
 20
159.796112
 30
0.0
 11
108.333717
 21
142.297607
 31
0.0
210
0.0
220
0.0
230
1.0
  0
LINE
  5
391
100
AcDbEntity
  8
0
 62
     7
100
AcDbLine
 10
108.333717
 20
142.297607
 30
0.0
 11
132.606277
 21
142.305588
 31
0.0
210
0.0
220
0.0
230
1.0
  0
LINE
  5
392
100
AcDbEntity
  8
0
 62
     7
 48
0.15
100
AcDbLine
 10
132.606277
 20
142.305588
 30
0.0
 11
132.608246
 21
136.305588
 31
0.0
210
0.0
220
0.0
230
1.0
  0
LINE
  5
393
100
AcDbEntity
  8
0
 62
     7
 48
0.150505
100
AcDbLine
 10
132.608246
 20
136.305588
 30
0.0
 11
138.628464
 21
136.307709
 31
0.0
210
0.0
220
0.0
230
1.0
  0
LINE
  5
394
100
AcDbEntity
  8
0
 62
     7
 48
0.15
100
AcDbLine
 10
138.628464
 20
136.307709
 30
0.0
 11
138.630432
 21
130.307709
 31
0.0
210
0.0
220
0.0
230
1.0
  0
LINE
  5
395
100
AcDbEntity
  8
0
 62
     7
100
AcDbLine
 10
138.630432
 20
130.307709
 30
0.0
 11
162.630432
 21
130.315582
 31
0.0
210
0.0
220
0.0
230
1.0
  0
LINE
  5
396
100
AcDbEntity
  8
0
 62
     7
 48
0.04642
100
AcDbLine
 10
163.757004
 20
131.791565
 30
0.0
 11
162.630432
 21
130.315582
 31
0.0
210
0.0
220
0.0
230
1.0
  0
ARC
  5
397
100
AcDbEntity
  8
0
 62
     7
100
AcDbCircle
 10
162.167206
 20
133.005035
 30
0.0
 40
2.0
210
0.0
220
0.0
230
1.0
100
AcDbArc
 50
322.646197
 51
394.785535
  0
LINE
  5
398
100
AcDbEntity
  8
0
 62
     7
 48
0.140697
100
AcDbLine
 10
160.512833
 20
138.707108
 30
0.0
 11
163.809784
 21
134.146042
 31
0.0
210
0.0
220
0.0
230
1.0
  0
ARC
  5
399
100
AcDbEntity
  8
0
 62
     7
100
AcDbCircle
 10
158.925964
 20
137.489807
 30
0.0
 40
2.0
210
0.0
220
0.0
230
1.0
100
AcDbArc
 50
37.492216
 51
88.383071
  0
LINE
  5
39A
100
AcDbEntity
  8
0
 62
     7
 48
0.237447
100
AcDbLine
 10
149.484528
 20
139.487427
 30
0.0
 11
158.982391
 21
139.488998
 31
0.0
210
0.0
220
0.0
230
1.0
  0
ARC
  5
39B
100
AcDbEntity
  8
0
 62
     7
100
AcDbCircle
 10
149.560822
 20
143.487823
 30
0.0
 40
4.001121
210
0.0
220
0.0
230
1.0
100
AcDbArc
 50
195.645988
 51
268.907334
  0
LINE
  5
39C
100
AcDbEntity
  8
0
 62
     7
 48
0.225114
100
AcDbLine
 10
145.707962
 20
142.408752
 30
0.0
 11
143.447433
 21
151.124969
 31
0.0
210
0.0
220
0.0
230
1.0
  0
ARC
  5
39D
100
AcDbEntity
  8
0
 62
     7
100
AcDbCircle
 10
147.162338
 20
152.088425
 30
0.0
 40
3.83781
210
0.0
220
0.0
230
1.0
100
AcDbArc
 50
118.733386
 51
194.539196
  0
ARC
  5
39E
100
AcDbEntity
  8
0
 62
     7
100
AcDbCircle
 10
146.355209
 20
153.568954
 30
0.0
 40
2.151571
210
0.0
220
0.0
230
1.0
100
AcDbArc
 50
36.030539
 51
118.839827
  0
ARC
  5
39F
100
AcDbEntity
  8
0
 62
     7
100
AcDbCircle
 10
160.437256
 20
161.765442
 30
0.0
 40
14.154988
210
0.0
220
0.0
230
1.0
100
AcDbArc
 50
209.317158
 51
266.709352
  0
LINE
  5
3A0
100
AcDbEntity
  8
0
 62
     7
 48
0.152702
100
AcDbLine
 10
159.624741
 20
147.633789
 30
0.0
 11
159.622742
 21
153.741882
 31
0.0
210
0.0
220
0.0
230
1.0
  0
LINE
  5
3A1
100
AcDbEntity
  8
0
 62
     7
 48
0.15
100
AcDbLine
 10
159.622742
 20
153.741882
 30
0.0
 11
165.622742
 21
153.743851
 31
0.0
210
0.0
220
0.0
230
1.0
  0
LINE
  5
3A2
100
AcDbEntity
  8
0
 62
     7
 48
0.151593
100
AcDbLine
 10
165.624725
 20
147.68013
 30
0.0
 11
165.622742
 21
153.743851
 31
0.0
210
0.0
220
0.0
230
1.0
  0
ARC
  5
3A3
100
AcDbEntity
  8
0
 62
     7
100
AcDbCircle
 10
164.153641
 20
163.115097
 30
0.0
 40
15.504908
210
0.0
220
0.0
230
1.0
100
AcDbArc
 50
275.444344
 51
321.148528
  0
ARC
  5
3A4
100
AcDbEntity
  8
0
 62
     7
100
AcDbCircle
 10
180.537918
 20
150.733459
 30
0.0
 40
5.061843
210
0.0
220
0.0
230
1.0
100
AcDbArc
 50
91.811826
 51
148.35985
  0
LINE
  5
3A5
100
AcDbEntity
  8
0
 62
     7
 48
0.157912
100
AcDbLine
 10
186.694351
 20
155.796921
 30
0.0
 11
180.377869
 21
155.792755
 31
0.0
210
0.0
220
0.0
230
1.0
  0
LINE
  5
3A6
100
AcDbEntity
  8
0
 62
     7
 48
0.147229
100
AcDbLine
 10
186.692413
 20
161.686066
 30
0.0
 11
186.694351
 21
155.796921
 31
0.0
210
0.0
220
0.0
230
1.0
  0
LINE
  5
3A7
100
AcDbEntity
  8
0
 62
     7
100
AcDbLine
 10
207.451126
 20
161.686066
 30
0.0
 11
186.692413
 21
161.686066
 31
0.0
210
0.0
220
0.0
230
1.0
  0
LINE
  5
3A8
100
AcDbEntity
  8
0
 62
     7
 48
0.329493
100
AcDbLine
 10
199.318588
 20
172.057526
 30
0.0
 11
207.451126
 21
161.686066
 31
0.0
210
0.0
220
0.0
230
1.0
  0
LINE
  5
3A9
100
AcDbEntity
  8
0
 62
     7
100
AcDbLine
 10
166.788422
 20
172.057526
 30
0.0
 11
199.318588
 21
172.057526
 31
0.0
210
0.0
220
0.0
230
1.0
  0
LINE
  5
3AA
100
AcDbEntity
  8
0
 62
     7
 48
0.382571
100
AcDbLine
 10
166.788422
 20
172.057526
 30
0.0
 11
178.559204
 21
181.836334
 31
0.0
210
0.0
220
0.0
230
1.0
  0
ARC
  5
3AB
100
AcDbEntity
  8
0
 62
     7
100
AcDbCircle
 10
189.955948
 20
168.118027
 30
0.0
 40
17.834721
210
0.0
220
0.0
230
1.0
100
AcDbArc
 50
94.407886
 51
129.718748
  0
ARC
  5
3AC
100
AcDbEntity
  8
0
 62
     7
100
AcDbCircle
 10
184.48555
 20
193.936905
 30
0.0
 40
9.022151
210
0.0
220
0.0
230
1.0
100
AcDbArc
 50
297.026458
 51
527.380547
  0
ARC
  5
3AD
100
AcDbEntity
  8
0
 62
     7
100
AcDbCircle
 10
169.900024
 20
198.293869
 30
0.0
 40
6.25428
210
0.0
220
0.0
230
1.0
100
AcDbArc
 50
292.532412
 51
337.57486
  0
LINE
  5
3AE
100
AcDbEntity
  8
0
 62
     7
 48
0.416393
100
AcDbLine
 10
172.296707
 20
192.517029
 30
0.0
 11
156.36261
 21
187.66748
 31
0.0
210
0.0
220
0.0
230
1.0
  0
ARC
  5
3AF
100
AcDbEntity
  8
0
 62
     7
100
AcDbCircle
 10
153.450424
 20
197.236023
 30
0.0
 40
10.001888
210
0.0
220
0.0
230
1.0
100
AcDbArc
 50
270.007323
 51
286.927641
  0
LINE
  5
3B0
100
AcDbEntity
  8
0
 62
     7
100
AcDbLine
 10
107.619461
 20
187.228287
 30
0.0
 11
153.451706
 21
187.234131
 31
0.0
210
0.0
220
0.0
230
1.0
  0
LINE
  5
3B1
100
AcDbEntity
  8
0
 62
     7
 48
0.15
100
AcDbLine
 10
107.619461
 20
187.228287
 30
0.0
 11
107.619461
 21
181.228287
 31
0.0
210
0.0
220
0.0
230
1.0
  0
LINE
  5
3B2
100
AcDbEntity
  8
0
 62
     7
100
AcDbLine
 10
107.619461
 20
181.228287
 30
0.0
 11
79.619461
 21
181.228287
 31
0.0
210
0.0
220
0.0
230
1.0
  0
LINE
  5
3B3
100
AcDbEntity
  8
0
 62
     7
 48
0.15
100
AcDbLine
 10
79.619461
 20
181.228287
 30
0.0
 11
79.619461
 21
187.228287
 31
0.0
210
0.0
220
0.0
230
1.0
  0
LINE
  5
3B4
100
AcDbEntity
  8
0
 62
     7
100
AcDbLine
 10
79.619461
 20
187.228287
 30
0.0
 11
58.619457
 21
187.228287
 31
0.0
210
0.0
220
0.0
230
1.0
  0
ARC
  5
3B5
100
AcDbEntity
  8
0
 62
     7
100
AcDbCircle
 10
44.64106
 20
200.511261
 30
0.0
 40
19.282963
210
0.0
220
0.0
230
1.0
100
AcDbArc
 50
197.776747
 51
316.461297
  0
ARC
  5
3B6
100
AcDbEntity
  8
0
 62
     7
100
AcDbCircle
 10
17.276995
 20
193.944916
 30
0.0
 40
9.027381
210
0.0
220
0.0
230
1.0
100
AcDbArc
 50
4.314113
 51
253.358054
  0
ARC
  5
3B7
100
AcDbEntity
  8
0
 62
     7
100
AcDbCircle
 10
8.563621
 20
172.44458
 30
0.0
 40
14.237375
210
0.0
220
0.0
230
1.0
100
AcDbArc
 50
9.207716
 51
64.505905
  0
LINE
  5
3B8
100
AcDbEntity
  8
0
 62
     7
 48
0.110917
100
AcDbLine
 10
22.617544
 20
174.722763
 30
0.0
 11
22.619452
 21
170.286087
 31
0.0
210
0.0
220
0.0
230
1.0
  0
ARC
  5
3B9
100
AcDbEntity
  8
0
 62
     7
100
AcDbCircle
 10
7.202114
 20
172.159027
 30
0.0
 40
15.530686
210
0.0
220
0.0
230
1.0
100
AcDbArc
 50
335.723605
 51
353.073515
  0
LINE
  5
3BA
100
AcDbEntity
  8
0
 62
     7
 48
0.022483
100
AcDbLine
 10
20.619446
 20
165.262726
 30
0.0
 11
21.359465
 21
165.773743
 31
0.0
210
0.0
220
0.0
230
1.0
  0
LINE
  5
3BB
100
AcDbEntity
  8
0
 62
     7
 48
0.15
100
AcDbLine
 10
14.619445
 20
165.266235
 30
0.0
 11
20.619446
 21
165.262726
 31
0.0
210
0.0
220
0.0
230
1.0
  0
LINE
  5
3BC
100
AcDbEntity
  8
0
 62
     7
 48
0.175083
100
AcDbLine
 10
14.619445
 20
158.262909
 30
0.0
 11
14.619445
 21
165.266235
 31
0.0
210
0.0
220
0.0
230
1.0
  0
CIRCLE
  5
3BD
100
AcDbEntity
  8
0
 62
     7
100
AcDbCircle
 10
17.276987
 20
193.922638
 30
0.0
 40
5.0
210
0.0
220
0.0
230
1.0
  0
CIRCLE
  5
3BE
100
AcDbEntity
  8
0
 62
     7
100
AcDbCircle
 10
184.48555
 20
193.914627
 30
0.0
 40
5.0
210
0.0
220
0.0
230
1.0
  0
LINE
  5
3BF
100
AcDbEntity
  8
0
 62
     7
 48
0.15
100
AcDbLine
 10
116.619446
 20
151.263809
 30
0.0
 11
116.619446
 21
157.263809
 31
0.0
210
0.0
220
0.0
230
1.0
  0
LINE
  5
3C0
100
AcDbEntity
  8
0
 62
     7
 48
0.3
100
AcDbLine
 10
128.619446
 20
157.263809
 30
0.0
 11
116.619446
 21
157.263809
 31
0.0
210
0.0
220
0.0
230
1.0
  0
LINE
  5
3C1
100
AcDbEntity
  8
0
 62
     7
 48
0.15
100
AcDbLine
 10
128.619446
 20
151.263809
 30
0.0
 11
128.619446
 21
157.263809
 31
0.0
210
0.0
220
0.0
230
1.0
  0
LINE
  5
3C2
100
AcDbEntity
  8
0
 62
     7
 48
0.3
100
AcDbLine
 10
116.619446
 20
151.263809
 30
0.0
 11
128.619446
 21
151.263809
 31
0.0
210
0.0
220
0.0
230
1.0
  0
LINE
  5
3C3
100
AcDbEntity
  8
0
 62
     7
 48
0.2
100
AcDbLine
 10
15.832021
 20
253.701309
 30
0.0
 11
23.832022
 21
253.701309
 31
0.0
210
0.0
220
0.0
230
1.0
  0
LINE
  5
3C4
100
AcDbEntity
  8
0
 62
     7
 48
0.099995
100
AcDbLine
 10
23.832022
 20
249.701492
 30
0.0
 11
23.832022
 21
253.701309
 31
0.0
210
0.0
220
0.0
230
1.0
  0
LINE
  5
3C5
100
AcDbEntity
  8
0
 62
     7
 48
0.15
100
AcDbLine
 10
23.832022
 20
249.701492
 30
0.0
 11
29.832022
 21
249.701492
 31
0.0
210
0.0
220
0.0
230
1.0
  0
LINE
  5
3C6
100
AcDbEntity
  8
0
 62
     7
 48
0.15
100
AcDbLine
 10
29.832022
 20
249.701492
 30
0.0
 11
29.832022
 21
255.701492
 31
0.0
210
0.0
220
0.0
230
1.0
  0
LINE
  5
3C7
100
AcDbEntity
  8
0
 62
     7
100
AcDbLine
 10
29.832022
 20
255.701492
 30
0.0
 11
59.83202
 21
255.701492
 31
0.0
210
0.0
220
0.0
230
1.0
  0
LINE
  5
3C8
100
AcDbEntity
  8
0
 62
     7
 48
0.325
100
AcDbLine
 10
59.83202
 20
255.701492
 30
0.0
 11
59.83202
 21
268.701477
 31
0.0
210
0.0
220
0.0
230
1.0
  0
LINE
  5
3C9
100
AcDbEntity
  8
0
 62
     7
 48
0.25
100
AcDbLine
 10
59.83202
 20
268.701477
 30
0.0
 11
69.832016
 21
268.701477
 31
0.0
210
0.0
220
0.0
230
1.0
  0
LINE
  5
3CA
100
AcDbEntity
  8
0
 62
     7
 48
0.4
100
AcDbLine
 10
69.832016
 20
252.701492
 30
0.0
 11
69.832016
 21
268.701477
 31
0.0
210
0.0
220
0.0
230
1.0
  0
ARC
  5
3CB
100
AcDbEntity
  8
0
 62
     7
100
AcDbCircle
 10
74.017387
 20
252.459488
 30
0.0
 40
4.192356
210
0.0
220
0.0
230
1.0
100
AcDbArc
 50
176.690819
 51
270.018825
  0
LINE
  5
3CC
100
AcDbEntity
  8
0
 62
     7
100
AcDbLine
 10
74.018761
 20
248.267136
 30
0.0
 11
105.808807
 21
248.267136
 31
0.0
210
0.0
220
0.0
230
1.0
  0
ARC
  5
3CD
100
AcDbEntity
  8
0
 62
     7
100
AcDbCircle
 10
105.540627
 20
252.259094
 30
0.0
 40
4.000961
210
0.0
220
0.0
230
1.0
100
AcDbArc
 50
273.843403
 51
358.696755
  0
LINE
  5
3CE
100
AcDbEntity
  8
0
 62
     7
 48
0.437463
100
AcDbLine
 10
109.54055
 20
252.168091
 30
0.0
 11
109.546295
 21
269.666595
 31
0.0
210
0.0
220
0.0
230
1.0
  0
LINE
  5
3CF
100
AcDbEntity
  8
0
 62
     7
100
AcDbLine
 10
109.546295
 20
269.666595
 30
0.0
 11
133.818848
 21
269.65863
 31
0.0
210
0.0
220
0.0
230
1.0
  0
LINE
  5
3D0
100
AcDbEntity
  8
0
 62
     7
 48
0.15
100
AcDbLine
 10
133.818848
 20
269.65863
 30
0.0
 11
133.820816
 21
275.65863
 31
0.0
210
0.0
220
0.0
230
1.0
  0
LINE
  5
3D1
100
AcDbEntity
  8
0
 62
     7
 48
0.150505
100
AcDbLine
 10
133.820816
 20
275.65863
 30
0.0
 11
139.841034
 21
275.656525
 31
0.0
210
0.0
220
0.0
230
1.0
  0
LINE
  5
3D2
100
AcDbEntity
  8
0
 62
     7
 48
0.15
100
AcDbLine
 10
139.841034
 20
275.656525
 30
0.0
 11
139.843002
 21
281.656525
 31
0.0
210
0.0
220
0.0
230
1.0
  0
LINE
  5
3D3
100
AcDbEntity
  8
0
 62
     7
100
AcDbLine
 10
139.843002
 20
281.656525
 30
0.0
 11
163.843002
 21
281.648621
 31
0.0
210
0.0
220
0.0
230
1.0
  0
LINE
  5
3D4
100
AcDbEntity
  8
0
 62
     7
 48
0.046419
100
AcDbLine
 10
164.969574
 20
280.172668
 30
0.0
 11
163.843002
 21
281.648621
 31
0.0
210
0.0
220
0.0
230
1.0
  0
ARC
  5
3D5
100
AcDbEntity
  8
0
 62
     7
100
AcDbCircle
 10
163.379776
 20
278.959198
 30
0.0
 40
2.0
210
0.0
220
0.0
230
1.0
100
AcDbArc
 50
325.214458
 51
397.353796
  0
LINE
  5
3D6
100
AcDbEntity
  8
0
 62
     7
 48
0.140697
100
AcDbLine
 10
161.725403
 20
273.257111
 30
0.0
 11
165.022354
 21
277.818176
 31
0.0
210
0.0
220
0.0
230
1.0
  0
ARC
  5
3D7
100
AcDbEntity
  8
0
 62
     7
100
AcDbCircle
 10
160.138535
 20
274.474426
 30
0.0
 40
2.0
210
0.0
220
0.0
230
1.0
100
AcDbArc
 50
271.616925
 51
322.50779
  0
LINE
  5
3D8
100
AcDbEntity
  8
0
 62
     7
 48
0.237447
100
AcDbLine
 10
150.697098
 20
272.476776
 30
0.0
 11
160.194962
 21
272.47522
 31
0.0
210
0.0
220
0.0
230
1.0
  0
ARC
  5
3D9
100
AcDbEntity
  8
0
 62
     7
100
AcDbCircle
 10
150.773392
 20
268.476379
 30
0.0
 40
4.001121
210
0.0
220
0.0
230
1.0
100
AcDbArc
 50
91.092655
 51
164.354009
  0
LINE
  5
3DA
100
AcDbEntity
  8
0
 62
     7
 48
0.225115
100
AcDbLine
 10
146.920532
 20
269.555481
 30
0.0
 11
144.660004
 21
260.839233
 31
0.0
210
0.0
220
0.0
230
1.0
  0
ARC
  5
3DB
100
AcDbEntity
  8
0
 62
     7
100
AcDbCircle
 10
148.374908
 20
259.875793
 30
0.0
 40
3.83781
210
0.0
220
0.0
230
1.0
100
AcDbArc
 50
165.4608
 51
241.266624
  0
ARC
  5
3DC
100
AcDbEntity
  8
0
 62
     7
100
AcDbCircle
 10
147.56778
 20
258.395264
 30
0.0
 40
2.151571
210
0.0
220
0.0
230
1.0
100
AcDbArc
 50
241.160155
 51
323.969451
  0
ARC
  5
3DD
100
AcDbEntity
  8
0
 62
     7
100
AcDbCircle
 10
161.649826
 20
250.198776
 30
0.0
 40
14.154988
210
0.0
220
0.0
230
1.0
100
AcDbArc
 50
93.290651
 51
150.682839
  0
LINE
  5
3DE
100
AcDbEntity
  8
0
 62
     7
 48
0.152702
100
AcDbLine
 10
160.837311
 20
264.330414
 30
0.0
 11
160.835312
 21
258.222351
 31
0.0
210
0.0
220
0.0
230
1.0
  0
LINE
  5
3DF
100
AcDbEntity
  8
0
 62
     7
 48
0.15
100
AcDbLine
 10
160.835312
 20
258.222351
 30
0.0
 11
166.835312
 21
258.220367
 31
0.0
210
0.0
220
0.0
230
1.0
  0
LINE
  5
3E0
100
AcDbEntity
  8
0
 62
     7
 48
0.151593
100
AcDbLine
 10
166.837296
 20
264.284088
 30
0.0
 11
166.835312
 21
258.220367
 31
0.0
210
0.0
220
0.0
230
1.0
  0
ARC
  5
3E1
100
AcDbEntity
  8
0
 62
     7
100
AcDbCircle
 10
165.366211
 20
248.849121
 30
0.0
 40
15.504908
210
0.0
220
0.0
230
1.0
100
AcDbArc
 50
38.851485
 51
84.555666
  0
ARC
  5
3E2
100
AcDbEntity
  8
0
 62
     7
100
AcDbCircle
 10
181.750488
 20
261.230774
 30
0.0
 40
5.061843
210
0.0
220
0.0
230
1.0
100
AcDbArc
 50
211.64016
 51
268.18817
  0
LINE
  5
3E3
100
AcDbEntity
  8
0
 62
     7
 48
0.157912
100
AcDbLine
 10
187.906921
 20
256.167297
 30
0.0
 11
181.590439
 21
256.171448
 31
0.0
210
0.0
220
0.0
230
1.0
  0
LINE
  5
3E4
100
AcDbEntity
  8
0
 62
     7
 48
0.147229
100
AcDbLine
 10
187.904984
 20
250.278152
 30
0.0
 11
187.906921
 21
256.167297
 31
0.0
210
0.0
220
0.0
230
1.0
  0
LINE
  5
3E5
100
AcDbEntity
  8
0
 62
     7
100
AcDbLine
 10
208.663696
 20
250.278152
 30
0.0
 11
187.904984
 21
250.278152
 31
0.0
210
0.0
220
0.0
230
1.0
  0
LINE
  5
3E6
100
AcDbEntity
  8
0
 62
     7
 48
0.329493
100
AcDbLine
 10
200.531158
 20
239.906693
 30
0.0
 11
208.663696
 21
250.278152
 31
0.0
210
0.0
220
0.0
230
1.0
  0
LINE
  5
3E7
100
AcDbEntity
  8
0
 62
     7
100
AcDbLine
 10
168.000992
 20
239.906693
 30
0.0
 11
200.531158
 21
239.906693
 31
0.0
210
0.0
220
0.0
230
1.0
  0
LINE
  5
3E8
100
AcDbEntity
  8
0
 62
     7
 48
0.382571
100
AcDbLine
 10
168.000992
 20
239.906693
 30
0.0
 11
179.771774
 21
230.127884
 31
0.0
210
0.0
220
0.0
230
1.0
  0
ARC
  5
3E9
100
AcDbEntity
  8
0
 62
     7
100
AcDbCircle
 10
191.168518
 20
243.846191
 30
0.0
 40
17.834721
210
0.0
220
0.0
230
1.0
100
AcDbArc
 50
230.281249
 51
265.592124
  0
ARC
  5
3EA
100
AcDbEntity
  8
0
 62
     7
100
AcDbCircle
 10
185.69812
 20
218.027313
 30
0.0
 40
9.022151
210
0.0
220
0.0
230
1.0
100
AcDbArc
 50
192.619476
 51
422.973538
  0
ARC
  5
3EB
100
AcDbEntity
  8
0
 62
     7
100
AcDbCircle
 10
171.112595
 20
213.670349
 30
0.0
 40
6.25428
210
0.0
220
0.0
230
1.0
100
AcDbArc
 50
22.425132
 51
67.467598
  0
LINE
  5
3EC
100
AcDbEntity
  8
0
 62
     7
 48
0.416393
100
AcDbLine
 10
173.509277
 20
219.447189
 30
0.0
 11
157.57518
 21
224.296738
 31
0.0
210
0.0
220
0.0
230
1.0
  0
ARC
  5
3ED
100
AcDbEntity
  8
0
 62
     7
100
AcDbCircle
 10
154.662994
 20
214.728195
 30
0.0
 40
10.001888
210
0.0
220
0.0
230
1.0
100
AcDbArc
 50
73.072349
 51
89.992674
  0
LINE
  5
3EE
100
AcDbEntity
  8
0
 62
     7
100
AcDbLine
 10
108.832039
 20
224.735931
 30
0.0
 11
154.664276
 21
224.730087
 31
0.0
210
0.0
220
0.0
230
1.0
  0
LINE
  5
3EF
100
AcDbEntity
  8
0
 62
     7
 48
0.15
100
AcDbLine
 10
108.832039
 20
224.735931
 30
0.0
 11
108.832039
 21
230.735931
 31
0.0
210
0.0
220
0.0
230
1.0
  0
LINE
  5
3F0
100
AcDbEntity
  8
0
 62
     7
100
AcDbLine
 10
108.832039
 20
230.735931
 30
0.0
 11
80.832039
 21
230.735931
 31
0.0
210
0.0
220
0.0
230
1.0
  0
LINE
  5
3F1
100
AcDbEntity
  8
0
 62
     7
 48
0.15
100
AcDbLine
 10
80.832039
 20
230.735931
 30
0.0
 11
80.832039
 21
224.735931
 31
0.0
210
0.0
220
0.0
230
1.0
  0
LINE
  5
3F2
100
AcDbEntity
  8
0
 62
     7
100
AcDbLine
 10
80.832039
 20
224.735931
 30
0.0
 11
59.832035
 21
224.735931
 31
0.0
210
0.0
220
0.0
230
1.0
  0
ARC
  5
3F3
100
AcDbEntity
  8
0
 62
     7
100
AcDbCircle
 10
45.853638
 20
211.452957
 30
0.0
 40
19.282963
210
0.0
220
0.0
230
1.0
100
AcDbArc
 50
43.53871
 51
162.223249
  0
ARC
  5
3F4
100
AcDbEntity
  8
0
 62
     7
100
AcDbCircle
 10
18.489571
 20
218.019302
 30
0.0
 40
9.027381
210
0.0
220
0.0
230
1.0
100
AcDbArc
 50
106.641943
 51
355.685899
  0
ARC
  5
3F5
100
AcDbEntity
  8
0
 62
     7
100
AcDbCircle
 10
9.776196
 20
239.519638
 30
0.0
 40
14.237375
210
0.0
220
0.0
230
1.0
100
AcDbArc
 50
295.494092
 51
350.792287
  0
LINE
  5
3F6
100
AcDbEntity
  8
0
 62
     7
 48
0.110917
100
AcDbLine
 10
23.830122
 20
237.241455
 30
0.0
 11
23.832029
 21
241.678131
 31
0.0
210
0.0
220
0.0
230
1.0
  0
ARC
  5
3F7
100
AcDbEntity
  8
0
 62
     7
100
AcDbCircle
 10
8.414689
 20
239.805206
 30
0.0
 40
15.530686
210
0.0
220
0.0
230
1.0
100
AcDbArc
 50
6.926483
 51
24.276405
  0
LINE
  5
3F8
100
AcDbEntity
  8
0
 62
     7
 48
0.022483
100
AcDbLine
 10
21.832022
 20
246.701492
 30
0.0
 11
22.572039
 21
246.19046
 31
0.0
210
0.0
220
0.0
230
1.0
  0
LINE
  5
3F9
100
AcDbEntity
  8
0
 62
     7
 48
0.15
100
AcDbLine
 10
15.832021
 20
246.697998
 30
0.0
 11
21.832022
 21
246.701492
 31
0.0
210
0.0
220
0.0
230
1.0
  0
LINE
  5
3FA
100
AcDbEntity
  8
0
 62
     7
 48
0.175083
100
AcDbLine
 10
15.832021
 20
253.701309
 30
0.0
 11
15.832021
 21
246.697998
 31
0.0
210
0.0
220
0.0
230
1.0
  0
CIRCLE
  5
3FB
100
AcDbEntity
  8
0
 62
     7
100
AcDbCircle
 10
18.489563
 20
218.04158
 30
0.0
 40
5.0
210
0.0
220
0.0
230
1.0
  0
CIRCLE
  5
3FC
100
AcDbEntity
  8
0
 62
     7
100
AcDbCircle
 10
185.69812
 20
218.049591
 30
0.0
 40
5.0
210
0.0
220
0.0
230
1.0
  0
LINE
  5
3FD
100
AcDbEntity
  8
0
 62
     7
 48
0.15
100
AcDbLine
 10
117.832024
 20
260.700409
 30
0.0
 11
117.832024
 21
254.700409
 31
0.0
210
0.0
220
0.0
230
1.0
  0
LINE
  5
3FE
100
AcDbEntity
  8
0
 62
     7
 48
0.3
100
AcDbLine
 10
129.832016
 20
254.700409
 30
0.0
 11
117.832024
 21
254.700409
 31
0.0
210
0.0
220
0.0
230
1.0
  0
LINE
  5
3FF
100
AcDbEntity
  8
0
 62
     7
 48
0.15
100
AcDbLine
 10
129.832016
 20
260.700409
 30
0.0
 11
129.832016
 21
254.700409
 31
0.0
210
0.0
220
0.0
230
1.0
  0
LINE
  5
400
100
AcDbEntity
  8
0
 62
     7
 48
0.3
100
AcDbLine
 10
117.832024
 20
260.700409
 30
0.0
 11
129.832016
 21
260.700409
 31
0.0
210
0.0
220
0.0
230
1.0
  0
CIRCLE
  5
401
100
AcDbEntity
  8
0
 62
     7
100
AcDbCircle
 10
28.008211
 20
379.2995
 30
0.0
 40
26.0
210
0.0
220
0.0
230
1.0
  0
LINE
  5
402
100
AcDbEntity
  8
0
 62
     7
 48
0.2
100
AcDbLine
 10
24.008211
 20
382.2995
 30
0.0
 11
32.008209
 21
382.2995
 31
0.0
210
0.0
220
0.0
230
1.0
  0
LINE
  5
403
100
AcDbEntity
  8
0
 62
     7
 48
0.15
100
AcDbLine
 10
32.008209
 20
382.2995
 30
0.0
 11
32.008209
 21
376.2995
 31
0.0
210
0.0
220
0.0
230
1.0
  0
LINE
  5
404
100
AcDbEntity
  8
0
 62
     7
 48
0.2
100
AcDbLine
 10
32.008209
 20
376.2995
 30
0.0
 11
24.008211
 21
376.2995
 31
0.0
210
0.0
220
0.0
230
1.0
  0
LINE
  5
405
100
AcDbEntity
  8
0
 62
     7
 48
0.15
100
AcDbLine
 10
24.008211
 20
376.2995
 30
0.0
 11
24.008211
 21
382.2995
 31
0.0
210
0.0
220
0.0
230
1.0
  0
ARC
  5
406
100
AcDbEntity
  8
0
 62
     7
100
AcDbCircle
 10
28.008211
 20
379.2995
 30
0.0
 40
7.5
210
0.0
220
0.0
230
1.0
100
AcDbArc
 50
74.999999
 51
105.0
  0
ARC
  5
407
100
AcDbEntity
  8
0
 62
     7
100
AcDbCircle
 10
14.085896
 20
387.215881
 30
0.0
 40
12.0
210
0.0
220
0.0
230
1.0
100
AcDbArc
 50
356.79004
 51
393.209947
  0
ARC
  5
408
100
AcDbEntity
  8
0
 62
     7
100
AcDbCircle
 10
34.815651
 20
399.240875
 30
0.0
 40
12.0
210
0.0
220
0.0
230
1.0
100
AcDbArc
 50
182.975304
 51
207.0247
  0
ARC
  5
409
100
AcDbEntity
  8
0
 62
     7
100
AcDbCircle
 10
28.008211
 20
379.2995
 30
0.0
 40
20.0
210
0.0
220
0.0
230
1.0
100
AcDbArc
 50
74.999999
 51
105.0
  0
ARC
  5
40A
100
AcDbEntity
  8
0
 62
     7
100
AcDbCircle
 10
21.200768
 20
399.240875
 30
0.0
 40
12.0
210
0.0
220
0.0
230
1.0
100
AcDbArc
 50
332.975301
 51
357.024698
  0
ARC
  5
40B
100
AcDbEntity
  8
0
 62
     7
100
AcDbCircle
 10
41.930527
 20
387.215881
 30
0.0
 40
12.0
210
0.0
220
0.0
230
1.0
100
AcDbArc
 50
146.790041
 51
183.209962
  0
ARC
  5
40C
100
AcDbEntity
  8
0
 62
     7
100
AcDbCircle
 10
28.008211
 20
379.2995
 30
0.0
 40
7.5
210
0.0
220
0.0
230
1.0
100
AcDbArc
 50
135.0
 51
164.999994
  0
ARC
  5
40D
100
AcDbEntity
  8
0
 62
     7
100
AcDbCircle
 10
14.191264
 20
371.200623
 30
0.0
 40
12.0
210
0.0
220
0.0
230
1.0
100
AcDbArc
 50
56.790042
 51
93.209959
  0
ARC
  5
40E
100
AcDbEntity
  8
0
 62
     7
100
AcDbCircle
 10
14.142189
 20
395.165619
 30
0.0
 40
12.0
210
0.0
220
0.0
230
1.0
100
AcDbArc
 50
242.975292
 51
267.024688
  0
ARC
  5
40F
100
AcDbEntity
  8
0
 62
     7
100
AcDbCircle
 10
28.008211
 20
379.2995
 30
0.0
 40
20.0
210
0.0
220
0.0
230
1.0
100
AcDbArc
 50
135.0
 51
164.999994
  0
ARC
  5
410
100
AcDbEntity
  8
0
 62
     7
100
AcDbCircle
 10
7.334746
 20
383.374756
 30
0.0
 40
12.0
210
0.0
220
0.0
230
1.0
100
AcDbArc
 50
32.9753
 51
57.0247
  0
ARC
  5
411
100
AcDbEntity
  8
0
 62
     7
100
AcDbCircle
 10
28.113579
 20
395.314758
 30
0.0
 40
12.0
210
0.0
220
0.0
230
1.0
100
AcDbArc
 50
206.790042
 51
243.20995
  0
ARC
  5
412
100
AcDbEntity
  8
0
 62
     7
100
AcDbCircle
 10
28.008211
 20
379.2995
 30
0.0
 40
7.5
210
0.0
220
0.0
230
1.0
100
AcDbArc
 50
195.000002
 51
224.999996
  0
ARC
  5
413
100
AcDbEntity
  8
0
 62
     7
100
AcDbCircle
 10
28.113579
 20
363.284241
 30
0.0
 40
12.0
210
0.0
220
0.0
230
1.0
100
AcDbArc
 50
116.790047
 51
153.209954
  0
ARC
  5
414
100
AcDbEntity
  8
0
 62
     7
100
AcDbCircle
 10
7.334746
 20
375.224243
 30
0.0
 40
12.0
210
0.0
220
0.0
230
1.0
100
AcDbArc
 50
302.975307
 51
327.024704
  0
ARC
  5
415
100
AcDbEntity
  8
0
 62
     7
100
AcDbCircle
 10
28.008211
 20
379.2995
 30
0.0
 40
20.0
210
0.0
220
0.0
230
1.0
100
AcDbArc
 50
195.000002
 51
224.999996
  0
ARC
  5
416
100
AcDbEntity
  8
0
 62
     7
100
AcDbCircle
 10
14.142189
 20
363.43338
 30
0.0
 40
12.0
210
0.0
220
0.0
230
1.0
100
AcDbArc
 50
92.975301
 51
117.024705
  0
ARC
  5
417
100
AcDbEntity
  8
0
 62
     7
100
AcDbCircle
 10
14.191264
 20
387.398376
 30
0.0
 40
12.0
210
0.0
220
0.0
230
1.0
100
AcDbArc
 50
266.79003
 51
303.209965
  0
ARC
  5
418
100
AcDbEntity
  8
0
 62
     7
100
AcDbCircle
 10
28.008211
 20
379.2995
 30
0.0
 40
7.5
210
0.0
220
0.0
230
1.0
100
AcDbArc
 50
255.000004
 51
284.999998
  0
ARC
  5
419
100
AcDbEntity
  8
0
 62
     7
100
AcDbCircle
 10
41.930527
 20
371.383118
 30
0.0
 40
12.0
210
0.0
220
0.0
230
1.0
100
AcDbArc
 50
176.790048
 51
213.209956
  0
ARC
  5
41A
100
AcDbEntity
  8
0
 62
     7
100
AcDbCircle
 10
21.200768
 20
359.358124
 30
0.0
 40
12.0
210
0.0
220
0.0
230
1.0
100
AcDbArc
 50
2.975301
 51
27.024699
  0
ARC
  5
41B
100
AcDbEntity
  8
0
 62
     7
100
AcDbCircle
 10
28.008211
 20
379.2995
 30
0.0
 40
20.0
210
0.0
220
0.0
230
1.0
100
AcDbArc
 50
255.000004
 51
284.999998
  0
ARC
  5
41C
100
AcDbEntity
  8
0
 62
     7
100
AcDbCircle
 10
34.815651
 20
359.358124
 30
0.0
 40
12.0
210
0.0
220
0.0
230
1.0
100
AcDbArc
 50
152.975296
 51
177.024693
  0
ARC
  5
41D
100
AcDbEntity
  8
0
 62
     7
100
AcDbCircle
 10
14.085896
 20
371.383118
 30
0.0
 40
12.0
210
0.0
220
0.0
230
1.0
100
AcDbArc
 50
326.790046
 51
363.209953
  0
ARC
  5
41E
100
AcDbEntity
  8
0
 62
     7
100
AcDbCircle
 10
28.008211
 20
379.2995
 30
0.0
 40
7.5
210
0.0
220
0.0
230
1.0
100
AcDbArc
 50
314.999992
 51
345.000013
  0
ARC
  5
41F
100
AcDbEntity
  8
0
 62
     7
100
AcDbCircle
 10
41.825157
 20
387.398376
 30
0.0
 40
12.0
210
0.0
220
0.0
230
1.0
100
AcDbArc
 50
236.790036
 51
273.209944
  0
ARC
  5
420
100
AcDbEntity
  8
0
 62
     7
100
AcDbCircle
 10
41.874229
 20
363.43338
 30
0.0
 40
12.0
210
0.0
220
0.0
230
1.0
100
AcDbArc
 50
62.9753
 51
87.024697
  0
ARC
  5
421
100
AcDbEntity
  8
0
 62
     7
100
AcDbCircle
 10
28.008211
 20
379.2995
 30
0.0
 40
20.0
210
0.0
220
0.0
230
1.0
100
AcDbArc
 50
314.999992
 51
345.000013
  0
ARC
  5
422
100
AcDbEntity
  8
0
 62
     7
100
AcDbCircle
 10
48.681679
 20
375.224243
 30
0.0
 40
12.0
210
0.0
220
0.0
230
1.0
100
AcDbArc
 50
212.975298
 51
237.024694
  0
ARC
  5
423
100
AcDbEntity
  8
0
 62
     7
100
AcDbCircle
 10
27.902843
 20
363.284241
 30
0.0
 40
12.0
210
0.0
220
0.0
230
1.0
100
AcDbArc
 50
26.790042
 51
63.209958
  0
ARC
  5
424
100
AcDbEntity
  8
0
 62
     7
100
AcDbCircle
 10
28.008211
 20
379.2995
 30
0.0
 40
7.5
210
0.0
220
0.0
230
1.0
100
AcDbArc
 50
15.0
 51
45.000001
  0
ARC
  5
425
100
AcDbEntity
  8
0
 62
     7
100
AcDbCircle
 10
27.902843
 20
395.314758
 30
0.0
 40
12.0
210
0.0
220
0.0
230
1.0
100
AcDbArc
 50
296.790052
 51
333.209959
  0
ARC
  5
426
100
AcDbEntity
  8
0
 62
     7
100
AcDbCircle
 10
48.681679
 20
383.374756
 30
0.0
 40
12.0
210
0.0
220
0.0
230
1.0
100
AcDbArc
 50
122.975302
 51
147.024699
  0
ARC
  5
427
100
AcDbEntity
  8
0
 62
     7
100
AcDbCircle
 10
28.008211
 20
379.2995
 30
0.0
 40
20.0
210
0.0
220
0.0
230
1.0
100
AcDbArc
 50
15.0
 51
45.000001
  0
ARC
  5
428
100
AcDbEntity
  8
0
 62
     7
100
AcDbCircle
 10
41.874229
 20
395.165619
 30
0.0
 40
12.0
210
0.0
220
0.0
230
1.0
100
AcDbArc
 50
272.975313
 51
297.02471
  0
ARC
  5
429
100
AcDbEntity
  8
0
 62
     7
100
AcDbCircle
 10
41.825157
 20
371.200623
 30
0.0
 40
12.0
210
0.0
220
0.0
230
1.0
100
AcDbArc
 50
86.790046
 51
123.20996
  0
CIRCLE
  5
42A
100
AcDbEntity
  8
0
 62
     7
100
AcDbCircle
 10
86.37764
 20
380.517792
 30
0.0
 40
26.0
210
0.0
220
0.0
230
1.0
  0
LINE
  5
42B
100
AcDbEntity
  8
0
 62
     7
 48
0.2
100
AcDbLine
 10
82.37764
 20
383.517792
 30
0.0
 11
90.37764
 21
383.517792
 31
0.0
210
0.0
220
0.0
230
1.0
  0
LINE
  5
42C
100
AcDbEntity
  8
0
 62
     7
 48
0.15
100
AcDbLine
 10
90.37764
 20
383.517792
 30
0.0
 11
90.37764
 21
377.517792
 31
0.0
210
0.0
220
0.0
230
1.0
  0
LINE
  5
42D
100
AcDbEntity
  8
0
 62
     7
 48
0.2
100
AcDbLine
 10
90.37764
 20
377.517792
 30
0.0
 11
82.37764
 21
377.517792
 31
0.0
210
0.0
220
0.0
230
1.0
  0
LINE
  5
42E
100
AcDbEntity
  8
0
 62
     7
 48
0.15
100
AcDbLine
 10
82.37764
 20
377.517792
 30
0.0
 11
82.37764
 21
383.517792
 31
0.0
210
0.0
220
0.0
230
1.0
  0
ARC
  5
42F
100
AcDbEntity
  8
0
 62
     7
100
AcDbCircle
 10
86.37764
 20
380.517792
 30
0.0
 40
7.5
210
0.0
220
0.0
230
1.0
100
AcDbArc
 50
74.999999
 51
105.0
  0
ARC
  5
430
100
AcDbEntity
  8
0
 62
     7
100
AcDbCircle
 10
72.45533
 20
388.434174
 30
0.0
 40
12.0
210
0.0
220
0.0
230
1.0
100
AcDbArc
 50
356.79004
 51
393.209947
  0
ARC
  5
431
100
AcDbEntity
  8
0
 62
     7
100
AcDbCircle
 10
93.185089
 20
400.459167
 30
0.0
 40
12.0
210
0.0
220
0.0
230
1.0
100
AcDbArc
 50
182.975304
 51
207.0247
  0
ARC
  5
432
100
AcDbEntity
  8
0
 62
     7
100
AcDbCircle
 10
86.37764
 20
380.517792
 30
0.0
 40
20.0
210
0.0
220
0.0
230
1.0
100
AcDbArc
 50
74.999999
 51
105.0
  0
ARC
  5
433
100
AcDbEntity
  8
0
 62
     7
100
AcDbCircle
 10
79.570198
 20
400.459167
 30
0.0
 40
12.0
210
0.0
220
0.0
230
1.0
100
AcDbArc
 50
332.975301
 51
357.024698
  0
ARC
  5
434
100
AcDbEntity
  8
0
 62
     7
100
AcDbCircle
 10
100.299957
 20
388.434174
 30
0.0
 40
12.0
210
0.0
220
0.0
230
1.0
100
AcDbArc
 50
146.790041
 51
183.209962
  0
ARC
  5
435
100
AcDbEntity
  8
0
 62
     7
100
AcDbCircle
 10
86.37764
 20
380.517792
 30
0.0
 40
7.5
210
0.0
220
0.0
230
1.0
100
AcDbArc
 50
135.0
 51
164.999994
  0
ARC
  5
436
100
AcDbEntity
  8
0
 62
     7
100
AcDbCircle
 10
72.560699
 20
372.418915
 30
0.0
 40
12.0
210
0.0
220
0.0
230
1.0
100
AcDbArc
 50
56.790042
 51
93.209959
  0
ARC
  5
437
100
AcDbEntity
  8
0
 62
     7
100
AcDbCircle
 10
72.51162
 20
396.383911
 30
0.0
 40
12.0
210
0.0
220
0.0
230
1.0
100
AcDbArc
 50
242.975292
 51
267.024688
  0
ARC
  5
438
100
AcDbEntity
  8
0
 62
     7
100
AcDbCircle
 10
86.37764
 20
380.517792
 30
0.0
 40
20.0
210
0.0
220
0.0
230
1.0
100
AcDbArc
 50
135.0
 51
164.999994
  0
ARC
  5
439
100
AcDbEntity
  8
0
 62
     7
100
AcDbCircle
 10
65.704178
 20
384.593079
 30
0.0
 40
12.0
210
0.0
220
0.0
230
1.0
100
AcDbArc
 50
32.9753
 51
57.0247
  0
ARC
  5
43A
100
AcDbEntity
  8
0
 62
     7
100
AcDbCircle
 10
86.483009
 20
396.533051
 30
0.0
 40
12.0
210
0.0
220
0.0
230
1.0
100
AcDbArc
 50
206.790042
 51
243.20995
  0
ARC
  5
43B
100
AcDbEntity
  8
0
 62
     7
100
AcDbCircle
 10
86.37764
 20
380.517792
 30
0.0
 40
7.5
210
0.0
220
0.0
230
1.0
100
AcDbArc
 50
195.000002
 51
224.999996
  0
ARC
  5
43C
100
AcDbEntity
  8
0
 62
     7
100
AcDbCircle
 10
86.483009
 20
364.502533
 30
0.0
 40
12.0
210
0.0
220
0.0
230
1.0
100
AcDbArc
 50
116.790047
 51
153.209954
  0
ARC
  5
43D
100
AcDbEntity
  8
0
 62
     7
100
AcDbCircle
 10
65.704178
 20
376.442505
 30
0.0
 40
12.0
210
0.0
220
0.0
230
1.0
100
AcDbArc
 50
302.975307
 51
327.024704
  0
ARC
  5
43E
100
AcDbEntity
  8
0
 62
     7
100
AcDbCircle
 10
86.37764
 20
380.517792
 30
0.0
 40
20.0
210
0.0
220
0.0
230
1.0
100
AcDbArc
 50
195.000002
 51
224.999996
  0
ARC
  5
43F
100
AcDbEntity
  8
0
 62
     7
100
AcDbCircle
 10
72.51162
 20
364.651672
 30
0.0
 40
12.0
210
0.0
220
0.0
230
1.0
100
AcDbArc
 50
92.975301
 51
117.024705
  0
ARC
  5
440
100
AcDbEntity
  8
0
 62
     7
100
AcDbCircle
 10
72.560699
 20
388.616669
 30
0.0
 40
12.0
210
0.0
220
0.0
230
1.0
100
AcDbArc
 50
266.79003
 51
303.209965
  0
ARC
  5
441
100
AcDbEntity
  8
0
 62
     7
100
AcDbCircle
 10
86.37764
 20
380.517792
 30
0.0
 40
7.5
210
0.0
220
0.0
230
1.0
100
AcDbArc
 50
255.000004
 51
284.999998
  0
ARC
  5
442
100
AcDbEntity
  8
0
 62
     7
100
AcDbCircle
 10
100.299957
 20
372.60141
 30
0.0
 40
12.0
210
0.0
220
0.0
230
1.0
100
AcDbArc
 50
176.790048
 51
213.209956
  0
ARC
  5
443
100
AcDbEntity
  8
0
 62
     7
100
AcDbCircle
 10
79.570198
 20
360.576416
 30
0.0
 40
12.0
210
0.0
220
0.0
230
1.0
100
AcDbArc
 50
2.975301
 51
27.024699
  0
ARC
  5
444
100
AcDbEntity
  8
0
 62
     7
100
AcDbCircle
 10
86.37764
 20
380.517792
 30
0.0
 40
20.0
210
0.0
220
0.0
230
1.0
100
AcDbArc
 50
255.000004
 51
284.999998
  0
ARC
  5
445
100
AcDbEntity
  8
0
 62
     7
100
AcDbCircle
 10
93.185089
 20
360.576416
 30
0.0
 40
12.0
210
0.0
220
0.0
230
1.0
100
AcDbArc
 50
152.975296
 51
177.024693
  0
ARC
  5
446
100
AcDbEntity
  8
0
 62
     7
100
AcDbCircle
 10
72.45533
 20
372.60141
 30
0.0
 40
12.0
210
0.0
220
0.0
230
1.0
100
AcDbArc
 50
326.790046
 51
363.209953
  0
ARC
  5
447
100
AcDbEntity
  8
0
 62
     7
100
AcDbCircle
 10
86.37764
 20
380.517792
 30
0.0
 40
7.5
210
0.0
220
0.0
230
1.0
100
AcDbArc
 50
314.999992
 51
345.000013
  0
ARC
  5
448
100
AcDbEntity
  8
0
 62
     7
100
AcDbCircle
 10
100.194595
 20
388.616669
 30
0.0
 40
12.0
210
0.0
220
0.0
230
1.0
100
AcDbArc
 50
236.790036
 51
273.209944
  0
ARC
  5
449
100
AcDbEntity
  8
0
 62
     7
100
AcDbCircle
 10
100.243668
 20
364.651672
 30
0.0
 40
12.0
210
0.0
220
0.0
230
1.0
100
AcDbArc
 50
62.9753
 51
87.024697
  0
ARC
  5
44A
100
AcDbEntity
  8
0
 62
     7
100
AcDbCircle
 10
86.37764
 20
380.517792
 30
0.0
 40
20.0
210
0.0
220
0.0
230
1.0
100
AcDbArc
 50
314.999992
 51
345.000013
  0
ARC
  5
44B
100
AcDbEntity
  8
0
 62
     7
100
AcDbCircle
 10
107.051109
 20
376.442505
 30
0.0
 40
12.0
210
0.0
220
0.0
230
1.0
100
AcDbArc
 50
212.975298
 51
237.024694
  0
ARC
  5
44C
100
AcDbEntity
  8
0
 62
     7
100
AcDbCircle
 10
86.272278
 20
364.502533
 30
0.0
 40
12.0
210
0.0
220
0.0
230
1.0
100
AcDbArc
 50
26.790042
 51
63.209958
  0
ARC
  5
44D
100
AcDbEntity
  8
0
 62
     7
100
AcDbCircle
 10
86.37764
 20
380.517792
 30
0.0
 40
7.5
210
0.0
220
0.0
230
1.0
100
AcDbArc
 50
15.0
 51
45.000001
  0
ARC
  5
44E
100
AcDbEntity
  8
0
 62
     7
100
AcDbCircle
 10
86.272278
 20
396.533051
 30
0.0
 40
12.0
210
0.0
220
0.0
230
1.0
100
AcDbArc
 50
296.790052
 51
333.209959
  0
ARC
  5
44F
100
AcDbEntity
  8
0
 62
     7
100
AcDbCircle
 10
107.051109
 20
384.593079
 30
0.0
 40
12.0
210
0.0
220
0.0
230
1.0
100
AcDbArc
 50
122.975302
 51
147.024699
  0
ARC
  5
450
100
AcDbEntity
  8
0
 62
     7
100
AcDbCircle
 10
86.37764
 20
380.517792
 30
0.0
 40
20.0
210
0.0
220
0.0
230
1.0
100
AcDbArc
 50
15.0
 51
45.000001
  0
ARC
  5
451
100
AcDbEntity
  8
0
 62
     7
100
AcDbCircle
 10
100.243668
 20
396.383911
 30
0.0
 40
12.0
210
0.0
220
0.0
230
1.0
100
AcDbArc
 50
272.975313
 51
297.02471
  0
ARC
  5
452
100
AcDbEntity
  8
0
 62
     7
100
AcDbCircle
 10
100.194595
 20
372.418915
 30
0.0
 40
12.0
210
0.0
220
0.0
230
1.0
100
AcDbArc
 50
86.790046
 51
123.20996
  0
CIRCLE
  5
453
100
AcDbEntity
  8
0
 62
     7
100
AcDbCircle
 10
146.217819
 20
379.677032
 30
0.0
 40
26.0
210
0.0
220
0.0
230
1.0
  0
LINE
  5
454
100
AcDbEntity
  8
0
 62
     7
 48
0.2
100
AcDbLine
 10
142.217819
 20
382.677032
 30
0.0
 11
150.217819
 21
382.677032
 31
0.0
210
0.0
220
0.0
230
1.0
  0
LINE
  5
455
100
AcDbEntity
  8
0
 62
     7
 48
0.15
100
AcDbLine
 10
150.217819
 20
382.677032
 30
0.0
 11
150.217819
 21
376.677032
 31
0.0
210
0.0
220
0.0
230
1.0
  0
LINE
  5
456
100
AcDbEntity
  8
0
 62
     7
 48
0.2
100
AcDbLine
 10
150.217819
 20
376.677032
 30
0.0
 11
142.217819
 21
376.677032
 31
0.0
210
0.0
220
0.0
230
1.0
  0
LINE
  5
457
100
AcDbEntity
  8
0
 62
     7
 48
0.15
100
AcDbLine
 10
142.217819
 20
376.677032
 30
0.0
 11
142.217819
 21
382.677032
 31
0.0
210
0.0
220
0.0
230
1.0
  0
ARC
  5
458
100
AcDbEntity
  8
0
 62
     7
100
AcDbCircle
 10
146.217819
 20
379.677032
 30
0.0
 40
7.5
210
0.0
220
0.0
230
1.0
100
AcDbArc
 50
74.999999
 51
105.0
  0
ARC
  5
459
100
AcDbEntity
  8
0
 62
     7
100
AcDbCircle
 10
132.295502
 20
387.593414
 30
0.0
 40
12.0
210
0.0
220
0.0
230
1.0
100
AcDbArc
 50
356.79004
 51
393.209947
  0
ARC
  5
45A
100
AcDbEntity
  8
0
 62
     7
100
AcDbCircle
 10
153.025269
 20
399.618408
 30
0.0
 40
12.0
210
0.0
220
0.0
230
1.0
100
AcDbArc
 50
182.975304
 51
207.0247
  0
ARC
  5
45B
100
AcDbEntity
  8
0
 62
     7
100
AcDbCircle
 10
146.217819
 20
379.677032
 30
0.0
 40
20.0
210
0.0
220
0.0
230
1.0
100
AcDbArc
 50
74.999999
 51
105.0
  0
ARC
  5
45C
100
AcDbEntity
  8
0
 62
     7
100
AcDbCircle
 10
139.41037
 20
399.618408
 30
0.0
 40
12.0
210
0.0
220
0.0
230
1.0
100
AcDbArc
 50
332.975301
 51
357.024698
  0
ARC
  5
45D
100
AcDbEntity
  8
0
 62
     7
100
AcDbCircle
 10
160.140137
 20
387.593414
 30
0.0
 40
12.0
210
0.0
220
0.0
230
1.0
100
AcDbArc
 50
146.790041
 51
183.209962
  0
ARC
  5
45E
100
AcDbEntity
  8
0
 62
     7
100
AcDbCircle
 10
146.217819
 20
379.677032
 30
0.0
 40
7.5
210
0.0
220
0.0
230
1.0
100
AcDbArc
 50
135.0
 51
164.999994
  0
ARC
  5
45F
100
AcDbEntity
  8
0
 62
     7
100
AcDbCircle
 10
132.400879
 20
371.578156
 30
0.0
 40
12.0
210
0.0
220
0.0
230
1.0
100
AcDbArc
 50
56.790042
 51
93.209959
  0
ARC
  5
460
100
AcDbEntity
  8
0
 62
     7
100
AcDbCircle
 10
132.351791
 20
395.543152
 30
0.0
 40
12.0
210
0.0
220
0.0
230
1.0
100
AcDbArc
 50
242.975292
 51
267.024688
  0
ARC
  5
461
100
AcDbEntity
  8
0
 62
     7
100
AcDbCircle
 10
146.217819
 20
379.677032
 30
0.0
 40
20.0
210
0.0
220
0.0
230
1.0
100
AcDbArc
 50
135.0
 51
164.999994
  0
ARC
  5
462
100
AcDbEntity
  8
0
 62
     7
100
AcDbCircle
 10
125.544357
 20
383.752319
 30
0.0
 40
12.0
210
0.0
220
0.0
230
1.0
100
AcDbArc
 50
32.9753
 51
57.0247
  0
ARC
  5
463
100
AcDbEntity
  8
0
 62
     7
100
AcDbCircle
 10
146.323181
 20
395.692291
 30
0.0
 40
12.0
210
0.0
220
0.0
230
1.0
100
AcDbArc
 50
206.790042
 51
243.20995
  0
ARC
  5
464
100
AcDbEntity
  8
0
 62
     7
100
AcDbCircle
 10
146.217819
 20
379.677032
 30
0.0
 40
7.5
210
0.0
220
0.0
230
1.0
100
AcDbArc
 50
195.000002
 51
224.999996
  0
ARC
  5
465
100
AcDbEntity
  8
0
 62
     7
100
AcDbCircle
 10
146.323181
 20
363.661774
 30
0.0
 40
12.0
210
0.0
220
0.0
230
1.0
100
AcDbArc
 50
116.790047
 51
153.209954
  0
ARC
  5
466
100
AcDbEntity
  8
0
 62
     7
100
AcDbCircle
 10
125.544357
 20
375.601746
 30
0.0
 40
12.0
210
0.0
220
0.0
230
1.0
100
AcDbArc
 50
302.975307
 51
327.024704
  0
ARC
  5
467
100
AcDbEntity
  8
0
 62
     7
100
AcDbCircle
 10
146.217819
 20
379.677032
 30
0.0
 40
20.0
210
0.0
220
0.0
230
1.0
100
AcDbArc
 50
195.000002
 51
224.999996
  0
ARC
  5
468
100
AcDbEntity
  8
0
 62
     7
100
AcDbCircle
 10
132.351791
 20
363.810913
 30
0.0
 40
12.0
210
0.0
220
0.0
230
1.0
100
AcDbArc
 50
92.975301
 51
117.024705
  0
ARC
  5
469
100
AcDbEntity
  8
0
 62
     7
100
AcDbCircle
 10
132.400879
 20
387.775909
 30
0.0
 40
12.0
210
0.0
220
0.0
230
1.0
100
AcDbArc
 50
266.79003
 51
303.209965
  0
ARC
  5
46A
100
AcDbEntity
  8
0
 62
     7
100
AcDbCircle
 10
146.217819
 20
379.677032
 30
0.0
 40
7.5
210
0.0
220
0.0
230
1.0
100
AcDbArc
 50
255.000004
 51
284.999998
  0
ARC
  5
46B
100
AcDbEntity
  8
0
 62
     7
100
AcDbCircle
 10
160.140137
 20
371.760651
 30
0.0
 40
12.0
210
0.0
220
0.0
230
1.0
100
AcDbArc
 50
176.790048
 51
213.209956
  0
ARC
  5
46C
100
AcDbEntity
  8
0
 62
     7
100
AcDbCircle
 10
139.41037
 20
359.735657
 30
0.0
 40
12.0
210
0.0
220
0.0
230
1.0
100
AcDbArc
 50
2.975301
 51
27.024699
  0
ARC
  5
46D
100
AcDbEntity
  8
0
 62
     7
100
AcDbCircle
 10
146.217819
 20
379.677032
 30
0.0
 40
20.0
210
0.0
220
0.0
230
1.0
100
AcDbArc
 50
255.000004
 51
284.999998
  0
ARC
  5
46E
100
AcDbEntity
  8
0
 62
     7
100
AcDbCircle
 10
153.025269
 20
359.735657
 30
0.0
 40
12.0
210
0.0
220
0.0
230
1.0
100
AcDbArc
 50
152.975296
 51
177.024693
  0
ARC
  5
46F
100
AcDbEntity
  8
0
 62
     7
100
AcDbCircle
 10
132.295502
 20
371.760651
 30
0.0
 40
12.0
210
0.0
220
0.0
230
1.0
100
AcDbArc
 50
326.790046
 51
363.209953
  0
ARC
  5
470
100
AcDbEntity
  8
0
 62
     7
100
AcDbCircle
 10
146.217819
 20
379.677032
 30
0.0
 40
7.5
210
0.0
220
0.0
230
1.0
100
AcDbArc
 50
314.999992
 51
345.000013
  0
ARC
  5
471
100
AcDbEntity
  8
0
 62
     7
100
AcDbCircle
 10
160.03476
 20
387.775909
 30
0.0
 40
12.0
210
0.0
220
0.0
230
1.0
100
AcDbArc
 50
236.790036
 51
273.209944
  0
ARC
  5
472
100
AcDbEntity
  8
0
 62
     7
100
AcDbCircle
 10
160.083832
 20
363.810913
 30
0.0
 40
12.0
210
0.0
220
0.0
230
1.0
100
AcDbArc
 50
62.9753
 51
87.024697
  0
ARC
  5
473
100
AcDbEntity
  8
0
 62
     7
100
AcDbCircle
 10
146.217819
 20
379.677032
 30
0.0
 40
20.0
210
0.0
220
0.0
230
1.0
100
AcDbArc
 50
314.999992
 51
345.000013
  0
ARC
  5
474
100
AcDbEntity
  8
0
 62
     7
100
AcDbCircle
 10
166.891281
 20
375.601746
 30
0.0
 40
12.0
210
0.0
220
0.0
230
1.0
100
AcDbArc
 50
212.975298
 51
237.024694
  0
ARC
  5
475
100
AcDbEntity
  8
0
 62
     7
100
AcDbCircle
 10
146.112457
 20
363.661774
 30
0.0
 40
12.0
210
0.0
220
0.0
230
1.0
100
AcDbArc
 50
26.790042
 51
63.209958
  0
ARC
  5
476
100
AcDbEntity
  8
0
 62
     7
100
AcDbCircle
 10
146.217819
 20
379.677032
 30
0.0
 40
7.5
210
0.0
220
0.0
230
1.0
100
AcDbArc
 50
15.0
 51
45.000001
  0
ARC
  5
477
100
AcDbEntity
  8
0
 62
     7
100
AcDbCircle
 10
146.112457
 20
395.692291
 30
0.0
 40
12.0
210
0.0
220
0.0
230
1.0
100
AcDbArc
 50
296.790052
 51
333.209959
  0
ARC
  5
478
100
AcDbEntity
  8
0
 62
     7
100
AcDbCircle
 10
166.891281
 20
383.752319
 30
0.0
 40
12.0
210
0.0
220
0.0
230
1.0
100
AcDbArc
 50
122.975302
 51
147.024699
  0
ARC
  5
479
100
AcDbEntity
  8
0
 62
     7
100
AcDbCircle
 10
146.217819
 20
379.677032
 30
0.0
 40
20.0
210
0.0
220
0.0
230
1.0
100
AcDbArc
 50
15.0
 51
45.000001
  0
ARC
  5
47A
100
AcDbEntity
  8
0
 62
     7
100
AcDbCircle
 10
160.083832
 20
395.543152
 30
0.0
 40
12.0
210
0.0
220
0.0
230
1.0
100
AcDbArc
 50
272.975313
 51
297.02471
  0
ARC
  5
47B
100
AcDbEntity
  8
0
 62
     7
100
AcDbCircle
 10
160.03476
 20
371.578156
 30
0.0
 40
12.0
210
0.0
220
0.0
230
1.0
100
AcDbArc
 50
86.790046
 51
123.20996
  0
CIRCLE
  5
47C
100
AcDbEntity
  8
0
 62
     7
100
AcDbCircle
 10
204.881363
 20
379.382904
 30
0.0
 40
26.0
210
0.0
220
0.0
230
1.0
  0
LINE
  5
47D
100
AcDbEntity
  8
0
 62
     7
 48
0.2
100
AcDbLine
 10
200.881363
 20
382.382904
 30
0.0
 11
208.881363
 21
382.382904
 31
0.0
210
0.0
220
0.0
230
1.0
  0
LINE
  5
47E
100
AcDbEntity
  8
0
 62
     7
 48
0.15
100
AcDbLine
 10
208.881363
 20
382.382904
 30
0.0
 11
208.881363
 21
376.382904
 31
0.0
210
0.0
220
0.0
230
1.0
  0
LINE
  5
47F
100
AcDbEntity
  8
0
 62
     7
 48
0.2
100
AcDbLine
 10
208.881363
 20
376.382904
 30
0.0
 11
200.881363
 21
376.382904
 31
0.0
210
0.0
220
0.0
230
1.0
  0
LINE
  5
480
100
AcDbEntity
  8
0
 62
     7
 48
0.15
100
AcDbLine
 10
200.881363
 20
376.382904
 30
0.0
 11
200.881363
 21
382.382904
 31
0.0
210
0.0
220
0.0
230
1.0
  0
ARC
  5
481
100
AcDbEntity
  8
0
 62
     7
100
AcDbCircle
 10
204.881363
 20
379.382904
 30
0.0
 40
7.5
210
0.0
220
0.0
230
1.0
100
AcDbArc
 50
74.999999
 51
105.0
  0
ARC
  5
482
100
AcDbEntity
  8
0
 62
     7
100
AcDbCircle
 10
190.959045
 20
387.299286
 30
0.0
 40
12.0
210
0.0
220
0.0
230
1.0
100
AcDbArc
 50
356.79004
 51
393.209947
  0
ARC
  5
483
100
AcDbEntity
  8
0
 62
     7
100
AcDbCircle
 10
211.688812
 20
399.32428
 30
0.0
 40
12.0
210
0.0
220
0.0
230
1.0
100
AcDbArc
 50
182.975304
 51
207.0247
  0
ARC
  5
484
100
AcDbEntity
  8
0
 62
     7
100
AcDbCircle
 10
204.881363
 20
379.382904
 30
0.0
 40
20.0
210
0.0
220
0.0
230
1.0
100
AcDbArc
 50
74.999999
 51
105.0
  0
ARC
  5
485
100
AcDbEntity
  8
0
 62
     7
100
AcDbCircle
 10
198.073914
 20
399.32428
 30
0.0
 40
12.0
210
0.0
220
0.0
230
1.0
100
AcDbArc
 50
332.975301
 51
357.024698
  0
ARC
  5
486
100
AcDbEntity
  8
0
 62
     7
100
AcDbCircle
 10
218.80368
 20
387.299286
 30
0.0
 40
12.0
210
0.0
220
0.0
230
1.0
100
AcDbArc
 50
146.790041
 51
183.209962
  0
ARC
  5
487
100
AcDbEntity
  8
0
 62
     7
100
AcDbCircle
 10
204.881363
 20
379.382904
 30
0.0
 40
7.5
210
0.0
220
0.0
230
1.0
100
AcDbArc
 50
135.0
 51
164.999994
  0
ARC
  5
488
100
AcDbEntity
  8
0
 62
     7
100
AcDbCircle
 10
191.064423
 20
371.284027
 30
0.0
 40
12.0
210
0.0
220
0.0
230
1.0
100
AcDbArc
 50
56.790042
 51
93.209959
  0
ARC
  5
489
100
AcDbEntity
  8
0
 62
     7
100
AcDbCircle
 10
191.015335
 20
395.249023
 30
0.0
 40
12.0
210
0.0
220
0.0
230
1.0
100
AcDbArc
 50
242.975292
 51
267.024688
  0
ARC
  5
48A
100
AcDbEntity
  8
0
 62
     7
100
AcDbCircle
 10
204.881363
 20
379.382904
 30
0.0
 40
20.0
210
0.0
220
0.0
230
1.0
100
AcDbArc
 50
135.0
 51
164.999994
  0
ARC
  5
48B
100
AcDbEntity
  8
0
 62
     7
100
AcDbCircle
 10
184.207901
 20
383.458191
 30
0.0
 40
12.0
210
0.0
220
0.0
230
1.0
100
AcDbArc
 50
32.9753
 51
57.0247
  0
ARC
  5
48C
100
AcDbEntity
  8
0
 62
     7
100
AcDbCircle
 10
204.986725
 20
395.398163
 30
0.0
 40
12.0
210
0.0
220
0.0
230
1.0
100
AcDbArc
 50
206.790042
 51
243.20995
  0
ARC
  5
48D
100
AcDbEntity
  8
0
 62
     7
100
AcDbCircle
 10
204.881363
 20
379.382904
 30
0.0
 40
7.5
210
0.0
220
0.0
230
1.0
100
AcDbArc
 50
195.000002
 51
224.999996
  0
ARC
  5
48E
100
AcDbEntity
  8
0
 62
     7
100
AcDbCircle
 10
204.986725
 20
363.367645
 30
0.0
 40
12.0
210
0.0
220
0.0
230
1.0
100
AcDbArc
 50
116.790047
 51
153.209954
  0
ARC
  5
48F
100
AcDbEntity
  8
0
 62
     7
100
AcDbCircle
 10
184.207901
 20
375.307617
 30
0.0
 40
12.0
210
0.0
220
0.0
230
1.0
100
AcDbArc
 50
302.975307
 51
327.024704
  0
ARC
  5
490
100
AcDbEntity
  8
0
 62
     7
100
AcDbCircle
 10
204.881363
 20
379.382904
 30
0.0
 40
20.0
210
0.0
220
0.0
230
1.0
100
AcDbArc
 50
195.000002
 51
224.999996
  0
ARC
  5
491
100
AcDbEntity
  8
0
 62
     7
100
AcDbCircle
 10
191.015335
 20
363.516785
 30
0.0
 40
12.0
210
0.0
220
0.0
230
1.0
100
AcDbArc
 50
92.975301
 51
117.024705
  0
ARC
  5
492
100
AcDbEntity
  8
0
 62
     7
100
AcDbCircle
 10
191.064423
 20
387.481781
 30
0.0
 40
12.0
210
0.0
220
0.0
230
1.0
100
AcDbArc
 50
266.79003
 51
303.209965
  0
ARC
  5
493
100
AcDbEntity
  8
0
 62
     7
100
AcDbCircle
 10
204.881363
 20
379.382904
 30
0.0
 40
7.5
210
0.0
220
0.0
230
1.0
100
AcDbArc
 50
255.000004
 51
284.999998
  0
ARC
  5
494
100
AcDbEntity
  8
0
 62
     7
100
AcDbCircle
 10
218.80368
 20
371.466522
 30
0.0
 40
12.0
210
0.0
220
0.0
230
1.0
100
AcDbArc
 50
176.790048
 51
213.209956
  0
ARC
  5
495
100
AcDbEntity
  8
0
 62
     7
100
AcDbCircle
 10
198.073914
 20
359.441528
 30
0.0
 40
12.0
210
0.0
220
0.0
230
1.0
100
AcDbArc
 50
2.975301
 51
27.024699
  0
ARC
  5
496
100
AcDbEntity
  8
0
 62
     7
100
AcDbCircle
 10
204.881363
 20
379.382904
 30
0.0
 40
20.0
210
0.0
220
0.0
230
1.0
100
AcDbArc
 50
255.000004
 51
284.999998
  0
ARC
  5
497
100
AcDbEntity
  8
0
 62
     7
100
AcDbCircle
 10
211.688812
 20
359.441528
 30
0.0
 40
12.0
210
0.0
220
0.0
230
1.0
100
AcDbArc
 50
152.975296
 51
177.024693
  0
ARC
  5
498
100
AcDbEntity
  8
0
 62
     7
100
AcDbCircle
 10
190.959045
 20
371.466522
 30
0.0
 40
12.0
210
0.0
220
0.0
230
1.0
100
AcDbArc
 50
326.790046
 51
363.209953
  0
ARC
  5
499
100
AcDbEntity
  8
0
 62
     7
100
AcDbCircle
 10
204.881363
 20
379.382904
 30
0.0
 40
7.5
210
0.0
220
0.0
230
1.0
100
AcDbArc
 50
314.999992
 51
345.000013
  0
ARC
  5
49A
100
AcDbEntity
  8
0
 62
     7
100
AcDbCircle
 10
218.698303
 20
387.481781
 30
0.0
 40
12.0
210
0.0
220
0.0
230
1.0
100
AcDbArc
 50
236.790036
 51
273.209944
  0
ARC
  5
49B
100
AcDbEntity
  8
0
 62
     7
100
AcDbCircle
 10
218.747375
 20
363.516785
 30
0.0
 40
12.0
210
0.0
220
0.0
230
1.0
100
AcDbArc
 50
62.9753
 51
87.024697
  0
ARC
  5
49C
100
AcDbEntity
  8
0
 62
     7
100
AcDbCircle
 10
204.881363
 20
379.382904
 30
0.0
 40
20.0
210
0.0
220
0.0
230
1.0
100
AcDbArc
 50
314.999992
 51
345.000013
  0
ARC
  5
49D
100
AcDbEntity
  8
0
 62
     7
100
AcDbCircle
 10
225.554825
 20
375.307617
 30
0.0
 40
12.0
210
0.0
220
0.0
230
1.0
100
AcDbArc
 50
212.975298
 51
237.024694
  0
ARC
  5
49E
100
AcDbEntity
  8
0
 62
     7
100
AcDbCircle
 10
204.776001
 20
363.367645
 30
0.0
 40
12.0
210
0.0
220
0.0
230
1.0
100
AcDbArc
 50
26.790042
 51
63.209958
  0
ARC
  5
49F
100
AcDbEntity
  8
0
 62
     7
100
AcDbCircle
 10
204.881363
 20
379.382904
 30
0.0
 40
7.5
210
0.0
220
0.0
230
1.0
100
AcDbArc
 50
15.0
 51
45.000001
  0
ARC
  5
4A0
100
AcDbEntity
  8
0
 62
     7
100
AcDbCircle
 10
204.776001
 20
395.398163
 30
0.0
 40
12.0
210
0.0
220
0.0
230
1.0
100
AcDbArc
 50
296.790052
 51
333.209959
  0
ARC
  5
4A1
100
AcDbEntity
  8
0
 62
     7
100
AcDbCircle
 10
225.554825
 20
383.458191
 30
0.0
 40
12.0
210
0.0
220
0.0
230
1.0
100
AcDbArc
 50
122.975302
 51
147.024699
  0
ARC
  5
4A2
100
AcDbEntity
  8
0
 62
     7
100
AcDbCircle
 10
204.881363
 20
379.382904
 30
0.0
 40
20.0
210
0.0
220
0.0
230
1.0
100
AcDbArc
 50
15.0
 51
45.000001
  0
ARC
  5
4A3
100
AcDbEntity
  8
0
 62
     7
100
AcDbCircle
 10
218.747375
 20
395.249023
 30
0.0
 40
12.0
210
0.0
220
0.0
230
1.0
100
AcDbArc
 50
272.975313
 51
297.02471
  0
ARC
  5
4A4
100
AcDbEntity
  8
0
 62
     7
100
AcDbCircle
 10
218.698303
 20
371.284027
 30
0.0
 40
12.0
210
0.0
220
0.0
230
1.0
100
AcDbArc
 50
86.790046
 51
123.20996
  0
LINE
  5
4A5
100
AcDbEntity
  8
0
 62
     7
100
AcDbLine
 10
157.478638
 20
24.520882
 30
0.0
 11
157.478638
 21
3.520883
 31
0.0
210
0.0
220
0.0
230
1.0
  0
LINE
  5
4A6
100
AcDbEntity
  8
0
 62
     7
 48
0.15
100
AcDbLine
 10
157.478638
 20
24.520882
 30
0.0
 11
163.478638
 21
24.520882
 31
0.0
210
0.0
220
0.0
230
1.0
  0
LINE
  5
4A7
100
AcDbEntity
  8
0
 62
     7
 48
0.002235
100
AcDbLine
 10
163.478638
 20
24.520882
 30
0.0
 11
163.478638
 21
24.610283
 31
0.0
210
0.0
220
0.0
230
1.0
  0
ARC
  5
4A8
100
AcDbEntity
  8
0
 62
     7
100
AcDbCircle
 10
164.510468
 20
30.520861
 30
0.0
 40
5.999965
210
0.0
220
0.0
230
1.0
100
AcDbArc
 50
216.384354
 51
260.097592
  0
LINE
  5
4A9
100
AcDbEntity
  8
0
 62
     7
 48
0.413164
100
AcDbLine
 10
149.876617
 20
40.266476
 30
0.0
 11
159.680145
 21
26.961687
 31
0.0
210
0.0
220
0.0
230
1.0
  0
ARC
  5
4AA
100
AcDbEntity
  8
0
 62
     7
100
AcDbCircle
 10
143.436172
 20
35.520882
 30
0.0
 40
8.000002
210
0.0
220
0.0
230
1.0
100
AcDbArc
 50
36.38436
 51
89.999996
  0
LINE
  5
4AB
100
AcDbEntity
  8
0
 62
     7
100
AcDbLine
 10
121.521103
 20
43.520885
 30
0.0
 11
143.436172
 21
43.520885
 31
0.0
210
0.0
220
0.0
230
1.0
  0
ARC
  5
4AC
100
AcDbEntity
  8
0
 62
     7
100
AcDbCircle
 10
121.521103
 20
35.520885
 30
0.0
 40
8.0
210
0.0
220
0.0
230
1.0
100
AcDbArc
 50
90.000003
 51
143.615642
  0
LINE
  5
4AD
100
AcDbEntity
  8
0
 62
     7
 48
0.413164
100
AcDbLine
 10
115.080658
 20
40.266476
 30
0.0
 11
105.27713
 21
26.961687
 31
0.0
210
0.0
220
0.0
230
1.0
  0
ARC
  5
4AE
100
AcDbEntity
  8
0
 62
     7
100
AcDbCircle
 10
100.446823
 20
30.520861
 30
0.0
 40
5.999965
210
0.0
220
0.0
230
1.0
100
AcDbArc
 50
279.902409
 51
323.615647
  0
LINE
  5
4AF
100
AcDbEntity
  8
0
 62
     7
 48
0.002235
100
AcDbLine
 10
101.478645
 20
24.520882
 30
0.0
 11
101.478645
 21
24.610283
 31
0.0
210
0.0
220
0.0
230
1.0
  0
LINE
  5
4B0
100
AcDbEntity
  8
0
 62
     7
 48
0.15
100
AcDbLine
 10
107.478645
 20
24.520882
 30
0.0
 11
101.478645
 21
24.520882
 31
0.0
210
0.0
220
0.0
230
1.0
  0
LINE
  5
4B1
100
AcDbEntity
  8
0
 62
     7
100
AcDbLine
 10
107.478645
 20
24.520882
 30
0.0
 11
107.478645
 21
3.520883
 31
0.0
210
0.0
220
0.0
230
1.0
  0
LINE
  5
4B2
100
AcDbEntity
  8
0
 62
     7
100
AcDbLine
 10
157.478638
 20
3.520883
 30
0.0
 11
107.478645
 21
3.520883
 31
0.0
210
0.0
220
0.0
230
1.0
  0
CIRCLE
  5
4B3
100
AcDbEntity
  8
0
 62
     7
100
AcDbCircle
 10
132.740158
 20
22.547905
 30
0.0
 40
9.0
210
0.0
220
0.0
230
1.0
  0
LINE
  5
4B4
100
AcDbEntity
  8
0
 62
     7
 48
0.2
100
AcDbLine
 10
128.740158
 20
19.547905
 30
0.0
 11
136.740158
 21
19.547905
 31
0.0
210
0.0
220
0.0
230
1.0
  0
LINE
  5
4B5
100
AcDbEntity
  8
0
 62
     7
 48
0.15
100
AcDbLine
 10
136.740158
 20
19.547905
 30
0.0
 11
136.740158
 21
25.547905
 31
0.0
210
0.0
220
0.0
230
1.0
  0
LINE
  5
4B6
100
AcDbEntity
  8
0
 62
     7
 48
0.2
100
AcDbLine
 10
128.740158
 20
25.547905
 30
0.0
 11
136.740158
 21
25.547905
 31
0.0
210
0.0
220
0.0
230
1.0
  0
LINE
  5
4B7
100
AcDbEntity
  8
0
 62
     7
 48
0.15
100
AcDbLine
 10
128.740158
 20
19.547905
 30
0.0
 11
128.740158
 21
25.547905
 31
0.0
210
0.0
220
0.0
230
1.0
  0
LINE
  5
4B8
100
AcDbEntity
  8
0
 62
     7
100
AcDbLine
 10
219.741608
 20
42.268219
 30
0.0
 11
219.741608
 21
21.268221
 31
0.0
210
0.0
220
0.0
230
1.0
  0
LINE
  5
4B9
100
AcDbEntity
  8
0
 62
     7
 48
0.15
100
AcDbLine
 10
219.741608
 20
42.268219
 30
0.0
 11
225.741608
 21
42.268219
 31
0.0
210
0.0
220
0.0
230
1.0
  0
LINE
  5
4BA
100
AcDbEntity
  8
0
 62
     7
 48
0.002235
100
AcDbLine
 10
225.741608
 20
42.268219
 30
0.0
 11
225.741608
 21
42.35762
 31
0.0
210
0.0
220
0.0
230
1.0
  0
ARC
  5
4BB
100
AcDbEntity
  8
0
 62
     7
100
AcDbCircle
 10
226.773422
 20
48.2682
 30
0.0
 40
5.999965
210
0.0
220
0.0
230
1.0
100
AcDbArc
 50
216.384354
 51
260.097592
  0
LINE
  5
4BC
100
AcDbEntity
  8
0
 62
     7
 48
0.413163
100
AcDbLine
 10
212.139587
 20
58.013813
 30
0.0
 11
221.943115
 21
44.709026
 31
0.0
210
0.0
220
0.0
230
1.0
  0
ARC
  5
4BD
100
AcDbEntity
  8
0
 62
     7
100
AcDbCircle
 10
205.699142
 20
53.268219
 30
0.0
 40
8.000002
210
0.0
220
0.0
230
1.0
100
AcDbArc
 50
36.38436
 51
89.999996
  0
LINE
  5
4BE
100
AcDbEntity
  8
0
 62
     7
100
AcDbLine
 10
183.784073
 20
61.268223
 30
0.0
 11
205.699142
 21
61.268223
 31
0.0
210
0.0
220
0.0
230
1.0
  0
ARC
  5
4BF
100
AcDbEntity
  8
0
 62
     7
100
AcDbCircle
 10
183.784073
 20
53.268223
 30
0.0
 40
8.0
210
0.0
220
0.0
230
1.0
100
AcDbArc
 50
90.000003
 51
143.615642
  0
LINE
  5
4C0
100
AcDbEntity
  8
0
 62
     7
 48
0.413163
100
AcDbLine
 10
177.343628
 20
58.013813
 30
0.0
 11
167.5401
 21
44.709026
 31
0.0
210
0.0
220
0.0
230
1.0
  0
ARC
  5
4C1
100
AcDbEntity
  8
0
 62
     7
100
AcDbCircle
 10
162.709793
 20
48.2682
 30
0.0
 40
5.999965
210
0.0
220
0.0
230
1.0
100
AcDbArc
 50
279.902409
 51
323.615647
  0
LINE
  5
4C2
100
AcDbEntity
  8
0
 62
     7
 48
0.002235
100
AcDbLine
 10
163.741608
 20
42.268219
 30
0.0
 11
163.741608
 21
42.35762
 31
0.0
210
0.0
220
0.0
230
1.0
  0
LINE
  5
4C3
100
AcDbEntity
  8
0
 62
     7
 48
0.15
100
AcDbLine
 10
169.741608
 20
42.268219
 30
0.0
 11
163.741608
 21
42.268219
 31
0.0
210
0.0
220
0.0
230
1.0
  0
LINE
  5
4C4
100
AcDbEntity
  8
0
 62
     7
100
AcDbLine
 10
169.741608
 20
42.268219
 30
0.0
 11
169.741608
 21
21.268221
 31
0.0
210
0.0
220
0.0
230
1.0
  0
LINE
  5
4C5
100
AcDbEntity
  8
0
 62
     7
100
AcDbLine
 10
219.741608
 20
21.268221
 30
0.0
 11
169.741608
 21
21.268221
 31
0.0
210
0.0
220
0.0
230
1.0
  0
CIRCLE
  5
4C6
100
AcDbEntity
  8
0
 62
     7
100
AcDbCircle
 10
195.003128
 20
40.295242
 30
0.0
 40
9.0
210
0.0
220
0.0
230
1.0
  0
LINE
  5
4C7
100
AcDbEntity
  8
0
 62
     7
 48
0.2
100
AcDbLine
 10
191.003128
 20
37.295242
 30
0.0
 11
199.003128
 21
37.295242
 31
0.0
210
0.0
220
0.0
230
1.0
  0
LINE
  5
4C8
100
AcDbEntity
  8
0
 62
     7
 48
0.15
100
AcDbLine
 10
199.003128
 20
37.295242
 30
0.0
 11
199.003128
 21
43.295242
 31
0.0
210
0.0
220
0.0
230
1.0
  0
LINE
  5
4C9
100
AcDbEntity
  8
0
 62
     7
 48
0.2
100
AcDbLine
 10
191.003128
 20
43.295242
 30
0.0
 11
199.003128
 21
43.295242
 31
0.0
210
0.0
220
0.0
230
1.0
  0
LINE
  5
4CA
100
AcDbEntity
  8
0
 62
     7
 48
0.15
100
AcDbLine
 10
191.003128
 20
37.295242
 30
0.0
 11
191.003128
 21
43.295242
 31
0.0
210
0.0
220
0.0
230
1.0
  0
LINE
  5
4CB
100
AcDbEntity
  8
0
 62
     7
100
AcDbLine
 10
59.146069
 20
131.7677
 30
0.0
 11
59.146069
 21
110.767708
 31
0.0
210
0.0
220
0.0
230
1.0
  0
LINE
  5
4CC
100
AcDbEntity
  8
0
 62
     7
 48
0.15
100
AcDbLine
 10
59.146069
 20
131.7677
 30
0.0
 11
65.146072
 21
131.7677
 31
0.0
210
0.0
220
0.0
230
1.0
  0
LINE
  5
4CD
100
AcDbEntity
  8
0
 62
     7
 48
0.002235
100
AcDbLine
 10
65.146072
 20
131.7677
 30
0.0
 11
65.146072
 21
131.857101
 31
0.0
210
0.0
220
0.0
230
1.0
  0
ARC
  5
4CE
100
AcDbEntity
  8
0
 62
     7
100
AcDbCircle
 10
66.177887
 20
137.767685
 30
0.0
 40
5.999965
210
0.0
220
0.0
230
1.0
100
AcDbArc
 50
216.384354
 51
260.097592
  0
LINE
  5
4CF
100
AcDbEntity
  8
0
 62
     7
 48
0.413164
100
AcDbLine
 10
51.544048
 20
147.513306
 30
0.0
 11
61.34758
 21
134.208511
 31
0.0
210
0.0
220
0.0
230
1.0
  0
ARC
  5
4D0
100
AcDbEntity
  8
0
 62
     7
100
AcDbCircle
 10
45.103603
 20
142.7677
 30
0.0
 40
8.000002
210
0.0
220
0.0
230
1.0
100
AcDbArc
 50
36.38436
 51
89.999996
  0
LINE
  5
4D1
100
AcDbEntity
  8
0
 62
     7
100
AcDbLine
 10
23.188534
 20
150.7677
 30
0.0
 11
45.103603
 21
150.7677
 31
0.0
210
0.0
220
0.0
230
1.0
  0
ARC
  5
4D2
100
AcDbEntity
  8
0
 62
     7
100
AcDbCircle
 10
23.188534
 20
142.7677
 30
0.0
 40
8.0
210
0.0
220
0.0
230
1.0
100
AcDbArc
 50
90.000003
 51
143.615642
  0
LINE
  5
4D3
100
AcDbEntity
  8
0
 62
     7
 48
0.413164
100
AcDbLine
 10
16.748089
 20
147.513306
 30
0.0
 11
6.944559
 21
134.208511
 31
0.0
210
0.0
220
0.0
230
1.0
  0
ARC
  5
4D4
100
AcDbEntity
  8
0
 62
     7
100
AcDbCircle
 10
2.114252
 20
137.767685
 30
0.0
 40
5.999965
210
0.0
220
0.0
230
1.0
100
AcDbArc
 50
279.902409
 51
323.615647
  0
LINE
  5
4D5
100
AcDbEntity
  8
0
 62
     7
 48
0.002235
100
AcDbLine
 10
3.146069
 20
131.7677
 30
0.0
 11
3.146069
 21
131.857101
 31
0.0
210
0.0
220
0.0
230
1.0
  0
LINE
  5
4D6
100
AcDbEntity
  8
0
 62
     7
 48
0.15
100
AcDbLine
 10
9.146069
 20
131.7677
 30
0.0
 11
3.146069
 21
131.7677
 31
0.0
210
0.0
220
0.0
230
1.0
  0
LINE
  5
4D7
100
AcDbEntity
  8
0
 62
     7
100
AcDbLine
 10
9.146069
 20
131.7677
 30
0.0
 11
9.146069
 21
110.767708
 31
0.0
210
0.0
220
0.0
230
1.0
  0
LINE
  5
4D8
100
AcDbEntity
  8
0
 62
     7
100
AcDbLine
 10
59.146069
 20
110.767708
 30
0.0
 11
9.146069
 21
110.767708
 31
0.0
210
0.0
220
0.0
230
1.0
  0
CIRCLE
  5
4D9
100
AcDbEntity
  8
0
 62
     7
100
AcDbCircle
 10
34.407589
 20
129.794724
 30
0.0
 40
9.0
210
0.0
220
0.0
230
1.0
  0
LINE
  5
4DA
100
AcDbEntity
  8
0
 62
     7
 48
0.2
100
AcDbLine
 10
30.407589
 20
126.794731
 30
0.0
 11
38.407589
 21
126.794731
 31
0.0
210
0.0
220
0.0
230
1.0
  0
LINE
  5
4DB
100
AcDbEntity
  8
0
 62
     7
 48
0.15
100
AcDbLine
 10
38.407589
 20
126.794731
 30
0.0
 11
38.407589
 21
132.794724
 31
0.0
210
0.0
220
0.0
230
1.0
  0
LINE
  5
4DC
100
AcDbEntity
  8
0
 62
     7
 48
0.2
100
AcDbLine
 10
30.407589
 20
132.794724
 30
0.0
 11
38.407589
 21
132.794724
 31
0.0
210
0.0
220
0.0
230
1.0
  0
LINE
  5
4DD
100
AcDbEntity
  8
0
 62
     7
 48
0.15
100
AcDbLine
 10
30.407589
 20
126.794731
 30
0.0
 11
30.407589
 21
132.794724
 31
0.0
210
0.0
220
0.0
230
1.0
  0
LINE
  5
4DE
100
AcDbEntity
  8
0
 62
     7
100
AcDbLine
 10
56.905972
 20
87.858536
 30
0.0
 11
56.905972
 21
66.858536
 31
0.0
210
0.0
220
0.0
230
1.0
  0
LINE
  5
4DF
100
AcDbEntity
  8
0
 62
     7
 48
0.15
100
AcDbLine
 10
56.905972
 20
87.858536
 30
0.0
 11
62.905972
 21
87.858536
 31
0.0
210
0.0
220
0.0
230
1.0
  0
LINE
  5
4E0
100
AcDbEntity
  8
0
 62
     7
 48
0.002235
100
AcDbLine
 10
62.905972
 20
87.858536
 30
0.0
 11
62.905972
 21
87.947937
 31
0.0
210
0.0
220
0.0
230
1.0
  0
ARC
  5
4E1
100
AcDbEntity
  8
0
 62
     7
100
AcDbCircle
 10
63.93779
 20
93.858513
 30
0.0
 40
5.999965
210
0.0
220
0.0
230
1.0
100
AcDbArc
 50
216.384354
 51
260.097592
  0
LINE
  5
4E2
100
AcDbEntity
  8
0
 62
     7
 48
0.413164
100
AcDbLine
 10
49.303951
 20
103.604126
 30
0.0
 11
59.107483
 21
90.299339
 31
0.0
210
0.0
220
0.0
230
1.0
  0
ARC
  5
4E3
100
AcDbEntity
  8
0
 62
     7
100
AcDbCircle
 10
42.863506
 20
98.858536
 30
0.0
 40
8.000002
210
0.0
220
0.0
230
1.0
100
AcDbArc
 50
36.38436
 51
89.999996
  0
LINE
  5
4E4
100
AcDbEntity
  8
0
 62
     7
100
AcDbLine
 10
20.948439
 20
106.858536
 30
0.0
 11
42.863506
 21
106.858536
 31
0.0
210
0.0
220
0.0
230
1.0
  0
ARC
  5
4E5
100
AcDbEntity
  8
0
 62
     7
100
AcDbCircle
 10
20.948439
 20
98.858536
 30
0.0
 40
8.0
210
0.0
220
0.0
230
1.0
100
AcDbArc
 50
90.000003
 51
143.615642
  0
LINE
  5
4E6
100
AcDbEntity
  8
0
 62
     7
 48
0.413164
100
AcDbLine
 10
14.507993
 20
103.604126
 30
0.0
 11
4.704463
 21
90.299339
 31
0.0
210
0.0
220
0.0
230
1.0
  0
ARC
  5
4E7
100
AcDbEntity
  8
0
 62
     7
100
AcDbCircle
 10
-0.125843
 20
93.858513
 30
0.0
 40
5.999965
210
0.0
220
0.0
230
1.0
100
AcDbArc
 50
279.902409
 51
323.615647
  0
LINE
  5
4E8
100
AcDbEntity
  8
0
 62
     7
 48
0.002235
100
AcDbLine
 10
0.905974
 20
87.858536
 30
0.0
 11
0.905974
 21
87.947937
 31
0.0
210
0.0
220
0.0
230
1.0
  0
LINE
  5
4E9
100
AcDbEntity
  8
0
 62
     7
 48
0.15
100
AcDbLine
 10
6.905973
 20
87.858536
 30
0.0
 11
0.905974
 21
87.858536
 31
0.0
210
0.0
220
0.0
230
1.0
  0
LINE
  5
4EA
100
AcDbEntity
  8
0
 62
     7
100
AcDbLine
 10
6.905973
 20
87.858536
 30
0.0
 11
6.905973
 21
66.858536
 31
0.0
210
0.0
220
0.0
230
1.0
  0
LINE
  5
4EB
100
AcDbEntity
  8
0
 62
     7
100
AcDbLine
 10
56.905972
 20
66.858536
 30
0.0
 11
6.905973
 21
66.858536
 31
0.0
210
0.0
220
0.0
230
1.0
  0
CIRCLE
  5
4EC
100
AcDbEntity
  8
0
 62
     7
100
AcDbCircle
 10
32.167492
 20
85.885559
 30
0.0
 40
9.0
210
0.0
220
0.0
230
1.0
  0
LINE
  5
4ED
100
AcDbEntity
  8
0
 62
     7
 48
0.2
100
AcDbLine
 10
28.167494
 20
82.885559
 30
0.0
 11
36.167492
 21
82.885559
 31
0.0
210
0.0
220
0.0
230
1.0
  0
LINE
  5
4EE
100
AcDbEntity
  8
0
 62
     7
 48
0.15
100
AcDbLine
 10
36.167492
 20
82.885559
 30
0.0
 11
36.167492
 21
88.885559
 31
0.0
210
0.0
220
0.0
230
1.0
  0
LINE
  5
4EF
100
AcDbEntity
  8
0
 62
     7
 48
0.2
100
AcDbLine
 10
28.167494
 20
88.885559
 30
0.0
 11
36.167492
 21
88.885559
 31
0.0
210
0.0
220
0.0
230
1.0
  0
LINE
  5
4F0
100
AcDbEntity
  8
0
 62
     7
 48
0.15
100
AcDbLine
 10
28.167494
 20
82.885559
 30
0.0
 11
28.167494
 21
88.885559
 31
0.0
210
0.0
220
0.0
230
1.0
  0
LINE
  5
4F1
100
AcDbEntity
  8
0
 62
     7
100
AcDbLine
 10
56.378391
 20
43.253548
 30
0.0
 11
56.378391
 21
22.25355
 31
0.0
210
0.0
220
0.0
230
1.0
  0
LINE
  5
4F2
100
AcDbEntity
  8
0
 62
     7
 48
0.15
100
AcDbLine
 10
56.378391
 20
43.253548
 30
0.0
 11
62.378391
 21
43.253548
 31
0.0
210
0.0
220
0.0
230
1.0
  0
LINE
  5
4F3
100
AcDbEntity
  8
0
 62
     7
 48
0.002235
100
AcDbLine
 10
62.378391
 20
43.253548
 30
0.0
 11
62.378391
 21
43.342949
 31
0.0
210
0.0
220
0.0
230
1.0
  0
ARC
  5
4F4
100
AcDbEntity
  8
0
 62
     7
100
AcDbCircle
 10
63.41021
 20
49.253529
 30
0.0
 40
5.999965
210
0.0
220
0.0
230
1.0
100
AcDbArc
 50
216.384354
 51
260.097592
  0
LINE
  5
4F5
100
AcDbEntity
  8
0
 62
     7
 48
0.413164
100
AcDbLine
 10
48.776371
 20
58.999142
 30
0.0
 11
58.579903
 21
45.694355
 31
0.0
210
0.0
220
0.0
230
1.0
  0
ARC
  5
4F6
100
AcDbEntity
  8
0
 62
     7
100
AcDbCircle
 10
42.335926
 20
54.253548
 30
0.0
 40
8.000002
210
0.0
220
0.0
230
1.0
100
AcDbArc
 50
36.38436
 51
89.999996
  0
LINE
  5
4F7
100
AcDbEntity
  8
0
 62
     7
100
AcDbLine
 10
20.420858
 20
62.253551
 30
0.0
 11
42.335926
 21
62.253551
 31
0.0
210
0.0
220
0.0
230
1.0
  0
ARC
  5
4F8
100
AcDbEntity
  8
0
 62
     7
100
AcDbCircle
 10
20.420858
 20
54.253551
 30
0.0
 40
8.0
210
0.0
220
0.0
230
1.0
100
AcDbArc
 50
90.000003
 51
143.615642
  0
LINE
  5
4F9
100
AcDbEntity
  8
0
 62
     7
 48
0.413163
100
AcDbLine
 10
13.980412
 20
58.999142
 30
0.0
 11
4.176883
 21
45.694355
 31
0.0
210
0.0
220
0.0
230
1.0
  0
ARC
  5
4FA
100
AcDbEntity
  8
0
 62
     7
100
AcDbCircle
 10
-0.653424
 20
49.253529
 30
0.0
 40
5.999965
210
0.0
220
0.0
230
1.0
100
AcDbArc
 50
279.902409
 51
323.615647
  0
LINE
  5
4FB
100
AcDbEntity
  8
0
 62
     7
 48
0.002235
100
AcDbLine
 10
0.378393
 20
43.253548
 30
0.0
 11
0.378393
 21
43.342949
 31
0.0
210
0.0
220
0.0
230
1.0
  0
LINE
  5
4FC
100
AcDbEntity
  8
0
 62
     7
 48
0.15
100
AcDbLine
 10
6.378393
 20
43.253548
 30
0.0
 11
0.378393
 21
43.253548
 31
0.0
210
0.0
220
0.0
230
1.0
  0
LINE
  5
4FD
100
AcDbEntity
  8
0
 62
     7
100
AcDbLine
 10
6.378393
 20
43.253548
 30
0.0
 11
6.378393
 21
22.25355
 31
0.0
210
0.0
220
0.0
230
1.0
  0
LINE
  5
4FE
100
AcDbEntity
  8
0
 62
     7
100
AcDbLine
 10
56.378391
 20
22.25355
 30
0.0
 11
6.378393
 21
22.25355
 31
0.0
210
0.0
220
0.0
230
1.0
  0
CIRCLE
  5
4FF
100
AcDbEntity
  8
0
 62
     7
100
AcDbCircle
 10
31.639914
 20
41.280571
 30
0.0
 40
9.0
210
0.0
220
0.0
230
1.0
  0
LINE
  5
500
100
AcDbEntity
  8
0
 62
     7
 48
0.2
100
AcDbLine
 10
27.639914
 20
38.280571
 30
0.0
 11
35.639912
 21
38.280571
 31
0.0
210
0.0
220
0.0
230
1.0
  0
LINE
  5
501
100
AcDbEntity
  8
0
 62
     7
 48
0.15
100
AcDbLine
 10
35.639912
 20
38.280571
 30
0.0
 11
35.639912
 21
44.280571
 31
0.0
210
0.0
220
0.0
230
1.0
  0
LINE
  5
502
100
AcDbEntity
  8
0
 62
     7
 48
0.2
100
AcDbLine
 10
27.639914
 20
44.280571
 30
0.0
 11
35.639912
 21
44.280571
 31
0.0
210
0.0
220
0.0
230
1.0
  0
LINE
  5
503
100
AcDbEntity
  8
0
 62
     7
 48
0.15
100
AcDbLine
 10
27.639914
 20
38.280571
 30
0.0
 11
27.639914
 21
44.280571
 31
0.0
210
0.0
220
0.0
230
1.0
  0
LINE
  5
504
100
AcDbEntity
  8
0
 62
     7
 48
0.15
100
AcDbLine
 10
239.453217
 20
198.949081
 30
0.0
 11
235.494171
 21
203.45752
 31
0.0
210
0.0
220
0.0
230
1.0
  0
LINE
  5
505
100
AcDbEntity
  8
0
 62
     7
 48
0.1
100
AcDbLine
 10
235.494171
 20
203.45752
 30
0.0
 11
238.499802
 21
206.096878
 31
0.0
210
0.0
220
0.0
230
1.0
  0
LINE
  5
506
100
AcDbEntity
  8
0
 62
     7
 48
0.024019
100
AcDbLine
 10
238.499802
 20
206.096878
 30
0.0
 11
239.248779
 21
205.495117
 31
0.0
210
0.0
220
0.0
230
1.0
  0
LINE
  5
507
100
AcDbEntity
  8
0
 62
     7
 48
0.024631
100
AcDbLine
 10
239.248779
 20
205.495117
 30
0.0
 11
240.001709
 21
204.85968
 31
0.0
210
0.0
220
0.0
230
1.0
  0
LINE
  5
508
100
AcDbEntity
  8
0
 62
     7
 48
0.025202
100
AcDbLine
 10
240.001709
 20
204.85968
 30
0.0
 11
240.757111
 21
204.192123
 31
0.0
210
0.0
220
0.0
230
1.0
  0
LINE
  5
509
100
AcDbEntity
  8
0
 62
     7
 48
0.025734
100
AcDbLine
 10
240.757111
 20
204.192123
 30
0.0
 11
241.513489
 21
203.493958
 31
0.0
210
0.0
220
0.0
230
1.0
  0
LINE
  5
50A
100
AcDbEntity
  8
0
 62
     7
 48
0.026222
100
AcDbLine
 10
241.513489
 20
203.493958
 30
0.0
 11
242.269302
 21
202.766693
 31
0.0
210
0.0
220
0.0
230
1.0
  0
LINE
  5
50B
100
AcDbEntity
  8
0
 62
     7
 48
0.026668
100
AcDbLine
 10
242.269302
 20
202.766693
 30
0.0
 11
243.023071
 21
202.011871
 31
0.0
210
0.0
220
0.0
230
1.0
  0
LINE
  5
50C
100
AcDbEntity
  8
0
 62
     7
 48
0.027071
100
AcDbLine
 10
243.023071
 20
202.011871
 30
0.0
 11
243.773285
 21
201.231003
 31
0.0
210
0.0
220
0.0
230
1.0
  0
LINE
  5
50D
100
AcDbEntity
  8
0
 62
     7
 48
0.027431
100
AcDbLine
 10
243.773285
 20
201.231003
 30
0.0
 11
244.518448
 21
200.425629
 31
0.0
210
0.0
220
0.0
230
1.0
  0
LINE
  5
50E
100
AcDbEntity
  8
0
 62
     7
 48
0.027746
100
AcDbLine
 10
244.518448
 20
200.425629
 30
0.0
 11
245.257034
 21
199.597244
 31
0.0
210
0.0
220
0.0
230
1.0
  0
LINE
  5
50F
100
AcDbEntity
  8
0
 62
     7
 48
0.028017
100
AcDbLine
 10
245.257034
 20
199.597244
 30
0.0
 11
245.987564
 21
198.747406
 31
0.0
210
0.0
220
0.0
230
1.0
  0
LINE
  5
510
100
AcDbEntity
  8
0
 62
     7
 48
0.028243
100
AcDbLine
 10
245.987564
 20
198.747406
 30
0.0
 11
246.708511
 21
197.877609
 31
0.0
210
0.0
220
0.0
230
1.0
  0
LINE
  5
511
100
AcDbEntity
  8
0
 62
     7
 48
0.028426
100
AcDbLine
 10
246.708511
 20
197.877609
 30
0.0
 11
247.418381
 21
196.989395
 31
0.0
210
0.0
220
0.0
230
1.0
  0
LINE
  5
512
100
AcDbEntity
  8
0
 62
     7
 48
0.028564
100
AcDbLine
 10
247.418381
 20
196.989395
 30
0.0
 11
248.115677
 21
196.084274
 31
0.0
210
0.0
220
0.0
230
1.0
  0
LINE
  5
513
100
AcDbEntity
  8
0
 62
     7
 48
0.028658
100
AcDbLine
 10
248.115677
 20
196.084274
 30
0.0
 11
248.798889
 21
195.163788
 31
0.0
210
0.0
220
0.0
230
1.0
  0
LINE
  5
514
100
AcDbEntity
  8
0
 62
     7
 48
0.028709
100
AcDbLine
 10
248.798889
 20
195.163788
 30
0.0
 11
249.466507
 21
194.229446
 31
0.0
210
0.0
220
0.0
230
1.0
  0
LINE
  5
515
100
AcDbEntity
  8
0
 62
     7
 48
0.028716
100
AcDbLine
 10
249.466507
 20
194.229446
 30
0.0
 11
250.117035
 21
193.282776
 31
0.0
210
0.0
220
0.0
230
1.0
  0
LINE
  5
516
100
AcDbEntity
  8
0
 62
     7
 48
0.02868
100
AcDbLine
 10
250.117035
 20
193.282776
 30
0.0
 11
250.748962
 21
192.325302
 31
0.0
210
0.0
220
0.0
230
1.0
  0
LINE
  5
517
100
AcDbEntity
  8
0
 62
     7
 48
0.028602
100
AcDbLine
 10
250.748962
 20
192.325302
 30
0.0
 11
251.360779
 21
191.358536
 31
0.0
210
0.0
220
0.0
230
1.0
  0
LINE
  5
518
100
AcDbEntity
  8
0
 62
     7
 48
0.028482
100
AcDbLine
 10
251.360779
 20
191.358536
 30
0.0
 11
251.950989
 21
190.384033
 31
0.0
210
0.0
220
0.0
230
1.0
  0
LINE
  5
519
100
AcDbEntity
  8
0
 62
     7
 48
0.028323
100
AcDbLine
 10
251.950989
 20
190.384033
 30
0.0
 11
252.518097
 21
189.403275
 31
0.0
210
0.0
220
0.0
230
1.0
  0
LINE
  5
51A
100
AcDbEntity
  8
0
 62
     7
 48
0.028123
100
AcDbLine
 10
252.518097
 20
189.403275
 30
0.0
 11
253.060577
 21
188.417816
 31
0.0
210
0.0
220
0.0
230
1.0
  0
LINE
  5
51B
100
AcDbEntity
  8
0
 62
     7
 48
0.027884
100
AcDbLine
 10
253.060577
 20
188.417816
 30
0.0
 11
253.57695
 21
187.429169
 31
0.0
210
0.0
220
0.0
230
1.0
  0
LINE
  5
51C
100
AcDbEntity
  8
0
 62
     7
 48
0.027609
100
AcDbLine
 10
253.57695
 20
187.429169
 30
0.0
 11
254.065689
 21
186.438843
 31
0.0
210
0.0
220
0.0
230
1.0
  0
LINE
  5
51D
100
AcDbEntity
  8
0
 62
     7
 48
0.027297
100
AcDbLine
 10
254.065689
 20
186.438843
 30
0.0
 11
254.525299
 21
185.448395
 31
0.0
210
0.0
220
0.0
230
1.0
  0
LINE
  5
51E
100
AcDbEntity
  8
0
 62
     7
 48
0.026952
100
AcDbLine
 10
254.525299
 20
185.448395
 30
0.0
 11
254.954269
 21
184.45932
 31
0.0
210
0.0
220
0.0
230
1.0
  0
LINE
  5
51F
100
AcDbEntity
  8
0
 62
     7
 48
0.026575
100
AcDbLine
 10
254.954269
 20
184.45932
 30
0.0
 11
255.351105
 21
183.47316
 31
0.0
210
0.0
220
0.0
230
1.0
  0
LINE
  5
520
100
AcDbEntity
  8
0
 62
     7
 48
0.026169
100
AcDbLine
 10
255.351105
 20
183.47316
 30
0.0
 11
255.714294
 21
182.491425
 31
0.0
210
0.0
220
0.0
230
1.0
  0
LINE
  5
521
100
AcDbEntity
  8
0
 62
     7
 48
0.025736
100
AcDbLine
 10
255.714294
 20
182.491425
 30
0.0
 11
256.042358
 21
181.51564
 31
0.0
210
0.0
220
0.0
230
1.0
  0
LINE
  5
522
100
AcDbEntity
  8
0
 62
     7
 48
0.02528
100
AcDbLine
 10
256.042358
 20
181.51564
 30
0.0
 11
256.33374
 21
180.547348
 31
0.0
210
0.0
220
0.0
230
1.0
  0
LINE
  5
523
100
AcDbEntity
  8
0
 62
     7
 48
0.012463
100
AcDbLine
 10
256.33374
 20
180.547348
 30
0.0
 11
256.46521
 21
180.066467
 31
0.0
210
0.0
220
0.0
230
1.0
  0
LINE
  5
524
100
AcDbEntity
  8
0
 62
     7
 48
0.012342
100
AcDbLine
 10
256.46521
 20
180.066467
 30
0.0
 11
256.586975
 21
179.588043
 31
0.0
210
0.0
220
0.0
230
1.0
  0
LINE
  5
525
100
AcDbEntity
  8
0
 62
     7
 48
0.012219
100
AcDbLine
 10
256.586975
 20
179.588043
 30
0.0
 11
256.698822
 21
179.112244
 31
0.0
210
0.0
220
0.0
230
1.0
  0
LINE
  5
526
100
AcDbEntity
  8
0
 62
     7
 48
0.012095
100
AcDbLine
 10
256.698822
 20
179.112244
 30
0.0
 11
256.800537
 21
178.639267
 31
0.0
210
0.0
220
0.0
230
1.0
  0
LINE
  5
527
100
AcDbEntity
  8
0
 62
     7
 48
0.01197
100
AcDbLine
 10
256.800537
 20
178.639267
 30
0.0
 11
256.891998
 21
178.169296
 31
0.0
210
0.0
220
0.0
230
1.0
  0
LINE
  5
528
100
AcDbEntity
  8
0
 62
     7
 48
0.011843
100
AcDbLine
 10
256.891998
 20
178.169296
 30
0.0
 11
256.972961
 21
177.70253
 31
0.0
210
0.0
220
0.0
230
1.0
  0
LINE
  5
529
100
AcDbEntity
  8
0
 62
     7
 48
0.01873
100
AcDbLine
 10
256.972961
 20
177.70253
 30
0.0
 11
257.080872
 21
176.961151
 31
0.0
210
0.0
220
0.0
230
1.0
  0
LINE
  5
52A
100
AcDbEntity
  8
0
 62
     7
 48
0.018442
100
AcDbLine
 10
257.080872
 20
176.961151
 30
0.0
 11
257.16333
 21
176.228104
 31
0.0
210
0.0
220
0.0
230
1.0
  0
LINE
  5
52B
100
AcDbEntity
  8
0
 62
     7
 48
0.018187
100
AcDbLine
 10
257.16333
 20
176.228104
 30
0.0
 11
257.22229
 21
175.503006
 31
0.0
210
0.0
220
0.0
230
1.0
  0
LINE
  5
52C
100
AcDbEntity
  8
0
 62
     7
 48
0.017962
100
AcDbLine
 10
257.22229
 20
175.503006
 30
0.0
 11
257.259705
 21
174.785492
 31
0.0
210
0.0
220
0.0
230
1.0
  0
LINE
  5
52D
100
AcDbEntity
  8
0
 62
     7
 48
0.017764
100
AcDbLine
 10
257.259705
 20
174.785492
 30
0.0
 11
257.277527
 21
174.07515
 31
0.0
210
0.0
220
0.0
230
1.0
  0
LINE
  5
52E
100
AcDbEntity
  8
0
 62
     7
 48
0.017588
100
AcDbLine
 10
257.277527
 20
174.07515
 30
0.0
 11
257.27771
 21
173.371613
 31
0.0
210
0.0
220
0.0
230
1.0
  0
LINE
  5
52F
100
AcDbEntity
  8
0
 62
     7
 48
0.017432
100
AcDbLine
 10
257.27771
 20
173.371613
 30
0.0
 11
257.262238
 21
172.6745
 31
0.0
210
0.0
220
0.0
230
1.0
  0
LINE
  5
530
100
AcDbEntity
  8
0
 62
     7
 48
0.017293
100
AcDbLine
 10
257.262238
 20
172.6745
 30
0.0
 11
257.233032
 21
171.983414
 31
0.0
210
0.0
220
0.0
230
1.0
  0
LINE
  5
531
100
AcDbEntity
  8
0
 62
     7
 48
0.034217
100
AcDbLine
 10
257.233032
 20
171.983414
 30
0.0
 11
257.141296
 21
170.617828
 31
0.0
210
0.0
220
0.0
230
1.0
  0
LINE
  5
532
100
AcDbEntity
  8
0
 62
     7
 48
0.188414
100
AcDbLine
 10
257.141296
 20
170.617828
 30
0.0
 11
256.435974
 21
163.114349
 31
0.0
210
0.0
220
0.0
230
1.0
  0
LINE
  5
533
100
AcDbEntity
  8
0
 62
     7
 48
0.086863
100
AcDbLine
 10
256.435974
 20
163.114349
 30
0.0
 11
256.244263
 21
159.645111
 31
0.0
210
0.0
220
0.0
230
1.0
  0
LINE
  5
534
100
AcDbEntity
  8
0
 62
     7
 48
0.086522
100
AcDbLine
 10
256.244263
 20
159.645111
 30
0.0
 11
256.164063
 21
156.18515
 31
0.0
210
0.0
220
0.0
230
1.0
  0
LINE
  5
535
100
AcDbEntity
  8
0
 62
     7
 48
0.087098
100
AcDbLine
 10
256.164063
 20
156.18515
 30
0.0
 11
256.194031
 21
152.701355
 31
0.0
210
0.0
220
0.0
230
1.0
  0
LINE
  5
536
100
AcDbEntity
  8
0
 62
     7
 48
0.07596
100
AcDbLine
 10
256.194031
 20
152.701355
 30
0.0
 11
256.31131
 21
149.665207
 31
0.0
210
0.0
220
0.0
230
1.0
  0
LINE
  5
537
100
AcDbEntity
  8
0
 62
     7
 48
0.038082
100
AcDbLine
 10
256.31131
 20
149.665207
 30
0.0
 11
256.407654
 21
148.144974
 31
0.0
210
0.0
220
0.0
230
1.0
  0
LINE
  5
538
100
AcDbEntity
  8
0
 62
     7
 48
0.037988
100
AcDbLine
 10
256.407654
 20
148.144974
 30
0.0
 11
256.53302
 21
146.630646
 31
0.0
210
0.0
220
0.0
230
1.0
  0
LINE
  5
539
100
AcDbEntity
  8
0
 62
     7
 48
0.037779
100
AcDbLine
 10
256.53302
 20
146.630646
 30
0.0
 11
256.69043
 21
145.127701
 31
0.0
210
0.0
220
0.0
230
1.0
  0
LINE
  5
53A
100
AcDbEntity
  8
0
 62
     7
 48
0.037462
100
AcDbLine
 10
256.69043
 20
145.127701
 30
0.0
 11
256.882751
 21
143.641632
 31
0.0
210
0.0
220
0.0
230
1.0
  0
LINE
  5
53B
100
AcDbEntity
  8
0
 62
     7
 48
0.037043
100
AcDbLine
 10
256.882751
 20
143.641632
 30
0.0
 11
257.113007
 21
142.177917
 31
0.0
210
0.0
220
0.0
230
1.0
  0
LINE
  5
53C
100
AcDbEntity
  8
0
 62
     7
 48
0.036531
100
AcDbLine
 10
257.113007
 20
142.177917
 30
0.0
 11
257.384094
 21
140.74205
 31
0.0
210
0.0
220
0.0
230
1.0
  0
LINE
  5
53D
100
AcDbEntity
  8
0
 62
     7
 48
0.264215
100
AcDbLine
 10
257.384094
 20
140.74205
 30
0.0
 11
250.410492
 21
148.683365
 31
0.0
210
0.0
220
0.0
230
1.0
  0
LINE
  5
53E
100
AcDbEntity
  8
0
 62
     7
 48
0.15
100
AcDbLine
 10
250.410492
 20
148.683365
 30
0.0
 11
245.902054
 21
144.724319
 31
0.0
210
0.0
220
0.0
230
1.0
  0
LINE
  5
53F
100
AcDbEntity
  8
0
 62
     7
 48
0.204766
100
AcDbLine
 10
245.902054
 20
144.724319
 30
0.0
 11
240.497528
 21
150.87883
 31
0.0
210
0.0
220
0.0
230
1.0
  0
LINE
  5
540
100
AcDbEntity
  8
0
 62
     7
 48
0.003045
100
AcDbLine
 10
240.497528
 20
150.87883
 30
0.0
 11
240.575912
 21
150.972076
 31
0.0
210
0.0
220
0.0
230
1.0
  0
LINE
  5
541
100
AcDbEntity
  8
0
 62
     7
 48
0.003194
100
AcDbLine
 10
240.575912
 20
150.972076
 30
0.0
 11
240.65567
 21
151.071869
 31
0.0
210
0.0
220
0.0
230
1.0
  0
LINE
  5
542
100
AcDbEntity
  8
0
 62
     7
 48
0.00334
100
AcDbLine
 10
240.65567
 20
151.071869
 30
0.0
 11
240.736725
 21
151.17807
 31
0.0
210
0.0
220
0.0
230
1.0
  0
LINE
  5
543
100
AcDbEntity
  8
0
 62
     7
 48
0.003485
100
AcDbLine
 10
240.736725
 20
151.17807
 30
0.0
 11
240.819061
 21
151.290558
 31
0.0
210
0.0
220
0.0
230
1.0
  0
LINE
  5
544
100
AcDbEntity
  8
0
 62
     7
 48
0.007395
100
AcDbLine
 10
240.819061
 20
151.290558
 30
0.0
 11
240.98735
 21
151.533844
 31
0.0
210
0.0
220
0.0
230
1.0
  0
LINE
  5
545
100
AcDbEntity
  8
0
 62
     7
 48
0.007948
100
AcDbLine
 10
240.98735
 20
151.533844
 30
0.0
 11
241.16011
 21
151.800705
 31
0.0
210
0.0
220
0.0
230
1.0
  0
LINE
  5
546
100
AcDbEntity
  8
0
 62
     7
 48
0.008478
100
AcDbLine
 10
241.16011
 20
151.800705
 30
0.0
 11
241.336975
 21
152.090042
 31
0.0
210
0.0
220
0.0
230
1.0
  0
LINE
  5
547
100
AcDbEntity
  8
0
 62
     7
 48
0.008986
100
AcDbLine
 10
241.336975
 20
152.090042
 30
0.0
 11
241.517563
 21
152.400833
 31
0.0
210
0.0
220
0.0
230
1.0
  0
LINE
  5
548
100
AcDbEntity
  8
0
 62
     7
 48
0.0194
100
AcDbLine
 10
241.517563
 20
152.400833
 30
0.0
 11
241.888336
 21
153.082535
 31
0.0
210
0.0
220
0.0
230
1.0
  0
LINE
  5
549
100
AcDbEntity
  8
0
 62
     7
 48
0.021139
100
AcDbLine
 10
241.888336
 20
153.082535
 30
0.0
 11
242.269363
 21
153.837372
 31
0.0
210
0.0
220
0.0
230
1.0
  0
LINE
  5
54A
100
AcDbEntity
  8
0
 62
     7
 48
0.02267
100
AcDbLine
 10
242.269363
 20
153.837372
 30
0.0
 11
242.657532
 21
154.656891
 31
0.0
210
0.0
220
0.0
230
1.0
  0
LINE
  5
54B
100
AcDbEntity
  8
0
 62
     7
 48
0.023991
100
AcDbLine
 10
242.657532
 20
154.656891
 30
0.0
 11
243.049774
 21
155.5327
 31
0.0
210
0.0
220
0.0
230
1.0
  0
LINE
  5
54C
100
AcDbEntity
  8
0
 62
     7
 48
0.025097
100
AcDbLine
 10
243.049774
 20
155.5327
 30
0.0
 11
243.442993
 21
156.456345
 31
0.0
210
0.0
220
0.0
230
1.0
  0
LINE
  5
54D
100
AcDbEntity
  8
0
 62
     7
 48
0.052643
100
AcDbLine
 10
243.442993
 20
156.456345
 30
0.0
 11
244.220047
 21
158.413437
 31
0.0
210
0.0
220
0.0
230
1.0
  0
LINE
  5
54E
100
AcDbEntity
  8
0
 62
     7
 48
0.054457
100
AcDbLine
 10
244.220047
 20
158.413437
 30
0.0
 11
244.963989
 21
160.460754
 31
0.0
210
0.0
220
0.0
230
1.0
  0
LINE
  5
54F
100
AcDbEntity
  8
0
 62
     7
 48
0.054521
100
AcDbLine
 10
244.963989
 20
160.460754
 30
0.0
 11
245.650162
 21
162.530823
 31
0.0
210
0.0
220
0.0
230
1.0
  0
LINE
  5
550
100
AcDbEntity
  8
0
 62
     7
 48
0.052836
100
AcDbLine
 10
245.650162
 20
162.530823
 30
0.0
 11
246.253845
 21
164.556229
 31
0.0
210
0.0
220
0.0
230
1.0
  0
LINE
  5
551
100
AcDbEntity
  8
0
 62
     7
 48
0.02902
100
AcDbLine
 10
246.253845
 20
164.556229
 30
0.0
 11
246.555161
 21
165.677246
 31
0.0
210
0.0
220
0.0
230
1.0
  0
LINE
  5
552
100
AcDbEntity
  8
0
 62
     7
 48
0.027946
100
AcDbLine
 10
246.555161
 20
165.677246
 30
0.0
 11
246.822403
 21
166.762665
 31
0.0
210
0.0
220
0.0
230
1.0
  0
LINE
  5
553
100
AcDbEntity
  8
0
 62
     7
 48
0.02693
100
AcDbLine
 10
246.822403
 20
166.762665
 30
0.0
 11
247.056976
 21
167.814026
 31
0.0
210
0.0
220
0.0
230
1.0
  0
LINE
  5
554
100
AcDbEntity
  8
0
 62
     7
 48
0.025973
100
AcDbLine
 10
247.056976
 20
167.814026
 30
0.0
 11
247.260269
 21
168.832855
 31
0.0
210
0.0
220
0.0
230
1.0
  0
LINE
  5
555
100
AcDbEntity
  8
0
 62
     7
 48
0.025072
100
AcDbLine
 10
247.260269
 20
168.832855
 30
0.0
 11
247.43367
 21
169.820648
 31
0.0
210
0.0
220
0.0
230
1.0
  0
LINE
  5
556
100
AcDbEntity
  8
0
 62
     7
 48
0.024229
100
AcDbLine
 10
247.43367
 20
169.820648
 30
0.0
 11
247.578568
 21
170.778931
 31
0.0
210
0.0
220
0.0
230
1.0
  0
LINE
  5
557
100
AcDbEntity
  8
0
 62
     7
 48
0.023443
100
AcDbLine
 10
247.578568
 20
170.778931
 30
0.0
 11
247.69635
 21
171.709229
 31
0.0
210
0.0
220
0.0
230
1.0
  0
LINE
  5
558
100
AcDbEntity
  8
0
 62
     7
 48
0.022712
100
AcDbLine
 10
247.69635
 20
171.709229
 30
0.0
 11
247.788422
 21
172.613037
 31
0.0
210
0.0
220
0.0
230
1.0
  0
LINE
  5
559
100
AcDbEntity
  8
0
 62
     7
 48
0.022036
100
AcDbLine
 10
247.788422
 20
172.613037
 30
0.0
 11
247.856171
 21
173.491882
 31
0.0
210
0.0
220
0.0
230
1.0
  0
LINE
  5
55A
100
AcDbEntity
  8
0
 62
     7
 48
0.021415
100
AcDbLine
 10
247.856171
 20
173.491882
 30
0.0
 11
247.90097
 21
174.34729
 31
0.0
210
0.0
220
0.0
230
1.0
  0
LINE
  5
55B
100
AcDbEntity
  8
0
 62
     7
 48
0.020846
100
AcDbLine
 10
247.90097
 20
174.34729
 30
0.0
 11
247.92424
 21
175.180786
 31
0.0
210
0.0
220
0.0
230
1.0
  0
LINE
  5
55C
100
AcDbEntity
  8
0
 62
     7
 48
0.020327
100
AcDbLine
 10
247.92424
 20
175.180786
 30
0.0
 11
247.927353
 21
175.993851
 31
0.0
210
0.0
220
0.0
230
1.0
  0
LINE
  5
55D
100
AcDbEntity
  8
0
 62
     7
 48
0.019859
100
AcDbLine
 10
247.927353
 20
175.993851
 30
0.0
 11
247.911713
 21
176.78804
 31
0.0
210
0.0
220
0.0
230
1.0
  0
LINE
  5
55E
100
AcDbEntity
  8
0
 62
     7
 48
0.019438
100
AcDbLine
 10
247.911713
 20
176.78804
 30
0.0
 11
247.878693
 21
177.56485
 31
0.0
210
0.0
220
0.0
230
1.0
  0
LINE
  5
55F
100
AcDbEntity
  8
0
 62
     7
 48
0.019063
100
AcDbLine
 10
247.878693
 20
177.56485
 30
0.0
 11
247.829697
 21
178.32579
 31
0.0
210
0.0
220
0.0
230
1.0
  0
LINE
  5
560
100
AcDbEntity
  8
0
 62
     7
 48
0.018732
100
AcDbLine
 10
247.829697
 20
178.32579
 30
0.0
 11
247.766113
 21
179.072388
 31
0.0
210
0.0
220
0.0
230
1.0
  0
LINE
  5
561
100
AcDbEntity
  8
0
 62
     7
 48
0.024212
100
AcDbLine
 10
247.766113
 20
179.072388
 30
0.0
 11
247.662186
 21
180.035294
 31
0.0
210
0.0
220
0.0
230
1.0
  0
LINE
  5
562
100
AcDbEntity
  8
0
 62
     7
 48
0.023726
100
AcDbLine
 10
247.662186
 20
180.035294
 30
0.0
 11
247.536575
 21
180.975983
 31
0.0
210
0.0
220
0.0
230
1.0
  0
LINE
  5
563
100
AcDbEntity
  8
0
 62
     7
 48
0.023251
100
AcDbLine
 10
247.536575
 20
180.975983
 30
0.0
 11
247.390411
 21
181.894485
 31
0.0
210
0.0
220
0.0
230
1.0
  0
LINE
  5
564
100
AcDbEntity
  8
0
 62
     7
 48
0.022787
100
AcDbLine
 10
247.390411
 20
181.894485
 30
0.0
 11
247.224884
 21
182.790817
 31
0.0
210
0.0
220
0.0
230
1.0
  0
LINE
  5
565
100
AcDbEntity
  8
0
 62
     7
 48
0.022332
100
AcDbLine
 10
247.224884
 20
182.790817
 30
0.0
 11
247.041153
 21
183.664978
 31
0.0
210
0.0
220
0.0
230
1.0
  0
LINE
  5
566
100
AcDbEntity
  8
0
 62
     7
 48
0.021884
100
AcDbLine
 10
247.041153
 20
183.664978
 30
0.0
 11
246.840378
 21
184.516998
 31
0.0
210
0.0
220
0.0
230
1.0
  0
LINE
  5
567
100
AcDbEntity
  8
0
 62
     7
 48
0.021443
100
AcDbLine
 10
246.840378
 20
184.516998
 30
0.0
 11
246.623718
 21
185.346909
 31
0.0
210
0.0
220
0.0
230
1.0
  0
LINE
  5
568
100
AcDbEntity
  8
0
 62
     7
 48
0.021007
100
AcDbLine
 10
246.623718
 20
185.346909
 30
0.0
 11
246.392349
 21
186.154694
 31
0.0
210
0.0
220
0.0
230
1.0
  0
LINE
  5
569
100
AcDbEntity
  8
0
 62
     7
 48
0.020574
100
AcDbLine
 10
246.392349
 20
186.154694
 30
0.0
 11
246.14743
 21
186.940384
 31
0.0
210
0.0
220
0.0
230
1.0
  0
LINE
  5
56A
100
AcDbEntity
  8
0
 62
     7
 48
0.020145
100
AcDbLine
 10
246.14743
 20
186.940384
 30
0.0
 11
245.890137
 21
187.703995
 31
0.0
210
0.0
220
0.0
230
1.0
  0
LINE
  5
56B
100
AcDbEntity
  8
0
 62
     7
 48
0.019717
100
AcDbLine
 10
245.890137
 20
187.703995
 30
0.0
 11
245.621613
 21
188.445541
 31
0.0
210
0.0
220
0.0
230
1.0
  0
LINE
  5
56C
100
AcDbEntity
  8
0
 62
     7
 48
0.019289
100
AcDbLine
 10
245.621613
 20
188.445541
 30
0.0
 11
245.343048
 21
189.165039
 31
0.0
210
0.0
220
0.0
230
1.0
  0
LINE
  5
56D
100
AcDbEntity
  8
0
 62
     7
 48
0.01886
100
AcDbLine
 10
245.343048
 20
189.165039
 30
0.0
 11
245.055573
 21
189.862503
 31
0.0
210
0.0
220
0.0
230
1.0
  0
LINE
  5
56E
100
AcDbEntity
  8
0
 62
     7
 48
0.018428
100
AcDbLine
 10
245.055573
 20
189.862503
 30
0.0
 11
244.760391
 21
190.537949
 31
0.0
210
0.0
220
0.0
230
1.0
  0
LINE
  5
56F
100
AcDbEntity
  8
0
 62
     7
 48
0.017994
100
AcDbLine
 10
244.760391
 20
190.537949
 30
0.0
 11
244.458633
 21
191.191391
 31
0.0
210
0.0
220
0.0
230
1.0
  0
LINE
  5
570
100
AcDbEntity
  8
0
 62
     7
 48
0.017555
100
AcDbLine
 10
244.458633
 20
191.191391
 30
0.0
 11
244.151489
 21
191.822845
 31
0.0
210
0.0
220
0.0
230
1.0
  0
LINE
  5
571
100
AcDbEntity
  8
0
 62
     7
 48
0.017111
100
AcDbLine
 10
244.151489
 20
191.822845
 30
0.0
 11
243.840103
 21
192.432343
 31
0.0
210
0.0
220
0.0
230
1.0
  0
LINE
  5
572
100
AcDbEntity
  8
0
 62
     7
 48
0.01666
100
AcDbLine
 10
243.840103
 20
192.432343
 30
0.0
 11
243.52565
 21
193.019882
 31
0.0
210
0.0
220
0.0
230
1.0
  0
LINE
  5
573
100
AcDbEntity
  8
0
 62
     7
 48
0.016202
100
AcDbLine
 10
243.52565
 20
193.019882
 30
0.0
 11
243.20929
 21
193.58548
 31
0.0
210
0.0
220
0.0
230
1.0
  0
LINE
  5
574
100
AcDbEntity
  8
0
 62
     7
 48
0.015735
100
AcDbLine
 10
243.20929
 20
193.58548
 30
0.0
 11
242.892197
 21
194.12915
 31
0.0
210
0.0
220
0.0
230
1.0
  0
LINE
  5
575
100
AcDbEntity
  8
0
 62
     7
 48
0.03003
100
AcDbLine
 10
242.892197
 20
194.12915
 30
0.0
 11
242.260437
 21
195.150803
 31
0.0
210
0.0
220
0.0
230
1.0
  0
LINE
  5
576
100
AcDbEntity
  8
0
 62
     7
 48
0.02804
100
AcDbLine
 10
242.260437
 20
195.150803
 30
0.0
 11
241.639709
 21
196.084961
 31
0.0
210
0.0
220
0.0
230
1.0
  0
LINE
  5
577
100
AcDbEntity
  8
0
 62
     7
 48
0.025951
100
AcDbLine
 10
241.639709
 20
196.084961
 30
0.0
 11
241.039307
 21
196.931732
 31
0.0
210
0.0
220
0.0
230
1.0
  0
LINE
  5
578
100
AcDbEntity
  8
0
 62
     7
 48
0.023752
100
AcDbLine
 10
241.039307
 20
196.931732
 30
0.0
 11
240.468536
 21
197.691254
 31
0.0
210
0.0
220
0.0
230
1.0
  0
LINE
  5
579
100
AcDbEntity
  8
0
 62
     7
 48
0.021432
100
AcDbLine
 10
240.468536
 20
197.691254
 30
0.0
 11
239.936737
 21
198.363663
 31
0.0
210
0.0
220
0.0
230
1.0
  0
LINE
  5
57A
100
AcDbEntity
  8
0
 62
     7
 48
0.018982
100
AcDbLine
 10
239.936737
 20
198.363663
 30
0.0
 11
239.453217
 21
198.949081
 31
0.0
210
0.0
220
0.0
230
1.0
  0
ENDSEC
  0
SECTION
  2
OBJECTS
  0
DICTIONARY
  5
19
100
AcDbDictionary
  3
ACAD_GROUP
350
1A
  3
ACAD_MLINESTYLE
350
1B
  0
DICTIONARY
  5
1A
102
{ACAD_REACTORS
330
19
102
}
100
AcDbDictionary
  0
DICTIONARY
  5
1B
102
{ACAD_REACTORS
330
19
102
}
100
AcDbDictionary
  3
STANDARD
350
1C
  0
MLINESTYLE
  5
1C
102
{ACAD_REACTORS
330
1B
102
}
100
AcDbMlineStyle
  2
STANDARD
 70
     0
  3

 62
     0
 51
90.0
 52
90.0
 71
     2
 49
0.5
 62
   256
  6
BYLAYER
 49
-0.5
 62
   256
  6
BYLAYER
  0
ENDSEC
  0
EOF
