  0
SECTION
  2
HEADER
  9
$ACADVER
  1
AC1014
  9
$HANDSEED
  5
FFFF
  9
$MEASUREMENT
 70
     1
  0
ENDSEC
  0
SECTION
  2
TABLES
  0
TABLE
  2
VPORT
  5
8
330
0
100
AcDbSymbolTable
 70
     4
  0
VPORT
  5
2E
330
8
100
AcDbSymbolTableRecord
100
AcDbViewportTableRecord
  2
*ACTIVE
 70
     0
 10
0.0
 20
0.0
 11
1.0
 21
1.0
 12
210.0
 22
148.5
 13
0.0
 23
0.0
 14
10.0
 24
10.0
 15
10.0
 25
10.0
 16
0.0
 26
0.0
 36
1.0
 17
0.0
 27
0.0
 37
0.0
 40
341.0
 41
1.24
 42
50.0
 43
0.0
 44
0.0
 50
0.0
 51
0.0
 71
     0
 72
   100
 73
     1
 74
     3
 75
     0
 76
     0
 77
     0
 78
     0
  0
ENDTAB
  0
TABLE
  2
LTYPE
  5
5
330
0
100
AcDbSymbolTable
 70
     1
  0
LTYPE
  5
14
330
5
100
AcDbSymbolTableRecord
100
AcDbLinetypeTableRecord
  2
BYBLOCK
 70
     0
  3

 72
    65
 73
     0
 40
0.0
  0
LTYPE
  5
15
330
5
100
AcDbSymbolTableRecord
100
AcDbLinetypeTableRecord
  2
BYLAYER
 70
     0
  3

 72
    65
 73
     0
 40
0.0
  0
LTYPE
  5
16
330
5
100
AcDbSymbolTableRecord
100
AcDbLinetypeTableRecord
  2
CONTINUOUS
 70
     0
  3
Solid line
 72
    65
 73
     0
 40
0.0
  0
ENDTAB
  0
TABLE
  2
LAYER
  5
2
100
AcDbSymbolTable
 70
2
  0
LAYER
  5
50
100
AcDbSymbolTableRecord
100
AcDbLayerTableRecord
  2
0
 70
0
  6
CONTINUOUS
  0
LAYER
  5
51
100
AcDbSymbolTableRecord
100
AcDbLayerTableRecord
  2
Layer_1
 70
0
  6
CONTINUOUS
  0
ENDTAB
  0
TABLE
  2
STYLE
  5
3
330
0
100
AcDbSymbolTable
 70
     1
  0
STYLE
  5
11
330
3
100
AcDbSymbolTableRecord
100
AcDbTextStyleTableRecord
  2
STANDARD
 70
     0
 40
0.0
 41
1.0
 50
0.0
 71
     0
 42
2.5
  3
txt
  4

  0
ENDTAB
  0
TABLE
  2
VIEW
  5
6
330
0
100
AcDbSymbolTable
 70
     0
  0
ENDTAB
  0
TABLE
  2
UCS
  5
7
330
0
100
AcDbSymbolTable
 70
     0
  0
ENDTAB
  0
TABLE
  2
APPID
  5
9
330
0
100
AcDbSymbolTable
 70
     2
  0
APPID
  5
12
330
9
100
AcDbSymbolTableRecord
100
AcDbRegAppTableRecord
  2
ACAD
 70
     0
  0
ENDTAB
  0
TABLE
  2
DIMSTYLE
  5
A
330
0
100
AcDbSymbolTable
 70
     1
  0
DIMSTYLE
105
27
330
A
100
AcDbSymbolTableRecord
100
AcDbDimStyleTableRecord
  2
ISO-25
 70
     0
  3

  4

  5

  6

  7

 40
1.0
 41
2.5
 42
0.625
 43
3.75
 44
1.25
 45
0.0
 46
0.0
 47
0.0
 48
0.0
140
2.5
141
2.5
142
0.0
143
0.03937007874016
144
1.0
145
0.0
146
1.0
147
0.625
 71
     0
 72
     0
 73
     0
 74
     0
 75
     0
 76
     0
 77
     1
 78
     8
170
     0
171
     3
172
     1
173
     0
174
     0
175
     0
176
     0
177
     0
178
     0
270
     2
271
     2
272
     2
273
     2
274
     3
340
11
275
     0
280
     0
281
     0
282
     0
283
     0
284
     8
285
     0
286
     0
287
     3
288
     0
  0
ENDTAB
  0
TABLE
  2
BLOCK_RECORD
  5
1
330
0
100
AcDbSymbolTable
 70
     1
  0
BLOCK_RECORD
  5
1F
330
1
100
AcDbSymbolTableRecord
100
AcDbBlockTableRecord
  2
*MODEL_SPACE
  0
BLOCK_RECORD
  5
1B
330
1
100
AcDbSymbolTableRecord
100
AcDbBlockTableRecord
  2
*PAPER_SPACE
  0
ENDTAB
  0
ENDSEC
  0
SECTION
  2
BLOCKS
  0
BLOCK
  5
20
330
1F
100
AcDbEntity
  8
0
100
AcDbBlockBegin
  2
*MODEL_SPACE
 70
     0
 10
0.0
 20
0.0
 30
0.0
  3
*MODEL_SPACE
  1

  0
ENDBLK
  5
21
330
1F
100
AcDbEntity
  8
0
100
AcDbBlockEnd
  0
BLOCK
  5
1C
330
1B
100
AcDbEntity
 67
     1
  8
0
100
AcDbBlockBegin
  2
*PAPER_SPACE
  1

  0
ENDBLK
  5
1D
330
1B
100
AcDbEntity
 67
     1
  8
0
100
AcDbBlockEnd
  0
ENDSEC
  0
SECTION
  2
ENTITIES
  0
SPLINE
  5
100
100
AcDbEntity
  8
Layer_1
 62
7
100
AcDbSpline
 70
8
 71
3
 72
8
 73
4
 74
0
 40
0
 40
0
 40
0
 40
0
 40
1
 40
1
 40
1
 40
1
 10
526.910584
 20
204.016684
 30
0.0
 10
531.115304
 20
208.221388
 30
0.0
 10
531.464984
 20
214.185764
 30
0.0
 10
528.058664
 20
223.598332
 30
0.0
  0
SPLINE
  5
101
100
AcDbEntity
  8
Layer_1
 62
7
100
AcDbSpline
 70
8
 71
3
 72
8
 73
4
 74
0
 40
0
 40
0
 40
0
 40
0
 40
1
 40
1
 40
1
 40
1
 10
528.058664
 20
223.598332
 30
0.0
 10
526.147784
 20
228.878468
 30
0.0
 10
526.144184
 20
229.041652
 30
0.0
 10
527.861064
 20
232.544060
 30
0.0
  0
SPLINE
  5
102
100
AcDbEntity
  8
Layer_1
 62
7
100
AcDbSpline
 70
8
 71
3
 72
8
 73
4
 74
0
 40
0
 40
0
 40
0
 40
0
 40
1
 40
1
 40
1
 40
1
 10
527.861064
 20
232.544060
 30
0.0
 10
530.333064
 20
237.586972
 30
0.0
 10
534.904744
 20
240.379772
 30
0.0
 10
540.687704
 20
240.379772
 30
0.0
  0
SPLINE
  5
103
100
AcDbEntity
  8
Layer_1
 62
7
100
AcDbSpline
 70
8
 71
3
 72
8
 73
4
 74
0
 40
0
 40
0
 40
0
 40
0
 40
1
 40
1
 40
1
 40
1
 10
540.687704
 20
240.379772
 30
0.0
 10
544.716184
 20
240.379772
 30
0.0
 10
545.785944
 20
239.951180
 30
0.0
 10
548.478904
 20
237.258180
 30
0.0
  0
SPLINE
  5
104
100
AcDbEntity
  8
Layer_1
 62
7
100
AcDbSpline
 70
8
 71
3
 72
8
 73
4
 74
0
 40
0
 40
0
 40
0
 40
0
 40
1
 40
1
 40
1
 40
1
 10
548.478904
 20
237.258180
 30
0.0
 10
552.521624
 20
233.215516
 30
0.0
 10
553.963864
 20
227.706844
 30
0.0
 10
553.463384
 20
218.220092
 30
0.0
  0
SPLINE
  5
105
100
AcDbEntity
  8
Layer_1
 62
7
100
AcDbSpline
 70
8
 71
3
 72
8
 73
4
 74
0
 40
0
 40
0
 40
0
 40
0
 40
1
 40
1
 40
1
 40
1
 10
553.463384
 20
218.220092
 30
0.0
 10
552.995464
 20
209.349948
 30
0.0
 10
550.333784
 20
204.321428
 30
0.0
 10
544.316584
 20
200.939572
 30
0.0
  0
SPLINE
  5
106
100
AcDbEntity
  8
Layer_1
 62
7
100
AcDbSpline
 70
8
 71
3
 72
8
 73
4
 74
0
 40
0
 40
0
 40
0
 40
0
 40
1
 40
1
 40
1
 40
1
 10
544.316584
 20
200.939572
 30
0.0
 10
540.359304
 20
198.715460
 30
0.0
 10
530.957624
 20
198.197700
 30
0.0
 10
526.203384
 20
199.942084
 30
0.0
  0
LWPOLYLINE
  5
107
100
AcDbEntity
  8
Layer_1
 62
7
100
AcDbPolyline
 90
3
 70
1
 10
526.203384
 20
199.942084
 30
0.0
 10
523.739864
 20
200.845964
 30
0.0
 10
526.910584
 20
204.016684
 30
0.0
  0
SPLINE
  5
108
100
AcDbEntity
  8
Layer_1
 62
7
100
AcDbSpline
 70
8
 71
3
 72
8
 73
4
 74
0
 40
0
 40
0
 40
0
 40
0
 40
1
 40
1
 40
1
 40
1
 10
513.107944
 20
205.532924
 30
0.0
 10
513.107944
 20
209.395860
 30
0.0
 10
509.105784
 20
213.484836
 30
0.0
 10
506.218264
 20
212.572036
 30
0.0
  0
SPLINE
  5
109
100
AcDbEntity
  8
Layer_1
 62
7
100
AcDbSpline
 70
8
 71
3
 72
8
 73
4
 74
0
 40
0
 40
0
 40
0
 40
0
 40
1
 40
1
 40
1
 40
1
 10
506.218264
 20
212.572036
 30
0.0
 10
501.910344
 20
211.210212
 30
0.0
 10
493.266584
 20
210.935252
 30
0.0
 10
490.520584
 20
212.072684
 30
0.0
  0
SPLINE
  5
10a
100
AcDbEntity
  8
Layer_1
 62
7
100
AcDbSpline
 70
8
 71
3
 72
8
 73
4
 74
0
 40
0
 40
0
 40
0
 40
0
 40
1
 40
1
 40
1
 40
1
 10
490.520584
 20
212.072684
 30
0.0
 10
482.081384
 20
215.568316
 30
0.0
 10
482.676344
 20
229.586428
 30
0.0
 10
491.451864
 20
234.013292
 30
0.0
  0
SPLINE
  5
10b
100
AcDbEntity
  8
Layer_1
 62
7
100
AcDbSpline
 70
8
 71
3
 72
8
 73
4
 74
0
 40
0
 40
0
 40
0
 40
0
 40
1
 40
1
 40
1
 40
1
 10
491.451864
 20
234.013292
 30
0.0
 10
498.719144
 20
237.679340
 30
0.0
 10
508.928104
 20
234.873852
 30
0.0
 10
516.769784
 20
227.055796
 30
0.0
  0
SPLINE
  5
10c
100
AcDbEntity
  8
Layer_1
 62
7
100
AcDbSpline
 70
8
 71
3
 72
8
 73
4
 74
0
 40
0
 40
0
 40
0
 40
0
 40
1
 40
1
 40
1
 40
1
 10
516.769784
 20
227.055796
 30
0.0
 10
521.035704
 20
222.802676
 30
0.0
 10
523.480584
 20
218.358348
 30
0.0
 10
523.480584
 20
214.856772
 30
0.0
  0
SPLINE
  5
10d
100
AcDbEntity
  8
Layer_1
 62
7
100
AcDbSpline
 70
8
 71
3
 72
8
 73
4
 74
0
 40
0
 40
0
 40
0
 40
0
 40
1
 40
1
 40
1
 40
1
 10
523.480584
 20
214.856772
 30
0.0
 10
523.480584
 20
211.422988
 30
0.0
 10
520.589864
 20
206.548676
 30
0.0
 10
517.375304
 20
204.561964
 30
0.0
  0
SPLINE
  5
10e
100
AcDbEntity
  8
Layer_1
 62
7
100
AcDbSpline
 70
8
 71
3
 72
8
 73
4
 74
0
 40
0
 40
0
 40
0
 40
0
 40
1
 40
1
 40
1
 40
1
 10
517.375304
 20
204.561964
 30
0.0
 10
513.360584
 20
202.080708
 30
0.0
 10
513.107944
 20
202.138196
 30
0.0
 10
513.107944
 20
205.532924
 30
0.0
  0
LWPOLYLINE
  5
10f
100
AcDbEntity
  8
Layer_1
 62
7
100
AcDbPolyline
 90
2
 70
1
 10
526.203384
 20
199.942084
 30
0.0
 10
526.203384
 20
199.942084
 30
0.0
  0
SPLINE
  5
110
100
AcDbEntity
  8
Layer_1
 62
7
100
AcDbSpline
 70
8
 71
3
 72
8
 73
4
 74
0
 40
0
 40
0
 40
0
 40
0
 40
1
 40
1
 40
1
 40
1
 10
554.910664
 20
205.126492
 30
0.0
 10
554.122424
 20
205.462412
 30
0.0
 10
554.325704
 20
206.765636
 30
0.0
 10
555.624184
 20
209.701036
 30
0.0
  0
SPLINE
  5
111
100
AcDbEntity
  8
Layer_1
 62
7
100
AcDbSpline
 70
8
 71
3
 72
8
 73
4
 74
0
 40
0
 40
0
 40
0
 40
0
 40
1
 40
1
 40
1
 40
1
 10
555.624184
 20
209.701036
 30
0.0
 10
559.431544
 20
218.308252
 30
0.0
 10
558.853304
 20
227.636364
 30
0.0
 10
554.058584
 20
234.957716
 30
0.0
  0
LWPOLYLINE
  5
112
100
AcDbEntity
  8
Layer_1
 62
7
100
AcDbPolyline
 90
2
 70
1
 10
513.107944
 20
205.532924
 30
0.0
 10
513.107944
 20
205.532924
 30
0.0
  0
SPLINE
  5
113
100
AcDbEntity
  8
Layer_1
 62
7
100
AcDbSpline
 70
8
 71
3
 72
8
 73
4
 74
0
 40
0
 40
0
 40
0
 40
0
 40
1
 40
1
 40
1
 40
1
 10
555.763704
 20
238.489836
 30
0.0
 10
566.410264
 20
238.480396
 30
0.0
 10
571.437704
 20
228.194564
 30
0.0
 10
567.203544
 20
215.084268
 30
0.0
  0
SPLINE
  5
114
100
AcDbEntity
  8
Layer_1
 62
7
100
AcDbSpline
 70
8
 71
3
 72
8
 73
4
 74
0
 40
0
 40
0
 40
0
 40
0
 40
1
 40
1
 40
1
 40
1
 10
567.203544
 20
215.084268
 30
0.0
 10
564.980984
 20
208.202516
 30
0.0
 10
559.020904
 20
203.374356
 30
0.0
 10
554.910664
 20
205.126020
 30
0.0
  0
LWPOLYLINE
  5
115
100
AcDbEntity
  8
Layer_1
 62
7
100
AcDbPolyline
 90
3
 70
1
 10
554.058584
 20
234.957716
 30
0.0
 10
551.742744
 20
238.493836
 30
0.0
 10
555.763704
 20
238.489836
 30
0.0
  0
SPLINE
  5
116
100
AcDbEntity
  8
Layer_1
 62
7
100
AcDbSpline
 70
8
 71
3
 72
8
 73
4
 74
0
 40
0
 40
0
 40
0
 40
0
 40
1
 40
1
 40
1
 40
1
 10
476.891544
 20
225.334980
 30
0.0
 10
467.930184
 20
233.219740
 30
0.0
 10
467.336824
 20
244.737396
 30
0.0
 10
475.417864
 20
253.941148
 30
0.0
  0
SPLINE
  5
117
100
AcDbEntity
  8
Layer_1
 62
7
100
AcDbSpline
 70
8
 71
3
 72
8
 73
4
 74
0
 40
0
 40
0
 40
0
 40
0
 40
1
 40
1
 40
1
 40
1
 10
475.417864
 20
253.941148
 30
0.0
 10
479.856264
 20
258.996244
 30
0.0
 10
485.096344
 20
261.403436
 30
0.0
 10
491.891224
 20
261.508772
 30
0.0
  0
SPLINE
  5
118
100
AcDbEntity
  8
Layer_1
 62
7
100
AcDbSpline
 70
8
 71
3
 72
8
 73
4
 74
0
 40
0
 40
0
 40
0
 40
0
 40
1
 40
1
 40
1
 40
1
 10
491.891224
 20
261.508772
 30
0.0
 10
497.212264
 20
261.591284
 30
0.0
 10
497.994424
 20
261.299692
 30
0.0
 10
505.032504
 20
256.610316
 30
0.0
  0
SPLINE
  5
119
100
AcDbEntity
  8
Layer_1
 62
7
100
AcDbSpline
 70
8
 71
3
 72
8
 73
4
 74
0
 40
0
 40
0
 40
0
 40
0
 40
1
 40
1
 40
1
 40
1
 10
505.032504
 20
256.610316
 30
0.0
 10
513.945864
 20
250.671460
 30
0.0
 10
522.385304
 20
246.520524
 30
0.0
 10
528.975384
 20
244.833996
 30
0.0
  0
LWPOLYLINE
  5
11a
100
AcDbEntity
  8
Layer_1
 62
7
100
AcDbPolyline
 90
2
 70
1
 10
554.910664
 20
205.126020
 30
0.0
 10
554.910664
 20
205.126492
 30
0.0
  0
SPLINE
  5
11b
100
AcDbEntity
  8
Layer_1
 62
7
100
AcDbSpline
 70
8
 71
3
 72
8
 73
4
 74
0
 40
0
 40
0
 40
0
 40
0
 40
1
 40
1
 40
1
 40
1
 10
530.365304
 20
241.759172
 30
0.0
 10
526.758584
 20
239.816836
 30
0.0
 10
523.490024
 20
235.429060
 30
0.0
 10
523.484104
 20
232.521732
 30
0.0
  0
SPLINE
  5
11c
100
AcDbEntity
  8
Layer_1
 62
7
100
AcDbSpline
 70
8
 71
3
 72
8
 73
4
 74
0
 40
0
 40
0
 40
0
 40
0
 40
1
 40
1
 40
1
 40
1
 10
523.484104
 20
232.521732
 30
0.0
 10
523.484104
 20
231.570900
 30
0.0
 10
523.162344
 20
230.955900
 30
0.0
 10
522.773304
 20
231.155044
 30
0.0
  0
SPLINE
  5
11d
100
AcDbEntity
  8
Layer_1
 62
7
100
AcDbSpline
 70
8
 71
3
 72
8
 73
4
 74
0
 40
0
 40
0
 40
0
 40
0
 40
1
 40
1
 40
1
 40
1
 10
522.773304
 20
231.155044
 30
0.0
 10
509.143944
 20
238.132996
 30
0.0
 10
504.705144
 20
239.774372
 30
0.0
 10
498.362344
 20
240.181820
 30
0.0
  0
LWPOLYLINE
  5
11e
100
AcDbEntity
  8
Layer_1
 62
7
100
AcDbPolyline
 90
3
 70
1
 10
528.975384
 20
244.833996
 30
0.0
 10
533.787944
 20
243.602388
 30
0.0
 10
530.365304
 20
241.759172
 30
0.0
  0
SPLINE
  5
11f
100
AcDbEntity
  8
Layer_1
 62
7
100
AcDbSpline
 70
8
 71
3
 72
8
 73
4
 74
0
 40
0
 40
0
 40
0
 40
0
 40
1
 40
1
 40
1
 40
1
 10
487.330584
 20
236.649380
 30
0.0
 10
483.250664
 20
232.888580
 30
0.0
 10
481.513624
 20
229.598348
 30
0.0
 10
480.863944
 20
224.400092
 30
0.0
  0
LWPOLYLINE
  5
120
100
AcDbEntity
  8
Layer_1
 62
7
100
AcDbPolyline
 90
3
 70
1
 10
498.362344
 20
240.181820
 30
0.0
 10
491.631944
 20
240.614172
 30
0.0
 10
487.330584
 20
236.649380
 30
0.0
  0
SPLINE
  5
121
100
AcDbEntity
  8
Layer_1
 62
7
100
AcDbSpline
 70
8
 71
3
 72
8
 73
4
 74
0
 40
0
 40
0
 40
0
 40
0
 40
1
 40
1
 40
1
 40
1
 10
460.983224
 20
253.819076
 30
0.0
 10
454.374904
 20
262.446796
 30
0.0
 10
447.159784
 20
269.324172
 30
0.0
 10
443.843464
 20
270.156516
 30
0.0
  0
SPLINE
  5
122
100
AcDbEntity
  8
Layer_1
 62
7
100
AcDbSpline
 70
8
 71
3
 72
8
 73
4
 74
0
 40
0
 40
0
 40
0
 40
0
 40
1
 40
1
 40
1
 40
1
 10
443.843464
 20
270.156516
 30
0.0
 10
440.629144
 20
270.963260
 30
0.0
 10
437.873624
 20
268.538020
 30
0.0
 10
437.487384
 20
264.562372
 30
0.0
  0
SPLINE
  5
123
100
AcDbEntity
  8
Layer_1
 62
7
100
AcDbSpline
 70
8
 71
3
 72
8
 73
4
 74
0
 40
0
 40
0
 40
0
 40
0
 40
1
 40
1
 40
1
 40
1
 10
437.487384
 20
264.562372
 30
0.0
 10
437.218984
 20
261.799188
 30
0.0
 10
436.963144
 20
262.079836
 30
0.0
 10
433.744344
 20
268.668716
 30
0.0
  0
SPLINE
  5
124
100
AcDbEntity
  8
Layer_1
 62
7
100
AcDbSpline
 70
8
 71
3
 72
8
 73
4
 74
0
 40
0
 40
0
 40
0
 40
0
 40
1
 40
1
 40
1
 40
1
 10
433.744344
 20
268.668716
 30
0.0
 10
425.859064
 20
284.809804
 30
0.0
 10
426.520824
 20
299.883572
 30
0.0
 10
435.547864
 20
309.752116
 30
0.0
  0
SPLINE
  5
125
100
AcDbEntity
  8
Layer_1
 62
7
100
AcDbSpline
 70
8
 71
3
 72
8
 73
4
 74
0
 40
0
 40
0
 40
0
 40
0
 40
1
 40
1
 40
1
 40
1
 10
435.547864
 20
309.752116
 30
0.0
 10
437.980024
 20
312.411012
 30
0.0
 10
438.975784
 20
312.740124
 30
0.0
 10
447.838584
 20
313.814284
 30
0.0
  0
SPLINE
  5
126
100
AcDbEntity
  8
Layer_1
 62
7
100
AcDbSpline
 70
8
 71
3
 72
8
 73
4
 74
0
 40
0
 40
0
 40
0
 40
0
 40
1
 40
1
 40
1
 40
1
 10
447.838584
 20
313.814284
 30
0.0
 10
453.142904
 20
314.457148
 30
0.0
 10
459.628664
 20
315.539780
 30
0.0
 10
462.251464
 20
316.220124
 30
0.0
  0
SPLINE
  5
127
100
AcDbEntity
  8
Layer_1
 62
7
100
AcDbSpline
 70
8
 71
3
 72
8
 73
4
 74
0
 40
0
 40
0
 40
0
 40
0
 40
1
 40
1
 40
1
 40
1
 10
462.251464
 20
316.220124
 30
0.0
 10
466.822104
 20
317.405724
 30
0.0
 10
467.077704
 20
317.369356
 30
0.0
 10
468.404344
 20
315.344668
 30
0.0
  0
SPLINE
  5
128
100
AcDbEntity
  8
Layer_1
 62
7
100
AcDbSpline
 70
8
 71
3
 72
8
 73
4
 74
0
 40
0
 40
0
 40
0
 40
0
 40
1
 40
1
 40
1
 40
1
 10
468.404344
 20
315.344668
 30
0.0
 10
470.520904
 20
312.114356
 30
0.0
 10
473.534584
 20
302.927308
 30
0.0
 10
475.013864
 20
295.195812
 30
0.0
  0
SPLINE
  5
129
100
AcDbEntity
  8
Layer_1
 62
7
100
AcDbSpline
 70
8
 71
3
 72
8
 73
4
 74
0
 40
0
 40
0
 40
0
 40
0
 40
1
 40
1
 40
1
 40
1
 10
475.013864
 20
295.195812
 30
0.0
 10
476.735304
 20
286.198924
 30
0.0
 10
481.035464
 20
278.244020
 30
0.0
 10
487.750584
 20
271.634140
 30
0.0
  0
LWPOLYLINE
  5
12a
100
AcDbEntity
  8
Layer_1
 62
7
100
AcDbPolyline
 90
3
 70
1
 10
480.863944
 20
224.400092
 30
0.0
 10
480.575624
 20
222.093428
 30
0.0
 10
476.891544
 20
225.334980
 30
0.0
  0
SPLINE
  5
12b
100
AcDbEntity
  8
Layer_1
 62
7
100
AcDbSpline
 70
8
 71
3
 72
8
 73
4
 74
0
 40
0
 40
0
 40
0
 40
0
 40
1
 40
1
 40
1
 40
1
 10
487.321944
 20
265.160692
 30
0.0
 10
478.494504
 20
263.361204
 30
0.0
 10
473.748584
 20
259.382388
 30
0.0
 10
467.351864
 20
248.418708
 30
0.0
  0
SPLINE
  5
12c
100
AcDbEntity
  8
Layer_1
 62
7
100
AcDbSpline
 70
8
 71
3
 72
8
 73
4
 74
0
 40
0
 40
0
 40
0
 40
0
 40
1
 40
1
 40
1
 40
1
 10
467.351864
 20
248.418708
 30
0.0
 10
466.518424
 20
246.990116
 30
0.0
 10
465.649304
 20
247.727052
 30
0.0
 10
460.983224
 20
253.819076
 30
0.0
  0
LWPOLYLINE
  5
12d
100
AcDbEntity
  8
Layer_1
 62
7
100
AcDbPolyline
 90
3
 70
1
 10
487.750584
 20
271.634140
 30
0.0
 10
493.125224
 20
266.343708
 30
0.0
 10
487.321944
 20
265.160692
 30
0.0
  0
SPLINE
  5
12e
100
AcDbEntity
  8
Layer_1
 62
7
100
AcDbSpline
 70
8
 71
3
 72
8
 73
4
 74
0
 40
0
 40
0
 40
0
 40
0
 40
1
 40
1
 40
1
 40
1
 10
189.915624
 20
262.885484
 30
0.0
 10
188.733704
 20
265.409540
 30
0.0
 10
186.694184
 20
267.989204
 30
0.0
 10
185.286744
 20
268.740364
 30
0.0
  0
SPLINE
  5
12f
100
AcDbEntity
  8
Layer_1
 62
7
100
AcDbSpline
 70
8
 71
3
 72
8
 73
4
 74
0
 40
0
 40
0
 40
0
 40
0
 40
1
 40
1
 40
1
 40
1
 10
185.286744
 20
268.740364
 30
0.0
 10
177.882984
 20
272.691668
 30
0.0
 10
177.308344
 20
289.984852
 30
0.0
 10
184.425784
 20
294.648396
 30
0.0
  0
SPLINE
  5
130
100
AcDbEntity
  8
Layer_1
 62
7
100
AcDbSpline
 70
8
 71
3
 72
8
 73
4
 74
0
 40
0
 40
0
 40
0
 40
0
 40
1
 40
1
 40
1
 40
1
 10
184.425784
 20
294.648396
 30
0.0
 10
189.486184
 20
297.964100
 30
0.0
 10
198.907704
 20
294.248684
 30
0.0
 10
201.564744
 20
287.889604
 30
0.0
  0
SPLINE
  5
131
100
AcDbEntity
  8
Layer_1
 62
7
100
AcDbSpline
 70
8
 71
3
 72
8
 73
4
 74
0
 40
0
 40
0
 40
0
 40
0
 40
1
 40
1
 40
1
 40
1
 10
201.564744
 20
287.889604
 30
0.0
 10
204.086344
 20
281.854564
 30
0.0
 10
203.296824
 20
277.400556
 30
0.0
 10
198.157624
 20
268.668716
 30
0.0
  0
SPLINE
  5
132
100
AcDbEntity
  8
Layer_1
 62
7
100
AcDbSpline
 70
8
 71
3
 72
8
 73
4
 74
0
 40
0
 40
0
 40
0
 40
0
 40
1
 40
1
 40
1
 40
1
 10
198.157624
 20
268.668716
 30
0.0
 10
195.564504
 20
264.262740
 30
0.0
 10
193.442824
 20
260.126452
 30
0.0
 10
193.442824
 20
259.476980
 30
0.0
  0
SPLINE
  5
133
100
AcDbEntity
  8
Layer_1
 62
7
100
AcDbSpline
 70
8
 71
3
 72
8
 73
4
 74
0
 40
0
 40
0
 40
0
 40
0
 40
1
 40
1
 40
1
 40
1
 10
193.442824
 20
259.476980
 30
0.0
 10
193.442824
 20
257.075548
 30
0.0
 10
191.969384
 20
258.499388
 30
0.0
 10
189.915624
 20
262.885484
 30
0.0
  0
LWPOLYLINE
  5
134
100
AcDbEntity
  8
Layer_1
 62
7
100
AcDbPolyline
 90
2
 70
1
 10
460.983224
 20
253.819076
 30
0.0
 10
460.983224
 20
253.819076
 30
0.0
  0
SPLINE
  5
135
100
AcDbEntity
  8
Layer_1
 62
7
100
AcDbSpline
 70
8
 71
3
 72
8
 73
4
 74
0
 40
0
 40
0
 40
0
 40
0
 40
1
 40
1
 40
1
 40
1
 10
157.933784
 20
266.595676
 30
0.0
 10
153.719304
 20
269.914460
 30
0.0
 10
151.009384
 20
275.273660
 30
0.0
 10
151.009384
 20
280.289644
 30
0.0
  0
SPLINE
  5
136
100
AcDbEntity
  8
Layer_1
 62
7
100
AcDbSpline
 70
8
 71
3
 72
8
 73
4
 74
0
 40
0
 40
0
 40
0
 40
0
 40
1
 40
1
 40
1
 40
1
 10
151.009384
 20
280.289644
 30
0.0
 10
151.009384
 20
286.758516
 30
0.0
 10
153.675624
 20
291.844132
 30
0.0
 10
160.459384
 20
298.314764
 30
0.0
  0
SPLINE
  5
137
100
AcDbEntity
  8
Layer_1
 62
7
100
AcDbSpline
 70
8
 71
3
 72
8
 73
4
 74
0
 40
0
 40
0
 40
0
 40
0
 40
1
 40
1
 40
1
 40
1
 10
160.459384
 20
298.314764
 30
0.0
 10
165.218104
 20
302.853780
 30
0.0
 10
166.541304
 20
303.633396
 30
0.0
 10
169.061384
 20
303.382932
 30
0.0
  0
SPLINE
  5
138
100
AcDbEntity
  8
Layer_1
 62
7
100
AcDbSpline
 70
8
 71
3
 72
8
 73
4
 74
0
 40
0
 40
0
 40
0
 40
0
 40
1
 40
1
 40
1
 40
1
 10
169.061384
 20
303.382932
 30
0.0
 10
174.091064
 20
302.883060
 30
0.0
 10
176.002184
 20
299.197356
 30
0.0
 10
175.975544
 20
290.048700
 30
0.0
  0
SPLINE
  5
139
100
AcDbEntity
  8
Layer_1
 62
7
100
AcDbSpline
 70
8
 71
3
 72
8
 73
4
 74
0
 40
0
 40
0
 40
0
 40
0
 40
1
 40
1
 40
1
 40
1
 10
175.975544
 20
290.048700
 30
0.0
 10
175.945944
 20
279.903028
 30
0.0
 10
174.458744
 20
277.128628
 30
0.0
 10
167.043544
 20
273.385412
 30
0.0
  0
SPLINE
  5
13a
100
AcDbEntity
  8
Layer_1
 62
7
100
AcDbSpline
 70
8
 71
3
 72
8
 73
4
 74
0
 40
0
 40
0
 40
0
 40
0
 40
1
 40
1
 40
1
 40
1
 10
167.043544
 20
273.385412
 30
0.0
 10
162.684984
 20
271.185252
 30
0.0
 10
161.272424
 20
269.935420
 30
0.0
 10
160.701784
 20
267.774420
 30
0.0
  0
SPLINE
  5
13b
100
AcDbEntity
  8
Layer_1
 62
7
100
AcDbSpline
 70
8
 71
3
 72
8
 73
4
 74
0
 40
0
 40
0
 40
0
 40
0
 40
1
 40
1
 40
1
 40
1
 10
160.701784
 20
267.774420
 30
0.0
 10
159.989544
 20
265.077268
 30
0.0
 10
159.906744
 20
265.042004
 30
0.0
 10
157.933784
 20
266.595676
 30
0.0
  0
LWPOLYLINE
  5
13c
100
AcDbEntity
  8
Layer_1
 62
7
100
AcDbPolyline
 90
2
 70
1
 10
189.915624
 20
262.885484
 30
0.0
 10
189.915624
 20
262.885484
 30
0.0
  0
SPLINE
  5
13d
100
AcDbEntity
  8
Layer_1
 62
7
100
AcDbSpline
 70
8
 71
3
 72
8
 73
4
 74
0
 40
0
 40
0
 40
0
 40
0
 40
1
 40
1
 40
1
 40
1
 10
223.146184
 20
267.911540
 30
0.0
 10
221.723944
 20
270.130276
 30
0.0
 10
220.103384
 20
271.142884
 30
0.0
 10
216.554744
 20
272.030292
 30
0.0
  0
SPLINE
  5
13e
100
AcDbEntity
  8
Layer_1
 62
7
100
AcDbSpline
 70
8
 71
3
 72
8
 73
4
 74
0
 40
0
 40
0
 40
0
 40
0
 40
1
 40
1
 40
1
 40
1
 10
216.554744
 20
272.030292
 30
0.0
 10
208.546104
 20
274.032996
 30
0.0
 10
204.758424
 20
280.741156
 30
0.0
 10
204.758424
 20
292.922068
 30
0.0
  0
SPLINE
  5
13f
100
AcDbEntity
  8
Layer_1
 62
7
100
AcDbSpline
 70
8
 71
3
 72
8
 73
4
 74
0
 40
0
 40
0
 40
0
 40
0
 40
1
 40
1
 40
1
 40
1
 10
204.758424
 20
292.922068
 30
0.0
 10
204.758424
 20
300.273676
 30
0.0
 10
206.410024
 20
302.615452
 30
0.0
 10
211.594984
 20
302.615452
 30
0.0
  0
SPLINE
  5
140
100
AcDbEntity
  8
Layer_1
 62
7
100
AcDbSpline
 70
8
 71
3
 72
8
 73
4
 74
0
 40
0
 40
0
 40
0
 40
0
 40
1
 40
1
 40
1
 40
1
 10
211.594984
 20
302.615452
 30
0.0
 10
215.068184
 20
302.615452
 30
0.0
 10
216.026744
 20
302.067220
 30
0.0
 10
220.339784
 20
297.614308
 30
0.0
  0
SPLINE
  5
141
100
AcDbEntity
  8
Layer_1
 62
7
100
AcDbSpline
 70
8
 71
3
 72
8
 73
4
 74
0
 40
0
 40
0
 40
0
 40
0
 40
1
 40
1
 40
1
 40
1
 10
220.339784
 20
297.614308
 30
0.0
 10
229.870184
 20
287.774660
 30
0.0
 10
233.118904
 20
275.941692
 30
0.0
 10
228.390344
 20
268.290756
 30
0.0
  0
SPLINE
  5
142
100
AcDbEntity
  8
Layer_1
 62
7
100
AcDbSpline
 70
8
 71
3
 72
8
 73
4
 74
0
 40
0
 40
0
 40
0
 40
0
 40
1
 40
1
 40
1
 40
1
 10
228.390344
 20
268.290756
 30
0.0
 10
227.236664
 20
266.424108
 30
0.0
 10
226.009144
 20
264.913196
 30
0.0
 10
225.662424
 20
264.933180
 30
0.0
  0
SPLINE
  5
143
100
AcDbEntity
  8
Layer_1
 62
7
100
AcDbSpline
 70
8
 71
3
 72
8
 73
4
 74
0
 40
0
 40
0
 40
0
 40
0
 40
1
 40
1
 40
1
 40
1
 10
225.662424
 20
264.933180
 30
0.0
 10
225.315784
 20
264.953180
 30
0.0
 10
224.183464
 20
266.293428
 30
0.0
 10
223.146184
 20
267.911540
 30
0.0
  0
LWPOLYLINE
  5
144
100
AcDbEntity
  8
Layer_1
 62
7
100
AcDbPolyline
 90
2
 70
1
 10
157.933784
 20
266.595676
 30
0.0
 10
157.933784
 20
266.595676
 30
0.0
  0
SPLINE
  5
145
100
AcDbEntity
  8
Layer_1
 62
7
100
AcDbSpline
 70
8
 71
3
 72
8
 73
4
 74
0
 40
0
 40
0
 40
0
 40
0
 40
1
 40
1
 40
1
 40
1
 10
415.982584
 20
268.706284
 30
0.0
 10
415.982584
 20
272.894060
 30
0.0
 10
412.743624
 20
278.558140
 30
0.0
 10
409.040024
 20
280.847100
 30
0.0
  0
SPLINE
  5
146
100
AcDbEntity
  8
Layer_1
 62
7
100
AcDbSpline
 70
8
 71
3
 72
8
 73
4
 74
0
 40
0
 40
0
 40
0
 40
0
 40
1
 40
1
 40
1
 40
1
 10
409.040024
 20
280.847100
 30
0.0
 10
407.263864
 20
281.944796
 30
0.0
 10
405.129064
 20
284.279444
 30
0.0
 10
404.295864
 20
286.035196
 30
0.0
  0
SPLINE
  5
147
100
AcDbEntity
  8
Layer_1
 62
7
100
AcDbSpline
 70
8
 71
3
 72
8
 73
4
 74
0
 40
0
 40
0
 40
0
 40
0
 40
1
 40
1
 40
1
 40
1
 10
404.295864
 20
286.035196
 30
0.0
 10
402.392984
 20
290.045252
 30
0.0
 10
402.345624
 20
298.315292
 30
0.0
 10
404.195464
 20
303.558420
 30
0.0
  0
SPLINE
  5
148
100
AcDbEntity
  8
Layer_1
 62
7
100
AcDbSpline
 70
8
 71
3
 72
8
 73
4
 74
0
 40
0
 40
0
 40
0
 40
0
 40
1
 40
1
 40
1
 40
1
 10
404.195464
 20
303.558420
 30
0.0
 10
406.065544
 20
308.858788
 30
0.0
 10
406.018744
 20
308.983572
 30
0.0
 10
403.160744
 20
306.315940
 30
0.0
  0
SPLINE
  5
149
100
AcDbEntity
  8
Layer_1
 62
7
100
AcDbSpline
 70
8
 71
3
 72
8
 73
4
 74
0
 40
0
 40
0
 40
0
 40
0
 40
1
 40
1
 40
1
 40
1
 10
403.160744
 20
306.315940
 30
0.0
 10
400.045464
 20
303.408188
 30
0.0
 10
397.123224
 20
297.742044
 30
0.0
 10
397.123224
 20
294.609412
 30
0.0
  0
SPLINE
  5
14a
100
AcDbEntity
  8
Layer_1
 62
7
100
AcDbSpline
 70
8
 71
3
 72
8
 73
4
 74
0
 40
0
 40
0
 40
0
 40
0
 40
1
 40
1
 40
1
 40
1
 10
397.123224
 20
294.609412
 30
0.0
 10
397.123224
 20
293.276540
 30
0.0
 10
398.196184
 20
289.636892
 30
0.0
 10
399.507464
 20
286.521308
 30
0.0
  0
SPLINE
  5
14b
100
AcDbEntity
  8
Layer_1
 62
7
100
AcDbSpline
 70
8
 71
3
 72
8
 73
4
 74
0
 40
0
 40
0
 40
0
 40
0
 40
1
 40
1
 40
1
 40
1
 10
399.507464
 20
286.521308
 30
0.0
 10
401.555464
 20
281.655476
 30
0.0
 10
401.754024
 20
280.345132
 30
0.0
 10
400.915144
 20
277.229916
 30
0.0
  0
SPLINE
  5
14c
100
AcDbEntity
  8
Layer_1
 62
7
100
AcDbSpline
 70
8
 71
3
 72
8
 73
4
 74
0
 40
0
 40
0
 40
0
 40
0
 40
1
 40
1
 40
1
 40
1
 10
400.915144
 20
277.229916
 30
0.0
 10
399.726184
 20
272.814492
 30
0.0
 10
397.123224
 20
270.120676
 30
0.0
 10
397.123224
 20
273.305644
 30
0.0
  0
SPLINE
  5
14d
100
AcDbEntity
  8
Layer_1
 62
7
100
AcDbSpline
 70
8
 71
3
 72
8
 73
4
 74
0
 40
0
 40
0
 40
0
 40
0
 40
1
 40
1
 40
1
 40
1
 10
397.123224
 20
273.305644
 30
0.0
 10
397.123224
 20
276.955188
 30
0.0
 10
393.599784
 20
282.371860
 30
0.0
 10
388.256424
 20
286.936892
 30
0.0
  0
SPLINE
  5
14e
100
AcDbEntity
  8
Layer_1
 62
7
100
AcDbSpline
 70
8
 71
3
 72
8
 73
4
 74
0
 40
0
 40
0
 40
0
 40
0
 40
1
 40
1
 40
1
 40
1
 10
388.256424
 20
286.936892
 30
0.0
 10
380.561784
 20
293.510588
 30
0.0
 10
379.200664
 20
300.905108
 30
0.0
 10
383.965864
 20
310.245708
 30
0.0
  0
SPLINE
  5
14f
100
AcDbEntity
  8
Layer_1
 62
7
100
AcDbSpline
 70
8
 71
3
 72
8
 73
4
 74
0
 40
0
 40
0
 40
0
 40
0
 40
1
 40
1
 40
1
 40
1
 10
383.965864
 20
310.245708
 30
0.0
 10
386.624104
 20
315.456268
 30
0.0
 10
384.833864
 20
314.816028
 30
0.0
 10
380.295064
 20
308.932916
 30
0.0
  0
SPLINE
  5
150
100
AcDbEntity
  8
Layer_1
 62
7
100
AcDbSpline
 70
8
 71
3
 72
8
 73
4
 74
0
 40
0
 40
0
 40
0
 40
0
 40
1
 40
1
 40
1
 40
1
 10
380.295064
 20
308.932916
 30
0.0
 10
375.582664
 20
302.824732
 30
0.0
 10
373.548024
 20
298.153060
 30
0.0
 10
373.552664
 20
293.451836
 30
0.0
  0
SPLINE
  5
151
100
AcDbEntity
  8
Layer_1
 62
7
100
AcDbSpline
 70
8
 71
3
 72
8
 73
4
 74
0
 40
0
 40
0
 40
0
 40
0
 40
1
 40
1
 40
1
 40
1
 10
373.552664
 20
293.451836
 30
0.0
 10
373.552664
 20
289.857348
 30
0.0
 10
376.496904
 20
283.756156
 30
0.0
 10
378.225864
 20
283.756156
 30
0.0
  0
SPLINE
  5
152
100
AcDbEntity
  8
Layer_1
 62
7
100
AcDbSpline
 70
8
 71
3
 72
8
 73
4
 74
0
 40
0
 40
0
 40
0
 40
0
 40
1
 40
1
 40
1
 40
1
 10
378.225864
 20
283.756156
 30
0.0
 10
379.847064
 20
283.756156
 30
0.0
 10
382.035784
 20
278.343036
 30
0.0
 10
382.035784
 20
274.333628
 30
0.0
  0
LWPOLYLINE
  5
153
100
AcDbEntity
  8
Layer_1
 62
7
100
AcDbPolyline
 90
2
 70
1
 10
223.146184
 20
267.911540
 30
0.0
 10
223.146184
 20
267.911540
 30
0.0
  0
SPLINE
  5
154
100
AcDbEntity
  8
Layer_1
 62
7
100
AcDbSpline
 70
8
 71
3
 72
8
 73
4
 74
0
 40
0
 40
0
 40
0
 40
0
 40
1
 40
1
 40
1
 40
1
 10
378.422664
 20
274.273404
 30
0.0
 10
375.102664
 20
277.763516
 30
0.0
 10
374.429224
 20
278.063004
 30
0.0
 10
370.119464
 20
277.965908
 30
0.0
  0
SPLINE
  5
155
100
AcDbEntity
  8
Layer_1
 62
7
100
AcDbSpline
 70
8
 71
3
 72
8
 73
4
 74
0
 40
0
 40
0
 40
0
 40
0
 40
1
 40
1
 40
1
 40
1
 10
370.119464
 20
277.965908
 30
0.0
 10
352.703944
 20
277.573540
 30
0.0
 10
352.094664
 20
295.068516
 30
0.0
 10
368.558824
 20
322.775228
 30
0.0
  0
SPLINE
  5
156
100
AcDbEntity
  8
Layer_1
 62
7
100
AcDbSpline
 70
8
 71
3
 72
8
 73
4
 74
0
 40
0
 40
0
 40
0
 40
0
 40
1
 40
1
 40
1
 40
1
 10
368.558824
 20
322.775228
 30
0.0
 10
374.455304
 20
332.698044
 30
0.0
 10
386.320504
 20
344.804492
 30
0.0
 10
393.585224
 20
348.310388
 30
0.0
  0
SPLINE
  5
157
100
AcDbEntity
  8
Layer_1
 62
7
100
AcDbSpline
 70
8
 71
3
 72
8
 73
4
 74
0
 40
0
 40
0
 40
0
 40
0
 40
1
 40
1
 40
1
 40
1
 10
393.585224
 20
348.310388
 30
0.0
 10
398.731864
 20
350.794124
 30
0.0
 10
399.123864
 20
350.848420
 30
0.0
 10
401.354824
 20
349.386644
 30
0.0
  0
SPLINE
  5
158
100
AcDbEntity
  8
Layer_1
 62
7
100
AcDbSpline
 70
8
 71
3
 72
8
 73
4
 74
0
 40
0
 40
0
 40
0
 40
0
 40
1
 40
1
 40
1
 40
1
 10
401.354824
 20
349.386644
 30
0.0
 10
404.869224
 20
347.083916
 30
0.0
 10
410.285464
 20
339.795524
 30
0.0
 10
414.961704
 20
331.076524
 30
0.0
  0
SPLINE
  5
159
100
AcDbEntity
  8
Layer_1
 62
7
100
AcDbSpline
 70
8
 71
3
 72
8
 73
4
 74
0
 40
0
 40
0
 40
0
 40
0
 40
1
 40
1
 40
1
 40
1
 10
414.961704
 20
331.076524
 30
0.0
 10
419.531704
 20
322.555588
 30
0.0
 10
425.714424
 20
316.086556
 30
0.0
 10
430.132744
 20
315.202884
 30
0.0
  0
SPLINE
  5
15a
100
AcDbEntity
  8
Layer_1
 62
7
100
AcDbSpline
 70
8
 71
3
 72
8
 73
4
 74
0
 40
0
 40
0
 40
0
 40
0
 40
1
 40
1
 40
1
 40
1
 10
430.132744
 20
315.202884
 30
0.0
 10
431.685544
 20
314.892340
 30
0.0
 10
432.955944
 20
314.480116
 30
0.0
 10
432.955944
 20
314.286820
 30
0.0
  0
SPLINE
  5
15b
100
AcDbEntity
  8
Layer_1
 62
7
100
AcDbSpline
 70
8
 71
3
 72
8
 73
4
 74
0
 40
0
 40
0
 40
0
 40
0
 40
1
 40
1
 40
1
 40
1
 10
432.955944
 20
314.286820
 30
0.0
 10
432.955944
 20
314.093540
 30
0.0
 10
431.508664
 20
311.918828
 30
0.0
 10
429.739704
 20
309.454132
 30
0.0
  0
SPLINE
  5
15c
100
AcDbEntity
  8
Layer_1
 62
7
100
AcDbSpline
 70
8
 71
3
 72
8
 73
4
 74
0
 40
0
 40
0
 40
0
 40
0
 40
1
 40
1
 40
1
 40
1
 10
429.739704
 20
309.454132
 30
0.0
 10
424.192904
 20
301.725484
 30
0.0
 10
423.187464
 20
298.053804
 30
0.0
 10
423.912584
 20
288.175108
 30
0.0
  0
SPLINE
  5
15d
100
AcDbEntity
  8
Layer_1
 62
7
100
AcDbSpline
 70
8
 71
3
 72
8
 73
4
 74
0
 40
0
 40
0
 40
0
 40
0
 40
1
 40
1
 40
1
 40
1
 10
423.912584
 20
288.175108
 30
0.0
 10
424.638904
 20
278.280260
 30
0.0
 10
423.436584
 20
270.883212
 30
0.0
 10
420.608664
 20
267.847780
 30
0.0
  0
SPLINE
  5
15e
100
AcDbEntity
  8
Layer_1
 62
7
100
AcDbSpline
 70
8
 71
3
 72
8
 73
4
 74
0
 40
0
 40
0
 40
0
 40
0
 40
1
 40
1
 40
1
 40
1
 10
420.608664
 20
267.847780
 30
0.0
 10
417.880264
 20
264.919156
 30
0.0
 10
415.982584
 20
265.271324
 30
0.0
 10
415.982584
 20
268.706284
 30
0.0
  0
LWPOLYLINE
  5
15f
100
AcDbEntity
  8
Layer_1
 62
7
100
AcDbPolyline
 90
3
 70
1
 10
382.035784
 20
274.333628
 30
0.0
 10
382.035784
 20
270.475236
 30
0.0
 10
378.422664
 20
274.273404
 30
0.0
  0
SPLINE
  5
160
100
AcDbEntity
  8
Layer_1
 62
7
100
AcDbSpline
 70
8
 71
3
 72
8
 73
4
 74
0
 40
0
 40
0
 40
0
 40
0
 40
1
 40
1
 40
1
 40
1
 10
321.576504
 20
293.167404
 30
0.0
 10
307.238104
 20
298.563380
 30
0.0
 10
297.272584
 20
298.911668
 30
0.0
 10
295.736024
 20
294.070516
 30
0.0
  0
SPLINE
  5
161
100
AcDbEntity
  8
Layer_1
 62
7
100
AcDbSpline
 70
8
 71
3
 72
8
 73
4
 74
0
 40
0
 40
0
 40
0
 40
0
 40
1
 40
1
 40
1
 40
1
 10
295.736024
 20
294.070516
 30
0.0
 10
293.755704
 20
287.830940
 30
0.0
 10
290.562344
 20
299.361812
 30
0.0
 10
292.390504
 20
306.151036
 30
0.0
  0
SPLINE
  5
162
100
AcDbEntity
  8
Layer_1
 62
7
100
AcDbSpline
 70
8
 71
3
 72
8
 73
4
 74
0
 40
0
 40
0
 40
0
 40
0
 40
1
 40
1
 40
1
 40
1
 10
292.390504
 20
306.151036
 30
0.0
 10
294.346424
 20
313.414596
 30
0.0
 10
303.581384
 20
318.627812
 30
0.0
 10
314.549224
 20
318.659796
 30
0.0
  0
SPLINE
  5
163
100
AcDbEntity
  8
Layer_1
 62
7
100
AcDbSpline
 70
8
 71
3
 72
8
 73
4
 74
0
 40
0
 40
0
 40
0
 40
0
 40
1
 40
1
 40
1
 40
1
 10
314.549224
 20
318.659796
 30
0.0
 10
330.770664
 20
318.707156
 30
0.0
 10
345.799704
 20
327.375236
 30
0.0
 10
353.483784
 20
341.115524
 30
0.0
  0
SPLINE
  5
164
100
AcDbEntity
  8
Layer_1
 62
7
100
AcDbSpline
 70
8
 71
3
 72
8
 73
4
 74
0
 40
0
 40
0
 40
0
 40
0
 40
1
 40
1
 40
1
 40
1
 10
353.483784
 20
341.115524
 30
0.0
 10
358.109944
 20
349.387892
 30
0.0
 10
366.878584
 20
358.559156
 30
0.0
 10
373.047224
 20
361.577172
 30
0.0
  0
SPLINE
  5
165
100
AcDbEntity
  8
Layer_1
 62
7
100
AcDbSpline
 70
8
 71
3
 72
8
 73
4
 74
0
 40
0
 40
0
 40
0
 40
0
 40
1
 40
1
 40
1
 40
1
 10
373.047224
 20
361.577172
 30
0.0
 10
375.795224
 20
362.921660
 30
0.0
 10
380.320984
 20
364.243476
 30
0.0
 10
383.104344
 20
364.514532
 30
0.0
  0
LWPOLYLINE
  5
166
100
AcDbEntity
  8
Layer_1
 62
7
100
AcDbPolyline
 90
2
 70
1
 10
415.982584
 20
268.706284
 30
0.0
 10
415.982584
 20
268.706284
 30
0.0
  0
SPLINE
  5
167
100
AcDbEntity
  8
Layer_1
 62
7
100
AcDbSpline
 70
8
 71
3
 72
8
 73
4
 74
0
 40
0
 40
0
 40
0
 40
0
 40
1
 40
1
 40
1
 40
1
 10
391.768664
 20
360.076060
 30
0.0
 10
394.538344
 20
356.285948
 30
0.0
 10
395.083944
 20
354.961892
 30
0.0
 10
394.126104
 20
354.354588
 30
0.0
  0
SPLINE
  5
168
100
AcDbEntity
  8
Layer_1
 62
7
100
AcDbSpline
 70
8
 71
3
 72
8
 73
4
 74
0
 40
0
 40
0
 40
0
 40
0
 40
1
 40
1
 40
1
 40
1
 10
394.126104
 20
354.354588
 30
0.0
 10
393.440664
 20
353.920004
 30
0.0
 10
392.416024
 20
353.557940
 30
0.0
 10
391.849064
 20
353.549996
 30
0.0
  0
SPLINE
  5
169
100
AcDbEntity
  8
Layer_1
 62
7
100
AcDbSpline
 70
8
 71
3
 72
8
 73
4
 74
0
 40
0
 40
0
 40
0
 40
0
 40
1
 40
1
 40
1
 40
1
 10
391.849064
 20
353.549996
 30
0.0
 10
389.423624
 20
353.516076
 30
0.0
 10
377.038264
 20
343.655508
 30
0.0
 10
372.600264
 20
338.225132
 30
0.0
  0
SPLINE
  5
16a
100
AcDbEntity
  8
Layer_1
 62
7
100
AcDbSpline
 70
8
 71
3
 72
8
 73
4
 74
0
 40
0
 40
0
 40
0
 40
0
 40
1
 40
1
 40
1
 40
1
 10
372.600264
 20
338.225132
 30
0.0
 10
369.733944
 20
334.717884
 30
0.0
 10
365.052744
 20
326.765100
 30
0.0
 10
361.075544
 20
318.645860
 30
0.0
  0
SPLINE
  5
16b
100
AcDbEntity
  8
Layer_1
 62
7
100
AcDbSpline
 70
8
 71
3
 72
8
 73
4
 74
0
 40
0
 40
0
 40
0
 40
0
 40
1
 40
1
 40
1
 40
1
 10
361.075544
 20
318.645860
 30
0.0
 10
355.312344
 20
306.880628
 30
0.0
 10
353.511464
 20
304.111428
 30
0.0
 10
348.168824
 20
298.798924
 30
0.0
  0
SPLINE
  5
16c
100
AcDbEntity
  8
Layer_1
 62
7
100
AcDbSpline
 70
8
 71
3
 72
8
 73
4
 74
0
 40
0
 40
0
 40
0
 40
0
 40
1
 40
1
 40
1
 40
1
 10
348.168824
 20
298.798924
 30
0.0
 10
338.944664
 20
289.626844
 30
0.0
 10
333.850904
 20
288.548140
 30
0.0
 10
321.576504
 20
293.167404
 30
0.0
  0
LWPOLYLINE
  5
16d
100
AcDbEntity
  8
Layer_1
 62
7
100
AcDbPolyline
 90
3
 70
1
 10
383.104344
 20
364.514532
 30
0.0
 10
388.165064
 20
365.007372
 30
0.0
 10
391.768664
 20
360.076060
 30
0.0
  0
SPLINE
  5
16e
100
AcDbEntity
  8
Layer_1
 62
7
100
AcDbSpline
 70
8
 71
3
 72
8
 73
4
 74
0
 40
0
 40
0
 40
0
 40
0
 40
1
 40
1
 40
1
 40
1
 10
178.899864
 20
302.164876
 30
0.0
 10
176.914904
 20
305.194332
 30
0.0
 10
171.984504
 20
308.265060
 30
0.0
 10
169.097944
 20
308.269716
 30
0.0
  0
SPLINE
  5
16f
100
AcDbEntity
  8
Layer_1
 62
7
100
AcDbSpline
 70
8
 71
3
 72
8
 73
4
 74
0
 40
0
 40
0
 40
0
 40
0
 40
1
 40
1
 40
1
 40
1
 10
169.097944
 20
308.269716
 30
0.0
 10
167.273384
 20
308.272916
 30
0.0
 10
167.017224
 20
308.623444
 30
0.0
 10
167.545624
 20
310.394916
 30
0.0
  0
SPLINE
  5
170
100
AcDbEntity
  8
Layer_1
 62
7
100
AcDbSpline
 70
8
 71
3
 72
8
 73
4
 74
0
 40
0
 40
0
 40
0
 40
0
 40
1
 40
1
 40
1
 40
1
 10
167.545624
 20
310.394916
 30
0.0
 10
168.437304
 20
313.383908
 30
0.0
 10
172.005064
 20
319.422180
 30
0.0
 10
175.387224
 20
323.666628
 30
0.0
  0
SPLINE
  5
171
100
AcDbEntity
  8
Layer_1
 62
7
100
AcDbSpline
 70
8
 71
3
 72
8
 73
4
 74
0
 40
0
 40
0
 40
0
 40
0
 40
1
 40
1
 40
1
 40
1
 10
175.387224
 20
323.666628
 30
0.0
 10
180.805544
 20
330.466396
 30
0.0
 10
180.589944
 20
339.966132
 30
0.0
 10
174.663624
 20
355.545508
 30
0.0
  0
SPLINE
  5
172
100
AcDbEntity
  8
Layer_1
 62
7
100
AcDbSpline
 70
8
 71
3
 72
8
 73
4
 74
0
 40
0
 40
0
 40
0
 40
0
 40
1
 40
1
 40
1
 40
1
 10
174.663624
 20
355.545508
 30
0.0
 10
169.407784
 20
369.362244
 30
0.0
 10
167.666504
 20
380.146012
 30
0.0
 10
168.212584
 20
395.497500
 30
0.0
  0
SPLINE
  5
173
100
AcDbEntity
  8
Layer_1
 62
7
100
AcDbSpline
 70
8
 71
3
 72
8
 73
4
 74
0
 40
0
 40
0
 40
0
 40
0
 40
1
 40
1
 40
1
 40
1
 10
168.212584
 20
395.497500
 30
0.0
 10
168.618104
 20
406.898428
 30
0.0
 10
171.935224
 20
425.310252
 30
0.0
 10
173.553544
 20
425.143284
 30
0.0
  0
SPLINE
  5
174
100
AcDbEntity
  8
Layer_1
 62
7
100
AcDbSpline
 70
8
 71
3
 72
8
 73
4
 74
0
 40
0
 40
0
 40
0
 40
0
 40
1
 40
1
 40
1
 40
1
 10
173.553544
 20
425.143284
 30
0.0
 10
173.860744
 20
425.111604
 30
0.0
 10
175.391064
 20
423.324124
 30
0.0
 10
176.954264
 20
421.171132
 30
0.0
  0
SPLINE
  5
175
100
AcDbEntity
  8
Layer_1
 62
7
100
AcDbSpline
 70
8
 71
3
 72
8
 73
4
 74
0
 40
0
 40
0
 40
0
 40
0
 40
1
 40
1
 40
1
 40
1
 10
176.954264
 20
421.171132
 30
0.0
 10
181.783784
 20
414.519596
 30
0.0
 10
186.818664
 20
411.644156
 30
0.0
 10
194.384504
 20
411.216652
 30
0.0
  0
SPLINE
  5
176
100
AcDbEntity
  8
Layer_1
 62
7
100
AcDbSpline
 70
8
 71
3
 72
8
 73
4
 74
0
 40
0
 40
0
 40
0
 40
0
 40
1
 40
1
 40
1
 40
1
 10
194.384504
 20
411.216652
 30
0.0
 10
199.983304
 20
410.900292
 30
0.0
 10
201.493544
 20
411.178572
 30
0.0
 10
205.091464
 20
413.189452
 30
0.0
  0
LWPOLYLINE
  5
177
100
AcDbEntity
  8
Layer_1
 62
7
100
AcDbPolyline
 90
2
 70
1
 10
321.576504
 20
293.167404
 30
0.0
 10
321.576504
 20
293.167404
 30
0.0
  0
SPLINE
  5
178
100
AcDbEntity
  8
Layer_1
 62
7
100
AcDbSpline
 70
8
 71
3
 72
8
 73
4
 74
0
 40
0
 40
0
 40
0
 40
0
 40
1
 40
1
 40
1
 40
1
 10
210.424264
 20
413.057764
 30
0.0
 10
213.601704
 20
406.190140
 30
0.0
 10
212.470904
 20
386.669172
 30
0.0
 10
207.516104
 20
362.853908
 30
0.0
  0
SPLINE
  5
179
100
AcDbEntity
  8
Layer_1
 62
7
100
AcDbSpline
 70
8
 71
3
 72
8
 73
4
 74
0
 40
0
 40
0
 40
0
 40
0
 40
1
 40
1
 40
1
 40
1
 10
207.516104
 20
362.853908
 30
0.0
 10
201.001224
 20
331.540436
 30
0.0
 10
200.831464
 20
328.096460
 30
0.0
 10
205.468264
 20
321.319220
 30
0.0
  0
SPLINE
  5
17a
100
AcDbEntity
  8
Layer_1
 62
7
100
AcDbSpline
 70
8
 71
3
 72
8
 73
4
 74
0
 40
0
 40
0
 40
0
 40
0
 40
1
 40
1
 40
1
 40
1
 10
205.468264
 20
321.319220
 30
0.0
 10
207.006504
 20
319.070924
 30
0.0
 10
208.961464
 20
315.872892
 30
0.0
 10
209.812664
 20
314.212484
 30
0.0
  0
LWPOLYLINE
  5
17b
100
AcDbEntity
  8
Layer_1
 62
7
100
AcDbPolyline
 90
3
 70
1
 10
205.091464
 20
413.189452
 30
0.0
 10
209.280184
 20
415.530572
 30
0.0
 10
210.424264
 20
413.057764
 30
0.0
  0
SPLINE
  5
17c
100
AcDbEntity
  8
Layer_1
 62
7
100
AcDbSpline
 70
8
 71
3
 72
8
 73
4
 74
0
 40
0
 40
0
 40
0
 40
0
 40
1
 40
1
 40
1
 40
1
 10
207.250184
 20
308.365676
 30
0.0
 10
204.989544
 20
306.810340
 30
0.0
 10
202.599464
 20
304.232940
 30
0.0
 10
201.938904
 20
302.638116
 30
0.0
  0
SPLINE
  5
17d
100
AcDbEntity
  8
Layer_1
 62
7
100
AcDbSpline
 70
8
 71
3
 72
8
 73
4
 74
0
 40
0
 40
0
 40
0
 40
0
 40
1
 40
1
 40
1
 40
1
 10
201.938904
 20
302.638116
 30
0.0
 10
200.944984
 20
300.238588
 30
0.0
 10
200.393304
 20
299.864564
 30
0.0
 10
198.740504
 20
300.469708
 30
0.0
  0
SPLINE
  5
17e
100
AcDbEntity
  8
Layer_1
 62
7
100
AcDbSpline
 70
8
 71
3
 72
8
 73
4
 74
0
 40
0
 40
0
 40
0
 40
0
 40
1
 40
1
 40
1
 40
1
 10
198.740504
 20
300.469708
 30
0.0
 10
196.155944
 20
301.416028
 30
0.0
 10
185.071864
 20
301.416004
 30
0.0
 10
182.487224
 20
300.469668
 30
0.0
  0
SPLINE
  5
17f
100
AcDbEntity
  8
Layer_1
 62
7
100
AcDbSpline
 70
8
 71
3
 72
8
 73
4
 74
0
 40
0
 40
0
 40
0
 40
0
 40
1
 40
1
 40
1
 40
1
 10
182.487224
 20
300.469668
 30
0.0
 10
180.927784
 20
299.898684
 30
0.0
 10
180.141224
 20
300.270372
 30
0.0
 10
178.899864
 20
302.164876
 30
0.0
  0
LWPOLYLINE
  5
180
100
AcDbEntity
  8
Layer_1
 62
7
100
AcDbPolyline
 90
3
 70
1
 10
209.812664
 20
314.212484
 30
0.0
 10
211.360344
 20
311.193540
 30
0.0
 10
207.250184
 20
308.365676
 30
0.0
  0
SPLINE
  5
181
100
AcDbEntity
  8
Layer_1
 62
7
100
AcDbSpline
 70
8
 71
3
 72
8
 73
4
 74
0
 40
0
 40
0
 40
0
 40
0
 40
1
 40
1
 40
1
 40
1
 10
281.429144
 20
309.451948
 30
0.0
 10
273.341144
 20
317.974652
 30
0.0
 10
273.628504
 20
326.359140
 30
0.0
 10
282.242824
 20
333.196908
 30
0.0
  0
SPLINE
  5
182
100
AcDbEntity
  8
Layer_1
 62
7
100
AcDbSpline
 70
8
 71
3
 72
8
 73
4
 74
0
 40
0
 40
0
 40
0
 40
0
 40
1
 40
1
 40
1
 40
1
 10
282.242824
 20
333.196908
 30
0.0
 10
283.969304
 20
334.567332
 30
0.0
 10
288.714664
 20
337.133140
 30
0.0
 10
292.788104
 20
338.898700
 30
0.0
  0
SPLINE
  5
183
100
AcDbEntity
  8
Layer_1
 62
7
100
AcDbSpline
 70
8
 71
3
 72
8
 73
4
 74
0
 40
0
 40
0
 40
0
 40
0
 40
1
 40
1
 40
1
 40
1
 10
292.788104
 20
338.898700
 30
0.0
 10
304.392344
 20
343.928404
 30
0.0
 10
310.177864
 20
347.761692
 30
0.0
 10
318.437544
 20
355.892972
 30
0.0
  0
SPLINE
  5
184
100
AcDbEntity
  8
Layer_1
 62
7
100
AcDbSpline
 70
8
 71
3
 72
8
 73
4
 74
0
 40
0
 40
0
 40
0
 40
0
 40
1
 40
1
 40
1
 40
1
 10
318.437544
 20
355.892972
 30
0.0
 10
325.491704
 20
362.837516
 30
0.0
 10
326.633304
 20
364.523268
 30
0.0
 10
332.809864
 20
377.116804
 30
0.0
  0
SPLINE
  5
185
100
AcDbEntity
  8
Layer_1
 62
7
100
AcDbSpline
 70
8
 71
3
 72
8
 73
4
 74
0
 40
0
 40
0
 40
0
 40
0
 40
1
 40
1
 40
1
 40
1
 10
332.809864
 20
377.116804
 30
0.0
 10
342.904184
 20
397.698276
 30
0.0
 10
352.416904
 20
411.219548
 30
0.0
 10
362.233544
 20
418.939252
 30
0.0
  0
LWPOLYLINE
  5
186
100
AcDbEntity
  8
Layer_1
 62
7
100
AcDbPolyline
 90
2
 70
1
 10
178.899864
 20
302.164876
 30
0.0
 10
178.899864
 20
302.164876
 30
0.0
  0
SPLINE
  5
187
100
AcDbEntity
  8
Layer_1
 62
7
100
AcDbSpline
 70
8
 71
3
 72
8
 73
4
 74
0
 40
0
 40
0
 40
0
 40
0
 40
1
 40
1
 40
1
 40
1
 10
361.762104
 20
420.017860
 30
0.0
 10
346.738184
 20
413.976332
 30
0.0
 10
335.638904
 20
401.690500
 30
0.0
 10
324.701624
 20
378.995612
 30
0.0
  0
SPLINE
  5
188
100
AcDbEntity
  8
Layer_1
 62
7
100
AcDbSpline
 70
8
 71
3
 72
8
 73
4
 74
0
 40
0
 40
0
 40
0
 40
0
 40
1
 40
1
 40
1
 40
1
 10
324.701624
 20
378.995612
 30
0.0
 10
316.904424
 20
362.816324
 30
0.0
 10
306.269304
 20
351.707196
 30
0.0
 10
291.533144
 20
344.348756
 30
0.0
  0
SPLINE
  5
189
100
AcDbEntity
  8
Layer_1
 62
7
100
AcDbSpline
 70
8
 71
3
 72
8
 73
4
 74
0
 40
0
 40
0
 40
0
 40
0
 40
1
 40
1
 40
1
 40
1
 10
291.533144
 20
344.348756
 30
0.0
 10
285.103144
 20
341.137980
 30
0.0
 10
283.600824
 20
340.774932
 30
0.0
 10
275.487624
 20
340.471348
 30
0.0
  0
SPLINE
  5
18a
100
AcDbEntity
  8
Layer_1
 62
7
100
AcDbSpline
 70
8
 71
3
 72
8
 73
4
 74
0
 40
0
 40
0
 40
0
 40
0
 40
1
 40
1
 40
1
 40
1
 10
275.487624
 20
340.471348
 30
0.0
 10
258.951304
 20
339.852580
 30
0.0
 10
246.812264
 20
344.456412
 30
0.0
 10
236.731384
 20
355.169868
 30
0.0
  0
SPLINE
  5
18b
100
AcDbEntity
  8
Layer_1
 62
7
100
AcDbSpline
 70
8
 71
3
 72
8
 73
4
 74
0
 40
0
 40
0
 40
0
 40
0
 40
1
 40
1
 40
1
 40
1
 10
236.731384
 20
355.169868
 30
0.0
 10
226.057144
 20
366.513868
 30
0.0
 10
221.632824
 20
378.750572
 30
0.0
 10
219.827944
 20
401.920524
 30
0.0
  0
SPLINE
  5
18c
100
AcDbEntity
  8
Layer_1
 62
7
100
AcDbSpline
 70
8
 71
3
 72
8
 73
4
 74
0
 40
0
 40
0
 40
0
 40
0
 40
1
 40
1
 40
1
 40
1
 10
219.827944
 20
401.920524
 30
0.0
 10
218.171384
 20
423.186508
 30
0.0
 10
220.873464
 20
445.098684
 30
0.0
 10
226.806984
 20
458.515388
 30
0.0
  0
LWPOLYLINE
  5
18d
100
AcDbEntity
  8
Layer_1
 62
7
100
AcDbPolyline
 90
3
 70
1
 10
362.233544
 20
418.939252
 30
0.0
 10
365.533944
 20
421.534628
 30
0.0
 10
361.762104
 20
420.017860
 30
0.0
  0
SPLINE
  5
18e
100
AcDbEntity
  8
Layer_1
 62
7
100
AcDbSpline
 70
8
 71
3
 72
8
 73
4
 74
0
 40
0
 40
0
 40
0
 40
0
 40
1
 40
1
 40
1
 40
1
 10
234.825464
 20
458.161572
 30
0.0
 10
248.882504
 20
444.104580
 30
0.0
 10
267.103304
 20
442.164956
 30
0.0
 10
287.065464
 20
452.600572
 30
0.0
  0
SPLINE
  5
18f
100
AcDbEntity
  8
Layer_1
 62
7
100
AcDbSpline
 70
8
 71
3
 72
8
 73
4
 74
0
 40
0
 40
0
 40
0
 40
0
 40
1
 40
1
 40
1
 40
1
 10
287.065464
 20
452.600572
 30
0.0
 10
319.375944
 20
469.491524
 30
0.0
 10
327.594344
 20
472.454332
 30
0.0
 10
342.431304
 20
472.560404
 30
0.0
  0
SPLINE
  5
190
100
AcDbEntity
  8
Layer_1
 62
7
100
AcDbSpline
 70
8
 71
3
 72
8
 73
4
 74
0
 40
0
 40
0
 40
0
 40
0
 40
1
 40
1
 40
1
 40
1
 10
342.431304
 20
472.560404
 30
0.0
 10
349.082584
 20
472.607924
 30
0.0
 10
352.795864
 20
472.137620
 30
0.0
 10
356.850904
 20
470.733932
 30
0.0
  0
LWPOLYLINE
  5
191
100
AcDbEntity
  8
Layer_1
 62
7
100
AcDbPolyline
 90
3
 70
1
 10
226.806984
 20
458.515388
 30
0.0
 10
229.157304
 20
463.829804
 30
0.0
 10
234.825464
 20
458.161572
 30
0.0
  0
SPLINE
  5
192
100
AcDbEntity
  8
Layer_1
 62
7
100
AcDbSpline
 70
8
 71
3
 72
8
 73
4
 74
0
 40
0
 40
0
 40
0
 40
0
 40
1
 40
1
 40
1
 40
1
 10
360.171064
 20
471.122644
 30
0.0
 10
358.993384
 20
472.376228
 30
0.0
 10
355.474904
 20
474.620180
 30
0.0
 10
352.352184
 20
476.109204
 30
0.0
  0
SPLINE
  5
193
100
AcDbEntity
  8
Layer_1
 62
7
100
AcDbSpline
 70
8
 71
3
 72
8
 73
4
 74
0
 40
0
 40
0
 40
0
 40
0
 40
1
 40
1
 40
1
 40
1
 10
352.352184
 20
476.109204
 30
0.0
 10
335.852264
 20
483.977076
 30
0.0
 10
317.680184
 20
481.297380
 30
0.0
 10
294.467864
 20
467.573460
 30
0.0
  0
SPLINE
  5
194
100
AcDbEntity
  8
Layer_1
 62
7
100
AcDbSpline
 70
8
 71
3
 72
8
 73
4
 74
0
 40
0
 40
0
 40
0
 40
0
 40
1
 40
1
 40
1
 40
1
 10
294.467864
 20
467.573460
 30
0.0
 10
281.566744
 20
459.945884
 30
0.0
 10
274.050264
 20
457.180612
 30
0.0
 10
264.545784
 20
456.565260
 30
0.0
  0
SPLINE
  5
195
100
AcDbEntity
  8
Layer_1
 62
7
100
AcDbSpline
 70
8
 71
3
 72
8
 73
4
 74
0
 40
0
 40
0
 40
0
 40
0
 40
1
 40
1
 40
1
 40
1
 10
264.545784
 20
456.565260
 30
0.0
 10
254.980344
 20
455.945964
 30
0.0
 10
249.068024
 20
457.729884
 30
0.0
 10
243.008504
 20
463.063644
 30
0.0
  0
SPLINE
  5
196
100
AcDbEntity
  8
Layer_1
 62
7
100
AcDbSpline
 70
8
 71
3
 72
8
 73
4
 74
0
 40
0
 40
0
 40
0
 40
0
 40
1
 40
1
 40
1
 40
1
 10
243.008504
 20
463.063644
 30
0.0
 10
233.832984
 20
471.140260
 30
0.0
 10
229.684824
 20
483.699460
 30
0.0
 10
230.461784
 20
501.050852
 30
0.0
  0
SPLINE
  5
197
100
AcDbEntity
  8
Layer_1
 62
7
100
AcDbSpline
 70
8
 71
3
 72
8
 73
4
 74
0
 40
0
 40
0
 40
0
 40
0
 40
1
 40
1
 40
1
 40
1
 10
230.461784
 20
501.050852
 30
0.0
 10
231.046744
 20
514.114684
 30
0.0
 10
233.380504
 20
521.732668
 30
0.0
 10
239.685864
 20
531.159892
 30
0.0
  0
SPLINE
  5
198
100
AcDbEntity
  8
Layer_1
 62
7
100
AcDbSpline
 70
8
 71
3
 72
8
 73
4
 74
0
 40
0
 40
0
 40
0
 40
0
 40
1
 40
1
 40
1
 40
1
 10
239.685864
 20
531.159892
 30
0.0
 10
244.291304
 20
538.045580
 30
0.0
 10
252.322744
 20
546.253708
 30
0.0
 10
257.378664
 20
549.241788
 30
0.0
  0
SPLINE
  5
199
100
AcDbEntity
  8
Layer_1
 62
7
100
AcDbSpline
 70
8
 71
3
 72
8
 73
4
 74
0
 40
0
 40
0
 40
0
 40
0
 40
1
 40
1
 40
1
 40
1
 10
257.378664
 20
549.241788
 30
0.0
 10
259.804264
 20
550.675348
 30
0.0
 10
259.923944
 20
551.101612
 30
0.0
 10
259.966824
 20
558.459500
 30
0.0
  0
SPLINE
  5
19a
100
AcDbEntity
  8
Layer_1
 62
7
100
AcDbSpline
 70
8
 71
3
 72
8
 73
4
 74
0
 40
0
 40
0
 40
0
 40
0
 40
1
 40
1
 40
1
 40
1
 10
259.966824
 20
558.459500
 30
0.0
 10
260.066664
 20
575.609932
 30
0.0
 10
268.262744
 20
588.416956
 30
0.0
 10
284.326184
 20
596.522956
 30
0.0
  0
SPLINE
  5
19b
100
AcDbEntity
  8
Layer_1
 62
7
100
AcDbSpline
 70
8
 71
3
 72
8
 73
4
 74
0
 40
0
 40
0
 40
0
 40
0
 40
1
 40
1
 40
1
 40
1
 10
284.326184
 20
596.522956
 30
0.0
 10
287.894504
 20
598.323660
 30
0.0
 10
291.868904
 20
601.050468
 30
0.0
 10
293.158024
 20
602.582540
 30
0.0
  0
SPLINE
  5
19c
100
AcDbEntity
  8
Layer_1
 62
7
100
AcDbSpline
 70
8
 71
3
 72
8
 73
4
 74
0
 40
0
 40
0
 40
0
 40
0
 40
1
 40
1
 40
1
 40
1
 10
293.158024
 20
602.582540
 30
0.0
 10
296.966584
 20
607.108692
 30
0.0
 10
307.149384
 20
613.843348
 30
0.0
 10
314.500344
 20
616.697724
 30
0.0
  0
SPLINE
  5
19d
100
AcDbEntity
  8
Layer_1
 62
7
100
AcDbSpline
 70
8
 71
3
 72
8
 73
4
 74
0
 40
0
 40
0
 40
0
 40
0
 40
1
 40
1
 40
1
 40
1
 10
314.500344
 20
616.697724
 30
0.0
 10
329.579624
 20
622.553028
 30
0.0
 10
349.918584
 20
622.112956
 30
0.0
 10
367.594024
 20
615.548932
 30
0.0
  0
SPLINE
  5
19e
100
AcDbEntity
  8
Layer_1
 62
7
100
AcDbSpline
 70
8
 71
3
 72
8
 73
4
 74
0
 40
0
 40
0
 40
0
 40
0
 40
1
 40
1
 40
1
 40
1
 10
367.594024
 20
615.548932
 30
0.0
 10
379.061304
 20
611.290380
 30
0.0
 10
388.739464
 20
602.966892
 30
0.0
 10
391.926184
 20
594.622516
 30
0.0
  0
SPLINE
  5
19f
100
AcDbEntity
  8
Layer_1
 62
7
100
AcDbSpline
 70
8
 71
3
 72
8
 73
4
 74
0
 40
0
 40
0
 40
0
 40
0
 40
1
 40
1
 40
1
 40
1
 10
391.926184
 20
594.622516
 30
0.0
 10
392.859784
 20
592.177876
 30
0.0
 10
393.378344
 20
589.932412
 30
0.0
 10
393.078584
 20
589.632596
 30
0.0
  0
SPLINE
  5
1a0
100
AcDbEntity
  8
Layer_1
 62
7
100
AcDbSpline
 70
8
 71
3
 72
8
 73
4
 74
0
 40
0
 40
0
 40
0
 40
0
 40
1
 40
1
 40
1
 40
1
 10
393.078584
 20
589.632596
 30
0.0
 10
392.778744
 20
589.332780
 30
0.0
 10
390.914024
 20
590.382580
 30
0.0
 10
388.934824
 20
591.965492
 30
0.0
  0
SPLINE
  5
1a1
100
AcDbEntity
  8
Layer_1
 62
7
100
AcDbSpline
 70
8
 71
3
 72
8
 73
4
 74
0
 40
0
 40
0
 40
0
 40
0
 40
1
 40
1
 40
1
 40
1
 10
388.934824
 20
591.965492
 30
0.0
 10
376.122824
 20
602.211964
 30
0.0
 10
358.326424
 20
603.363636
 30
0.0
 10
342.686664
 20
594.958388
 30
0.0
  0
LWPOLYLINE
  5
1a2
100
AcDbEntity
  8
Layer_1
 62
7
100
AcDbPolyline
 90
3
 70
1
 10
356.850904
 20
470.733932
 30
0.0
 10
362.312264
 20
468.843404
 30
0.0
 10
360.171064
 20
471.122644
 30
0.0
  0
SPLINE
  5
1a3
100
AcDbEntity
  8
Layer_1
 62
7
100
AcDbSpline
 70
8
 71
3
 72
8
 73
4
 74
0
 40
0
 40
0
 40
0
 40
0
 40
1
 40
1
 40
1
 40
1
 10
340.163464
 20
596.416868
 30
0.0
 10
344.702584
 20
604.162316
 30
0.0
 10
341.651704
 20
607.657172
 30
0.0
 10
331.115704
 20
606.781108
 30
0.0
  0
SPLINE
  5
1a4
100
AcDbEntity
  8
Layer_1
 62
7
100
AcDbSpline
 70
8
 71
3
 72
8
 73
4
 74
0
 40
0
 40
0
 40
0
 40
0
 40
1
 40
1
 40
1
 40
1
 10
331.115704
 20
606.781108
 30
0.0
 10
317.214264
 20
605.625212
 30
0.0
 10
304.019944
 20
599.760164
 30
0.0
 10
298.765864
 20
592.401156
 30
0.0
  0
SPLINE
  5
1a5
100
AcDbEntity
  8
Layer_1
 62
7
100
AcDbSpline
 70
8
 71
3
 72
8
 73
4
 74
0
 40
0
 40
0
 40
0
 40
0
 40
1
 40
1
 40
1
 40
1
 10
298.765864
 20
592.401156
 30
0.0
 10
297.215544
 20
590.229820
 30
0.0
 10
294.134664
 20
587.151636
 30
0.0
 10
291.919384
 20
585.560748
 30
0.0
  0
SPLINE
  5
1a6
100
AcDbEntity
  8
Layer_1
 62
7
100
AcDbSpline
 70
8
 71
3
 72
8
 73
4
 74
0
 40
0
 40
0
 40
0
 40
0
 40
1
 40
1
 40
1
 40
1
 10
291.919384
 20
585.560748
 30
0.0
 10
282.066184
 20
578.484748
 30
0.0
 10
276.459144
 20
566.816180
 30
0.0
 10
276.434904
 20
553.337092
 30
0.0
  0
SPLINE
  5
1a7
100
AcDbEntity
  8
Layer_1
 62
7
100
AcDbSpline
 70
8
 71
3
 72
8
 73
4
 74
0
 40
0
 40
0
 40
0
 40
0
 40
1
 40
1
 40
1
 40
1
 10
276.434904
 20
553.337092
 30
0.0
 10
276.408504
 20
538.766756
 30
0.0
 10
280.022824
 20
530.089356
 30
0.0
 10
290.568184
 20
519.402572
 30
0.0
  0
SPLINE
  5
1a8
100
AcDbEntity
  8
Layer_1
 62
7
100
AcDbSpline
 70
8
 71
3
 72
8
 73
4
 74
0
 40
0
 40
0
 40
0
 40
0
 40
1
 40
1
 40
1
 40
1
 10
290.568184
 20
519.402572
 30
0.0
 10
302.408504
 20
507.403580
 30
0.0
 10
315.745624
 20
502.191716
 30
0.0
 10
334.416104
 20
502.267804
 30
0.0
  0
SPLINE
  5
1a9
100
AcDbEntity
  8
Layer_1
 62
7
100
AcDbSpline
 70
8
 71
3
 72
8
 73
4
 74
0
 40
0
 40
0
 40
0
 40
0
 40
1
 40
1
 40
1
 40
1
 10
334.416104
 20
502.267804
 30
0.0
 10
347.196344
 20
502.319884
 30
0.0
 10
360.056344
 20
504.856356
 30
0.0
 10
370.319704
 20
509.349364
 30
0.0
  0
SPLINE
  5
1aa
100
AcDbEntity
  8
Layer_1
 62
7
100
AcDbSpline
 70
8
 71
3
 72
8
 73
4
 74
0
 40
0
 40
0
 40
0
 40
0
 40
1
 40
1
 40
1
 40
1
 10
370.319704
 20
509.349364
 30
0.0
 10
380.563864
 20
513.833924
 30
0.0
 10
386.531224
 20
515.094660
 30
0.0
 10
395.092584
 20
514.583196
 30
0.0
  0
SPLINE
  5
1ab
100
AcDbEntity
  8
Layer_1
 62
7
100
AcDbSpline
 70
8
 71
3
 72
8
 73
4
 74
0
 40
0
 40
0
 40
0
 40
0
 40
1
 40
1
 40
1
 40
1
 10
395.092584
 20
514.583196
 30
0.0
 10
405.719304
 20
513.948340
 30
0.0
 10
412.781384
 20
509.464156
 30
0.0
 10
418.632744
 20
499.635972
 30
0.0
  0
SPLINE
  5
1ac
100
AcDbEntity
  8
Layer_1
 62
7
100
AcDbSpline
 70
8
 71
3
 72
8
 73
4
 74
0
 40
0
 40
0
 40
0
 40
0
 40
1
 40
1
 40
1
 40
1
 10
418.632744
 20
499.635972
 30
0.0
 10
419.732824
 20
497.788236
 30
0.0
 10
421.682744
 20
495.714588
 30
0.0
 10
422.965944
 20
495.027876
 30
0.0
  0
SPLINE
  5
1ad
100
AcDbEntity
  8
Layer_1
 62
7
100
AcDbSpline
 70
8
 71
3
 72
8
 73
4
 74
0
 40
0
 40
0
 40
0
 40
0
 40
1
 40
1
 40
1
 40
1
 10
422.965944
 20
495.027876
 30
0.0
 10
426.133224
 20
493.332780
 30
0.0
 10
433.008424
 20
494.217828
 30
0.0
 10
436.613224
 20
496.784684
 30
0.0
  0
SPLINE
  5
1ae
100
AcDbEntity
  8
Layer_1
 62
7
100
AcDbSpline
 70
8
 71
3
 72
8
 73
4
 74
0
 40
0
 40
0
 40
0
 40
0
 40
1
 40
1
 40
1
 40
1
 10
436.613224
 20
496.784684
 30
0.0
 10
439.196344
 20
498.623980
 30
0.0
 10
439.917304
 20
498.727756
 30
0.0
 10
443.468824
 20
497.771420
 30
0.0
  0
SPLINE
  5
1af
100
AcDbEntity
  8
Layer_1
 62
7
100
AcDbSpline
 70
8
 71
3
 72
8
 73
4
 74
0
 40
0
 40
0
 40
0
 40
0
 40
1
 40
1
 40
1
 40
1
 10
443.468824
 20
497.771420
 30
0.0
 10
448.532584
 20
496.407884
 30
0.0
 10
454.582904
 20
497.314692
 30
0.0
 10
458.582664
 20
500.036636
 30
0.0
  0
LWPOLYLINE
  5
1b0
100
AcDbEntity
  8
Layer_1
 62
7
100
AcDbPolyline
 90
3
 70
1
 10
342.686664
 20
594.958388
 30
0.0
 10
337.755704
 20
592.308348
 30
0.0
 10
340.163464
 20
596.416868
 30
0.0
  0
SPLINE
  5
1b1
100
AcDbEntity
  8
Layer_1
 62
7
100
AcDbSpline
 70
8
 71
3
 72
8
 73
4
 74
0
 40
0
 40
0
 40
0
 40
0
 40
1
 40
1
 40
1
 40
1
 10
466.500184
 20
499.996428
 30
0.0
 10
475.212344
 20
496.039356
 30
0.0
 10
482.955064
 20
495.445076
 30
0.0
 10
489.634824
 20
498.220780
 30
0.0
  0
SPLINE
  5
1b2
100
AcDbEntity
  8
Layer_1
 62
7
100
AcDbSpline
 70
8
 71
3
 72
8
 73
4
 74
0
 40
0
 40
0
 40
0
 40
0
 40
1
 40
1
 40
1
 40
1
 10
489.634824
 20
498.220780
 30
0.0
 10
491.745704
 20
499.097964
 30
0.0
 10
493.077384
 20
495.386324
 30
0.0
 10
494.180664
 20
485.550652
 30
0.0
  0
SPLINE
  5
1b3
100
AcDbEntity
  8
Layer_1
 62
7
100
AcDbSpline
 70
8
 71
3
 72
8
 73
4
 74
0
 40
0
 40
0
 40
0
 40
0
 40
1
 40
1
 40
1
 40
1
 10
494.180664
 20
485.550652
 30
0.0
 10
495.201704
 20
476.447772
 30
0.0
 10
496.820824
 20
471.324372
 30
0.0
 10
501.032344
 20
463.870428
 30
0.0
  0
SPLINE
  5
1b4
100
AcDbEntity
  8
Layer_1
 62
7
100
AcDbSpline
 70
8
 71
3
 72
8
 73
4
 74
0
 40
0
 40
0
 40
0
 40
0
 40
1
 40
1
 40
1
 40
1
 10
501.032344
 20
463.870428
 30
0.0
 10
503.645864
 20
459.244852
 30
0.0
 10
503.977144
 20
457.798596
 30
0.0
 10
504.058504
 20
450.660948
 30
0.0
  0
SPLINE
  5
1b5
100
AcDbEntity
  8
Layer_1
 62
7
100
AcDbSpline
 70
8
 71
3
 72
8
 73
4
 74
0
 40
0
 40
0
 40
0
 40
0
 40
1
 40
1
 40
1
 40
1
 10
504.058504
 20
450.660948
 30
0.0
 10
504.159624
 20
441.781252
 30
0.0
 10
502.417464
 20
437.262100
 30
0.0
 10
497.920104
 20
434.737780
 30
0.0
  0
SPLINE
  5
1b6
100
AcDbEntity
  8
Layer_1
 62
7
100
AcDbSpline
 70
8
 71
3
 72
8
 73
4
 74
0
 40
0
 40
0
 40
0
 40
0
 40
1
 40
1
 40
1
 40
1
 10
497.920104
 20
434.737780
 30
0.0
 10
495.741784
 20
433.515124
 30
0.0
 10
495.250664
 20
433.632980
 30
0.0
 10
491.647464
 20
436.243132
 30
0.0
  0
SPLINE
  5
1b7
100
AcDbEntity
  8
Layer_1
 62
7
100
AcDbSpline
 70
8
 71
3
 72
8
 73
4
 74
0
 40
0
 40
0
 40
0
 40
0
 40
1
 40
1
 40
1
 40
1
 10
491.647464
 20
436.243132
 30
0.0
 10
483.671544
 20
442.020828
 30
0.0
 10
472.389864
 20
442.777476
 30
0.0
 10
463.060424
 20
438.160412
 30
0.0
  0
SPLINE
  5
1b8
100
AcDbEntity
  8
Layer_1
 62
7
100
AcDbSpline
 70
8
 71
3
 72
8
 73
4
 74
0
 40
0
 40
0
 40
0
 40
0
 40
1
 40
1
 40
1
 40
1
 10
463.060424
 20
438.160412
 30
0.0
 10
460.284264
 20
436.786484
 30
0.0
 10
457.946344
 20
435.748452
 30
0.0
 10
457.865224
 20
435.853676
 30
0.0
  0
SPLINE
  5
1b9
100
AcDbEntity
  8
Layer_1
 62
7
100
AcDbSpline
 70
8
 71
3
 72
8
 73
4
 74
0
 40
0
 40
0
 40
0
 40
0
 40
1
 40
1
 40
1
 40
1
 10
457.865224
 20
435.853676
 30
0.0
 10
457.784024
 20
435.958900
 30
0.0
 10
456.861144
 20
438.007676
 30
0.0
 10
455.814344
 20
440.406516
 30
0.0
  0
SPLINE
  5
1ba
100
AcDbEntity
  8
Layer_1
 62
7
100
AcDbSpline
 70
8
 71
3
 72
8
 73
4
 74
0
 40
0
 40
0
 40
0
 40
0
 40
1
 40
1
 40
1
 40
1
 10
455.814344
 20
440.406516
 30
0.0
 10
452.801144
 20
447.311996
 30
0.0
 10
442.587944
 20
453.054636
 30
0.0
 10
430.127064
 20
454.849948
 30
0.0
  0
LWPOLYLINE
  5
1bb
100
AcDbEntity
  8
Layer_1
 62
7
100
AcDbPolyline
 90
3
 70
1
 10
458.582664
 20
500.036636
 30
0.0
 10
461.716344
 20
502.169236
 30
0.0
 10
466.500184
 20
499.996428
 30
0.0
  0
SPLINE
  5
1bc
100
AcDbEntity
  8
Layer_1
 62
7
100
AcDbSpline
 70
8
 71
3
 72
8
 73
4
 74
0
 40
0
 40
0
 40
0
 40
0
 40
1
 40
1
 40
1
 40
1
 10
432.687784
 20
451.781708
 30
0.0
 10
446.065624
 20
444.547020
 30
0.0
 10
452.512424
 20
438.065588
 30
0.0
 10
451.394264
 20
432.974620
 30
0.0
  0
SPLINE
  5
1bd
100
AcDbEntity
  8
Layer_1
 62
7
100
AcDbSpline
 70
8
 71
3
 72
8
 73
4
 74
0
 40
0
 40
0
 40
0
 40
0
 40
1
 40
1
 40
1
 40
1
 10
451.394264
 20
432.974620
 30
0.0
 10
450.949624
 20
430.950284
 30
0.0
 10
451.279544
 20
429.839452
 30
0.0
 10
452.709624
 20
428.545212
 30
0.0
  0
SPLINE
  5
1be
100
AcDbEntity
  8
Layer_1
 62
7
100
AcDbSpline
 70
8
 71
3
 72
8
 73
4
 74
0
 40
0
 40
0
 40
0
 40
0
 40
1
 40
1
 40
1
 40
1
 10
452.709624
 20
428.545212
 30
0.0
 10
454.566904
 20
426.864412
 30
0.0
 10
454.769544
 20
426.885548
 30
0.0
 10
460.212424
 20
429.328188
 30
0.0
  0
SPLINE
  5
1bf
100
AcDbEntity
  8
Layer_1
 62
7
100
AcDbSpline
 70
8
 71
3
 72
8
 73
4
 74
0
 40
0
 40
0
 40
0
 40
0
 40
1
 40
1
 40
1
 40
1
 10
460.212424
 20
429.328188
 30
0.0
 10
468.016744
 20
432.830548
 30
0.0
 10
477.372024
 20
434.999180
 30
0.0
 10
481.409304
 20
434.241788
 30
0.0
  0
SPLINE
  5
1c0
100
AcDbEntity
  8
Layer_1
 62
7
100
AcDbSpline
 70
8
 71
3
 72
8
 73
4
 74
0
 40
0
 40
0
 40
0
 40
0
 40
1
 40
1
 40
1
 40
1
 10
481.409304
 20
434.241788
 30
0.0
 10
484.987624
 20
433.570492
 30
0.0
 10
486.223064
 20
432.170604
 30
0.0
 10
491.260504
 20
423.079228
 30
0.0
  0
LWPOLYLINE
  5
1c1
100
AcDbEntity
  8
Layer_1
 62
7
100
AcDbPolyline
 90
3
 70
1
 10
430.127064
 20
454.849948
 30
0.0
 10
425.883704
 20
455.461300
 30
0.0
 10
432.687784
 20
451.781708
 30
0.0
  0
SPLINE
  5
1c2
100
AcDbEntity
  8
Layer_1
 62
7
100
AcDbSpline
 70
8
 71
3
 72
8
 73
4
 74
0
 40
0
 40
0
 40
0
 40
0
 40
1
 40
1
 40
1
 40
1
 10
489.959464
 20
417.657180
 30
0.0
 10
482.827064
 20
417.657180
 30
0.0
 10
477.385704
 20
415.800748
 30
0.0
 10
473.397384
 20
412.006740
 30
0.0
  0
SPLINE
  5
1c3
100
AcDbEntity
  8
Layer_1
 62
7
100
AcDbSpline
 70
8
 71
3
 72
8
 73
4
 74
0
 40
0
 40
0
 40
0
 40
0
 40
1
 40
1
 40
1
 40
1
 10
473.397384
 20
412.006740
 30
0.0
 10
470.196344
 20
408.961676
 30
0.0
 10
469.731544
 20
407.980708
 30
0.0
 10
469.731544
 20
404.269636
 30
0.0
  0
SPLINE
  5
1c4
100
AcDbEntity
  8
Layer_1
 62
7
100
AcDbSpline
 70
8
 71
3
 72
8
 73
4
 74
0
 40
0
 40
0
 40
0
 40
0
 40
1
 40
1
 40
1
 40
1
 10
469.731544
 20
404.269636
 30
0.0
 10
469.731544
 20
398.869636
 30
0.0
 10
472.844824
 20
393.958484
 30
0.0
 10
477.059784
 20
392.709340
 30
0.0
  0
SPLINE
  5
1c5
100
AcDbEntity
  8
Layer_1
 62
7
100
AcDbSpline
 70
8
 71
3
 72
8
 73
4
 74
0
 40
0
 40
0
 40
0
 40
0
 40
1
 40
1
 40
1
 40
1
 10
477.059784
 20
392.709340
 30
0.0
 10
481.007464
 20
391.539436
 30
0.0
 10
481.011544
 20
389.322444
 30
0.0
 10
477.076584
 20
383.556412
 30
0.0
  0
SPLINE
  5
1c6
100
AcDbEntity
  8
Layer_1
 62
7
100
AcDbSpline
 70
8
 71
3
 72
8
 73
4
 74
0
 40
0
 40
0
 40
0
 40
0
 40
1
 40
1
 40
1
 40
1
 10
477.076584
 20
383.556412
 30
0.0
 10
474.241224
 20
379.401444
 30
0.0
 10
473.683224
 20
379.056356
 30
0.0
 10
468.276904
 20
378.114892
 30
0.0
  0
SPLINE
  5
1c7
100
AcDbEntity
  8
Layer_1
 62
7
100
AcDbSpline
 70
8
 71
3
 72
8
 73
4
 74
0
 40
0
 40
0
 40
0
 40
0
 40
1
 40
1
 40
1
 40
1
 10
468.276904
 20
378.114892
 30
0.0
 10
460.413784
 20
376.745596
 30
0.0
 10
453.312744
 20
376.852548
 30
0.0
 10
449.618984
 20
378.395916
 30
0.0
  0
SPLINE
  5
1c8
100
AcDbEntity
  8
Layer_1
 62
7
100
AcDbSpline
 70
8
 71
3
 72
8
 73
4
 74
0
 40
0
 40
0
 40
0
 40
0
 40
1
 40
1
 40
1
 40
1
 10
449.618984
 20
378.395916
 30
0.0
 10
446.150664
 20
379.845068
 30
0.0
 10
442.232344
 20
384.122956
 30
0.0
 10
439.540664
 20
389.399116
 30
0.0
  0
SPLINE
  5
1c9
100
AcDbEntity
  8
Layer_1
 62
7
100
AcDbSpline
 70
8
 71
3
 72
8
 73
4
 74
0
 40
0
 40
0
 40
0
 40
0
 40
1
 40
1
 40
1
 40
1
 10
439.540664
 20
389.399116
 30
0.0
 10
437.513064
 20
393.373548
 30
0.0
 10
432.531624
 20
396.911948
 30
0.0
 10
428.963944
 20
396.911948
 30
0.0
  0
SPLINE
  5
1ca
100
AcDbEntity
  8
Layer_1
 62
7
100
AcDbSpline
 70
8
 71
3
 72
8
 73
4
 74
0
 40
0
 40
0
 40
0
 40
0
 40
1
 40
1
 40
1
 40
1
 10
428.963944
 20
396.911948
 30
0.0
 10
420.705864
 20
396.911948
 30
0.0
 10
416.445224
 20
382.381380
 30
0.0
 10
420.294264
 20
367.344660
 30
0.0
  0
SPLINE
  5
1cb
100
AcDbEntity
  8
Layer_1
 62
7
100
AcDbSpline
 70
8
 71
3
 72
8
 73
4
 74
0
 40
0
 40
0
 40
0
 40
0
 40
1
 40
1
 40
1
 40
1
 10
420.294264
 20
367.344660
 30
0.0
 10
422.277464
 20
359.597092
 30
0.0
 10
427.328424
 20
349.250492
 30
0.0
 10
431.494984
 20
344.400884
 30
0.0
  0
SPLINE
  5
1cc
100
AcDbEntity
  8
Layer_1
 62
7
100
AcDbSpline
 70
8
 71
3
 72
8
 73
4
 74
0
 40
0
 40
0
 40
0
 40
0
 40
1
 40
1
 40
1
 40
1
 10
431.494984
 20
344.400884
 30
0.0
 10
435.386584
 20
339.871156
 30
0.0
 10
442.932344
 20
336.549924
 30
0.0
 10
449.257144
 20
336.582900
 30
0.0
  0
SPLINE
  5
1cd
100
AcDbEntity
  8
Layer_1
 62
7
100
AcDbSpline
 70
8
 71
3
 72
8
 73
4
 74
0
 40
0
 40
0
 40
0
 40
0
 40
1
 40
1
 40
1
 40
1
 10
449.257144
 20
336.582900
 30
0.0
 10
454.348744
 20
336.609460
 30
0.0
 10
460.267304
 20
339.313516
 30
0.0
 10
465.699384
 20
344.095036
 30
0.0
  0
SPLINE
  5
1ce
100
AcDbEntity
  8
Layer_1
 62
7
100
AcDbSpline
 70
8
 71
3
 72
8
 73
4
 74
0
 40
0
 40
0
 40
0
 40
0
 40
1
 40
1
 40
1
 40
1
 10
465.699384
 20
344.095036
 30
0.0
 10
468.148104
 20
346.250452
 30
0.0
 10
470.963864
 20
347.877772
 30
0.0
 10
472.244824
 20
347.877772
 30
0.0
  0
SPLINE
  5
1cf
100
AcDbEntity
  8
Layer_1
 62
7
100
AcDbSpline
 70
8
 71
3
 72
8
 73
4
 74
0
 40
0
 40
0
 40
0
 40
0
 40
1
 40
1
 40
1
 40
1
 10
472.244824
 20
347.877772
 30
0.0
 10
477.001864
 20
347.877772
 30
0.0
 10
477.406504
 20
338.756676
 30
0.0
 10
472.984184
 20
331.210108
 30
0.0
  0
SPLINE
  5
1d0
100
AcDbEntity
  8
Layer_1
 62
7
100
AcDbSpline
 70
8
 71
3
 72
8
 73
4
 74
0
 40
0
 40
0
 40
0
 40
0
 40
1
 40
1
 40
1
 40
1
 10
472.984184
 20
331.210108
 30
0.0
 10
468.793544
 20
324.058772
 30
0.0
 10
455.369624
 20
319.913732
 30
0.0
 10
438.832504
 20
320.664724
 30
0.0
  0
SPLINE
  5
1d1
100
AcDbEntity
  8
Layer_1
 62
7
100
AcDbSpline
 70
8
 71
3
 72
8
 73
4
 74
0
 40
0
 40
0
 40
0
 40
0
 40
1
 40
1
 40
1
 40
1
 10
438.832504
 20
320.664724
 30
0.0
 10
432.190744
 20
320.966340
 30
0.0
 10
430.717064
 20
321.369932
 30
0.0
 10
427.253704
 20
323.835692
 30
0.0
  0
SPLINE
  5
1d2
100
AcDbEntity
  8
Layer_1
 62
7
100
AcDbSpline
 70
8
 71
3
 72
8
 73
4
 74
0
 40
0
 40
0
 40
0
 40
0
 40
1
 40
1
 40
1
 40
1
 10
427.253704
 20
323.835692
 30
0.0
 10
425.071144
 20
325.389644
 30
0.0
 10
422.548344
 20
328.146228
 30
0.0
 10
421.647464
 20
329.961436
 30
0.0
  0
SPLINE
  5
1d3
100
AcDbEntity
  8
Layer_1
 62
7
100
AcDbSpline
 70
8
 71
3
 72
8
 73
4
 74
0
 40
0
 40
0
 40
0
 40
0
 40
1
 40
1
 40
1
 40
1
 10
421.647464
 20
329.961436
 30
0.0
 10
420.746664
 20
331.776644
 30
0.0
 10
418.587144
 20
336.232156
 30
0.0
 10
416.848584
 20
339.862572
 30
0.0
  0
SPLINE
  5
1d4
100
AcDbEntity
  8
Layer_1
 62
7
100
AcDbSpline
 70
8
 71
3
 72
8
 73
4
 74
0
 40
0
 40
0
 40
0
 40
0
 40
1
 40
1
 40
1
 40
1
 10
416.848584
 20
339.862572
 30
0.0
 10
414.473384
 20
344.822332
 30
0.0
 10
411.569864
 20
348.601524
 30
0.0
 10
405.169464
 20
355.064068
 30
0.0
  0
SPLINE
  5
1d5
100
AcDbEntity
  8
Layer_1
 62
7
100
AcDbSpline
 70
8
 71
3
 72
8
 73
4
 74
0
 40
0
 40
0
 40
0
 40
0
 40
1
 40
1
 40
1
 40
1
 10
405.169464
 20
355.064068
 30
0.0
 10
395.626024
 20
364.700220
 30
0.0
 10
390.518664
 20
372.539388
 30
0.0
 10
387.427304
 20
382.295988
 30
0.0
  0
SPLINE
  5
1d6
100
AcDbEntity
  8
Layer_1
 62
7
100
AcDbSpline
 70
8
 71
3
 72
8
 73
4
 74
0
 40
0
 40
0
 40
0
 40
0
 40
1
 40
1
 40
1
 40
1
 10
387.427304
 20
382.295988
 30
0.0
 10
385.701944
 20
387.741644
 30
0.0
 10
385.335944
 20
391.097572
 30
0.0
 10
385.335944
 20
401.473180
 30
0.0
  0
LWPOLYLINE
  5
1d7
100
AcDbEntity
  8
Layer_1
 62
7
100
AcDbPolyline
 90
3
 70
1
 10
491.260504
 20
423.079228
 30
0.0
 10
494.264744
 20
417.657180
 30
0.0
 10
489.959464
 20
417.657180
 30
0.0
  0
SPLINE
  5
1d8
100
AcDbEntity
  8
Layer_1
 62
7
100
AcDbSpline
 70
8
 71
3
 72
8
 73
4
 74
0
 40
0
 40
0
 40
0
 40
0
 40
1
 40
1
 40
1
 40
1
 10
383.720584
 20
410.431348
 30
0.0
 10
379.327144
 20
400.590132
 30
0.0
 10
379.165704
 20
386.891900
 30
0.0
 10
383.313944
 20
375.930980
 30
0.0
  0
LWPOLYLINE
  5
1d9
100
AcDbEntity
  8
Layer_1
 62
7
100
AcDbPolyline
 90
3
 70
1
 10
385.335944
 20
401.473180
 30
0.0
 10
385.335944
 20
414.049628
 30
0.0
 10
383.720584
 20
410.431348
 30
0.0
  0
SPLINE
  5
1da
100
AcDbEntity
  8
Layer_1
 62
7
100
AcDbSpline
 70
8
 71
3
 72
8
 73
4
 74
0
 40
0
 40
0
 40
0
 40
0
 40
1
 40
1
 40
1
 40
1
 10
381.286104
 20
369.556524
 30
0.0
 10
372.198984
 20
369.537644
 30
0.0
 10
362.100984
 20
362.452212
 30
0.0
 10
352.236504
 20
349.173404
 30
0.0
  0
SPLINE
  5
1db
100
AcDbEntity
  8
Layer_1
 62
7
100
AcDbSpline
 70
8
 71
3
 72
8
 73
4
 74
0
 40
0
 40
0
 40
0
 40
0
 40
1
 40
1
 40
1
 40
1
 10
352.236504
 20
349.173404
 30
0.0
 10
349.491144
 20
345.477772
 30
0.0
 10
344.576744
 20
340.448404
 30
0.0
 10
341.315704
 20
337.997036
 30
0.0
  0
SPLINE
  5
1dc
100
AcDbEntity
  8
Layer_1
 62
7
100
AcDbSpline
 70
8
 71
3
 72
8
 73
4
 74
0
 40
0
 40
0
 40
0
 40
0
 40
1
 40
1
 40
1
 40
1
 10
341.315704
 20
337.997036
 30
0.0
 10
330.254424
 20
329.682092
 30
0.0
 10
321.642504
 20
326.429828
 30
0.0
 10
307.830824
 20
325.351484
 30
0.0
  0
SPLINE
  5
1dd
100
AcDbEntity
  8
Layer_1
 62
7
100
AcDbSpline
 70
8
 71
3
 72
8
 73
4
 74
0
 40
0
 40
0
 40
0
 40
0
 40
1
 40
1
 40
1
 40
1
 10
307.830824
 20
325.351484
 30
0.0
 10
297.345624
 20
324.532852
 30
0.0
 10
292.900024
 20
322.834108
 30
0.0
 10
288.687784
 20
318.036620
 30
0.0
  0
SPLINE
  5
1de
100
AcDbEntity
  8
Layer_1
 62
7
100
AcDbSpline
 70
8
 71
3
 72
8
 73
4
 74
0
 40
0
 40
0
 40
0
 40
0
 40
1
 40
1
 40
1
 40
1
 10
288.687784
 20
318.036620
 30
0.0
 10
286.095304
 20
315.084020
 30
0.0
 10
285.319224
 20
312.492900
 30
0.0
 10
285.692584
 20
308.037276
 30
0.0
  0
SPLINE
  5
1df
100
AcDbEntity
  8
Layer_1
 62
7
100
AcDbSpline
 70
8
 71
3
 72
8
 73
4
 74
0
 40
0
 40
0
 40
0
 40
0
 40
1
 40
1
 40
1
 40
1
 10
285.692584
 20
308.037276
 30
0.0
 10
285.895944
 20
305.610876
 30
0.0
 10
284.696024
 20
306.008940
 30
0.0
 10
281.428824
 20
309.451724
 30
0.0
  0
LWPOLYLINE
  5
1e0
100
AcDbEntity
  8
Layer_1
 62
7
100
AcDbPolyline
 90
3
 70
1
 10
383.313944
 20
375.930980
 30
0.0
 10
385.722904
 20
369.565964
 30
0.0
 10
381.286104
 20
369.556524
 30
0.0
  0
SPLINE
  5
1e1
100
AcDbEntity
  8
Layer_1
 62
7
100
AcDbSpline
 70
8
 71
3
 72
8
 73
4
 74
0
 40
0
 40
0
 40
0
 40
0
 40
1
 40
1
 40
1
 40
1
 10
284.201784
 20
355.110516
 30
0.0
 10
294.826504
 20
358.443276
 30
0.0
 10
305.651304
 20
369.977524
 30
0.0
 10
311.769944
 20
384.485500
 30
0.0
  0
SPLINE
  5
1e2
100
AcDbEntity
  8
Layer_1
 62
7
100
AcDbSpline
 70
8
 71
3
 72
8
 73
4
 74
0
 40
0
 40
0
 40
0
 40
0
 40
1
 40
1
 40
1
 40
1
 10
311.769944
 20
384.485500
 30
0.0
 10
316.018024
 20
394.558092
 30
0.0
 10
319.336184
 20
400.999868
 30
0.0
 10
324.020424
 20
408.268548
 30
0.0
  0
SPLINE
  5
1e3
100
AcDbEntity
  8
Layer_1
 62
7
100
AcDbSpline
 70
8
 71
3
 72
8
 73
4
 74
0
 40
0
 40
0
 40
0
 40
0
 40
1
 40
1
 40
1
 40
1
 10
324.020424
 20
408.268548
 30
0.0
 10
334.008344
 20
423.767004
 30
0.0
 10
349.803544
 20
437.379804
 30
0.0
 10
363.323224
 20
442.140940
 30
0.0
  0
LWPOLYLINE
  5
1e4
100
AcDbEntity
  8
Layer_1
 62
7
100
AcDbPolyline
 90
2
 70
1
 10
281.428824
 20
309.451724
 30
0.0
 10
281.429144
 20
309.451948
 30
0.0
  0
SPLINE
  5
1e5
100
AcDbEntity
  8
Layer_1
 62
7
100
AcDbSpline
 70
8
 71
3
 72
8
 73
4
 74
0
 40
0
 40
0
 40
0
 40
0
 40
1
 40
1
 40
1
 40
1
 10
364.444664
 20
444.476740
 30
0.0
 10
359.272824
 20
445.350516
 30
0.0
 10
348.266424
 20
442.881972
 30
0.0
 10
341.678584
 20
439.370692
 30
0.0
  0
SPLINE
  5
1e6
100
AcDbEntity
  8
Layer_1
 62
7
100
AcDbSpline
 70
8
 71
3
 72
8
 73
4
 74
0
 40
0
 40
0
 40
0
 40
0
 40
1
 40
1
 40
1
 40
1
 10
341.678584
 20
439.370692
 30
0.0
 10
326.831784
 20
431.457428
 30
0.0
 10
314.698104
 20
417.496636
 30
0.0
 10
301.498424
 20
393.140092
 30
0.0
  0
SPLINE
  5
1e7
100
AcDbEntity
  8
Layer_1
 62
7
100
AcDbSpline
 70
8
 71
3
 72
8
 73
4
 74
0
 40
0
 40
0
 40
0
 40
0
 40
1
 40
1
 40
1
 40
1
 10
301.498424
 20
393.140092
 30
0.0
 10
292.838104
 20
377.159796
 30
0.0
 10
286.358104
 20
372.028436
 30
0.0
 10
274.944744
 20
372.112860
 30
0.0
  0
SPLINE
  5
1e8
100
AcDbEntity
  8
Layer_1
 62
7
100
AcDbSpline
 70
8
 71
3
 72
8
 73
4
 74
0
 40
0
 40
0
 40
0
 40
0
 40
1
 40
1
 40
1
 40
1
 10
274.944744
 20
372.112860
 30
0.0
 10
265.098024
 20
372.185660
 30
0.0
 10
259.050504
 20
376.066828
 30
0.0
 10
254.375384
 20
385.313796
 30
0.0
  0
SPLINE
  5
1e9
100
AcDbEntity
  8
Layer_1
 62
7
100
AcDbSpline
 70
8
 71
3
 72
8
 73
4
 74
0
 40
0
 40
0
 40
0
 40
0
 40
1
 40
1
 40
1
 40
1
 10
254.375384
 20
385.313796
 30
0.0
 10
251.350584
 20
391.296484
 30
0.0
 10
253.654424
 20
399.528924
 30
0.0
 10
259.270344
 20
402.805476
 30
0.0
  0
SPLINE
  5
1ea
100
AcDbEntity
  8
Layer_1
 62
7
100
AcDbSpline
 70
8
 71
3
 72
8
 73
4
 74
0
 40
0
 40
0
 40
0
 40
0
 40
1
 40
1
 40
1
 40
1
 10
259.270344
 20
402.805476
 30
0.0
 10
264.735384
 20
405.993996
 30
0.0
 10
269.933224
 20
404.282540
 30
0.0
 10
277.197544
 20
396.902732
 30
0.0
  0
LWPOLYLINE
  5
1eb
100
AcDbEntity
  8
Layer_1
 62
7
100
AcDbPolyline
 90
3
 70
1
 10
363.323224
 20
442.140940
 30
0.0
 10
368.169144
 20
443.847492
 30
0.0
 10
364.444664
 20
444.476740
 30
0.0
  0
SPLINE
  5
1ec
100
AcDbEntity
  8
Layer_1
 62
7
100
AcDbSpline
 70
8
 71
3
 72
8
 73
4
 74
0
 40
0
 40
0
 40
0
 40
0
 40
1
 40
1
 40
1
 40
1
 10
282.081544
 20
395.656372
 30
0.0
 10
282.081544
 20
405.198124
 30
0.0
 10
271.546984
 20
413.447788
 30
0.0
 10
259.450344
 20
413.378956
 30
0.0
  0
SPLINE
  5
1ed
100
AcDbEntity
  8
Layer_1
 62
7
100
AcDbSpline
 70
8
 71
3
 72
8
 73
4
 74
0
 40
0
 40
0
 40
0
 40
0
 40
1
 40
1
 40
1
 40
1
 10
259.450344
 20
413.378956
 30
0.0
 10
252.073464
 20
413.336956
 30
0.0
 10
247.297224
 20
411.131764
 30
0.0
 10
242.083144
 20
405.360364
 30
0.0
  0
SPLINE
  5
1ee
100
AcDbEntity
  8
Layer_1
 62
7
100
AcDbSpline
 70
8
 71
3
 72
8
 73
4
 74
0
 40
0
 40
0
 40
0
 40
0
 40
1
 40
1
 40
1
 40
1
 10
242.083144
 20
405.360364
 30
0.0
 10
236.829304
 20
399.544980
 30
0.0
 10
234.976744
 20
394.770548
 30
0.0
 10
234.963224
 20
387.010812
 30
0.0
  0
SPLINE
  5
1ef
100
AcDbEntity
  8
Layer_1
 62
7
100
AcDbSpline
 70
8
 71
3
 72
8
 73
4
 74
0
 40
0
 40
0
 40
0
 40
0
 40
1
 40
1
 40
1
 40
1
 10
234.963224
 20
387.010812
 30
0.0
 10
234.948824
 20
378.713316
 30
0.0
 10
237.640504
 20
372.518764
 30
0.0
 10
244.337624
 20
365.437588
 30
0.0
  0
SPLINE
  5
1f0
100
AcDbEntity
  8
Layer_1
 62
7
100
AcDbSpline
 70
8
 71
3
 72
8
 73
4
 74
0
 40
0
 40
0
 40
0
 40
0
 40
1
 40
1
 40
1
 40
1
 10
244.337624
 20
365.437588
 30
0.0
 10
249.938824
 20
359.515116
 30
0.0
 10
259.204424
 20
354.828956
 30
0.0
 10
267.582024
 20
353.681556
 30
0.0
  0
SPLINE
  5
1f1
100
AcDbEntity
  8
Layer_1
 62
7
100
AcDbSpline
 70
8
 71
3
 72
8
 73
4
 74
0
 40
0
 40
0
 40
0
 40
0
 40
1
 40
1
 40
1
 40
1
 10
267.582024
 20
353.681556
 30
0.0
 10
273.984104
 20
352.804716
 30
0.0
 10
277.933464
 20
353.144276
 30
0.0
 10
284.201784
 20
355.110516
 30
0.0
  0
LWPOLYLINE
  5
1f2
100
AcDbEntity
  8
Layer_1
 62
7
100
AcDbPolyline
 90
3
 70
1
 10
277.197544
 20
396.902732
 30
0.0
 10
282.081544
 20
391.941124
 30
0.0
 10
282.081544
 20
395.656372
 30
0.0
  0
SPLINE
  5
1f3
100
AcDbEntity
  8
Layer_1
 62
7
100
AcDbSpline
 70
8
 71
3
 72
8
 73
4
 74
0
 40
0
 40
0
 40
0
 40
0
 40
1
 40
1
 40
1
 40
1
 10
442.840904
 20
417.421436
 30
0.0
 10
442.461704
 20
418.329036
 30
0.0
 10
441.699784
 20
422.278196
 30
0.0
 10
441.147624
 20
426.197340
 30
0.0
  0
LWPOLYLINE
  5
1f4
100
AcDbEntity
  8
Layer_1
 62
7
100
AcDbPolyline
 90
2
 70
1
 10
284.201784
 20
355.110516
 30
0.0
 10
284.201784
 20
355.110516
 30
0.0
  0
SPLINE
  5
1f5
100
AcDbEntity
  8
Layer_1
 62
7
100
AcDbSpline
 70
8
 71
3
 72
8
 73
4
 74
0
 40
0
 40
0
 40
0
 40
0
 40
1
 40
1
 40
1
 40
1
 10
434.820504
 20
435.824020
 30
0.0
 10
431.892744
 20
437.199556
 30
0.0
 10
426.456424
 20
441.140316
 30
0.0
 10
422.739944
 20
444.581268
 30
0.0
  0
SPLINE
  5
1f6
100
AcDbEntity
  8
Layer_1
 62
7
100
AcDbSpline
 70
8
 71
3
 72
8
 73
4
 74
0
 40
0
 40
0
 40
0
 40
0
 40
1
 40
1
 40
1
 40
1
 10
422.739944
 20
444.581268
 30
0.0
 10
418.930744
 20
448.107948
 30
0.0
 10
415.982584
 20
450.225236
 30
0.0
 10
415.982584
 20
449.434124
 30
0.0
  0
SPLINE
  5
1f7
100
AcDbEntity
  8
Layer_1
 62
7
100
AcDbSpline
 70
8
 71
3
 72
8
 73
4
 74
0
 40
0
 40
0
 40
0
 40
0
 40
1
 40
1
 40
1
 40
1
 10
415.982584
 20
449.434124
 30
0.0
 10
415.982584
 20
445.836020
 30
0.0
 10
420.140744
 20
435.209892
 30
0.0
 10
423.541704
 20
430.116892
 30
0.0
  0
SPLINE
  5
1f8
100
AcDbEntity
  8
Layer_1
 62
7
100
AcDbSpline
 70
8
 71
3
 72
8
 73
4
 74
0
 40
0
 40
0
 40
0
 40
0
 40
1
 40
1
 40
1
 40
1
 10
423.541704
 20
430.116892
 30
0.0
 10
427.649784
 20
423.965020
 30
0.0
 10
431.688344
 20
420.454220
 30
0.0
 10
437.900504
 20
417.634460
 30
0.0
  0
SPLINE
  5
1f9
100
AcDbEntity
  8
Layer_1
 62
7
100
AcDbSpline
 70
8
 71
3
 72
8
 73
4
 74
0
 40
0
 40
0
 40
0
 40
0
 40
1
 40
1
 40
1
 40
1
 10
437.900504
 20
417.634460
 30
0.0
 10
442.888584
 20
415.370356
 30
0.0
 10
443.712664
 20
415.334812
 30
0.0
 10
442.840904
 20
417.421436
 30
0.0
  0
LWPOLYLINE
  5
1fa
100
AcDbEntity
  8
Layer_1
 62
7
100
AcDbPolyline
 90
3
 70
1
 10
441.147624
 20
426.197340
 30
0.0
 10
440.143784
 20
433.323052
 30
0.0
 10
434.820504
 20
435.824020
 30
0.0
  0
SPLINE
  5
1fb
100
AcDbEntity
  8
Layer_1
 62
7
100
AcDbSpline
 70
8
 71
3
 72
8
 73
4
 74
0
 40
0
 40
0
 40
0
 40
0
 40
1
 40
1
 40
1
 40
1
 10
274.042504
 20
420.665644
 30
0.0
 10
282.124984
 20
422.714748
 30
0.0
 10
292.558344
 20
428.945620
 30
0.0
 10
304.090584
 20
438.610540
 30
0.0
  0
SPLINE
  5
1fc
100
AcDbEntity
  8
Layer_1
 62
7
100
AcDbSpline
 70
8
 71
3
 72
8
 73
4
 74
0
 40
0
 40
0
 40
0
 40
0
 40
1
 40
1
 40
1
 40
1
 10
304.090584
 20
438.610540
 30
0.0
 10
315.909224
 20
448.515428
 30
0.0
 10
329.282664
 20
453.807132
 30
0.0
 10
350.196824
 20
456.854156
 30
0.0
  0
SPLINE
  5
1fd
100
AcDbEntity
  8
Layer_1
 62
7
100
AcDbSpline
 70
8
 71
3
 72
8
 73
4
 74
0
 40
0
 40
0
 40
0
 40
0
 40
1
 40
1
 40
1
 40
1
 10
350.196824
 20
456.854156
 30
0.0
 10
356.039064
 20
457.705324
 30
0.0
 10
360.948184
 20
458.521836
 30
0.0
 10
361.105944
 20
458.668628
 30
0.0
  0
SPLINE
  5
1fe
100
AcDbEntity
  8
Layer_1
 62
7
100
AcDbSpline
 70
8
 71
3
 72
8
 73
4
 74
0
 40
0
 40
0
 40
0
 40
0
 40
1
 40
1
 40
1
 40
1
 10
361.105944
 20
458.668628
 30
0.0
 10
362.014504
 20
459.513988
 30
0.0
 10
351.266664
 20
462.183980
 30
0.0
 10
345.260184
 20
462.605068
 30
0.0
  0
SPLINE
  5
1ff
100
AcDbEntity
  8
Layer_1
 62
7
100
AcDbSpline
 70
8
 71
3
 72
8
 73
4
 74
0
 40
0
 40
0
 40
0
 40
0
 40
1
 40
1
 40
1
 40
1
 10
345.260184
 20
462.605068
 30
0.0
 10
331.812184
 20
463.547876
 30
0.0
 10
316.896824
 20
458.657540
 30
0.0
 10
301.402984
 20
448.225524
 30
0.0
  0
SPLINE
  5
200
100
AcDbEntity
  8
Layer_1
 62
7
100
AcDbSpline
 70
8
 71
3
 72
8
 73
4
 74
0
 40
0
 40
0
 40
0
 40
0
 40
1
 40
1
 40
1
 40
1
 10
301.402984
 20
448.225524
 30
0.0
 10
296.484824
 20
444.914124
 30
0.0
 10
289.997224
 20
440.961180
 30
0.0
 10
286.986184
 20
439.441188
 30
0.0
  0
SPLINE
  5
201
100
AcDbEntity
  8
Layer_1
 62
7
100
AcDbSpline
 70
8
 71
3
 72
8
 73
4
 74
0
 40
0
 40
0
 40
0
 40
0
 40
1
 40
1
 40
1
 40
1
 10
286.986184
 20
439.441188
 30
0.0
 10
268.741704
 20
430.231404
 30
0.0
 10
251.737064
 20
431.184396
 30
0.0
 10
237.097944
 20
442.237060
 30
0.0
  0
SPLINE
  5
202
100
AcDbEntity
  8
Layer_1
 62
7
100
AcDbSpline
 70
8
 71
3
 72
8
 73
4
 74
0
 40
0
 40
0
 40
0
 40
0
 40
1
 40
1
 40
1
 40
1
 10
237.097944
 20
442.237060
 30
0.0
 10
234.351464
 20
444.310644
 30
0.0
 10
232.104424
 20
445.769204
 30
0.0
 10
232.104424
 20
445.478300
 30
0.0
  0
SPLINE
  5
203
100
AcDbEntity
  8
Layer_1
 62
7
100
AcDbSpline
 70
8
 71
3
 72
8
 73
4
 74
0
 40
0
 40
0
 40
0
 40
0
 40
1
 40
1
 40
1
 40
1
 10
232.104424
 20
445.478300
 30
0.0
 10
232.104424
 20
443.420972
 30
0.0
 10
238.692424
 20
432.612276
 30
0.0
 10
242.291864
 20
428.764212
 30
0.0
  0
SPLINE
  5
204
100
AcDbEntity
  8
Layer_1
 62
7
100
AcDbSpline
 70
8
 71
3
 72
8
 73
4
 74
0
 40
0
 40
0
 40
0
 40
0
 40
1
 40
1
 40
1
 40
1
 10
242.291864
 20
428.764212
 30
0.0
 10
250.893144
 20
419.568676
 30
0.0
 10
260.275944
 20
417.175452
 30
0.0
 10
274.042504
 20
420.665644
 30
0.0
  0
LWPOLYLINE
  5
205
100
AcDbEntity
  8
Layer_1
 62
7
100
AcDbPolyline
 90
2
 70
1
 10
442.840904
 20
417.421436
 30
0.0
 10
442.840904
 20
417.421436
 30
0.0
  0
SPLINE
  5
206
100
AcDbEntity
  8
Layer_1
 62
7
100
AcDbSpline
 70
8
 71
3
 72
8
 73
4
 74
0
 40
0
 40
0
 40
0
 40
0
 40
1
 40
1
 40
1
 40
1
 10
278.060584
 20
468.575804
 30
0.0
 10
281.009464
 20
469.612244
 30
0.0
 10
285.600904
 20
471.906852
 30
0.0
 10
288.263864
 20
473.674932
 30
0.0
  0
SPLINE
  5
207
100
AcDbEntity
  8
Layer_1
 62
7
100
AcDbSpline
 70
8
 71
3
 72
8
 73
4
 74
0
 40
0
 40
0
 40
0
 40
0
 40
1
 40
1
 40
1
 40
1
 10
288.263864
 20
473.674932
 30
0.0
 10
295.270904
 20
478.327372
 30
0.0
 10
303.294584
 20
482.206284
 30
0.0
 10
310.841944
 20
484.590004
 30
0.0
  0
SPLINE
  5
208
100
AcDbEntity
  8
Layer_1
 62
7
100
AcDbSpline
 70
8
 71
3
 72
8
 73
4
 74
0
 40
0
 40
0
 40
0
 40
0
 40
1
 40
1
 40
1
 40
1
 10
310.841944
 20
484.590004
 30
0.0
 10
323.113784
 20
488.465860
 30
0.0
 10
343.733464
 20
488.206948
 30
0.0
 10
356.104264
 20
484.021676
 30
0.0
  0
LWPOLYLINE
  5
209
100
AcDbEntity
  8
Layer_1
 62
7
100
AcDbPolyline
 90
2
 70
1
 10
274.042504
 20
420.665644
 30
0.0
 10
274.042504
 20
420.665644
 30
0.0
  0
SPLINE
  5
20a
100
AcDbEntity
  8
Layer_1
 62
7
100
AcDbSpline
 70
8
 71
3
 72
8
 73
4
 74
0
 40
0
 40
0
 40
0
 40
0
 40
1
 40
1
 40
1
 40
1
 10
357.047224
 20
485.176372
 30
0.0
 10
352.232664
 20
489.313412
 30
0.0
 10
341.518664
 20
493.904924
 30
0.0
 10
334.001304
 20
495.052812
 30
0.0
  0
SPLINE
  5
20b
100
AcDbEntity
  8
Layer_1
 62
7
100
AcDbSpline
 70
8
 71
3
 72
8
 73
4
 74
0
 40
0
 40
0
 40
0
 40
0
 40
1
 40
1
 40
1
 40
1
 10
334.001304
 20
495.052812
 30
0.0
 10
321.173544
 20
497.011588
 30
0.0
 10
308.540904
 20
494.365932
 30
0.0
 10
286.440664
 20
485.092164
 30
0.0
  0
SPLINE
  5
20c
100
AcDbEntity
  8
Layer_1
 62
7
100
AcDbSpline
 70
8
 71
3
 72
8
 73
4
 74
0
 40
0
 40
0
 40
0
 40
0
 40
1
 40
1
 40
1
 40
1
 10
286.440664
 20
485.092164
 30
0.0
 10
279.029064
 20
481.982108
 30
0.0
 10
277.351544
 20
481.620108
 30
0.0
 10
271.803544
 20
481.933596
 30
0.0
  0
SPLINE
  5
20d
100
AcDbEntity
  8
Layer_1
 62
7
100
AcDbSpline
 70
8
 71
3
 72
8
 73
4
 74
0
 40
0
 40
0
 40
0
 40
0
 40
1
 40
1
 40
1
 40
1
 10
271.803544
 20
481.933596
 30
0.0
 10
263.286904
 20
482.414828
 30
0.0
 10
260.004824
 20
484.767596
 30
0.0
 10
257.939544
 20
491.871996
 30
0.0
  0
SPLINE
  5
20e
100
AcDbEntity
  8
Layer_1
 62
7
100
AcDbSpline
 70
8
 71
3
 72
8
 73
4
 74
0
 40
0
 40
0
 40
0
 40
0
 40
1
 40
1
 40
1
 40
1
 10
257.939544
 20
491.871996
 30
0.0
 10
255.368104
 20
500.717228
 30
0.0
 10
257.519704
 20
507.874204
 30
0.0
 10
263.653704
 20
510.879564
 30
0.0
  0
SPLINE
  5
20f
100
AcDbEntity
  8
Layer_1
 62
7
100
AcDbSpline
 70
8
 71
3
 72
8
 73
4
 74
0
 40
0
 40
0
 40
0
 40
0
 40
1
 40
1
 40
1
 40
1
 10
263.653704
 20
510.879564
 30
0.0
 10
269.992104
 20
513.985100
 30
0.0
 10
275.259784
 20
508.819116
 30
0.0
 10
276.187544
 20
498.587772
 30
0.0
  0
SPLINE
  5
210
100
AcDbEntity
  8
Layer_1
 62
7
100
AcDbSpline
 70
8
 71
3
 72
8
 73
4
 74
0
 40
0
 40
0
 40
0
 40
0
 40
1
 40
1
 40
1
 40
1
 10
276.187544
 20
498.587772
 30
0.0
 10
276.709624
 20
492.830012
 30
0.0
 10
276.730184
 20
492.795508
 30
0.0
 10
278.401784
 20
494.859884
 30
0.0
  0
SPLINE
  5
211
100
AcDbEntity
  8
Layer_1
 62
7
100
AcDbSpline
 70
8
 71
3
 72
8
 73
4
 74
0
 40
0
 40
0
 40
0
 40
0
 40
1
 40
1
 40
1
 40
1
 10
278.401784
 20
494.859884
 30
0.0
 10
280.798904
 20
497.820204
 30
0.0
 10
283.967464
 20
506.731700
 30
0.0
 10
283.967464
 20
510.513204
 30
0.0
  0
SPLINE
  5
212
100
AcDbEntity
  8
Layer_1
 62
7
100
AcDbSpline
 70
8
 71
3
 72
8
 73
4
 74
0
 40
0
 40
0
 40
0
 40
0
 40
1
 40
1
 40
1
 40
1
 10
283.967464
 20
510.513204
 30
0.0
 10
283.967464
 20
520.222556
 30
0.0
 10
275.325544
 20
527.917812
 30
0.0
 10
264.370664
 20
527.963364
 30
0.0
  0
SPLINE
  5
213
100
AcDbEntity
  8
Layer_1
 62
7
100
AcDbSpline
 70
8
 71
3
 72
8
 73
4
 74
0
 40
0
 40
0
 40
0
 40
0
 40
1
 40
1
 40
1
 40
1
 10
264.370664
 20
527.963364
 30
0.0
 10
252.338744
 20
528.013364
 30
0.0
 10
244.981144
 20
520.601628
 30
0.0
 10
242.410824
 20
505.841908
 30
0.0
  0
SPLINE
  5
214
100
AcDbEntity
  8
Layer_1
 62
7
100
AcDbSpline
 70
8
 71
3
 72
8
 73
4
 74
0
 40
0
 40
0
 40
0
 40
0
 40
1
 40
1
 40
1
 40
1
 10
242.410824
 20
505.841908
 30
0.0
 10
240.598824
 20
495.436668
 30
0.0
 10
242.794824
 20
484.007196
 30
0.0
 10
248.163224
 20
475.902404
 30
0.0
  0
SPLINE
  5
215
100
AcDbEntity
  8
Layer_1
 62
7
100
AcDbSpline
 70
8
 71
3
 72
8
 73
4
 74
0
 40
0
 40
0
 40
0
 40
0
 40
1
 40
1
 40
1
 40
1
 10
248.163224
 20
475.902404
 30
0.0
 10
253.899384
 20
467.242420
 30
0.0
 10
265.899784
 20
464.301620
 30
0.0
 10
278.060584
 20
468.575804
 30
0.0
  0
LWPOLYLINE
  5
216
100
AcDbEntity
  8
Layer_1
 62
7
100
AcDbPolyline
 90
3
 70
1
 10
356.104264
 20
484.021676
 30
0.0
 10
359.876104
 20
482.745580
 30
0.0
 10
357.047224
 20
485.176372
 30
0.0
  0
SPLINE
  5
217
100
AcDbEntity
  8
Layer_1
 62
7
100
AcDbSpline
 70
8
 71
3
 72
8
 73
4
 74
0
 40
0
 40
0
 40
0
 40
0
 40
1
 40
1
 40
1
 40
1
 10
387.347304
 20
474.517396
 30
0.0
 10
387.624184
 20
474.794308
 30
0.0
 10
386.118104
 20
476.753572
 30
0.0
 10
384.000344
 20
478.871324
 30
0.0
  0
SPLINE
  5
218
100
AcDbEntity
  8
Layer_1
 62
7
100
AcDbSpline
 70
8
 71
3
 72
8
 73
4
 74
0
 40
0
 40
0
 40
0
 40
0
 40
1
 40
1
 40
1
 40
1
 10
384.000344
 20
478.871324
 30
0.0
 10
380.773864
 20
482.097804
 30
0.0
 10
380.149864
 20
483.335212
 30
0.0
 10
380.149864
 20
486.507468
 30
0.0
  0
SPLINE
  5
219
100
AcDbEntity
  8
Layer_1
 62
7
100
AcDbSpline
 70
8
 71
3
 72
8
 73
4
 74
0
 40
0
 40
0
 40
0
 40
0
 40
1
 40
1
 40
1
 40
1
 10
380.149864
 20
486.507468
 30
0.0
 10
380.149864
 20
489.472340
 30
0.0
 10
380.821624
 20
491.026212
 30
0.0
 10
383.248184
 20
493.674004
 30
0.0
  0
SPLINE
  5
21a
100
AcDbEntity
  8
Layer_1
 62
7
100
AcDbSpline
 70
8
 71
3
 72
8
 73
4
 74
0
 40
0
 40
0
 40
0
 40
0
 40
1
 40
1
 40
1
 40
1
 10
383.248184
 20
493.674004
 30
0.0
 10
388.971224
 20
499.918884
 30
0.0
 10
396.149784
 20
497.601500
 30
0.0
 10
400.808744
 20
488.005124
 30
0.0
  0
LWPOLYLINE
  5
21b
100
AcDbEntity
  8
Layer_1
 62
7
100
AcDbPolyline
 90
2
 70
1
 10
278.060584
 20
468.575804
 30
0.0
 10
278.060584
 20
468.575804
 30
0.0
  0
SPLINE
  5
21c
100
AcDbEntity
  8
Layer_1
 62
7
100
AcDbSpline
 70
8
 71
3
 72
8
 73
4
 74
0
 40
0
 40
0
 40
0
 40
0
 40
1
 40
1
 40
1
 40
1
 10
402.734264
 20
489.588540
 30
0.0
 10
402.791864
 20
496.237724
 30
0.0
 10
401.168024
 20
500.390460
 30
0.0
 10
397.208824
 20
503.721956
 30
0.0
  0
SPLINE
  5
21d
100
AcDbEntity
  8
Layer_1
 62
7
100
AcDbSpline
 70
8
 71
3
 72
8
 73
4
 74
0
 40
0
 40
0
 40
0
 40
0
 40
1
 40
1
 40
1
 40
1
 10
397.208824
 20
503.721956
 30
0.0
 10
390.902024
 20
509.028756
 30
0.0
 10
383.830824
 20
509.075556
 30
0.0
 10
374.818584
 20
503.870156
 30
0.0
  0
SPLINE
  5
21e
100
AcDbEntity
  8
Layer_1
 62
7
100
AcDbSpline
 70
8
 71
3
 72
8
 73
4
 74
0
 40
0
 40
0
 40
0
 40
0
 40
1
 40
1
 40
1
 40
1
 10
374.818584
 20
503.870156
 30
0.0
 10
364.025944
 20
497.636396
 30
0.0
 10
364.691224
 20
479.717596
 30
0.0
 10
375.906744
 20
474.563252
 30
0.0
  0
SPLINE
  5
21f
100
AcDbEntity
  8
Layer_1
 62
7
100
AcDbSpline
 70
8
 71
3
 72
8
 73
4
 74
0
 40
0
 40
0
 40
0
 40
0
 40
1
 40
1
 40
1
 40
1
 10
375.906744
 20
474.563252
 30
0.0
 10
378.516344
 20
473.363964
 30
0.0
 10
386.163384
 20
473.333308
 30
0.0
 10
387.347464
 20
474.517412
 30
0.0
  0
LWPOLYLINE
  5
220
100
AcDbEntity
  8
Layer_1
 62
7
100
AcDbPolyline
 90
3
 70
1
 10
400.808744
 20
488.005124
 30
0.0
 10
402.687064
 20
484.136204
 30
0.0
 10
402.734264
 20
489.588540
 30
0.0
  0
SPLINE
  5
221
100
AcDbEntity
  8
Layer_1
 62
7
100
AcDbSpline
 70
8
 71
3
 72
8
 73
4
 74
0
 40
0
 40
0
 40
0
 40
0
 40
1
 40
1
 40
1
 40
1
 10
439.317384
 20
344.171932
 30
0.0
 10
431.216664
 20
348.448332
 30
0.0
 10
421.948744
 20
371.521252
 30
0.0
 10
424.510424
 20
381.034596
 30
0.0
  0
SPLINE
  5
222
100
AcDbEntity
  8
Layer_1
 62
7
100
AcDbSpline
 70
8
 71
3
 72
8
 73
4
 74
0
 40
0
 40
0
 40
0
 40
0
 40
1
 40
1
 40
1
 40
1
 10
424.510424
 20
381.034596
 30
0.0
 10
425.757144
 20
385.664524
 30
0.0
 10
428.914344
 20
387.896676
 30
0.0
 10
432.362184
 20
386.585812
 30
0.0
  0
SPLINE
  5
223
100
AcDbEntity
  8
Layer_1
 62
7
100
AcDbSpline
 70
8
 71
3
 72
8
 73
4
 74
0
 40
0
 40
0
 40
0
 40
0
 40
1
 40
1
 40
1
 40
1
 10
432.362184
 20
386.585812
 30
0.0
 10
434.713544
 20
385.691844
 30
0.0
 10
435.960984
 20
383.678780
 30
0.0
 10
438.604104
 20
376.513236
 30
0.0
  0
SPLINE
  5
224
100
AcDbEntity
  8
Layer_1
 62
7
100
AcDbSpline
 70
8
 71
3
 72
8
 73
4
 74
0
 40
0
 40
0
 40
0
 40
0
 40
1
 40
1
 40
1
 40
1
 10
438.604104
 20
376.513236
 30
0.0
 10
440.529784
 20
371.292844
 30
0.0
 10
444.513064
 20
368.364844
 30
0.0
 10
450.347704
 20
367.880988
 30
0.0
  0
SPLINE
  5
225
100
AcDbEntity
  8
Layer_1
 62
7
100
AcDbSpline
 70
8
 71
3
 72
8
 73
4
 74
0
 40
0
 40
0
 40
0
 40
0
 40
1
 40
1
 40
1
 40
1
 10
450.347704
 20
367.880988
 30
0.0
 10
454.707624
 20
367.519428
 30
0.0
 10
456.455864
 20
367.901708
 30
0.0
 10
461.448344
 20
370.308756
 30
0.0
  0
SPLINE
  5
226
100
AcDbEntity
  8
Layer_1
 62
7
100
AcDbSpline
 70
8
 71
3
 72
8
 73
4
 74
0
 40
0
 40
0
 40
0
 40
0
 40
1
 40
1
 40
1
 40
1
 10
461.448344
 20
370.308756
 30
0.0
 10
468.892824
 20
373.897852
 30
0.0
 10
473.138264
 20
374.705724
 30
0.0
 10
477.865464
 20
373.432820
 30
0.0
  0
SPLINE
  5
227
100
AcDbEntity
  8
Layer_1
 62
7
100
AcDbSpline
 70
8
 71
3
 72
8
 73
4
 74
0
 40
0
 40
0
 40
0
 40
0
 40
1
 40
1
 40
1
 40
1
 10
477.865464
 20
373.432820
 30
0.0
 10
485.277304
 20
371.437012
 30
0.0
 10
490.476824
 20
362.826172
 30
0.0
 10
490.476824
 20
352.547188
 30
0.0
  0
SPLINE
  5
228
100
AcDbEntity
  8
Layer_1
 62
7
100
AcDbSpline
 70
8
 71
3
 72
8
 73
4
 74
0
 40
0
 40
0
 40
0
 40
0
 40
1
 40
1
 40
1
 40
1
 10
490.476824
 20
352.547188
 30
0.0
 10
490.476824
 20
346.559572
 30
0.0
 10
488.193784
 20
343.586524
 30
0.0
 10
484.634904
 20
344.939612
 30
0.0
  0
SPLINE
  5
229
100
AcDbEntity
  8
Layer_1
 62
7
100
AcDbSpline
 70
8
 71
3
 72
8
 73
4
 74
0
 40
0
 40
0
 40
0
 40
0
 40
1
 40
1
 40
1
 40
1
 10
484.634904
 20
344.939612
 30
0.0
 10
483.249864
 20
345.466204
 30
0.0
 10
481.179304
 20
347.164820
 30
0.0
 10
480.033784
 20
348.714324
 30
0.0
  0
SPLINE
  5
22a
100
AcDbEntity
  8
Layer_1
 62
7
100
AcDbSpline
 70
8
 71
3
 72
8
 73
4
 74
0
 40
0
 40
0
 40
0
 40
0
 40
1
 40
1
 40
1
 40
1
 10
480.033784
 20
348.714324
 30
0.0
 10
475.488904
 20
354.861508
 30
0.0
 10
469.115624
 20
354.851988
 30
0.0
 10
461.696344
 20
348.686884
 30
0.0
  0
SPLINE
  5
22b
100
AcDbEntity
  8
Layer_1
 62
7
100
AcDbSpline
 70
8
 71
3
 72
8
 73
4
 74
0
 40
0
 40
0
 40
0
 40
0
 40
1
 40
1
 40
1
 40
1
 10
461.696344
 20
348.686884
 30
0.0
 10
459.114184
 20
346.541252
 30
0.0
 10
455.636104
 20
344.208428
 30
0.0
 10
453.967144
 20
343.502836
 30
0.0
  0
SPLINE
  5
22c
100
AcDbEntity
  8
Layer_1
 62
7
100
AcDbSpline
 70
8
 71
3
 72
8
 73
4
 74
0
 40
0
 40
0
 40
0
 40
0
 40
1
 40
1
 40
1
 40
1
 10
453.967144
 20
343.502836
 30
0.0
 10
449.691464
 20
341.695092
 30
0.0
 10
443.470984
 20
341.979164
 30
0.0
 10
439.317384
 20
344.171884
 30
0.0
  0
LWPOLYLINE
  5
22d
100
AcDbEntity
  8
Layer_1
 62
7
100
AcDbPolyline
 90
2
 70
1
 10
387.347464
 20
474.517412
 30
0.0
 10
387.347304
 20
474.517396
 30
0.0
  0
SPLINE
  5
22e
100
AcDbEntity
  8
Layer_1
 62
7
100
AcDbSpline
 70
8
 71
3
 72
8
 73
4
 74
0
 40
0
 40
0
 40
0
 40
0
 40
1
 40
1
 40
1
 40
1
 10
484.757144
 20
386.122228
 30
0.0
 10
487.916984
 20
391.104700
 30
0.0
 10
488.623224
 20
397.103588
 30
0.0
 10
486.406824
 20
400.134636
 30
0.0
  0
SPLINE
  5
22f
100
AcDbEntity
  8
Layer_1
 62
7
100
AcDbSpline
 70
8
 71
3
 72
8
 73
4
 74
0
 40
0
 40
0
 40
0
 40
0
 40
1
 40
1
 40
1
 40
1
 10
486.406824
 20
400.134636
 30
0.0
 10
484.765304
 20
402.379588
 30
0.0
 10
481.599384
 20
401.702028
 30
0.0
 10
481.217304
 20
399.023980
 30
0.0
  0
SPLINE
  5
230
100
AcDbEntity
  8
Layer_1
 62
7
100
AcDbSpline
 70
8
 71
3
 72
8
 73
4
 74
0
 40
0
 40
0
 40
0
 40
0
 40
1
 40
1
 40
1
 40
1
 10
481.217304
 20
399.023980
 30
0.0
 10
480.823464
 20
396.263388
 30
0.0
 10
478.701464
 20
396.342980
 30
0.0
 10
475.817944
 20
399.226500
 30
0.0
  0
SPLINE
  5
231
100
AcDbEntity
  8
Layer_1
 62
7
100
AcDbSpline
 70
8
 71
3
 72
8
 73
4
 74
0
 40
0
 40
0
 40
0
 40
0
 40
1
 40
1
 40
1
 40
1
 10
475.817944
 20
399.226500
 30
0.0
 10
471.461624
 20
403.582844
 30
0.0
 10
473.189544
 20
408.232684
 30
0.0
 10
480.414904
 20
411.596820
 30
0.0
  0
SPLINE
  5
232
100
AcDbEntity
  8
Layer_1
 62
7
100
AcDbSpline
 70
8
 71
3
 72
8
 73
4
 74
0
 40
0
 40
0
 40
0
 40
0
 40
1
 40
1
 40
1
 40
1
 10
480.414904
 20
411.596820
 30
0.0
 10
490.078424
 20
416.096156
 30
0.0
 10
501.396104
 20
413.728084
 30
0.0
 10
503.708024
 20
406.723084
 30
0.0
  0
SPLINE
  5
233
100
AcDbEntity
  8
Layer_1
 62
7
100
AcDbSpline
 70
8
 71
3
 72
8
 73
4
 74
0
 40
0
 40
0
 40
0
 40
0
 40
1
 40
1
 40
1
 40
1
 10
503.708024
 20
406.723084
 30
0.0
 10
505.409704
 20
401.566772
 30
0.0
 10
504.373144
 20
395.479708
 30
0.0
 10
501.101784
 20
391.419460
 30
0.0
  0
SPLINE
  5
234
100
AcDbEntity
  8
Layer_1
 62
7
100
AcDbSpline
 70
8
 71
3
 72
8
 73
4
 74
0
 40
0
 40
0
 40
0
 40
0
 40
1
 40
1
 40
1
 40
1
 10
501.101784
 20
391.419460
 30
0.0
 10
498.199864
 20
387.817692
 30
0.0
 10
490.144104
 20
383.219580
 30
0.0
 10
484.897464
 20
382.170244
 30
0.0
  0
LWPOLYLINE
  5
235
100
AcDbEntity
  8
Layer_1
 62
7
100
AcDbPolyline
 90
2
 70
1
 10
439.317384
 20
344.171884
 30
0.0
 10
439.317384
 20
344.171932
 30
0.0
  0
SPLINE
  5
236
100
AcDbEntity
  8
Layer_1
 62
7
100
AcDbSpline
 70
8
 71
3
 72
8
 73
4
 74
0
 40
0
 40
0
 40
0
 40
0
 40
1
 40
1
 40
1
 40
1
 10
187.107464
 20
419.459260
 30
0.0
 10
177.045304
 20
426.748276
 30
0.0
 10
174.386264
 20
438.905332
 30
0.0
 10
179.767304
 20
453.018364
 30
0.0
  0
SPLINE
  5
237
100
AcDbEntity
  8
Layer_1
 62
7
100
AcDbSpline
 70
8
 71
3
 72
8
 73
4
 74
0
 40
0
 40
0
 40
0
 40
0
 40
1
 40
1
 40
1
 40
1
 10
179.767304
 20
453.018364
 30
0.0
 10
185.173384
 20
467.196996
 30
0.0
 10
186.142904
 20
475.305732
 30
0.0
 10
184.559064
 20
493.094372
 30
0.0
  0
SPLINE
  5
238
100
AcDbEntity
  8
Layer_1
 62
7
100
AcDbSpline
 70
8
 71
3
 72
8
 73
4
 74
0
 40
0
 40
0
 40
0
 40
0
 40
1
 40
1
 40
1
 40
1
 10
184.559064
 20
493.094372
 30
0.0
 10
183.207384
 20
508.275524
 30
0.0
 10
186.463864
 20
521.540540
 30
0.0
 10
194.842744
 20
534.983940
 30
0.0
  0
SPLINE
  5
239
100
AcDbEntity
  8
Layer_1
 62
7
100
AcDbSpline
 70
8
 71
3
 72
8
 73
4
 74
0
 40
0
 40
0
 40
0
 40
0
 40
1
 40
1
 40
1
 40
1
 10
194.842744
 20
534.983940
 30
0.0
 10
202.790344
 20
547.735260
 30
0.0
 10
210.021704
 20
567.879500
 30
0.0
 10
212.799384
 20
585.005332
 30
0.0
  0
SPLINE
  5
23a
100
AcDbEntity
  8
Layer_1
 62
7
100
AcDbSpline
 70
8
 71
3
 72
8
 73
4
 74
0
 40
0
 40
0
 40
0
 40
0
 40
1
 40
1
 40
1
 40
1
 10
212.799384
 20
585.005332
 30
0.0
 10
214.790984
 20
597.284028
 30
0.0
 10
214.589384
 20
617.858484
 30
0.0
 10
212.372264
 20
628.602148
 30
0.0
  0
SPLINE
  5
23b
100
AcDbEntity
  8
Layer_1
 62
7
100
AcDbSpline
 70
8
 71
3
 72
8
 73
4
 74
0
 40
0
 40
0
 40
0
 40
0
 40
1
 40
1
 40
1
 40
1
 10
212.372264
 20
628.602148
 30
0.0
 10
210.179464
 20
639.227684
 30
0.0
 10
206.854904
 20
645.554156
 30
0.0
 10
200.330184
 20
651.517348
 30
0.0
  0
SPLINE
  5
23c
100
AcDbEntity
  8
Layer_1
 62
7
100
AcDbSpline
 70
8
 71
3
 72
8
 73
4
 74
0
 40
0
 40
0
 40
0
 40
0
 40
1
 40
1
 40
1
 40
1
 10
200.330184
 20
651.517348
 30
0.0
 10
190.062984
 20
660.901028
 30
0.0
 10
176.645784
 20
662.025980
 30
0.0
 10
160.257144
 20
654.877252
 30
0.0
  0
SPLINE
  5
23d
100
AcDbEntity
  8
Layer_1
 62
7
100
AcDbSpline
 70
8
 71
3
 72
8
 73
4
 74
0
 40
0
 40
0
 40
0
 40
0
 40
1
 40
1
 40
1
 40
1
 10
160.257144
 20
654.877252
 30
0.0
 10
158.828184
 20
654.253924
 30
0.0
 10
158.761224
 20
654.559996
 30
0.0
 10
159.618264
 20
657.797276
 30
0.0
  0
SPLINE
  5
23e
100
AcDbEntity
  8
Layer_1
 62
7
100
AcDbSpline
 70
8
 71
3
 72
8
 73
4
 74
0
 40
0
 40
0
 40
0
 40
0
 40
1
 40
1
 40
1
 40
1
 10
159.618264
 20
657.797276
 30
0.0
 10
161.408904
 20
664.560492
 30
0.0
 10
168.824184
 20
678.576884
 30
0.0
 10
174.144344
 20
685.254436
 30
0.0
  0
SPLINE
  5
23f
100
AcDbEntity
  8
Layer_1
 62
7
100
AcDbSpline
 70
8
 71
3
 72
8
 73
4
 74
0
 40
0
 40
0
 40
0
 40
0
 40
1
 40
1
 40
1
 40
1
 10
174.144344
 20
685.254436
 30
0.0
 10
184.742984
 20
698.557172
 30
0.0
 10
200.637944
 20
708.457956
 30
0.0
 10
219.374344
 20
713.427748
 30
0.0
  0
SPLINE
  5
240
100
AcDbEntity
  8
Layer_1
 62
7
100
AcDbSpline
 70
8
 71
3
 72
8
 73
4
 74
0
 40
0
 40
0
 40
0
 40
0
 40
1
 40
1
 40
1
 40
1
 10
219.374344
 20
713.427748
 30
0.0
 10
227.351944
 20
715.543788
 30
0.0
 10
230.764264
 20
715.929332
 30
0.0
 10
241.534024
 20
715.931508
 30
0.0
  0
SPLINE
  5
241
100
AcDbEntity
  8
Layer_1
 62
7
100
AcDbSpline
 70
8
 71
3
 72
8
 73
4
 74
0
 40
0
 40
0
 40
0
 40
0
 40
1
 40
1
 40
1
 40
1
 10
241.534024
 20
715.931508
 30
0.0
 10
259.686264
 20
715.935508
 30
0.0
 10
273.165144
 20
712.486980
 30
0.0
 10
286.796344
 20
704.352444
 30
0.0
  0
SPLINE
  5
242
100
AcDbEntity
  8
Layer_1
 62
7
100
AcDbSpline
 70
8
 71
3
 72
8
 73
4
 74
0
 40
0
 40
0
 40
0
 40
0
 40
1
 40
1
 40
1
 40
1
 10
286.796344
 20
704.352444
 30
0.0
 10
300.511704
 20
696.167660
 30
0.0
 10
307.664344
 20
687.622004
 30
0.0
 10
318.789224
 20
666.128436
 30
0.0
  0
SPLINE
  5
243
100
AcDbEntity
  8
Layer_1
 62
7
100
AcDbSpline
 70
8
 71
3
 72
8
 73
4
 74
0
 40
0
 40
0
 40
0
 40
0
 40
1
 40
1
 40
1
 40
1
 10
318.789224
 20
666.128436
 30
0.0
 10
327.260104
 20
649.762620
 30
0.0
 10
336.182104
 20
636.193588
 30
0.0
 10
341.996024
 20
630.834564
 30
0.0
  0
LWPOLYLINE
  5
244
100
AcDbEntity
  8
Layer_1
 62
7
100
AcDbPolyline
 90
3
 70
1
 10
484.897464
 20
382.170244
 30
0.0
 10
481.866424
 20
381.564036
 30
0.0
 10
484.757144
 20
386.122228
 30
0.0
  0
SPLINE
  5
245
100
AcDbEntity
  8
Layer_1
 62
7
100
AcDbSpline
 70
8
 71
3
 72
8
 73
4
 74
0
 40
0
 40
0
 40
0
 40
0
 40
1
 40
1
 40
1
 40
1
 10
340.420584
 20
627.373452
 30
0.0
 10
323.051944
 20
629.171340
 30
0.0
 10
303.711544
 20
622.472084
 30
0.0
 10
290.764504
 20
610.173220
 30
0.0
  0
SPLINE
  5
246
100
AcDbEntity
  8
Layer_1
 62
7
100
AcDbSpline
 70
8
 71
3
 72
8
 73
4
 74
0
 40
0
 40
0
 40
0
 40
0
 40
1
 40
1
 40
1
 40
1
 10
290.764504
 20
610.173220
 30
0.0
 10
287.804104
 20
607.360988
 30
0.0
 10
282.884264
 20
603.780700
 30
0.0
 10
279.831544
 20
602.217020
 30
0.0
  0
SPLINE
  5
247
100
AcDbEntity
  8
Layer_1
 62
7
100
AcDbSpline
 70
8
 71
3
 72
8
 73
4
 74
0
 40
0
 40
0
 40
0
 40
0
 40
1
 40
1
 40
1
 40
1
 10
279.831544
 20
602.217020
 30
0.0
 10
272.357064
 20
598.388388
 30
0.0
 10
262.330824
 20
588.763876
 30
0.0
 10
258.678584
 20
581.911548
 30
0.0
  0
SPLINE
  5
248
100
AcDbEntity
  8
Layer_1
 62
7
100
AcDbSpline
 70
8
 71
3
 72
8
 73
4
 74
0
 40
0
 40
0
 40
0
 40
0
 40
1
 40
1
 40
1
 40
1
 10
258.678584
 20
581.911548
 30
0.0
 10
255.111704
 20
575.219300
 30
0.0
 10
252.852264
 20
566.951788
 30
0.0
 10
252.841864
 20
560.553988
 30
0.0
  0
SPLINE
  5
249
100
AcDbEntity
  8
Layer_1
 62
7
100
AcDbSpline
 70
8
 71
3
 72
8
 73
4
 74
0
 40
0
 40
0
 40
0
 40
0
 40
1
 40
1
 40
1
 40
1
 10
252.841864
 20
560.553988
 30
0.0
 10
252.833864
 20
555.892356
 30
0.0
 10
252.728824
 20
555.717556
 30
0.0
 10
247.322424
 20
551.406892
 30
0.0
  0
SPLINE
  5
24a
100
AcDbEntity
  8
Layer_1
 62
7
100
AcDbSpline
 70
8
 71
3
 72
8
 73
4
 74
0
 40
0
 40
0
 40
0
 40
0
 40
1
 40
1
 40
1
 40
1
 10
247.322424
 20
551.406892
 30
0.0
 10
236.803544
 20
543.019916
 30
0.0
 10
228.025864
 20
528.930588
 30
0.0
 10
224.408984
 20
514.627804
 30
0.0
  0
SPLINE
  5
24b
100
AcDbEntity
  8
Layer_1
 62
7
100
AcDbSpline
 70
8
 71
3
 72
8
 73
4
 74
0
 40
0
 40
0
 40
0
 40
0
 40
1
 40
1
 40
1
 40
1
 10
224.408984
 20
514.627804
 30
0.0
 10
222.756344
 20
508.092444
 30
0.0
 10
222.517304
 20
505.037964
 30
0.0
 10
222.947144
 20
495.947068
 30
0.0
  0
SPLINE
  5
24c
100
AcDbEntity
  8
Layer_1
 62
7
100
AcDbSpline
 70
8
 71
3
 72
8
 73
4
 74
0
 40
0
 40
0
 40
0
 40
0
 40
1
 40
1
 40
1
 40
1
 10
222.947144
 20
495.947068
 30
0.0
 10
223.229704
 20
489.969724
 30
0.0
 10
224.061064
 20
482.887908
 30
0.0
 10
224.794584
 20
480.209692
 30
0.0
  0
SPLINE
  5
24d
100
AcDbEntity
  8
Layer_1
 62
7
100
AcDbSpline
 70
8
 71
3
 72
8
 73
4
 74
0
 40
0
 40
0
 40
0
 40
0
 40
1
 40
1
 40
1
 40
1
 10
224.794584
 20
480.209692
 30
0.0
 10
225.899384
 20
476.175908
 30
0.0
 10
225.916984
 20
474.962180
 30
0.0
 10
224.897224
 20
473.137452
 30
0.0
  0
SPLINE
  5
24e
100
AcDbEntity
  8
Layer_1
 62
7
100
AcDbSpline
 70
8
 71
3
 72
8
 73
4
 74
0
 40
0
 40
0
 40
0
 40
0
 40
1
 40
1
 40
1
 40
1
 10
224.897224
 20
473.137452
 30
0.0
 10
221.549784
 20
467.147852
 30
0.0
 10
217.747864
 20
455.232548
 30
0.0
 10
216.481304
 20
446.762052
 30
0.0
  0
SPLINE
  5
24f
100
AcDbEntity
  8
Layer_1
 62
7
100
AcDbSpline
 70
8
 71
3
 72
8
 73
4
 74
0
 40
0
 40
0
 40
0
 40
0
 40
1
 40
1
 40
1
 40
1
 10
216.481304
 20
446.762052
 30
0.0
 10
213.432904
 20
426.374244
 30
0.0
 10
206.538584
 20
416.714212
 30
0.0
 10
195.036344
 20
416.714212
 30
0.0
  0
SPLINE
  5
250
100
AcDbEntity
  8
Layer_1
 62
7
100
AcDbSpline
 70
8
 71
3
 72
8
 73
4
 74
0
 40
0
 40
0
 40
0
 40
0
 40
1
 40
1
 40
1
 40
1
 10
195.036344
 20
416.714212
 30
0.0
 10
191.961544
 20
416.714212
 30
0.0
 10
189.922264
 20
417.420212
 30
0.0
 10
187.107464
 20
419.459260
 30
0.0
  0
LWPOLYLINE
  5
251
100
AcDbEntity
  8
Layer_1
 62
7
100
AcDbPolyline
 90
3
 70
1
 10
341.996024
 20
630.834564
 30
0.0
 10
346.425144
 20
626.751908
 30
0.0
 10
340.420584
 20
627.373452
 30
0.0
  0
SPLINE
  5
252
100
AcDbEntity
  8
Layer_1
 62
7
100
AcDbSpline
 70
8
 71
3
 72
8
 73
4
 74
0
 40
0
 40
0
 40
0
 40
0
 40
1
 40
1
 40
1
 40
1
 10
108.101488
 20
420.499716
 30
0.0
 10
107.712320
 20
422.271596
 30
0.0
 10
105.633136
 20
425.364460
 30
0.0
 10
103.186208
 20
427.811388
 30
0.0
  0
SPLINE
  5
253
100
AcDbEntity
  8
Layer_1
 62
7
100
AcDbSpline
 70
8
 71
3
 72
8
 73
4
 74
0
 40
0
 40
0
 40
0
 40
0
 40
1
 40
1
 40
1
 40
1
 10
103.186208
 20
427.811388
 30
0.0
 10
98.263288
 20
432.734308
 30
0.0
 10
96.317424
 20
436.803180
 30
0.0
 10
96.317424
 20
442.174268
 30
0.0
  0
SPLINE
  5
254
100
AcDbEntity
  8
Layer_1
 62
7
100
AcDbSpline
 70
8
 71
3
 72
8
 73
4
 74
0
 40
0
 40
0
 40
0
 40
0
 40
1
 40
1
 40
1
 40
1
 10
96.317424
 20
442.174268
 30
0.0
 10
96.317424
 20
447.965788
 30
0.0
 10
98.507240
 20
452.272636
 30
0.0
 10
102.394416
 20
454.126300
 30
0.0
  0
SPLINE
  5
255
100
AcDbEntity
  8
Layer_1
 62
7
100
AcDbSpline
 70
8
 71
3
 72
8
 73
4
 74
0
 40
0
 40
0
 40
0
 40
0
 40
1
 40
1
 40
1
 40
1
 10
102.394416
 20
454.126300
 30
0.0
 10
105.589064
 20
455.649724
 30
0.0
 10
105.956424
 20
455.638044
 30
0.0
 10
110.203448
 20
453.877900
 30
0.0
  0
SPLINE
  5
256
100
AcDbEntity
  8
Layer_1
 62
7
100
AcDbSpline
 70
8
 71
3
 72
8
 73
4
 74
0
 40
0
 40
0
 40
0
 40
0
 40
1
 40
1
 40
1
 40
1
 10
110.203448
 20
453.877900
 30
0.0
 10
119.632760
 20
449.970020
 30
0.0
 10
121.764376
 20
440.553004
 30
0.0
 10
115.533320
 20
430.331732
 30
0.0
  0
SPLINE
  5
257
100
AcDbEntity
  8
Layer_1
 62
7
100
AcDbSpline
 70
8
 71
3
 72
8
 73
4
 74
0
 40
0
 40
0
 40
0
 40
0
 40
1
 40
1
 40
1
 40
1
 10
115.533320
 20
430.331732
 30
0.0
 10
113.654920
 20
427.250460
 30
0.0
 10
111.366088
 20
423.086788
 30
0.0
 10
110.447008
 20
421.079132
 30
0.0
  0
LWPOLYLINE
  5
258
100
AcDbEntity
  8
Layer_1
 62
7
100
AcDbPolyline
 90
2
 70
1
 10
187.107464
 20
419.459260
 30
0.0
 10
187.107464
 20
419.459260
 30
0.0
  0
SPLINE
  5
259
100
AcDbEntity
  8
Layer_1
 62
7
100
AcDbSpline
 70
8
 71
3
 72
8
 73
4
 74
0
 40
0
 40
0
 40
0
 40
0
 40
1
 40
1
 40
1
 40
1
 10
75.401367
 20
427.018804
 30
0.0
 10
72.173519
 20
429.557828
 30
0.0
 10
68.965807
 20
436.230052
 30
0.0
 10
68.992151
 20
440.350308
 30
0.0
  0
SPLINE
  5
25a
100
AcDbEntity
  8
Layer_1
 62
7
100
AcDbSpline
 70
8
 71
3
 72
8
 73
4
 74
0
 40
0
 40
0
 40
0
 40
0
 40
1
 40
1
 40
1
 40
1
 10
68.992151
 20
440.350308
 30
0.0
 10
69.033831
 20
446.864548
 30
0.0
 10
75.488431
 20
456.610908
 30
0.0
 10
82.721272
 20
461.081052
 30
0.0
  0
SPLINE
  5
25b
100
AcDbEntity
  8
Layer_1
 62
7
100
AcDbSpline
 70
8
 71
3
 72
8
 73
4
 74
0
 40
0
 40
0
 40
0
 40
0
 40
1
 40
1
 40
1
 40
1
 10
82.721272
 20
461.081052
 30
0.0
 10
88.973736
 20
464.945284
 30
0.0
 10
93.493584
 20
460.164564
 30
0.0
 10
93.464296
 20
449.717988
 30
0.0
  0
SPLINE
  5
25c
100
AcDbEntity
  8
Layer_1
 62
7
100
AcDbSpline
 70
8
 71
3
 72
8
 73
4
 74
0
 40
0
 40
0
 40
0
 40
0
 40
1
 40
1
 40
1
 40
1
 10
93.464296
 20
449.717988
 30
0.0
 10
93.438536
 20
440.518020
 30
0.0
 10
91.190648
 20
436.326060
 30
0.0
 10
84.615056
 20
433.215308
 30
0.0
  0
SPLINE
  5
25d
100
AcDbEntity
  8
Layer_1
 62
7
100
AcDbSpline
 70
8
 71
3
 72
8
 73
4
 74
0
 40
0
 40
0
 40
0
 40
0
 40
1
 40
1
 40
1
 40
1
 10
84.615056
 20
433.215308
 30
0.0
 10
80.470248
 20
431.254492
 30
0.0
 10
79.210303
 20
430.134428
 30
0.0
 10
78.629903
 20
427.894588
 30
0.0
  0
LWPOLYLINE
  5
25e
100
AcDbEntity
  8
Layer_1
 62
7
100
AcDbPolyline
 90
3
 70
1
 10
110.447008
 20
421.079132
 30
0.0
 10
108.775968
 20
417.428836
 30
0.0
 10
108.101488
 20
420.499716
 30
0.0
  0
SPLINE
  5
25f
100
AcDbEntity
  8
Layer_1
 62
7
100
AcDbSpline
 70
8
 71
3
 72
8
 73
4
 74
0
 40
0
 40
0
 40
0
 40
0
 40
1
 40
1
 40
1
 40
1
 10
139.693816
 20
426.358964
 30
0.0
 10
139.693816
 20
428.559764
 30
0.0
 10
135.993200
 20
431.801652
 30
0.0
 10
133.480984
 20
431.801652
 30
0.0
  0
SPLINE
  5
260
100
AcDbEntity
  8
Layer_1
 62
7
100
AcDbSpline
 70
8
 71
3
 72
8
 73
4
 74
0
 40
0
 40
0
 40
0
 40
0
 40
1
 40
1
 40
1
 40
1
 10
133.480984
 20
431.801652
 30
0.0
 10
126.186312
 20
431.801652
 30
0.0
 10
121.670536
 20
438.484260
 30
0.0
 10
121.055440
 20
450.189468
 30
0.0
  0
SPLINE
  5
261
100
AcDbEntity
  8
Layer_1
 62
7
100
AcDbSpline
 70
8
 71
3
 72
8
 73
4
 74
0
 40
0
 40
0
 40
0
 40
0
 40
1
 40
1
 40
1
 40
1
 10
121.055440
 20
450.189468
 30
0.0
 10
120.702488
 20
456.906084
 30
0.0
 10
120.879448
 20
457.965804
 30
0.0
 10
122.669432
 20
459.854860
 30
0.0
  0
SPLINE
  5
262
100
AcDbEntity
  8
Layer_1
 62
7
100
AcDbSpline
 70
8
 71
3
 72
8
 73
4
 74
0
 40
0
 40
0
 40
0
 40
0
 40
1
 40
1
 40
1
 40
1
 10
122.669432
 20
459.854860
 30
0.0
 10
126.203360
 20
463.584356
 30
0.0
 10
131.167048
 20
462.080340
 30
0.0
 10
137.138480
 20
455.470676
 30
0.0
  0
SPLINE
  5
263
100
AcDbEntity
  8
Layer_1
 62
7
100
AcDbSpline
 70
8
 71
3
 72
8
 73
4
 74
0
 40
0
 40
0
 40
0
 40
0
 40
1
 40
1
 40
1
 40
1
 10
137.138480
 20
455.470676
 30
0.0
 10
145.087584
 20
446.671972
 30
0.0
 10
147.862800
 20
435.804156
 30
0.0
 10
143.895288
 20
429.010852
 30
0.0
  0
SPLINE
  5
264
100
AcDbEntity
  8
Layer_1
 62
7
100
AcDbSpline
 70
8
 71
3
 72
8
 73
4
 74
0
 40
0
 40
0
 40
0
 40
0
 40
1
 40
1
 40
1
 40
1
 10
143.895288
 20
429.010852
 30
0.0
 10
141.902024
 20
425.597900
 30
0.0
 10
139.693816
 20
424.204124
 30
0.0
 10
139.693816
 20
426.358964
 30
0.0
  0
LWPOLYLINE
  5
265
100
AcDbEntity
  8
Layer_1
 62
7
100
AcDbPolyline
 90
3
 70
1
 10
78.629903
 20
427.894588
 30
0.0
 10
77.894743
 20
425.057508
 30
0.0
 10
75.401367
 20
427.018804
 30
0.0
  0
SPLINE
  5
266
100
AcDbEntity
  8
Layer_1
 62
7
100
AcDbSpline
 70
8
 71
3
 72
8
 73
4
 74
0
 40
0
 40
0
 40
0
 40
0
 40
1
 40
1
 40
1
 40
1
 10
94.431496
 20
460.288596
 30
0.0
 10
93.134920
 20
462.354484
 30
0.0
 10
90.801080
 20
464.694212
 30
0.0
 10
89.245192
 20
465.487980
 30
0.0
  0
SPLINE
  5
267
100
AcDbEntity
  8
Layer_1
 62
7
100
AcDbSpline
 70
8
 71
3
 72
8
 73
4
 74
0
 40
0
 40
0
 40
0
 40
0
 40
1
 40
1
 40
1
 40
1
 10
89.245192
 20
465.487980
 30
0.0
 10
87.689296
 20
466.281748
 30
0.0
 10
86.282432
 20
467.046468
 30
0.0
 10
86.118816
 20
467.187340
 30
0.0
  0
SPLINE
  5
268
100
AcDbEntity
  8
Layer_1
 62
7
100
AcDbSpline
 70
8
 71
3
 72
8
 73
4
 74
0
 40
0
 40
0
 40
0
 40
0
 40
1
 40
1
 40
1
 40
1
 10
86.118816
 20
467.187340
 30
0.0
 10
85.219008
 20
467.962092
 30
0.0
 10
92.049040
 20
479.191900
 30
0.0
 10
95.628104
 20
482.822316
 30
0.0
  0
SPLINE
  5
269
100
AcDbEntity
  8
Layer_1
 62
7
100
AcDbSpline
 70
8
 71
3
 72
8
 73
4
 74
0
 40
0
 40
0
 40
0
 40
0
 40
1
 40
1
 40
1
 40
1
 10
95.628104
 20
482.822316
 30
0.0
 10
103.293176
 20
490.597372
 30
0.0
 10
105.309552
 20
502.203044
 30
0.0
 10
101.625600
 20
517.342092
 30
0.0
  0
SPLINE
  5
26a
100
AcDbEntity
  8
Layer_1
 62
7
100
AcDbSpline
 70
8
 71
3
 72
8
 73
4
 74
0
 40
0
 40
0
 40
0
 40
0
 40
1
 40
1
 40
1
 40
1
 10
101.625600
 20
517.342092
 30
0.0
 10
98.558168
 20
529.947588
 30
0.0
 10
97.685072
 20
540.276044
 30
0.0
 10
99.107664
 20
547.128620
 30
0.0
  0
SPLINE
  5
26b
100
AcDbEntity
  8
Layer_1
 62
7
100
AcDbSpline
 70
8
 71
3
 72
8
 73
4
 74
0
 40
0
 40
0
 40
0
 40
0
 40
1
 40
1
 40
1
 40
1
 10
99.107664
 20
547.128620
 30
0.0
 10
99.721096
 20
550.083524
 30
0.0
 10
100.563016
 20
552.501164
 30
0.0
 10
100.978592
 20
552.501164
 30
0.0
  0
SPLINE
  5
26c
100
AcDbEntity
  8
Layer_1
 62
7
100
AcDbSpline
 70
8
 71
3
 72
8
 73
4
 74
0
 40
0
 40
0
 40
0
 40
0
 40
1
 40
1
 40
1
 40
1
 10
100.978592
 20
552.501164
 30
0.0
 10
101.394160
 20
552.501164
 30
0.0
 10
102.011200
 20
550.768756
 30
0.0
 10
102.349784
 20
548.651380
 30
0.0
  0
SPLINE
  5
26d
100
AcDbEntity
  8
Layer_1
 62
7
100
AcDbSpline
 70
8
 71
3
 72
8
 73
4
 74
0
 40
0
 40
0
 40
0
 40
0
 40
1
 40
1
 40
1
 40
1
 10
102.349784
 20
548.651380
 30
0.0
 10
103.170248
 20
543.520468
 30
0.0
 10
106.975136
 20
536.182156
 30
0.0
 10
110.082264
 20
533.738084
 30
0.0
  0
SPLINE
  5
26e
100
AcDbEntity
  8
Layer_1
 62
7
100
AcDbSpline
 70
8
 71
3
 72
8
 73
4
 74
0
 40
0
 40
0
 40
0
 40
0
 40
1
 40
1
 40
1
 40
1
 10
110.082264
 20
533.738084
 30
0.0
 10
113.899504
 20
530.735444
 30
0.0
 10
119.293176
 20
529.589652
 30
0.0
 10
124.441584
 20
530.687700
 30
0.0
  0
SPLINE
  5
26f
100
AcDbEntity
  8
Layer_1
 62
7
100
AcDbSpline
 70
8
 71
3
 72
8
 73
4
 74
0
 40
0
 40
0
 40
0
 40
0
 40
1
 40
1
 40
1
 40
1
 10
124.441584
 20
530.687700
 30
0.0
 10
126.852864
 20
531.201980
 30
0.0
 10
129.010160
 20
531.438332
 30
0.0
 10
129.235552
 20
531.212940
 30
0.0
  0
SPLINE
  5
270
100
AcDbEntity
  8
Layer_1
 62
7
100
AcDbSpline
 70
8
 71
3
 72
8
 73
4
 74
0
 40
0
 40
0
 40
0
 40
0
 40
1
 40
1
 40
1
 40
1
 10
129.235552
 20
531.212940
 30
0.0
 10
130.107624
 20
530.340868
 30
0.0
 10
127.259024
 20
518.268276
 30
0.0
 10
123.659960
 20
507.583140
 30
0.0
  0
SPLINE
  5
271
100
AcDbEntity
  8
Layer_1
 62
7
100
AcDbSpline
 70
8
 71
3
 72
8
 73
4
 74
0
 40
0
 40
0
 40
0
 40
0
 40
1
 40
1
 40
1
 40
1
 10
123.659960
 20
507.583140
 30
0.0
 10
118.669568
 20
492.767340
 30
0.0
 10
118.580736
 20
487.421652
 30
0.0
 10
123.174288
 20
478.356196
 30
0.0
  0
SPLINE
  5
272
100
AcDbEntity
  8
Layer_1
 62
7
100
AcDbSpline
 70
8
 71
3
 72
8
 73
4
 74
0
 40
0
 40
0
 40
0
 40
0
 40
1
 40
1
 40
1
 40
1
 10
123.174288
 20
478.356196
 30
0.0
 10
127.289792
 20
470.234196
 30
0.0
 10
127.474968
 20
467.141044
 30
0.0
 10
123.899152
 20
466.248628
 30
0.0
  0
SPLINE
  5
273
100
AcDbEntity
  8
Layer_1
 62
7
100
AcDbSpline
 70
8
 71
3
 72
8
 73
4
 74
0
 40
0
 40
0
 40
0
 40
0
 40
1
 40
1
 40
1
 40
1
 10
123.899152
 20
466.248628
 30
0.0
 10
120.231472
 20
465.333284
 30
0.0
 10
118.134984
 20
463.153516
 30
0.0
 10
117.459568
 20
459.553268
 30
0.0
  0
LWPOLYLINE
  5
274
100
AcDbEntity
  8
Layer_1
 62
7
100
AcDbPolyline
 90
2
 70
1
 10
139.693816
 20
426.358964
 30
0.0
 10
139.693816
 20
426.358964
 30
0.0
  0
SPLINE
  5
275
100
AcDbEntity
  8
Layer_1
 62
7
100
AcDbSpline
 70
8
 71
3
 72
8
 73
4
 74
0
 40
0
 40
0
 40
0
 40
0
 40
1
 40
1
 40
1
 40
1
 10
112.969280
 20
458.482588
 30
0.0
 10
108.007440
 20
461.068852
 30
0.0
 10
103.191816
 20
461.084412
 30
0.0
 10
99.592856
 20
458.525788
 30
0.0
  0
LWPOLYLINE
  5
276
100
AcDbEntity
  8
Layer_1
 62
7
100
AcDbPolyline
 90
3
 70
1
 10
117.459568
 20
459.553268
 30
0.0
 10
116.876640
 20
456.445964
 30
0.0
 10
112.969280
 20
458.482588
 30
0.0
  0
SPLINE
  5
277
100
AcDbEntity
  8
Layer_1
 62
7
100
AcDbSpline
 70
8
 71
3
 72
8
 73
4
 74
0
 40
0
 40
0
 40
0
 40
0
 40
1
 40
1
 40
1
 40
1
 10
426.781384
 20
499.473820
 30
0.0
 10
426.237864
 20
499.854852
 30
0.0
 10
424.682664
 20
502.076116
 30
0.0
 10
423.325384
 20
504.409948
 30
0.0
  0
SPLINE
  5
278
100
AcDbEntity
  8
Layer_1
 62
7
100
AcDbSpline
 70
8
 71
3
 72
8
 73
4
 74
0
 40
0
 40
0
 40
0
 40
0
 40
1
 40
1
 40
1
 40
1
 10
423.325384
 20
504.409948
 30
0.0
 10
418.979144
 20
511.883308
 30
0.0
 10
414.327464
 20
516.436676
 30
0.0
 10
407.711864
 20
519.693524
 30
0.0
  0
SPLINE
  5
279
100
AcDbEntity
  8
Layer_1
 62
7
100
AcDbSpline
 70
8
 71
3
 72
8
 73
4
 74
0
 40
0
 40
0
 40
0
 40
0
 40
1
 40
1
 40
1
 40
1
 10
407.711864
 20
519.693524
 30
0.0
 10
399.498264
 20
523.737052
 30
0.0
 10
392.607464
 20
523.838436
 30
0.0
 10
381.092824
 20
520.085148
 30
0.0
  0
SPLINE
  5
27a
100
AcDbEntity
  8
Layer_1
 62
7
100
AcDbSpline
 70
8
 71
3
 72
8
 73
4
 74
0
 40
0
 40
0
 40
0
 40
0
 40
1
 40
1
 40
1
 40
1
 10
381.092824
 20
520.085148
 30
0.0
 10
368.452264
 20
515.964852
 30
0.0
 10
357.058104
 20
513.835156
 30
0.0
 10
344.312024
 20
513.210396
 30
0.0
  0
SPLINE
  5
27b
100
AcDbEntity
  8
Layer_1
 62
7
100
AcDbSpline
 70
8
 71
3
 72
8
 73
4
 74
0
 40
0
 40
0
 40
0
 40
0
 40
1
 40
1
 40
1
 40
1
 10
344.312024
 20
513.210396
 30
0.0
 10
319.810184
 20
512.009412
 30
0.0
 10
303.648904
 20
518.696108
 30
0.0
 10
294.610984
 20
533.774076
 30
0.0
  0
SPLINE
  5
27c
100
AcDbEntity
  8
Layer_1
 62
7
100
AcDbSpline
 70
8
 71
3
 72
8
 73
4
 74
0
 40
0
 40
0
 40
0
 40
0
 40
1
 40
1
 40
1
 40
1
 10
294.610984
 20
533.774076
 30
0.0
 10
282.814984
 20
553.453188
 30
0.0
 10
289.567624
 20
574.434940
 30
0.0
 10
312.593944
 20
589.651268
 30
0.0
  0
SPLINE
  5
27d
100
AcDbEntity
  8
Layer_1
 62
7
100
AcDbSpline
 70
8
 71
3
 72
8
 73
4
 74
0
 40
0
 40
0
 40
0
 40
0
 40
1
 40
1
 40
1
 40
1
 10
312.593944
 20
589.651268
 30
0.0
 10
324.023784
 20
597.204340
 30
0.0
 10
333.001624
 20
601.368092
 30
0.0
 10
333.001624
 20
599.115940
 30
0.0
  0
SPLINE
  5
27e
100
AcDbEntity
  8
Layer_1
 62
7
100
AcDbSpline
 70
8
 71
3
 72
8
 73
4
 74
0
 40
0
 40
0
 40
0
 40
0
 40
1
 40
1
 40
1
 40
1
 10
333.001624
 20
599.115940
 30
0.0
 10
333.001624
 20
597.533300
 30
0.0
 10
330.153544
 20
593.735052
 30
0.0
 10
324.408904
 20
587.656356
 30
0.0
  0
SPLINE
  5
27f
100
AcDbEntity
  8
Layer_1
 62
7
100
AcDbSpline
 70
8
 71
3
 72
8
 73
4
 74
0
 40
0
 40
0
 40
0
 40
0
 40
1
 40
1
 40
1
 40
1
 10
324.408904
 20
587.656356
 30
0.0
 10
315.230504
 20
577.944396
 30
0.0
 10
312.790024
 20
572.853108
 30
0.0
 10
312.755384
 20
563.345260
 30
0.0
  0
SPLINE
  5
280
100
AcDbEntity
  8
Layer_1
 62
7
100
AcDbSpline
 70
8
 71
3
 72
8
 73
4
 74
0
 40
0
 40
0
 40
0
 40
0
 40
1
 40
1
 40
1
 40
1
 10
312.755384
 20
563.345260
 30
0.0
 10
312.722584
 20
554.408724
 30
0.0
 10
314.685624
 20
549.589524
 30
0.0
 10
321.398984
 20
542.122580
 30
0.0
  0
SPLINE
  5
281
100
AcDbEntity
  8
Layer_1
 62
7
100
AcDbSpline
 70
8
 71
3
 72
8
 73
4
 74
0
 40
0
 40
0
 40
0
 40
0
 40
1
 40
1
 40
1
 40
1
 10
321.398984
 20
542.122580
 30
0.0
 10
334.186744
 20
527.899548
 30
0.0
 10
356.184904
 20
523.903380
 30
0.0
 10
383.921784
 20
530.764772
 30
0.0
  0
SPLINE
  5
282
100
AcDbEntity
  8
Layer_1
 62
7
100
AcDbSpline
 70
8
 71
3
 72
8
 73
4
 74
0
 40
0
 40
0
 40
0
 40
0
 40
1
 40
1
 40
1
 40
1
 10
383.921784
 20
530.764772
 30
0.0
 10
394.673144
 20
533.424404
 30
0.0
 10
399.106504
 20
533.813156
 30
0.0
 10
406.045064
 20
532.704708
 30
0.0
  0
SPLINE
  5
283
100
AcDbEntity
  8
Layer_1
 62
7
100
AcDbSpline
 70
8
 71
3
 72
8
 73
4
 74
0
 40
0
 40
0
 40
0
 40
0
 40
1
 40
1
 40
1
 40
1
 10
406.045064
 20
532.704708
 30
0.0
 10
418.704104
 20
530.682412
 30
0.0
 10
428.434984
 20
523.350580
 30
0.0
 10
433.959944
 20
511.671988
 30
0.0
  0
SPLINE
  5
284
100
AcDbEntity
  8
Layer_1
 62
7
100
AcDbSpline
 70
8
 71
3
 72
8
 73
4
 74
0
 40
0
 40
0
 40
0
 40
0
 40
1
 40
1
 40
1
 40
1
 10
433.959944
 20
511.671988
 30
0.0
 10
435.481384
 20
508.455820
 30
0.0
 10
436.726664
 20
505.331700
 30
0.0
 10
436.727064
 20
504.729516
 30
0.0
  0
SPLINE
  5
285
100
AcDbEntity
  8
Layer_1
 62
7
100
AcDbSpline
 70
8
 71
3
 72
8
 73
4
 74
0
 40
0
 40
0
 40
0
 40
0
 40
1
 40
1
 40
1
 40
1
 10
436.727064
 20
504.729516
 30
0.0
 10
436.727064
 20
503.182836
 30
0.0
 10
431.241224
 20
498.749268
 30
0.0
 10
429.347464
 20
498.766596
 30
0.0
  0
SPLINE
  5
286
100
AcDbEntity
  8
Layer_1
 62
7
100
AcDbSpline
 70
8
 71
3
 72
8
 73
4
 74
0
 40
0
 40
0
 40
0
 40
0
 40
1
 40
1
 40
1
 40
1
 10
429.347464
 20
498.766596
 30
0.0
 10
428.479624
 20
498.773796
 30
0.0
 10
427.324904
 20
499.092788
 30
0.0
 10
426.781384
 20
499.473820
 30
0.0
  0
LWPOLYLINE
  5
287
100
AcDbEntity
  8
Layer_1
 62
7
100
AcDbPolyline
 90
3
 70
1
 10
99.592856
 20
458.525788
 30
0.0
 10
96.788912
 20
456.532420
 30
0.0
 10
94.431496
 20
460.288596
 30
0.0
  0
SPLINE
  5
288
100
AcDbEntity
  8
Layer_1
 62
7
100
AcDbSpline
 70
8
 71
3
 72
8
 73
4
 74
0
 40
0
 40
0
 40
0
 40
0
 40
1
 40
1
 40
1
 40
1
 10
472.800744
 20
501.993892
 30
0.0
 10
471.117784
 20
502.751900
 30
0.0
 10
468.737304
 20
504.375524
 30
0.0
 10
467.510904
 20
505.601956
 30
0.0
  0
SPLINE
  5
289
100
AcDbEntity
  8
Layer_1
 62
7
100
AcDbSpline
 70
8
 71
3
 72
8
 73
4
 74
0
 40
0
 40
0
 40
0
 40
0
 40
1
 40
1
 40
1
 40
1
 10
467.510904
 20
505.601956
 30
0.0
 10
465.421944
 20
507.690892
 30
0.0
 10
465.333384
 20
508.214924
 30
0.0
 10
466.110104
 20
513.894180
 30
0.0
  0
SPLINE
  5
28a
100
AcDbEntity
  8
Layer_1
 62
7
100
AcDbSpline
 70
8
 71
3
 72
8
 73
4
 74
0
 40
0
 40
0
 40
0
 40
0
 40
1
 40
1
 40
1
 40
1
 10
466.110104
 20
513.894180
 30
0.0
 10
467.589064
 20
524.708636
 30
0.0
 10
464.522344
 20
538.712244
 30
0.0
 10
458.897544
 20
546.828764
 30
0.0
  0
SPLINE
  5
28b
100
AcDbEntity
  8
Layer_1
 62
7
100
AcDbSpline
 70
8
 71
3
 72
8
 73
4
 74
0
 40
0
 40
0
 40
0
 40
0
 40
1
 40
1
 40
1
 40
1
 10
458.897544
 20
546.828764
 30
0.0
 10
456.005784
 20
551.001588
 30
0.0
 10
449.967144
 20
555.515396
 30
0.0
 10
443.659064
 20
558.219356
 30
0.0
  0
SPLINE
  5
28c
100
AcDbEntity
  8
Layer_1
 62
7
100
AcDbSpline
 70
8
 71
3
 72
8
 73
4
 74
0
 40
0
 40
0
 40
0
 40
0
 40
1
 40
1
 40
1
 40
1
 10
443.659064
 20
558.219356
 30
0.0
 10
434.356184
 20
562.207052
 30
0.0
 10
428.475304
 20
563.046564
 30
0.0
 10
405.138424
 20
563.718364
 30
0.0
  0
SPLINE
  5
28d
100
AcDbEntity
  8
Layer_1
 62
7
100
AcDbSpline
 70
8
 71
3
 72
8
 73
4
 74
0
 40
0
 40
0
 40
0
 40
0
 40
1
 40
1
 40
1
 40
1
 10
405.138424
 20
563.718364
 30
0.0
 10
380.367384
 20
564.431444
 30
0.0
 10
376.874184
 20
565.174308
 30
0.0
 10
371.663224
 20
570.837276
 30
0.0
  0
SPLINE
  5
28e
100
AcDbEntity
  8
Layer_1
 62
7
100
AcDbSpline
 70
8
 71
3
 72
8
 73
4
 74
0
 40
0
 40
0
 40
0
 40
0
 40
1
 40
1
 40
1
 40
1
 10
371.663224
 20
570.837276
 30
0.0
 10
367.230024
 20
575.654940
 30
0.0
 10
369.344584
 20
584.868100
 30
0.0
 10
375.465304
 20
587.403396
 30
0.0
  0
SPLINE
  5
28f
100
AcDbEntity
  8
Layer_1
 62
7
100
AcDbSpline
 70
8
 71
3
 72
8
 73
4
 74
0
 40
0
 40
0
 40
0
 40
0
 40
1
 40
1
 40
1
 40
1
 10
375.465304
 20
587.403396
 30
0.0
 10
379.065784
 20
588.894740
 30
0.0
 10
383.476904
 20
588.020164
 30
0.0
 10
390.204904
 20
584.481020
 30
0.0
  0
SPLINE
  5
290
100
AcDbEntity
  8
Layer_1
 62
7
100
AcDbSpline
 70
8
 71
3
 72
8
 73
4
 74
0
 40
0
 40
0
 40
0
 40
0
 40
1
 40
1
 40
1
 40
1
 10
390.204904
 20
584.481020
 30
0.0
 10
393.166824
 20
582.922948
 30
0.0
 10
396.465624
 20
581.773348
 30
0.0
 10
397.535464
 20
581.926356
 30
0.0
  0
SPLINE
  5
291
100
AcDbEntity
  8
Layer_1
 62
7
100
AcDbSpline
 70
8
 71
3
 72
8
 73
4
 74
0
 40
0
 40
0
 40
0
 40
0
 40
1
 40
1
 40
1
 40
1
 10
397.535464
 20
581.926356
 30
0.0
 10
400.323864
 20
582.325156
 30
0.0
 10
400.526584
 20
586.551684
 30
0.0
 10
398.006984
 20
591.756604
 30
0.0
  0
SPLINE
  5
292
100
AcDbEntity
  8
Layer_1
 62
7
100
AcDbSpline
 70
8
 71
3
 72
8
 73
4
 74
0
 40
0
 40
0
 40
0
 40
0
 40
1
 40
1
 40
1
 40
1
 10
398.006984
 20
591.756604
 30
0.0
 10
395.584984
 20
596.759732
 30
0.0
 10
394.614024
 20
603.417868
 30
0.0
 10
395.956504
 20
605.816756
 30
0.0
  0
SPLINE
  5
293
100
AcDbEntity
  8
Layer_1
 62
7
100
AcDbSpline
 70
8
 71
3
 72
8
 73
4
 74
0
 40
0
 40
0
 40
0
 40
0
 40
1
 40
1
 40
1
 40
1
 10
395.956504
 20
605.816756
 30
0.0
 10
396.827224
 20
607.372620
 30
0.0
 10
396.978024
 20
607.340460
 30
0.0
 10
398.030184
 20
605.374556
 30
0.0
  0
SPLINE
  5
294
100
AcDbEntity
  8
Layer_1
 62
7
100
AcDbSpline
 70
8
 71
3
 72
8
 73
4
 74
0
 40
0
 40
0
 40
0
 40
0
 40
1
 40
1
 40
1
 40
1
 10
398.030184
 20
605.374556
 30
0.0
 10
399.839064
 20
601.994556
 30
0.0
 10
405.780664
 20
595.792748
 30
0.0
 10
409.376584
 20
593.531228
 30
0.0
  0
SPLINE
  5
295
100
AcDbEntity
  8
Layer_1
 62
7
100
AcDbSpline
 70
8
 71
3
 72
8
 73
4
 74
0
 40
0
 40
0
 40
0
 40
0
 40
1
 40
1
 40
1
 40
1
 10
409.376584
 20
593.531228
 30
0.0
 10
415.805144
 20
589.488132
 30
0.0
 10
419.484504
 20
588.805316
 30
0.0
 10
434.841864
 20
588.805316
 30
0.0
  0
SPLINE
  5
296
100
AcDbEntity
  8
Layer_1
 62
7
100
AcDbSpline
 70
8
 71
3
 72
8
 73
4
 74
0
 40
0
 40
0
 40
0
 40
0
 40
1
 40
1
 40
1
 40
1
 10
434.841864
 20
588.805316
 30
0.0
 10
448.850424
 20
588.805316
 30
0.0
 10
449.653704
 20
588.701196
 30
0.0
 10
454.172664
 20
586.300092
 30
0.0
  0
SPLINE
  5
297
100
AcDbEntity
  8
Layer_1
 62
7
100
AcDbSpline
 70
8
 71
3
 72
8
 73
4
 74
0
 40
0
 40
0
 40
0
 40
0
 40
1
 40
1
 40
1
 40
1
 10
454.172664
 20
586.300092
 30
0.0
 10
456.765784
 20
584.922212
 30
0.0
 10
460.082344
 20
582.535956
 30
0.0
 10
461.542824
 20
580.997284
 30
0.0
  0
LWPOLYLINE
  5
298
100
AcDbEntity
  8
Layer_1
 62
7
100
AcDbPolyline
 90
2
 70
1
 10
426.781384
 20
499.473820
 30
0.0
 10
426.781384
 20
499.473820
 30
0.0
  0
SPLINE
  5
299
100
AcDbEntity
  8
Layer_1
 62
7
100
AcDbSpline
 70
8
 71
3
 72
8
 73
4
 74
0
 40
0
 40
0
 40
0
 40
0
 40
1
 40
1
 40
1
 40
1
 10
460.443144
 20
578.298164
 30
0.0
 10
452.038664
 20
578.518540
 30
0.0
 10
449.887864
 20
570.096564
 30
0.0
 10
457.361624
 20
566.231740
 30
0.0
  0
SPLINE
  5
29a
100
AcDbEntity
  8
Layer_1
 62
7
100
AcDbSpline
 70
8
 71
3
 72
8
 73
4
 74
0
 40
0
 40
0
 40
0
 40
0
 40
1
 40
1
 40
1
 40
1
 10
457.361624
 20
566.231740
 30
0.0
 10
458.825544
 20
565.474740
 30
0.0
 10
464.089784
 20
564.024628
 30
0.0
 10
469.060024
 20
563.009284
 30
0.0
  0
SPLINE
  5
29b
100
AcDbEntity
  8
Layer_1
 62
7
100
AcDbSpline
 70
8
 71
3
 72
8
 73
4
 74
0
 40
0
 40
0
 40
0
 40
0
 40
1
 40
1
 40
1
 40
1
 10
469.060024
 20
563.009284
 30
0.0
 10
492.336264
 20
558.254260
 30
0.0
 10
505.941304
 20
542.835236
 30
0.0
 10
502.688504
 20
524.897140
 30
0.0
  0
SPLINE
  5
29c
100
AcDbEntity
  8
Layer_1
 62
7
100
AcDbSpline
 70
8
 71
3
 72
8
 73
4
 74
0
 40
0
 40
0
 40
0
 40
0
 40
1
 40
1
 40
1
 40
1
 10
502.688504
 20
524.897140
 30
0.0
 10
501.594104
 20
518.861788
 30
0.0
 10
496.886824
 20
508.697124
 30
0.0
 10
492.987864
 20
503.949932
 30
0.0
  0
SPLINE
  5
29d
100
AcDbEntity
  8
Layer_1
 62
7
100
AcDbSpline
 70
8
 71
3
 72
8
 73
4
 74
0
 40
0
 40
0
 40
0
 40
0
 40
1
 40
1
 40
1
 40
1
 10
492.987864
 20
503.949932
 30
0.0
 10
490.820904
 20
501.311516
 30
0.0
 10
490.203224
 20
501.116092
 30
0.0
 10
483.267304
 20
500.874108
 30
0.0
  0
SPLINE
  5
29e
100
AcDbEntity
  8
Layer_1
 62
7
100
AcDbSpline
 70
8
 71
3
 72
8
 73
4
 74
0
 40
0
 40
0
 40
0
 40
0
 40
1
 40
1
 40
1
 40
1
 10
483.267304
 20
500.874108
 30
0.0
 10
478.296984
 20
500.700692
 30
0.0
 10
474.854344
 20
501.069020
 30
0.0
 10
472.800744
 20
501.993892
 30
0.0
  0
LWPOLYLINE
  5
29f
100
AcDbEntity
  8
Layer_1
 62
7
100
AcDbPolyline
 90
3
 70
1
 10
461.542824
 20
580.997284
 30
0.0
 10
464.198104
 20
578.199700
 30
0.0
 10
460.443144
 20
578.298164
 30
0.0
  0
SPLINE
  5
2a0
100
AcDbEntity
  8
Layer_1
 62
7
100
AcDbSpline
 70
8
 71
3
 72
8
 73
4
 74
0
 40
0
 40
0
 40
0
 40
0
 40
1
 40
1
 40
1
 40
1
 10
445.246824
 20
502.883108
 30
0.0
 10
442.350904
 20
503.838900
 30
0.0
 10
441.934104
 20
504.447996
 30
0.0
 10
440.829624
 20
509.339148
 30
0.0
  0
SPLINE
  5
2a1
100
AcDbEntity
  8
Layer_1
 62
7
100
AcDbSpline
 70
8
 71
3
 72
8
 73
4
 74
0
 40
0
 40
0
 40
0
 40
0
 40
1
 40
1
 40
1
 40
1
 10
440.829624
 20
509.339148
 30
0.0
 10
437.483544
 20
524.157100
 30
0.0
 10
427.937224
 20
534.507844
 30
0.0
 10
414.332664
 20
538.069012
 30
0.0
  0
SPLINE
  5
2a2
100
AcDbEntity
  8
Layer_1
 62
7
100
AcDbSpline
 70
8
 71
3
 72
8
 73
4
 74
0
 40
0
 40
0
 40
0
 40
0
 40
1
 40
1
 40
1
 40
1
 10
414.332664
 20
538.069012
 30
0.0
 10
409.650504
 20
539.294596
 30
0.0
 10
406.791944
 20
539.329004
 30
0.0
 10
393.392984
 20
538.321060
 30
0.0
  0
SPLINE
  5
2a3
100
AcDbEntity
  8
Layer_1
 62
7
100
AcDbSpline
 70
8
 71
3
 72
8
 73
4
 74
0
 40
0
 40
0
 40
0
 40
0
 40
1
 40
1
 40
1
 40
1
 10
393.392984
 20
538.321060
 30
0.0
 10
360.811944
 20
535.870172
 30
0.0
 10
336.178664
 20
540.331372
 30
0.0
 10
328.787704
 20
550.021340
 30
0.0
  0
SPLINE
  5
2a4
100
AcDbEntity
  8
Layer_1
 62
7
100
AcDbSpline
 70
8
 71
3
 72
8
 73
4
 74
0
 40
0
 40
0
 40
0
 40
0
 40
1
 40
1
 40
1
 40
1
 10
328.787704
 20
550.021340
 30
0.0
 10
321.262584
 20
559.887284
 30
0.0
 10
324.531544
 20
575.713124
 30
0.0
 10
335.536024
 20
582.691980
 30
0.0
  0
SPLINE
  5
2a5
100
AcDbEntity
  8
Layer_1
 62
7
100
AcDbSpline
 70
8
 71
3
 72
8
 73
4
 74
0
 40
0
 40
0
 40
0
 40
0
 40
1
 40
1
 40
1
 40
1
 10
335.536024
 20
582.691980
 30
0.0
 10
343.648584
 20
587.836772
 30
0.0
 10
358.489144
 20
592.110892
 30
0.0
 10
368.210024
 20
592.102164
 30
0.0
  0
LWPOLYLINE
  5
2a6
100
AcDbEntity
  8
Layer_1
 62
7
100
AcDbPolyline
 90
2
 70
1
 10
472.800744
 20
501.993892
 30
0.0
 10
472.800744
 20
501.993892
 30
0.0
  0
SPLINE
  5
2a7
100
AcDbEntity
  8
Layer_1
 62
7
100
AcDbSpline
 70
8
 71
3
 72
8
 73
4
 74
0
 40
0
 40
0
 40
0
 40
0
 40
1
 40
1
 40
1
 40
1
 10
369.222184
 20
590.322124
 30
0.0
 10
363.276264
 20
586.696340
 30
0.0
 10
360.375544
 20
580.501668
 30
0.0
 10
361.731944
 20
574.326092
 30
0.0
  0
SPLINE
  5
2a8
100
AcDbEntity
  8
Layer_1
 62
7
100
AcDbSpline
 70
8
 71
3
 72
8
 73
4
 74
0
 40
0
 40
0
 40
0
 40
0
 40
1
 40
1
 40
1
 40
1
 10
361.731944
 20
574.326092
 30
0.0
 10
362.536264
 20
570.664020
 30
0.0
 10
369.035704
 20
563.288692
 30
0.0
 10
373.428264
 20
561.053540
 30
0.0
  0
SPLINE
  5
2a9
100
AcDbEntity
  8
Layer_1
 62
7
100
AcDbSpline
 70
8
 71
3
 72
8
 73
4
 74
0
 40
0
 40
0
 40
0
 40
0
 40
1
 40
1
 40
1
 40
1
 10
373.428264
 20
561.053540
 30
0.0
 10
379.872824
 20
557.774228
 30
0.0
 10
384.419944
 20
557.064116
 30
0.0
 10
404.195464
 20
556.248732
 30
0.0
  0
SPLINE
  5
2aa
100
AcDbEntity
  8
Layer_1
 62
7
100
AcDbSpline
 70
8
 71
3
 72
8
 73
4
 74
0
 40
0
 40
0
 40
0
 40
0
 40
1
 40
1
 40
1
 40
1
 10
404.195464
 20
556.248732
 30
0.0
 10
441.625944
 20
554.705420
 30
0.0
 10
452.240664
 20
549.675068
 30
0.0
 10
457.869704
 20
530.812500
 30
0.0
  0
SPLINE
  5
2ab
100
AcDbEntity
  8
Layer_1
 62
7
100
AcDbSpline
 70
8
 71
3
 72
8
 73
4
 74
0
 40
0
 40
0
 40
0
 40
0
 40
1
 40
1
 40
1
 40
1
 10
457.869704
 20
530.812500
 30
0.0
 10
459.710184
 20
524.645244
 30
0.0
 10
459.995064
 20
510.117260
 30
0.0
 10
458.327864
 20
507.447676
 30
0.0
  0
SPLINE
  5
2ac
100
AcDbEntity
  8
Layer_1
 62
7
100
AcDbSpline
 70
8
 71
3
 72
8
 73
4
 74
0
 40
0
 40
0
 40
0
 40
0
 40
1
 40
1
 40
1
 40
1
 10
458.327864
 20
507.447676
 30
0.0
 10
455.813384
 20
503.421388
 30
0.0
 10
449.884104
 20
501.352172
 30
0.0
 10
445.246824
 20
502.882644
 30
0.0
  0
LWPOLYLINE
  5
2ad
100
AcDbEntity
  8
Layer_1
 62
7
100
AcDbPolyline
 90
3
 70
1
 10
368.210024
 20
592.102164
 30
0.0
 10
372.134664
 20
592.098164
 30
0.0
 10
369.222184
 20
590.322124
 30
0.0
  0
SPLINE
  5
2ae
100
AcDbEntity
  8
Layer_1
 62
7
100
AcDbSpline
 70
8
 71
3
 72
8
 73
4
 74
0
 40
0
 40
0
 40
0
 40
0
 40
1
 40
1
 40
1
 40
1
 10
115.176528
 20
537.649468
 30
0.0
 10
113.467128
 20
538.816380
 30
0.0
 10
110.752288
 20
542.104972
 30
0.0
 10
109.143544
 20
544.957444
 30
0.0
  0
SPLINE
  5
2af
100
AcDbEntity
  8
Layer_1
 62
7
100
AcDbSpline
 70
8
 71
3
 72
8
 73
4
 74
0
 40
0
 40
0
 40
0
 40
0
 40
1
 40
1
 40
1
 40
1
 10
109.143544
 20
544.957444
 30
0.0
 10
106.585248
 20
549.493564
 30
0.0
 10
106.220904
 20
551.030364
 30
0.0
 10
106.237280
 20
557.215988
 30
0.0
  0
SPLINE
  5
2b0
100
AcDbEntity
  8
Layer_1
 62
7
100
AcDbSpline
 70
8
 71
3
 72
8
 73
4
 74
0
 40
0
 40
0
 40
0
 40
0
 40
1
 40
1
 40
1
 40
1
 10
106.237280
 20
557.215988
 30
0.0
 10
106.257840
 20
564.983268
 30
0.0
 10
107.488264
 20
568.183780
 30
0.0
 10
112.886392
 20
574.511284
 30
0.0
  0
SPLINE
  5
2b1
100
AcDbEntity
  8
Layer_1
 62
7
100
AcDbSpline
 70
8
 71
3
 72
8
 73
4
 74
0
 40
0
 40
0
 40
0
 40
0
 40
1
 40
1
 40
1
 40
1
 10
112.886392
 20
574.511284
 30
0.0
 10
116.602728
 20
578.867436
 30
0.0
 10
121.514552
 20
588.045644
 30
0.0
 10
125.475256
 20
598.034772
 30
0.0
  0
SPLINE
  5
2b2
100
AcDbEntity
  8
Layer_1
 62
7
100
AcDbSpline
 70
8
 71
3
 72
8
 73
4
 74
0
 40
0
 40
0
 40
0
 40
0
 40
1
 40
1
 40
1
 40
1
 10
125.475256
 20
598.034772
 30
0.0
 10
135.142168
 20
622.415268
 30
0.0
 10
150.132608
 20
641.683012
 30
0.0
 10
165.047704
 20
648.898580
 30
0.0
  0
SPLINE
  5
2b3
100
AcDbEntity
  8
Layer_1
 62
7
100
AcDbSpline
 70
8
 71
3
 72
8
 73
4
 74
0
 40
0
 40
0
 40
0
 40
0
 40
1
 40
1
 40
1
 40
1
 10
165.047704
 20
648.898580
 30
0.0
 10
170.531544
 20
651.551548
 30
0.0
 10
172.249304
 20
651.919308
 30
0.0
 10
179.298344
 20
651.949564
 30
0.0
  0
SPLINE
  5
2b4
100
AcDbEntity
  8
Layer_1
 62
7
100
AcDbSpline
 70
8
 71
3
 72
8
 73
4
 74
0
 40
0
 40
0
 40
0
 40
0
 40
1
 40
1
 40
1
 40
1
 10
179.298344
 20
651.949564
 30
0.0
 10
186.094104
 20
651.978684
 30
0.0
 10
187.852424
 20
651.648924
 30
0.0
 10
190.855384
 20
649.781868
 30
0.0
  0
SPLINE
  5
2b5
100
AcDbEntity
  8
Layer_1
 62
7
100
AcDbSpline
 70
8
 71
3
 72
8
 73
4
 74
0
 40
0
 40
0
 40
0
 40
0
 40
1
 40
1
 40
1
 40
1
 10
190.855384
 20
649.781868
 30
0.0
 10
195.966344
 20
646.604148
 30
0.0
 10
201.563944
 20
638.219548
 30
0.0
 10
204.451544
 20
629.416380
 30
0.0
  0
SPLINE
  5
2b6
100
AcDbEntity
  8
Layer_1
 62
7
100
AcDbSpline
 70
8
 71
3
 72
8
 73
4
 74
0
 40
0
 40
0
 40
0
 40
0
 40
1
 40
1
 40
1
 40
1
 10
204.451544
 20
629.416380
 30
0.0
 10
206.671544
 20
622.648228
 30
0.0
 10
206.952024
 20
620.300844
 30
0.0
 10
206.994264
 20
608.136092
 30
0.0
  0
SPLINE
  5
2b7
100
AcDbEntity
  8
Layer_1
 62
7
100
AcDbSpline
 70
8
 71
3
 72
8
 73
4
 74
0
 40
0
 40
0
 40
0
 40
0
 40
1
 40
1
 40
1
 40
1
 10
206.994264
 20
608.136092
 30
0.0
 10
207.031064
 20
597.611004
 30
0.0
 10
206.555384
 20
592.021740
 30
0.0
 10
204.929384
 20
583.858956
 30
0.0
  0
SPLINE
  5
2b8
100
AcDbEntity
  8
Layer_1
 62
7
100
AcDbSpline
 70
8
 71
3
 72
8
 73
4
 74
0
 40
0
 40
0
 40
0
 40
0
 40
1
 40
1
 40
1
 40
1
 10
204.929384
 20
583.858956
 30
0.0
 10
201.724024
 20
567.767132
 30
0.0
 10
190.964504
 20
535.924500
 30
0.0
 10
190.669544
 20
541.657068
 30
0.0
  0
SPLINE
  5
2b9
100
AcDbEntity
  8
Layer_1
 62
7
100
AcDbSpline
 70
8
 71
3
 72
8
 73
4
 74
0
 40
0
 40
0
 40
0
 40
0
 40
1
 40
1
 40
1
 40
1
 10
190.669544
 20
541.657068
 30
0.0
 10
190.346344
 20
547.938644
 30
0.0
 10
182.876264
 20
557.059084
 30
0.0
 10
173.902504
 20
562.128356
 30
0.0
  0
LWPOLYLINE
  5
2ba
100
AcDbEntity
  8
Layer_1
 62
7
100
AcDbPolyline
 90
2
 70
1
 10
445.246824
 20
502.882644
 30
0.0
 10
445.246824
 20
502.883108
 30
0.0
  0
SPLINE
  5
2bb
100
AcDbEntity
  8
Layer_1
 62
7
100
AcDbSpline
 70
8
 71
3
 72
8
 73
4
 74
0
 40
0
 40
0
 40
0
 40
0
 40
1
 40
1
 40
1
 40
1
 10
172.669464
 20
569.799140
 30
0.0
 10
181.206904
 20
581.106916
 30
0.0
 10
185.954584
 20
597.617084
 30
0.0
 10
184.440824
 20
610.734380
 30
0.0
  0
LWPOLYLINE
  5
2bc
100
AcDbEntity
  8
Layer_1
 62
7
100
AcDbPolyline
 90
3
 70
1
 10
173.902504
 20
562.128356
 30
0.0
 10
168.978184
 20
564.910116
 30
0.0
 10
172.669464
 20
569.799140
 30
0.0
  0
SPLINE
  5
2bd
100
AcDbEntity
  8
Layer_1
 62
7
100
AcDbSpline
 70
8
 71
3
 72
8
 73
4
 74
0
 40
0
 40
0
 40
0
 40
0
 40
1
 40
1
 40
1
 40
1
 10
182.529304
 20
610.382412
 30
0.0
 10
177.751384
 20
583.148132
 30
0.0
 10
167.473624
 20
566.538644
 30
0.0
 10
152.320824
 20
561.563356
 30
0.0
  0
SPLINE
  5
2be
100
AcDbEntity
  8
Layer_1
 62
7
100
AcDbSpline
 70
8
 71
3
 72
8
 73
4
 74
0
 40
0
 40
0
 40
0
 40
0
 40
1
 40
1
 40
1
 40
1
 10
152.320824
 20
561.563356
 30
0.0
 10
145.958384
 20
559.474332
 30
0.0
 10
141.109600
 20
555.174788
 30
0.0
 10
134.998320
 20
546.203092
 30
0.0
  0
SPLINE
  5
2bf
100
AcDbEntity
  8
Layer_1
 62
7
100
AcDbSpline
 70
8
 71
3
 72
8
 73
4
 74
0
 40
0
 40
0
 40
0
 40
0
 40
1
 40
1
 40
1
 40
1
 10
134.998320
 20
546.203092
 30
0.0
 10
132.235344
 20
542.146892
 30
0.0
 10
129.085096
 20
538.095028
 30
0.0
 10
127.997768
 20
537.198956
 30
0.0
  0
SPLINE
  5
2c0
100
AcDbEntity
  8
Layer_1
 62
7
100
AcDbSpline
 70
8
 71
3
 72
8
 73
4
 74
0
 40
0
 40
0
 40
0
 40
0
 40
1
 40
1
 40
1
 40
1
 10
127.997768
 20
537.198956
 30
0.0
 10
125.140024
 20
534.843860
 30
0.0
 10
118.968744
 20
535.060708
 30
0.0
 10
115.176528
 20
537.649468
 30
0.0
  0
LWPOLYLINE
  5
2c1
100
AcDbEntity
  8
Layer_1
 62
7
100
AcDbPolyline
 90
3
 70
1
 10
184.440824
 20
610.734380
 30
0.0
 10
183.706824
 20
617.094260
 30
0.0
 10
182.529304
 20
610.382412
 30
0.0
  0
SPLINE
  5
2c2
100
AcDbEntity
  8
Layer_1
 62
7
100
AcDbSpline
 70
8
 71
3
 72
8
 73
4
 74
0
 40
0
 40
0
 40
0
 40
0
 40
1
 40
1
 40
1
 40
1
 10
476.803784
 20
633.926172
 30
0.0
 10
471.307944
 20
635.357276
 30
0.0
 10
463.082504
 20
639.397092
 30
0.0
 10
461.305944
 20
641.537788
 30
0.0
  0
SPLINE
  5
2c3
100
AcDbEntity
  8
Layer_1
 62
7
100
AcDbSpline
 70
8
 71
3
 72
8
 73
4
 74
0
 40
0
 40
0
 40
0
 40
0
 40
1
 40
1
 40
1
 40
1
 10
461.305944
 20
641.537788
 30
0.0
 10
460.585944
 20
642.405308
 30
0.0
 10
458.607864
 20
643.025796
 30
0.0
 10
456.562184
 20
643.025796
 30
0.0
  0
SPLINE
  5
2c4
100
AcDbEntity
  8
Layer_1
 62
7
100
AcDbSpline
 70
8
 71
3
 72
8
 73
4
 74
0
 40
0
 40
0
 40
0
 40
0
 40
1
 40
1
 40
1
 40
1
 10
456.562184
 20
643.025796
 30
0.0
 10
443.689624
 20
643.025796
 30
0.0
 10
419.021064
 20
658.659796
 30
0.0
 10
398.222504
 20
679.999332
 30
0.0
  0
SPLINE
  5
2c5
100
AcDbEntity
  8
Layer_1
 62
7
100
AcDbSpline
 70
8
 71
3
 72
8
 73
4
 74
0
 40
0
 40
0
 40
0
 40
0
 40
1
 40
1
 40
1
 40
1
 10
398.222504
 20
679.999332
 30
0.0
 10
366.440584
 20
712.607828
 30
0.0
 10
319.992184
 20
744.001828
 30
0.0
 10
287.739304
 20
754.673764
 30
0.0
  0
SPLINE
  5
2c6
100
AcDbEntity
  8
Layer_1
 62
7
100
AcDbSpline
 70
8
 71
3
 72
8
 73
4
 74
0
 40
0
 40
0
 40
0
 40
0
 40
1
 40
1
 40
1
 40
1
 10
287.739304
 20
754.673764
 30
0.0
 10
272.596824
 20
759.684172
 30
0.0
 10
263.834184
 20
761.153644
 30
0.0
 10
251.601064
 20
760.734068
 30
0.0
  0
SPLINE
  5
2c7
100
AcDbEntity
  8
Layer_1
 62
7
100
AcDbSpline
 70
8
 71
3
 72
8
 73
4
 74
0
 40
0
 40
0
 40
0
 40
0
 40
1
 40
1
 40
1
 40
1
 10
251.601064
 20
760.734068
 30
0.0
 10
242.526024
 20
760.422804
 30
0.0
 10
240.276904
 20
760.009300
 30
0.0
 10
235.404744
 20
757.756332
 30
0.0
  0
SPLINE
  5
2c8
100
AcDbEntity
  8
Layer_1
 62
7
100
AcDbSpline
 70
8
 71
3
 72
8
 73
4
 74
0
 40
0
 40
0
 40
0
 40
0
 40
1
 40
1
 40
1
 40
1
 10
235.404744
 20
757.756332
 30
0.0
 10
228.892184
 20
754.744804
 30
0.0
 10
223.391384
 20
749.811628
 30
0.0
 10
220.505544
 20
744.394524
 30
0.0
  0
SPLINE
  5
2c9
100
AcDbEntity
  8
Layer_1
 62
7
100
AcDbSpline
 70
8
 71
3
 72
8
 73
4
 74
0
 40
0
 40
0
 40
0
 40
0
 40
1
 40
1
 40
1
 40
1
 10
220.505544
 20
744.394524
 30
0.0
 10
218.919144
 20
741.416836
 30
0.0
 10
218.489304
 20
738.935060
 30
0.0
 10
218.463704
 20
732.607468
 30
0.0
  0
SPLINE
  5
2ca
100
AcDbEntity
  8
Layer_1
 62
7
100
AcDbSpline
 70
8
 71
3
 72
8
 73
4
 74
0
 40
0
 40
0
 40
0
 40
0
 40
1
 40
1
 40
1
 40
1
 10
218.463704
 20
732.607468
 30
0.0
 10
218.446104
 20
728.199108
 30
0.0
 10
218.768904
 20
723.278836
 30
0.0
 10
219.181464
 20
721.673532
 30
0.0
  0
SPLINE
  5
2cb
100
AcDbEntity
  8
Layer_1
 62
7
100
AcDbSpline
 70
8
 71
3
 72
8
 73
4
 74
0
 40
0
 40
0
 40
0
 40
0
 40
1
 40
1
 40
1
 40
1
 10
219.181464
 20
721.673532
 30
0.0
 10
219.929144
 20
718.764388
 30
0.0
 10
219.912104
 20
718.748380
 30
0.0
 10
213.995224
 20
716.794788
 30
0.0
  0
SPLINE
  5
2cc
100
AcDbEntity
  8
Layer_1
 62
7
100
AcDbSpline
 70
8
 71
3
 72
8
 73
4
 74
0
 40
0
 40
0
 40
0
 40
0
 40
1
 40
1
 40
1
 40
1
 10
213.995224
 20
716.794788
 30
0.0
 10
210.129624
 20
715.518484
 30
0.0
 10
207.729864
 20
715.155100
 30
0.0
 10
207.115784
 20
715.753060
 30
0.0
  0
SPLINE
  5
2cd
100
AcDbEntity
  8
Layer_1
 62
7
100
AcDbSpline
 70
8
 71
3
 72
8
 73
4
 74
0
 40
0
 40
0
 40
0
 40
0
 40
1
 40
1
 40
1
 40
1
 10
207.115784
 20
715.753060
 30
0.0
 10
206.584904
 20
716.270108
 30
0.0
 10
206.172824
 20
721.904084
 30
0.0
 10
206.172824
 20
728.647012
 30
0.0
  0
SPLINE
  5
2ce
100
AcDbEntity
  8
Layer_1
 62
7
100
AcDbSpline
 70
8
 71
3
 72
8
 73
4
 74
0
 40
0
 40
0
 40
0
 40
0
 40
1
 40
1
 40
1
 40
1
 10
206.172824
 20
728.647012
 30
0.0
 10
206.172824
 20
739.715532
 30
0.0
 10
206.367544
 20
741.038292
 30
0.0
 10
208.743544
 20
746.109532
 30
0.0
  0
SPLINE
  5
2cf
100
AcDbEntity
  8
Layer_1
 62
7
100
AcDbSpline
 70
8
 71
3
 72
8
 73
4
 74
0
 40
0
 40
0
 40
0
 40
0
 40
1
 40
1
 40
1
 40
1
 10
208.743544
 20
746.109532
 30
0.0
 10
212.050184
 20
753.167412
 30
0.0
 10
221.324344
 20
762.403406
 30
0.0
 10
228.640264
 20
765.924518
 30
0.0
  0
SPLINE
  5
2d0
100
AcDbEntity
  8
Layer_1
 62
7
100
AcDbSpline
 70
8
 71
3
 72
8
 73
4
 74
0
 40
0
 40
0
 40
0
 40
0
 40
1
 40
1
 40
1
 40
1
 10
228.640264
 20
765.924518
 30
0.0
 10
252.154424
 20
777.241726
 30
0.0
 10
287.662904
 20
770.066110
 30
0.0
 10
330.172744
 20
745.406652
 30
0.0
  0
SPLINE
  5
2d1
100
AcDbEntity
  8
Layer_1
 62
7
100
AcDbSpline
 70
8
 71
3
 72
8
 73
4
 74
0
 40
0
 40
0
 40
0
 40
0
 40
1
 40
1
 40
1
 40
1
 10
330.172744
 20
745.406652
 30
0.0
 10
360.293784
 20
727.933796
 30
0.0
 10
381.973384
 20
710.939828
 30
0.0
 10
410.299464
 20
682.597780
 30
0.0
  0
SPLINE
  5
2d2
100
AcDbEntity
  8
Layer_1
 62
7
100
AcDbSpline
 70
8
 71
3
 72
8
 73
4
 74
0
 40
0
 40
0
 40
0
 40
0
 40
1
 40
1
 40
1
 40
1
 10
410.299464
 20
682.597780
 30
0.0
 10
428.603304
 20
664.283572
 30
0.0
 10
443.809544
 20
654.802956
 30
0.0
 10
456.764584
 20
653.628236
 30
0.0
  0
SPLINE
  5
2d3
100
AcDbEntity
  8
Layer_1
 62
7
100
AcDbSpline
 70
8
 71
3
 72
8
 73
4
 74
0
 40
0
 40
0
 40
0
 40
0
 40
1
 40
1
 40
1
 40
1
 10
456.764584
 20
653.628236
 30
0.0
 10
462.020904
 20
653.151612
 30
0.0
 10
462.187864
 20
653.207356
 30
0.0
 10
462.187864
 20
655.439716
 30
0.0
  0
SPLINE
  5
2d4
100
AcDbEntity
  8
Layer_1
 62
7
100
AcDbSpline
 70
8
 71
3
 72
8
 73
4
 74
0
 40
0
 40
0
 40
0
 40
0
 40
1
 40
1
 40
1
 40
1
 10
462.187864
 20
655.439716
 30
0.0
 10
462.187864
 20
659.643764
 30
0.0
 10
466.918904
 20
667.511868
 30
0.0
 10
471.736664
 20
671.320084
 30
0.0
  0
SPLINE
  5
2d5
100
AcDbEntity
  8
Layer_1
 62
7
100
AcDbSpline
 70
8
 71
3
 72
8
 73
4
 74
0
 40
0
 40
0
 40
0
 40
0
 40
1
 40
1
 40
1
 40
1
 10
471.736664
 20
671.320084
 30
0.0
 10
477.261384
 20
675.687124
 30
0.0
 10
485.295384
 20
678.858468
 30
0.0
 10
490.833784
 20
678.858468
 30
0.0
  0
SPLINE
  5
2d6
100
AcDbEntity
  8
Layer_1
 62
7
100
AcDbSpline
 70
8
 71
3
 72
8
 73
4
 74
0
 40
0
 40
0
 40
0
 40
0
 40
1
 40
1
 40
1
 40
1
 10
490.833784
 20
678.858468
 30
0.0
 10
500.155464
 20
678.858468
 30
0.0
 10
508.667864
 20
683.440932
 30
0.0
 10
512.393064
 20
690.464412
 30
0.0
  0
SPLINE
  5
2d7
100
AcDbEntity
  8
Layer_1
 62
7
100
AcDbSpline
 70
8
 71
3
 72
8
 73
4
 74
0
 40
0
 40
0
 40
0
 40
0
 40
1
 40
1
 40
1
 40
1
 10
512.393064
 20
690.464412
 30
0.0
 10
514.057784
 20
693.602980
 30
0.0
 10
514.493144
 20
695.996052
 30
0.0
 10
514.506104
 20
702.079956
 30
0.0
  0
LWPOLYLINE
  5
2d8
100
AcDbEntity
  8
Layer_1
 62
7
100
AcDbPolyline
 90
2
 70
1
 10
115.176528
 20
537.649468
 30
0.0
 10
115.176528
 20
537.649468
 30
0.0
  0
SPLINE
  5
2d9
100
AcDbEntity
  8
Layer_1
 62
7
100
AcDbSpline
 70
8
 71
3
 72
8
 73
4
 74
0
 40
0
 40
0
 40
0
 40
0
 40
1
 40
1
 40
1
 40
1
 10
518.427544
 20
707.055460
 30
0.0
 10
524.103864
 20
703.150100
 30
0.0
 10
529.719704
 20
696.371780
 30
0.0
 10
531.424584
 20
691.368204
 30
0.0
  0
SPLINE
  5
2da
100
AcDbEntity
  8
Layer_1
 62
7
100
AcDbSpline
 70
8
 71
3
 72
8
 73
4
 74
0
 40
0
 40
0
 40
0
 40
0
 40
1
 40
1
 40
1
 40
1
 10
531.424584
 20
691.368204
 30
0.0
 10
534.733304
 20
681.657700
 30
0.0
 10
532.493304
 20
667.829260
 30
0.0
 10
525.808584
 20
656.698788
 30
0.0
  0
SPLINE
  5
2db
100
AcDbEntity
  8
Layer_1
 62
7
100
AcDbSpline
 70
8
 71
3
 72
8
 73
4
 74
0
 40
0
 40
0
 40
0
 40
0
 40
1
 40
1
 40
1
 40
1
 10
525.808584
 20
656.698788
 30
0.0
 10
521.327784
 20
649.237956
 30
0.0
 10
518.584184
 20
646.401492
 30
0.0
 10
511.221704
 20
641.618204
 30
0.0
  0
SPLINE
  5
2dc
100
AcDbEntity
  8
Layer_1
 62
7
100
AcDbSpline
 70
8
 71
3
 72
8
 73
4
 74
0
 40
0
 40
0
 40
0
 40
0
 40
1
 40
1
 40
1
 40
1
 10
511.221704
 20
641.618204
 30
0.0
 10
499.695944
 20
634.130132
 30
0.0
 10
486.955144
 20
631.282724
 30
0.0
 10
476.803464
 20
633.926172
 30
0.0
  0
LWPOLYLINE
  5
2dd
100
AcDbEntity
  8
Layer_1
 62
7
100
AcDbPolyline
 90
3
 70
1
 10
514.506104
 20
702.079956
 30
0.0
 10
514.522104
 20
709.742516
 30
0.0
 10
518.427544
 20
707.055460
 30
0.0
  0
LWPOLYLINE
  5
2de
100
AcDbEntity
  8
Layer_1
 62
7
100
AcDbPolyline
 90
2
 70
1
 10
476.803464
 20
633.926172
 30
0.0
 10
476.803784
 20
633.926172
 30
0.0
  0
ENDSEC
  0
SECTION
  2
OBJECTS
  0
DICTIONARY
  5
C
330
0
100
AcDbDictionary
  3
ACAD_GROUP
350
D
  3
ACAD_MLINESTYLE
350
17
  0
DICTIONARY
  5
D
330
C
100
AcDbDictionary
  0
DICTIONARY
  5
1A
330
C
100
AcDbDictionary
  0
DICTIONARY
  5
17
330
C
100
AcDbDictionary
  3
STANDARD
350
18
  0
DICTIONARY
  5
19
330
C
100
AcDbDictionary
  0
ENDSEC
  0
EOF
