0
SECTION
2
HEADER
9
$EXTMIN
10
15.915611
20
13.301748
9
$EXTMAX
10
34.412010
20
33.585533
0
ENDSEC
0
SECTION
2
TABLES
0
TABLE
2
LTYPE
70
1
0
LTYPE
2
0
70
0
3
Solid Line
72
65
73
0
40
0.0
0
ENDTAB
0
TABLE
2
LAYER
70
1
0
LAYER
2
1
70
0
62
7
6
0
0
ENDTAB
0
ENDSEC
0
SECTION
2
BLOCKS
0
ENDSEC
0
SECTION
2
ENTITIES
0
POLYLINE
8
1
66
1
70
1
0
VERTEX
8
1
10
18.439655
20
17.366222
0
VERTEX
8
1
10
18.439655
20
16.079725
42
0.083026
0
VERTEX
8
1
10
18.478863
20
15.752312
42
0.368574
0
VERTEX
8
1
10
18.714596
20
15.601896
42
0.286963
0
VERTEX
8
1
10
18.889957
20
15.734877
42
0.098310
0
VERTEX
8
1
10
18.940063
20
16.000839
0
VERTEX
8
1
10
18.940685
20
16.044058
0
VERTEX
8
1
10
18.940685
20
17.389147
42
0.108547
0
VERTEX
8
1
10
18.895023
20
17.669609
42
0.252234
0
VERTEX
8
1
10
18.735870
20
17.811155
42
0.363707
0
VERTEX
8
1
10
18.491760
20
17.678955
42
0.099727
0
VERTEX
8
1
10
18.440296
20
17.409941
0
SEQEND
0
POLYLINE
8
1
66
1
70
1
0
VERTEX
8
1
10
22.289440
20
17.998657
0
VERTEX
8
1
10
22.289440
20
17.430168
0
VERTEX
8
1
10
22.495646
20
17.430168
42
0.129326
0
VERTEX
8
1
10
22.684799
20
17.467371
42
0.215273
0
VERTEX
8
1
10
22.776421
20
17.628231
42
0.140240
0
VERTEX
8
1
10
22.755274
20
17.874435
42
0.251660
0
VERTEX
8
1
10
22.610703
20
17.983768
42
0.059593
0
VERTEX
8
1
10
22.459858
20
17.998657
0
SEQEND
0
POLYLINE
8
1
66
1
70
1
0
VERTEX
8
1
10
27.227959
20
17.990499
0
VERTEX
8
1
10
27.227959
20
16.547396
0
VERTEX
8
1
10
27.401791
20
16.547396
42
0.116289
0
VERTEX
8
1
10
27.613638
20
16.585144
42
0.227629
0
VERTEX
8
1
10
27.691504
20
16.701141
42
0.060896
0
VERTEX
8
1
10
27.706842
20
16.856636
0
VERTEX
8
1
10
27.706842
20
17.684759
42
0.116462
0
VERTEX
8
1
10
27.668964
20
17.895273
42
0.221662
0
VERTEX
8
1
10
27.555592
20
17.974775
42
0.065319
0
VERTEX
8
1
10
27.408604
20
17.990499
0
SEQEND
0
POLYLINE
8
1
66
1
70
1
0
VERTEX
8
1
10
29.399963
20
17.014456
0
VERTEX
8
1
10
29.232948
20
17.847229
0
VERTEX
8
1
10
29.084681
20
17.014456
0
SEQEND
0
POLYLINE
8
1
66
1
70
1
0
VERTEX
8
1
10
31.225147
20
18.441841
0
VERTEX
8
1
10
31.236809
20
18.459040
0
VERTEX
8
1
10
31.734653
20
18.459040
0
VERTEX
8
1
10
31.742680
20
18.438496
0
VERTEX
8
1
10
31.577847
20
17.539497
42
-0.806621
0
VERTEX
8
1
10
31.393118
20
17.531513
0
SEQEND
0
POLYLINE
8
1
66
1
70
1
0
VERTEX
8
1
10
15.915611
20
18.757343
0
VERTEX
8
1
10
16.418068
20
18.756525
0
VERTEX
8
1
10
16.538345
20
18.413670
0
VERTEX
8
1
10
16.953777
20
16.896301
42
0.735561
0
VERTEX
8
1
10
17.123161
20
16.907000
0
VERTEX
8
1
10
17.123161
20
17.351542
42
0.051732
0
VERTEX
8
1
10
17.104679
20
17.636475
42
0.249862
0
VERTEX
8
1
10
17.000454
20
17.768845
0
VERTEX
8
1
10
17.000454
20
18.421440
0
VERTEX
8
1
10
17.002396
20
18.756525
42
-0.001963
0
VERTEX
8
1
10
17.760330
20
18.757668
42
0.614956
0
VERTEX
8
1
10
17.804935
20
18.874826
42
-0.119310
0
VERTEX
8
1
10
17.450802
20
19.406013
0
VERTEX
8
1
10
17.340137
20
19.671610
42
0.090454
0
VERTEX
8
1
10
17.265896
20
19.812355
42
0.033785
0
VERTEX
8
1
10
17.132687
20
19.978220
42
-0.515344
0
VERTEX
8
1
10
17.179195
20
20.128622
42
-0.114212
0
VERTEX
8
1
10
17.348335
20
20.151945
42
-0.298234
0
VERTEX
8
1
10
17.727787
20
19.947077
0
VERTEX
8
1
10
17.900505
20
19.644821
42
0.319520
0
VERTEX
8
1
10
17.917484
20
19.640614
42
-0.118964
0
VERTEX
8
1
10
19.206467
20
19.650846
42
0.183714
0
VERTEX
8
1
10
19.829044
20
19.774618
0
VERTEX
8
1
10
21.002081
20
20.084478
42
0.005676
0
VERTEX
8
1
10
21.684921
20
20.173632
42
0.214427
0
VERTEX
8
1
10
21.456242
20
20.365398
42
-0.421991
0
VERTEX
8
1
10
21.223415
20
20.482872
0
VERTEX
8
1
10
20.603697
20
20.903395
0
VERTEX
8
1
10
20.457333
20
20.924761
42
-0.319108
0
VERTEX
8
1
10
18.036282
20
21.434586
0
VERTEX
8
1
10
17.239494
20
22.297766
0
VERTEX
8
1
10
17.062435
20
22.607626
0
VERTEX
8
1
10
17.018166
20
22.806822
0
VERTEX
8
1
10
16.996037
20
23.006018
42
-0.120571
0
VERTEX
8
1
10
16.996880
20
23.436689
42
-0.096040
0
VERTEX
8
1
10
17.020840
20
23.713583
0
VERTEX
8
1
10
17.018166
20
23.758535
42
-0.086202
0
VERTEX
8
1
10
17.283764
20
24.267591
0
VERTEX
8
1
10
17.354763
20
24.282034
42
-0.044306
0
VERTEX
8
1
10
18.052433
20
24.264181
0
VERTEX
8
1
10
18.611740
20
24.245459
0
VERTEX
8
1
10
18.722393
20
24.201193
0
VERTEX
8
1
10
18.014145
20
23.470812
0
VERTEX
8
1
10
18.014145
20
23.448675
0
VERTEX
8
1
10
17.931858
20
23.340872
42
0.129416
0
VERTEX
8
1
10
17.748550
20
22.364164
0
VERTEX
8
1
10
17.925617
20
21.965773
42
0.233861
0
VERTEX
8
1
10
18.434673
20
21.589518
0
VERTEX
8
1
10
18.434673
20
21.567383
0
VERTEX
8
1
10
19.165058
20
21.323921
0
VERTEX
8
1
10
19.408520
20
21.301786
0
VERTEX
8
1
10
19.430653
20
21.323921
0
VERTEX
8
1
10
19.364475
20
21.413429
42
-0.254388
0
VERTEX
8
1
10
18.390404
20
23.006018
42
-0.211738
0
VERTEX
8
1
10
19.563450
20
24.333990
0
VERTEX
8
1
10
20.714361
20
23.426542
0
VERTEX
8
1
10
20.581562
20
23.360144
0
VERTEX
8
1
10
20.006100
20
23.315878
42
0.172589
0
VERTEX
8
1
10
19.110744
20
22.707861
0
VERTEX
8
1
10
19.054394
20
22.607626
42
0.463734
0
VERTEX
8
1
10
19.319988
20
21.766581
42
0.106881
0
VERTEX
8
1
10
20.442554
20
21.501389
42
0.243639
0
VERTEX
8
1
10
21.643946
20
22.142836
42
0.111468
0
VERTEX
8
1
10
22.263653
20
23.448675
0
VERTEX
8
1
10
22.285788
20
23.979864
0
VERTEX
8
1
10
22.263653
20
24.665983
42
0.158968
0
VERTEX
8
1
10
21.334080
20
26.281683
0
VERTEX
8
1
10
18.788799
20
28.738432
0
VERTEX
8
1
10
18.633865
20
28.981892
0
VERTEX
8
1
10
18.213348
20
28.893362
42
-0.499978
0
VERTEX
8
1
10
18.124813
20
28.893362
0
VERTEX
8
1
10
18.256149
20
28.959026
42
0.845932
0
VERTEX
8
1
10
18.235470
20
29.004025
0
VERTEX
8
1
10
17.947750
20
29.004025
0
VERTEX
8
1
10
17.914318
20
28.985012
0
VERTEX
8
1
10
17.875935
20
28.982616
0
VERTEX
8
1
10
17.840405
20
28.997326
0
VERTEX
8
1
10
17.814953
20
29.026165
42
-0.236086
0
VERTEX
8
1
10
17.992012
20
29.070423
0
VERTEX
8
1
10
18.124813
20
29.136822
42
0.414113
0
VERTEX
8
1
10
18.014145
20
29.181095
42
0.193093
0
VERTEX
8
1
10
17.859222
20
29.198139
0
VERTEX
8
1
10
17.847858
20
29.199429
0
VERTEX
8
1
10
17.837086
20
29.203228
0
VERTEX
8
1
10
18.191212
20
29.380283
0
VERTEX
8
1
10
17.969875
20
29.402416
0
VERTEX
8
1
10
17.947750
20
29.446682
0
VERTEX
8
1
10
18.412540
20
29.623745
0
VERTEX
8
1
10
18.610912
20
29.726704
42
-0.033372
0
VERTEX
8
1
10
19.319988
20
30.354137
0
VERTEX
8
1
10
19.319988
20
30.376263
0
VERTEX
8
1
10
20.072506
20
30.995991
0
VERTEX
8
1
10
20.470898
20
31.283710
0
VERTEX
8
1
10
21.068485
20
31.571445
42
-0.086391
0
VERTEX
8
1
10
21.454699
20
31.678196
42
0.315882
0
VERTEX
8
1
10
21.503714
20
31.738155
42
-0.263221
0
VERTEX
8
1
10
21.489012
20
31.947704
42
-0.058773
0
VERTEX
8
1
10
21.621811
20
32.633820
42
-0.509244
0
VERTEX
8
1
10
21.909540
20
32.567413
0
VERTEX
8
1
10
22.042326
20
32.456757
0
VERTEX
8
1
10
22.296452
20
32.401829
42
-0.081402
0
VERTEX
8
1
10
24.541740
20
33.568329
0
VERTEX
8
1
10
24.587608
20
33.585533
42
0.123055
0
VERTEX
8
1
10
24.764677
20
33.563393
0
VERTEX
8
1
10
25.163069
20
33.386330
0
VERTEX
8
1
10
25.561453
20
33.098610
42
0.009984
0
VERTEX
8
1
10
25.804914
20
32.899406
42
0.015473
0
VERTEX
8
1
10
26.012325
20
32.701843
42
-0.048687
0
VERTEX
8
1
10
26.380375
20
32.257557
0
VERTEX
8
1
10
26.557434
20
31.969837
0
VERTEX
8
1
10
26.572573
20
31.944881
42
-0.088179
0
VERTEX
8
1
10
26.181183
20
29.380283
0
VERTEX
8
1
10
26.159048
20
29.358150
42
0.111801
0
VERTEX
8
1
10
26.962748
20
28.792410
42
0.056660
0
VERTEX
8
1
10
27.202877
20
28.734777
42
-0.764260
0
VERTEX
8
1
10
27.199295
20
28.561369
42
-0.086879
0
VERTEX
8
1
10
26.579567
20
28.472845
0
VERTEX
8
1
10
26.313972
20
28.539240
42
0.083228
0
VERTEX
8
1
10
25.921556
20
28.583387
42
0.817039
0
VERTEX
8
1
10
25.937721
20
28.472845
42
-0.115545
0
VERTEX
8
1
10
26.114780
20
28.185110
0
VERTEX
8
1
10
26.092646
20
28.096579
42
-0.113891
0
VERTEX
8
1
10
25.782789
20
27.853117
0
VERTEX
8
1
10
25.583588
20
27.653921
0
VERTEX
8
1
10
25.583588
20
27.631792
42
0.518235
0
VERTEX
8
1
10
25.605238
20
27.435545
0
VERTEX
8
1
10
25.660458
20
27.420527
42
-0.635047
0
VERTEX
8
1
10
25.946962
20
27.042139
42
0.650923
0
VERTEX
8
1
10
25.871319
20
26.702208
0
VERTEX
8
1
10
26.048384
20
26.525152
0
VERTEX
8
1
10
26.513172
20
26.768614
0
VERTEX
8
1
10
26.468903
20
26.613676
0
VERTEX
8
1
10
26.491037
20
26.591543
0
VERTEX
8
1
10
26.623837
20
26.635813
0
VERTEX
8
1
10
26.468903
20
26.414480
0
VERTEX
8
1
10
26.491037
20
26.392351
0
VERTEX
8
1
10
26.737116
20
26.454519
42
-0.191136
0
VERTEX
8
1
10
26.424644
20
26.237417
0
VERTEX
8
1
10
26.358240
20
26.193155
42
0.343124
0
VERTEX
8
1
10
26.601702
20
26.237417
0
VERTEX
8
1
10
26.778769
20
26.325949
0
VERTEX
8
1
10
26.867298
20
26.325949
42
-0.277353
0
VERTEX
8
1
10
26.645971
20
26.126760
0
VERTEX
8
1
10
26.468903
20
26.038221
0
VERTEX
8
1
10
26.446779
20
25.971823
42
0.023089
0
VERTEX
8
1
10
27.779350
20
25.913122
0
VERTEX
8
1
10
27.851299
20
25.904585
0
VERTEX
8
1
10
28.670597
20
25.885424
0
VERTEX
8
1
10
28.748589
20
25.949690
42
0.067572
0
VERTEX
8
1
10
28.403673
20
26.293409
42
-0.156448
0
VERTEX
8
1
10
28.106735
20
26.945669
0
VERTEX
8
1
10
27.752613
20
27.388330
42
-0.269399
0
VERTEX
8
1
10
27.841141
20
27.853117
0
VERTEX
8
1
10
28.062477
20
28.185110
0
VERTEX
8
1
10
28.106735
20
28.362173
0
VERTEX
8
1
10
28.239542
20
28.649900
0
VERTEX
8
1
10
28.460869
20
28.716303
0
VERTEX
8
1
10
28.660061
20
28.694166
42
-0.106870
0
VERTEX
8
1
10
29.501116
20
28.273645
42
-0.167918
0
VERTEX
8
1
10
29.598843
20
27.197554
42
0.153326
0
VERTEX
8
1
10
29.633904
20
26.945669
42
0.099436
0
VERTEX
8
1
10
29.636612
20
26.027708
0
VERTEX
8
1
10
29.700308
20
25.839025
0
VERTEX
8
1
10
30.984016
20
25.839025
0
VERTEX
8
1
10
31.249613
20
25.883299
42
0.277913
0
VERTEX
8
1
10
31.426670
20
26.923536
0
VERTEX
8
1
10
31.338140
20
27.609655
0
VERTEX
8
1
10
31.515209
20
27.720324
42
0.040387
0
VERTEX
8
1
10
31.382410
20
28.295782
0
VERTEX
8
1
10
31.227478
20
28.539240
0
VERTEX
8
1
10
31.183208
20
28.561369
0
VERTEX
8
1
10
31.161076
20
28.539240
0
VERTEX
8
1
10
31.138941
20
28.539240
42
-0.255699
0
VERTEX
8
1
10
30.806950
20
28.583502
0
VERTEX
8
1
10
30.652018
20
28.627771
42
0.119548
0
VERTEX
8
1
10
30.467508
20
28.748915
0
VERTEX
8
1
10
29.965902
20
29.092564
42
0.098998
0
VERTEX
8
1
10
29.545376
20
29.269627
0
VERTEX
8
1
10
29.235521
20
29.535221
42
-0.126106
0
VERTEX
8
1
10
29.566315
20
30.796116
0
VERTEX
8
1
10
30.076569
20
30.863194
42
-0.197241
0
VERTEX
8
1
10
30.967592
20
30.348248
42
-0.026174
0
VERTEX
8
1
10
32.237175
20
28.839125
0
VERTEX
8
1
10
32.408829
20
27.677946
0
VERTEX
8
1
10
32.453163
20
27.650454
42
-0.593057
0
VERTEX
8
1
10
32.732513
20
27.388330
42
0.020742
0
VERTEX
8
1
10
32.931702
20
26.370214
42
-0.109319
0
VERTEX
8
1
10
32.532772
20
26.261198
42
0.386203
0
VERTEX
8
1
10
32.511185
20
26.126760
42
0.008608
0
VERTEX
8
1
10
32.577583
20
25.263575
42
-0.386183
0
VERTEX
8
1
10
32.564697
20
25.094446
42
-0.127922
0
VERTEX
8
1
10
32.356255
20
24.997976
42
-0.051703
0
VERTEX
8
1
10
31.316006
20
24.909445
42
0.004234
0
VERTEX
8
1
10
30.453924
20
24.843157
0
VERTEX
8
1
10
30.098701
20
24.820913
42
0.208654
0
VERTEX
8
1
10
30.039995
20
24.705648
42
0.092241
0
VERTEX
8
1
10
30.076988
20
24.190126
0
VERTEX
8
1
10
30.054434
20
24.112661
0
VERTEX
8
1
10
29.855242
20
24.090528
0
VERTEX
8
1
10
29.833107
20
23.913469
42
0.414153
0
VERTEX
8
1
10
29.833107
20
23.802801
0
VERTEX
8
1
10
29.833107
20
23.404409
42
-0.081346
0
VERTEX
8
1
10
29.855242
20
22.983885
0
VERTEX
8
1
10
29.722443
20
22.917486
0
VERTEX
8
1
10
29.341482
20
22.965700
42
-0.097323
0
VERTEX
8
1
10
29.191254
20
23.006018
42
-0.003981
0
VERTEX
8
1
10
28.626858
20
23.094812
0
VERTEX
8
1
10
28.527262
20
23.072416
0
VERTEX
8
1
10
29.678173
20
22.209238
0
VERTEX
8
1
10
30.430691
20
21.611649
0
VERTEX
8
1
10
30.430691
20
21.478849
42
0.109755
0
VERTEX
8
1
10
29.169119
20
20.549271
0
VERTEX
8
1
10
28.859255
20
20.239412
42
0.720641
0
VERTEX
8
1
10
28.881388
20
20.150881
0
VERTEX
8
1
10
28.952394
20
20.165316
42
-0.089235
0
VERTEX
8
1
10
30.048239
20
20.026920
0
VERTEX
8
1
10
30.939749
20
19.774618
42
0.093654
0
VERTEX
8
1
10
31.515209
20
19.752485
42
-0.070463
0
VERTEX
8
1
10
32.555454
20
19.774618
42
0.178903
0
VERTEX
8
1
10
32.708229
20
19.781916
0
VERTEX
8
1
10
32.885288
20
20.069647
42
-0.371552
0
VERTEX
8
1
10
33.304749
20
20.202826
42
-0.350810
0
VERTEX
8
1
10
33.395302
20
19.918543
0
VERTEX
8
1
10
33.248867
20
19.759901
0
VERTEX
8
1
10
32.894745
20
19.095915
0
VERTEX
8
1
10
32.684776
20
18.906004
42
0.652400
0
VERTEX
8
1
10
32.732914
20
18.757343
0
VERTEX
8
1
10
34.410187
20
18.757343
42
0.000722
0
VERTEX
8
1
10
34.412010
20
17.208853
0
VERTEX
8
1
10
33.909264
20
17.208853
42
0.059227
0
VERTEX
8
1
10
33.891266
20
17.489527
0
VERTEX
8
1
10
33.885212
20
17.511415
42
0.327527
0
VERTEX
8
1
10
33.730648
20
17.648481
42
0.041807
0
VERTEX
8
1
10
33.670677
20
17.653021
0
VERTEX
8
1
10
33.423573
20
17.653021
0
VERTEX
8
1
10
33.423573
20
16.854679
0
VERTEX
8
1
10
34.071175
20
16.854679
0
VERTEX
8
1
10
34.071175
20
16.181170
0
VERTEX
8
1
10
33.423573
20
16.181170
0
VERTEX
8
1
10
33.423573
20
15.223152
0
VERTEX
8
1
10
33.648518
20
15.223152
42
0.173520
0
VERTEX
8
1
10
33.831043
20
15.274635
42
0.190648
0
VERTEX
8
1
10
33.891304
20
15.406153
42
0.038108
0
VERTEX
8
1
10
33.909264
20
15.786348
0
VERTEX
8
1
10
34.412010
20
15.786348
0
VERTEX
8
1
10
34.412010
20
15.025963
0
VERTEX
8
1
10
34.412010
20
14.136194
0
VERTEX
8
1
10
34.412010
20
13.584120
0
VERTEX
8
1
10
34.412010
20
13.581490
0
VERTEX
8
1
10
34.407806
20
13.575573
42
0.026980
0
VERTEX
8
1
10
32.767448
20
14.475037
0
VERTEX
8
1
10
32.767448
20
15.115742
42
0.271644
0
VERTEX
8
1
10
32.879120
20
15.274364
42
0.037023
0
VERTEX
8
1
10
32.890160
20
15.510559
0
VERTEX
8
1
10
32.890160
20
17.394651
42
0.054633
0
VERTEX
8
1
10
32.871681
20
17.664228
42
0.252354
0
VERTEX
8
1
10
32.767448
20
17.789471
0
VERTEX
8
1
10
32.767448
20
18.429794
0
VERTEX
8
1
10
32.766430
20
18.459040
0
VERTEX
8
1
10
32.605881
20
18.459040
0
VERTEX
8
1
10
32.596184
20
18.445786
0
VERTEX
8
1
10
32.596184
20
17.986582
42
0.322995
0
VERTEX
8
1
10
32.480156
20
17.837643
42
0.029986
0
VERTEX
8
1
10
32.473480
20
17.682261
0
VERTEX
8
1
10
32.473480
20
16.230013
42
0.070877
0
VERTEX
8
1
10
32.491959
20
16.022596
42
0.245098
0
VERTEX
8
1
10
32.596184
20
15.925694
0
VERTEX
8
1
10
32.596184
20
15.769011
42
-0.001577
0
VERTEX
8
1
10
32.595093
20
14.555365
42
0.012428
0
VERTEX
8
1
10
31.818760
20
14.893248
0
VERTEX
8
1
10
31.817371
20
14.897802
0
VERTEX
8
1
10
31.817371
20
15.683802
0
VERTEX
8
1
10
31.817371
20
15.925694
42
0.324769
0
VERTEX
8
1
10
31.933390
20
16.075569
42
0.029923
0
VERTEX
8
1
10
31.940067
20
16.230013
0
VERTEX
8
1
10
31.940067
20
16.841118
42
0.829840
0
VERTEX
8
1
10
31.821014
20
16.841331
0
VERTEX
8
1
10
31.536165
20
15.428930
0
VERTEX
8
1
10
31.277134
20
15.428930
0
VERTEX
8
1
10
31.008625
20
16.842369
42
0.820584
0
VERTEX
8
1
10
30.900507
20
16.841118
0
VERTEX
8
1
10
30.900507
20
16.230013
42
0.072205
0
VERTEX
8
1
10
30.918982
20
16.022596
42
0.245057
0
VERTEX
8
1
10
31.023211
20
15.925694
0
VERTEX
8
1
10
31.023211
20
15.693268
42
-0.000875
0
VERTEX
8
1
10
31.022743
20
15.193701
42
0.010732
0
VERTEX
8
1
10
30.351160
20
15.412836
0
VERTEX
8
1
10
30.346645
20
15.425598
0
VERTEX
8
1
10
30.346645
20
15.470253
0
VERTEX
8
1
10
30.346645
20
15.702736
0
VERTEX
8
1
10
30.346645
20
15.925694
42
0.322992
0
VERTEX
8
1
10
30.462664
20
16.074631
42
0.030191
0
VERTEX
8
1
10
30.469341
20
16.230013
0
VERTEX
8
1
10
30.469341
20
17.682261
42
0.070671
0
VERTEX
8
1
10
30.450863
20
17.890049
42
0.255044
0
VERTEX
8
1
10
30.346645
20
17.986582
0
VERTEX
8
1
10
30.346645
20
18.437757
0
VERTEX
8
1
10
30.333462
20
18.459040
0
VERTEX
8
1
10
29.692797
20
18.459040
0
VERTEX
8
1
10
29.687700
20
18.449549
0
VERTEX
8
1
10
30.040739
20
16.570183
42
0.161358
0
VERTEX
8
1
10
30.135332
20
16.367695
42
0.071598
0
VERTEX
8
1
10
30.175365
20
16.341543
0
VERTEX
8
1
10
30.175365
20
16.229721
0
VERTEX
8
1
10
30.175365
20
15.769514
0
VERTEX
8
1
10
30.175365
20
15.472799
0
VERTEX
8
1
10
30.171831
20
15.466228
42
0.012181
0
VERTEX
8
1
10
29.397001
20
15.672852
0
VERTEX
8
1
10
29.379509
20
15.685156
0
VERTEX
8
1
10
29.379509
20
15.769514
0
VERTEX
8
1
10
29.379509
20
16.229721
0
VERTEX
8
1
10
29.379509
20
16.341543
0
VERTEX
8
1
10
29.398565
20
16.343754
42
0.450494
0
VERTEX
8
1
10
29.498627
20
16.465294
42
0.035060
0
VERTEX
8
1
10
29.490280
20
16.538586
0
VERTEX
8
1
10
29.471537
20
16.646399
0
VERTEX
8
1
10
29.021631
20
16.646399
0
VERTEX
8
1
10
29.001175
20
16.538586
42
0.092793
0
VERTEX
8
1
10
29.002783
20
16.418539
42
0.311640
0
VERTEX
8
1
10
29.103519
20
16.343599
0
VERTEX
8
1
10
29.122173
20
16.341543
0
VERTEX
8
1
10
29.122173
20
16.158136
42
-0.001502
0
VERTEX
8
1
10
29.121492
20
15.737209
42
0.010666
0
VERTEX
8
1
10
28.420984
20
15.878883
0
VERTEX
8
1
10
28.411524
20
15.887405
0
VERTEX
8
1
10
28.411524
20
15.943373
0
VERTEX
8
1
10
28.411524
20
16.137680
0
VERTEX
8
1
10
28.411524
20
16.341543
42
0.202967
0
VERTEX
8
1
10
28.520559
20
16.484753
42
0.038831
0
VERTEX
8
1
10
28.546156
20
16.585052
0
VERTEX
8
1
10
28.876825
20
18.447332
0
VERTEX
8
1
10
28.872746
20
18.459040
0
VERTEX
8
1
10
27.720789
20
18.459040
0
VERTEX
8
1
10
27.717787
20
18.438021
42
-0.176424
0
VERTEX
8
1
10
28.071411
20
18.259714
42
-0.157750
0
VERTEX
8
1
10
28.231915
20
17.887264
42
-0.031745
0
VERTEX
8
1
10
28.240252
20
17.749401
0
VERTEX
8
1
10
28.240252
20
16.985184
0
VERTEX
8
1
10
28.240252
20
16.723953
0
VERTEX
8
1
10
28.240252
20
16.660046
42
-0.074674
0
VERTEX
8
1
10
28.188206
20
16.222593
42
-0.141930
0
VERTEX
8
1
10
28.005554
20
15.957159
42
-0.198882
0
VERTEX
8
1
10
27.976181
20
15.953461
42
0.020720
0
VERTEX
8
1
10
26.575071
20
16.110012
0
VERTEX
8
1
10
26.571844
20
16.129427
0
VERTEX
8
1
10
26.571844
20
16.460045
42
0.383598
0
VERTEX
8
1
10
26.691137
20
16.604177
42
0.022799
0
VERTEX
8
1
10
26.694551
20
16.697645
0
VERTEX
8
1
10
26.694551
20
17.831512
42
0.089849
0
VERTEX
8
1
10
26.676067
20
17.993752
42
0.243959
0
VERTEX
8
1
10
26.571844
20
18.069120
0
VERTEX
8
1
10
26.571844
20
18.450735
0
VERTEX
8
1
10
26.566650
20
18.459040
0
VERTEX
8
1
10
25.195780
20
18.459040
0
VERTEX
8
1
10
25.177202
20
18.422514
0
VERTEX
8
1
10
25.177202
20
17.719698
0
VERTEX
8
1
10
24.674463
20
17.719698
42
0.118224
0
VERTEX
8
1
10
24.650417
20
17.901783
42
0.240831
0
VERTEX
8
1
10
24.546223
20
17.976080
42
0.057983
0
VERTEX
8
1
10
24.435877
20
17.987001
0
VERTEX
8
1
10
24.188766
20
17.987001
0
VERTEX
8
1
10
24.188766
20
17.506552
0
VERTEX
8
1
10
24.836361
20
17.506552
0
VERTEX
8
1
10
24.836361
20
17.101229
0
VERTEX
8
1
10
24.188766
20
17.101229
0
VERTEX
8
1
10
24.188766
20
16.524687
0
VERTEX
8
1
10
24.413721
20
16.524687
42
0.136092
0
VERTEX
8
1
10
24.608746
20
16.562941
42
0.221154
0
VERTEX
8
1
10
24.660265
20
16.650320
42
0.054243
0
VERTEX
8
1
10
24.674463
20
16.863626
0
VERTEX
8
1
10
25.177202
20
16.863626
0
VERTEX
8
1
10
25.177202
20
16.158014
0
VERTEX
8
1
10
25.175537
20
16.151215
42
0.024160
0
VERTEX
8
1
10
23.535728
20
16.053488
0
VERTEX
8
1
10
23.532648
20
16.081411
0
VERTEX
8
1
10
23.532648
20
16.460045
42
0.381992
0
VERTEX
8
1
10
23.651943
20
16.603304
42
0.022850
0
VERTEX
8
1
10
23.655350
20
16.697645
0
VERTEX
8
1
10
23.655350
20
17.831512
42
0.089893
0
VERTEX
8
1
10
23.636869
20
17.993752
42
0.243991
0
VERTEX
8
1
10
23.532648
20
18.069120
0
VERTEX
8
1
10
23.532648
20
18.422514
0
VERTEX
8
1
10
23.505083
20
18.459040
0
VERTEX
8
1
10
22.908779
20
18.459040
0
VERTEX
8
1
10
22.901955
20
18.423286
42
-0.259121
0
VERTEX
8
1
10
23.264605
20
18.094336
42
-0.143989
0
VERTEX
8
1
10
23.285902
20
17.523485
42
-0.278458
0
VERTEX
8
1
10
22.950663
20
17.199942
42
-0.184887
0
VERTEX
8
1
10
23.194448
20
17.073820
42
-0.185184
0
VERTEX
8
1
10
23.264513
20
16.806705
42
0.025547
0
VERTEX
8
1
10
23.267073
20
16.574333
42
0.259962
0
VERTEX
8
1
10
23.361376
20
16.433098
0
VERTEX
8
1
10
23.361376
20
16.039936
0
VERTEX
8
1
10
23.361773
20
16.033840
42
0.008764
0
VERTEX
8
1
10
22.774679
20
15.954309
42
-0.077897
0
VERTEX
8
1
10
22.735939
20
16.295717
42
-0.001938
0
VERTEX
8
1
10
22.737309
20
16.750969
42
0.148339
0
VERTEX
8
1
10
22.689724
20
16.927795
42
0.212473
0
VERTEX
8
1
10
22.545469
20
16.996515
42
0.030264
0
VERTEX
8
1
10
22.485420
20
16.999813
0
VERTEX
8
1
10
22.289440
20
16.999813
42
0.009457
0
VERTEX
8
1
10
22.289982
20
16.481081
42
0.125276
0
VERTEX
8
1
10
22.313774
20
16.348749
42
0.208942
0
VERTEX
8
1
10
22.412140
20
16.283152
0
VERTEX
8
1
10
22.412140
20
15.895950
0
VERTEX
8
1
10
22.412016
20
15.894424
42
0.010521
0
VERTEX
8
1
10
21.633322
20
15.740288
0
VERTEX
8
1
10
21.633322
20
16.127205
42
0.382336
0
VERTEX
8
1
10
21.752613
20
16.273315
42
0.022589
0
VERTEX
8
1
10
21.756021
20
16.368061
42
0.000058
0
VERTEX
8
1
10
21.755886
20
17.845257
0
VERTEX
8
1
10
21.755480
20
17.865692
42
0.145566
0
VERTEX
8
1
10
21.724812
20
18.009621
42
0.184683
0
VERTEX
8
1
10
21.633322
20
18.064188
0
VERTEX
8
1
10
21.633322
20
18.436544
0
VERTEX
8
1
10
21.610943
20
18.459040
0
VERTEX
8
1
10
21.484667
20
18.459040
0
VERTEX
8
1
10
21.483965
20
18.459040
0
VERTEX
8
1
10
21.462049
20
18.436586
0
VERTEX
8
1
10
21.462049
20
18.422514
0
VERTEX
8
1
10
21.462049
20
17.285843
0
VERTEX
8
1
10
21.030888
20
17.285843
0
VERTEX
8
1
10
21.030888
20
17.601013
42
0.099220
0
VERTEX
8
1
10
20.997950
20
17.819300
42
0.271315
0
VERTEX
8
1
10
20.841202
20
17.920593
0
VERTEX
8
1
10
20.821270
20
17.922514
0
VERTEX
8
1
10
20.821270
20
16.331898
42
0.074942
0
VERTEX
8
1
10
20.839750
20
16.135830
42
0.243859
0
VERTEX
8
1
10
20.943974
20
16.044231
0
VERTEX
8
1
10
20.943974
20
15.584999
42
-0.266006
0
VERTEX
8
1
10
20.940683
20
15.568911
42
0.012275
0
VERTEX
8
1
10
20.165535
20
15.341560
0
VERTEX
8
1
10
20.165154
20
15.357786
0
VERTEX
8
1
10
20.165154
20
15.800722
42
0.346984
0
VERTEX
8
1
10
20.282949
20
15.956905
42
0.028551
0
VERTEX
8
1
10
20.287855
20
16.186966
0
VERTEX
8
1
10
20.287855
20
16.430479
0
VERTEX
8
1
10
20.287855
20
17.922514
42
0.326273
0
VERTEX
8
1
10
20.100014
20
17.763645
42
0.077502
0
VERTEX
8
1
10
20.076534
20
17.586199
0
VERTEX
8
1
10
20.076534
20
17.285843
0
VERTEX
8
1
10
19.645374
20
17.285843
0
VERTEX
8
1
10
19.645374
20
18.423492
0
VERTEX
8
1
10
19.630978
20
18.459040
0
VERTEX
8
1
10
19.146454
20
18.459040
0
VERTEX
8
1
10
19.126110
20
18.415787
42
-0.221038
0
VERTEX
8
1
10
19.449265
20
17.916218
42
-0.044166
0
VERTEX
8
1
10
19.474102
20
17.587858
0
VERTEX
8
1
10
19.474102
20
15.855541
42
-0.041636
0
VERTEX
8
1
10
19.453648
20
15.503981
0
VERTEX
8
1
10
19.444229
20
15.461271
0
VERTEX
8
1
10
19.433498
20
15.420105
42
-0.173925
0
VERTEX
8
1
10
19.174480
20
15.026369
42
-0.139841
0
VERTEX
8
1
10
18.782001
20
14.898226
42
-0.127831
0
VERTEX
8
1
10
18.297512
20
14.975023
42
-0.253398
0
VERTEX
8
1
10
17.924557
20
15.509712
42
-0.036411
0
VERTEX
8
1
10
17.906239
20
15.799496
0
VERTEX
8
1
10
17.906239
20
17.587858
42
-0.102023
0
VERTEX
8
1
10
17.999477
20
18.118702
42
-0.170004
0
VERTEX
8
1
10
18.278095
20
18.428570
0
VERTEX
8
1
10
18.267799
20
18.459040
0
VERTEX
8
1
10
17.752827
20
18.459040
0
VERTEX
8
1
10
17.734966
20
18.428129
0
VERTEX
8
1
10
17.734966
20
17.768845
42
0.243562
0
VERTEX
8
1
10
17.631023
20
17.636475
42
0.057418
0
VERTEX
8
1
10
17.612400
20
17.390081
0
VERTEX
8
1
10
17.612263
20
17.351542
0
VERTEX
8
1
10
17.612263
20
14.933315
42
-0.000271
0
VERTEX
8
1
10
17.612038
20
14.293390
42
0.008327
0
VERTEX
8
1
10
17.127956
20
14.037458
0
VERTEX
8
1
10
17.123158
20
14.037300
0
VERTEX
8
1
10
16.718285
20
15.689762
42
0.798630
0
VERTEX
8
1
10
16.528397
20
15.690500
0
VERTEX
8
1
10
16.528397
20
15.544180
0
VERTEX
8
1
10
16.528397
20
14.584249
0
VERTEX
8
1
10
16.528397
20
14.400229
42
0.051994
0
VERTEX
8
1
10
16.546871
20
14.115808
42
0.239398
0
VERTEX
8
1
10
16.651096
20
13.982929
0
VERTEX
8
1
10
16.651096
20
13.768833
0
VERTEX
8
1
10
16.649147
20
13.764322
42
0.018595
0
VERTEX
8
1
10
15.916588
20
13.301748
0
VERTEX
8
1
10
15.916588
20
13.982929
42
0.239418
0
VERTEX
8
1
10
16.020809
20
14.115808
42
0.055135
0
VERTEX
8
1
10
16.039150
20
14.362242
42
0.000375
0
VERTEX
8
1
10
16.038063
20
17.457766
42
0.091508
0
VERTEX
8
1
10
16.008080
20
17.674301
42
0.209127
0
VERTEX
8
1
10
15.916588
20
17.768845
42
0.001276
0
SEQEND
0
POLYLINE
8
1
66
1
70
1
0
VERTEX
8
1
10
29.851299
20
18.757343
42
0.604104
0
VERTEX
8
1
10
29.924681
20
18.873177
42
-0.035294
0
VERTEX
8
1
10
29.700308
20
18.955702
42
0.195677
0
VERTEX
8
1
10
28.947792
20
19.132765
0
VERTEX
8
1
10
28.925657
20
18.955702
0
VERTEX
8
1
10
28.925209
20
18.955254
42
0.483334
0
VERTEX
8
1
10
29.073517
20
18.757343
0
SEQEND
0
POLYLINE
8
1
66
1
70
1
0
VERTEX
8
1
10
27.224693
20
18.757343
42
0.547988
0
VERTEX
8
1
10
27.395576
20
19.001856
42
-0.169052
0
VERTEX
8
1
10
27.531286
20
19.907417
0
VERTEX
8
1
10
27.651819
20
20.010729
42
0.353549
0
VERTEX
8
1
10
28.109495
20
20.892076
0
VERTEX
8
1
10
28.106735
20
21.014059
42
0.285302
0
VERTEX
8
1
10
27.358650
20
21.393858
42
0.108328
0
VERTEX
8
1
10
23.758936
20
21.564983
42
0.114202
0
VERTEX
8
1
10
22.577852
20
21.189102
42
0.296944
0
VERTEX
8
1
10
22.462856
20
20.682068
0
VERTEX
8
1
10
22.595654
20
20.173010
42
-0.431235
0
VERTEX
8
1
10
23.160839
20
18.896259
42
0.696997
0
VERTEX
8
1
10
23.227335
20
18.757343
0
SEQEND
0
POLYLINE
8
1
66
1
70
1
0
VERTEX
8
1
10
21.579346
20
18.757343
42
0.563223
0
VERTEX
8
1
10
21.677731
20
18.881992
42
-0.211409
0
VERTEX
8
1
10
21.688204
20
19.044233
42
0.276694
0
VERTEX
8
1
10
21.422607
20
19.110630
0
VERTEX
8
1
10
21.134888
20
19.044233
0
VERTEX
8
1
10
20.670778
20
18.852192
42
0.728920
0
VERTEX
8
1
10
20.717152
20
18.757343
0
SEQEND
0
POLYLINE
8
1
66
1
70
1
0
VERTEX
8
1
10
21.732473
20
19.354094
0
VERTEX
8
1
10
21.931665
20
19.331961
42
-0.082754
0
VERTEX
8
1
10
22.219395
20
19.309832
0
VERTEX
8
1
10
22.706318
20
19.309832
42
-0.123038
0
VERTEX
8
1
10
22.861248
20
19.331961
42
-0.816859
0
VERTEX
8
1
10
23.016182
20
19.243429
0
VERTEX
8
1
10
23.016182
20
19.221298
42
-0.414204
0
VERTEX
8
1
10
22.949780
20
19.044233
0
VERTEX
8
1
10
22.750586
20
19.022100
0
VERTEX
8
1
10
22.573519
20
19.022100
42
-0.125002
0
VERTEX
8
1
10
22.219395
20
19.022100
42
-0.082738
0
VERTEX
8
1
10
21.931665
20
19.044233
0
VERTEX
8
1
10
21.909540
20
19.066364
0
VERTEX
8
1
10
21.865273
20
19.243429
42
0.162204
0
VERTEX
8
1
10
21.710339
20
19.331961
0
SEQEND
0
POLYLINE
8
1
66
1
70
1
0
VERTEX
8
1
10
27.945656
20
19.042196
0
VERTEX
8
1
10
27.730297
20
19.067739
42
-0.428568
0
VERTEX
8
1
10
27.575367
20
19.222672
0
VERTEX
8
1
10
27.597502
20
19.244806
42
-0.123175
0
VERTEX
8
1
10
27.619635
20
19.443998
42
0.039758
0
VERTEX
8
1
10
27.853809
20
19.391130
0
VERTEX
8
1
10
28.062288
20
19.355467
0
VERTEX
8
1
10
28.394278
20
19.355467
0
VERTEX
8
1
10
28.615612
20
19.377604
42
-0.166653
0
VERTEX
8
1
10
28.881201
20
19.377604
42
0.316851
0
VERTEX
8
1
10
28.726276
20
19.222672
42
-0.566207
0
VERTEX
8
1
10
28.615612
20
19.045609
0
VERTEX
8
1
10
28.593477
20
19.067739
0
VERTEX
8
1
10
28.571342
20
19.045609
0
SEQEND
0
POLYLINE
8
1
66
1
70
1
0
VERTEX
8
1
10
29.737047
20
25.171926
0
VERTEX
8
1
10
29.740902
20
25.193895
42
0.150361
0
VERTEX
8
1
10
29.487385
20
25.278402
0
VERTEX
8
1
10
29.381758
20
25.320654
0
VERTEX
8
1
10
29.170496
20
25.320654
42
0.150387
0
VERTEX
8
1
10
28.726847
20
25.299528
0
VERTEX
8
1
10
28.729927
20
24.589308
42
0.362590
0
VERTEX
8
1
10
28.811348
20
24.538984
0
VERTEX
8
1
10
29.115986
20
24.504942
42
-0.023812
0
VERTEX
8
1
10
29.446083
20
24.436811
0
VERTEX
8
1
10
29.804287
20
24.306593
42
0.618004
0
VERTEX
8
1
10
29.825403
20
24.412222
0
VERTEX
8
1
10
29.804287
20
24.729120
0
VERTEX
8
1
10
29.783157
20
24.750242
0
VERTEX
8
1
10
29.758856
20
25.008680
42
0.053978
0
SEQEND
0
POLYLINE
8
1
66
1
70
1
0
VERTEX
8
1
10
25.887619
20
25.163382
0
VERTEX
8
1
10
25.843349
20
25.163382
0
VERTEX
8
1
10
25.599888
20
25.362574
42
0.466001
0
VERTEX
8
1
10
25.666292
20
25.141249
0
VERTEX
8
1
10
25.688416
20
25.119116
0
VERTEX
8
1
10
26.086811
20
24.986319
42
1.000147
0
VERTEX
8
1
10
26.108946
20
25.052713
42
0.169388
0
VERTEX
8
1
10
25.909754
20
25.274046
42
0.236106
0
SEQEND
0
POLYLINE
8
1
66
1
70
1
0
VERTEX
8
1
10
28.200840
20
27.899805
42
0.075342
0
VERTEX
8
1
10
28.490923
20
27.902967
0
VERTEX
8
1
10
28.561100
20
28.025785
42
-1.206718
0
VERTEX
8
1
10
28.503250
20
27.736433
0
VERTEX
8
1
10
27.988388
20
27.686399
42
0.512401
0
VERTEX
8
1
10
28.115648
20
27.304586
0
VERTEX
8
1
10
28.255173
20
27.171934
0
VERTEX
8
1
10
28.293474
20
27.082666
42
0.242284
0
VERTEX
8
1
10
28.865788
20
26.119928
0
VERTEX
8
1
10
28.987148
20
25.585688
0
VERTEX
8
1
10
29.386545
20
25.594404
0
VERTEX
8
1
10
29.412893
20
25.636900
42
0.031387
0
VERTEX
8
1
10
29.363874
20
26.747358
42
0.043389
0
VERTEX
8
1
10
29.367144
20
27.983362
0
VERTEX
8
1
10
29.218666
20
28.174261
42
0.105477
0
VERTEX
8
1
10
28.440216
20
28.488836
0
VERTEX
8
1
10
28.327772
20
28.386381
0
SEQEND
0
POLYLINE
8
1
66
1
70
1
0
VERTEX
8
1
10
25.130465
20
25.831919
0
VERTEX
8
1
10
25.152597
20
25.822752
42
-0.369722
0
VERTEX
8
1
10
25.418194
20
25.889151
0
VERTEX
8
1
10
25.506723
20
25.734221
42
-0.566218
0
VERTEX
8
1
10
25.440329
20
25.557158
0
VERTEX
8
1
10
25.351791
20
25.645689
0
VERTEX
8
1
10
25.130465
20
25.756353
42
-0.843110
0
SEQEND
0
POLYLINE
8
1
66
1
70
1
0
VERTEX
8
1
10
29.740847
20
29.640759
42
-0.575262
0
VERTEX
8
1
10
29.807095
20
29.703693
0
VERTEX
8
1
10
29.824528
20
29.699146
0
VERTEX
8
1
10
29.840134
20
29.690151
0
VERTEX
8
1
10
29.995066
20
29.734417
0
VERTEX
8
1
10
30.083595
20
29.867214
42
0.347447
0
VERTEX
8
1
10
29.568380
20
29.993458
42
0.345953
0
VERTEX
8
1
10
29.497427
20
29.535664
42
0.072581
0
VERTEX
8
1
10
29.575638
20
29.476711
42
-0.084342
0
VERTEX
8
1
10
30.677465
20
28.880316
42
0.075271
0
VERTEX
8
1
10
31.389437
20
28.716303
0
VERTEX
8
1
10
31.520555
20
28.667601
42
-0.670621
0
VERTEX
8
1
10
31.532639
20
28.619238
42
0.420111
0
VERTEX
8
1
10
31.544371
20
28.472845
42
-0.055380
0
VERTEX
8
1
10
31.699293
20
27.897387
0
VERTEX
8
1
10
31.743563
20
27.742453
0
VERTEX
8
1
10
32.127182
20
27.742453
42
0.346101
0
VERTEX
8
1
10
32.156551
20
27.762182
0
VERTEX
8
1
10
32.047913
20
28.739954
42
0.120250
0
VERTEX
8
1
10
31.428194
20
29.448200
42
0.038664
0
VERTEX
8
1
10
30.476475
20
30.488445
42
0.310124
0
VERTEX
8
1
10
30.427322
20
30.469296
42
0.175605
0
VERTEX
8
1
10
30.292528
20
29.811039
42
0.185407
0
VERTEX
8
1
10
30.305672
20
29.796993
0
VERTEX
8
1
10
30.538645
20
29.715603
42
0.459259
0
VERTEX
8
1
10
30.565878
20
29.733089
42
0.280011
0
VERTEX
8
1
10
30.538961
20
29.947742
42
-0.389389
0
VERTEX
8
1
10
30.647907
20
30.051151
42
-0.276587
0
VERTEX
8
1
10
30.737255
20
30.007595
42
-0.348616
0
VERTEX
8
1
10
30.626120
20
29.476643
42
-0.213803
0
VERTEX
8
1
10
30.545151
20
29.462505
0
VERTEX
8
1
10
30.174244
20
29.646908
42
0.314193
0
VERTEX
8
1
10
30.127865
20
29.623745
42
-0.303839
0
VERTEX
8
1
10
29.800304
20
29.599728
0
VERTEX
8
1
10
29.767332
20
29.619869
0
SEQEND
0
POLYLINE
8
1
66
1
70
1
0
VERTEX
8
1
10
24.638350
20
28.703058
0
VERTEX
8
1
10
24.616215
20
28.680929
0
VERTEX
8
1
10
24.439159
20
28.636663
42
-0.280442
0
VERTEX
8
1
10
24.262093
20
28.769461
0
VERTEX
8
1
10
24.217833
20
28.946522
0
VERTEX
8
1
10
24.239967
20
28.968655
42
-0.236083
0
VERTEX
8
1
10
24.262093
20
29.079319
42
-0.530297
0
VERTEX
8
1
10
24.549822
20
29.145718
0
VERTEX
8
1
10
24.549822
20
29.123585
42
0.071463
0
VERTEX
8
1
10
24.571957
20
28.769461
0
SEQEND
0
POLYLINE
8
1
66
1
70
1
0
VERTEX
8
1
10
21.777046
20
20.438938
42
-0.243145
0
VERTEX
8
1
10
22.282370
20
20.561493
42
-0.829758
0
VERTEX
8
1
10
22.260529
20
20.488119
42
0.201495
0
VERTEX
8
1
10
21.835649
20
20.370497
42
-0.921687
0
SEQEND
0
POLYLINE
8
1
66
1
70
1
0
VERTEX
8
1
10
21.879240
20
20.289709
42
-0.243143
0
VERTEX
8
1
10
22.317350
20
20.395966
42
-0.829691
0
VERTEX
8
1
10
22.298418
20
20.332346
42
0.201516
0
VERTEX
8
1
10
21.930048
20
20.230370
42
-0.921808
0
SEQEND
0
POLYLINE
8
1
66
1
70
1
0
VERTEX
8
1
10
28.282778
20
20.309347
42
-0.243155
0
VERTEX
8
1
10
28.618761
20
20.236763
42
-0.829355
0
VERTEX
8
1
10
28.584631
20
20.199392
42
0.201428
0
VERTEX
8
1
10
28.289080
20
20.251509
42
-0.792598
0
SEQEND
0
POLYLINE
8
1
66
1
70
1
0
VERTEX
8
1
10
28.238276
20
20.465521
42
-0.243132
0
VERTEX
8
1
10
28.689875
20
20.367960
42
-0.829359
0
VERTEX
8
1
10
28.643995
20
20.317730
42
0.201505
0
VERTEX
8
1
10
28.258657
20
20.388103
42
-0.921773
0
SEQEND
0
POLYLINE
8
1
66
1
70
1
0
VERTEX
8
1
10
27.509151
20
24.511053
0
VERTEX
8
1
10
28.470804
20
24.167654
42
0.528179
0
VERTEX
8
1
10
28.549397
20
24.333990
0
VERTEX
8
1
10
28.527262
20
24.710249
0
VERTEX
8
1
10
27.354218
20
24.599585
0
VERTEX
8
1
10
27.349724
20
24.595079
42
0.045250
0
SEQEND
0
POLYLINE
8
1
66
1
70
1
0
VERTEX
8
1
10
25.074350
20
25.564257
0
VERTEX
8
1
10
25.359533
20
25.355688
0
VERTEX
8
1
10
25.397840
20
25.206713
0
VERTEX
8
1
10
25.053068
20
25.351435
0
SEQEND
0
POLYLINE
8
1
66
1
70
1
0
VERTEX
8
1
10
25.840059
20
25.607203
0
VERTEX
8
1
10
25.871059
20
25.605841
0
VERTEX
8
1
10
25.901875
20
25.602171
42
-0.246898
0
VERTEX
8
1
10
26.435837
20
25.180639
0
VERTEX
8
1
10
26.452208
20
25.139921
42
0.434402
0
VERTEX
8
1
10
26.769350
20
24.967337
42
0.208952
0
VERTEX
8
1
10
25.897654
20
25.857889
42
0.067013
0
VERTEX
8
1
10
25.675083
20
25.928476
42
0.329868
0
SEQEND
0
POLYLINE
8
1
66
1
70
1
0
VERTEX
8
1
10
25.758276
20
23.036245
42
0.096622
0
VERTEX
8
1
10
25.521469
20
23.199476
42
0.177042
0
VERTEX
8
1
10
24.448626
20
23.552191
0
VERTEX
8
1
10
23.895267
20
23.447027
0
VERTEX
8
1
10
25.700058
20
22.063618
42
0.317916
0
VERTEX
8
1
10
25.709240
20
22.062584
0
VERTEX
8
1
10
26.889433
20
23.093054
42
-0.289868
0
VERTEX
8
1
10
26.942547
20
23.095221
0
VERTEX
8
1
10
28.286104
20
22.564873
42
0.870597
0
VERTEX
8
1
10
28.298122
20
22.575863
0
VERTEX
8
1
10
27.880419
20
23.191496
42
0.204176
0
VERTEX
8
1
10
27.868130
20
23.198462
0
VERTEX
8
1
10
26.006893
20
23.742201
0
VERTEX
8
1
10
25.996969
20
23.743910
0
VERTEX
8
1
10
25.987314
20
23.741102
0
VERTEX
8
1
10
25.917116
20
23.085623
42
-0.706079
0
SEQEND
0
POLYLINE
8
1
66
1
70
1
0
VERTEX
8
1
10
22.508839
20
32.040516
42
-0.088467
0
VERTEX
8
1
10
25.819145
20
29.536617
42
0.845856
0
VERTEX
8
1
10
25.884819
20
29.607800
42
0.089105
0
VERTEX
8
1
10
22.559334
20
32.122112
42
0.823394
0
SEQEND
0
POLYLINE
8
1
66
1
70
1
0
VERTEX
8
1
10
17.811871
20
19.224463
0
VERTEX
8
1
10
17.814953
20
19.221298
42
0.196634
0
VERTEX
8
1
10
18.146946
20
18.955702
42
-0.082763
0
VERTEX
8
1
10
18.434673
20
18.977831
0
VERTEX
8
1
10
20.397022
20
18.958080
0
VERTEX
8
1
10
21.161940
20
19.234598
0
VERTEX
8
1
10
21.201281
20
19.243429
42
-0.236038
0
VERTEX
8
1
10
21.378349
20
19.287695
0
VERTEX
8
1
10
21.489012
20
19.331961
42
0.224861
0
VERTEX
8
1
10
21.289812
20
19.331961
0
VERTEX
8
1
10
21.046350
20
19.287695
0
VERTEX
8
1
10
21.024216
20
19.265562
0
VERTEX
8
1
10
20.581562
20
19.154900
0
VERTEX
8
1
10
19.939709
20
19.154900
42
-0.082772
0
VERTEX
8
1
10
19.651978
20
19.132765
0
VERTEX
8
1
10
18.523205
20
19.132765
0
VERTEX
8
1
10
18.003078
20
19.188095
42
-0.119961
0
VERTEX
8
1
10
17.870686
20
19.251648
42
-0.116939
0
VERTEX
8
1
10
17.611118
20
19.761724
42
0.120318
0
VERTEX
8
1
10
17.460819
20
19.951681
0
VERTEX
8
1
10
17.438686
20
19.929548
42
0.017325
0
SEQEND
0
POLYLINE
8
1
66
1
70
1
0
VERTEX
8
1
10
22.035269
20
25.800764
42
0.259763
0
VERTEX
8
1
10
22.033405
20
25.783621
0
VERTEX
8
1
10
22.181761
20
25.524000
42
0.249047
0
VERTEX
8
1
10
22.229315
20
25.497396
0
VERTEX
8
1
10
22.231394
20
25.498243
0
VERTEX
8
1
10
22.233257
20
25.499495
0
VERTEX
8
1
10
22.263653
20
25.529165
0
VERTEX
8
1
10
22.462856
20
25.639830
0
VERTEX
8
1
10
22.728453
20
25.750498
0
VERTEX
8
1
10
22.861248
20
25.772627
42
0.236104
0
VERTEX
8
1
10
22.971912
20
25.794760
42
0.146735
0
VERTEX
8
1
10
23.286064
20
25.789358
0
VERTEX
8
1
10
23.337103
20
25.795027
42
-0.055556
0
VERTEX
8
1
10
24.676147
20
25.440634
0
VERTEX
8
1
10
24.808935
20
25.418501
0
VERTEX
8
1
10
24.875340
20
25.462767
0
VERTEX
8
1
10
24.853205
20
25.794760
0
VERTEX
8
1
10
24.698282
20
25.883299
42
0.199924
0
VERTEX
8
1
10
24.476946
20
25.883299
0
VERTEX
8
1
10
24.078554
20
26.016092
0
VERTEX
8
1
10
24.034304
20
26.016092
42
0.489127
0
VERTEX
8
1
10
23.901497
20
26.038221
0
VERTEX
8
1
10
23.967901
20
25.971823
0
VERTEX
8
1
10
23.923632
20
25.927561
0
VERTEX
8
1
10
23.835093
20
25.971823
0
VERTEX
8
1
10
23.816463
20
25.966726
0
VERTEX
8
1
10
23.569498
20
26.104624
0
VERTEX
8
1
10
23.370306
20
26.126760
42
0.166639
0
VERTEX
8
1
10
23.104710
20
26.126760
42
0.086297
0
VERTEX
8
1
10
22.141459
20
25.875612
0
SEQEND
0
POLYLINE
8
1
66
1
70
1
0
VERTEX
8
1
10
20.426632
20
28.981892
0
VERTEX
8
1
10
20.338100
20
29.048298
0
VERTEX
8
1
10
20.197330
20
28.961056
42
0.427076
0
VERTEX
8
1
10
20.053699
20
29.010723
0
VERTEX
8
1
10
20.028236
20
28.981892
0
VERTEX
8
1
10
19.939709
20
29.004025
42
1.000121
0
VERTEX
8
1
10
19.873314
20
29.026165
0
VERTEX
8
1
10
19.764515
20
29.114010
0
VERTEX
8
1
10
19.563450
20
29.026165
42
-0.720796
0
VERTEX
8
1
10
19.585583
20
29.114689
42
0.618129
0
VERTEX
8
1
10
19.452785
20
29.070423
0
VERTEX
8
1
10
19.342125
20
29.026165
0
VERTEX
8
1
10
19.319988
20
29.048298
42
-0.189724
0
VERTEX
8
1
10
19.454128
20
29.288509
0
VERTEX
8
1
10
19.408520
20
29.291759
0
VERTEX
8
1
10
19.165058
20
29.114689
0
VERTEX
8
1
10
19.098663
20
29.181095
0
VERTEX
8
1
10
18.909374
20
29.029667
42
0.371211
0
VERTEX
8
1
10
18.908657
20
28.992428
42
0.049151
0
VERTEX
8
1
10
20.285305
20
27.667944
0
VERTEX
8
1
10
21.224596
20
26.748171
0
VERTEX
8
1
10
21.739901
20
26.155966
0
VERTEX
8
1
10
21.913054
20
25.986410
42
0.356540
0
VERTEX
8
1
10
21.944843
20
25.987898
0
VERTEX
8
1
10
22.137175
20
26.116117
0
VERTEX
8
1
10
22.269962
20
26.138254
0
VERTEX
8
1
10
22.292097
20
26.160391
0
VERTEX
8
1
10
22.734760
20
26.271048
42
0.558109
0
VERTEX
8
1
10
22.800587
20
26.322557
42
0.378624
0
VERTEX
8
1
10
22.756439
20
26.340658
0
VERTEX
8
1
10
22.741325
20
26.335432
42
-0.616390
0
VERTEX
8
1
10
22.617786
20
26.392351
0
VERTEX
8
1
10
22.551384
20
26.370214
42
0.415385
0
VERTEX
8
1
10
22.330057
20
26.458746
0
VERTEX
8
1
10
22.175125
20
26.503016
0
VERTEX
8
1
10
22.175125
20
26.525152
0
VERTEX
8
1
10
22.263653
20
26.746477
0
VERTEX
8
1
10
22.241529
20
26.768614
0
VERTEX
8
1
10
22.108730
20
26.702208
0
VERTEX
8
1
10
22.086596
20
26.724340
0
VERTEX
8
1
10
22.108730
20
26.746477
0
VERTEX
8
1
10
22.153000
20
26.989939
0
VERTEX
8
1
10
22.041231
20
27.089537
0
VERTEX
8
1
10
22.086596
20
27.144869
0
VERTEX
8
1
10
22.086596
20
27.676062
0
VERTEX
8
1
10
22.020195
20
27.919516
42
-0.556600
0
VERTEX
8
1
10
21.930470
20
28.039885
42
0.117847
0
VERTEX
8
1
10
21.887405
20
28.229376
0
VERTEX
8
1
10
21.754599
20
28.096579
0
VERTEX
8
1
10
21.737911
20
28.156431
0
VERTEX
8
1
10
21.754599
20
28.340044
0
VERTEX
8
1
10
21.732473
20
28.362173
0
VERTEX
8
1
10
21.599676
20
28.295782
42
-0.353960
0
VERTEX
8
1
10
21.599676
20
28.428579
0
VERTEX
8
1
10
21.621811
20
28.539240
0
VERTEX
8
1
10
21.599676
20
28.561369
0
VERTEX
8
1
10
21.489012
20
28.517103
42
-0.086860
0
VERTEX
8
1
10
21.483608
20
28.977604
42
0.431994
0
VERTEX
8
1
10
21.101181
20
29.229397
0
VERTEX
8
1
10
21.044661
20
29.220127
42
0.137241
0
VERTEX
8
1
10
20.826691
20
29.119122
42
0.254060
0
VERTEX
8
1
10
20.595968
20
28.529669
0
VERTEX
8
1
10
20.650604
20
28.239477
42
0.149420
0
VERTEX
8
1
10
20.712450
20
28.126196
42
0.168005
0
VERTEX
8
1
10
20.960602
20
27.787909
42
0.175836
0
VERTEX
8
1
10
21.181086
20
27.744490
0
VERTEX
8
1
10
21.286488
20
27.791929
0
VERTEX
8
1
10
21.358162
20
28.103586
42
-0.169267
0
VERTEX
8
1
10
21.409479
20
28.077574
42
-0.527707
0
VERTEX
8
1
10
21.341269
20
27.574831
42
-0.594187
0
VERTEX
8
1
10
20.369236
20
28.498098
0
VERTEX
8
1
10
20.464413
20
28.937519
42
0.186653
0
SEQEND
0
POLYLINE
8
1
66
1
70
1
0
VERTEX
8
1
10
25.390568
20
27.829870
0
VERTEX
8
1
10
25.285385
20
27.797628
42
-0.489012
0
VERTEX
8
1
10
25.134167
20
27.913328
0
VERTEX
8
1
10
25.081209
20
28.009146
0
VERTEX
8
1
10
25.078369
20
28.134832
42
-0.198815
0
VERTEX
8
1
10
25.088406
20
28.267481
0
VERTEX
8
1
10
25.212349
20
28.372366
42
-0.431422
0
VERTEX
8
1
10
25.565094
20
28.301985
0
VERTEX
8
1
10
25.571583
20
28.280825
0
VERTEX
8
1
10
25.438120
20
28.263067
42
0.140063
0
VERTEX
8
1
10
25.326727
20
28.208403
42
0.285909
0
VERTEX
8
1
10
25.291851
20
28.051474
42
0.163642
0
VERTEX
8
1
10
25.340818
20
27.998716
0
VERTEX
8
1
10
25.420675
20
27.989748
0
VERTEX
8
1
10
25.498482
20
28.009871
42
-0.066354
0
VERTEX
8
1
10
25.606039
20
28.078642
42
-0.586008
0
VERTEX
8
1
10
25.627195
20
28.065596
0
VERTEX
8
1
10
25.617527
20
28.047384
42
0.744035
0
VERTEX
8
1
10
25.641340
20
28.020391
42
-0.059270
0
VERTEX
8
1
10
25.760654
20
28.096579
0
VERTEX
8
1
10
25.849184
20
28.207247
42
-0.000003
0
VERTEX
8
1
10
25.672127
20
28.517103
42
-0.123509
0
VERTEX
8
1
10
25.738520
20
29.004025
0
VERTEX
8
1
10
25.716394
20
29.026165
0
VERTEX
8
1
10
24.986004
20
29.668018
42
0.012668
0
VERTEX
8
1
10
24.427176
20
30.054996
42
0.111486
0
VERTEX
8
1
10
24.543350
20
29.623745
0
VERTEX
8
1
10
24.742542
20
29.291759
0
VERTEX
8
1
10
24.963877
20
29.070423
0
VERTEX
8
1
10
25.207338
20
28.937626
42
0.249927
0
VERTEX
8
1
10
25.384396
20
28.937626
0
VERTEX
8
1
10
25.406530
20
28.937626
0
VERTEX
8
1
10
25.317993
20
28.849096
42
-0.025616
0
VERTEX
8
1
10
24.565474
20
28.494970
0
VERTEX
8
1
10
24.499081
20
28.494970
42
-0.489169
0
VERTEX
8
1
10
24.366285
20
28.472845
42
-0.328514
0
VERTEX
8
1
10
24.082636
20
28.613920
0
VERTEX
8
1
10
24.034294
20
28.716303
42
0.062214
0
VERTEX
8
1
10
24.012159
20
29.092564
0
VERTEX
8
1
10
23.983328
20
29.118015
0
VERTEX
8
1
10
23.991320
20
29.293552
0
VERTEX
8
1
10
24.259388
20
29.331753
42
0.362483
0
VERTEX
8
1
10
24.299881
20
29.468815
0
VERTEX
8
1
10
24.100689
20
29.557354
42
-0.859202
0
VERTEX
8
1
10
24.059143
20
29.587902
42
0.568169
0
VERTEX
8
1
10
24.117308
20
29.667980
42
-0.509808
0
VERTEX
8
1
10
24.128918
20
29.679302
42
0.440766
0
VERTEX
8
1
10
24.189226
20
29.734417
0
VERTEX
8
1
10
24.078554
20
29.800816
0
VERTEX
8
1
10
24.116341
20
29.816463
0
VERTEX
8
1
10
24.233486
20
29.778683
42
0.224904
0
VERTEX
8
1
10
24.254337
20
29.804485
42
-0.617771
0
VERTEX
8
1
10
24.236065
20
29.867916
0
VERTEX
8
1
10
24.242846
20
29.871304
0
VERTEX
8
1
10
24.250278
20
29.872799
42
0.628975
0
VERTEX
8
1
10
24.233250
20
29.907131
0
VERTEX
8
1
10
24.225384
20
29.908405
42
-0.705448
0
VERTEX
8
1
10
24.224230
20
29.966213
42
0.231748
0
VERTEX
8
1
10
24.236401
20
30.003277
42
-0.567004
0
VERTEX
8
1
10
24.212076
20
30.066105
42
0.334487
0
VERTEX
8
1
10
24.182304
20
30.212849
42
0.020756
0
VERTEX
8
1
10
23.197607
20
30.780033
42
0.040472
0
VERTEX
8
1
10
21.794174
20
31.567059
42
0.152318
0
VERTEX
8
1
10
21.714876
20
31.560345
0
VERTEX
8
1
10
21.580282
20
31.521885
0
VERTEX
8
1
10
21.558168
20
31.522846
0
VERTEX
8
1
10
21.039986
20
31.323826
0
VERTEX
8
1
10
21.016911
20
31.302670
42
0.041586
0
VERTEX
8
1
10
20.768875
20
31.202679
0
VERTEX
8
1
10
20.745810
20
31.181522
0
VERTEX
8
1
10
20.426632
20
30.973858
0
VERTEX
8
1
10
20.515160
20
30.951725
42
-0.236090
0
VERTEX
8
1
10
20.426632
20
30.818928
0
VERTEX
8
1
10
20.404499
20
30.752522
0
VERTEX
8
1
10
20.647966
20
30.863194
0
VERTEX
8
1
10
20.647966
20
30.841053
42
-0.162275
0
VERTEX
8
1
10
20.515160
20
30.663998
0
VERTEX
8
1
10
20.548586
20
30.644978
0
VERTEX
8
1
10
20.586975
20
30.642590
0
VERTEX
8
1
10
20.622505
20
30.657299
0
VERTEX
8
1
10
20.647966
20
30.686131
0
VERTEX
8
1
10
20.758619
20
30.730396
0
VERTEX
8
1
10
20.802889
20
30.619732
0
VERTEX
8
1
10
20.825024
20
30.619732
42
-0.098998
0
VERTEX
8
1
10
20.891417
20
30.531193
0
VERTEX
8
1
10
20.913561
20
30.509037
0
VERTEX
8
1
10
20.916645
20
30.477856
0
VERTEX
8
1
10
20.899258
20
30.451794
0
VERTEX
8
1
10
21.025618
20
30.411518
42
0.237447
0
VERTEX
8
1
10
21.380138
20
30.121471
0
VERTEX
8
1
10
21.223415
20
30.022137
42
-0.049027
0
VERTEX
8
1
10
21.666069
20
29.867214
0
VERTEX
8
1
10
21.311945
20
29.822948
42
-0.259174
0
VERTEX
8
1
10
21.751774
20
29.608616
42
0.913056
0
VERTEX
8
1
10
21.665583
20
29.550045
0
VERTEX
8
1
10
21.865273
20
29.402416
0
VERTEX
8
1
10
21.798868
20
29.336025
0
VERTEX
8
1
10
21.851568
20
29.306705
0
VERTEX
8
1
10
21.821003
20
29.114689
0
VERTEX
8
1
10
21.843138
20
29.092564
0
VERTEX
8
1
10
21.909540
20
29.158962
42
-0.442319
0
VERTEX
8
1
10
21.931665
20
29.004025
0
VERTEX
8
1
10
21.953800
20
28.981892
0
VERTEX
8
1
10
22.042326
20
29.004025
0
VERTEX
8
1
10
22.020195
20
28.760565
0
VERTEX
8
1
10
22.042326
20
28.738432
0
VERTEX
8
1
10
22.130865
20
28.826963
42
0.091172
0
VERTEX
8
1
10
22.263186
20
28.122747
0
VERTEX
8
1
10
22.529249
20
27.454729
0
VERTEX
8
1
10
22.617786
20
27.144869
0
VERTEX
8
1
10
22.639921
20
27.321932
42
-0.414254
0
VERTEX
8
1
10
22.706318
20
27.166998
0
VERTEX
8
1
10
22.772711
20
26.879271
42
-0.793387
0
VERTEX
8
1
10
22.889235
20
26.925077
0
VERTEX
8
1
10
23.237507
20
26.569414
0
VERTEX
8
1
10
23.303902
20
26.641035
42
0.121584
0
VERTEX
8
1
10
23.755842
20
26.416384
42
0.053511
0
VERTEX
8
1
10
24.211361
20
26.281683
0
VERTEX
8
1
10
24.410553
20
26.237417
0
VERTEX
8
1
10
24.432686
20
26.325949
42
-0.004241
0
VERTEX
8
1
10
24.941742
20
26.303816
0
VERTEX
8
1
10
25.029579
20
26.287237
42
0.099862
0
VERTEX
8
1
10
25.672127
20
26.370214
0
VERTEX
8
1
10
25.760654
20
26.458746
0
VERTEX
8
1
10
25.517490
20
26.856840
42
0.249470
0
VERTEX
8
1
10
25.280214
20
26.907888
0
VERTEX
8
1
10
25.273733
20
26.923536
42
-0.277009
0
VERTEX
8
1
10
25.472927
20
26.989939
42
0.130370
0
VERTEX
8
1
10
25.644867
20
27.041883
42
0.435412
0
VERTEX
8
1
10
25.651423
20
27.158880
42
0.261894
0
VERTEX
8
1
10
25.403599
20
27.297422
42
0.073721
0
VERTEX
8
1
10
25.109541
20
27.199923
0
VERTEX
8
1
10
24.888214
20
27.155657
0
VERTEX
8
1
10
24.689022
20
27.089258
0
VERTEX
8
1
10
24.202101
20
26.890059
0
VERTEX
8
1
10
24.201410
20
26.888670
42
-0.862811
0
VERTEX
8
1
10
24.124348
20
27.035688
42
-0.079463
0
VERTEX
8
1
10
24.854740
20
27.353872
0
VERTEX
8
1
10
25.142469
20
27.442408
0
VERTEX
8
1
10
25.164604
20
27.464544
42
0.283014
0
VERTEX
8
1
10
25.301117
20
27.471365
42
0.146220
0
VERTEX
8
1
10
25.362261
20
27.587530
42
-0.064742
0
VERTEX
8
1
10
25.432177
20
27.773771
42
0.489176
0
SEQEND
0
POLYLINE
8
1
66
1
70
1
0
VERTEX
8
1
10
33.125206
20
20.009129
42
0.172836
0
VERTEX
8
1
10
32.975975
20
19.796753
42
0.090236
0
VERTEX
8
1
10
32.798916
20
19.420490
0
VERTEX
8
1
10
32.688244
20
19.265562
0
VERTEX
8
1
10
32.511185
20
19.221298
0
VERTEX
8
1
10
31.891459
20
19.199163
0
VERTEX
8
1
10
30.159145
20
19.199163
42
-0.096454
0
VERTEX
8
1
10
29.832861
20
19.248652
0
VERTEX
8
1
10
29.772192
20
19.285486
42
0.059327
0
VERTEX
8
1
10
29.210640
20
19.395111
42
0.732554
0
VERTEX
8
1
10
29.207687
20
19.351110
0
VERTEX
8
1
10
29.550848
20
19.265318
0
VERTEX
8
1
10
30.126299
20
19.043989
42
0.055630
0
VERTEX
8
1
10
30.236088
20
19.014898
42
0.005200
0
VERTEX
8
1
10
31.201120
20
19.042088
0
VERTEX
8
1
10
32.277378
20
19.062393
42
0.333006
0
VERTEX
8
1
10
32.542976
20
19.062387
42
0.162242
0
VERTEX
8
1
10
32.897102
20
19.571451
42
-0.091639
0
VERTEX
8
1
10
33.148155
20
19.997252
42
0.820447
0
SEQEND
0
POLYLINE
8
1
66
1
70
1
0
VERTEX
8
1
10
31.592934
20
27.170797
42
-0.098247
0
VERTEX
8
1
10
31.604240
20
27.459436
0
VERTEX
8
1
10
31.624575
20
27.479769
0
VERTEX
8
1
10
31.624575
20
27.500105
0
VERTEX
8
1
10
31.803097
20
27.560629
0
VERTEX
8
1
10
32.437881
20
27.479769
42
-0.087838
0
VERTEX
8
1
10
32.656410
20
26.553625
0
VERTEX
8
1
10
32.641205
20
26.503798
42
0.109583
0
VERTEX
8
1
10
31.774834
20
26.689390
42
-0.150058
0
SEQEND
0
POLYLINE
8
1
66
1
70
1
0
VERTEX
8
1
10
30.115261
20
30.122150
42
0.136728
0
VERTEX
8
1
10
30.135460
20
30.164280
0
VERTEX
8
1
10
30.156940
20
30.315990
0
VERTEX
8
1
10
30.169518
20
30.335682
42
-0.095557
0
VERTEX
8
1
10
30.266947
20
30.608540
0
VERTEX
8
1
10
30.235292
20
30.627529
42
0.243423
0
VERTEX
8
1
10
30.219339
20
30.625782
0
VERTEX
8
1
10
30.079828
20
30.526134
0
VERTEX
8
1
10
30.013432
20
30.393337
0
VERTEX
8
1
10
30.013470
20
30.190807
42
0.185405
0
VERTEX
8
1
10
30.024611
20
30.147038
0
VERTEX
8
1
10
30.114714
20
30.121296
0
SEQEND
0
POLYLINE
8
1
66
1
70
1
0
VERTEX
8
1
10
29.819712
20
30.247868
42
-0.267731
0
VERTEX
8
1
10
29.599300
20
30.268101
42
-0.027319
0
VERTEX
8
1
10
29.619629
20
30.399502
42
-0.056959
0
VERTEX
8
1
10
29.655806
20
30.473278
0
VERTEX
8
1
10
29.670237
20
30.528446
0
VERTEX
8
1
10
29.703447
20
30.576565
0
VERTEX
8
1
10
29.751976
20
30.612621
0
VERTEX
8
1
10
29.810740
20
30.632832
0
VERTEX
8
1
10
29.854998
20
30.553051
0
VERTEX
8
1
10
29.820473
20
30.366367
42
0.055578
0
VERTEX
8
1
10
29.820063
20
30.248219
0
SEQEND
0
POLYLINE
8
1
66
1
70
1
0
VERTEX
8
1
10
25.286610
20
32.349697
0
VERTEX
8
1
10
25.278458
20
32.355328
0
VERTEX
8
1
10
25.270639
20
32.361416
42
0.178793
0
VERTEX
8
1
10
25.130573
20
32.444695
42
0.321934
0
VERTEX
8
1
10
24.973356
20
32.354671
42
0.194144
0
VERTEX
8
1
10
24.941954
20
32.171604
42
0.012198
0
VERTEX
8
1
10
24.966497
20
32.039135
42
-0.896282
0
VERTEX
8
1
10
24.804548
20
32.040043
42
0.084547
0
VERTEX
8
1
10
24.747427
20
32.206532
42
0.413512
0
VERTEX
8
1
10
24.528965
20
32.265163
42
0.163815
0
VERTEX
8
1
10
24.423456
20
32.157337
42
-0.035601
0
VERTEX
8
1
10
24.369621
20
32.083576
0
VERTEX
8
1
10
24.350756
20
32.069424
42
0.292639
0
VERTEX
8
1
10
24.287151
20
31.902149
42
0.270117
0
VERTEX
8
1
10
24.422600
20
31.776928
0
VERTEX
8
1
10
24.501863
20
31.758350
0
VERTEX
8
1
10
24.594044
20
31.756626
0
VERTEX
8
1
10
24.612324
20
31.759594
42
-0.553240
0
VERTEX
8
1
10
24.710089
20
31.676586
0
VERTEX
8
1
10
24.708155
20
31.659458
0
VERTEX
8
1
10
24.704525
20
31.642605
0
VERTEX
8
1
10
24.515135
20
31.435848
42
0.473324
0
VERTEX
8
1
10
24.546213
20
31.274418
0
VERTEX
8
1
10
24.558599
20
31.265842
0
VERTEX
8
1
10
24.571222
20
31.257618
42
0.473289
0
VERTEX
8
1
10
24.732420
20
31.289875
0
VERTEX
8
1
10
24.852224
20
31.543385
0
VERTEX
8
1
10
24.866453
20
31.553112
0
VERTEX
8
1
10
24.881577
20
31.561382
42
-0.554913
0
VERTEX
8
1
10
24.995390
20
31.502254
0
VERTEX
8
1
10
24.999556
20
31.484211
0
VERTEX
8
1
10
25.035999
20
31.399525
0
VERTEX
8
1
10
25.083168
20
31.333172
42
0.337277
0
VERTEX
8
1
10
25.285200
20
31.264523
42
0.249212
0
VERTEX
8
1
10
25.387083
20
31.400066
42
-0.049272
0
VERTEX
8
1
10
25.453037
20
31.501003
42
0.280346
0
VERTEX
8
1
10
25.477119
20
31.712948
42
0.273876
0
VERTEX
8
1
10
25.345867
20
31.798412
42
0.069984
0
VERTEX
8
1
10
25.164732
20
31.782223
42
-0.795168
0
VERTEX
8
1
10
25.120270
20
31.935833
0
VERTEX
8
1
10
25.202009
20
31.952534
0
VERTEX
8
1
10
25.236460
20
31.959583
0
VERTEX
8
1
10
25.252182
20
31.963192
42
0.291490
0
VERTEX
8
1
10
25.449772
20
32.142925
42
0.336267
0
VERTEX
8
1
10
25.355066
20
32.315746
42
-0.033455
0
SEQEND
0
ENDSEC
0
EOF
