  0
SECTION
  2
HEADER
  9
$ACADVER
  1
AC1009
  9
$DWGCODEPAGE
  3
ansi_1252
  9
$INSBASE
 10
0.0
 20
0.0
 30
0.0
  9
$EXTMIN
 10
0.0
 20
0.0
 30
0.0
  9
$EXTMAX
 10
594.0
 20
420.0
 30
0.0
  9
$LIMMIN
 10
0.0
 20
0.0
  9
$LIMMAX
 10
594.0
 20
420.0
  9
$ORTHOMODE
 70
     0
  9
$REGENMODE
 70
     1
  9
$FILLMODE
 70
     1
  9
$QTEXTMODE
 70
     0
  9
$MIRRTEXT
 70
     1
  9
$DRAGMODE
 70
     2
  9
$LTSCALE
 40
1.0
  9
$OSMODE
 70
    37
  9
$ATTMODE
 70
     1
  9
$TEXTSIZE
 40
2.5
  9
$TRACEWID
 40
1.0
  9
$TEXTSTYLE
  7
STANDARD
  9
$CLAYER
  8
0
  9
$CELTYPE
  6
BYLAYER
  9
$CECOLOR
 62
   256
  9
$DIMSCALE
 40
1.0
  9
$DIMASZ
 40
2.5
  9
$DIMEXO
 40
0.625
  9
$DIMDLI
 40
3.75
  9
$DIMRND
 40
0.0
  9
$DIMDLE
 40
0.0
  9
$DIMEXE
 40
1.25
  9
$DIMTP
 40
0.0
  9
$DIMTM
 40
0.0
  9
$DIMTXT
 40
2.5
  9
$DIMCEN
 40
2.5
  9
$DIMTSZ
 40
0.0
  9
$DIMTOL
 70
     0
  9
$DIMLIM
 70
     0
  9
$DIMTIH
 70
     0
  9
$DIMTOH
 70
     0
  9
$DIMSE1
 70
     0
  9
$DIMSE2
 70
     0
  9
$DIMTAD
 70
     1
  9
$DIMZIN
 70
     8
  9
$DIMBLK
  1

  9
$DIMASO
 70
     1
  9
$DIMSHO
 70
     1
  9
$DIMPOST
  1

  9
$DIMAPOST
  1

  9
$DIMALT
 70
     0
  9
$DIMALTD
 70
     3
  9
$DIMALTF
 40
0.0393700787
  9
$DIMLFAC
 40
1.0
  9
$DIMTOFL
 70
     1
  9
$DIMTVP
 40
0.0
  9
$DIMTIX
 70
     0
  9
$DIMSOXD
 70
     0
  9
$DIMSAH
 70
     0
  9
$DIMBLK1
  1

  9
$DIMBLK2
  1

  9
$DIMSTYLE
  2
ISO-25
  9
$DIMCLRD
 70
     0
  9
$DIMCLRE
 70
     0
  9
$DIMCLRT
 70
     0
  9
$DIMTFAC
 40
1.0
  9
$DIMGAP
 40
0.625
  9
$LUNITS
 70
     2
  9
$LUPREC
 70
     4
  9
$SKETCHINC
 40
1.0
  9
$FILLETRAD
 40
10.0
  9
$AUNITS
 70
     0
  9
$AUPREC
 70
     0
  9
$MENU
  1
.
  9
$ELEVATION
 40
0.0
  9
$PELEVATION
 40
0.0
  9
$THICKNESS
 40
0.0
  9
$LIMCHECK
 70
     0
  9
$CHAMFERA
 40
0.0
  9
$CHAMFERB
 40
0.0
  9
$SKPOLY
 70
     0
  9
$TDCREATE
 40
2457663.630774178
  9
$TDUPDATE
 40
2457663.630775903
  9
$TDINDWG
 40
0.0000000116
  9
$TDUSRTIMER
 40
0.0000000116
  9
$USRTIMER
 70
     1
  9
$ANGBASE
 50
0.0
  9
$ANGDIR
 70
     0
  9
$PDMODE
 70
     0
  9
$PDSIZE
 40
0.0
  9
$PLINEWID
 40
0.0
  9
$COORDS
 70
     1
  9
$SPLFRAME
 70
     0
  9
$SPLINETYPE
 70
     6
  9
$SPLINESEGS
 70
     8
  9
$ATTDIA
 70
     0
  9
$ATTREQ
 70
     1
  9
$HANDLING
 70
     1
  9
$HANDSEED
  5
240
  9
$SURFTAB1
 70
     6
  9
$SURFTAB2
 70
     6
  9
$SURFTYPE
 70
     6
  9
$SURFU
 70
     6
  9
$SURFV
 70
     6
  9
$UCSNAME
  2

  9
$UCSORG
 10
0.0
 20
0.0
 30
0.0
  9
$UCSXDIR
 10
1.0
 20
0.0
 30
0.0
  9
$UCSYDIR
 10
0.0
 20
1.0
 30
0.0
  9
$PUCSNAME
  2

  9
$PUCSORG
 10
0.0
 20
0.0
 30
0.0
  9
$PUCSXDIR
 10
1.0
 20
0.0
 30
0.0
  9
$PUCSYDIR
 10
0.0
 20
1.0
 30
0.0
  9
$USERI1
 70
     0
  9
$USERI2
 70
     0
  9
$USERI3
 70
     0
  9
$USERI4
 70
     0
  9
$USERI5
 70
     0
  9
$USERR1
 40
0.0
  9
$USERR2
 40
0.0
  9
$USERR3
 40
0.0
  9
$USERR4
 40
0.0
  9
$USERR5
 40
0.0
  9
$WORLDVIEW
 70
     1
  9
$SHADEDGE
 70
     3
  9
$SHADEDIF
 70
    70
  9
$TILEMODE
 70
     1
  9
$MAXACTVP
 70
    64
  9
$PLIMCHECK
 70
     0
  9
$PEXTMIN
 10
0.0
 20
0.0
 30
0.0
  9
$PEXTMAX
 10
594.0
 20
420.0
 30
0.0
  9
$PLIMMIN
 10
0.0
 20
0.0
  9
$PLIMMAX
 10
594.0
 20
420.0
  9
$UNITMODE
 70
     0
  9
$VISRETAIN
 70
     1
  9
$PLINEGEN
 70
     0
  9
$PSLTSCALE
 70
     1
  0
ENDSEC
  0
SECTION
  2
TABLES
  0
TABLE
  2
VPORT
 70
     1
  0
VPORT
  2
*ACTIVE
 70
     0
 10
0.0
 20
0.0
 11
1.0
 21
1.0
 12
344.1869158879
 22
148.5
 13
0.0
 23
0.0
 14
10.0
 24
10.0
 15
10.0
 25
10.0
 16
0.0
 26
0.0
 36
1.0
 17
0.0
 27
0.0
 37
0.0
 40
297.0
 41
1.9729729729
 42
50.0
 43
0.0
 44
0.0
 50
0.0
 51
0.0
 71
     0
 72
   100
 73
     1
 74
     3
 75
     0
 76
     0
 77
     0
 78
     0
  0
ENDTAB
  0
TABLE
  2
LTYPE
 70
     1
  0
LTYPE
  2
CONTINUOUS
 70
     0
  3
Solid line
 72
    65
 73
     0
 40
0.0
  0
ENDTAB
  0
TABLE
  2
LAYER
 70
     4
  0
LAYER
  2
0
 70
     0
 62
     7
  6
CONTINUOUS
  0
LAYER
  2
LAYER1
 70
     0
 62
     7
  6
CONTINUOUS
  0
LAYER
  2
LAYER2
 70
     0
 62
     7
  6
CONTINUOUS
  0
LAYER
  2
STANDARD
 70
     0
 62
     7
  6
CONTINUOUS
  0
ENDTAB
  0
TABLE
  2
STYLE
 70
     1
  0
STYLE
  2
STANDARD
 70
     0
 40
0.0
 41
1.0
 50
0.0
 71
     0
 42
2.5
  3
txt
  4

  0
ENDTAB
  0
TABLE
  2
VIEW
 70
     0
  0
ENDTAB
  0
TABLE
  2
UCS
 70
     0
  0
ENDTAB
  0
TABLE
  2
APPID
 70
     1
  0
APPID
  2
ACAD
 70
     0
  0
ENDTAB
  0
TABLE
  2
DIMSTYLE
 70
     1
  0
DIMSTYLE
  2
ISO-25
 70
     0
  3

  4

  5

  6

  7

 40
1.0
 41
2.5
 42
0.625
 43
3.75
 44
1.25
 45
0.0
 46
0.0
 47
0.0
 48
0.0
140
2.5
141
2.5
142
0.0
143
0.0393700787
144
1.0
145
0.0
146
1.0
147
0.625
 71
     0
 72
     0
 73
     0
 74
     0
 75
     0
 76
     0
 77
     1
 78
     8
170
     0
171
     3
172
     1
173
     0
174
     0
175
     0
176
     0
177
     0
178
     0
  0
ENDTAB
  0
ENDSEC
  0
SECTION
  2
BLOCKS
  0
BLOCK
  8
0
  2
$MODEL_SPACE
 70
     0
 10
0.0
 20
0.0
 30
0.0
  3
$MODEL_SPACE
  1

  0
ENDBLK
  5
21
  8
0
  0
BLOCK
 67
     1
  8
0
  2
$PAPER_SPACE
 70
     0
 10
0.0
 20
0.0
 30
0.0
  3
$PAPER_SPACE
  1

  0
ENDBLK
  5
1D
 67
     1
  8
0
  0
ENDSEC
  0
SECTION
  2
ENTITIES
  0
ARC
  5
6F
  8
LAYER1
  6
CONTINUOUS
 62
     7
 10
64.2008344308
 20
154.772221883
 30
0.0
 40
0.5
 50
180.0
 51
270.0
  0
ARC
  5
70
  8
LAYER1
  6
CONTINUOUS
 62
     7
 10
103.2008344308
 20
154.772221883
 30
0.0
 40
0.5
 50
270.0
 51
0.0
  0
ARC
  5
71
  8
LAYER1
  6
CONTINUOUS
 62
     7
 10
64.2008344308
 20
284.772221883
 30
0.0
 40
0.5
 50
180.0
 51
270.0
  0
ARC
  5
72
  8
LAYER1
  6
CONTINUOUS
 62
     7
 10
103.2008344308
 20
284.772221883
 30
0.0
 40
0.5
 50
270.0
 51
0.0
  0
LINE
  5
73
  8
LAYER1
  6
CONTINUOUS
 62
     7
 10
148.7008344308
 20
258.272221883
 30
0.0
 11
148.7008344308
 21
273.272221883
 31
0.0
  0
LINE
  5
74
  8
LAYER1
  6
CONTINUOUS
 62
     7
 10
81.5508344308
 20
273.272221883
 30
0.0
 11
18.7008344308
 21
273.272221883
 31
0.0
  0
LINE
  5
75
  8
LAYER1
  6
CONTINUOUS
 62
     7
 10
18.7008344308
 20
273.272221883
 30
0.0
 11
18.7008344308
 21
258.272221883
 31
0.0
  0
LINE
  5
76
  8
LAYER1
  6
CONTINUOUS
 62
     7
 10
103.7008344308
 20
223.272221883
 30
0.0
 11
148.7008344308
 21
223.272221883
 31
0.0
  0
LINE
  5
77
  8
LAYER1
  6
CONTINUOUS
 62
     7
 10
18.7008344308
 20
258.272221883
 30
0.0
 11
15.2008344308
 21
258.272221883
 31
0.0
  0
LINE
  5
78
  8
LAYER1
  6
CONTINUOUS
 62
     7
 10
14.7008344308
 20
257.772221883
 30
0.0
 11
14.7008344308
 21
238.772221883
 31
0.0
  0
LINE
  5
79
  8
LAYER1
  6
CONTINUOUS
 62
     7
 10
15.2008344308
 20
238.272221883
 30
0.0
 11
18.7008344308
 21
238.272221883
 31
0.0
  0
LINE
  5
7A
  8
LAYER1
  6
CONTINUOUS
 62
     7
 10
152.7008344308
 20
238.772221883
 30
0.0
 11
152.7008344308
 21
257.772221883
 31
0.0
  0
LINE
  5
7B
  8
LAYER1
  6
CONTINUOUS
 62
     7
 10
152.2008344308
 20
258.272221883
 30
0.0
 11
148.7008344308
 21
258.272221883
 31
0.0
  0
LINE
  5
7C
  8
LAYER1
  6
CONTINUOUS
 62
     7
 10
148.7008344308
 20
238.272221883
 30
0.0
 11
152.2008344308
 21
238.272221883
 31
0.0
  0
LINE
  5
7D
  8
LAYER1
  6
CONTINUOUS
 62
     7
 10
18.7008344308
 20
238.272221883
 30
0.0
 11
18.7008344308
 21
223.272221883
 31
0.0
  0
LINE
  5
7E
  8
LAYER1
  6
CONTINUOUS
 62
     7
 10
148.7008344308
 20
223.272221883
 30
0.0
 11
148.7008344308
 21
238.272221883
 31
0.0
  0
LINE
  5
7F
  8
LAYER1
  6
CONTINUOUS
 62
     7
 10
103.7008344308
 20
219.772221883
 30
0.0
 11
103.7008344308
 21
223.272221883
 31
0.0
  0
LINE
  5
80
  8
LAYER1
  6
CONTINUOUS
 62
     7
 10
63.7008344308
 20
223.272221883
 30
0.0
 11
63.7008344308
 21
219.772221883
 31
0.0
  0
LINE
  5
81
  8
LAYER1
  6
CONTINUOUS
 62
     7
 10
64.2008344308
 20
219.272221883
 30
0.0
 11
103.2008344308
 21
219.272221883
 31
0.0
  0
LINE
  5
82
  8
LAYER1
  6
CONTINUOUS
 62
     7
 10
18.7008344308
 20
223.272221883
 30
0.0
 11
63.7008344308
 21
223.272221883
 31
0.0
  0
LINE
  5
83
  8
LAYER1
  6
CONTINUOUS
 62
     7
 10
148.7008344308
 20
273.272221883
 30
0.0
 11
85.8508344308
 21
273.272221883
 31
0.0
  0
ARC
  5
84
  8
LAYER1
  6
CONTINUOUS
 62
     7
 10
15.2008344308
 20
238.772221883
 30
0.0
 40
0.5
 50
180.0
 51
270.0
  0
ARC
  5
85
  8
LAYER1
  6
CONTINUOUS
 62
     7
 10
15.2008344308
 20
257.772221883
 30
0.0
 40
0.5
 50
90.0
 51
180.0
  0
ARC
  5
86
  8
LAYER1
  6
CONTINUOUS
 62
     7
 10
152.2008344308
 20
238.772221883
 30
0.0
 40
0.5
 50
270.0
 51
0.0
  0
ARC
  5
87
  8
LAYER1
  6
CONTINUOUS
 62
     7
 10
152.2008344308
 20
257.772221883
 30
0.0
 40
0.5
 50
0.0
 51
90.0
  0
LINE
  5
89
  8
LAYER2
  6
CONTINUOUS
 62
     7
 10
85.8508344308
 20
273.272221883
 30
0.0
 11
85.8508344308
 21
248.122221883
 31
0.0
  0
LINE
  5
8A
  8
LAYER2
  6
CONTINUOUS
 62
     7
 10
85.8508344308
 20
248.122221883
 30
0.0
 11
81.5508344308
 21
248.122221883
 31
0.0
  0
LINE
  5
8B
  8
LAYER2
  6
CONTINUOUS
 62
     7
 10
81.5508344308
 20
248.122221883
 30
0.0
 11
81.5508344308
 21
273.272221883
 31
0.0
  0
ARC
  5
8C
  8
LAYER1
  6
CONTINUOUS
 62
     7
 10
64.2008344308
 20
219.772221883
 30
0.0
 40
0.5
 50
180.0
 51
270.0
  0
ARC
  5
8D
  8
LAYER1
  6
CONTINUOUS
 62
     7
 10
103.2008344308
 20
219.772221883
 30
0.0
 40
0.5
 50
270.0
 51
0.0
  0
LINE
  5
8E
  8
LAYER1
  6
CONTINUOUS
 62
     7
 10
564.4601693956
 20
20.1913104677
 30
0.0
 11
579.4601693956
 21
20.1913104677
 31
0.0
  0
LINE
  5
8F
  8
LAYER1
  6
CONTINUOUS
 62
     7
 10
579.4601693956
 20
87.3413104677
 30
0.0
 11
579.4601693956
 21
150.1913104677
 31
0.0
  0
LINE
  5
90
  8
LAYER1
  6
CONTINUOUS
 62
     7
 10
579.4601693956
 20
150.1913104677
 30
0.0
 11
564.4601693956
 21
150.1913104677
 31
0.0
  0
LINE
  5
91
  8
LAYER1
  6
CONTINUOUS
 62
     7
 10
529.4601693956
 20
65.1913104677
 30
0.0
 11
529.4601693956
 21
20.1913104677
 31
0.0
  0
LINE
  5
92
  8
LAYER1
  6
CONTINUOUS
 62
     7
 10
564.4601693956
 20
150.1913104677
 30
0.0
 11
564.4601693956
 21
153.6913104677
 31
0.0
  0
LINE
  5
93
  8
LAYER1
  6
CONTINUOUS
 62
     7
 10
563.9601693956
 20
154.1913104677
 30
0.0
 11
544.9601693956
 21
154.1913104677
 31
0.0
  0
LINE
  5
94
  8
LAYER1
  6
CONTINUOUS
 62
     7
 10
544.4601693956
 20
153.6913104677
 30
0.0
 11
544.4601693956
 21
150.1913104677
 31
0.0
  0
LINE
  5
95
  8
LAYER1
  6
CONTINUOUS
 62
     7
 10
544.9601693956
 20
16.1913104677
 30
0.0
 11
563.9601693956
 21
16.1913104677
 31
0.0
  0
LINE
  5
96
  8
LAYER1
  6
CONTINUOUS
 62
     7
 10
564.4601693956
 20
16.6913104677
 30
0.0
 11
564.4601693956
 21
20.1913104677
 31
0.0
  0
LINE
  5
97
  8
LAYER1
  6
CONTINUOUS
 62
     7
 10
544.4601693956
 20
20.1913104677
 30
0.0
 11
544.4601693956
 21
16.6913104677
 31
0.0
  0
LINE
  5
98
  8
LAYER1
  6
CONTINUOUS
 62
     7
 10
544.4601693956
 20
150.1913104677
 30
0.0
 11
529.4601693956
 21
150.1913104677
 31
0.0
  0
LINE
  5
99
  8
LAYER1
  6
CONTINUOUS
 62
     7
 10
529.4601693956
 20
20.1913104677
 30
0.0
 11
544.4601693956
 21
20.1913104677
 31
0.0
  0
LINE
  5
9A
  8
LAYER1
  6
CONTINUOUS
 62
     7
 10
525.9601693956
 20
65.1913104677
 30
0.0
 11
529.4601693956
 21
65.1913104677
 31
0.0
  0
LINE
  5
9B
  8
LAYER1
  6
CONTINUOUS
 62
     7
 10
529.4601693956
 20
105.1913104677
 30
0.0
 11
525.9601693956
 21
105.1913104677
 31
0.0
  0
LINE
  5
9C
  8
LAYER1
  6
CONTINUOUS
 62
     7
 10
525.4601693956
 20
104.6913104677
 30
0.0
 11
525.4601693956
 21
65.6913104677
 31
0.0
  0
LINE
  5
9D
  8
LAYER1
  6
CONTINUOUS
 62
     7
 10
529.4601693956
 20
150.1913104677
 30
0.0
 11
529.4601693956
 21
105.1913104677
 31
0.0
  0
LINE
  5
9E
  8
LAYER1
  6
CONTINUOUS
 62
     7
 10
579.4601693956
 20
20.1913104677
 30
0.0
 11
579.4601693956
 21
83.0413104677
 31
0.0
  0
ARC
  5
9F
  8
LAYER1
  6
CONTINUOUS
 62
     7
 10
544.9601693956
 20
153.6913104677
 30
0.0
 40
0.5
 50
90.0
 51
180.0
  0
ARC
  5
A0
  8
LAYER1
  6
CONTINUOUS
 62
     7
 10
563.9601693956
 20
153.6913104677
 30
0.0
 40
0.5
 50
0.0
 51
90.0
  0
ARC
  5
A1
  8
LAYER1
  6
CONTINUOUS
 62
     7
 10
544.9601693956
 20
16.6913104677
 30
0.0
 40
0.5
 50
180.0
 51
270.0
  0
ARC
  5
A2
  8
LAYER1
  6
CONTINUOUS
 62
     7
 10
563.9601693956
 20
16.6913104677
 30
0.0
 40
0.5
 50
270.0
 51
0.0
  0
LINE
  5
A3
  8
LAYER2
  6
CONTINUOUS
 62
     7
 10
579.4601693956
 20
83.0413104677
 30
0.0
 11
554.3101693956
 21
83.0413104677
 31
0.0
  0
LINE
  5
A4
  8
LAYER2
  6
CONTINUOUS
 62
     7
 10
554.3101693956
 20
83.0413104677
 30
0.0
 11
554.3101693956
 21
87.3413104677
 31
0.0
  0
LINE
  5
A5
  8
LAYER2
  6
CONTINUOUS
 62
     7
 10
554.3101693956
 20
87.3413104677
 30
0.0
 11
579.4601693956
 21
87.3413104677
 31
0.0
  0
ARC
  5
A6
  8
LAYER1
  6
CONTINUOUS
 62
     7
 10
525.9601693956
 20
104.6913104677
 30
0.0
 40
0.5
 50
90.0
 51
180.0
  0
ARC
  5
A7
  8
LAYER1
  6
CONTINUOUS
 62
     7
 10
525.9601693956
 20
65.6913104677
 30
0.0
 40
0.5
 50
180.0
 51
270.0
  0
LINE
  5
A8
  8
LAYER2
  6
CONTINUOUS
 62
     7
 10
213.5508344308
 20
312.4413104677
 30
0.0
 11
213.5508344308
 21
308.1413104677
 31
0.0
  0
LINE
  5
A9
  8
LAYER2
  6
CONTINUOUS
 62
     7
 10
253.8508344308
 20
312.4413104677
 30
0.0
 11
213.5508344308
 21
312.4413104677
 31
0.0
  0
LINE
  5
AA
  8
LAYER2
  6
CONTINUOUS
 62
     7
 10
253.8508344308
 20
308.1413104677
 30
0.0
 11
253.8508344308
 21
312.4413104677
 31
0.0
  0
LINE
  5
AB
  8
LAYER2
  6
CONTINUOUS
 62
     7
 10
213.5508344308
 20
308.1413104677
 30
0.0
 11
253.8508344308
 21
308.1413104677
 31
0.0
  0
LINE
  5
AC
  8
LAYER2
  6
CONTINUOUS
 62
     7
 10
213.5508344308
 20
276.5413104677
 30
0.0
 11
213.5508344308
 21
272.2413104677
 31
0.0
  0
LINE
  5
AD
  8
LAYER2
  6
CONTINUOUS
 62
     7
 10
253.8508344308
 20
276.5413104677
 30
0.0
 11
213.5508344308
 21
276.5413104677
 31
0.0
  0
LINE
  5
AE
  8
LAYER2
  6
CONTINUOUS
 62
     7
 10
253.8508344308
 20
272.2413104677
 30
0.0
 11
253.8508344308
 21
276.5413104677
 31
0.0
  0
LINE
  5
AF
  8
LAYER2
  6
CONTINUOUS
 62
     7
 10
213.5508344308
 20
272.2413104677
 30
0.0
 11
253.8508344308
 21
272.2413104677
 31
0.0
  0
LINE
  5
B0
  8
LAYER2
  6
CONTINUOUS
 62
     7
 10
235.8508344308
 20
257.3913104677
 30
0.0
 11
231.5508344308
 21
257.3913104677
 31
0.0
  0
LINE
  5
B1
  8
LAYER2
  6
CONTINUOUS
 62
     7
 10
235.8508344308
 20
237.0913104677
 30
0.0
 11
235.8508344308
 21
257.3913104677
 31
0.0
  0
LINE
  5
B2
  8
LAYER2
  6
CONTINUOUS
 62
     7
 10
231.5508344308
 20
237.0913104677
 30
0.0
 11
235.8508344308
 21
237.0913104677
 31
0.0
  0
LINE
  5
B3
  8
LAYER2
  6
CONTINUOUS
 62
     7
 10
231.5508344308
 20
257.3913104677
 30
0.0
 11
231.5508344308
 21
237.0913104677
 31
0.0
  0
LINE
  5
B4
  8
LAYER2
  6
CONTINUOUS
 62
     7
 10
213.5508344308
 20
222.2413104677
 30
0.0
 11
213.5508344308
 21
217.9413104677
 31
0.0
  0
LINE
  5
B5
  8
LAYER2
  6
CONTINUOUS
 62
     7
 10
253.8508344308
 20
222.2413104677
 30
0.0
 11
213.5508344308
 21
222.2413104677
 31
0.0
  0
LINE
  5
B6
  8
LAYER2
  6
CONTINUOUS
 62
     7
 10
253.8508344308
 20
217.9413104677
 30
0.0
 11
253.8508344308
 21
222.2413104677
 31
0.0
  0
LINE
  5
B7
  8
LAYER2
  6
CONTINUOUS
 62
     7
 10
213.5508344308
 20
217.9413104677
 30
0.0
 11
253.8508344308
 21
217.9413104677
 31
0.0
  0
LINE
  5
B8
  8
LAYER2
  6
CONTINUOUS
 62
     7
 10
231.5508344308
 20
203.0913104677
 30
0.0
 11
231.5508344308
 21
182.7913104677
 31
0.0
  0
LINE
  5
B9
  8
LAYER2
  6
CONTINUOUS
 62
     7
 10
235.8508344308
 20
203.0913104677
 30
0.0
 11
231.5508344308
 21
203.0913104677
 31
0.0
  0
LINE
  5
BA
  8
LAYER2
  6
CONTINUOUS
 62
     7
 10
235.8508344308
 20
182.7913104677
 30
0.0
 11
235.8508344308
 21
203.0913104677
 31
0.0
  0
LINE
  5
BB
  8
LAYER2
  6
CONTINUOUS
 62
     7
 10
231.5508344308
 20
182.7913104677
 30
0.0
 11
235.8508344308
 21
182.7913104677
 31
0.0
  0
LINE
  5
BC
  8
LAYER2
  6
CONTINUOUS
 62
     7
 10
213.5508344308
 20
167.9413104677
 30
0.0
 11
213.5508344308
 21
163.6413104677
 31
0.0
  0
LINE
  5
BD
  8
LAYER2
  6
CONTINUOUS
 62
     7
 10
253.8508344308
 20
167.9413104677
 30
0.0
 11
213.5508344308
 21
167.9413104677
 31
0.0
  0
LINE
  5
BE
  8
LAYER2
  6
CONTINUOUS
 62
     7
 10
253.8508344308
 20
163.6413104677
 30
0.0
 11
253.8508344308
 21
167.9413104677
 31
0.0
  0
LINE
  5
BF
  8
LAYER2
  6
CONTINUOUS
 62
     7
 10
213.5508344308
 20
163.6413104677
 30
0.0
 11
253.8508344308
 21
163.6413104677
 31
0.0
  0
LINE
  5
C0
  8
LAYER2
  6
CONTINUOUS
 62
     7
 10
235.8508344308
 20
142.7913104677
 30
0.0
 11
231.5508344308
 21
142.7913104677
 31
0.0
  0
LINE
  5
C1
  8
LAYER2
  6
CONTINUOUS
 62
     7
 10
235.8508344308
 20
122.4913104677
 30
0.0
 11
235.8508344308
 21
142.7913104677
 31
0.0
  0
LINE
  5
C2
  8
LAYER2
  6
CONTINUOUS
 62
     7
 10
231.5508344308
 20
122.4913104677
 30
0.0
 11
235.8508344308
 21
122.4913104677
 31
0.0
  0
LINE
  5
C3
  8
LAYER2
  6
CONTINUOUS
 62
     7
 10
231.5508344308
 20
142.7913104677
 30
0.0
 11
231.5508344308
 21
122.4913104677
 31
0.0
  0
LINE
  5
C4
  8
LAYER2
  6
CONTINUOUS
 62
     7
 10
213.5508344308
 20
101.6413104677
 30
0.0
 11
213.5508344308
 21
97.3413104677
 31
0.0
  0
LINE
  5
C5
  8
LAYER2
  6
CONTINUOUS
 62
     7
 10
253.8508344308
 20
101.6413104677
 30
0.0
 11
213.5508344308
 21
101.6413104677
 31
0.0
  0
LINE
  5
C6
  8
LAYER2
  6
CONTINUOUS
 62
     7
 10
253.8508344308
 20
97.3413104677
 30
0.0
 11
253.8508344308
 21
101.6413104677
 31
0.0
  0
LINE
  5
C7
  8
LAYER2
  6
CONTINUOUS
 62
     7
 10
213.5508344308
 20
97.3413104677
 30
0.0
 11
253.8508344308
 21
97.3413104677
 31
0.0
  0
LINE
  5
C8
  8
LAYER1
  6
CONTINUOUS
 62
     7
 10
235.8508344308
 20
70.9913104677
 30
0.0
 11
231.5508344308
 21
70.9913104677
 31
0.0
  0
LINE
  5
C9
  8
LAYER1
  6
CONTINUOUS
 62
     7
 10
235.8508344308
 20
50.6913104677
 30
0.0
 11
235.8508344308
 21
70.9913104677
 31
0.0
  0
LINE
  5
CA
  8
LAYER1
  6
CONTINUOUS
 62
     7
 10
231.5508344308
 20
50.6913104677
 30
0.0
 11
235.8508344308
 21
50.6913104677
 31
0.0
  0
LINE
  5
CB
  8
LAYER1
  6
CONTINUOUS
 62
     7
 10
231.5508344308
 20
70.9913104677
 30
0.0
 11
231.5508344308
 21
50.6913104677
 31
0.0
  0
LINE
  5
CC
  8
LAYER1
  6
CONTINUOUS
 62
     7
 10
203.7008344308
 20
24.3413104677
 30
0.0
 11
203.7008344308
 21
20.1913104677
 31
0.0
  0
LINE
  5
CD
  8
LAYER1
  6
CONTINUOUS
 62
     7
 10
263.7008344308
 20
24.3413104677
 30
0.0
 11
203.7008344308
 21
24.3413104677
 31
0.0
  0
LINE
  5
CE
  8
LAYER1
  6
CONTINUOUS
 62
     7
 10
263.7008344308
 20
20.1913104677
 30
0.0
 11
263.7008344308
 21
24.3413104677
 31
0.0
  0
LINE
  5
D0
  8
STANDARD
  6
CONTINUOUS
 62
     7
 10
302.7008344308
 20
154.1913104677
 30
0.0
 11
298.5508344308
 21
154.1913104677
 31
0.0
  0
LINE
  5
D1
  8
STANDARD
  6
CONTINUOUS
 62
     7
 10
298.5508344308
 20
94.1913104677
 30
0.0
 11
302.7008344308
 21
94.1913104677
 31
0.0
  0
LINE
  5
D2
  8
STANDARD
  6
CONTINUOUS
 62
     7
 10
302.7008344308
 20
274.1913104677
 30
0.0
 11
298.5508344308
 21
274.1913104677
 31
0.0
  0
LINE
  5
D3
  8
STANDARD
  6
CONTINUOUS
 62
     7
 10
298.5508344308
 20
214.1913104677
 30
0.0
 11
302.7008344308
 21
214.1913104677
 31
0.0
  0
LINE
  5
D4
  8
STANDARD
  6
CONTINUOUS
 62
     7
 10
302.7008344308
 20
154.1913104677
 30
0.0
 11
302.7008344308
 21
214.1913104677
 31
0.0
  0
LINE
  5
D5
  8
STANDARD
  6
CONTINUOUS
 62
     7
 10
168.8508344308
 20
274.1913104677
 30
0.0
 11
164.7008344308
 21
274.1913104677
 31
0.0
  0
LINE
  5
D6
  8
STANDARD
  6
CONTINUOUS
 62
     7
 10
164.7008344308
 20
214.1913104677
 30
0.0
 11
168.8508344308
 21
214.1913104677
 31
0.0
  0
LINE
  5
D7
  8
STANDARD
  6
CONTINUOUS
 62
     7
 10
164.7008344308
 20
214.1913104677
 30
0.0
 11
164.7008344308
 21
154.1913104677
 31
0.0
  0
LINE
  5
D8
  8
STANDARD
  6
CONTINUOUS
 62
     7
 10
164.7008344308
 20
154.1913104677
 30
0.0
 11
168.8508344308
 21
154.1913104677
 31
0.0
  0
LINE
  5
D9
  8
STANDARD
  6
CONTINUOUS
 62
     7
 10
164.7008344308
 20
94.1913104677
 30
0.0
 11
168.8508344308
 21
94.1913104677
 31
0.0
  0
LINE
  5
DA
  8
STANDARD
  6
CONTINUOUS
 62
     7
 10
164.7008344308
 20
348.1913104677
 30
0.0
 11
164.7008344308
 21
274.1913104677
 31
0.0
  0
LINE
  5
DB
  8
STANDARD
  6
CONTINUOUS
 62
     7
 10
302.7008344308
 20
274.1913104677
 30
0.0
 11
302.7008344308
 21
348.1913104677
 31
0.0
  0
LINE
  5
DC
  8
STANDARD
  6
CONTINUOUS
 62
     7
 10
302.7008344308
 20
20.1913104677
 30
0.0
 11
302.7008344308
 21
94.1913104677
 31
0.0
  0
LINE
  5
DD
  8
STANDARD
  6
CONTINUOUS
 62
     7
 10
164.7008344308
 20
94.1913104677
 30
0.0
 11
164.7008344308
 21
20.1913104677
 31
0.0
  0
LINE
  5
DE
  8
STANDARD
  6
CONTINUOUS
 62
     7
 10
164.7008344308
 20
20.1913104677
 30
0.0
 11
203.7008344308
 21
20.1913104677
 31
0.0
  0
LINE
  5
DF
  8
STANDARD
  6
CONTINUOUS
 62
     7
 10
302.7008344308
 20
348.1913104677
 30
0.0
 11
263.7008344308
 21
348.1913104677
 31
0.0
  0
LINE
  5
E0
  8
STANDARD
  6
CONTINUOUS
 62
     7
 10
203.7008344308
 20
344.0413104677
 30
0.0
 11
203.7008344308
 21
348.1913104677
 31
0.0
  0
LINE
  5
E1
  8
STANDARD
  6
CONTINUOUS
 62
     7
 10
263.7008344308
 20
344.0413104677
 30
0.0
 11
203.7008344308
 21
344.0413104677
 31
0.0
  0
LINE
  5
E2
  8
STANDARD
  6
CONTINUOUS
 62
     7
 10
263.7008344308
 20
348.1913104677
 30
0.0
 11
263.7008344308
 21
344.0413104677
 31
0.0
  0
LINE
  5
E3
  8
STANDARD
  6
CONTINUOUS
 62
     7
 10
298.5508344308
 20
94.1913104677
 30
0.0
 11
298.5508344308
 21
154.1913104677
 31
0.0
  0
LINE
  5
E4
  8
STANDARD
  6
CONTINUOUS
 62
     7
 10
168.8508344308
 20
94.1913104677
 30
0.0
 11
168.8508344308
 21
154.1913104677
 31
0.0
  0
LINE
  5
E5
  8
STANDARD
  6
CONTINUOUS
 62
     7
 10
298.5508344308
 20
214.1913104677
 30
0.0
 11
298.5508344308
 21
274.1913104677
 31
0.0
  0
LINE
  5
E6
  8
STANDARD
  6
CONTINUOUS
 62
     7
 10
168.8508344308
 20
214.1913104677
 30
0.0
 11
168.8508344308
 21
274.1913104677
 31
0.0
  0
LINE
  5
E7
  8
STANDARD
  6
CONTINUOUS
 62
     7
 10
263.7008344308
 20
20.1913104677
 30
0.0
 11
302.7008344308
 21
20.1913104677
 31
0.0
  0
LINE
  5
E8
  8
STANDARD
  6
CONTINUOUS
 62
     7
 10
203.7008344308
 20
348.1913104677
 30
0.0
 11
164.7008344308
 21
348.1913104677
 31
0.0
  0
LINE
  5
E9
  8
LAYER2
  6
CONTINUOUS
 62
     7
 10
416.3426452912
 20
308.4413104677
 30
0.0
 11
416.3426452912
 21
304.1413104677
 31
0.0
  0
LINE
  5
EA
  8
LAYER2
  6
CONTINUOUS
 62
     7
 10
436.6426452912
 20
308.4413104677
 30
0.0
 11
416.3426452912
 21
308.4413104677
 31
0.0
  0
LINE
  5
EB
  8
LAYER2
  6
CONTINUOUS
 62
     7
 10
436.6426452912
 20
304.1413104677
 30
0.0
 11
436.6426452912
 21
308.4413104677
 31
0.0
  0
LINE
  5
EC
  8
LAYER2
  6
CONTINUOUS
 62
     7
 10
416.3426452912
 20
304.1413104677
 30
0.0
 11
436.6426452912
 21
304.1413104677
 31
0.0
  0
LINE
  5
ED
  8
LAYER2
  6
CONTINUOUS
 62
     7
 10
436.6426452912
 20
268.2413104677
 30
0.0
 11
436.6426452912
 21
272.5413104677
 31
0.0
  0
LINE
  5
EE
  8
LAYER2
  6
CONTINUOUS
 62
     7
 10
416.3426452912
 20
268.2413104677
 30
0.0
 11
436.6426452912
 21
268.2413104677
 31
0.0
  0
LINE
  5
EF
  8
LAYER2
  6
CONTINUOUS
 62
     7
 10
416.3426452912
 20
272.5413104677
 30
0.0
 11
416.3426452912
 21
268.2413104677
 31
0.0
  0
LINE
  5
F0
  8
LAYER2
  6
CONTINUOUS
 62
     7
 10
436.6426452912
 20
272.5413104677
 30
0.0
 11
416.3426452912
 21
272.5413104677
 31
0.0
  0
LINE
  5
F1
  8
LAYER2
  6
CONTINUOUS
 62
     7
 10
416.3426452912
 20
218.2413104677
 30
0.0
 11
416.3426452912
 21
213.9413104677
 31
0.0
  0
LINE
  5
F2
  8
LAYER2
  6
CONTINUOUS
 62
     7
 10
436.6426452912
 20
218.2413104677
 30
0.0
 11
416.3426452912
 21
218.2413104677
 31
0.0
  0
LINE
  5
F3
  8
LAYER2
  6
CONTINUOUS
 62
     7
 10
436.6426452912
 20
213.9413104677
 30
0.0
 11
436.6426452912
 21
218.2413104677
 31
0.0
  0
LINE
  5
F4
  8
LAYER2
  6
CONTINUOUS
 62
     7
 10
416.3426452912
 20
213.9413104677
 30
0.0
 11
436.6426452912
 21
213.9413104677
 31
0.0
  0
LINE
  5
F5
  8
LAYER2
  6
CONTINUOUS
 62
     7
 10
416.3426452912
 20
163.9413104677
 30
0.0
 11
416.3426452912
 21
159.6413104677
 31
0.0
  0
LINE
  5
F6
  8
LAYER2
  6
CONTINUOUS
 62
     7
 10
436.6426452912
 20
163.9413104677
 30
0.0
 11
416.3426452912
 21
163.9413104677
 31
0.0
  0
LINE
  5
F7
  8
LAYER2
  6
CONTINUOUS
 62
     7
 10
436.6426452912
 20
159.6413104677
 30
0.0
 11
436.6426452912
 21
163.9413104677
 31
0.0
  0
LINE
  5
F8
  8
LAYER2
  6
CONTINUOUS
 62
     7
 10
416.3426452912
 20
159.6413104677
 30
0.0
 11
436.6426452912
 21
159.6413104677
 31
0.0
  0
LINE
  5
F9
  8
LAYER2
  6
CONTINUOUS
 62
     7
 10
416.3426452912
 20
97.6413104677
 30
0.0
 11
416.3426452912
 21
93.3413104677
 31
0.0
  0
LINE
  5
FA
  8
LAYER2
  6
CONTINUOUS
 62
     7
 10
436.6426452912
 20
97.6413104677
 30
0.0
 11
416.3426452912
 21
97.6413104677
 31
0.0
  0
LINE
  5
FB
  8
LAYER2
  6
CONTINUOUS
 62
     7
 10
436.6426452912
 20
93.3413104677
 30
0.0
 11
436.6426452912
 21
97.6413104677
 31
0.0
  0
LINE
  5
FC
  8
LAYER2
  6
CONTINUOUS
 62
     7
 10
416.3426452912
 20
93.3413104677
 30
0.0
 11
436.6426452912
 21
93.3413104677
 31
0.0
  0
ARC
  5
FD
  8
LAYER1
  6
CONTINUOUS
 62
     7
 10
453.4926452912
 20
252.3913104677
 30
0.0
 40
2.0
 50
270.0
 51
0.0
  0
ARC
  5
FE
  8
LAYER1
  6
CONTINUOUS
 62
     7
 10
453.4926452912
 20
227.9913104677
 30
0.0
 40
2.0
 50
0.0
 51
90.0
  0
ARC
  5
FF
  8
LAYER1
  6
CONTINUOUS
 62
     7
 10
399.4926452912
 20
252.1913104677
 30
0.0
 40
2.0
 50
270.0
 51
0.0
  0
ARC
  5
100
  8
LAYER1
  6
CONTINUOUS
 62
     7
 10
399.4926452912
 20
228.1913104677
 30
0.0
 40
2.0
 50
0.0
 51
90.0
  0
ARC
  5
101
  8
LAYER1
  6
CONTINUOUS
 62
     7
 10
453.4926452912
 20
132.3913104677
 30
0.0
 40
2.0
 50
270.0
 51
0.0
  0
ARC
  5
102
  8
LAYER1
  6
CONTINUOUS
 62
     7
 10
453.4926452912
 20
107.9913104677
 30
0.0
 40
2.0
 50
0.0
 51
90.0
  0
ARC
  5
103
  8
LAYER1
  6
CONTINUOUS
 62
     7
 10
399.4926452912
 20
132.1913104677
 30
0.0
 40
2.0
 50
270.0
 51
0.0
  0
ARC
  5
104
  8
LAYER1
  6
CONTINUOUS
 62
     7
 10
399.4926452912
 20
108.1913104677
 30
0.0
 40
2.0
 50
0.0
 51
90.0
  0
LINE
  5
105
  8
STANDARD
  6
CONTINUOUS
 62
     7
 10
401.4926452912
 20
108.1913104677
 30
0.0
 11
401.4926452912
 21
20.1913104677
 31
0.0
  0
LINE
  5
106
  8
STANDARD
  6
CONTINUOUS
 62
     7
 10
401.4926452912
 20
340.1913104677
 30
0.0
 11
401.4926452912
 21
252.1913104677
 31
0.0
  0
LINE
  5
107
  8
STANDARD
  6
CONTINUOUS
 62
     7
 10
455.4926452912
 20
210.1913104677
 30
0.0
 11
455.4926452912
 21
227.9913104677
 31
0.0
  0
LINE
  5
108
  8
STANDARD
  6
CONTINUOUS
 62
     7
 10
455.4926452912
 20
90.1913104677
 30
0.0
 11
455.4926452912
 21
107.9913104677
 31
0.0
  0
ARC
  5
109
  8
LAYER1
  6
CONTINUOUS
 62
     7
 10
453.4926452912
 20
232.1913104677
 30
0.0
 40
2.2
 50
180.0
 51
270.0
  0
LINE
  5
10A
  8
LAYER1
  6
CONTINUOUS
 62
     7
 10
451.2926452912
 20
248.1913104677
 30
0.0
 11
451.2926452912
 21
232.1913104677
 31
0.0
  0
ARC
  5
10B
  8
LAYER1
  6
CONTINUOUS
 62
     7
 10
453.4926452912
 20
248.1913104677
 30
0.0
 40
2.2
 50
90.0
 51
180.0
  0
ARC
  5
10C
  8
LAYER1
  6
CONTINUOUS
 62
     7
 10
399.4926452912
 20
248.1913104677
 30
0.0
 40
2.0
 50
90.0
 51
180.0
  0
ARC
  5
10D
  8
LAYER1
  6
CONTINUOUS
 62
     7
 10
399.4926452912
 20
232.1913104677
 30
0.0
 40
2.0
 50
180.0
 51
270.0
  0
LINE
  5
10E
  8
LAYER1
  6
CONTINUOUS
 62
     7
 10
397.4926452912
 20
248.1913104677
 30
0.0
 11
397.4926452912
 21
232.1913104677
 31
0.0
  0
ARC
  5
10F
  8
LAYER1
  6
CONTINUOUS
 62
     7
 10
453.4926452912
 20
112.1913104677
 30
0.0
 40
2.2
 50
180.0
 51
270.0
  0
LINE
  5
110
  8
LAYER1
  6
CONTINUOUS
 62
     7
 10
451.2926452912
 20
128.1913104677
 30
0.0
 11
451.2926452912
 21
112.1913104677
 31
0.0
  0
ARC
  5
111
  8
LAYER1
  6
CONTINUOUS
 62
     7
 10
453.4926452912
 20
128.1913104677
 30
0.0
 40
2.2
 50
90.0
 51
180.0
  0
ARC
  5
112
  8
LAYER1
  6
CONTINUOUS
 62
     7
 10
399.4926452912
 20
128.1913104677
 30
0.0
 40
2.0
 50
90.0
 51
180.0
  0
ARC
  5
113
  8
LAYER1
  6
CONTINUOUS
 62
     7
 10
399.4926452912
 20
112.1913104677
 30
0.0
 40
2.0
 50
180.0
 51
270.0
  0
LINE
  5
114
  8
LAYER1
  6
CONTINUOUS
 62
     7
 10
397.4926452912
 20
128.1913104677
 30
0.0
 11
397.4926452912
 21
112.1913104677
 31
0.0
  0
ARC
  5
115
  8
LAYER1
  6
CONTINUOUS
 62
     7
 10
435.9926452912
 20
16.6913104677
 30
0.0
 40
0.5
 50
270.0
 51
0.0
  0
ARC
  5
116
  8
LAYER1
  6
CONTINUOUS
 62
     7
 10
416.9926452912
 20
16.6913104677
 30
0.0
 40
0.5
 50
180.0
 51
270.0
  0
ARC
  5
117
  8
LAYER1
  6
CONTINUOUS
 62
     7
 10
435.9926452912
 20
343.6913104677
 30
0.0
 40
0.5
 50
0.0
 51
90.0
  0
ARC
  5
118
  8
LAYER1
  6
CONTINUOUS
 62
     7
 10
416.9926452912
 20
343.6913104677
 30
0.0
 40
0.5
 50
90.0
 51
180.0
  0
LINE
  5
119
  8
STANDARD
  6
CONTINUOUS
 62
     7
 10
455.4926452912
 20
90.1913104677
 30
0.0
 11
451.4926452912
 21
90.1913104677
 31
0.0
  0
LINE
  5
11A
  8
STANDARD
  6
CONTINUOUS
 62
     7
 10
455.4926452912
 20
132.3913104677
 30
0.0
 11
455.4926452912
 21
150.1913104677
 31
0.0
  0
LINE
  5
11B
  8
STANDARD
  6
CONTINUOUS
 62
     7
 10
455.4926452912
 20
150.1913104677
 30
0.0
 11
451.4926452912
 21
150.1913104677
 31
0.0
  0
LINE
  5
11C
  8
STANDARD
  6
CONTINUOUS
 62
     7
 10
455.4926452912
 20
252.3913104677
 30
0.0
 11
455.4926452912
 21
270.1913104677
 31
0.0
  0
LINE
  5
11D
  8
STANDARD
  6
CONTINUOUS
 62
     7
 10
455.4926452912
 20
270.1913104677
 30
0.0
 11
451.4926452912
 21
270.1913104677
 31
0.0
  0
LINE
  5
11E
  8
STANDARD
  6
CONTINUOUS
 62
     7
 10
451.4926452912
 20
210.1913104677
 30
0.0
 11
455.4926452912
 21
210.1913104677
 31
0.0
  0
LINE
  5
11F
  8
STANDARD
  6
CONTINUOUS
 62
     7
 10
401.4926452912
 20
20.1913104677
 30
0.0
 11
416.4926452912
 21
20.1913104677
 31
0.0
  0
LINE
  5
120
  8
STANDARD
  6
CONTINUOUS
 62
     7
 10
416.9926452912
 20
16.1913104677
 30
0.0
 11
435.9926452912
 21
16.1913104677
 31
0.0
  0
LINE
  5
121
  8
STANDARD
  6
CONTINUOUS
 62
     7
 10
416.4926452912
 20
20.1913104677
 30
0.0
 11
416.4926452912
 21
16.6913104677
 31
0.0
  0
LINE
  5
122
  8
STANDARD
  6
CONTINUOUS
 62
     7
 10
436.4926452912
 20
16.6913104677
 30
0.0
 11
436.4926452912
 21
20.1913104677
 31
0.0
  0
LINE
  5
123
  8
STANDARD
  6
CONTINUOUS
 62
     7
 10
416.4926452912
 20
340.1913104677
 30
0.0
 11
401.4926452912
 21
340.1913104677
 31
0.0
  0
LINE
  5
124
  8
STANDARD
  6
CONTINUOUS
 62
     7
 10
416.4926452912
 20
343.6913104677
 30
0.0
 11
416.4926452912
 21
340.1913104677
 31
0.0
  0
LINE
  5
125
  8
STANDARD
  6
CONTINUOUS
 62
     7
 10
435.9926452912
 20
344.1913104677
 30
0.0
 11
416.9926452912
 21
344.1913104677
 31
0.0
  0
LINE
  5
126
  8
STANDARD
  6
CONTINUOUS
 62
     7
 10
436.4926452912
 20
340.1913104677
 30
0.0
 11
436.4926452912
 21
343.6913104677
 31
0.0
  0
LINE
  5
127
  8
STANDARD
  6
CONTINUOUS
 62
     7
 10
451.4926452912
 20
150.1913104677
 30
0.0
 11
451.4926452912
 21
210.1913104677
 31
0.0
  0
LINE
  5
128
  8
STANDARD
  6
CONTINUOUS
 62
     7
 10
451.4926452912
 20
90.1913104677
 30
0.0
 11
451.4926452912
 21
20.1913104677
 31
0.0
  0
LINE
  5
129
  8
STANDARD
  6
CONTINUOUS
 62
     7
 10
436.4926452912
 20
20.1913104677
 30
0.0
 11
451.4926452912
 21
20.1913104677
 31
0.0
  0
LINE
  5
12A
  8
STANDARD
  6
CONTINUOUS
 62
     7
 10
401.4926452912
 20
228.1913104677
 30
0.0
 11
401.4926452912
 21
132.1913104677
 31
0.0
  0
LINE
  5
12B
  8
STANDARD
  6
CONTINUOUS
 62
     7
 10
451.4926452912
 20
340.1913104677
 30
0.0
 11
436.4926452912
 21
340.1913104677
 31
0.0
  0
LINE
  5
12C
  8
STANDARD
  6
CONTINUOUS
 62
     7
 10
451.4926452912
 20
270.1913104677
 30
0.0
 11
451.4926452912
 21
340.1913104677
 31
0.0
  0
LINE
  5
12D
  8
LAYER1
  6
CONTINUOUS
 62
     7
 10
564.4601693956
 20
165.1913104677
 30
0.0
 11
579.4601693956
 21
165.1913104677
 31
0.0
  0
LINE
  5
12E
  8
LAYER1
  6
CONTINUOUS
 62
     7
 10
579.4601693956
 20
232.3413104677
 30
0.0
 11
579.4601693956
 21
295.1913104677
 31
0.0
  0
LINE
  5
12F
  8
LAYER1
  6
CONTINUOUS
 62
     7
 10
579.4601693956
 20
295.1913104677
 30
0.0
 11
564.4601693956
 21
295.1913104677
 31
0.0
  0
LINE
  5
130
  8
LAYER1
  6
CONTINUOUS
 62
     7
 10
529.4601693956
 20
210.1913104677
 30
0.0
 11
529.4601693956
 21
165.1913104677
 31
0.0
  0
LINE
  5
131
  8
LAYER1
  6
CONTINUOUS
 62
     7
 10
564.4601693956
 20
295.1913104677
 30
0.0
 11
564.4601693956
 21
298.6913104677
 31
0.0
  0
LINE
  5
132
  8
LAYER1
  6
CONTINUOUS
 62
     7
 10
563.9601693956
 20
299.1913104677
 30
0.0
 11
544.9601693956
 21
299.1913104677
 31
0.0
  0
LINE
  5
133
  8
LAYER1
  6
CONTINUOUS
 62
     7
 10
544.4601693956
 20
298.6913104677
 30
0.0
 11
544.4601693956
 21
295.1913104677
 31
0.0
  0
LINE
  5
134
  8
LAYER1
  6
CONTINUOUS
 62
     7
 10
544.9601693956
 20
161.1913104677
 30
0.0
 11
563.9601693956
 21
161.1913104677
 31
0.0
  0
LINE
  5
135
  8
LAYER1
  6
CONTINUOUS
 62
     7
 10
564.4601693956
 20
161.6913104677
 30
0.0
 11
564.4601693956
 21
165.1913104677
 31
0.0
  0
LINE
  5
136
  8
LAYER1
  6
CONTINUOUS
 62
     7
 10
544.4601693956
 20
165.1913104677
 30
0.0
 11
544.4601693956
 21
161.6913104677
 31
0.0
  0
LINE
  5
137
  8
LAYER1
  6
CONTINUOUS
 62
     7
 10
544.4601693956
 20
295.1913104677
 30
0.0
 11
529.4601693956
 21
295.1913104677
 31
0.0
  0
LINE
  5
138
  8
LAYER1
  6
CONTINUOUS
 62
     7
 10
529.4601693956
 20
165.1913104677
 30
0.0
 11
544.4601693956
 21
165.1913104677
 31
0.0
  0
LINE
  5
139
  8
LAYER1
  6
CONTINUOUS
 62
     7
 10
525.9601693956
 20
210.1913104677
 30
0.0
 11
529.4601693956
 21
210.1913104677
 31
0.0
  0
LINE
  5
13A
  8
LAYER1
  6
CONTINUOUS
 62
     7
 10
529.4601693956
 20
250.1913104677
 30
0.0
 11
525.9601693956
 21
250.1913104677
 31
0.0
  0
LINE
  5
13B
  8
LAYER1
  6
CONTINUOUS
 62
     7
 10
525.4601693956
 20
249.6913104677
 30
0.0
 11
525.4601693956
 21
210.6913104677
 31
0.0
  0
LINE
  5
13C
  8
LAYER1
  6
CONTINUOUS
 62
     7
 10
529.4601693956
 20
295.1913104677
 30
0.0
 11
529.4601693956
 21
250.1913104677
 31
0.0
  0
LINE
  5
13D
  8
LAYER1
  6
CONTINUOUS
 62
     7
 10
579.4601693956
 20
165.1913104677
 30
0.0
 11
579.4601693956
 21
228.0413104677
 31
0.0
  0
ARC
  5
13E
  8
LAYER1
  6
CONTINUOUS
 62
     7
 10
544.9601693956
 20
298.6913104677
 30
0.0
 40
0.5
 50
90.0
 51
180.0
  0
ARC
  5
13F
  8
LAYER1
  6
CONTINUOUS
 62
     7
 10
563.9601693956
 20
298.6913104677
 30
0.0
 40
0.5
 50
0.0
 51
90.0
  0
ARC
  5
140
  8
LAYER1
  6
CONTINUOUS
 62
     7
 10
544.9601693956
 20
161.6913104677
 30
0.0
 40
0.5
 50
180.0
 51
270.0
  0
ARC
  5
141
  8
LAYER1
  6
CONTINUOUS
 62
     7
 10
563.9601693956
 20
161.6913104677
 30
0.0
 40
0.5
 50
270.0
 51
0.0
  0
LINE
  5
142
  8
LAYER2
  6
CONTINUOUS
 62
     7
 10
579.4601693956
 20
228.0413104677
 30
0.0
 11
554.3101693956
 21
228.0413104677
 31
0.0
  0
LINE
  5
143
  8
LAYER2
  6
CONTINUOUS
 62
     7
 10
554.3101693956
 20
228.0413104677
 30
0.0
 11
554.3101693956
 21
232.3413104677
 31
0.0
  0
LINE
  5
144
  8
LAYER2
  6
CONTINUOUS
 62
     7
 10
554.3101693956
 20
232.3413104677
 30
0.0
 11
579.4601693956
 21
232.3413104677
 31
0.0
  0
ARC
  5
145
  8
LAYER1
  6
CONTINUOUS
 62
     7
 10
525.9601693956
 20
249.6913104677
 30
0.0
 40
0.5
 50
90.0
 51
180.0
  0
ARC
  5
146
  8
LAYER1
  6
CONTINUOUS
 62
     7
 10
525.9601693956
 20
210.6913104677
 30
0.0
 40
0.5
 50
180.0
 51
270.0
  0
LINE
  5
147
  8
LAYER2
  6
CONTINUOUS
 62
     7
 10
480.9406953084
 20
308.4413104677
 30
0.0
 11
480.9406953084
 21
304.1413104677
 31
0.0
  0
LINE
  5
148
  8
LAYER2
  6
CONTINUOUS
 62
     7
 10
501.2406953084
 20
308.4413104677
 30
0.0
 11
480.9406953084
 21
308.4413104677
 31
0.0
  0
LINE
  5
149
  8
LAYER2
  6
CONTINUOUS
 62
     7
 10
501.2406953084
 20
304.1413104677
 30
0.0
 11
501.2406953084
 21
308.4413104677
 31
0.0
  0
LINE
  5
14A
  8
LAYER2
  6
CONTINUOUS
 62
     7
 10
480.9406953084
 20
304.1413104677
 30
0.0
 11
501.2406953084
 21
304.1413104677
 31
0.0
  0
LINE
  5
14B
  8
LAYER2
  6
CONTINUOUS
 62
     7
 10
501.2406953084
 20
268.2413104677
 30
0.0
 11
501.2406953084
 21
272.5413104677
 31
0.0
  0
LINE
  5
14C
  8
LAYER2
  6
CONTINUOUS
 62
     7
 10
480.9406953084
 20
268.2413104677
 30
0.0
 11
501.2406953084
 21
268.2413104677
 31
0.0
  0
LINE
  5
14D
  8
LAYER2
  6
CONTINUOUS
 62
     7
 10
480.9406953084
 20
272.5413104677
 30
0.0
 11
480.9406953084
 21
268.2413104677
 31
0.0
  0
LINE
  5
14E
  8
LAYER2
  6
CONTINUOUS
 62
     7
 10
501.2406953084
 20
272.5413104677
 30
0.0
 11
480.9406953084
 21
272.5413104677
 31
0.0
  0
LINE
  5
14F
  8
LAYER2
  6
CONTINUOUS
 62
     7
 10
480.9406953084
 20
218.2413104677
 30
0.0
 11
480.9406953084
 21
213.9413104677
 31
0.0
  0
LINE
  5
150
  8
LAYER2
  6
CONTINUOUS
 62
     7
 10
501.2406953084
 20
218.2413104677
 30
0.0
 11
480.9406953084
 21
218.2413104677
 31
0.0
  0
LINE
  5
151
  8
LAYER2
  6
CONTINUOUS
 62
     7
 10
501.2406953084
 20
213.9413104677
 30
0.0
 11
501.2406953084
 21
218.2413104677
 31
0.0
  0
LINE
  5
152
  8
LAYER2
  6
CONTINUOUS
 62
     7
 10
480.9406953084
 20
213.9413104677
 30
0.0
 11
501.2406953084
 21
213.9413104677
 31
0.0
  0
LINE
  5
153
  8
LAYER2
  6
CONTINUOUS
 62
     7
 10
480.9406953084
 20
163.9413104677
 30
0.0
 11
480.9406953084
 21
159.6413104677
 31
0.0
  0
LINE
  5
154
  8
LAYER2
  6
CONTINUOUS
 62
     7
 10
501.2406953084
 20
163.9413104677
 30
0.0
 11
480.9406953084
 21
163.9413104677
 31
0.0
  0
LINE
  5
155
  8
LAYER2
  6
CONTINUOUS
 62
     7
 10
501.2406953084
 20
159.6413104677
 30
0.0
 11
501.2406953084
 21
163.9413104677
 31
0.0
  0
LINE
  5
156
  8
LAYER2
  6
CONTINUOUS
 62
     7
 10
480.9406953084
 20
159.6413104677
 30
0.0
 11
501.2406953084
 21
159.6413104677
 31
0.0
  0
LINE
  5
157
  8
LAYER2
  6
CONTINUOUS
 62
     7
 10
480.9406953084
 20
97.6413104677
 30
0.0
 11
480.9406953084
 21
93.3413104677
 31
0.0
  0
LINE
  5
158
  8
LAYER2
  6
CONTINUOUS
 62
     7
 10
501.2406953084
 20
97.6413104677
 30
0.0
 11
480.9406953084
 21
97.6413104677
 31
0.0
  0
LINE
  5
159
  8
LAYER2
  6
CONTINUOUS
 62
     7
 10
501.2406953084
 20
93.3413104677
 30
0.0
 11
501.2406953084
 21
97.6413104677
 31
0.0
  0
LINE
  5
15A
  8
LAYER2
  6
CONTINUOUS
 62
     7
 10
480.9406953084
 20
93.3413104677
 30
0.0
 11
501.2406953084
 21
93.3413104677
 31
0.0
  0
ARC
  5
15B
  8
LAYER1
  6
CONTINUOUS
 62
     7
 10
518.0906953084
 20
252.3913104677
 30
0.0
 40
2.0
 50
270.0
 51
0.0
  0
ARC
  5
15C
  8
LAYER1
  6
CONTINUOUS
 62
     7
 10
518.0906953084
 20
227.9913104677
 30
0.0
 40
2.0
 50
0.0
 51
90.0
  0
ARC
  5
15D
  8
LAYER1
  6
CONTINUOUS
 62
     7
 10
464.0906953084
 20
252.1913104677
 30
0.0
 40
2.0
 50
270.0
 51
0.0
  0
ARC
  5
15E
  8
LAYER1
  6
CONTINUOUS
 62
     7
 10
464.0906953084
 20
228.1913104677
 30
0.0
 40
2.0
 50
0.0
 51
90.0
  0
ARC
  5
15F
  8
LAYER1
  6
CONTINUOUS
 62
     7
 10
518.0906953084
 20
132.3913104677
 30
0.0
 40
2.0
 50
270.0
 51
0.0
  0
ARC
  5
160
  8
LAYER1
  6
CONTINUOUS
 62
     7
 10
518.0906953084
 20
107.9913104677
 30
0.0
 40
2.0
 50
0.0
 51
90.0
  0
ARC
  5
161
  8
LAYER1
  6
CONTINUOUS
 62
     7
 10
464.0906953084
 20
132.1913104677
 30
0.0
 40
2.0
 50
270.0
 51
0.0
  0
ARC
  5
162
  8
LAYER1
  6
CONTINUOUS
 62
     7
 10
464.0906953084
 20
108.1913104677
 30
0.0
 40
2.0
 50
0.0
 51
90.0
  0
LINE
  5
163
  8
STANDARD
  6
CONTINUOUS
 62
     7
 10
466.0906953084
 20
108.1913104677
 30
0.0
 11
466.0906953084
 21
20.1913104677
 31
0.0
  0
LINE
  5
164
  8
STANDARD
  6
CONTINUOUS
 62
     7
 10
466.0906953084
 20
340.1913104677
 30
0.0
 11
466.0906953084
 21
252.1913104677
 31
0.0
  0
LINE
  5
165
  8
STANDARD
  6
CONTINUOUS
 62
     7
 10
520.0906953084
 20
210.1913104677
 30
0.0
 11
520.0906953084
 21
227.9913104677
 31
0.0
  0
LINE
  5
166
  8
STANDARD
  6
CONTINUOUS
 62
     7
 10
520.0906953084
 20
90.1913104677
 30
0.0
 11
520.0906953084
 21
107.9913104677
 31
0.0
  0
ARC
  5
167
  8
LAYER1
  6
CONTINUOUS
 62
     7
 10
518.0906953084
 20
232.1913104677
 30
0.0
 40
2.2
 50
180.0
 51
270.0
  0
LINE
  5
168
  8
LAYER1
  6
CONTINUOUS
 62
     7
 10
515.8906953084
 20
248.1913104677
 30
0.0
 11
515.8906953084
 21
232.1913104677
 31
0.0
  0
ARC
  5
169
  8
LAYER1
  6
CONTINUOUS
 62
     7
 10
518.0906953084
 20
248.1913104677
 30
0.0
 40
2.2
 50
90.0
 51
180.0
  0
ARC
  5
16A
  8
LAYER1
  6
CONTINUOUS
 62
     7
 10
464.0906953084
 20
248.1913104677
 30
0.0
 40
2.0
 50
90.0
 51
180.0
  0
ARC
  5
16B
  8
LAYER1
  6
CONTINUOUS
 62
     7
 10
464.0906953084
 20
232.1913104677
 30
0.0
 40
2.0
 50
180.0
 51
270.0
  0
LINE
  5
16C
  8
LAYER1
  6
CONTINUOUS
 62
     7
 10
462.0906953084
 20
248.1913104677
 30
0.0
 11
462.0906953084
 21
232.1913104677
 31
0.0
  0
ARC
  5
16D
  8
LAYER1
  6
CONTINUOUS
 62
     7
 10
518.0906953084
 20
112.1913104677
 30
0.0
 40
2.2
 50
180.0
 51
270.0
  0
LINE
  5
16E
  8
LAYER1
  6
CONTINUOUS
 62
     7
 10
515.8906953084
 20
128.1913104677
 30
0.0
 11
515.8906953084
 21
112.1913104677
 31
0.0
  0
ARC
  5
16F
  8
LAYER1
  6
CONTINUOUS
 62
     7
 10
518.0906953084
 20
128.1913104677
 30
0.0
 40
2.2
 50
90.0
 51
180.0
  0
ARC
  5
170
  8
LAYER1
  6
CONTINUOUS
 62
     7
 10
464.0906953084
 20
128.1913104677
 30
0.0
 40
2.0
 50
90.0
 51
180.0
  0
ARC
  5
171
  8
LAYER1
  6
CONTINUOUS
 62
     7
 10
464.0906953084
 20
112.1913104677
 30
0.0
 40
2.0
 50
180.0
 51
270.0
  0
LINE
  5
172
  8
LAYER1
  6
CONTINUOUS
 62
     7
 10
462.0906953084
 20
128.1913104677
 30
0.0
 11
462.0906953084
 21
112.1913104677
 31
0.0
  0
ARC
  5
173
  8
LAYER1
  6
CONTINUOUS
 62
     7
 10
500.5906953084
 20
16.6913104677
 30
0.0
 40
0.5
 50
270.0
 51
0.0
  0
ARC
  5
174
  8
LAYER1
  6
CONTINUOUS
 62
     7
 10
481.5906953084
 20
16.6913104677
 30
0.0
 40
0.5
 50
180.0
 51
270.0
  0
ARC
  5
175
  8
LAYER1
  6
CONTINUOUS
 62
     7
 10
500.5906953084
 20
343.6913104677
 30
0.0
 40
0.5
 50
0.0
 51
90.0
  0
ARC
  5
176
  8
LAYER1
  6
CONTINUOUS
 62
     7
 10
481.5906953084
 20
343.6913104677
 30
0.0
 40
0.5
 50
90.0
 51
180.0
  0
LINE
  5
177
  8
STANDARD
  6
CONTINUOUS
 62
     7
 10
520.0906953084
 20
90.1913104677
 30
0.0
 11
516.0906953084
 21
90.1913104677
 31
0.0
  0
LINE
  5
178
  8
STANDARD
  6
CONTINUOUS
 62
     7
 10
520.0906953084
 20
132.3913104677
 30
0.0
 11
520.0906953084
 21
150.1913104677
 31
0.0
  0
LINE
  5
179
  8
STANDARD
  6
CONTINUOUS
 62
     7
 10
520.0906953084
 20
150.1913104677
 30
0.0
 11
516.0906953084
 21
150.1913104677
 31
0.0
  0
LINE
  5
17A
  8
STANDARD
  6
CONTINUOUS
 62
     7
 10
520.0906953084
 20
252.3913104677
 30
0.0
 11
520.0906953084
 21
270.1913104677
 31
0.0
  0
LINE
  5
17B
  8
STANDARD
  6
CONTINUOUS
 62
     7
 10
520.0906953084
 20
270.1913104677
 30
0.0
 11
516.0906953084
 21
270.1913104677
 31
0.0
  0
LINE
  5
17C
  8
STANDARD
  6
CONTINUOUS
 62
     7
 10
516.0906953084
 20
210.1913104677
 30
0.0
 11
520.0906953084
 21
210.1913104677
 31
0.0
  0
LINE
  5
17D
  8
STANDARD
  6
CONTINUOUS
 62
     7
 10
466.0906953084
 20
20.1913104677
 30
0.0
 11
481.0906953084
 21
20.1913104677
 31
0.0
  0
LINE
  5
17E
  8
STANDARD
  6
CONTINUOUS
 62
     7
 10
481.5906953084
 20
16.1913104677
 30
0.0
 11
500.5906953084
 21
16.1913104677
 31
0.0
  0
LINE
  5
17F
  8
STANDARD
  6
CONTINUOUS
 62
     7
 10
481.0906953084
 20
20.1913104677
 30
0.0
 11
481.0906953084
 21
16.6913104677
 31
0.0
  0
LINE
  5
180
  8
STANDARD
  6
CONTINUOUS
 62
     7
 10
501.0906953084
 20
16.6913104677
 30
0.0
 11
501.0906953084
 21
20.1913104677
 31
0.0
  0
LINE
  5
181
  8
STANDARD
  6
CONTINUOUS
 62
     7
 10
481.0906953084
 20
340.1913104677
 30
0.0
 11
466.0906953084
 21
340.1913104677
 31
0.0
  0
LINE
  5
182
  8
STANDARD
  6
CONTINUOUS
 62
     7
 10
481.0906953084
 20
343.6913104677
 30
0.0
 11
481.0906953084
 21
340.1913104677
 31
0.0
  0
LINE
  5
183
  8
STANDARD
  6
CONTINUOUS
 62
     7
 10
500.5906953084
 20
344.1913104677
 30
0.0
 11
481.5906953084
 21
344.1913104677
 31
0.0
  0
LINE
  5
184
  8
STANDARD
  6
CONTINUOUS
 62
     7
 10
501.0906953084
 20
340.1913104677
 30
0.0
 11
501.0906953084
 21
343.6913104677
 31
0.0
  0
LINE
  5
185
  8
STANDARD
  6
CONTINUOUS
 62
     7
 10
516.0906953084
 20
150.1913104677
 30
0.0
 11
516.0906953084
 21
210.1913104677
 31
0.0
  0
LINE
  5
186
  8
STANDARD
  6
CONTINUOUS
 62
     7
 10
516.0906953084
 20
90.1913104677
 30
0.0
 11
516.0906953084
 21
20.1913104677
 31
0.0
  0
LINE
  5
187
  8
STANDARD
  6
CONTINUOUS
 62
     7
 10
501.0906953084
 20
20.1913104677
 30
0.0
 11
516.0906953084
 21
20.1913104677
 31
0.0
  0
LINE
  5
188
  8
STANDARD
  6
CONTINUOUS
 62
     7
 10
466.0906953084
 20
228.1913104677
 30
0.0
 11
466.0906953084
 21
132.1913104677
 31
0.0
  0
LINE
  5
189
  8
STANDARD
  6
CONTINUOUS
 62
     7
 10
516.0906953084
 20
340.1913104677
 30
0.0
 11
501.0906953084
 21
340.1913104677
 31
0.0
  0
LINE
  5
18A
  8
STANDARD
  6
CONTINUOUS
 62
     7
 10
516.0906953084
 20
270.1913104677
 30
0.0
 11
516.0906953084
 21
340.1913104677
 31
0.0
  0
LINE
  5
18B
  8
LAYER2
  6
CONTINUOUS
 62
     7
 10
358.3101693956
 20
304.1413104677
 30
0.0
 11
383.4601693956
 21
304.1413104677
 31
0.0
  0
LINE
  5
18C
  8
LAYER2
  6
CONTINUOUS
 62
     7
 10
358.3101693956
 20
308.4413104677
 30
0.0
 11
358.3101693956
 21
304.1413104677
 31
0.0
  0
LINE
  5
18D
  8
LAYER2
  6
CONTINUOUS
 62
     7
 10
383.4601693956
 20
308.4413104677
 30
0.0
 11
358.3101693956
 21
308.4413104677
 31
0.0
  0
LINE
  5
18E
  8
LAYER2
  6
CONTINUOUS
 62
     7
 10
358.3101693956
 20
268.2413104677
 30
0.0
 11
383.4601693956
 21
268.2413104677
 31
0.0
  0
LINE
  5
18F
  8
LAYER2
  6
CONTINUOUS
 62
     7
 10
358.3101693956
 20
272.5413104677
 30
0.0
 11
358.3101693956
 21
268.2413104677
 31
0.0
  0
LINE
  5
190
  8
LAYER2
  6
CONTINUOUS
 62
     7
 10
383.4601693956
 20
272.5413104677
 30
0.0
 11
358.3101693956
 21
272.5413104677
 31
0.0
  0
LINE
  5
191
  8
LAYER2
  6
CONTINUOUS
 62
     7
 10
358.3101693956
 20
213.9413104677
 30
0.0
 11
383.4601693956
 21
213.9413104677
 31
0.0
  0
LINE
  5
192
  8
LAYER2
  6
CONTINUOUS
 62
     7
 10
358.3101693956
 20
218.2413104677
 30
0.0
 11
358.3101693956
 21
213.9413104677
 31
0.0
  0
LINE
  5
193
  8
LAYER2
  6
CONTINUOUS
 62
     7
 10
383.4601693956
 20
218.2413104677
 30
0.0
 11
358.3101693956
 21
218.2413104677
 31
0.0
  0
LINE
  5
194
  8
LAYER2
  6
CONTINUOUS
 62
     7
 10
358.3101693956
 20
159.6413104677
 30
0.0
 11
383.4601693956
 21
159.6413104677
 31
0.0
  0
LINE
  5
195
  8
LAYER2
  6
CONTINUOUS
 62
     7
 10
358.3101693956
 20
163.9413104677
 30
0.0
 11
358.3101693956
 21
159.6413104677
 31
0.0
  0
LINE
  5
196
  8
LAYER2
  6
CONTINUOUS
 62
     7
 10
383.4601693956
 20
163.9413104677
 30
0.0
 11
358.3101693956
 21
163.9413104677
 31
0.0
  0
LINE
  5
197
  8
LAYER2
  6
CONTINUOUS
 62
     7
 10
358.3101693956
 20
93.3413104677
 30
0.0
 11
383.4601693956
 21
93.3413104677
 31
0.0
  0
LINE
  5
198
  8
LAYER2
  6
CONTINUOUS
 62
     7
 10
358.3101693956
 20
97.6413104677
 30
0.0
 11
358.3101693956
 21
93.3413104677
 31
0.0
  0
LINE
  5
199
  8
LAYER2
  6
CONTINUOUS
 62
     7
 10
383.4601693956
 20
97.6413104677
 30
0.0
 11
358.3101693956
 21
97.6413104677
 31
0.0
  0
ARC
  5
19A
  8
LAYER1
  6
CONTINUOUS
 62
     7
 10
367.9601693956
 20
16.6913104677
 30
0.0
 40
0.5
 50
270.0
 51
0.0
  0
ARC
  5
19B
  8
LAYER1
  6
CONTINUOUS
 62
     7
 10
348.9601693956
 20
16.6913104677
 30
0.0
 40
0.5
 50
180.0
 51
270.0
  0
ARC
  5
19C
  8
LAYER1
  6
CONTINUOUS
 62
     7
 10
367.9601693956
 20
343.6913104677
 30
0.0
 40
0.5
 50
0.0
 51
90.0
  0
ARC
  5
19D
  8
LAYER1
  6
CONTINUOUS
 62
     7
 10
348.9601693956
 20
343.6913104677
 30
0.0
 40
0.5
 50
90.0
 51
180.0
  0
ARC
  5
19E
  8
LAYER1
  6
CONTINUOUS
 62
     7
 10
386.9601693956
 20
252.7413104677
 30
0.0
 40
0.5
 50
0.0
 51
90.0
  0
ARC
  5
19F
  8
LAYER1
  6
CONTINUOUS
 62
     7
 10
386.9601693956
 20
233.7413104677
 30
0.0
 40
0.5
 50
270.0
 51
0.0
  0
ARC
  5
1A0
  8
LAYER1
  6
CONTINUOUS
 62
     7
 10
386.9601693956
 20
198.4413104677
 30
0.0
 40
0.5
 50
0.0
 51
90.0
  0
ARC
  5
1A1
  8
LAYER1
  6
CONTINUOUS
 62
     7
 10
386.9601693956
 20
179.4413104677
 30
0.0
 40
0.5
 50
270.0
 51
0.0
  0
ARC
  5
1A2
  8
LAYER1
  6
CONTINUOUS
 62
     7
 10
386.9601693956
 20
138.1413104677
 30
0.0
 40
0.5
 50
0.0
 51
90.0
  0
ARC
  5
1A3
  8
LAYER1
  6
CONTINUOUS
 62
     7
 10
386.9601693956
 20
119.1413104677
 30
0.0
 40
0.5
 50
270.0
 51
0.0
  0
ARC
  5
1A4
  8
LAYER1
  6
CONTINUOUS
 62
     7
 10
386.9601693956
 20
66.3413104677
 30
0.0
 40
0.5
 50
0.0
 51
90.0
  0
ARC
  5
1A5
  8
LAYER1
  6
CONTINUOUS
 62
     7
 10
386.9601693956
 20
47.3413104677
 30
0.0
 40
0.5
 50
270.0
 51
0.0
  0
LINE
  5
1A6
  8
LAYER1
  6
CONTINUOUS
 62
     7
 10
383.4601693956
 20
218.2413104677
 30
0.0
 11
383.4601693956
 21
233.2413104677
 31
0.0
  0
LINE
  5
1A7
  8
LAYER1
  6
CONTINUOUS
 62
     7
 10
383.4601693956
 20
198.9413104677
 30
0.0
 11
383.4601693956
 21
213.9413104677
 31
0.0
  0
LINE
  5
1A8
  8
LAYER1
  6
CONTINUOUS
 62
     7
 10
383.4601693956
 20
97.6413104677
 30
0.0
 11
383.4601693956
 21
118.6413104677
 31
0.0
  0
LINE
  5
1A9
  8
LAYER1
  6
CONTINUOUS
 62
     7
 10
383.4601693956
 20
66.8413104677
 30
0.0
 11
383.4601693956
 21
93.3413104677
 31
0.0
  0
LINE
  5
1AA
  8
LAYER1
  6
CONTINUOUS
 62
     7
 10
383.4601693956
 20
118.6413104677
 30
0.0
 11
386.9601693956
 21
118.6413104677
 31
0.0
  0
LINE
  5
1AB
  8
LAYER1
  6
CONTINUOUS
 62
     7
 10
386.9601693956
 20
138.6413104677
 30
0.0
 11
383.4601693956
 21
138.6413104677
 31
0.0
  0
LINE
  5
1AC
  8
LAYER1
  6
CONTINUOUS
 62
     7
 10
387.4601693956
 20
119.1413104677
 30
0.0
 11
387.4601693956
 21
138.1413104677
 31
0.0
  0
LINE
  5
1AD
  8
LAYER1
  6
CONTINUOUS
 62
     7
 10
383.4601693956
 20
233.2413104677
 30
0.0
 11
386.9601693956
 21
233.2413104677
 31
0.0
  0
LINE
  5
1AE
  8
LAYER1
  6
CONTINUOUS
 62
     7
 10
386.9601693956
 20
253.2413104677
 30
0.0
 11
383.4601693956
 21
253.2413104677
 31
0.0
  0
LINE
  5
1AF
  8
LAYER1
  6
CONTINUOUS
 62
     7
 10
387.4601693956
 20
233.7413104677
 30
0.0
 11
387.4601693956
 21
252.7413104677
 31
0.0
  0
LINE
  5
1B0
  8
LAYER1
  6
CONTINUOUS
 62
     7
 10
383.4601693956
 20
178.9413104677
 30
0.0
 11
386.9601693956
 21
178.9413104677
 31
0.0
  0
LINE
  5
1B1
  8
LAYER1
  6
CONTINUOUS
 62
     7
 10
386.9601693956
 20
198.9413104677
 30
0.0
 11
383.4601693956
 21
198.9413104677
 31
0.0
  0
LINE
  5
1B2
  8
LAYER1
  6
CONTINUOUS
 62
     7
 10
387.4601693956
 20
179.4413104677
 30
0.0
 11
387.4601693956
 21
198.4413104677
 31
0.0
  0
LINE
  5
1B3
  8
LAYER1
  6
CONTINUOUS
 62
     7
 10
383.4601693956
 20
46.8413104677
 30
0.0
 11
386.9601693956
 21
46.8413104677
 31
0.0
  0
LINE
  5
1B4
  8
LAYER1
  6
CONTINUOUS
 62
     7
 10
386.9601693956
 20
66.8413104677
 30
0.0
 11
383.4601693956
 21
66.8413104677
 31
0.0
  0
LINE
  5
1B5
  8
LAYER1
  6
CONTINUOUS
 62
     7
 10
387.4601693956
 20
47.3413104677
 30
0.0
 11
387.4601693956
 21
66.3413104677
 31
0.0
  0
LINE
  5
1B6
  8
LAYER1
  6
CONTINUOUS
 62
     7
 10
383.4601693956
 20
138.6413104677
 30
0.0
 11
383.4601693956
 21
159.6413104677
 31
0.0
  0
LINE
  5
1B7
  8
LAYER1
  6
CONTINUOUS
 62
     7
 10
383.4601693956
 20
163.9413104677
 30
0.0
 11
383.4601693956
 21
178.9413104677
 31
0.0
  0
LINE
  5
1B8
  8
LAYER1
  6
CONTINUOUS
 62
     7
 10
383.4601693956
 20
253.2413104677
 30
0.0
 11
383.4601693956
 21
268.2413104677
 31
0.0
  0
LINE
  5
1B9
  8
LAYER1
  6
CONTINUOUS
 62
     7
 10
383.4601693956
 20
272.5413104677
 30
0.0
 11
383.4601693956
 21
304.1413104677
 31
0.0
  0
LINE
  5
1BA
  8
LAYER1
  6
CONTINUOUS
 62
     7
 10
383.4601693956
 20
308.4413104677
 30
0.0
 11
383.4601693956
 21
340.1913104677
 31
0.0
  0
LINE
  5
1BB
  8
LAYER1
  6
CONTINUOUS
 62
     7
 10
383.4601693956
 20
20.1913104677
 30
0.0
 11
383.4601693956
 21
46.8413104677
 31
0.0
  0
LINE
  5
1BC
  8
STANDARD
  6
CONTINUOUS
 62
     7
 10
333.4601693956
 20
20.1913104677
 30
0.0
 11
348.4601693956
 21
20.1913104677
 31
0.0
  0
LINE
  5
1BD
  8
STANDARD
  6
CONTINUOUS
 62
     7
 10
348.9601693956
 20
16.1913104677
 30
0.0
 11
367.9601693956
 21
16.1913104677
 31
0.0
  0
LINE
  5
1BE
  8
STANDARD
  6
CONTINUOUS
 62
     7
 10
348.4601693956
 20
20.1913104677
 30
0.0
 11
348.4601693956
 21
16.6913104677
 31
0.0
  0
LINE
  5
1BF
  8
STANDARD
  6
CONTINUOUS
 62
     7
 10
368.4601693956
 20
16.6913104677
 30
0.0
 11
368.4601693956
 21
20.1913104677
 31
0.0
  0
LINE
  5
1C0
  8
STANDARD
  6
CONTINUOUS
 62
     7
 10
348.4601693956
 20
340.1913104677
 30
0.0
 11
333.4601693956
 21
340.1913104677
 31
0.0
  0
LINE
  5
1C1
  8
STANDARD
  6
CONTINUOUS
 62
     7
 10
348.4601693956
 20
343.6913104677
 30
0.0
 11
348.4601693956
 21
340.1913104677
 31
0.0
  0
LINE
  5
1C2
  8
STANDARD
  6
CONTINUOUS
 62
     7
 10
367.9601693956
 20
344.1913104677
 30
0.0
 11
348.9601693956
 21
344.1913104677
 31
0.0
  0
LINE
  5
1C3
  8
STANDARD
  6
CONTINUOUS
 62
     7
 10
368.4601693956
 20
340.1913104677
 30
0.0
 11
368.4601693956
 21
343.6913104677
 31
0.0
  0
LINE
  5
1C4
  8
STANDARD
  6
CONTINUOUS
 62
     7
 10
368.4601693956
 20
20.1913104677
 30
0.0
 11
383.4601693956
 21
20.1913104677
 31
0.0
  0
LINE
  5
1C5
  8
STANDARD
  6
CONTINUOUS
 62
     7
 10
333.4601693956
 20
340.1913104677
 30
0.0
 11
333.4601693956
 21
20.1913104677
 31
0.0
  0
LINE
  5
1C6
  8
STANDARD
  6
CONTINUOUS
 62
     7
 10
383.4601693956
 20
340.1913104677
 30
0.0
 11
368.4601693956
 21
340.1913104677
 31
0.0
  0
LINE
  5
1C7
  8
LAYER2
  6
CONTINUOUS
 62
     7
 10
81.5508344308
 20
183.122221883
 30
0.0
 11
81.5508344308
 21
208.272221883
 31
0.0
  0
LINE
  5
1C8
  8
LAYER2
  6
CONTINUOUS
 62
     7
 10
85.8508344308
 20
183.122221883
 30
0.0
 11
81.5508344308
 21
183.122221883
 31
0.0
  0
LINE
  5
1C9
  8
LAYER2
  6
CONTINUOUS
 62
     7
 10
85.8508344308
 20
208.272221883
 30
0.0
 11
85.8508344308
 21
183.122221883
 31
0.0
  0
ARC
  5
1CA
  8
LAYER1
  6
CONTINUOUS
 62
     7
 10
152.2008344308
 20
192.772221883
 30
0.0
 40
0.5
 50
0.0
 51
90.0
  0
ARC
  5
1CB
  8
LAYER1
  6
CONTINUOUS
 62
     7
 10
152.2008344308
 20
173.772221883
 30
0.0
 40
0.5
 50
270.0
 51
0.0
  0
ARC
  5
1CC
  8
LAYER1
  6
CONTINUOUS
 62
     7
 10
15.2008344308
 20
192.772221883
 30
0.0
 40
0.5
 50
90.0
 51
180.0
  0
ARC
  5
1CD
  8
LAYER1
  6
CONTINUOUS
 62
     7
 10
15.2008344308
 20
173.772221883
 30
0.0
 40
0.5
 50
180.0
 51
270.0
  0
LINE
  5
1CE
  8
LAYER1
  6
CONTINUOUS
 62
     7
 10
148.7008344308
 20
208.272221883
 30
0.0
 11
85.8508344308
 21
208.272221883
 31
0.0
  0
LINE
  5
1CF
  8
LAYER1
  6
CONTINUOUS
 62
     7
 10
18.7008344308
 20
158.272221883
 30
0.0
 11
63.7008344308
 21
158.272221883
 31
0.0
  0
LINE
  5
1D0
  8
LAYER1
  6
CONTINUOUS
 62
     7
 10
64.2008344308
 20
154.272221883
 30
0.0
 11
103.2008344308
 21
154.272221883
 31
0.0
  0
LINE
  5
1D1
  8
LAYER1
  6
CONTINUOUS
 62
     7
 10
63.7008344308
 20
158.272221883
 30
0.0
 11
63.7008344308
 21
154.772221883
 31
0.0
  0
LINE
  5
1D2
  8
LAYER1
  6
CONTINUOUS
 62
     7
 10
103.7008344308
 20
154.772221883
 30
0.0
 11
103.7008344308
 21
158.272221883
 31
0.0
  0
LINE
  5
1D3
  8
LAYER1
  6
CONTINUOUS
 62
     7
 10
148.7008344308
 20
158.272221883
 30
0.0
 11
148.7008344308
 21
173.272221883
 31
0.0
  0
LINE
  5
1D4
  8
LAYER1
  6
CONTINUOUS
 62
     7
 10
18.7008344308
 20
173.272221883
 30
0.0
 11
18.7008344308
 21
158.272221883
 31
0.0
  0
LINE
  5
1D5
  8
LAYER1
  6
CONTINUOUS
 62
     7
 10
148.7008344308
 20
173.272221883
 30
0.0
 11
152.2008344308
 21
173.272221883
 31
0.0
  0
LINE
  5
1D6
  8
LAYER1
  6
CONTINUOUS
 62
     7
 10
152.2008344308
 20
193.272221883
 30
0.0
 11
148.7008344308
 21
193.272221883
 31
0.0
  0
LINE
  5
1D7
  8
LAYER1
  6
CONTINUOUS
 62
     7
 10
152.7008344308
 20
173.772221883
 30
0.0
 11
152.7008344308
 21
192.772221883
 31
0.0
  0
LINE
  5
1D8
  8
LAYER1
  6
CONTINUOUS
 62
     7
 10
15.2008344308
 20
173.272221883
 30
0.0
 11
18.7008344308
 21
173.272221883
 31
0.0
  0
LINE
  5
1D9
  8
LAYER1
  6
CONTINUOUS
 62
     7
 10
14.7008344308
 20
192.772221883
 30
0.0
 11
14.7008344308
 21
173.772221883
 31
0.0
  0
LINE
  5
1DA
  8
LAYER1
  6
CONTINUOUS
 62
     7
 10
18.7008344308
 20
193.272221883
 30
0.0
 11
15.2008344308
 21
193.272221883
 31
0.0
  0
LINE
  5
1DB
  8
LAYER1
  6
CONTINUOUS
 62
     7
 10
103.7008344308
 20
158.272221883
 30
0.0
 11
148.7008344308
 21
158.272221883
 31
0.0
  0
LINE
  5
1DC
  8
LAYER1
  6
CONTINUOUS
 62
     7
 10
18.7008344308
 20
208.272221883
 30
0.0
 11
18.7008344308
 21
193.272221883
 31
0.0
  0
LINE
  5
1DD
  8
LAYER1
  6
CONTINUOUS
 62
     7
 10
81.5508344308
 20
208.272221883
 30
0.0
 11
18.7008344308
 21
208.272221883
 31
0.0
  0
LINE
  5
1DE
  8
LAYER1
  6
CONTINUOUS
 62
     7
 10
148.7008344308
 20
193.272221883
 30
0.0
 11
148.7008344308
 21
208.272221883
 31
0.0
  0
LINE
  5
1DF
  8
LAYER2
  6
CONTINUOUS
 62
     7
 10
85.8508344308
 20
125.3413104677
 30
0.0
 11
81.5508344308
 21
125.3413104677
 31
0.0
  0
LINE
  5
1E0
  8
LAYER2
  6
CONTINUOUS
 62
     7
 10
85.8508344308
 20
105.0413104677
 30
0.0
 11
85.8508344308
 21
125.3413104677
 31
0.0
  0
LINE
  5
1E1
  8
LAYER2
  6
CONTINUOUS
 62
     7
 10
81.5508344308
 20
105.0413104677
 30
0.0
 11
85.8508344308
 21
105.0413104677
 31
0.0
  0
LINE
  5
1E2
  8
LAYER2
  6
CONTINUOUS
 62
     7
 10
81.5508344308
 20
125.3413104677
 30
0.0
 11
81.5508344308
 21
105.0413104677
 31
0.0
  0
ARC
  5
1E3
  8
LAYER1
  6
CONTINUOUS
 62
     7
 10
95.7008344308
 20
142.1913104677
 30
0.0
 40
2.0
 50
180.0
 51
270.0
  0
ARC
  5
1E4
  8
LAYER1
  6
CONTINUOUS
 62
     7
 10
71.7008344308
 20
142.1913104677
 30
0.0
 40
2.0
 50
270.0
 51
0.0
  0
ARC
  5
1E5
  8
LAYER1
  6
CONTINUOUS
 62
     7
 10
95.9008344308
 20
88.1913104677
 30
0.0
 40
2.0
 50
180.0
 51
270.0
  0
ARC
  5
1E6
  8
LAYER1
  6
CONTINUOUS
 62
     7
 10
71.5008344308
 20
88.1913104677
 30
0.0
 40
2.0
 50
270.0
 51
0.0
  0
ARC
  5
1E7
  8
LAYER1
  6
CONTINUOUS
 62
     7
 10
75.7008344308
 20
88.1913104677
 30
0.0
 40
2.2
 50
90.0
 51
180.0
  0
LINE
  5
1E8
  8
LAYER1
  6
CONTINUOUS
 62
     7
 10
91.7008344308
 20
90.3913104677
 30
0.0
 11
75.7008344308
 21
90.3913104677
 31
0.0
  0
ARC
  5
1E9
  8
LAYER1
  6
CONTINUOUS
 62
     7
 10
91.7008344308
 20
88.1913104677
 30
0.0
 40
2.2
 50
0.0
 51
90.0
  0
ARC
  5
1EA
  8
LAYER1
  6
CONTINUOUS
 62
     7
 10
91.7008344308
 20
142.1913104677
 30
0.0
 40
2.0
 50
0.0
 51
90.0
  0
ARC
  5
1EB
  8
LAYER1
  6
CONTINUOUS
 62
     7
 10
75.7008344308
 20
142.1913104677
 30
0.0
 40
2.0
 50
90.0
 51
180.0
  0
LINE
  5
1EC
  8
STANDARD
  6
CONTINUOUS
 62
     7
 10
152.7008344308
 20
140.1913104677
 30
0.0
 11
95.7008344308
 21
140.1913104677
 31
0.0
  0
LINE
  5
1ED
  8
STANDARD
  6
CONTINUOUS
 62
     7
 10
95.9008344308
 20
86.1913104677
 30
0.0
 11
113.7008344308
 21
86.1913104677
 31
0.0
  0
LINE
  5
1EE
  8
LAYER1
  6
CONTINUOUS
 62
     7
 10
91.7008344308
 20
144.1913104677
 30
0.0
 11
75.7008344308
 21
144.1913104677
 31
0.0
  0
LINE
  5
1EF
  8
STANDARD
  6
CONTINUOUS
 62
     7
 10
152.7008344308
 20
125.1913104677
 30
0.0
 11
152.7008344308
 21
140.1913104677
 31
0.0
  0
LINE
  5
1F0
  8
STANDARD
  6
CONTINUOUS
 62
     7
 10
148.5508344308
 20
105.1913104677
 30
0.0
 11
152.7008344308
 21
105.1913104677
 31
0.0
  0
LINE
  5
1F1
  8
STANDARD
  6
CONTINUOUS
 62
     7
 10
148.5508344308
 20
125.1913104677
 30
0.0
 11
148.5508344308
 21
105.1913104677
 31
0.0
  0
LINE
  5
1F2
  8
STANDARD
  6
CONTINUOUS
 62
     7
 10
152.7008344308
 20
125.1913104677
 30
0.0
 11
148.5508344308
 21
125.1913104677
 31
0.0
  0
LINE
  5
1F3
  8
STANDARD
  6
CONTINUOUS
 62
     7
 10
14.7008344308
 20
140.1913104677
 30
0.0
 11
14.7008344308
 21
125.1913104677
 31
0.0
  0
LINE
  5
1F4
  8
STANDARD
  6
CONTINUOUS
 62
     7
 10
14.7008344308
 20
105.1913104677
 30
0.0
 11
18.8508344308
 21
105.1913104677
 31
0.0
  0
LINE
  5
1F5
  8
STANDARD
  6
CONTINUOUS
 62
     7
 10
18.8508344308
 20
125.1913104677
 30
0.0
 11
14.7008344308
 21
125.1913104677
 31
0.0
  0
LINE
  5
1F6
  8
STANDARD
  6
CONTINUOUS
 62
     7
 10
18.8508344308
 20
105.1913104677
 30
0.0
 11
18.8508344308
 21
125.1913104677
 31
0.0
  0
LINE
  5
1F7
  8
STANDARD
  6
CONTINUOUS
 62
     7
 10
152.7008344308
 20
90.1913104677
 30
0.0
 11
113.7008344308
 21
90.1913104677
 31
0.0
  0
LINE
  5
1F8
  8
STANDARD
  6
CONTINUOUS
 62
     7
 10
113.7008344308
 20
90.1913104677
 30
0.0
 11
113.7008344308
 21
86.1913104677
 31
0.0
  0
LINE
  5
1F9
  8
STANDARD
  6
CONTINUOUS
 62
     7
 10
14.7008344308
 20
90.1913104677
 30
0.0
 11
53.7008344308
 21
90.1913104677
 31
0.0
  0
LINE
  5
1FA
  8
STANDARD
  6
CONTINUOUS
 62
     7
 10
53.7008344308
 20
90.1913104677
 30
0.0
 11
53.7008344308
 21
86.1913104677
 31
0.0
  0
LINE
  5
1FB
  8
STANDARD
  6
CONTINUOUS
 62
     7
 10
53.7008344308
 20
86.1913104677
 30
0.0
 11
71.5008344308
 21
86.1913104677
 31
0.0
  0
LINE
  5
1FC
  8
STANDARD
  6
CONTINUOUS
 62
     7
 10
14.7008344308
 20
105.1913104677
 30
0.0
 11
14.7008344308
 21
90.1913104677
 31
0.0
  0
LINE
  5
1FD
  8
STANDARD
  6
CONTINUOUS
 62
     7
 10
71.7008344308
 20
140.1913104677
 30
0.0
 11
14.7008344308
 21
140.1913104677
 31
0.0
  0
LINE
  5
1FE
  8
STANDARD
  6
CONTINUOUS
 62
     7
 10
152.7008344308
 20
90.1913104677
 30
0.0
 11
152.7008344308
 21
105.1913104677
 31
0.0
  0
LINE
  5
1FF
  8
LAYER2
  6
CONTINUOUS
 62
     7
 10
85.8508344308
 20
55.3413104677
 30
0.0
 11
81.5508344308
 21
55.3413104677
 31
0.0
  0
LINE
  5
200
  8
LAYER2
  6
CONTINUOUS
 62
     7
 10
85.8508344308
 20
35.0413104677
 30
0.0
 11
85.8508344308
 21
55.3413104677
 31
0.0
  0
LINE
  5
201
  8
LAYER2
  6
CONTINUOUS
 62
     7
 10
81.5508344308
 20
35.0413104677
 30
0.0
 11
85.8508344308
 21
35.0413104677
 31
0.0
  0
LINE
  5
202
  8
LAYER2
  6
CONTINUOUS
 62
     7
 10
81.5508344308
 20
55.3413104677
 30
0.0
 11
81.5508344308
 21
35.0413104677
 31
0.0
  0
ARC
  5
203
  8
LAYER1
  6
CONTINUOUS
 62
     7
 10
95.7008344308
 20
72.1913104677
 30
0.0
 40
2.0
 50
180.0
 51
270.0
  0
ARC
  5
204
  8
LAYER1
  6
CONTINUOUS
 62
     7
 10
71.7008344308
 20
72.1913104677
 30
0.0
 40
2.0
 50
270.0
 51
0.0
  0
ARC
  5
205
  8
LAYER1
  6
CONTINUOUS
 62
     7
 10
95.9008344308
 20
18.1913104677
 30
0.0
 40
2.0
 50
180.0
 51
270.0
  0
ARC
  5
206
  8
LAYER1
  6
CONTINUOUS
 62
     7
 10
71.5008344308
 20
18.1913104677
 30
0.0
 40
2.0
 50
270.0
 51
0.0
  0
ARC
  5
207
  8
LAYER1
  6
CONTINUOUS
 62
     7
 10
75.7008344308
 20
18.1913104677
 30
0.0
 40
2.2
 50
90.0
 51
180.0
  0
LINE
  5
208
  8
LAYER1
  6
CONTINUOUS
 62
     7
 10
91.7008344308
 20
20.3913104677
 30
0.0
 11
75.7008344308
 21
20.3913104677
 31
0.0
  0
ARC
  5
209
  8
LAYER1
  6
CONTINUOUS
 62
     7
 10
91.7008344308
 20
18.1913104677
 30
0.0
 40
2.2
 50
0.0
 51
90.0
  0
ARC
  5
20A
  8
LAYER1
  6
CONTINUOUS
 62
     7
 10
91.7008344308
 20
72.1913104677
 30
0.0
 40
2.0
 50
0.0
 51
90.0
  0
ARC
  5
20B
  8
LAYER1
  6
CONTINUOUS
 62
     7
 10
75.7008344308
 20
72.1913104677
 30
0.0
 40
2.0
 50
90.0
 51
180.0
  0
LINE
  5
20C
  8
STANDARD
  6
CONTINUOUS
 62
     7
 10
152.7008344308
 20
70.1913104677
 30
0.0
 11
95.7008344308
 21
70.1913104677
 31
0.0
  0
LINE
  5
20D
  8
STANDARD
  6
CONTINUOUS
 62
     7
 10
95.9008344308
 20
16.1913104677
 30
0.0
 11
113.7008344308
 21
16.1913104677
 31
0.0
  0
LINE
  5
20E
  8
LAYER1
  6
CONTINUOUS
 62
     7
 10
91.7008344308
 20
74.1913104677
 30
0.0
 11
75.7008344308
 21
74.1913104677
 31
0.0
  0
LINE
  5
20F
  8
STANDARD
  6
CONTINUOUS
 62
     7
 10
152.7008344308
 20
55.1913104677
 30
0.0
 11
152.7008344308
 21
70.1913104677
 31
0.0
  0
LINE
  5
210
  8
STANDARD
  6
CONTINUOUS
 62
     7
 10
148.5508344308
 20
35.1913104677
 30
0.0
 11
152.7008344308
 21
35.1913104677
 31
0.0
  0
LINE
  5
211
  8
STANDARD
  6
CONTINUOUS
 62
     7
 10
148.5508344308
 20
55.1913104677
 30
0.0
 11
148.5508344308
 21
35.1913104677
 31
0.0
  0
LINE
  5
212
  8
STANDARD
  6
CONTINUOUS
 62
     7
 10
152.7008344308
 20
55.1913104677
 30
0.0
 11
148.5508344308
 21
55.1913104677
 31
0.0
  0
LINE
  5
213
  8
STANDARD
  6
CONTINUOUS
 62
     7
 10
14.7008344308
 20
70.1913104677
 30
0.0
 11
14.7008344308
 21
55.1913104677
 31
0.0
  0
LINE
  5
214
  8
STANDARD
  6
CONTINUOUS
 62
     7
 10
14.7008344308
 20
35.1913104677
 30
0.0
 11
18.8508344308
 21
35.1913104677
 31
0.0
  0
LINE
  5
215
  8
STANDARD
  6
CONTINUOUS
 62
     7
 10
18.8508344308
 20
55.1913104677
 30
0.0
 11
14.7008344308
 21
55.1913104677
 31
0.0
  0
LINE
  5
216
  8
STANDARD
  6
CONTINUOUS
 62
     7
 10
18.8508344308
 20
35.1913104677
 30
0.0
 11
18.8508344308
 21
55.1913104677
 31
0.0
  0
LINE
  5
217
  8
STANDARD
  6
CONTINUOUS
 62
     7
 10
152.7008344308
 20
20.1913104677
 30
0.0
 11
113.7008344308
 21
20.1913104677
 31
0.0
  0
LINE
  5
218
  8
STANDARD
  6
CONTINUOUS
 62
     7
 10
113.7008344308
 20
20.1913104677
 30
0.0
 11
113.7008344308
 21
16.1913104677
 31
0.0
  0
LINE
  5
219
  8
STANDARD
  6
CONTINUOUS
 62
     7
 10
14.7008344308
 20
20.1913104677
 30
0.0
 11
53.7008344308
 21
20.1913104677
 31
0.0
  0
LINE
  5
21A
  8
STANDARD
  6
CONTINUOUS
 62
     7
 10
53.7008344308
 20
20.1913104677
 30
0.0
 11
53.7008344308
 21
16.1913104677
 31
0.0
  0
LINE
  5
21B
  8
STANDARD
  6
CONTINUOUS
 62
     7
 10
53.7008344308
 20
16.1913104677
 30
0.0
 11
71.5008344308
 21
16.1913104677
 31
0.0
  0
LINE
  5
21C
  8
STANDARD
  6
CONTINUOUS
 62
     7
 10
14.7008344308
 20
35.1913104677
 30
0.0
 11
14.7008344308
 21
20.1913104677
 31
0.0
  0
LINE
  5
21D
  8
STANDARD
  6
CONTINUOUS
 62
     7
 10
71.7008344308
 20
70.1913104677
 30
0.0
 11
14.7008344308
 21
70.1913104677
 31
0.0
  0
LINE
  5
21E
  8
STANDARD
  6
CONTINUOUS
 62
     7
 10
152.7008344308
 20
20.1913104677
 30
0.0
 11
152.7008344308
 21
35.1913104677
 31
0.0
  0
LINE
  5
21F
  8
LAYER2
  6
CONTINUOUS
 62
     7
 10
81.5508344308
 20
313.122221883
 30
0.0
 11
81.5508344308
 21
338.272221883
 31
0.0
  0
LINE
  5
220
  8
LAYER2
  6
CONTINUOUS
 62
     7
 10
85.8508344308
 20
313.122221883
 30
0.0
 11
81.5508344308
 21
313.122221883
 31
0.0
  0
LINE
  5
221
  8
LAYER2
  6
CONTINUOUS
 62
     7
 10
85.8508344308
 20
338.272221883
 30
0.0
 11
85.8508344308
 21
313.122221883
 31
0.0
  0
ARC
  5
222
  8
LAYER1
  6
CONTINUOUS
 62
     7
 10
152.2008344308
 20
322.772221883
 30
0.0
 40
0.5
 50
0.0
 51
90.0
  0
ARC
  5
223
  8
LAYER1
  6
CONTINUOUS
 62
     7
 10
152.2008344308
 20
303.772221883
 30
0.0
 40
0.5
 50
270.0
 51
0.0
  0
ARC
  5
224
  8
LAYER1
  6
CONTINUOUS
 62
     7
 10
15.2008344308
 20
322.772221883
 30
0.0
 40
0.5
 50
90.0
 51
180.0
  0
ARC
  5
225
  8
LAYER1
  6
CONTINUOUS
 62
     7
 10
15.2008344308
 20
303.772221883
 30
0.0
 40
0.5
 50
180.0
 51
270.0
  0
LINE
  5
226
  8
LAYER1
  6
CONTINUOUS
 62
     7
 10
148.7008344308
 20
338.272221883
 30
0.0
 11
85.8508344308
 21
338.272221883
 31
0.0
  0
LINE
  5
227
  8
LAYER1
  6
CONTINUOUS
 62
     7
 10
18.7008344308
 20
288.272221883
 30
0.0
 11
63.7008344308
 21
288.272221883
 31
0.0
  0
LINE
  5
228
  8
LAYER1
  6
CONTINUOUS
 62
     7
 10
64.2008344308
 20
284.272221883
 30
0.0
 11
103.2008344308
 21
284.272221883
 31
0.0
  0
LINE
  5
229
  8
LAYER1
  6
CONTINUOUS
 62
     7
 10
63.7008344308
 20
288.272221883
 30
0.0
 11
63.7008344308
 21
284.772221883
 31
0.0
  0
LINE
  5
22A
  8
LAYER1
  6
CONTINUOUS
 62
     7
 10
103.7008344308
 20
284.772221883
 30
0.0
 11
103.7008344308
 21
288.272221883
 31
0.0
  0
LINE
  5
22B
  8
LAYER1
  6
CONTINUOUS
 62
     7
 10
148.7008344308
 20
288.272221883
 30
0.0
 11
148.7008344308
 21
303.272221883
 31
0.0
  0
LINE
  5
22C
  8
LAYER1
  6
CONTINUOUS
 62
     7
 10
18.7008344308
 20
303.272221883
 30
0.0
 11
18.7008344308
 21
288.272221883
 31
0.0
  0
LINE
  5
22D
  8
LAYER1
  6
CONTINUOUS
 62
     7
 10
148.7008344308
 20
303.272221883
 30
0.0
 11
152.2008344308
 21
303.272221883
 31
0.0
  0
LINE
  5
22E
  8
LAYER1
  6
CONTINUOUS
 62
     7
 10
152.2008344308
 20
323.272221883
 30
0.0
 11
148.7008344308
 21
323.272221883
 31
0.0
  0
LINE
  5
22F
  8
LAYER1
  6
CONTINUOUS
 62
     7
 10
152.7008344308
 20
303.772221883
 30
0.0
 11
152.7008344308
 21
322.772221883
 31
0.0
  0
LINE
  5
230
  8
LAYER1
  6
CONTINUOUS
 62
     7
 10
15.2008344308
 20
303.272221883
 30
0.0
 11
18.7008344308
 21
303.272221883
 31
0.0
  0
LINE
  5
231
  8
LAYER1
  6
CONTINUOUS
 62
     7
 10
14.7008344308
 20
322.772221883
 30
0.0
 11
14.7008344308
 21
303.772221883
 31
0.0
  0
LINE
  5
232
  8
LAYER1
  6
CONTINUOUS
 62
     7
 10
18.7008344308
 20
323.272221883
 30
0.0
 11
15.2008344308
 21
323.272221883
 31
0.0
  0
LINE
  5
233
  8
LAYER1
  6
CONTINUOUS
 62
     7
 10
103.7008344308
 20
288.272221883
 30
0.0
 11
148.7008344308
 21
288.272221883
 31
0.0
  0
LINE
  5
234
  8
LAYER1
  6
CONTINUOUS
 62
     7
 10
18.7008344308
 20
338.272221883
 30
0.0
 11
18.7008344308
 21
323.272221883
 31
0.0
  0
LINE
  5
235
  8
LAYER1
  6
CONTINUOUS
 62
     7
 10
81.5508344308
 20
338.272221883
 30
0.0
 11
18.7008344308
 21
338.272221883
 31
0.0
  0
LINE
  5
236
  8
LAYER1
  6
CONTINUOUS
 62
     7
 10
148.7008344308
 20
323.272221883
 30
0.0
 11
148.7008344308
 21
338.272221883
 31
0.0
  0
ENDSEC
  0
EOF
