  0
SECTION
  2
HEADER
  9
$ACADVER
  1
AC1003
  9
$INSBASE
 10
0.0
 20
0.0
  9
$EXTMIN
 10
-124.9934
 20
-143.4952
  9
$EXTMAX
 10
473.847
 20
-49.3388
  9
$LIMMIN
 10
0.0
 20
0.0
  9
$LIMMAX
 10
12.0
 20
9.0
  9
$ORTHOMODE
 70
     0
  9
$REGENMODE
 70
     1
  9
$FILLMODE
 70
     1
  9
$QTEXTMODE
 70
     0
  9
$DRAGMODE
 70
     2
  9
$LTSCALE
 40
1.0
  9
$OSMODE
 70
    37
  9
$ATTMODE
 70
     1
  9
$TEXTSIZE
 40
0.2
  9
$TRACEWID
 40
0.05
  9
$TEXTSTYLE
  7
STANDARD
  9
$CLAYER
  8
0
  9
$CELTYPE
  6
BYLAYER
  9
$CECOLOR
 62
   256
  9
$DIMSCALE
 40
1.0
  9
$DIMASZ
 40
0.18
  9
$DIMEXO
 40
0.0625
  9
$DIMDLI
 40
0.38
  9
$DIMRND
 40
0.0
  9
$DIMDLE
 40
0.0
  9
$DIMEXE
 40
0.18
  9
$DIMTP
 40
0.0
  9
$DIMTM
 40
0.0
  9
$DIMTXT
 40
0.18
  9
$DIMCEN
 40
0.09
  9
$DIMTSZ
 40
0.0
  9
$DIMTOL
 70
     0
  9
$DIMLIM
 70
     0
  9
$DIMTIH
 70
     1
  9
$DIMTOH
 70
     1
  9
$DIMSE1
 70
     0
  9
$DIMSE2
 70
     0
  9
$DIMTAD
 70
     0
  9
$DIMZIN
 70
     0
  9
$DIMBLK
  1

  9
$DIMASO
 70
     1
  9
$DIMSHO
 70
     1
  9
$DIMPOST
  1

  9
$DIMAPOST
  1

  9
$DIMALT
 70
     0
  9
$DIMALTD
 70
     2
  9
$DIMALTF
 40
25.4
  9
$DIMLFAC
 40
1.0
  9
$DIMTOFL
 70
     0
  9
$DIMTVP
 40
0.0
  9
$DIMTIX
 70
     0
  9
$DIMSOXD
 70
     0
  9
$DIMSAH
 70
     0
  9
$DIMBLK1
  1

  9
$DIMBLK2
  1

  9
$LUNITS
 70
     2
  9
$LUPREC
 70
     4
  9
$SKETCHINC
 40
0.1
  9
$FILLETRAD
 40
0.5
  9
$AUNITS
 70
     0
  9
$AUPREC
 70
     0
  9
$MENU
  1
.
  9
$ELEVATION
 40
0.0
  9
$THICKNESS
 40
0.0
  9
$LIMCHECK
 70
     0
  9
$CHAMFERA
 40
0.5
  9
$CHAMFERB
 40
0.5
  9
$SKPOLY
 70
     0
  9
$TDCREATE
 40
2458309.593021366
  9
$TDUPDATE
 40
2458309.593021366
  9
$TDINDWG
 40
0.0000000116
  9
$TDUSRTIMER
 40
0.0000000116
  9
$USRTIMER
 70
     1
  9
$ANGBASE
 50
0.0
  9
$ANGDIR
 70
     0
  9
$PDMODE
 70
     0
  9
$PDSIZE
 40
0.0
  9
$PLINEWID
 40
0.0
  9
$COORDS
 70
     1
  9
$SURFTAB1
 70
     6
  9
$SURFTAB2
 70
     6
  9
$SURFTYPE
 70
     6
  9
$SURFU
 70
     6
  9
$SURFV
 70
     6
  9
$UCSNAME
  2

  9
$UCSORG
 10
0.0
 20
0.0
 30
0.0
  9
$UCSXDIR
 10
1.0
 20
0.0
 30
0.0
  9
$UCSYDIR
 10
0.0
 20
1.0
 30
0.0
  9
$USERI1
 70
     0
  9
$USERI2
 70
     0
  9
$USERI3
 70
     0
  9
$USERI4
 70
     0
  9
$USERI5
 70
     0
  9
$USERR1
 40
0.0
  9
$USERR2
 40
0.0
  9
$USERR3
 40
0.0
  9
$USERR4
 40
0.0
  9
$USERR5
 40
0.0
  9
$WORLDVIEW
 70
     1
  0
ENDSEC
  0
SECTION
  2
TABLES
  0
TABLE
  2
LTYPE
 70
     1
  0
LTYPE
  2
CONTINUOUS
 70
     0
  3
Solid line
 72
    65
 73
     0
 40
0.0
  0
ENDTAB
  0
TABLE
  2
LAYER
 70
     2
  0
LAYER
  2
0
 70
     0
 62
     7
  6
CONTINUOUS
  0
LAYER
  2
LAYER_1
 70
     0
 62
     7
  6
CONTINUOUS
  0
ENDTAB
  0
TABLE
  2
STYLE
 70
     1
  0
STYLE
  2
STANDARD
 70
     0
 40
0.0
 41
1.0
 50
0.0
 71
     0
 42
0.2
  3
txt
  4

  0
ENDTAB
  0
TABLE
  2
VIEW
 70
     0
  0
ENDTAB
  0
ENDSEC
  0
SECTION
  2
BLOCKS
  0
ENDSEC
  0
SECTION
  2
ENTITIES
  0
POLYLINE
  8
LAYER_1
 62
   250
 66
     1
 70
     1
  0
VERTEX
  8
LAYER_1
 62
   250
 10
-30.9252
 20
-135.7355
  0
VERTEX
  8
LAYER_1
 62
   250
 10
-31.0811
 20
-137.2816
  0
VERTEX
  8
LAYER_1
 62
   250
 10
-31.5281
 20
-138.7216
  0
VERTEX
  8
LAYER_1
 62
   250
 10
-32.2354
 20
-140.0247
  0
VERTEX
  8
LAYER_1
 62
   250
 10
-33.1722
 20
-141.1601
  0
VERTEX
  8
LAYER_1
 62
   250
 10
-34.3076
 20
-142.0968
  0
VERTEX
  8
LAYER_1
 62
   250
 10
-35.6108
 20
-142.8041
  0
VERTEX
  8
LAYER_1
 62
   250
 10
-37.0509
 20
-143.2511
  0
VERTEX
  8
LAYER_1
 62
   250
 10
-38.5971
 20
-143.407
  0
VERTEX
  8
LAYER_1
 62
   250
 10
-117.2337
 20
-143.407
  0
VERTEX
  8
LAYER_1
 62
   250
 10
-118.7797
 20
-143.2511
  0
VERTEX
  8
LAYER_1
 62
   250
 10
-120.2197
 20
-142.8041
  0
VERTEX
  8
LAYER_1
 62
   250
 10
-121.5228
 20
-142.0968
  0
VERTEX
  8
LAYER_1
 62
   250
 10
-122.6582
 20
-141.1601
  0
VERTEX
  8
LAYER_1
 62
   250
 10
-123.595
 20
-140.0247
  0
VERTEX
  8
LAYER_1
 62
   250
 10
-124.3023
 20
-138.7216
  0
VERTEX
  8
LAYER_1
 62
   250
 10
-124.7493
 20
-137.2816
  0
VERTEX
  8
LAYER_1
 62
   250
 10
-124.9052
 20
-135.7355
  0
VERTEX
  8
LAYER_1
 62
   250
 10
-124.9052
 20
-57.0989
  0
VERTEX
  8
LAYER_1
 62
   250
 10
-124.7493
 20
-55.5527
  0
VERTEX
  8
LAYER_1
 62
   250
 10
-124.3023
 20
-54.1126
  0
VERTEX
  8
LAYER_1
 62
   250
 10
-123.595
 20
-52.8094
  0
VERTEX
  8
LAYER_1
 62
   250
 10
-122.6582
 20
-51.674
  0
VERTEX
  8
LAYER_1
 62
   250
 10
-121.5228
 20
-50.7372
  0
VERTEX
  8
LAYER_1
 62
   250
 10
-120.2197
 20
-50.0299
  0
VERTEX
  8
LAYER_1
 62
   250
 10
-118.7797
 20
-49.5829
  0
VERTEX
  8
LAYER_1
 62
   250
 10
-117.2337
 20
-49.427
  0
VERTEX
  8
LAYER_1
 62
   250
 10
-38.597
 20
-49.427
  0
VERTEX
  8
LAYER_1
 62
   250
 10
-37.0508
 20
-49.5829
  0
VERTEX
  8
LAYER_1
 62
   250
 10
-35.6107
 20
-50.0299
  0
VERTEX
  8
LAYER_1
 62
   250
 10
-34.3075
 20
-50.7372
  0
VERTEX
  8
LAYER_1
 62
   250
 10
-33.1722
 20
-51.674
  0
VERTEX
  8
LAYER_1
 62
   250
 10
-32.2354
 20
-52.8094
  0
VERTEX
  8
LAYER_1
 62
   250
 10
-31.5281
 20
-54.1126
  0
VERTEX
  8
LAYER_1
 62
   250
 10
-31.0811
 20
-55.5527
  0
VERTEX
  8
LAYER_1
 62
   250
 10
-30.9252
 20
-57.0989
  0
VERTEX
  8
LAYER_1
 62
   250
 10
-30.9252
 20
-135.7355
  0
SEQEND
  8
LAYER_1
 62
   250
  0
POLYLINE
  8
LAYER_1
 62
   250
 66
     1
 70
     1
  0
VERTEX
  8
LAYER_1
 62
   250
 10
-112.8763
 20
-136.8884
  0
VERTEX
  8
LAYER_1
 62
   250
 10
-113.0996
 20
-136.9895
  0
VERTEX
  8
LAYER_1
 62
   250
 10
-113.3735
 20
-137.0873
  0
VERTEX
  8
LAYER_1
 62
   250
 10
-113.6946
 20
-137.1789
  0
VERTEX
  8
LAYER_1
 62
   250
 10
-114.0595
 20
-137.2609
  0
VERTEX
  8
LAYER_1
 62
   250
 10
-114.465
 20
-137.3302
  0
VERTEX
  8
LAYER_1
 62
   250
 10
-114.9076
 20
-137.3836
  0
VERTEX
  8
LAYER_1
 62
   250
 10
-115.384
 20
-137.418
  0
VERTEX
  8
LAYER_1
 62
   250
 10
-115.8908
 20
-137.4302
  0
VERTEX
  8
LAYER_1
 62
   250
 10
-117.0561
 20
-137.3355
  0
VERTEX
  8
LAYER_1
 62
   250
 10
-118.1266
 20
-137.054
  0
VERTEX
  8
LAYER_1
 62
   250
 10
-119.0836
 20
-136.589
  0
VERTEX
  8
LAYER_1
 62
   250
 10
-119.9085
 20
-135.9443
  0
VERTEX
  8
LAYER_1
 62
   250
 10
-120.5825
 20
-135.1234
  0
VERTEX
  8
LAYER_1
 62
   250
 10
-121.0871
 20
-134.1298
  0
VERTEX
  8
LAYER_1
 62
   250
 10
-121.4036
 20
-132.9671
  0
VERTEX
  8
LAYER_1
 62
   250
 10
-121.5132
 20
-131.639
  0
VERTEX
  8
LAYER_1
 62
   250
 10
-121.4022
 20
-130.3505
  0
VERTEX
  8
LAYER_1
 62
   250
 10
-121.0795
 20
-129.1875
  0
VERTEX
  8
LAYER_1
 62
   250
 10
-120.5602
 20
-128.1642
  0
VERTEX
  8
LAYER_1
 62
   250
 10
-119.8598
 20
-127.295
  0
VERTEX
  8
LAYER_1
 62
   250
 10
-118.9935
 20
-126.594
  0
VERTEX
  8
LAYER_1
 62
   250
 10
-117.9765
 20
-126.0757
  0
VERTEX
  8
LAYER_1
 62
   250
 10
-116.8242
 20
-125.7542
  0
VERTEX
  8
LAYER_1
 62
   250
 10
-115.5518
 20
-125.6439
  0
VERTEX
  8
LAYER_1
 62
   250
 10
-115.0478
 20
-125.6574
  0
VERTEX
  8
LAYER_1
 62
   250
 10
-114.5902
 20
-125.6947
  0
VERTEX
  8
LAYER_1
 62
   250
 10
-114.1795
 20
-125.7511
  0
VERTEX
  8
LAYER_1
 62
   250
 10
-113.8161
 20
-125.8217
  0
VERTEX
  8
LAYER_1
 62
   250
 10
-113.5002
 20
-125.9019
  0
VERTEX
  8
LAYER_1
 62
   250
 10
-113.2324
 20
-125.9868
  0
VERTEX
  8
LAYER_1
 62
   250
 10
-113.0131
 20
-126.0717
  0
VERTEX
  8
LAYER_1
 62
   250
 10
-112.8425
 20
-126.1519
  0
VERTEX
  8
LAYER_1
 62
   250
 10
-113.215
 20
-127.3542
  0
VERTEX
  8
LAYER_1
 62
   250
 10
-113.4299
 20
-127.2561
  0
VERTEX
  8
LAYER_1
 62
   250
 10
-113.6674
 20
-127.1658
  0
VERTEX
  8
LAYER_1
 62
   250
 10
-113.9264
 20
-127.0851
  0
VERTEX
  8
LAYER_1
 62
   250
 10
-114.2056
 20
-127.0156
  0
VERTEX
  8
LAYER_1
 62
   250
 10
-114.5039
 20
-126.9587
  0
VERTEX
  8
LAYER_1
 62
   250
 10
-114.82
 20
-126.9161
  0
VERTEX
  8
LAYER_1
 62
   250
 10
-115.1528
 20
-126.8894
  0
VERTEX
  8
LAYER_1
 62
   250
 10
-115.5011
 20
-126.8801
  0
VERTEX
  8
LAYER_1
 62
   250
 10
-116.4607
 20
-126.9594
  0
VERTEX
  8
LAYER_1
 62
   250
 10
-117.3259
 20
-127.1942
  0
VERTEX
  8
LAYER_1
 62
   250
 10
-118.0862
 20
-127.5793
  0
VERTEX
  8
LAYER_1
 62
   250
 10
-118.7315
 20
-128.1099
  0
VERTEX
  8
LAYER_1
 62
   250
 10
-119.2513
 20
-128.781
  0
VERTEX
  8
LAYER_1
 62
   250
 10
-119.6354
 20
-129.5877
  0
VERTEX
  8
LAYER_1
 62
   250
 10
-119.8734
 20
-130.525
  0
VERTEX
  8
LAYER_1
 62
   250
 10
-119.955
 20
-131.5879
  0
VERTEX
  8
LAYER_1
 62
   250
 10
-119.8805
 20
-132.5922
  0
VERTEX
  8
LAYER_1
 62
   250
 10
-119.6605
 20
-133.491
  0
VERTEX
  8
LAYER_1
 62
   250
 10
-119.3004
 20
-134.2754
  0
VERTEX
  8
LAYER_1
 62
   250
 10
-118.8055
 20
-134.9368
  0
VERTEX
  8
LAYER_1
 62
   250
 10
-118.1812
 20
-135.4664
  0
VERTEX
  8
LAYER_1
 62
   250
 10
-117.4329
 20
-135.8555
  0
VERTEX
  8
LAYER_1
 62
   250
 10
-116.5658
 20
-136.0953
  0
VERTEX
  8
LAYER_1
 62
   250
 10
-115.5855
 20
-136.1772
  0
VERTEX
  8
LAYER_1
 62
   250
 10
-115.2433
 20
-136.1686
  0
VERTEX
  8
LAYER_1
 62
   250
 10
-114.9048
 20
-136.1436
  0
VERTEX
  8
LAYER_1
 62
   250
 10
-114.5739
 20
-136.1031
  0
VERTEX
  8
LAYER_1
 62
   250
 10
-114.2543
 20
-136.0481
  0
VERTEX
  8
LAYER_1
 62
   250
 10
-113.9497
 20
-135.9797
  0
VERTEX
  8
LAYER_1
 62
   250
 10
-113.664
 20
-135.8987
  0
VERTEX
  8
LAYER_1
 62
   250
 10
-113.401
 20
-135.8063
  0
VERTEX
  8
LAYER_1
 62
   250
 10
-113.1643
 20
-135.7034
  0
VERTEX
  8
LAYER_1
 62
   250
 10
-112.8763
 20
-136.8884
  0
SEQEND
  8
LAYER_1
 62
   250
  0
POLYLINE
  8
LAYER_1
 62
   250
 66
     1
 70
     1
  0
VERTEX
  8
LAYER_1
 62
   250
 10
-106.424
 20
-136.2054
  0
VERTEX
  8
LAYER_1
 62
   250
 10
-105.6864
 20
-136.0349
  0
VERTEX
  8
LAYER_1
 62
   250
 10
-105.0375
 20
-135.7113
  0
VERTEX
  8
LAYER_1
 62
   250
 10
-104.4803
 20
-135.2511
  0
VERTEX
  8
LAYER_1
 62
   250
 10
-104.0178
 20
-134.6712
  0
VERTEX
  8
LAYER_1
 62
   250
 10
-103.6529
 20
-133.9881
  0
VERTEX
  8
LAYER_1
 62
   250
 10
-103.3885
 20
-133.2185
  0
VERTEX
  8
LAYER_1
 62
   250
 10
-103.2278
 20
-132.379
  0
VERTEX
  8
LAYER_1
 62
   250
 10
-103.1735
 20
-131.4863
  0
VERTEX
  8
LAYER_1
 62
   250
 10
-103.2234
 20
-130.6754
  0
VERTEX
  8
LAYER_1
 62
   250
 10
-103.3738
 20
-129.8818
  0
VERTEX
  8
LAYER_1
 62
   250
 10
-103.6254
 20
-129.1298
  0
VERTEX
  8
LAYER_1
 62
   250
 10
-103.9791
 20
-128.444
  0
VERTEX
  8
LAYER_1
 62
   250
 10
-104.4357
 20
-127.8485
  0
VERTEX
  8
LAYER_1
 62
   250
 10
-104.9961
 20
-127.368
  0
VERTEX
  8
LAYER_1
 62
   250
 10
-105.6611
 20
-127.0269
  0
VERTEX
  8
LAYER_1
 62
   250
 10
-106.4316
 20
-126.8494
  0
VERTEX
  8
LAYER_1
 62
   250
 10
-106.4292
 20
-125.6362
  0
VERTEX
  8
LAYER_1
 62
   250
 10
-105.3778
 20
-125.7972
  0
VERTEX
  8
LAYER_1
 62
   250
 10
-104.4361
 20
-126.1475
  0
VERTEX
  8
LAYER_1
 62
   250
 10
-103.6135
 20
-126.6728
  0
VERTEX
  8
LAYER_1
 62
   250
 10
-102.9194
 20
-127.3586
  0
VERTEX
  8
LAYER_1
 62
   250
 10
-102.3631
 20
-128.1904
  0
VERTEX
  8
LAYER_1
 62
   250
 10
-101.9542
 20
-129.154
  0
VERTEX
  8
LAYER_1
 62
   250
 10
-101.7019
 20
-130.2348
  0
VERTEX
  8
LAYER_1
 62
   250
 10
-101.6157
 20
-131.4185
  0
VERTEX
  8
LAYER_1
 62
   250
 10
-101.7123
 20
-132.7264
  0
VERTEX
  8
LAYER_1
 62
   250
 10
-101.9897
 20
-133.8802
  0
VERTEX
  8
LAYER_1
 62
   250
 10
-102.4297
 20
-134.8772
  0
VERTEX
  8
LAYER_1
 62
   250
 10
-103.0139
 20
-135.7145
  0
VERTEX
  8
LAYER_1
 62
   250
 10
-103.724
 20
-136.3893
  0
VERTEX
  8
LAYER_1
 62
   250
 10
-104.5417
 20
-136.8987
  0
VERTEX
  8
LAYER_1
 62
   250
 10
-105.4486
 20
-137.2399
  0
VERTEX
  8
LAYER_1
 62
   250
 10
-106.4264
 20
-137.4101
  0
VERTEX
  8
LAYER_1
 62
   250
 10
-106.424
 20
-136.2054
  0
SEQEND
  8
LAYER_1
 62
   250
  0
POLYLINE
  8
LAYER_1
 62
   250
 66
     1
 70
     1
  0
VERTEX
  8
LAYER_1
 62
   250
 10
-107.2257
 20
-137.4218
  0
VERTEX
  8
LAYER_1
 62
   250
 10
-108.2551
 20
-137.2649
  0
VERTEX
  8
LAYER_1
 62
   250
 10
-109.1873
 20
-136.9193
  0
VERTEX
  8
LAYER_1
 62
   250
 10
-110.0099
 20
-136.3981
  0
VERTEX
  8
LAYER_1
 62
   250
 10
-110.7105
 20
-135.7146
  0
VERTEX
  8
LAYER_1
 62
   250
 10
-111.2769
 20
-134.882
  0
VERTEX
  8
LAYER_1
 62
   250
 10
-111.6967
 20
-133.9135
  0
VERTEX
  8
LAYER_1
 62
   250
 10
-111.9577
 20
-132.8223
  0
VERTEX
  8
LAYER_1
 62
   250
 10
-112.0474
 20
-131.6217
  0
VERTEX
  8
LAYER_1
 62
   250
 10
-111.9562
 20
-130.392
  0
VERTEX
  8
LAYER_1
 62
   250
 10
-111.6919
 20
-129.2781
  0
VERTEX
  8
LAYER_1
 62
   250
 10
-111.2686
 20
-128.2912
  0
VERTEX
  8
LAYER_1
 62
   250
 10
-110.7005
 20
-127.4423
  0
VERTEX
  8
LAYER_1
 62
   250
 10
-110.0014
 20
-126.7425
  0
VERTEX
  8
LAYER_1
 62
   250
 10
-109.1857
 20
-126.2029
  0
VERTEX
  8
LAYER_1
 62
   250
 10
-108.2672
 20
-125.8344
  0
VERTEX
  8
LAYER_1
 62
   250
 10
-107.2601
 20
-125.6482
  0
VERTEX
  8
LAYER_1
 62
   250
 10
-107.2439
 20
-126.8532
  0
VERTEX
  8
LAYER_1
 62
   250
 10
-108.0059
 20
-127.0323
  0
VERTEX
  8
LAYER_1
 62
   250
 10
-108.6658
 20
-127.3692
  0
VERTEX
  8
LAYER_1
 62
   250
 10
-109.2237
 20
-127.8439
  0
VERTEX
  8
LAYER_1
 62
   250
 10
-109.6799
 20
-128.4366
  0
VERTEX
  8
LAYER_1
 62
   250
 10
-110.0343
 20
-129.1273
  0
VERTEX
  8
LAYER_1
 62
   250
 10
-110.2873
 20
-129.896
  0
VERTEX
  8
LAYER_1
 62
   250
 10
-110.439
 20
-130.7229
  0
VERTEX
  8
LAYER_1
 62
   250
 10
-110.4895
 20
-131.5879
  0
VERTEX
  8
LAYER_1
 62
   250
 10
-110.4356
 20
-132.437
  0
VERTEX
  8
LAYER_1
 62
   250
 10
-110.2757
 20
-133.2452
  0
VERTEX
  8
LAYER_1
 62
   250
 10
-110.013
 20
-133.9942
  0
VERTEX
  8
LAYER_1
 62
   250
 10
-109.6502
 20
-134.6654
  0
VERTEX
  8
LAYER_1
 62
   250
 10
-109.1903
 20
-135.2403
  0
VERTEX
  8
LAYER_1
 62
   250
 10
-108.6363
 20
-135.7005
  0
VERTEX
  8
LAYER_1
 62
   250
 10
-107.9911
 20
-136.0275
  0
VERTEX
  8
LAYER_1
 62
   250
 10
-107.2577
 20
-136.2029
  0
VERTEX
  8
LAYER_1
 62
   250
 10
-107.2257
 20
-137.4218
  0
SEQEND
  8
LAYER_1
 62
   250
  0
POLYLINE
  8
LAYER_1
 62
   250
 66
     1
 70
     1
  0
VERTEX
  8
LAYER_1
 62
   250
 10
-99.7202
 20
-125.8302
  0
VERTEX
  8
LAYER_1
 62
   250
 10
-93.5727
 20
-125.8302
  0
VERTEX
  8
LAYER_1
 62
   250
 10
-93.5727
 20
-127.0663
  0
VERTEX
  8
LAYER_1
 62
   250
 10
-98.2298
 20
-127.0663
  0
VERTEX
  8
LAYER_1
 62
   250
 10
-98.2298
 20
-130.8597
  0
VERTEX
  8
LAYER_1
 62
   250
 10
-93.9283
 20
-130.8597
  0
VERTEX
  8
LAYER_1
 62
   250
 10
-93.9283
 20
-132.0793
  0
VERTEX
  8
LAYER_1
 62
   250
 10
-98.2298
 20
-132.0793
  0
VERTEX
  8
LAYER_1
 62
   250
 10
-98.2298
 20
-137.2443
  0
VERTEX
  8
LAYER_1
 62
   250
 10
-99.7202
 20
-137.2443
  0
VERTEX
  8
LAYER_1
 62
   250
 10
-99.7202
 20
-125.8302
  0
SEQEND
  8
LAYER_1
 62
   250
  0
POLYLINE
  8
LAYER_1
 62
   250
 66
     1
 70
     1
  0
VERTEX
  8
LAYER_1
 62
   250
 10
-91.4733
 20
-125.8302
  0
VERTEX
  8
LAYER_1
 62
   250
 10
-85.326
 20
-125.8302
  0
VERTEX
  8
LAYER_1
 62
   250
 10
-85.326
 20
-127.0663
  0
VERTEX
  8
LAYER_1
 62
   250
 10
-89.9829
 20
-127.0663
  0
VERTEX
  8
LAYER_1
 62
   250
 10
-89.9829
 20
-130.8597
  0
VERTEX
  8
LAYER_1
 62
   250
 10
-85.6816
 20
-130.8597
  0
VERTEX
  8
LAYER_1
 62
   250
 10
-85.6816
 20
-132.0793
  0
VERTEX
  8
LAYER_1
 62
   250
 10
-89.9829
 20
-132.0793
  0
VERTEX
  8
LAYER_1
 62
   250
 10
-89.9829
 20
-137.2443
  0
VERTEX
  8
LAYER_1
 62
   250
 10
-91.4733
 20
-137.2443
  0
VERTEX
  8
LAYER_1
 62
   250
 10
-91.4733
 20
-125.8302
  0
SEQEND
  8
LAYER_1
 62
   250
  0
POLYLINE
  8
LAYER_1
 62
   250
 66
     1
 70
     1
  0
VERTEX
  8
LAYER_1
 62
   250
 10
-77.3169
 20
-131.8927
  0
VERTEX
  8
LAYER_1
 62
   250
 10
-81.7368
 20
-131.8927
  0
VERTEX
  8
LAYER_1
 62
   250
 10
-81.7368
 20
-136.0078
  0
VERTEX
  8
LAYER_1
 62
   250
 10
-76.7916
 20
-136.0078
  0
VERTEX
  8
LAYER_1
 62
   250
 10
-76.7916
 20
-137.2443
  0
VERTEX
  8
LAYER_1
 62
   250
 10
-83.227
 20
-137.2443
  0
VERTEX
  8
LAYER_1
 62
   250
 10
-83.227
 20
-125.8302
  0
VERTEX
  8
LAYER_1
 62
   250
 10
-77.0456
 20
-125.8302
  0
VERTEX
  8
LAYER_1
 62
   250
 10
-77.0456
 20
-127.0663
  0
VERTEX
  8
LAYER_1
 62
   250
 10
-81.7368
 20
-127.0663
  0
VERTEX
  8
LAYER_1
 62
   250
 10
-81.7368
 20
-130.6735
  0
VERTEX
  8
LAYER_1
 62
   250
 10
-77.3169
 20
-130.6735
  0
VERTEX
  8
LAYER_1
 62
   250
 10
-77.3169
 20
-131.8927
  0
SEQEND
  8
LAYER_1
 62
   250
  0
POLYLINE
  8
LAYER_1
 62
   250
 66
     1
 70
     1
  0
VERTEX
  8
LAYER_1
 62
   250
 10
-68.9857
 20
-131.8927
  0
VERTEX
  8
LAYER_1
 62
   250
 10
-73.406
 20
-131.8927
  0
VERTEX
  8
LAYER_1
 62
   250
 10
-73.406
 20
-136.0078
  0
VERTEX
  8
LAYER_1
 62
   250
 10
-68.4607
 20
-136.0078
  0
VERTEX
  8
LAYER_1
 62
   250
 10
-68.4607
 20
-137.2443
  0
VERTEX
  8
LAYER_1
 62
   250
 10
-74.8961
 20
-137.2443
  0
VERTEX
  8
LAYER_1
 62
   250
 10
-74.8961
 20
-125.8302
  0
VERTEX
  8
LAYER_1
 62
   250
 10
-68.7147
 20
-125.8302
  0
VERTEX
  8
LAYER_1
 62
   250
 10
-68.7147
 20
-127.0663
  0
VERTEX
  8
LAYER_1
 62
   250
 10
-73.406
 20
-127.0663
  0
VERTEX
  8
LAYER_1
 62
   250
 10
-73.406
 20
-130.6735
  0
VERTEX
  8
LAYER_1
 62
   250
 10
-68.9857
 20
-130.6735
  0
VERTEX
  8
LAYER_1
 62
   250
 10
-68.9857
 20
-131.8927
  0
SEQEND
  8
LAYER_1
 62
   250
  0
POLYLINE
  8
LAYER_1
 62
   250
 66
     1
 70
     1
  0
VERTEX
  8
LAYER_1
 62
   250
 10
385.9526
 20
-136.8852
  0
VERTEX
  8
LAYER_1
 62
   250
 10
383.0562
 20
-125.4711
  0
VERTEX
  8
LAYER_1
 62
   250
 10
384.612
 20
-125.4711
  0
VERTEX
  8
LAYER_1
 62
   250
 10
385.9665
 20
-131.2457
  0
VERTEX
  8
LAYER_1
 62
   250
 10
386.8131
 20
-135.1915
  0
VERTEX
  8
LAYER_1
 62
   250
 10
386.8484
 20
-135.1915
  0
VERTEX
  8
LAYER_1
 62
   250
 10
386.9263
 20
-134.7559
  0
VERTEX
  8
LAYER_1
 62
   250
 10
387.0184
 20
-134.3009
  0
VERTEX
  8
LAYER_1
 62
   250
 10
387.1231
 20
-133.8276
  0
VERTEX
  8
LAYER_1
 62
   250
 10
387.2388
 20
-133.3373
  0
VERTEX
  8
LAYER_1
 62
   250
 10
387.3639
 20
-132.831
  0
VERTEX
  8
LAYER_1
 62
   250
 10
387.4968
 20
-132.31
  0
VERTEX
  8
LAYER_1
 62
   250
 10
387.636
 20
-131.7755
  0
VERTEX
  8
LAYER_1
 62
   250
 10
387.7797
 20
-131.2287
  0
VERTEX
  8
LAYER_1
 62
   250
 10
389.3038
 20
-125.4711
  0
VERTEX
  8
LAYER_1
 62
   250
 10
390.8457
 20
-125.4711
  0
VERTEX
  8
LAYER_1
 62
   250
 10
392.2355
 20
-131.2626
  0
VERTEX
  8
LAYER_1
 62
   250
 10
392.3548
 20
-131.7703
  0
VERTEX
  8
LAYER_1
 62
   250
 10
392.4711
 20
-132.2763
  0
VERTEX
  8
LAYER_1
 62
   250
 10
392.583
 20
-132.7787
  0
VERTEX
  8
LAYER_1
 62
   250
 10
392.6892
 20
-133.2758
  0
VERTEX
  8
LAYER_1
 62
   250
 10
392.7882
 20
-133.7657
  0
VERTEX
  8
LAYER_1
 62
   250
 10
392.8787
 20
-134.2466
  0
VERTEX
  8
LAYER_1
 62
   250
 10
392.9595
 20
-134.7169
  0
VERTEX
  8
LAYER_1
 62
   250
 10
393.029
 20
-135.1746
  0
VERTEX
  8
LAYER_1
 62
   250
 10
393.0646
 20
-135.1746
  0
VERTEX
  8
LAYER_1
 62
   250
 10
393.157
 20
-134.7036
  0
VERTEX
  8
LAYER_1
 62
   250
 10
393.2568
 20
-134.2295
  0
VERTEX
  8
LAYER_1
 62
   250
 10
393.3634
 20
-133.7506
  0
VERTEX
  8
LAYER_1
 62
   250
 10
393.4762
 20
-133.2653
  0
VERTEX
  8
LAYER_1
 62
   250
 10
393.5947
 20
-132.7721
  0
VERTEX
  8
LAYER_1
 62
   250
 10
393.7182
 20
-132.2693
  0
VERTEX
  8
LAYER_1
 62
   250
 10
393.8461
 20
-131.7554
  0
VERTEX
  8
LAYER_1
 62
   250
 10
393.978
 20
-131.2287
  0
VERTEX
  8
LAYER_1
 62
   250
 10
395.4844
 20
-125.4711
  0
VERTEX
  8
LAYER_1
 62
   250
 10
396.9909
 20
-125.4711
  0
VERTEX
  8
LAYER_1
 62
   250
 10
393.7595
 20
-136.8852
  0
VERTEX
  8
LAYER_1
 62
   250
 10
392.2177
 20
-136.8852
  0
VERTEX
  8
LAYER_1
 62
   250
 10
390.7786
 20
-130.9409
  0
VERTEX
  8
LAYER_1
 62
   250
 10
390.6505
 20
-130.4099
  0
VERTEX
  8
LAYER_1
 62
   250
 10
390.5332
 20
-129.9064
  0
VERTEX
  8
LAYER_1
 62
   250
 10
390.4264
 20
-129.4258
  0
VERTEX
  8
LAYER_1
 62
   250
 10
390.3295
 20
-128.9639
  0
VERTEX
  8
LAYER_1
 62
   250
 10
390.2422
 20
-128.5162
  0
VERTEX
  8
LAYER_1
 62
   250
 10
390.1642
 20
-128.0785
  0
VERTEX
  8
LAYER_1
 62
   250
 10
390.0949
 20
-127.6463
  0
VERTEX
  8
LAYER_1
 62
   250
 10
390.034
 20
-127.2152
  0
VERTEX
  8
LAYER_1
 62
   250
 10
389.9987
 20
-127.2152
  0
VERTEX
  8
LAYER_1
 62
   250
 10
389.9245
 20
-127.6406
  0
VERTEX
  8
LAYER_1
 62
   250
 10
389.8416
 20
-128.0688
  0
VERTEX
  8
LAYER_1
 62
   250
 10
389.7491
 20
-128.5042
  0
VERTEX
  8
LAYER_1
 62
   250
 10
389.6464
 20
-128.951
  0
VERTEX
  8
LAYER_1
 62
   250
 10
389.5326
 20
-129.4138
  0
VERTEX
  8
LAYER_1
 62
   250
 10
389.4069
 20
-129.8968
  0
VERTEX
  8
LAYER_1
 62
   250
 10
389.2685
 20
-130.4044
  0
VERTEX
  8
LAYER_1
 62
   250
 10
389.1167
 20
-130.9409
  0
VERTEX
  8
LAYER_1
 62
   250
 10
387.4905
 20
-136.8852
  0
VERTEX
  8
LAYER_1
 62
   250
 10
385.9526
 20
-136.8852
  0
SEQEND
  8
LAYER_1
 62
   250
  0
POLYLINE
  8
LAYER_1
 62
   250
 66
     1
 70
     1
  0
VERTEX
  8
LAYER_1
 62
   250
 10
399.8873
 20
-125.4711
  0
VERTEX
  8
LAYER_1
 62
   250
 10
399.8873
 20
-136.8852
  0
VERTEX
  8
LAYER_1
 62
   250
 10
398.3986
 20
-136.8852
  0
VERTEX
  8
LAYER_1
 62
   250
 10
398.3986
 20
-125.4711
  0
VERTEX
  8
LAYER_1
 62
   250
 10
399.8873
 20
-125.4711
  0
SEQEND
  8
LAYER_1
 62
   250
  0
POLYLINE
  8
LAYER_1
 62
   250
 66
     1
 70
     1
  0
VERTEX
  8
LAYER_1
 62
   250
 10
402.459
 20
-136.8852
  0
VERTEX
  8
LAYER_1
 62
   250
 10
402.459
 20
-125.4711
  0
VERTEX
  8
LAYER_1
 62
   250
 10
404.0854
 20
-125.4711
  0
VERTEX
  8
LAYER_1
 62
   250
 10
407.726
 20
-131.2457
  0
VERTEX
  8
LAYER_1
 62
   250
 10
408.0309
 20
-131.7413
  0
VERTEX
  8
LAYER_1
 62
   250
 10
408.3213
 20
-132.2254
  0
VERTEX
  8
LAYER_1
 62
   250
 10
408.5971
 20
-132.6991
  0
VERTEX
  8
LAYER_1
 62
   250
 10
408.8583
 20
-133.1637
  0
VERTEX
  8
LAYER_1
 62
   250
 10
409.105
 20
-133.6203
  0
VERTEX
  8
LAYER_1
 62
   250
 10
409.3371
 20
-134.0702
  0
VERTEX
  8
LAYER_1
 62
   250
 10
409.5547
 20
-134.5145
  0
VERTEX
  8
LAYER_1
 62
   250
 10
409.7578
 20
-134.9544
  0
VERTEX
  8
LAYER_1
 62
   250
 10
409.8107
 20
-134.9375
  0
VERTEX
  8
LAYER_1
 62
   250
 10
409.764
 20
-134.3713
  0
VERTEX
  8
LAYER_1
 62
   250
 10
409.7263
 20
-133.8116
  0
VERTEX
  8
LAYER_1
 62
   250
 10
409.6968
 20
-133.2524
  0
VERTEX
  8
LAYER_1
 62
   250
 10
409.6745
 20
-132.6873
  0
VERTEX
  8
LAYER_1
 62
   250
 10
409.6587
 20
-132.1103
  0
VERTEX
  8
LAYER_1
 62
   250
 10
409.6485
 20
-131.5153
  0
VERTEX
  8
LAYER_1
 62
   250
 10
409.6429
 20
-130.8961
  0
VERTEX
  8
LAYER_1
 62
   250
 10
409.6413
 20
-130.2466
  0
VERTEX
  8
LAYER_1
 62
   250
 10
409.6417
 20
-125.4711
  0
VERTEX
  8
LAYER_1
 62
   250
 10
411.0315
 20
-125.4711
  0
VERTEX
  8
LAYER_1
 62
   250
 10
411.0315
 20
-136.8852
  0
VERTEX
  8
LAYER_1
 62
   250
 10
409.5393
 20
-136.8852
  0
VERTEX
  8
LAYER_1
 62
   250
 10
405.9162
 20
-131.0933
  0
VERTEX
  8
LAYER_1
 62
   250
 10
405.6192
 20
-130.6157
  0
VERTEX
  8
LAYER_1
 62
   250
 10
405.3275
 20
-130.136
  0
VERTEX
  8
LAYER_1
 62
   250
 10
405.043
 20
-129.6556
  0
VERTEX
  8
LAYER_1
 62
   250
 10
404.7678
 20
-129.1755
  0
VERTEX
  8
LAYER_1
 62
   250
 10
404.5038
 20
-128.6971
  0
VERTEX
  8
LAYER_1
 62
   250
 10
404.2531
 20
-128.2213
  0
VERTEX
  8
LAYER_1
 62
   250
 10
404.0176
 20
-127.7495
  0
VERTEX
  8
LAYER_1
 62
   250
 10
403.7993
 20
-127.2829
  0
VERTEX
  8
LAYER_1
 62
   250
 10
403.7465
 20
-127.2999
  0
VERTEX
  8
LAYER_1
 62
   250
 10
403.7753
 20
-127.8377
  0
VERTEX
  8
LAYER_1
 62
   250
 10
403.7983
 20
-128.3761
  0
VERTEX
  8
LAYER_1
 62
   250
 10
403.8161
 20
-128.922
  0
VERTEX
  8
LAYER_1
 62
   250
 10
403.8294
 20
-129.4824
  0
VERTEX
  8
LAYER_1
 62
   250
 10
403.8387
 20
-130.0642
  0
VERTEX
  8
LAYER_1
 62
   250
 10
403.8447
 20
-130.6744
  0
VERTEX
  8
LAYER_1
 62
   250
 10
403.8478
 20
-131.3199
  0
VERTEX
  8
LAYER_1
 62
   250
 10
403.8487
 20
-132.0077
  0
VERTEX
  8
LAYER_1
 62
   250
 10
403.8489
 20
-136.8852
  0
VERTEX
  8
LAYER_1
 62
   250
 10
402.459
 20
-136.8852
  0
SEQEND
  8
LAYER_1
 62
   250
  0
POLYLINE
  8
LAYER_1
 62
   250
 66
     1
 70
     1
  0
VERTEX
  8
LAYER_1
 62
   250
 10
419.4945
 20
-131.5335
  0
VERTEX
  8
LAYER_1
 62
   250
 10
415.0745
 20
-131.5335
  0
VERTEX
  8
LAYER_1
 62
   250
 10
415.0745
 20
-135.6487
  0
VERTEX
  8
LAYER_1
 62
   250
 10
420.0204
 20
-135.6487
  0
VERTEX
  8
LAYER_1
 62
   250
 10
420.0204
 20
-136.8852
  0
VERTEX
  8
LAYER_1
 62
   250
 10
413.5854
 20
-136.8852
  0
VERTEX
  8
LAYER_1
 62
   250
 10
413.5854
 20
-125.4711
  0
VERTEX
  8
LAYER_1
 62
   250
 10
419.7664
 20
-125.4711
  0
VERTEX
  8
LAYER_1
 62
   250
 10
419.7664
 20
-126.7072
  0
VERTEX
  8
LAYER_1
 62
   250
 10
415.0745
 20
-126.7072
  0
VERTEX
  8
LAYER_1
 62
   250
 10
415.0745
 20
-130.3143
  0
VERTEX
  8
LAYER_1
 62
   250
 10
419.4945
 20
-130.3143
  0
VERTEX
  8
LAYER_1
 62
   250
 10
419.4945
 20
-131.5335
  0
SEQEND
  8
LAYER_1
 62
   250
  0
POLYLINE
  8
LAYER_1
 62
   250
 66
     1
 70
     1
  0
VERTEX
  8
LAYER_1
 62
   250
 10
473.7588
 20
-135.7355
  0
VERTEX
  8
LAYER_1
 62
   250
 10
473.6029
 20
-137.2816
  0
VERTEX
  8
LAYER_1
 62
   250
 10
473.1557
 20
-138.7216
  0
VERTEX
  8
LAYER_1
 62
   250
 10
472.4482
 20
-140.0247
  0
VERTEX
  8
LAYER_1
 62
   250
 10
471.5111
 20
-141.1601
  0
VERTEX
  8
LAYER_1
 62
   250
 10
470.3755
 20
-142.0968
  0
VERTEX
  8
LAYER_1
 62
   250
 10
469.0721
 20
-142.8041
  0
VERTEX
  8
LAYER_1
 62
   250
 10
467.632
 20
-143.2511
  0
VERTEX
  8
LAYER_1
 62
   250
 10
466.0858
 20
-143.407
  0
VERTEX
  8
LAYER_1
 62
   250
 10
387.4516
 20
-143.407
  0
VERTEX
  8
LAYER_1
 62
   250
 10
385.9055
 20
-143.2511
  0
VERTEX
  8
LAYER_1
 62
   250
 10
384.4654
 20
-142.8041
  0
VERTEX
  8
LAYER_1
 62
   250
 10
383.1621
 20
-142.0968
  0
VERTEX
  8
LAYER_1
 62
   250
 10
382.0264
 20
-141.1601
  0
VERTEX
  8
LAYER_1
 62
   250
 10
381.0894
 20
-140.0247
  0
VERTEX
  8
LAYER_1
 62
   250
 10
380.3818
 20
-138.7216
  0
VERTEX
  8
LAYER_1
 62
   250
 10
379.9346
 20
-137.2816
  0
VERTEX
  8
LAYER_1
 62
   250
 10
379.7787
 20
-135.7355
  0
VERTEX
  8
LAYER_1
 62
   250
 10
379.7788
 20
-57.0989
  0
VERTEX
  8
LAYER_1
 62
   250
 10
379.9347
 20
-55.5527
  0
VERTEX
  8
LAYER_1
 62
   250
 10
380.3819
 20
-54.1126
  0
VERTEX
  8
LAYER_1
 62
   250
 10
381.0894
 20
-52.8094
  0
VERTEX
  8
LAYER_1
 62
   250
 10
382.0264
 20
-51.674
  0
VERTEX
  8
LAYER_1
 62
   250
 10
383.162
 20
-50.7372
  0
VERTEX
  8
LAYER_1
 62
   250
 10
384.4653
 20
-50.0299
  0
VERTEX
  8
LAYER_1
 62
   250
 10
385.9055
 20
-49.5829
  0
VERTEX
  8
LAYER_1
 62
   250
 10
387.4516
 20
-49.427
  0
VERTEX
  8
LAYER_1
 62
   250
 10
466.086
 20
-49.427
  0
VERTEX
  8
LAYER_1
 62
   250
 10
467.6321
 20
-49.5829
  0
VERTEX
  8
LAYER_1
 62
   250
 10
469.0722
 20
-50.0299
  0
VERTEX
  8
LAYER_1
 62
   250
 10
470.3755
 20
-50.7372
  0
VERTEX
  8
LAYER_1
 62
   250
 10
471.5111
 20
-51.674
  0
VERTEX
  8
LAYER_1
 62
   250
 10
472.4481
 20
-52.8094
  0
VERTEX
  8
LAYER_1
 62
   250
 10
473.1556
 20
-54.1126
  0
VERTEX
  8
LAYER_1
 62
   250
 10
473.6028
 20
-55.5527
  0
VERTEX
  8
LAYER_1
 62
   250
 10
473.7587
 20
-57.0989
  0
VERTEX
  8
LAYER_1
 62
   250
 10
473.7588
 20
-135.7355
  0
SEQEND
  8
LAYER_1
 62
   250
  0
POLYLINE
  8
LAYER_1
 62
   250
 66
     1
 70
     1
  0
VERTEX
  8
LAYER_1
 62
   250
 10
71.0276
 20
-135.7355
  0
VERTEX
  8
LAYER_1
 62
   250
 10
70.8717
 20
-137.2816
  0
VERTEX
  8
LAYER_1
 62
   250
 10
70.4247
 20
-138.7216
  0
VERTEX
  8
LAYER_1
 62
   250
 10
69.7174
 20
-140.0247
  0
VERTEX
  8
LAYER_1
 62
   250
 10
68.7806
 20
-141.1601
  0
VERTEX
  8
LAYER_1
 62
   250
 10
67.6452
 20
-142.0968
  0
VERTEX
  8
LAYER_1
 62
   250
 10
66.342
 20
-142.8041
  0
VERTEX
  8
LAYER_1
 62
   250
 10
64.9019
 20
-143.2511
  0
VERTEX
  8
LAYER_1
 62
   250
 10
63.3557
 20
-143.407
  0
VERTEX
  8
LAYER_1
 62
   250
 10
-15.2809
 20
-143.407
  0
VERTEX
  8
LAYER_1
 62
   250
 10
-16.827
 20
-143.2511
  0
VERTEX
  8
LAYER_1
 62
   250
 10
-18.267
 20
-142.8041
  0
VERTEX
  8
LAYER_1
 62
   250
 10
-19.5701
 20
-142.0968
  0
VERTEX
  8
LAYER_1
 62
   250
 10
-20.7055
 20
-141.1601
  0
VERTEX
  8
LAYER_1
 62
   250
 10
-21.6422
 20
-140.0247
  0
VERTEX
  8
LAYER_1
 62
   250
 10
-22.3495
 20
-138.7216
  0
VERTEX
  8
LAYER_1
 62
   250
 10
-22.7965
 20
-137.2816
  0
VERTEX
  8
LAYER_1
 62
   250
 10
-22.9524
 20
-135.7355
  0
VERTEX
  8
LAYER_1
 62
   250
 10
-22.9524
 20
-57.0989
  0
VERTEX
  8
LAYER_1
 62
   250
 10
-22.7965
 20
-55.5527
  0
VERTEX
  8
LAYER_1
 62
   250
 10
-22.3495
 20
-54.1126
  0
VERTEX
  8
LAYER_1
 62
   250
 10
-21.6422
 20
-52.8094
  0
VERTEX
  8
LAYER_1
 62
   250
 10
-20.7055
 20
-51.674
  0
VERTEX
  8
LAYER_1
 62
   250
 10
-19.5701
 20
-50.7372
  0
VERTEX
  8
LAYER_1
 62
   250
 10
-18.267
 20
-50.0299
  0
VERTEX
  8
LAYER_1
 62
   250
 10
-16.827
 20
-49.5829
  0
VERTEX
  8
LAYER_1
 62
   250
 10
-15.2809
 20
-49.427
  0
VERTEX
  8
LAYER_1
 62
   250
 10
63.3557
 20
-49.427
  0
VERTEX
  8
LAYER_1
 62
   250
 10
64.9019
 20
-49.5829
  0
VERTEX
  8
LAYER_1
 62
   250
 10
66.342
 20
-50.0299
  0
VERTEX
  8
LAYER_1
 62
   250
 10
67.6452
 20
-50.7372
  0
VERTEX
  8
LAYER_1
 62
   250
 10
68.7806
 20
-51.674
  0
VERTEX
  8
LAYER_1
 62
   250
 10
69.7174
 20
-52.8094
  0
VERTEX
  8
LAYER_1
 62
   250
 10
70.4247
 20
-54.1126
  0
VERTEX
  8
LAYER_1
 62
   250
 10
70.8717
 20
-55.5527
  0
VERTEX
  8
LAYER_1
 62
   250
 10
71.0276
 20
-57.0989
  0
VERTEX
  8
LAYER_1
 62
   250
 10
71.0276
 20
-135.7355
  0
SEQEND
  8
LAYER_1
 62
   250
  0
POLYLINE
  8
LAYER_1
 62
   250
 66
     1
 70
     1
  0
VERTEX
  8
LAYER_1
 62
   250
 10
-16.3879
 20
-126.9351
  0
VERTEX
  8
LAYER_1
 62
   250
 10
-19.8592
 20
-126.9351
  0
VERTEX
  8
LAYER_1
 62
   250
 10
-19.8592
 20
-125.6817
  0
VERTEX
  8
LAYER_1
 62
   250
 10
-11.4088
 20
-125.6817
  0
VERTEX
  8
LAYER_1
 62
   250
 10
-11.4088
 20
-126.9351
  0
VERTEX
  8
LAYER_1
 62
   250
 10
-14.8978
 20
-126.9351
  0
VERTEX
  8
LAYER_1
 62
   250
 10
-14.8978
 20
-137.0958
  0
VERTEX
  8
LAYER_1
 62
   250
 10
-16.3879
 20
-137.0958
  0
VERTEX
  8
LAYER_1
 62
   250
 10
-16.3879
 20
-126.9351
  0
SEQEND
  8
LAYER_1
 62
   250
  0
POLYLINE
  8
LAYER_1
 62
   250
 66
     1
 70
     1
  0
VERTEX
  8
LAYER_1
 62
   250
 10
-4.2467
 20
-131.7445
  0
VERTEX
  8
LAYER_1
 62
   250
 10
-8.6663
 20
-131.7445
  0
VERTEX
  8
LAYER_1
 62
   250
 10
-8.6663
 20
-135.8597
  0
VERTEX
  8
LAYER_1
 62
   250
 10
-3.7214
 20
-135.8597
  0
VERTEX
  8
LAYER_1
 62
   250
 10
-3.7214
 20
-137.0958
  0
VERTEX
  8
LAYER_1
 62
   250
 10
-10.1568
 20
-137.0958
  0
VERTEX
  8
LAYER_1
 62
   250
 10
-10.1568
 20
-125.6817
  0
VERTEX
  8
LAYER_1
 62
   250
 10
-3.9754
 20
-125.6817
  0
VERTEX
  8
LAYER_1
 62
   250
 10
-3.9754
 20
-126.9182
  0
VERTEX
  8
LAYER_1
 62
   250
 10
-8.6663
 20
-126.9182
  0
VERTEX
  8
LAYER_1
 62
   250
 10
-8.6663
 20
-130.5253
  0
VERTEX
  8
LAYER_1
 62
   250
 10
-4.2467
 20
-130.5253
  0
VERTEX
  8
LAYER_1
 62
   250
 10
-4.2467
 20
-131.7445
  0
SEQEND
  8
LAYER_1
 62
   250
  0
POLYLINE
  8
LAYER_1
 62
   250
 66
     1
 70
     1
  0
VERTEX
  8
LAYER_1
 62
   250
 10
1.1543
 20
-132.3298
  0
VERTEX
  8
LAYER_1
 62
   250
 10
3.7966
 20
-132.3541
  0
VERTEX
  8
LAYER_1
 62
   250
 10
2.5061
 20
-128.5667
  0
VERTEX
  8
LAYER_1
 62
   250
 10
3.1743
 20
-126.2401
  0
VERTEX
  8
LAYER_1
 62
   250
 10
6.8788
 20
-137.0958
  0
VERTEX
  8
LAYER_1
 62
   250
 10
5.3037
 20
-137.0958
  0
VERTEX
  8
LAYER_1
 62
   250
 10
4.0845
 20
-133.5056
  0
VERTEX
  8
LAYER_1
 62
   250
 10
0.8016
 20
-133.5938
  0
VERTEX
  8
LAYER_1
 62
   250
 10
1.1543
 20
-132.3298
  0
SEQEND
  8
LAYER_1
 62
   250
  0
POLYLINE
  8
LAYER_1
 62
   250
 66
     1
 70
     1
  0
VERTEX
  8
LAYER_1
 62
   250
 10
-1.1483
 20
-137.0958
  0
VERTEX
  8
LAYER_1
 62
   250
 10
-2.6726
 20
-137.0958
  0
VERTEX
  8
LAYER_1
 62
   250
 10
1.2225
 20
-125.6817
  0
VERTEX
  8
LAYER_1
 62
   250
 10
2.5365
 20
-125.694
  0
VERTEX
  8
LAYER_1
 62
   250
 10
-1.1483
 20
-137.0958
  0
SEQEND
  8
LAYER_1
 62
   250
  0
POLYLINE
  8
LAYER_1
 62
   250
 66
     1
 70
     1
  0
VERTEX
  8
LAYER_1
 62
   250
 10
185.985
 20
-136.8852
  0
VERTEX
  8
LAYER_1
 62
   250
 10
183.0894
 20
-125.4711
  0
VERTEX
  8
LAYER_1
 62
   250
 10
184.6471
 20
-125.4711
  0
VERTEX
  8
LAYER_1
 62
   250
 10
186.0018
 20
-131.246
  0
VERTEX
  8
LAYER_1
 62
   250
 10
186.8484
 20
-135.1919
  0
VERTEX
  8
LAYER_1
 62
   250
 10
186.8823
 20
-135.1918
  0
VERTEX
  8
LAYER_1
 62
   250
 10
186.9598
 20
-134.7561
  0
VERTEX
  8
LAYER_1
 62
   250
 10
187.0517
 20
-134.3011
  0
VERTEX
  8
LAYER_1
 62
   250
 10
187.1562
 20
-133.8277
  0
VERTEX
  8
LAYER_1
 62
   250
 10
187.2719
 20
-133.3374
  0
VERTEX
  8
LAYER_1
 62
   250
 10
187.3971
 20
-132.8311
  0
VERTEX
  8
LAYER_1
 62
   250
 10
187.5301
 20
-132.3102
  0
VERTEX
  8
LAYER_1
 62
   250
 10
187.6695
 20
-131.7758
  0
VERTEX
  8
LAYER_1
 62
   250
 10
187.8136
 20
-131.2291
  0
VERTEX
  8
LAYER_1
 62
   250
 10
189.338
 20
-125.4711
  0
VERTEX
  8
LAYER_1
 62
   250
 10
190.879
 20
-125.4711
  0
VERTEX
  8
LAYER_1
 62
   250
 10
192.2675
 20
-131.263
  0
VERTEX
  8
LAYER_1
 62
   250
 10
192.3872
 20
-131.7707
  0
VERTEX
  8
LAYER_1
 62
   250
 10
192.5038
 20
-132.2766
  0
VERTEX
  8
LAYER_1
 62
   250
 10
192.6162
 20
-132.7789
  0
VERTEX
  8
LAYER_1
 62
   250
 10
192.7227
 20
-133.2759
  0
VERTEX
  8
LAYER_1
 62
   250
 10
192.8221
 20
-133.7658
  0
VERTEX
  8
LAYER_1
 62
   250
 10
192.9129
 20
-134.2467
  0
VERTEX
  8
LAYER_1
 62
   250
 10
192.9938
 20
-134.7169
  0
VERTEX
  8
LAYER_1
 62
   250
 10
193.0633
 20
-135.1746
  0
VERTEX
  8
LAYER_1
 62
   250
 10
193.0973
 20
-135.1746
  0
VERTEX
  8
LAYER_1
 62
   250
 10
193.1902
 20
-134.7036
  0
VERTEX
  8
LAYER_1
 62
   250
 10
193.2904
 20
-134.2295
  0
VERTEX
  8
LAYER_1
 62
   250
 10
193.3972
 20
-133.7506
  0
VERTEX
  8
LAYER_1
 62
   250
 10
193.5103
 20
-133.2653
  0
VERTEX
  8
LAYER_1
 62
   250
 10
193.6288
 20
-132.7722
  0
VERTEX
  8
LAYER_1
 62
   250
 10
193.7524
 20
-132.2694
  0
VERTEX
  8
LAYER_1
 62
   250
 10
193.8802
 20
-131.7556
  0
VERTEX
  8
LAYER_1
 62
   250
 10
194.0119
 20
-131.2291
  0
VERTEX
  8
LAYER_1
 62
   250
 10
195.5191
 20
-125.4711
  0
VERTEX
  8
LAYER_1
 62
   250
 10
197.0264
 20
-125.4711
  0
VERTEX
  8
LAYER_1
 62
   250
 10
193.7919
 20
-136.8852
  0
VERTEX
  8
LAYER_1
 62
   250
 10
192.2506
 20
-136.8852
  0
VERTEX
  8
LAYER_1
 62
   250
 10
190.811
 20
-130.9409
  0
VERTEX
  8
LAYER_1
 62
   250
 10
190.6832
 20
-130.4099
  0
VERTEX
  8
LAYER_1
 62
   250
 10
190.5661
 20
-129.9064
  0
VERTEX
  8
LAYER_1
 62
   250
 10
190.4593
 20
-129.4258
  0
VERTEX
  8
LAYER_1
 62
   250
 10
190.3624
 20
-128.9639
  0
VERTEX
  8
LAYER_1
 62
   250
 10
190.2751
 20
-128.5163
  0
VERTEX
  8
LAYER_1
 62
   250
 10
190.1968
 20
-128.0786
  0
VERTEX
  8
LAYER_1
 62
   250
 10
190.1273
 20
-127.6465
  0
VERTEX
  8
LAYER_1
 62
   250
 10
190.0661
 20
-127.2155
  0
VERTEX
  8
LAYER_1
 62
   250
 10
190.0323
 20
-127.2155
  0
VERTEX
  8
LAYER_1
 62
   250
 10
189.9583
 20
-127.6409
  0
VERTEX
  8
LAYER_1
 62
   250
 10
189.8755
 20
-128.0691
  0
VERTEX
  8
LAYER_1
 62
   250
 10
189.7832
 20
-128.5044
  0
VERTEX
  8
LAYER_1
 62
   250
 10
189.6807
 20
-128.9512
  0
VERTEX
  8
LAYER_1
 62
   250
 10
189.567
 20
-129.4139
  0
VERTEX
  8
LAYER_1
 62
   250
 10
189.4415
 20
-129.8969
  0
VERTEX
  8
LAYER_1
 62
   250
 10
189.3033
 20
-130.4044
  0
VERTEX
  8
LAYER_1
 62
   250
 10
189.1517
 20
-130.9409
  0
VERTEX
  8
LAYER_1
 62
   250
 10
187.5258
 20
-136.8852
  0
VERTEX
  8
LAYER_1
 62
   250
 10
185.985
 20
-136.8852
  0
SEQEND
  8
LAYER_1
 62
   250
  0
POLYLINE
  8
LAYER_1
 62
   250
 66
     1
 70
     1
  0
VERTEX
  8
LAYER_1
 62
   250
 10
208.7094
 20
-126.7241
  0
VERTEX
  8
LAYER_1
 62
   250
 10
205.2378
 20
-126.7241
  0
VERTEX
  8
LAYER_1
 62
   250
 10
205.2378
 20
-125.4711
  0
VERTEX
  8
LAYER_1
 62
   250
 10
213.6882
 20
-125.4711
  0
VERTEX
  8
LAYER_1
 62
   250
 10
213.6882
 20
-126.7241
  0
VERTEX
  8
LAYER_1
 62
   250
 10
210.1993
 20
-126.7241
  0
VERTEX
  8
LAYER_1
 62
   250
 10
210.1993
 20
-136.8852
  0
VERTEX
  8
LAYER_1
 62
   250
 10
208.7094
 20
-136.8852
  0
VERTEX
  8
LAYER_1
 62
   250
 10
208.7094
 20
-126.7241
  0
SEQEND
  8
LAYER_1
 62
   250
  0
POLYLINE
  8
LAYER_1
 62
   250
 66
     1
 70
     1
  0
VERTEX
  8
LAYER_1
 62
   250
 10
220.8506
 20
-131.5339
  0
VERTEX
  8
LAYER_1
 62
   250
 10
216.4306
 20
-131.5339
  0
VERTEX
  8
LAYER_1
 62
   250
 10
216.4306
 20
-135.649
  0
VERTEX
  8
LAYER_1
 62
   250
 10
221.3755
 20
-135.649
  0
VERTEX
  8
LAYER_1
 62
   250
 10
221.3755
 20
-136.8852
  0
VERTEX
  8
LAYER_1
 62
   250
 10
214.9406
 20
-136.8852
  0
VERTEX
  8
LAYER_1
 62
   250
 10
214.9406
 20
-125.4711
  0
VERTEX
  8
LAYER_1
 62
   250
 10
221.1215
 20
-125.4711
  0
VERTEX
  8
LAYER_1
 62
   250
 10
221.1215
 20
-126.7075
  0
VERTEX
  8
LAYER_1
 62
   250
 10
216.4306
 20
-126.7075
  0
VERTEX
  8
LAYER_1
 62
   250
 10
216.4306
 20
-130.3147
  0
VERTEX
  8
LAYER_1
 62
   250
 10
220.8506
 20
-130.3147
  0
VERTEX
  8
LAYER_1
 62
   250
 10
220.8506
 20
-131.5339
  0
SEQEND
  8
LAYER_1
 62
   250
  0
POLYLINE
  8
LAYER_1
 62
   250
 66
     1
 70
     1
  0
VERTEX
  8
LAYER_1
 62
   250
 10
224.7618
 20
-131.9403
  0
VERTEX
  8
LAYER_1
 62
   250
 10
224.7618
 20
-136.8852
  0
VERTEX
  8
LAYER_1
 62
   250
 10
223.2882
 20
-136.8852
  0
VERTEX
  8
LAYER_1
 62
   250
 10
223.2882
 20
-125.6235
  0
VERTEX
  8
LAYER_1
 62
   250
 10
224.7565
 20
-125.4506
  0
VERTEX
  8
LAYER_1
 62
   250
 10
224.7618
 20
-130.8227
  0
VERTEX
  8
LAYER_1
 62
   250
 10
224.7618
 20
-131.9403
  0
SEQEND
  8
LAYER_1
 62
   250
  0
POLYLINE
  8
LAYER_1
 62
   250
 66
     1
 70
     1
  0
VERTEX
  8
LAYER_1
 62
   250
 10
225.8445
 20
-130.8597
  0
VERTEX
  8
LAYER_1
 62
   250
 10
226.2686
 20
-130.8227
  0
VERTEX
  8
LAYER_1
 62
   250
 10
226.8316
 20
-130.783
  0
VERTEX
  8
LAYER_1
 62
   250
 10
227.3356
 20
-130.6673
  0
VERTEX
  8
LAYER_1
 62
   250
 10
227.7756
 20
-130.4806
  0
VERTEX
  8
LAYER_1
 62
   250
 10
228.1466
 20
-130.2278
  0
VERTEX
  8
LAYER_1
 62
   250
 10
228.4437
 20
-129.9138
  0
VERTEX
  8
LAYER_1
 62
   250
 10
228.6621
 20
-129.5437
  0
VERTEX
  8
LAYER_1
 62
   250
 10
228.7967
 20
-129.1224
  0
VERTEX
  8
LAYER_1
 62
   250
 10
228.8427
 20
-128.6549
  0
VERTEX
  8
LAYER_1
 62
   250
 10
228.7938
 20
-128.141
  0
VERTEX
  8
LAYER_1
 62
   250
 10
228.6517
 20
-127.7027
  0
VERTEX
  8
LAYER_1
 62
   250
 10
228.4231
 20
-127.3378
  0
VERTEX
  8
LAYER_1
 62
   250
 10
228.1147
 20
-127.0441
  0
VERTEX
  8
LAYER_1
 62
   250
 10
227.7333
 20
-126.8195
  0
VERTEX
  8
LAYER_1
 62
   250
 10
227.2856
 20
-126.6618
  0
VERTEX
  8
LAYER_1
 62
   250
 10
226.7782
 20
-126.5687
  0
VERTEX
  8
LAYER_1
 62
   250
 10
226.2181
 20
-126.5382
  0
VERTEX
  8
LAYER_1
 62
   250
 10
225.7855
 20
-126.5679
  0
VERTEX
  8
LAYER_1
 62
   250
 10
225.7564
 20
-125.3906
  0
VERTEX
  8
LAYER_1
 62
   250
 10
226.1161
 20
-125.3864
  0
VERTEX
  8
LAYER_1
 62
   250
 10
226.6817
 20
-125.4007
  0
VERTEX
  8
LAYER_1
 62
   250
 10
227.1988
 20
-125.4438
  0
VERTEX
  8
LAYER_1
 62
   250
 10
227.6698
 20
-125.5159
  0
VERTEX
  8
LAYER_1
 62
   250
 10
228.0971
 20
-125.6171
  0
VERTEX
  8
LAYER_1
 62
   250
 10
228.4831
 20
-125.7477
  0
VERTEX
  8
LAYER_1
 62
   250
 10
228.8302
 20
-125.9079
  0
VERTEX
  8
LAYER_1
 62
   250
 10
229.141
 20
-126.0978
  0
VERTEX
  8
LAYER_1
 62
   250
 10
229.4178
 20
-126.3177
  0
VERTEX
  8
LAYER_1
 62
   250
 10
229.6175
 20
-126.5206
  0
VERTEX
  8
LAYER_1
 62
   250
 10
229.795
 20
-126.7472
  0
VERTEX
  8
LAYER_1
 62
   250
 10
229.9489
 20
-126.9956
  0
VERTEX
  8
LAYER_1
 62
   250
 10
230.0779
 20
-127.264
  0
VERTEX
  8
LAYER_1
 62
   250
 10
230.1806
 20
-127.5508
  0
VERTEX
  8
LAYER_1
 62
   250
 10
230.2556
 20
-127.8539
  0
VERTEX
  8
LAYER_1
 62
   250
 10
230.3017
 20
-128.1718
  0
VERTEX
  8
LAYER_1
 62
   250
 10
230.3173
 20
-128.5025
  0
VERTEX
  8
LAYER_1
 62
   250
 10
230.2742
 20
-129.0381
  0
VERTEX
  8
LAYER_1
 62
   250
 10
230.1505
 20
-129.5265
  0
VERTEX
  8
LAYER_1
 62
   250
 10
229.9546
 20
-129.9665
  0
VERTEX
  8
LAYER_1
 62
   250
 10
229.6947
 20
-130.3568
  0
VERTEX
  8
LAYER_1
 62
   250
 10
229.3792
 20
-130.6964
  0
VERTEX
  8
LAYER_1
 62
   250
 10
229.0166
 20
-130.984
  0
VERTEX
  8
LAYER_1
 62
   250
 10
228.615
 20
-131.2184
  0
VERTEX
  8
LAYER_1
 62
   250
 10
228.183
 20
-131.3984
  0
VERTEX
  8
LAYER_1
 62
   250
 10
228.1831
 20
-131.4492
  0
VERTEX
  8
LAYER_1
 62
   250
 10
228.4914
 20
-131.587
  0
VERTEX
  8
LAYER_1
 62
   250
 10
228.7686
 20
-131.7709
  0
VERTEX
  8
LAYER_1
 62
   250
 10
229.0159
 20
-131.9993
  0
VERTEX
  8
LAYER_1
 62
   250
 10
229.2344
 20
-132.2705
  0
VERTEX
  8
LAYER_1
 62
   250
 10
229.425
 20
-132.583
  0
VERTEX
  8
LAYER_1
 62
   250
 10
229.589
 20
-132.9351
  0
VERTEX
  8
LAYER_1
 62
   250
 10
229.7273
 20
-133.3254
  0
VERTEX
  8
LAYER_1
 62
   250
 10
229.8411
 20
-133.7522
  0
VERTEX
  8
LAYER_1
 62
   250
 10
229.9767
 20
-134.3258
  0
VERTEX
  8
LAYER_1
 62
   250
 10
230.1034
 20
-134.8514
  0
VERTEX
  8
LAYER_1
 62
   250
 10
230.2222
 20
-135.327
  0
VERTEX
  8
LAYER_1
 62
   250
 10
230.3337
 20
-135.7506
  0
VERTEX
  8
LAYER_1
 62
   250
 10
230.4387
 20
-136.1202
  0
VERTEX
  8
LAYER_1
 62
   250
 10
230.5381
 20
-136.4338
  0
VERTEX
  8
LAYER_1
 62
   250
 10
230.6326
 20
-136.6895
  0
VERTEX
  8
LAYER_1
 62
   250
 10
230.723
 20
-136.8852
  0
VERTEX
  8
LAYER_1
 62
   250
 10
229.1991
 20
-136.8852
  0
VERTEX
  8
LAYER_1
 62
   250
 10
229.1259
 20
-136.7292
  0
VERTEX
  8
LAYER_1
 62
   250
 10
229.0466
 20
-136.5164
  0
VERTEX
  8
LAYER_1
 62
   250
 10
228.9614
 20
-136.2488
  0
VERTEX
  8
LAYER_1
 62
   250
 10
228.8706
 20
-135.9284
  0
VERTEX
  8
LAYER_1
 62
   250
 10
228.6727
 20
-135.1373
  0
VERTEX
  8
LAYER_1
 62
   250
 10
228.4547
 20
-134.1589
  0
VERTEX
  8
LAYER_1
 62
   250
 10
228.3133
 20
-133.6134
  0
VERTEX
  8
LAYER_1
 62
   250
 10
228.1399
 20
-133.1549
  0
VERTEX
  8
LAYER_1
 62
   250
 10
227.9295
 20
-132.7781
  0
VERTEX
  8
LAYER_1
 62
   250
 10
227.6771
 20
-132.478
  0
VERTEX
  8
LAYER_1
 62
   250
 10
227.3779
 20
-132.2493
  0
VERTEX
  8
LAYER_1
 62
   250
 10
227.027
 20
-132.0869
  0
VERTEX
  8
LAYER_1
 62
   250
 10
226.6193
 20
-131.9856
  0
VERTEX
  8
LAYER_1
 62
   250
 10
226.15
 20
-131.9403
  0
VERTEX
  8
LAYER_1
 62
   250
 10
225.8445
 20
-131.977
  0
VERTEX
  8
LAYER_1
 62
   250
 10
225.8445
 20
-130.8597
  0
SEQEND
  8
LAYER_1
 62
   250
  0
POLYLINE
  8
LAYER_1
 62
   250
 66
     1
 70
     1
  0
VERTEX
  8
LAYER_1
 62
   250
 10
273.6985
 20
-135.7355
  0
VERTEX
  8
LAYER_1
 62
   250
 10
273.5426
 20
-137.2816
  0
VERTEX
  8
LAYER_1
 62
   250
 10
273.0954
 20
-138.7216
  0
VERTEX
  8
LAYER_1
 62
   250
 10
272.3879
 20
-140.0247
  0
VERTEX
  8
LAYER_1
 62
   250
 10
271.4508
 20
-141.1601
  0
VERTEX
  8
LAYER_1
 62
   250
 10
270.3152
 20
-142.0968
  0
VERTEX
  8
LAYER_1
 62
   250
 10
269.0118
 20
-142.8041
  0
VERTEX
  8
LAYER_1
 62
   250
 10
267.5717
 20
-143.2511
  0
VERTEX
  8
LAYER_1
 62
   250
 10
266.0255
 20
-143.407
  0
VERTEX
  8
LAYER_1
 62
   250
 10
187.3901
 20
-143.407
  0
VERTEX
  8
LAYER_1
 62
   250
 10
185.844
 20
-143.2511
  0
VERTEX
  8
LAYER_1
 62
   250
 10
184.404
 20
-142.8041
  0
VERTEX
  8
LAYER_1
 62
   250
 10
183.1008
 20
-142.0968
  0
VERTEX
  8
LAYER_1
 62
   250
 10
181.9654
 20
-141.1601
  0
VERTEX
  8
LAYER_1
 62
   250
 10
181.0286
 20
-140.0247
  0
VERTEX
  8
LAYER_1
 62
   250
 10
180.3213
 20
-138.7216
  0
VERTEX
  8
LAYER_1
 62
   250
 10
179.8743
 20
-137.2816
  0
VERTEX
  8
LAYER_1
 62
   250
 10
179.7184
 20
-135.7355
  0
VERTEX
  8
LAYER_1
 62
   250
 10
179.7185
 20
-57.0989
  0
VERTEX
  8
LAYER_1
 62
   250
 10
179.8744
 20
-55.5527
  0
VERTEX
  8
LAYER_1
 62
   250
 10
180.3214
 20
-54.1126
  0
VERTEX
  8
LAYER_1
 62
   250
 10
181.0287
 20
-52.8094
  0
VERTEX
  8
LAYER_1
 62
   250
 10
181.9654
 20
-51.674
  0
VERTEX
  8
LAYER_1
 62
   250
 10
183.1007
 20
-50.7372
  0
VERTEX
  8
LAYER_1
 62
   250
 10
184.4038
 20
-50.0299
  0
VERTEX
  8
LAYER_1
 62
   250
 10
185.8438
 20
-49.5829
  0
VERTEX
  8
LAYER_1
 62
   250
 10
187.3899
 20
-49.427
  0
VERTEX
  8
LAYER_1
 62
   250
 10
266.0255
 20
-49.427
  0
VERTEX
  8
LAYER_1
 62
   250
 10
267.5717
 20
-49.5829
  0
VERTEX
  8
LAYER_1
 62
   250
 10
269.0119
 20
-50.0299
  0
VERTEX
  8
LAYER_1
 62
   250
 10
270.3152
 20
-50.7372
  0
VERTEX
  8
LAYER_1
 62
   250
 10
271.4508
 20
-51.674
  0
VERTEX
  8
LAYER_1
 62
   250
 10
272.3878
 20
-52.8094
  0
VERTEX
  8
LAYER_1
 62
   250
 10
273.0953
 20
-54.1126
  0
VERTEX
  8
LAYER_1
 62
   250
 10
273.5425
 20
-55.5527
  0
VERTEX
  8
LAYER_1
 62
   250
 10
273.6984
 20
-57.0989
  0
VERTEX
  8
LAYER_1
 62
   250
 10
273.6985
 20
-135.7355
  0
SEQEND
  8
LAYER_1
 62
   250
  0
POLYLINE
  8
LAYER_1
 62
   250
 66
     1
  0
VERTEX
  8
LAYER_1
 62
   250
 10
196.7643
 20
-136.8605
  0
VERTEX
  8
LAYER_1
 62
   250
 10
200.6594
 20
-125.4464
  0
VERTEX
  8
LAYER_1
 62
   250
 10
201.9735
 20
-125.4587
  0
VERTEX
  8
LAYER_1
 62
   250
 10
198.2887
 20
-136.8605
  0
VERTEX
  8
LAYER_1
 62
   250
 10
196.7643
 20
-136.8605
  0
SEQEND
  8
LAYER_1
 62
   250
  0
POLYLINE
  8
LAYER_1
 62
   250
 66
     1
 70
     1
  0
VERTEX
  8
LAYER_1
 62
   250
 10
200.5909
 20
-132.0945
  0
VERTEX
  8
LAYER_1
 62
   250
 10
203.2333
 20
-132.1188
  0
VERTEX
  8
LAYER_1
 62
   250
 10
201.9434
 20
-128.3317
  0
VERTEX
  8
LAYER_1
 62
   250
 10
202.6112
 20
-126.0048
  0
VERTEX
  8
LAYER_1
 62
   250
 10
206.3159
 20
-136.8605
  0
VERTEX
  8
LAYER_1
 62
   250
 10
204.7411
 20
-136.8605
  0
VERTEX
  8
LAYER_1
 62
   250
 10
203.5215
 20
-133.2706
  0
VERTEX
  8
LAYER_1
 62
   250
 10
200.2381
 20
-133.3588
  0
VERTEX
  8
LAYER_1
 62
   250
 10
200.5909
 20
-132.0945
  0
SEQEND
  8
LAYER_1
 62
   250
  0
POLYLINE
  8
LAYER_1
 62
   250
 66
     1
 70
     1
  0
VERTEX
  8
LAYER_1
 62
   250
 10
84.019
 20
-125.8827
  0
VERTEX
  8
LAYER_1
 62
   250
 10
85.5089
 20
-125.8827
  0
VERTEX
  8
LAYER_1
 62
   250
 10
85.5089
 20
-133.5204
  0
VERTEX
  8
LAYER_1
 62
   250
 10
85.441
 20
-134.5609
  0
VERTEX
  8
LAYER_1
 62
   250
 10
85.2454
 20
-135.4183
  0
VERTEX
  8
LAYER_1
 62
   250
 10
84.9339
 20
-136.1062
  0
VERTEX
  8
LAYER_1
 62
   250
 10
84.5183
 20
-136.6383
  0
VERTEX
  8
LAYER_1
 62
   250
 10
84.0107
 20
-137.0283
  0
VERTEX
  8
LAYER_1
 62
   250
 10
83.4228
 20
-137.2899
  0
VERTEX
  8
LAYER_1
 62
   250
 10
82.7666
 20
-137.4369
  0
VERTEX
  8
LAYER_1
 62
   250
 10
82.054
 20
-137.4828
  0
VERTEX
  8
LAYER_1
 62
   250
 10
81.6223
 20
-137.4619
  0
VERTEX
  8
LAYER_1
 62
   250
 10
81.1906
 20
-137.4045
  0
VERTEX
  8
LAYER_1
 62
   250
 10
80.7969
 20
-137.3185
  0
VERTEX
  8
LAYER_1
 62
   250
 10
80.4792
 20
-137.2119
  0
VERTEX
  8
LAYER_1
 62
   250
 10
80.6828
 20
-136.0096
  0
VERTEX
  8
LAYER_1
 62
   250
 10
80.9357
 20
-136.094
  0
VERTEX
  8
LAYER_1
 62
   250
 10
81.2331
 20
-136.1641
  0
VERTEX
  8
LAYER_1
 62
   250
 10
81.5684
 20
-136.212
  0
VERTEX
  8
LAYER_1
 62
   250
 10
81.9355
 20
-136.2297
  0
VERTEX
  8
LAYER_1
 62
   250
 10
82.4043
 20
-136.1999
  0
VERTEX
  8
LAYER_1
 62
   250
 10
82.8183
 20
-136.1022
  0
VERTEX
  8
LAYER_1
 62
   250
 10
83.1752
 20
-135.9243
  0
VERTEX
  8
LAYER_1
 62
   250
 10
83.4726
 20
-135.654
  0
VERTEX
  8
LAYER_1
 62
   250
 10
83.7081
 20
-135.2789
  0
VERTEX
  8
LAYER_1
 62
   250
 10
83.8792
 20
-134.7867
  0
VERTEX
  8
LAYER_1
 62
   250
 10
83.9837
 20
-134.1652
  0
VERTEX
  8
LAYER_1
 62
   250
 10
84.019
 20
-133.4019
  0
VERTEX
  8
LAYER_1
 62
   250
 10
84.019
 20
-125.8827
  0
SEQEND
  8
LAYER_1
 62
   250
  0
POLYLINE
  8
LAYER_1
 62
   250
 66
     1
 70
     1
  0
VERTEX
  8
LAYER_1
 62
   250
 10
89.4374
 20
-125.8827
  0
VERTEX
  8
LAYER_1
 62
   250
 10
89.4374
 20
-132.6564
  0
VERTEX
  8
LAYER_1
 62
   250
 10
89.4891
 20
-133.5415
  0
VERTEX
  8
LAYER_1
 62
   250
 10
89.6385
 20
-134.2944
  0
VERTEX
  8
LAYER_1
 62
   250
 10
89.8767
 20
-134.9195
  0
VERTEX
  8
LAYER_1
 62
   250
 10
90.1951
 20
-135.4211
  0
VERTEX
  8
LAYER_1
 62
   250
 10
90.5849
 20
-135.8036
  0
VERTEX
  8
LAYER_1
 62
   250
 10
91.0375
 20
-136.0715
  0
VERTEX
  8
LAYER_1
 62
   250
 10
91.544
 20
-136.229
  0
VERTEX
  8
LAYER_1
 62
   250
 10
92.0958
 20
-136.2805
  0
VERTEX
  8
LAYER_1
 62
   250
 10
92.6966
 20
-136.2276
  0
VERTEX
  8
LAYER_1
 62
   250
 10
93.2372
 20
-136.0667
  0
VERTEX
  8
LAYER_1
 62
   250
 10
93.7115
 20
-135.7947
  0
VERTEX
  8
LAYER_1
 62
   250
 10
94.1133
 20
-135.4084
  0
VERTEX
  8
LAYER_1
 62
   250
 10
94.4365
 20
-134.9046
  0
VERTEX
  8
LAYER_1
 62
   250
 10
94.675
 20
-134.2801
  0
VERTEX
  8
LAYER_1
 62
   250
 10
94.8226
 20
-133.5318
  0
VERTEX
  8
LAYER_1
 62
   250
 10
94.8732
 20
-132.6564
  0
VERTEX
  8
LAYER_1
 62
   250
 10
94.8734
 20
-125.8827
  0
VERTEX
  8
LAYER_1
 62
   250
 10
96.3638
 20
-125.8827
  0
VERTEX
  8
LAYER_1
 62
   250
 10
96.3638
 20
-132.5548
  0
VERTEX
  8
LAYER_1
 62
   250
 10
96.2796
 20
-133.773
  0
VERTEX
  8
LAYER_1
 62
   250
 10
96.0367
 20
-134.8037
  0
VERTEX
  8
LAYER_1
 62
   250
 10
95.6493
 20
-135.6546
  0
VERTEX
  8
LAYER_1
 62
   250
 10
95.1317
 20
-136.3334
  0
VERTEX
  8
LAYER_1
 62
   250
 10
94.4982
 20
-136.8479
  0
VERTEX
  8
LAYER_1
 62
   250
 10
93.7631
 20
-137.2058
  0
VERTEX
  8
LAYER_1
 62
   250
 10
92.9407
 20
-137.4148
  0
VERTEX
  8
LAYER_1
 62
   250
 10
92.0454
 20
-137.4828
  0
VERTEX
  8
LAYER_1
 62
   250
 10
91.1984
 20
-137.4191
  0
VERTEX
  8
LAYER_1
 62
   250
 10
90.4192
 20
-137.2209
  0
VERTEX
  8
LAYER_1
 62
   250
 10
89.7217
 20
-136.8773
  0
VERTEX
  8
LAYER_1
 62
   250
 10
89.1198
 20
-136.3779
  0
VERTEX
  8
LAYER_1
 62
   250
 10
88.6275
 20
-135.7116
  0
VERTEX
  8
LAYER_1
 62
   250
 10
88.2586
 20
-134.868
  0
VERTEX
  8
LAYER_1
 62
   250
 10
88.0271
 20
-133.8362
  0
VERTEX
  8
LAYER_1
 62
   250
 10
87.9468
 20
-132.6056
  0
VERTEX
  8
LAYER_1
 62
   250
 10
87.9469
 20
-125.8827
  0
VERTEX
  8
LAYER_1
 62
   250
 10
89.4374
 20
-125.8827
  0
SEQEND
  8
LAYER_1
 62
   250
  0
POLYLINE
  8
LAYER_1
 62
   250
 66
     1
 70
     1
  0
VERTEX
  8
LAYER_1
 62
   250
 10
100.3933
 20
-125.8827
  0
VERTEX
  8
LAYER_1
 62
   250
 10
100.3933
 20
-137.2969
  0
VERTEX
  8
LAYER_1
 62
   250
 10
98.9028
 20
-137.2969
  0
VERTEX
  8
LAYER_1
 62
   250
 10
98.9028
 20
-125.8827
  0
VERTEX
  8
LAYER_1
 62
   250
 10
100.3933
 20
-125.8827
  0
SEQEND
  8
LAYER_1
 62
   250
  0
POLYLINE
  8
LAYER_1
 62
   250
 66
     1
 70
     1
  0
VERTEX
  8
LAYER_1
 62
   250
 10
110.9262
 20
-136.9409
  0
VERTEX
  8
LAYER_1
 62
   250
 10
110.7029
 20
-137.042
  0
VERTEX
  8
LAYER_1
 62
   250
 10
110.4289
 20
-137.1399
  0
VERTEX
  8
LAYER_1
 62
   250
 10
110.1078
 20
-137.2315
  0
VERTEX
  8
LAYER_1
 62
   250
 10
109.7428
 20
-137.3135
  0
VERTEX
  8
LAYER_1
 62
   250
 10
109.3373
 20
-137.3828
  0
VERTEX
  8
LAYER_1
 62
   250
 10
108.8947
 20
-137.4362
  0
VERTEX
  8
LAYER_1
 62
   250
 10
108.4183
 20
-137.4706
  0
VERTEX
  8
LAYER_1
 62
   250
 10
107.9116
 20
-137.4828
  0
VERTEX
  8
LAYER_1
 62
   250
 10
106.7462
 20
-137.3881
  0
VERTEX
  8
LAYER_1
 62
   250
 10
105.6757
 20
-137.1066
  0
VERTEX
  8
LAYER_1
 62
   250
 10
104.7187
 20
-136.6416
  0
VERTEX
  8
LAYER_1
 62
   250
 10
103.8939
 20
-135.9969
  0
VERTEX
  8
LAYER_1
 62
   250
 10
103.2198
 20
-135.1759
  0
VERTEX
  8
LAYER_1
 62
   250
 10
102.7153
 20
-134.1822
  0
VERTEX
  8
LAYER_1
 62
   250
 10
102.3989
 20
-133.0195
  0
VERTEX
  8
LAYER_1
 62
   250
 10
102.2893
 20
-131.6912
  0
VERTEX
  8
LAYER_1
 62
   250
 10
102.4003
 20
-130.4028
  0
VERTEX
  8
LAYER_1
 62
   250
 10
102.723
 20
-129.2399
  0
VERTEX
  8
LAYER_1
 62
   250
 10
103.2422
 20
-128.2167
  0
VERTEX
  8
LAYER_1
 62
   250
 10
103.9426
 20
-127.3475
  0
VERTEX
  8
LAYER_1
 62
   250
 10
104.8089
 20
-126.6466
  0
VERTEX
  8
LAYER_1
 62
   250
 10
105.8258
 20
-126.1283
  0
VERTEX
  8
LAYER_1
 62
   250
 10
106.978
 20
-125.8068
  0
VERTEX
  8
LAYER_1
 62
   250
 10
108.2502
 20
-125.6965
  0
VERTEX
  8
LAYER_1
 62
   250
 10
108.7542
 20
-125.71
  0
VERTEX
  8
LAYER_1
 62
   250
 10
109.2118
 20
-125.7473
  0
VERTEX
  8
LAYER_1
 62
   250
 10
109.6226
 20
-125.8037
  0
VERTEX
  8
LAYER_1
 62
   250
 10
109.9861
 20
-125.8743
  0
VERTEX
  8
LAYER_1
 62
   250
 10
110.302
 20
-125.9545
  0
VERTEX
  8
LAYER_1
 62
   250
 10
110.5699
 20
-126.0394
  0
VERTEX
  8
LAYER_1
 62
   250
 10
110.7893
 20
-126.1243
  0
VERTEX
  8
LAYER_1
 62
   250
 10
110.9599
 20
-126.2045
  0
VERTEX
  8
LAYER_1
 62
   250
 10
110.587
 20
-127.4067
  0
VERTEX
  8
LAYER_1
 62
   250
 10
110.3722
 20
-127.3086
  0
VERTEX
  8
LAYER_1
 62
   250
 10
110.1348
 20
-127.2183
  0
VERTEX
  8
LAYER_1
 62
   250
 10
109.8759
 20
-127.1376
  0
VERTEX
  8
LAYER_1
 62
   250
 10
109.5967
 20
-127.0681
  0
VERTEX
  8
LAYER_1
 62
   250
 10
109.2984
 20
-127.0112
  0
VERTEX
  8
LAYER_1
 62
   250
 10
108.9822
 20
-126.9686
  0
VERTEX
  8
LAYER_1
 62
   250
 10
108.6494
 20
-126.9419
  0
VERTEX
  8
LAYER_1
 62
   250
 10
108.301
 20
-126.9326
  0
VERTEX
  8
LAYER_1
 62
   250
 10
107.3415
 20
-127.0119
  0
VERTEX
  8
LAYER_1
 62
   250
 10
106.4765
 20
-127.2467
  0
VERTEX
  8
LAYER_1
 62
   250
 10
105.7161
 20
-127.6318
  0
VERTEX
  8
LAYER_1
 62
   250
 10
105.0709
 20
-128.1624
  0
VERTEX
  8
LAYER_1
 62
   250
 10
104.551
 20
-128.8336
  0
VERTEX
  8
LAYER_1
 62
   250
 10
104.1669
 20
-129.6402
  0
VERTEX
  8
LAYER_1
 62
   250
 10
103.9288
 20
-130.5775
  0
VERTEX
  8
LAYER_1
 62
   250
 10
103.8472
 20
-131.6404
  0
VERTEX
  8
LAYER_1
 62
   250
 10
103.9217
 20
-132.6447
  0
VERTEX
  8
LAYER_1
 62
   250
 10
104.1417
 20
-133.5435
  0
VERTEX
  8
LAYER_1
 62
   250
 10
104.5018
 20
-134.3279
  0
VERTEX
  8
LAYER_1
 62
   250
 10
104.9966
 20
-134.9893
  0
VERTEX
  8
LAYER_1
 62
   250
 10
105.6208
 20
-135.5189
  0
VERTEX
  8
LAYER_1
 62
   250
 10
106.3691
 20
-135.908
  0
VERTEX
  8
LAYER_1
 62
   250
 10
107.2361
 20
-136.1478
  0
VERTEX
  8
LAYER_1
 62
   250
 10
108.2164
 20
-136.2297
  0
VERTEX
  8
LAYER_1
 62
   250
 10
108.5588
 20
-136.2211
  0
VERTEX
  8
LAYER_1
 62
   250
 10
108.8973
 20
-136.1961
  0
VERTEX
  8
LAYER_1
 62
   250
 10
109.2284
 20
-136.1556
  0
VERTEX
  8
LAYER_1
 62
   250
 10
109.5481
 20
-136.1006
  0
VERTEX
  8
LAYER_1
 62
   250
 10
109.8526
 20
-136.0321
  0
VERTEX
  8
LAYER_1
 62
   250
 10
110.1384
 20
-135.9511
  0
VERTEX
  8
LAYER_1
 62
   250
 10
110.4015
 20
-135.8586
  0
VERTEX
  8
LAYER_1
 62
   250
 10
110.6382
 20
-135.7556
  0
VERTEX
  8
LAYER_1
 62
   250
 10
110.9262
 20
-136.9409
  0
SEQEND
  8
LAYER_1
 62
   250
  0
POLYLINE
  8
LAYER_1
 62
   250
 66
     1
 70
     1
  0
VERTEX
  8
LAYER_1
 62
   250
 10
118.6809
 20
-131.9452
  0
VERTEX
  8
LAYER_1
 62
   250
 10
114.2609
 20
-131.9452
  0
VERTEX
  8
LAYER_1
 62
   250
 10
114.2609
 20
-136.0604
  0
VERTEX
  8
LAYER_1
 62
   250
 10
119.2062
 20
-136.0604
  0
VERTEX
  8
LAYER_1
 62
   250
 10
119.2062
 20
-137.2969
  0
VERTEX
  8
LAYER_1
 62
   250
 10
112.7708
 20
-137.2969
  0
VERTEX
  8
LAYER_1
 62
   250
 10
112.7708
 20
-125.8827
  0
VERTEX
  8
LAYER_1
 62
   250
 10
118.9518
 20
-125.8827
  0
VERTEX
  8
LAYER_1
 62
   250
 10
118.9518
 20
-127.1189
  0
VERTEX
  8
LAYER_1
 62
   250
 10
114.2609
 20
-127.1189
  0
VERTEX
  8
LAYER_1
 62
   250
 10
114.2609
 20
-130.726
  0
VERTEX
  8
LAYER_1
 62
   250
 10
118.6809
 20
-130.726
  0
VERTEX
  8
LAYER_1
 62
   250
 10
118.6809
 20
-131.9452
  0
SEQEND
  8
LAYER_1
 62
   250
  0
POLYLINE
  8
LAYER_1
 62
   250
 66
     1
 70
     1
  0
VERTEX
  8
LAYER_1
 62
   250
 10
171.393
 20
-135.7355
  0
VERTEX
  8
LAYER_1
 62
   250
 10
171.2371
 20
-137.2816
  0
VERTEX
  8
LAYER_1
 62
   250
 10
170.7901
 20
-138.7216
  0
VERTEX
  8
LAYER_1
 62
   250
 10
170.0828
 20
-140.0247
  0
VERTEX
  8
LAYER_1
 62
   250
 10
169.146
 20
-141.1601
  0
VERTEX
  8
LAYER_1
 62
   250
 10
168.0105
 20
-142.0968
  0
VERTEX
  8
LAYER_1
 62
   250
 10
166.7073
 20
-142.8041
  0
VERTEX
  8
LAYER_1
 62
   250
 10
165.2672
 20
-143.2511
  0
VERTEX
  8
LAYER_1
 62
   250
 10
163.721
 20
-143.407
  0
VERTEX
  8
LAYER_1
 62
   250
 10
85.0844
 20
-143.407
  0
VERTEX
  8
LAYER_1
 62
   250
 10
83.5383
 20
-143.2511
  0
VERTEX
  8
LAYER_1
 62
   250
 10
82.0983
 20
-142.8041
  0
VERTEX
  8
LAYER_1
 62
   250
 10
80.7952
 20
-142.0968
  0
VERTEX
  8
LAYER_1
 62
   250
 10
79.6598
 20
-141.1601
  0
VERTEX
  8
LAYER_1
 62
   250
 10
78.7231
 20
-140.0247
  0
VERTEX
  8
LAYER_1
 62
   250
 10
78.0158
 20
-138.7216
  0
VERTEX
  8
LAYER_1
 62
   250
 10
77.5688
 20
-137.2816
  0
VERTEX
  8
LAYER_1
 62
   250
 10
77.4129
 20
-135.7355
  0
VERTEX
  8
LAYER_1
 62
   250
 10
77.4129
 20
-57.0989
  0
VERTEX
  8
LAYER_1
 62
   250
 10
77.5688
 20
-55.5527
  0
VERTEX
  8
LAYER_1
 62
   250
 10
78.0158
 20
-54.1126
  0
VERTEX
  8
LAYER_1
 62
   250
 10
78.7231
 20
-52.8094
  0
VERTEX
  8
LAYER_1
 62
   250
 10
79.6598
 20
-51.674
  0
VERTEX
  8
LAYER_1
 62
   250
 10
80.7951
 20
-50.7372
  0
VERTEX
  8
LAYER_1
 62
   250
 10
82.0982
 20
-50.0299
  0
VERTEX
  8
LAYER_1
 62
   250
 10
83.5382
 20
-49.5829
  0
VERTEX
  8
LAYER_1
 62
   250
 10
85.0843
 20
-49.427
  0
VERTEX
  8
LAYER_1
 62
   250
 10
163.7211
 20
-49.427
  0
VERTEX
  8
LAYER_1
 62
   250
 10
165.2673
 20
-49.5829
  0
VERTEX
  8
LAYER_1
 62
   250
 10
166.7074
 20
-50.0299
  0
VERTEX
  8
LAYER_1
 62
   250
 10
168.0106
 20
-50.7372
  0
VERTEX
  8
LAYER_1
 62
   250
 10
169.146
 20
-51.674
  0
VERTEX
  8
LAYER_1
 62
   250
 10
170.0827
 20
-52.8094
  0
VERTEX
  8
LAYER_1
 62
   250
 10
170.79
 20
-54.1126
  0
VERTEX
  8
LAYER_1
 62
   250
 10
171.237
 20
-55.5527
  0
VERTEX
  8
LAYER_1
 62
   250
 10
171.3929
 20
-57.0989
  0
VERTEX
  8
LAYER_1
 62
   250
 10
171.393
 20
-135.7355
  0
SEQEND
  8
LAYER_1
 62
   250
  0
POLYLINE
  8
LAYER_1
 62
   250
 66
     1
 70
     1
  0
VERTEX
  8
LAYER_1
 62
   250
 10
285.8587
 20
-126.698
  0
VERTEX
  8
LAYER_1
 62
   250
 10
285.8587
 20
-130.3895
  0
VERTEX
  8
LAYER_1
 62
   250
 10
285.8587
 20
-131.4905
  0
VERTEX
  8
LAYER_1
 62
   250
 10
285.8587
 20
-135.8424
  0
VERTEX
  8
LAYER_1
 62
   250
 10
285.8447
 20
-137.0464
  0
VERTEX
  8
LAYER_1
 62
   250
 10
284.384
 20
-136.9261
  0
VERTEX
  8
LAYER_1
 62
   250
 10
284.3842
 20
-125.7155
  0
VERTEX
  8
LAYER_1
 62
   250
 10
284.6895
 20
-125.6568
  0
VERTEX
  8
LAYER_1
 62
   250
 10
285.0385
 20
-125.6105
  0
VERTEX
  8
LAYER_1
 62
   250
 10
285.4219
 20
-125.5726
  0
VERTEX
  8
LAYER_1
 62
   250
 10
285.8305
 20
-125.5388
  0
VERTEX
  8
LAYER_1
 62
   250
 10
285.8587
 20
-126.698
  0
SEQEND
  8
LAYER_1
 62
   250
  0
POLYLINE
  8
LAYER_1
 62
   250
 66
     1
 70
     1
  0
VERTEX
  8
LAYER_1
 62
   250
 10
286.8607
 20
-135.9091
  0
VERTEX
  8
LAYER_1
 62
   250
 10
287.0934
 20
-135.9105
  0
VERTEX
  8
LAYER_1
 62
   250
 10
287.6569
 20
-135.8832
  0
VERTEX
  8
LAYER_1
 62
   250
 10
288.1944
 20
-135.7972
  0
VERTEX
  8
LAYER_1
 62
   250
 10
288.6907
 20
-135.6461
  0
VERTEX
  8
LAYER_1
 62
   250
 10
289.1307
 20
-135.4235
  0
VERTEX
  8
LAYER_1
 62
   250
 10
289.4993
 20
-135.1231
  0
VERTEX
  8
LAYER_1
 62
   250
 10
289.7813
 20
-134.7386
  0
VERTEX
  8
LAYER_1
 62
   250
 10
289.9615
 20
-134.2636
  0
VERTEX
  8
LAYER_1
 62
   250
 10
290.025
 20
-133.6918
  0
VERTEX
  8
LAYER_1
 62
   250
 10
289.9643
 20
-133.1547
  0
VERTEX
  8
LAYER_1
 62
   250
 10
289.7904
 20
-132.6977
  0
VERTEX
  8
LAYER_1
 62
   250
 10
289.516
 20
-132.318
  0
VERTEX
  8
LAYER_1
 62
   250
 10
289.1536
 20
-132.0132
  0
VERTEX
  8
LAYER_1
 62
   250
 10
288.7158
 20
-131.7806
  0
VERTEX
  8
LAYER_1
 62
   250
 10
288.2152
 20
-131.6177
  0
VERTEX
  8
LAYER_1
 62
   250
 10
287.6643
 20
-131.5219
  0
VERTEX
  8
LAYER_1
 62
   250
 10
287.0757
 20
-131.4905
  0
VERTEX
  8
LAYER_1
 62
   250
 10
286.8747
 20
-131.4905
  0
VERTEX
  8
LAYER_1
 62
   250
 10
286.8607
 20
-130.3895
  0
VERTEX
  8
LAYER_1
 62
   250
 10
287.1958
 20
-130.3895
  0
VERTEX
  8
LAYER_1
 62
   250
 10
287.7439
 20
-130.3517
  0
VERTEX
  8
LAYER_1
 62
   250
 10
288.2298
 20
-130.2427
  0
VERTEX
  8
LAYER_1
 62
   250
 10
288.6501
 20
-130.0689
  0
VERTEX
  8
LAYER_1
 62
   250
 10
289.0015
 20
-129.837
  0
VERTEX
  8
LAYER_1
 62
   250
 10
289.2807
 20
-129.5535
  0
VERTEX
  8
LAYER_1
 62
   250
 10
289.4842
 20
-129.2249
  0
VERTEX
  8
LAYER_1
 62
   250
 10
289.6087
 20
-128.8578
  0
VERTEX
  8
LAYER_1
 62
   250
 10
289.651
 20
-128.4587
  0
VERTEX
  8
LAYER_1
 62
   250
 10
289.6052
 20
-127.9996
  0
VERTEX
  8
LAYER_1
 62
   250
 10
289.4717
 20
-127.6107
  0
VERTEX
  8
LAYER_1
 62
   250
 10
289.2564
 20
-127.2892
  0
VERTEX
  8
LAYER_1
 62
   250
 10
288.9653
 20
-127.0324
  0
VERTEX
  8
LAYER_1
 62
   250
 10
288.6042
 20
-126.8375
  0
VERTEX
  8
LAYER_1
 62
   250
 10
288.1791
 20
-126.7017
  0
VERTEX
  8
LAYER_1
 62
   250
 10
287.6959
 20
-126.6223
  0
VERTEX
  8
LAYER_1
 62
   250
 10
287.1604
 20
-126.5964
  0
VERTEX
  8
LAYER_1
 62
   250
 10
286.8747
 20
-126.6119
  0
VERTEX
  8
LAYER_1
 62
   250
 10
286.8466
 20
-125.4633
  0
VERTEX
  8
LAYER_1
 62
   250
 10
287.0757
 20
-125.4615
  0
VERTEX
  8
LAYER_1
 62
   250
 10
287.6046
 20
-125.4735
  0
VERTEX
  8
LAYER_1
 62
   250
 10
288.0874
 20
-125.5102
  0
VERTEX
  8
LAYER_1
 62
   250
 10
288.5273
 20
-125.5722
  0
VERTEX
  8
LAYER_1
 62
   250
 10
288.9274
 20
-125.6605
  0
VERTEX
  8
LAYER_1
 62
   250
 10
289.291
 20
-125.7757
  0
VERTEX
  8
LAYER_1
 62
   250
 10
289.6212
 20
-125.9187
  0
VERTEX
  8
LAYER_1
 62
   250
 10
289.9212
 20
-126.0903
  0
VERTEX
  8
LAYER_1
 62
   250
 10
290.1943
 20
-126.2913
  0
VERTEX
  8
LAYER_1
 62
   250
 10
290.4059
 20
-126.4675
  0
VERTEX
  8
LAYER_1
 62
   250
 10
290.5949
 20
-126.6657
  0
VERTEX
  8
LAYER_1
 62
   250
 10
290.7595
 20
-126.8858
  0
VERTEX
  8
LAYER_1
 62
   250
 10
290.8982
 20
-127.1275
  0
VERTEX
  8
LAYER_1
 62
   250
 10
291.009
 20
-127.3907
  0
VERTEX
  8
LAYER_1
 62
   250
 10
291.0903
 20
-127.6751
  0
VERTEX
  8
LAYER_1
 62
   250
 10
291.1403
 20
-127.9805
  0
VERTEX
  8
LAYER_1
 62
   250
 10
291.1574
 20
-128.3067
  0
VERTEX
  8
LAYER_1
 62
   250
 10
291.1231
 20
-128.7179
  0
VERTEX
  8
LAYER_1
 62
   250
 10
291.0226
 20
-129.1102
  0
VERTEX
  8
LAYER_1
 62
   250
 10
290.8594
 20
-129.4792
  0
VERTEX
  8
LAYER_1
 62
   250
 10
290.637
 20
-129.8202
  0
VERTEX
  8
LAYER_1
 62
   250
 10
290.3592
 20
-130.1286
  0
VERTEX
  8
LAYER_1
 62
   250
 10
290.0293
 20
-130.4
  0
VERTEX
  8
LAYER_1
 62
   250
 10
289.6509
 20
-130.6297
  0
VERTEX
  8
LAYER_1
 62
   250
 10
289.2277
 20
-130.8132
  0
VERTEX
  8
LAYER_1
 62
   250
 10
289.2278
 20
-130.864
  0
VERTEX
  8
LAYER_1
 62
   250
 10
289.6399
 20
-130.9896
  0
VERTEX
  8
LAYER_1
 62
   250
 10
290.0524
 20
-131.1774
  0
VERTEX
  8
LAYER_1
 62
   250
 10
290.4482
 20
-131.4291
  0
VERTEX
  8
LAYER_1
 62
   250
 10
290.8104
 20
-131.7465
  0
VERTEX
  8
LAYER_1
 62
   250
 10
291.1218
 20
-132.1314
  0
VERTEX
  8
LAYER_1
 62
   250
 10
291.3654
 20
-132.5856
  0
VERTEX
  8
LAYER_1
 62
   250
 10
291.524
 20
-133.1108
  0
VERTEX
  8
LAYER_1
 62
   250
 10
291.5807
 20
-133.7088
  0
VERTEX
  8
LAYER_1
 62
   250
 10
291.5629
 20
-134.0668
  0
VERTEX
  8
LAYER_1
 62
   250
 10
291.5108
 20
-134.4042
  0
VERTEX
  8
LAYER_1
 62
   250
 10
291.4267
 20
-134.7209
  0
VERTEX
  8
LAYER_1
 62
   250
 10
291.3126
 20
-135.0171
  0
VERTEX
  8
LAYER_1
 62
   250
 10
291.1707
 20
-135.2926
  0
VERTEX
  8
LAYER_1
 62
   250
 10
291.0032
 20
-135.5474
  0
VERTEX
  8
LAYER_1
 62
   250
 10
290.8123
 20
-135.7816
  0
VERTEX
  8
LAYER_1
 62
   250
 10
290.6
 20
-135.9951
  0
VERTEX
  8
LAYER_1
 62
   250
 10
290.3004
 20
-136.2387
  0
VERTEX
  8
LAYER_1
 62
   250
 10
289.9568
 20
-136.4497
  0
VERTEX
  8
LAYER_1
 62
   250
 10
289.5685
 20
-136.6286
  0
VERTEX
  8
LAYER_1
 62
   250
 10
289.1347
 20
-136.7759
  0
VERTEX
  8
LAYER_1
 62
   250
 10
288.6547
 20
-136.8921
  0
VERTEX
  8
LAYER_1
 62
   250
 10
288.128
 20
-136.9778
  0
VERTEX
  8
LAYER_1
 62
   250
 10
287.5537
 20
-137.0334
  0
VERTEX
  8
LAYER_1
 62
   250
 10
286.9311
 20
-137.0595
  0
VERTEX
  8
LAYER_1
 62
   250
 10
286.8747
 20
-137.0605
  0
VERTEX
  8
LAYER_1
 62
   250
 10
286.8607
 20
-135.9091
  0
SEQEND
  8
LAYER_1
 62
   250
  0
POLYLINE
  8
LAYER_1
 62
   250
 66
     1
 70
     1
  0
VERTEX
  8
LAYER_1
 62
   250
 10
299.4549
 20
-131.609
  0
VERTEX
  8
LAYER_1
 62
   250
 10
295.0345
 20
-131.609
  0
VERTEX
  8
LAYER_1
 62
   250
 10
295.0345
 20
-135.7238
  0
VERTEX
  8
LAYER_1
 62
   250
 10
299.9804
 20
-135.7238
  0
VERTEX
  8
LAYER_1
 62
   250
 10
299.9804
 20
-136.9603
  0
VERTEX
  8
LAYER_1
 62
   250
 10
293.5458
 20
-136.9603
  0
VERTEX
  8
LAYER_1
 62
   250
 10
293.5458
 20
-125.5462
  0
VERTEX
  8
LAYER_1
 62
   250
 10
299.7267
 20
-125.5462
  0
VERTEX
  8
LAYER_1
 62
   250
 10
299.7267
 20
-126.7823
  0
VERTEX
  8
LAYER_1
 62
   250
 10
295.0345
 20
-126.7823
  0
VERTEX
  8
LAYER_1
 62
   250
 10
295.0345
 20
-130.3895
  0
VERTEX
  8
LAYER_1
 62
   250
 10
299.4549
 20
-130.3895
  0
VERTEX
  8
LAYER_1
 62
   250
 10
299.4549
 20
-131.609
  0
SEQEND
  8
LAYER_1
 62
   250
  0
POLYLINE
  8
LAYER_1
 62
   250
 66
     1
 70
     1
  0
VERTEX
  8
LAYER_1
 62
   250
 10
307.7877
 20
-131.609
  0
VERTEX
  8
LAYER_1
 62
   250
 10
303.3673
 20
-131.609
  0
VERTEX
  8
LAYER_1
 62
   250
 10
303.3673
 20
-135.7238
  0
VERTEX
  8
LAYER_1
 62
   250
 10
308.3131
 20
-135.7238
  0
VERTEX
  8
LAYER_1
 62
   250
 10
308.3131
 20
-136.9603
  0
VERTEX
  8
LAYER_1
 62
   250
 10
301.8786
 20
-136.9603
  0
VERTEX
  8
LAYER_1
 62
   250
 10
301.8786
 20
-125.5462
  0
VERTEX
  8
LAYER_1
 62
   250
 10
308.0591
 20
-125.5462
  0
VERTEX
  8
LAYER_1
 62
   250
 10
308.0591
 20
-126.7823
  0
VERTEX
  8
LAYER_1
 62
   250
 10
303.3673
 20
-126.7823
  0
VERTEX
  8
LAYER_1
 62
   250
 10
303.3673
 20
-130.3895
  0
VERTEX
  8
LAYER_1
 62
   250
 10
307.7877
 20
-130.3895
  0
VERTEX
  8
LAYER_1
 62
   250
 10
307.7877
 20
-131.609
  0
SEQEND
  8
LAYER_1
 62
   250
  0
POLYLINE
  8
LAYER_1
 62
   250
 66
     1
 70
     1
  0
VERTEX
  8
LAYER_1
 62
   250
 10
375.1223
 20
-135.7355
  0
VERTEX
  8
LAYER_1
 62
   250
 10
374.9664
 20
-137.2816
  0
VERTEX
  8
LAYER_1
 62
   250
 10
374.5192
 20
-138.7216
  0
VERTEX
  8
LAYER_1
 62
   250
 10
373.8116
 20
-140.0247
  0
VERTEX
  8
LAYER_1
 62
   250
 10
372.8745
 20
-141.1601
  0
VERTEX
  8
LAYER_1
 62
   250
 10
371.7389
 20
-142.0968
  0
VERTEX
  8
LAYER_1
 62
   250
 10
370.4355
 20
-142.8041
  0
VERTEX
  8
LAYER_1
 62
   250
 10
368.9953
 20
-143.2511
  0
VERTEX
  8
LAYER_1
 62
   250
 10
367.4491
 20
-143.407
  0
VERTEX
  8
LAYER_1
 62
   250
 10
288.8151
 20
-143.407
  0
VERTEX
  8
LAYER_1
 62
   250
 10
287.2689
 20
-143.2511
  0
VERTEX
  8
LAYER_1
 62
   250
 10
285.8287
 20
-142.8041
  0
VERTEX
  8
LAYER_1
 62
   250
 10
284.5254
 20
-142.0968
  0
VERTEX
  8
LAYER_1
 62
   250
 10
283.3897
 20
-141.1601
  0
VERTEX
  8
LAYER_1
 62
   250
 10
282.4527
 20
-140.0247
  0
VERTEX
  8
LAYER_1
 62
   250
 10
281.7451
 20
-138.7216
  0
VERTEX
  8
LAYER_1
 62
   250
 10
281.2979
 20
-137.2816
  0
VERTEX
  8
LAYER_1
 62
   250
 10
281.142
 20
-135.7355
  0
VERTEX
  8
LAYER_1
 62
   250
 10
281.1421
 20
-57.0989
  0
VERTEX
  8
LAYER_1
 62
   250
 10
281.298
 20
-55.5527
  0
VERTEX
  8
LAYER_1
 62
   250
 10
281.7452
 20
-54.1126
  0
VERTEX
  8
LAYER_1
 62
   250
 10
282.4527
 20
-52.8094
  0
VERTEX
  8
LAYER_1
 62
   250
 10
283.3897
 20
-51.674
  0
VERTEX
  8
LAYER_1
 62
   250
 10
284.5253
 20
-50.7372
  0
VERTEX
  8
LAYER_1
 62
   250
 10
285.8286
 20
-50.0299
  0
VERTEX
  8
LAYER_1
 62
   250
 10
287.2688
 20
-49.5829
  0
VERTEX
  8
LAYER_1
 62
   250
 10
288.8149
 20
-49.427
  0
VERTEX
  8
LAYER_1
 62
   250
 10
367.4491
 20
-49.427
  0
VERTEX
  8
LAYER_1
 62
   250
 10
368.9953
 20
-49.5829
  0
VERTEX
  8
LAYER_1
 62
   250
 10
370.4355
 20
-50.0299
  0
VERTEX
  8
LAYER_1
 62
   250
 10
371.7388
 20
-50.7372
  0
VERTEX
  8
LAYER_1
 62
   250
 10
372.8744
 20
-51.674
  0
VERTEX
  8
LAYER_1
 62
   250
 10
373.8114
 20
-52.8094
  0
VERTEX
  8
LAYER_1
 62
   250
 10
374.5189
 20
-54.1126
  0
VERTEX
  8
LAYER_1
 62
   250
 10
374.9661
 20
-55.5527
  0
VERTEX
  8
LAYER_1
 62
   250
 10
375.122
 20
-57.0989
  0
VERTEX
  8
LAYER_1
 62
   250
 10
375.1223
 20
-135.7355
  0
SEQEND
  8
LAYER_1
 62
   250
  0
POLYLINE
  8
LAYER_1
 62
   250
 66
     1
 70
     1
  0
VERTEX
  8
LAYER_1
 62
   250
 10
311.7632
 20
-131.9551
  0
VERTEX
  8
LAYER_1
 62
   250
 10
311.7632
 20
-136.9
  0
VERTEX
  8
LAYER_1
 62
   250
 10
310.2888
 20
-136.9
  0
VERTEX
  8
LAYER_1
 62
   250
 10
310.2888
 20
-125.6383
  0
VERTEX
  8
LAYER_1
 62
   250
 10
311.7561
 20
-125.4654
  0
VERTEX
  8
LAYER_1
 62
   250
 10
311.7632
 20
-130.8372
  0
VERTEX
  8
LAYER_1
 62
   250
 10
311.7632
 20
-131.9551
  0
SEQEND
  8
LAYER_1
 62
   250
  0
POLYLINE
  8
LAYER_1
 62
   250
 66
     1
 70
     1
  0
VERTEX
  8
LAYER_1
 62
   250
 10
312.8462
 20
-130.8746
  0
VERTEX
  8
LAYER_1
 62
   250
 10
313.2697
 20
-130.8372
  0
VERTEX
  8
LAYER_1
 62
   250
 10
313.8331
 20
-130.7975
  0
VERTEX
  8
LAYER_1
 62
   250
 10
314.3373
 20
-130.6819
  0
VERTEX
  8
LAYER_1
 62
   250
 10
314.7774
 20
-130.4952
  0
VERTEX
  8
LAYER_1
 62
   250
 10
315.1486
 20
-130.2424
  0
VERTEX
  8
LAYER_1
 62
   250
 10
315.4458
 20
-129.9285
  0
VERTEX
  8
LAYER_1
 62
   250
 10
315.6642
 20
-129.5585
  0
VERTEX
  8
LAYER_1
 62
   250
 10
315.7988
 20
-129.1372
  0
VERTEX
  8
LAYER_1
 62
   250
 10
315.8448
 20
-128.6697
  0
VERTEX
  8
LAYER_1
 62
   250
 10
315.7958
 20
-128.1557
  0
VERTEX
  8
LAYER_1
 62
   250
 10
315.6535
 20
-127.7172
  0
VERTEX
  8
LAYER_1
 62
   250
 10
315.4245
 20
-127.3523
  0
VERTEX
  8
LAYER_1
 62
   250
 10
315.1159
 20
-127.0586
  0
VERTEX
  8
LAYER_1
 62
   250
 10
314.7343
 20
-126.834
  0
VERTEX
  8
LAYER_1
 62
   250
 10
314.2866
 20
-126.6763
  0
VERTEX
  8
LAYER_1
 62
   250
 10
313.7796
 20
-126.5832
  0
VERTEX
  8
LAYER_1
 62
   250
 10
313.2201
 20
-126.5527
  0
VERTEX
  8
LAYER_1
 62
   250
 10
312.7862
 20
-126.5823
  0
VERTEX
  8
LAYER_1
 62
   250
 10
312.7581
 20
-125.4054
  0
VERTEX
  8
LAYER_1
 62
   250
 10
313.1178
 20
-125.4012
  0
VERTEX
  8
LAYER_1
 62
   250
 10
313.6829
 20
-125.4155
  0
VERTEX
  8
LAYER_1
 62
   250
 10
314.1998
 20
-125.4586
  0
VERTEX
  8
LAYER_1
 62
   250
 10
314.6708
 20
-125.5307
  0
VERTEX
  8
LAYER_1
 62
   250
 10
315.0982
 20
-125.6319
  0
VERTEX
  8
LAYER_1
 62
   250
 10
315.4845
 20
-125.7625
  0
VERTEX
  8
LAYER_1
 62
   250
 10
315.8319
 20
-125.9227
  0
VERTEX
  8
LAYER_1
 62
   250
 10
316.1429
 20
-126.1126
  0
VERTEX
  8
LAYER_1
 62
   250
 10
316.4198
 20
-126.3325
  0
VERTEX
  8
LAYER_1
 62
   250
 10
316.6184
 20
-126.5354
  0
VERTEX
  8
LAYER_1
 62
   250
 10
316.795
 20
-126.7619
  0
VERTEX
  8
LAYER_1
 62
   250
 10
316.9483
 20
-127.0103
  0
VERTEX
  8
LAYER_1
 62
   250
 10
317.0769
 20
-127.2787
  0
VERTEX
  8
LAYER_1
 62
   250
 10
317.1794
 20
-127.5653
  0
VERTEX
  8
LAYER_1
 62
   250
 10
317.2543
 20
-127.8684
  0
VERTEX
  8
LAYER_1
 62
   250
 10
317.3003
 20
-128.1862
  0
VERTEX
  8
LAYER_1
 62
   250
 10
317.3159
 20
-128.5169
  0
VERTEX
  8
LAYER_1
 62
   250
 10
317.273
 20
-129.0526
  0
VERTEX
  8
LAYER_1
 62
   250
 10
317.1496
 20
-129.5411
  0
VERTEX
  8
LAYER_1
 62
   250
 10
316.9542
 20
-129.9811
  0
VERTEX
  8
LAYER_1
 62
   250
 10
316.695
 20
-130.3714
  0
VERTEX
  8
LAYER_1
 62
   250
 10
316.3802
 20
-130.711
  0
VERTEX
  8
LAYER_1
 62
   250
 10
316.0181
 20
-130.9986
  0
VERTEX
  8
LAYER_1
 62
   250
 10
315.617
 20
-131.2329
  0
VERTEX
  8
LAYER_1
 62
   250
 10
315.1851
 20
-131.4129
  0
VERTEX
  8
LAYER_1
 62
   250
 10
315.1854
 20
-131.4637
  0
VERTEX
  8
LAYER_1
 62
   250
 10
315.4925
 20
-131.6015
  0
VERTEX
  8
LAYER_1
 62
   250
 10
315.7692
 20
-131.7854
  0
VERTEX
  8
LAYER_1
 62
   250
 10
316.0164
 20
-132.0138
  0
VERTEX
  8
LAYER_1
 62
   250
 10
316.2351
 20
-132.285
  0
VERTEX
  8
LAYER_1
 62
   250
 10
316.4261
 20
-132.5975
  0
VERTEX
  8
LAYER_1
 62
   250
 10
316.5905
 20
-132.9498
  0
VERTEX
  8
LAYER_1
 62
   250
 10
316.7292
 20
-133.3401
  0
VERTEX
  8
LAYER_1
 62
   250
 10
316.8431
 20
-133.767
  0
VERTEX
  8
LAYER_1
 62
   250
 10
316.9786
 20
-134.3406
  0
VERTEX
  8
LAYER_1
 62
   250
 10
317.1051
 20
-134.8661
  0
VERTEX
  8
LAYER_1
 62
   250
 10
317.2234
 20
-135.3417
  0
VERTEX
  8
LAYER_1
 62
   250
 10
317.3345
 20
-135.7653
  0
VERTEX
  8
LAYER_1
 62
   250
 10
317.4393
 20
-136.1349
  0
VERTEX
  8
LAYER_1
 62
   250
 10
317.5387
 20
-136.4486
  0
VERTEX
  8
LAYER_1
 62
   250
 10
317.6337
 20
-136.7042
  0
VERTEX
  8
LAYER_1
 62
   250
 10
317.7251
 20
-136.9
  0
VERTEX
  8
LAYER_1
 62
   250
 10
316.2014
 20
-136.9
  0
VERTEX
  8
LAYER_1
 62
   250
 10
316.1281
 20
-136.7439
  0
VERTEX
  8
LAYER_1
 62
   250
 10
316.0486
 20
-136.5311
  0
VERTEX
  8
LAYER_1
 62
   250
 10
315.9633
 20
-136.2635
  0
VERTEX
  8
LAYER_1
 62
   250
 10
315.8722
 20
-135.9431
  0
VERTEX
  8
LAYER_1
 62
   250
 10
315.6732
 20
-135.1519
  0
VERTEX
  8
LAYER_1
 62
   250
 10
315.4532
 20
-134.1734
  0
VERTEX
  8
LAYER_1
 62
   250
 10
315.312
 20
-133.628
  0
VERTEX
  8
LAYER_1
 62
   250
 10
315.139
 20
-133.1696
  0
VERTEX
  8
LAYER_1
 62
   250
 10
314.9291
 20
-132.7929
  0
VERTEX
  8
LAYER_1
 62
   250
 10
314.6772
 20
-132.4928
  0
VERTEX
  8
LAYER_1
 62
   250
 10
314.3783
 20
-132.2641
  0
VERTEX
  8
LAYER_1
 62
   250
 10
314.0275
 20
-132.1017
  0
VERTEX
  8
LAYER_1
 62
   250
 10
313.6196
 20
-132.0004
  0
VERTEX
  8
LAYER_1
 62
   250
 10
313.1496
 20
-131.9551
  0
VERTEX
  8
LAYER_1
 62
   250
 10
312.8462
 20
-131.9918
  0
VERTEX
  8
LAYER_1
 62
   250
 10
312.8462
 20
-130.8746
  0
SEQEND
  8
LAYER_1
 62
   250
  0
ENDSEC
  0
EOF
