  0
SECTION
  2
HEADER
  9
$ACADVER
  1
AC1027
  9
$ACADMAINTVER
 70
    55
  9
$DWGCODEPAGE
  3
ANSI_1256
  9
$LASTSAVEDBY
  1
Art
  9
$REQUIREDVERSIONS
160
                 0
  9
$INSBASE
 10
0.0
 20
0.0
 30
0.0
  9
$EXTMIN
 10
61.78808955113206
 20
73.89512876587762
 30
0.0
  9
$EXTMAX
 10
707.1510822376616
 20
428.6855586591452
 30
0.0
  9
$LIMMIN
 10
0.0
 20
0.0
  9
$LIMMAX
 10
12.0
 20
9.0
  9
$ORTHOMODE
 70
     0
  9
$REGENMODE
 70
     1
  9
$FILLMODE
 70
     1
  9
$QTEXTMODE
 70
     0
  9
$MIRRTEXT
 70
     1
  9
$LTSCALE
 40
1.0
  9
$ATTMODE
 70
     1
  9
$TEXTSIZE
 40
0.2
  9
$TRACEWID
 40
0.05
  9
$TEXTSTYLE
  7
STANDARD
  9
$CLAYER
  8
0
  9
$CELTYPE
  6
BYLAYER
  9
$CECOLOR
 62
   256
  9
$CELTSCALE
 40
1.0
  9
$DISPSILH
 70
     0
  9
$DIMSCALE
 40
1.0
  9
$DIMASZ
 40
0.18
  9
$DIMEXO
 40
0.0625
  9
$DIMDLI
 40
0.38
  9
$DIMRND
 40
0.0
  9
$DIMDLE
 40
0.0
  9
$DIMEXE
 40
0.18
  9
$DIMTP
 40
0.0
  9
$DIMTM
 40
0.0
  9
$DIMTXT
 40
0.18
  9
$DIMCEN
 40
0.09
  9
$DIMTSZ
 40
0.0
  9
$DIMTOL
 70
     0
  9
$DIMLIM
 70
     0
  9
$DIMTIH
 70
     1
  9
$DIMTOH
 70
     1
  9
$DIMSE1
 70
     0
  9
$DIMSE2
 70
     0
  9
$DIMTAD
 70
     0
  9
$DIMZIN
 70
     0
  9
$DIMBLK
  1

  9
$DIMASO
 70
     1
  9
$DIMSHO
 70
     1
  9
$DIMPOST
  1

  9
$DIMAPOST
  1

  9
$DIMALT
 70
     0
  9
$DIMALTD
 70
     2
  9
$DIMALTF
 40
25.4
  9
$DIMLFAC
 40
1.0
  9
$DIMTOFL
 70
     0
  9
$DIMTVP
 40
0.0
  9
$DIMTIX
 70
     0
  9
$DIMSOXD
 70
     0
  9
$DIMSAH
 70
     0
  9
$DIMBLK1
  1

  9
$DIMBLK2
  1

  9
$DIMSTYLE
  2
STANDARD
  9
$DIMCLRD
 70
     0
  9
$DIMCLRE
 70
     0
  9
$DIMCLRT
 70
     0
  9
$DIMTFAC
 40
1.0
  9
$DIMGAP
 40
0.09
  9
$DIMJUST
 70
     0
  9
$DIMSD1
 70
     0
  9
$DIMSD2
 70
     0
  9
$DIMTOLJ
 70
     1
  9
$DIMTZIN
 70
     0
  9
$DIMALTZ
 70
     0
  9
$DIMALTTZ
 70
     0
  9
$DIMUPT
 70
     0
  9
$DIMDEC
 70
     4
  9
$DIMTDEC
 70
     4
  9
$DIMALTU
 70
     2
  9
$DIMALTTD
 70
     2
  9
$DIMTXSTY
  7
STANDARD
  9
$DIMAUNIT
 70
     0
  9
$DIMADEC
 70
     0
  9
$DIMALTRND
 40
0.0
  9
$DIMAZIN
 70
     0
  9
$DIMDSEP
 70
    46
  9
$DIMATFIT
 70
     3
  9
$DIMFRAC
 70
     0
  9
$DIMLDRBLK
  1

  9
$DIMLUNIT
 70
     2
  9
$DIMLWD
 70
    -2
  9
$DIMLWE
 70
    -2
  9
$DIMTMOVE
 70
     0
  9
$DIMFXL
 40
1.0
  9
$DIMFXLON
 70
     0
  9
$DIMJOGANG
 40
0.7853981633974483
  9
$DIMTFILL
 70
     0
  9
$DIMTFILLCLR
 70
     0
  9
$DIMARCSYM
 70
     0
  9
$DIMLTYPE
  6

  9
$DIMLTEX1
  6

  9
$DIMLTEX2
  6

  9
$DIMTXTDIRECTION
 70
     0
  9
$LUNITS
 70
     2
  9
$LUPREC
 70
     4
  9
$SKETCHINC
 40
0.1
  9
$FILLETRAD
 40
0.5
  9
$AUNITS
 70
     0
  9
$AUPREC
 70
     0
  9
$MENU
  1
.
  9
$ELEVATION
 40
0.0
  9
$PELEVATION
 40
0.0
  9
$THICKNESS
 40
0.0
  9
$LIMCHECK
 70
     0
  9
$CHAMFERA
 40
0.5
  9
$CHAMFERB
 40
0.5
  9
$CHAMFERC
 40
1.0
  9
$CHAMFERD
 40
0.0
  9
$SKPOLY
 70
     0
  9
$TDCREATE
 40
2456344.614861111
  9
$TDUCREATE
 40
2456344.531527778
  9
$TDUPDATE
 40
2457372.928765533
  9
$TDUUPDATE
 40
2457372.845432199
  9
$TDINDWG
 40
0.1167725231
  9
$TDUSRTIMER
 40
0.1167711574
  9
$USRTIMER
 70
     1
  9
$ANGBASE
 50
0.0
  9
$ANGDIR
 70
     0
  9
$PDMODE
 70
     0
  9
$PDSIZE
 40
0.0
  9
$PLINEWID
 40
0.0
  9
$SPLFRAME
 70
     0
  9
$SPLINETYPE
 70
     6
  9
$SPLINESEGS
 70
     8
  9
$HANDSEED
  5
12A3
  9
$SURFTAB1
 70
     6
  9
$SURFTAB2
 70
     6
  9
$SURFTYPE
 70
     6
  9
$SURFU
 70
     6
  9
$SURFV
 70
     6
  9
$UCSBASE
  2

  9
$UCSNAME
  2

  9
$UCSORG
 10
0.0
 20
0.0
 30
0.0
  9
$UCSXDIR
 10
1.0
 20
0.0
 30
0.0
  9
$UCSYDIR
 10
0.0
 20
1.0
 30
0.0
  9
$UCSORTHOREF
  2

  9
$UCSORTHOVIEW
 70
     0
  9
$UCSORGTOP
 10
0.0
 20
0.0
 30
0.0
  9
$UCSORGBOTTOM
 10
0.0
 20
0.0
 30
0.0
  9
$UCSORGLEFT
 10
0.0
 20
0.0
 30
0.0
  9
$UCSORGRIGHT
 10
0.0
 20
0.0
 30
0.0
  9
$UCSORGFRONT
 10
0.0
 20
0.0
 30
0.0
  9
$UCSORGBACK
 10
0.0
 20
0.0
 30
0.0
  9
$PUCSBASE
  2

  9
$PUCSNAME
  2

  9
$PUCSORG
 10
0.0
 20
0.0
 30
0.0
  9
$PUCSXDIR
 10
1.0
 20
0.0
 30
0.0
  9
$PUCSYDIR
 10
0.0
 20
1.0
 30
0.0
  9
$PUCSORTHOREF
  2

  9
$PUCSORTHOVIEW
 70
     0
  9
$PUCSORGTOP
 10
0.0
 20
0.0
 30
0.0
  9
$PUCSORGBOTTOM
 10
0.0
 20
0.0
 30
0.0
  9
$PUCSORGLEFT
 10
0.0
 20
0.0
 30
0.0
  9
$PUCSORGRIGHT
 10
0.0
 20
0.0
 30
0.0
  9
$PUCSORGFRONT
 10
0.0
 20
0.0
 30
0.0
  9
$PUCSORGBACK
 10
0.0
 20
0.0
 30
0.0
  9
$USERI1
 70
     0
  9
$USERI2
 70
     0
  9
$USERI3
 70
     0
  9
$USERI4
 70
     0
  9
$USERI5
 70
     0
  9
$USERR1
 40
0.0
  9
$USERR2
 40
0.0
  9
$USERR3
 40
0.0
  9
$USERR4
 40
0.0
  9
$USERR5
 40
0.0
  9
$WORLDVIEW
 70
     1
  9
$SHADEDGE
 70
     3
  9
$SHADEDIF
 70
    70
  9
$TILEMODE
 70
     1
  9
$MAXACTVP
 70
    64
  9
$PINSBASE
 10
0.0
 20
0.0
 30
0.0
  9
$PLIMCHECK
 70
     0
  9
$PEXTMIN
 10
1.000000000000000E+20
 20
1.000000000000000E+20
 30
1.000000000000000E+20
  9
$PEXTMAX
 10
-1.000000000000000E+20
 20
-1.000000000000000E+20
 30
-1.000000000000000E+20
  9
$PLIMMIN
 10
0.0
 20
0.0
  9
$PLIMMAX
 10
12.0
 20
9.0
  9
$UNITMODE
 70
     0
  9
$VISRETAIN
 70
     1
  9
$PLINEGEN
 70
     0
  9
$PSLTSCALE
 70
     1
  9
$TREEDEPTH
 70
  3020
  9
$CMLSTYLE
  2
STANDARD
  9
$CMLJUST
 70
     0
  9
$CMLSCALE
 40
1.0
  9
$PROXYGRAPHICS
 70
     1
  9
$MEASUREMENT
 70
     0
  9
$CELWEIGHT
370
    -1
  9
$ENDCAPS
280
     0
  9
$JOINSTYLE
280
     0
  9
$LWDISPLAY
290
     1
  9
$INSUNITS
 70
     1
  9
$HYPERLINKBASE
  1

  9
$STYLESHEET
  1

  9
$XEDIT
290
     1
  9
$CEPSNTYPE
380
     0
  9
$PSTYLEMODE
290
     1
  9
$FINGERPRINTGUID
  2
{5C928F74-1DCD-9DEC-A415-E63BDB60DB9B}
  9
$VERSIONGUID
  2
{96F4A7B5-DC6F-4D7A-BC74-9CDAE46BA41B}
  9
$EXTNAMES
290
     1
  9
$PSVPSCALE
 40
0.0
  9
$OLESTARTUP
290
     0
  9
$SORTENTS
280
   127
  9
$INDEXCTL
280
     0
  9
$HIDETEXT
280
     0
  9
$XCLIPFRAME
280
     2
  9
$HALOGAP
280
     0
  9
$OBSCOLOR
 70
   257
  9
$OBSLTYPE
280
     0
  9
$INTERSECTIONDISPLAY
280
     0
  9
$INTERSECTIONCOLOR
 70
   257
  9
$DIMASSOC
280
     1
  9
$PROJECTNAME
  1

  9
$CAMERADISPLAY
290
     0
  9
$LENSLENGTH
 40
50.0
  9
$CAMERAHEIGHT
 40
0.0
  9
$STEPSPERSEC
 40
2.0
  9
$STEPSIZE
 40
6.0
  9
$3DDWFPREC
 40
2.0
  9
$PSOLWIDTH
 40
0.25
  9
$PSOLHEIGHT
 40
4.0
  9
$LOFTANG1
 40
1.570796326794896
  9
$LOFTANG2
 40
1.570796326794896
  9
$LOFTMAG1
 40
0.0
  9
$LOFTMAG2
 40
0.0
  9
$LOFTPARAM
 70
     7
  9
$LOFTNORMALS
280
     1
  9
$LATITUDE
 40
37.795
  9
$LONGITUDE
 40
-122.394
  9
$NORTHDIRECTION
 40
0.0
  9
$TIMEZONE
 70
 -8000
  9
$LIGHTGLYPHDISPLAY
280
     1
  9
$TILEMODELIGHTSYNCH
280
     1
  9
$CMATERIAL
347
7B1
  9
$SOLIDHIST
280
     0
  9
$SHOWHIST
280
     1
  9
$DWFFRAME
280
     2
  9
$DGNFRAME
280
     0
  9
$REALWORLDSCALE
290
     1
  9
$INTERFERECOLOR
 62
     1
  9
$INTERFEREOBJVS
345
33
  9
$INTERFEREVPVS
346
7C9
  9
$CSHADOW
280
     0
  9
$SHADOWPLANELOCATION
 40
0.0
  0
ENDSEC
  0
SECTION
  2
CLASSES
  0
CLASS
  1
ACDBDICTIONARYWDFLT
  2
AcDbDictionaryWithDefault
  3
ObjectDBX Classes
 90
        0
 91
        1
280
     0
281
     0
  0
CLASS
  1
VISUALSTYLE
  2
AcDbVisualStyle
  3
ObjectDBX Classes
 90
     4095
 91
       26
280
     0
281
     0
  0
CLASS
  1
MATERIAL
  2
AcDbMaterial
  3
ObjectDBX Classes
 90
     1153
 91
        3
280
     0
281
     0
  0
CLASS
  1
TABLESTYLE
  2
AcDbTableStyle
  3
ObjectDBX Classes
 90
     4095
 91
        1
280
     0
281
     0
  0
CLASS
  1
SCALE
  2
AcDbScale
  3
ObjectDBX Classes
 90
     1153
 91
       17
280
     0
281
     0
  0
CLASS
  1
MLEADERSTYLE
  2
AcDbMLeaderStyle
  3
ACDB_MLEADERSTYLE_CLASS
 90
     4095
 91
        1
280
     0
281
     0
  0
CLASS
  1
ACDBSECTIONVIEWSTYLE
  2
AcDbSectionViewStyle
  3
ObjectDBX Classes
 90
     1025
 91
        1
280
     0
281
     0
  0
CLASS
  1
ACDBDETAILVIEWSTYLE
  2
AcDbDetailViewStyle
  3
ObjectDBX Classes
 90
     1025
 91
        1
280
     0
281
     0
  0
CLASS
  1
SORTENTSTABLE
  2
AcDbSortentsTable
  3
ObjectDBX Classes
 90
        0
 91
        1
280
     0
281
     0
  0
CLASS
  1
DICTIONARYVAR
  2
AcDbDictionaryVar
  3
ObjectDBX Classes
 90
        0
 91
        9
280
     0
281
     0
  0
CLASS
  1
CELLSTYLEMAP
  2
AcDbCellStyleMap
  3
ObjectDBX Classes
 90
     1152
 91
        1
280
     0
281
     0
  0
CLASS
  1
ACARRAYJIGENTITY
  2
AcArrayJigEntity
  3
ACAD_ARRAY
 90
      129
 91
        0
280
     0
281
     1
  0
CLASS
  1
ACDBASSOCNETWORK
  2
AcDbAssocNetwork
  3
ObjectDBX Classes
 90
     1025
 91
        0
280
     0
281
     0
  0
CLASS
  1
ACDBASSOCACTION
  2
AcDbAssocAction
  3
ObjectDBX Classes
 90
     1025
 91
        0
280
     0
281
     0
  0
CLASS
  1
ACDBASSOCARRAYACTIONBODY
  2
AcDbAssocArrayActionBody
  3
ObjectDBX Classes
 90
     1025
 91
        0
280
     0
281
     0
  0
CLASS
  1
ACDBASSOCVERTEXACTIONPARAM
  2
AcDbAssocVertexActionParam
  3
ObjectDBX Classes
 90
     1025
 91
        0
280
     0
281
     0
  0
CLASS
  1
ACDBASSOCDEPENDENCY
  2
AcDbAssocDependency
  3
ObjectDBX Classes
 90
     1025
 91
        0
280
     0
281
     0
  0
CLASS
  1
ACDBASSOCARRAYRECTANGULARPARAMETERS
  2
AcDbAssocArrayRectangularParameters
  3
ObjectDBX Classes
 90
     1025
 91
        0
280
     0
281
     0
  0
ENDSEC
  0
SECTION
  2
TABLES
  0
TABLE
  2
VPORT
  5
8
330
0
100
AcDbSymbolTable
 70
     1
  0
VPORT
  5
29
330
8
100
AcDbSymbolTableRecord
100
AcDbViewportTableRecord
  2
*ACTIVE
 70
     0
 10
0.0
 20
0.0
 11
1.0
 21
1.0
 12
310.5177871097001
 22
366.9749961304786
 13
0.0
 23
0.0
 14
0.5
 24
0.5
 15
0.5
 25
0.5
 16
0.0
 26
0.0
 36
1.0
 17
209.9997571632119
 27
-130.0003336263541
 37
0.0
 40
523.5421812642924
 41
2.26602564102564
 42
50.0
 43
0.0
 44
0.0
 50
0.0
 51
0.0
 71
     0
 72
   100
 73
     1
 74
     3
 75
     0
 76
     0
 77
     0
 78
     0
281
     0
 65
     1
110
0.0
120
0.0
130
0.0
111
1.0
121
0.0
131
0.0
112
0.0
122
1.0
132
0.0
 79
     0
146
0.0
348
2F
 60
     3
 61
     5
292
     1
282
     1
141
0.0
142
0.0
 63
   250
421
  3355443
1001
ACAD_NAV_VCDISPLAY
1070
     3
  0
ENDTAB
  0
TABLE
  2
LTYPE
  5
5
330
0
100
AcDbSymbolTable
 70
     1
  0
LTYPE
  5
14
330
5
100
AcDbSymbolTableRecord
100
AcDbLinetypeTableRecord
  2
BYBLOCK
 70
     0
  3

 72
    65
 73
     0
 40
0.0
  0
LTYPE
  5
15
330
5
100
AcDbSymbolTableRecord
100
AcDbLinetypeTableRecord
  2
BYLAYER
 70
     0
  3

 72
    65
 73
     0
 40
0.0
  0
LTYPE
  5
16
330
5
100
AcDbSymbolTableRecord
100
AcDbLinetypeTableRecord
  2
CONTINUOUS
 70
     0
  3
Solid line
 72
    65
 73
     0
 40
0.0
  0
ENDTAB
  0
TABLE
  2
LAYER
  5
2
102
{ACAD_XDICTIONARY
360
1292
102
}
330
0
100
AcDbSymbolTable
 70
     2
  0
LAYER
  5
10
102
{ACAD_XDICTIONARY
360
92D
102
}
330
2
100
AcDbSymbolTableRecord
100
AcDbLayerTableRecord
  2
0
 70
     0
 62
     7
  6
CONTINUOUS
370
    -3
390
7AF
347
7C1
348
0
  0
LAYER
  5
3B
102
{ACAD_XDICTIONARY
360
92F
102
}
330
2
100
AcDbSymbolTableRecord
100
AcDbLayerTableRecord
  2
EBENE_1
 70
     0
 62
     7
  6
CONTINUOUS
370
    -3
390
7AF
347
7C1
348
0
  0
ENDTAB
  0
TABLE
  2
STYLE
  5
3
330
0
100
AcDbSymbolTable
 70
     1
  0
STYLE
  5
11
330
3
100
AcDbSymbolTableRecord
100
AcDbTextStyleTableRecord
  2
STANDARD
 70
     0
 40
0.0
 41
1.0
 50
0.0
 71
     0
 42
0.2
  3
txt
  4

  0
ENDTAB
  0
TABLE
  2
VIEW
  5
6
330
0
100
AcDbSymbolTable
 70
     0
  0
ENDTAB
  0
TABLE
  2
UCS
  5
7
330
0
100
AcDbSymbolTable
 70
     0
  0
ENDTAB
  0
TABLE
  2
APPID
  5
9
330
0
100
AcDbSymbolTable
 70
     3
  0
APPID
  5
12
330
9
100
AcDbSymbolTableRecord
100
AcDbRegAppTableRecord
  2
ACAD
 70
     0
  0
APPID
  5
7F2
330
9
100
AcDbSymbolTableRecord
100
AcDbRegAppTableRecord
  2
ACAD_NAV_VCDISPLAY
 70
     0
  0
APPID
  5
7FB
330
9
100
AcDbSymbolTableRecord
100
AcDbRegAppTableRecord
  2
ACAD_EXEMPT_FROM_CAD_STANDARDS
 70
     0
  0
ENDTAB
  0
TABLE
  2
DIMSTYLE
  5
A
330
0
100
AcDbSymbolTable
 70
     1
100
AcDbDimStyleTable
 71
     1
340
27
  0
DIMSTYLE
105
27
330
A
100
AcDbSymbolTableRecord
100
AcDbDimStyleTableRecord
  2
STANDARD
 70
     0
340
11
  0
ENDTAB
  0
TABLE
  2
BLOCK_RECORD
  5
1
330
0
100
AcDbSymbolTable
 70
     0
  0
BLOCK_RECORD
  5
1F
102
{ACAD_XDICTIONARY
360
804
102
}
330
1
100
AcDbSymbolTableRecord
100
AcDbBlockTableRecord
  2
*MODEL_SPACE
340
7ED
 70
     0
280
     1
281
     0
  0
BLOCK_RECORD
  5
1B
330
1
100
AcDbSymbolTableRecord
100
AcDbBlockTableRecord
  2
*PAPER_SPACE
340
7EE
 70
     0
280
     1
281
     0
  0
ENDTAB
  0
ENDSEC
  0
SECTION
  2
BLOCKS
  0
BLOCK
  5
20
330
1F
100
AcDbEntity
  8
0
100
AcDbBlockBegin
  2
*MODEL_SPACE
 70
     0
 10
0.0
 20
0.0
 30
0.0
  3
*MODEL_SPACE
  1

  0
ENDBLK
  5
21
330
1F
100
AcDbEntity
  8
0
100
AcDbBlockEnd
  0
BLOCK
  5
1C
330
1B
100
AcDbEntity
 67
     1
  8
0
100
AcDbBlockBegin
  2
*PAPER_SPACE
 70
     0
 10
0.0
 20
0.0
 30
0.0
  3
*PAPER_SPACE
  1

  0
ENDBLK
  5
1D
330
1B
100
AcDbEntity
 67
     1
  8
0
100
AcDbBlockEnd
  0
ENDSEC
  0
SECTION
  2
ENTITIES
  0
LINE
  5
A1B
330
1F
100
AcDbEntity
  8
0
100
AcDbLine
 10
69.76307325809031
 20
139.8160044628693
 30
0.0
 11
61.78808955113206
 21
139.8160044628693
 31
0.0
  0
LINE
  5
A1C
330
1F
100
AcDbEntity
  8
0
100
AcDbLine
 10
61.78808955113206
 20
139.8160044628693
 30
0.0
 11
61.78808955113206
 21
134.8157928755778
 31
0.0
  0
LINE
  5
A1D
330
1F
100
AcDbEntity
  8
0
100
AcDbLine
 10
61.78808955113206
 20
134.8157928755778
 30
0.0
 11
64.8883309783084
 21
134.8157928755778
 31
0.0
  0
LINE
  5
A1E
330
1F
100
AcDbEntity
  8
0
100
AcDbLine
 10
64.8883309783084
 20
134.8157928755778
 30
0.0
 11
64.8883309783084
 21
130.1156491050513
 31
0.0
  0
LINE
  5
A1F
330
1F
100
AcDbEntity
  8
0
100
AcDbLine
 10
64.8883309783084
 20
130.1156491050513
 30
0.0
 11
61.78808955113206
 21
130.1156491050513
 31
0.0
  0
LINE
  5
A20
330
1F
100
AcDbEntity
  8
0
100
AcDbLine
 10
61.78808955113206
 20
130.1156491050513
 30
0.0
 11
61.78808955113206
 21
124.815714210543
 31
0.0
  0
LINE
  5
A21
330
1F
100
AcDbEntity
  8
0
100
AcDbLine
 10
61.78808955113206
 20
124.815714210543
 30
0.0
 11
64.8883309783084
 21
124.815714210543
 31
0.0
  0
LINE
  5
A22
330
1F
100
AcDbEntity
  8
0
100
AcDbLine
 10
64.8883309783084
 20
124.815714210543
 30
0.0
 11
64.8883309783084
 21
120.1159149495651
 31
0.0
  0
LINE
  5
A23
330
1F
100
AcDbEntity
  8
0
100
AcDbLine
 10
64.8883309783084
 20
120.1159149495651
 30
0.0
 11
61.78808955113206
 21
120.1159149495651
 31
0.0
  0
LINE
  5
A24
330
1F
100
AcDbEntity
  8
0
100
AcDbLine
 10
61.78808955113206
 20
120.1159149495651
 30
0.0
 11
61.78808955113206
 21
114.8156355455082
 31
0.0
  0
LINE
  5
A25
330
1F
100
AcDbEntity
  8
0
100
AcDbLine
 10
61.78808955113206
 20
114.8156355455082
 30
0.0
 11
64.8883309783084
 21
114.8156355455082
 31
0.0
  0
LINE
  5
A26
330
1F
100
AcDbEntity
  8
0
100
AcDbLine
 10
64.8883309783084
 20
114.8156355455082
 30
0.0
 11
64.8883309783084
 21
110.1154917749819
 31
0.0
  0
LINE
  5
A27
330
1F
100
AcDbEntity
  8
0
100
AcDbLine
 10
64.8883309783084
 20
110.1154917749819
 30
0.0
 11
61.78808955113206
 21
110.1154917749819
 31
0.0
  0
LINE
  5
A28
330
1F
100
AcDbEntity
  8
0
100
AcDbLine
 10
61.78808955113206
 20
110.1154917749819
 30
0.0
 11
61.78808955113206
 21
104.8155568804736
 31
0.0
  0
LINE
  5
A29
330
1F
100
AcDbEntity
  8
0
100
AcDbLine
 10
61.78808955113206
 20
104.8155568804736
 30
0.0
 11
64.8883309783084
 21
104.8155568804736
 31
0.0
  0
LINE
  5
A2A
330
1F
100
AcDbEntity
  8
0
100
AcDbLine
 10
64.8883309783084
 20
104.8155568804736
 30
0.0
 11
64.8883309783084
 21
100.1157576194957
 31
0.0
  0
LINE
  5
A2B
330
1F
100
AcDbEntity
  8
0
100
AcDbLine
 10
64.8883309783084
 20
100.1157576194957
 30
0.0
 11
61.78808955113206
 21
100.1157576194957
 31
0.0
  0
LINE
  5
A2C
330
1F
100
AcDbEntity
  8
0
100
AcDbLine
 10
61.78808955113206
 20
100.1157576194957
 30
0.0
 11
61.78808955113206
 21
95.11623505130122
 31
0.0
  0
LINE
  5
A2D
330
1F
100
AcDbEntity
  8
0
100
AcDbLine
 10
61.78808955113206
 20
95.11623505130122
 30
0.0
 11
69.76348559948561
 21
95.11623505130122
 31
0.0
  0
LINE
  5
A2E
330
1F
100
AcDbEntity
  8
0
100
AcDbLine
 10
69.76348559948561
 20
95.11623505130122
 30
0.0
 11
69.76348559948561
 21
98.21578745938049
 31
0.0
  0
LINE
  5
A2F
330
1F
100
AcDbEntity
  8
0
100
AcDbLine
 10
69.76348559948561
 20
98.21578745938049
 30
0.0
 11
74.46328486046329
 21
98.21578745938049
 31
0.0
  0
LINE
  5
A30
330
1F
100
AcDbEntity
  8
0
100
AcDbLine
 10
74.46328486046329
 20
98.21578745938049
 30
0.0
 11
74.46328486046329
 21
95.11623505130122
 31
0.0
  0
LINE
  5
A31
330
1F
100
AcDbEntity
  8
0
100
AcDbLine
 10
74.46328486046329
 20
95.11623505130122
 30
0.0
 11
120.2131193759355
 21
95.11554603220416
 31
0.0
  0
LINE
  5
A32
330
1F
100
AcDbEntity
  8
0
100
AcDbLine
 10
120.2131193759355
 20
95.11554603220416
 30
0.0
 11
120.2131193759355
 21
98.21613196892904
 31
0.0
  0
LINE
  5
A33
330
1F
100
AcDbEntity
  8
0
100
AcDbLine
 10
120.2131193759355
 20
98.21613196892904
 30
0.0
 11
124.9129186369134
 21
98.21613196892904
 31
0.0
  0
LINE
  5
A34
330
1F
100
AcDbEntity
  8
0
100
AcDbLine
 10
124.9129186369134
 20
98.21613196892904
 30
0.0
 11
124.9129186369134
 21
95.11554603220416
 31
0.0
  0
LINE
  5
A48
330
1F
100
AcDbEntity
  8
0
100
AcDbLine
 10
124.9128732580902
 20
139.8160044628693
 30
0.0
 11
124.9128732580902
 21
136.7156044628693
 31
0.0
  0
LINE
  5
A49
330
1F
100
AcDbEntity
  8
0
100
AcDbLine
 10
124.9128732580902
 20
136.7156044628693
 30
0.0
 11
120.2130732580902
 21
136.7156044628693
 31
0.0
  0
LINE
  5
A4A
330
1F
100
AcDbEntity
  8
0
100
AcDbLine
 10
120.2130732580902
 20
136.7156044628693
 30
0.0
 11
120.2130732580902
 21
139.8160044628693
 31
0.0
  0
LINE
  5
A4B
330
1F
100
AcDbEntity
  8
0
100
AcDbLine
 10
120.2130732580902
 20
139.8160044628693
 30
0.0
 11
74.4628732580903
 21
139.8160044628693
 31
0.0
  0
LINE
  5
A4C
330
1F
100
AcDbEntity
  8
0
100
AcDbLine
 10
74.4628732580903
 20
139.8160044628693
 30
0.0
 11
74.4628732580903
 21
136.7156044628693
 31
0.0
  0
LINE
  5
A4D
330
1F
100
AcDbEntity
  8
0
100
AcDbLine
 10
74.4628732580903
 20
136.7156044628693
 30
0.0
 11
69.76307325809031
 21
136.7156044628693
 31
0.0
  0
LINE
  5
A4E
330
1F
100
AcDbEntity
  8
0
100
AcDbLine
 10
69.76307325809031
 20
136.7156044628693
 30
0.0
 11
69.76307325809031
 21
139.8160044628693
 31
0.0
  0
LINE
  5
A4F
330
1F
100
AcDbEntity
  8
EBENE_1
 62
     0
100
AcDbLine
 10
115.3379647547585
 20
129.8166148169316
 30
0.0
 11
115.3379647547585
 21
139.8160044628693
 31
0.0
  0
LINE
  5
A50
330
1F
100
AcDbEntity
  8
EBENE_1
 62
     0
100
AcDbLine
 10
115.3379647547585
 20
95.11623505130122
 30
0.0
 11
115.3379647547585
 21
127.8170813972926
 31
0.0
  0
LINE
  5
A51
330
1F
100
AcDbEntity
  8
EBENE_1
 62
     0
100
AcDbLine
 10
113.3380868255708
 20
95.11554603220416
 30
0.0
 11
113.3380868255708
 21
111.8166799255983
 31
0.0
  0
LINE
  5
A52
330
1F
100
AcDbEntity
  8
EBENE_1
 62
     0
100
AcDbLine
 10
113.3380868255708
 20
113.8169023643343
 30
0.0
 11
113.3380868255708
 21
139.8160044628693
 31
0.0
  0
LINE
  5
A53
330
1F
100
AcDbEntity
  8
EBENE_1
 62
     0
100
AcDbLine
 10
109.3383309671959
 20
95.11554603220416
 30
0.0
 11
109.3383309671959
 21
111.8166799255983
 31
0.0
  0
LINE
  5
A54
330
1F
100
AcDbEntity
  8
EBENE_1
 62
     0
100
AcDbLine
 10
109.3383309671959
 20
113.8169023643343
 30
0.0
 11
109.3383309671959
 21
139.8160044628693
 31
0.0
  0
LINE
  5
A55
330
1F
100
AcDbEntity
  8
EBENE_1
 62
     0
100
AcDbLine
 10
105.3382305992723
 20
95.11554603220416
 30
0.0
 11
105.3382305992723
 21
111.8166799255983
 31
0.0
  0
LINE
  5
A56
330
1F
100
AcDbEntity
  8
EBENE_1
 62
     0
100
AcDbLine
 10
105.3382305992723
 20
113.8169023643343
 30
0.0
 11
105.3382305992723
 21
139.8160044628693
 31
0.0
  0
LINE
  5
A57
330
1F
100
AcDbEntity
  8
EBENE_1
 62
     0
100
AcDbLine
 10
101.3381302313486
 20
95.11554603220416
 30
0.0
 11
101.3381302313486
 21
111.8166799255983
 31
0.0
  0
LINE
  5
A58
330
1F
100
AcDbEntity
  8
EBENE_1
 62
     0
100
AcDbLine
 10
101.3381302313486
 20
113.8169023643343
 30
0.0
 11
101.3381302313486
 21
139.8160044628693
 31
0.0
  0
LINE
  5
A59
330
1F
100
AcDbEntity
  8
EBENE_1
 62
     0
100
AcDbLine
 10
111.3382088963831
 20
129.8166148169316
 30
0.0
 11
111.3382088963831
 21
139.8160044628693
 31
0.0
  0
LINE
  5
A5A
330
1F
100
AcDbEntity
  8
EBENE_1
 62
     0
100
AcDbLine
 10
111.3382088963831
 20
95.11623505130122
 30
0.0
 11
111.3382088963831
 21
127.8170813972926
 31
0.0
  0
LINE
  5
A5B
330
1F
100
AcDbEntity
  8
EBENE_1
 62
     0
100
AcDbLine
 10
107.3381085284598
 20
129.8166148169316
 30
0.0
 11
107.3381085284598
 21
139.8160044628693
 31
0.0
  0
LINE
  5
A5C
330
1F
100
AcDbEntity
  8
EBENE_1
 62
     0
100
AcDbLine
 10
107.3381085284598
 20
95.11623505130122
 30
0.0
 11
107.3381085284598
 21
127.8170813972926
 31
0.0
  0
LINE
  5
A5D
330
1F
100
AcDbEntity
  8
EBENE_1
 62
     0
100
AcDbLine
 10
103.3383526700848
 20
129.8166148169316
 30
0.0
 11
103.3383526700848
 21
139.8160044628693
 31
0.0
  0
LINE
  5
A5E
330
1F
100
AcDbEntity
  8
EBENE_1
 62
     0
100
AcDbLine
 10
103.3383526700848
 20
95.11623505130122
 30
0.0
 11
103.3383526700848
 21
127.8170813972926
 31
0.0
  0
LINE
  5
A5F
330
1F
100
AcDbEntity
  8
EBENE_1
 62
     0
100
AcDbLine
 10
97.33837437297356
 20
95.11554603220416
 30
0.0
 11
97.33837437297356
 21
111.8166799255983
 31
0.0
  0
LINE
  5
A60
330
1F
100
AcDbEntity
  8
EBENE_1
 62
     0
100
AcDbLine
 10
97.33837437297356
 20
113.8169023643343
 30
0.0
 11
97.33837437297356
 21
139.8160044628693
 31
0.0
  0
LINE
  5
A61
330
1F
100
AcDbEntity
  8
EBENE_1
 62
     0
100
AcDbLine
 10
93.33792949550147
 20
95.11554603220416
 30
0.0
 11
93.33792949550147
 21
111.8166799255983
 31
0.0
  0
LINE
  5
A62
330
1F
100
AcDbEntity
  8
EBENE_1
 62
     0
100
AcDbLine
 10
93.33792949550147
 20
113.8169023643343
 30
0.0
 11
93.33792949550147
 21
139.8160044628693
 31
0.0
  0
LINE
  5
A63
330
1F
100
AcDbEntity
  8
EBENE_1
 62
     0
100
AcDbLine
 10
89.33817363712634
 20
95.11554603220416
 30
0.0
 11
89.33817363712634
 21
111.8166799255983
 31
0.0
  0
LINE
  5
A64
330
1F
100
AcDbEntity
  8
EBENE_1
 62
     0
100
AcDbLine
 10
89.33817363712634
 20
113.8169023643343
 30
0.0
 11
89.33817363712634
 21
139.8160044628693
 31
0.0
  0
LINE
  5
A65
330
1F
100
AcDbEntity
  8
EBENE_1
 62
     0
100
AcDbLine
 10
99.33790779261252
 20
129.8166148169316
 30
0.0
 11
99.33790779261252
 21
139.8160044628693
 31
0.0
  0
LINE
  5
A66
330
1F
100
AcDbEntity
  8
EBENE_1
 62
     0
100
AcDbLine
 10
99.33790779261252
 20
95.11623505130122
 30
0.0
 11
99.33790779261252
 21
127.8170813972926
 31
0.0
  0
LINE
  5
A67
330
1F
100
AcDbEntity
  8
EBENE_1
 62
     0
100
AcDbLine
 10
95.33815193423762
 20
129.8166148169316
 30
0.0
 11
95.33815193423762
 21
139.8160044628693
 31
0.0
  0
LINE
  5
A68
330
1F
100
AcDbEntity
  8
EBENE_1
 62
     0
100
AcDbLine
 10
95.33815193423762
 20
95.11623505130122
 30
0.0
 11
95.33815193423762
 21
127.8170813972926
 31
0.0
  0
LINE
  5
A69
330
1F
100
AcDbEntity
  8
EBENE_1
 62
     0
100
AcDbLine
 10
91.33839607586272
 20
129.8166148169316
 30
0.0
 11
91.33839607586272
 21
139.8160044628693
 31
0.0
  0
LINE
  5
A6A
330
1F
100
AcDbEntity
  8
EBENE_1
 62
     0
100
AcDbLine
 10
91.33839607586272
 20
95.11623505130122
 30
0.0
 11
91.33839607586272
 21
127.8170813972926
 31
0.0
  0
LINE
  5
A6B
330
1F
100
AcDbEntity
  8
EBENE_1
 62
     0
100
AcDbLine
 10
85.3380732692028
 20
95.11554603220416
 30
0.0
 11
85.3380732692028
 21
111.8166799255983
 31
0.0
  0
LINE
  5
A6C
330
1F
100
AcDbEntity
  8
EBENE_1
 62
     0
100
AcDbLine
 10
85.3380732692028
 20
113.8169023643343
 30
0.0
 11
85.3380732692028
 21
139.8160044628693
 31
0.0
  0
LINE
  5
A6D
330
1F
100
AcDbEntity
  8
EBENE_1
 62
     0
100
AcDbLine
 10
81.33797290127935
 20
95.11554603220416
 30
0.0
 11
81.33797290127935
 21
111.8166799255983
 31
0.0
  0
LINE
  5
A6E
330
1F
100
AcDbEntity
  8
EBENE_1
 62
     0
100
AcDbLine
 10
81.33797290127935
 20
113.8169023643343
 30
0.0
 11
81.33797290127935
 21
139.8160044628693
 31
0.0
  0
LINE
  5
A6F
330
1F
100
AcDbEntity
  8
EBENE_1
 62
     0
100
AcDbLine
 10
87.3379511983903
 20
129.8166148169316
 30
0.0
 11
87.3379511983903
 21
139.8160044628693
 31
0.0
  0
LINE
  5
A70
330
1F
100
AcDbEntity
  8
EBENE_1
 62
     0
100
AcDbLine
 10
87.3379511983903
 20
95.11623505130122
 30
0.0
 11
87.3379511983903
 21
127.8170813972926
 31
0.0
  0
LINE
  5
A71
330
1F
100
AcDbEntity
  8
EBENE_1
 62
     0
100
AcDbLine
 10
83.33819534001539
 20
129.8166148169316
 30
0.0
 11
83.33819534001539
 21
139.8160044628693
 31
0.0
  0
LINE
  5
A72
330
1F
100
AcDbEntity
  8
EBENE_1
 62
     0
100
AcDbLine
 10
83.33819534001539
 20
95.11623505130122
 30
0.0
 11
83.33819534001539
 21
127.8170813972926
 31
0.0
  0
LINE
  5
A73
330
1F
100
AcDbEntity
  8
EBENE_1
 62
     0
100
AcDbLine
 10
79.33809497209196
 20
129.8166148169316
 30
0.0
 11
79.33809497209196
 21
139.8160044628693
 31
0.0
  0
LINE
  5
A74
330
1F
100
AcDbEntity
  8
EBENE_1
 62
     0
100
AcDbLine
 10
79.33809497209196
 20
95.11623505130122
 30
0.0
 11
79.33809497209196
 21
127.8170813972926
 31
0.0
  0
LINE
  5
A7B
330
1F
100
AcDbEntity
  8
0
100
AcDbLine
 10
124.9128732580902
 20
139.8160044628693
 30
0.0
 11
169.5825732580901
 21
139.8160044628693
 31
0.0
  0
LINE
  5
A7D
330
1F
100
AcDbEntity
  8
EBENE_1
 62
     0
100
AcDbLine
 10
370.4877423017348
 20
95.11623505130122
 30
0.0
 11
370.4877423017348
 21
127.8170813972926
 31
0.0
  0
LINE
  5
A7E
330
1F
100
AcDbEntity
  8
EBENE_1
 62
     0
100
AcDbLine
 10
370.4877423017348
 20
129.8166148169316
 30
0.0
 11
370.4877423017348
 21
139.8160044628693
 31
0.0
  0
LINE
  5
A7F
330
1F
100
AcDbEntity
  8
EBENE_1
 62
     0
100
AcDbLine
 10
366.4876419338114
 20
95.11623505130122
 30
0.0
 11
366.4876419338114
 21
127.8170813972926
 31
0.0
  0
LINE
  5
A80
330
1F
100
AcDbEntity
  8
EBENE_1
 62
     0
100
AcDbLine
 10
366.4876419338114
 20
129.8166148169316
 30
0.0
 11
366.4876419338114
 21
139.8160044628693
 31
0.0
  0
LINE
  5
A81
330
1F
100
AcDbEntity
  8
EBENE_1
 62
     0
100
AcDbLine
 10
362.4878860754367
 20
95.11623505130122
 30
0.0
 11
362.4878860754367
 21
127.8170813972926
 31
0.0
  0
LINE
  5
A82
330
1F
100
AcDbEntity
  8
EBENE_1
 62
     0
100
AcDbLine
 10
362.4878860754367
 20
129.8166148169316
 30
0.0
 11
362.4878860754367
 21
139.8160044628693
 31
0.0
  0
LINE
  5
A83
330
1F
100
AcDbEntity
  8
EBENE_1
 62
     0
100
AcDbLine
 10
368.4878643725475
 20
113.8169023643343
 30
0.0
 11
368.4878643725475
 21
139.8160044628693
 31
0.0
  0
LINE
  5
A84
330
1F
100
AcDbEntity
  8
EBENE_1
 62
     0
100
AcDbLine
 10
368.4878643725475
 20
95.11554603220416
 30
0.0
 11
368.4878643725475
 21
111.8166799255983
 31
0.0
  0
LINE
  5
A85
330
1F
100
AcDbEntity
  8
EBENE_1
 62
     0
100
AcDbLine
 10
364.487764004624
 20
113.8169023643343
 30
0.0
 11
364.487764004624
 21
139.8160044628693
 31
0.0
  0
LINE
  5
A86
330
1F
100
AcDbEntity
  8
EBENE_1
 62
     0
100
AcDbLine
 10
364.487764004624
 20
95.11554603220416
 30
0.0
 11
364.487764004624
 21
111.8166799255983
 31
0.0
  0
LINE
  5
A87
330
1F
100
AcDbEntity
  8
EBENE_1
 62
     0
100
AcDbLine
 10
358.4874411979641
 20
95.11623505130122
 30
0.0
 11
358.4874411979641
 21
127.8170813972926
 31
0.0
  0
LINE
  5
A88
330
1F
100
AcDbEntity
  8
EBENE_1
 62
     0
100
AcDbLine
 10
358.4874411979641
 20
129.8166148169316
 30
0.0
 11
358.4874411979641
 21
139.8160044628693
 31
0.0
  0
LINE
  5
A89
330
1F
100
AcDbEntity
  8
EBENE_1
 62
     0
100
AcDbLine
 10
354.4876853395891
 20
95.11623505130122
 30
0.0
 11
354.4876853395891
 21
127.8170813972926
 31
0.0
  0
LINE
  5
A8A
330
1F
100
AcDbEntity
  8
EBENE_1
 62
     0
100
AcDbLine
 10
354.4876853395891
 20
129.8166148169316
 30
0.0
 11
354.4876853395891
 21
139.8160044628693
 31
0.0
  0
LINE
  5
A8B
330
1F
100
AcDbEntity
  8
EBENE_1
 62
     0
100
AcDbLine
 10
350.4879294812143
 20
95.11623505130122
 30
0.0
 11
350.4879294812143
 21
127.8170813972926
 31
0.0
  0
LINE
  5
A8C
330
1F
100
AcDbEntity
  8
EBENE_1
 62
     0
100
AcDbLine
 10
350.4879294812143
 20
129.8166148169316
 30
0.0
 11
350.4879294812143
 21
139.8160044628693
 31
0.0
  0
LINE
  5
A8D
330
1F
100
AcDbEntity
  8
EBENE_1
 62
     0
100
AcDbLine
 10
360.4876636367004
 20
113.8169023643343
 30
0.0
 11
360.4876636367004
 21
139.8160044628693
 31
0.0
  0
LINE
  5
A8E
330
1F
100
AcDbEntity
  8
EBENE_1
 62
     0
100
AcDbLine
 10
360.4876636367004
 20
95.11554603220416
 30
0.0
 11
360.4876636367004
 21
111.8166799255983
 31
0.0
  0
LINE
  5
A8F
330
1F
100
AcDbEntity
  8
EBENE_1
 62
     0
100
AcDbLine
 10
356.4879077783254
 20
113.8169023643343
 30
0.0
 11
356.4879077783254
 21
139.8160044628693
 31
0.0
  0
LINE
  5
A90
330
1F
100
AcDbEntity
  8
EBENE_1
 62
     0
100
AcDbLine
 10
356.4879077783254
 20
95.11554603220416
 30
0.0
 11
356.4879077783254
 21
111.8166799255983
 31
0.0
  0
LINE
  5
A91
330
1F
100
AcDbEntity
  8
EBENE_1
 62
     0
100
AcDbLine
 10
352.4874629008533
 20
113.8169023643343
 30
0.0
 11
352.4874629008533
 21
139.8160044628693
 31
0.0
  0
LINE
  5
A92
330
1F
100
AcDbEntity
  8
EBENE_1
 62
     0
100
AcDbLine
 10
352.4874629008533
 20
95.11554603220416
 30
0.0
 11
352.4874629008533
 21
111.8166799255983
 31
0.0
  0
LINE
  5
A93
330
1F
100
AcDbEntity
  8
EBENE_1
 62
     0
100
AcDbLine
 10
346.487484603742
 20
95.11623505130122
 30
0.0
 11
346.487484603742
 21
127.8170813972926
 31
0.0
  0
LINE
  5
A94
330
1F
100
AcDbEntity
  8
EBENE_1
 62
     0
100
AcDbLine
 10
346.487484603742
 20
129.8166148169316
 30
0.0
 11
346.487484603742
 21
139.8160044628693
 31
0.0
  0
LINE
  5
A95
330
1F
100
AcDbEntity
  8
EBENE_1
 62
     0
100
AcDbLine
 10
342.487728745367
 20
95.11623505130122
 30
0.0
 11
342.487728745367
 21
127.8170813972926
 31
0.0
  0
LINE
  5
A96
330
1F
100
AcDbEntity
  8
EBENE_1
 62
     0
100
AcDbLine
 10
342.487728745367
 20
129.8166148169316
 30
0.0
 11
342.487728745367
 21
139.8160044628693
 31
0.0
  0
LINE
  5
A97
330
1F
100
AcDbEntity
  8
EBENE_1
 62
     0
100
AcDbLine
 10
338.4876283774435
 20
95.11623505130122
 30
0.0
 11
338.4876283774435
 21
127.8170813972926
 31
0.0
  0
LINE
  5
A98
330
1F
100
AcDbEntity
  8
EBENE_1
 62
     0
100
AcDbLine
 10
338.4876283774435
 20
129.8166148169316
 30
0.0
 11
338.4876283774435
 21
139.8160044628693
 31
0.0
  0
LINE
  5
A99
330
1F
100
AcDbEntity
  8
EBENE_1
 62
     0
100
AcDbLine
 10
348.4877070424783
 20
113.8169023643343
 30
0.0
 11
348.4877070424783
 21
139.8160044628693
 31
0.0
  0
LINE
  5
A9A
330
1F
100
AcDbEntity
  8
EBENE_1
 62
     0
100
AcDbLine
 10
348.4877070424783
 20
95.11554603220416
 30
0.0
 11
348.4877070424783
 21
111.8166799255983
 31
0.0
  0
LINE
  5
A9B
330
1F
100
AcDbEntity
  8
EBENE_1
 62
     0
100
AcDbLine
 10
344.4876066745543
 20
113.8169023643343
 30
0.0
 11
344.4876066745543
 21
139.8160044628693
 31
0.0
  0
LINE
  5
A9C
330
1F
100
AcDbEntity
  8
EBENE_1
 62
     0
100
AcDbLine
 10
344.4876066745543
 20
95.11554603220416
 30
0.0
 11
344.4876066745543
 21
111.8166799255983
 31
0.0
  0
LINE
  5
A9D
330
1F
100
AcDbEntity
  8
EBENE_1
 62
     0
100
AcDbLine
 10
340.487506306631
 20
113.8169023643343
 30
0.0
 11
340.487506306631
 21
139.8160044628693
 31
0.0
  0
LINE
  5
A9E
330
1F
100
AcDbEntity
  8
EBENE_1
 62
     0
100
AcDbLine
 10
340.487506306631
 20
95.11554603220416
 30
0.0
 11
340.487506306631
 21
111.8166799255983
 31
0.0
  0
LINE
  5
A9F
330
1F
100
AcDbEntity
  8
EBENE_1
 62
     0
100
AcDbLine
 10
336.4877504482562
 20
113.8169023643343
 30
0.0
 11
336.4877504482562
 21
139.8160044628693
 31
0.0
  0
LINE
  5
AA0
330
1F
100
AcDbEntity
  8
EBENE_1
 62
     0
100
AcDbLine
 10
336.4877504482562
 20
95.11554603220416
 30
0.0
 11
336.4877504482562
 21
111.8166799255983
 31
0.0
  0
LINE
  5
AA1
330
1F
100
AcDbEntity
  8
EBENE_1
 62
     0
100
AcDbLine
 10
334.4878725190684
 20
95.11623505130122
 30
0.0
 11
334.4878725190684
 21
127.8170813972926
 31
0.0
  0
LINE
  5
AA2
330
1F
100
AcDbEntity
  8
EBENE_1
 62
     0
100
AcDbLine
 10
334.4878725190684
 20
129.8166148169316
 30
0.0
 11
334.4878725190684
 21
139.8160044628693
 31
0.0
  0
LINE
  5
AB8
330
1F
100
AcDbEntity
  8
0
100
AcDbLine
 10
375.3625524133637
 20
98.21578745938049
 30
0.0
 11
375.3625524133637
 21
95.11623505130122
 31
0.0
  0
LINE
  5
AB9
330
1F
100
AcDbEntity
  8
0
100
AcDbLine
 10
375.3625524133637
 20
95.11623505130122
 30
0.0
 11
329.6127178978915
 21
95.11554603220416
 31
0.0
  0
LINE
  5
ABA
330
1F
100
AcDbEntity
  8
0
100
AcDbLine
 10
329.6127178978915
 20
95.11554603220416
 30
0.0
 11
329.6127178978915
 21
98.21613196892904
 31
0.0
  0
LINE
  5
ABB
330
1F
100
AcDbEntity
  8
0
100
AcDbLine
 10
329.6127178978915
 20
98.21613196892904
 30
0.0
 11
324.9129186369133
 21
98.21613196892904
 31
0.0
  0
LINE
  5
ABC
330
1F
100
AcDbEntity
  8
0
100
AcDbLine
 10
324.9129186369133
 20
98.21613196892904
 30
0.0
 11
324.9129186369133
 21
95.11554603220416
 31
0.0
  0
LINE
  5
ABD
330
1F
100
AcDbEntity
  8
0
100
AcDbLine
 10
324.9129640157367
 20
139.8160044628693
 30
0.0
 11
324.9129640157367
 21
136.7156044628693
 31
0.0
  0
LINE
  5
ABE
330
1F
100
AcDbEntity
  8
0
100
AcDbLine
 10
324.9129640157367
 20
136.7156044628693
 30
0.0
 11
329.6127640157366
 21
136.7156044628693
 31
0.0
  0
LINE
  5
ABF
330
1F
100
AcDbEntity
  8
0
100
AcDbLine
 10
329.6127640157366
 20
136.7156044628693
 30
0.0
 11
329.6127640157366
 21
139.8160044628693
 31
0.0
  0
LINE
  5
AC0
330
1F
100
AcDbEntity
  8
0
100
AcDbLine
 10
329.6127640157366
 20
139.8160044628693
 30
0.0
 11
375.3629640157366
 21
139.8160044628693
 31
0.0
  0
LINE
  5
AC1
330
1F
100
AcDbEntity
  8
0
100
AcDbLine
 10
375.3629640157366
 20
139.8160044628693
 30
0.0
 11
375.3629640157366
 21
136.7156044628693
 31
0.0
  0
LINE
  5
B4A
330
1F
100
AcDbEntity
  8
0
100
AcDbLine
 10
399.3261772806965
 20
140.1258903049007
 30
0.0
 11
399.3261839460262
 21
137.0263378968286
 31
0.0
  0
LINE
  5
B4B
330
1F
100
AcDbEntity
  8
0
100
AcDbLine
 10
399.3261839460262
 20
137.0263378968286
 30
0.0
 11
404.0259832069929
 21
137.0263480033561
 31
0.0
  0
LINE
  5
B4C
330
1F
100
AcDbEntity
  8
0
100
AcDbLine
 10
404.0259832069929
 20
137.0263480033561
 30
0.0
 11
404.0259765416632
 21
140.1259004114282
 31
0.0
  0
LINE
  5
B55
330
1F
100
AcDbEntity
  8
0
100
AcDbLine
 10
404.0256610624274
 20
95.42613099907825
 30
0.0
 11
404.0256543952751
 21
98.52653099907113
 31
0.0
  0
LINE
  5
B56
330
1F
100
AcDbEntity
  8
0
100
AcDbLine
 10
404.0256543952751
 20
98.52653099907113
 30
0.0
 11
399.325854395286
 21
98.52652089254204
 31
0.0
  0
LINE
  5
B57
330
1F
100
AcDbEntity
  8
0
100
AcDbLine
 10
399.325854395286
 20
98.52652089254204
 30
0.0
 11
399.3258610624386
 21
95.42612089254916
 31
0.0
  0
LINE
  5
B58
330
1F
100
AcDbEntity
  8
0
100
AcDbLine
 10
399.3258610624386
 20
95.42612089254916
 30
0.0
 11
394.4506610624386
 21
95.42612089254916
 31
0.0
  0
LINE
  5
B59
330
1F
100
AcDbEntity
  8
0
100
AcDbLine
 10
394.4506610624386
 20
95.42612089254916
 30
0.0
 11
394.4506610624386
 21
100.1262208925492
 31
0.0
  0
LINE
  5
B5A
330
1F
100
AcDbEntity
  8
0
100
AcDbLine
 10
394.4506610624386
 20
100.1262208925492
 30
0.0
 11
391.3504610624385
 21
100.1262208925492
 31
0.0
  0
LINE
  5
B5B
330
1F
100
AcDbEntity
  8
0
100
AcDbLine
 10
391.3504610624385
 20
100.1262208925492
 30
0.0
 11
391.3504610624385
 21
105.4261208925491
 31
0.0
  0
LINE
  5
B5C
330
1F
100
AcDbEntity
  8
0
100
AcDbLine
 10
391.3504610624385
 20
105.4261208925491
 30
0.0
 11
394.4506610624384
 21
105.4261208925491
 31
0.0
  0
LINE
  5
B5D
330
1F
100
AcDbEntity
  8
0
100
AcDbLine
 10
394.4506610624384
 20
105.4261208925491
 30
0.0
 11
394.4506610624384
 21
110.1259208925492
 31
0.0
  0
LINE
  5
B5E
330
1F
100
AcDbEntity
  8
0
100
AcDbLine
 10
394.4506610624384
 20
110.1259208925492
 30
0.0
 11
391.3504610624388
 21
110.1259208925492
 31
0.0
  0
LINE
  5
B5F
330
1F
100
AcDbEntity
  8
0
100
AcDbLine
 10
391.3504610624388
 20
110.1259208925492
 30
0.0
 11
391.3504610624388
 21
115.4262208925491
 31
0.0
  0
LINE
  5
B60
330
1F
100
AcDbEntity
  8
0
100
AcDbLine
 10
391.3504610624388
 20
115.4262208925491
 30
0.0
 11
394.4506610624384
 21
115.4262208925493
 31
0.0
  0
LINE
  5
B61
330
1F
100
AcDbEntity
  8
0
100
AcDbLine
 10
394.4506610624384
 20
115.4262208925493
 30
0.0
 11
394.4506610624384
 21
120.1263208925492
 31
0.0
  0
LINE
  5
B62
330
1F
100
AcDbEntity
  8
0
100
AcDbLine
 10
394.4506610624384
 20
120.1263208925492
 30
0.0
 11
391.3504610624388
 21
120.1263208925492
 31
0.0
  0
LINE
  5
B63
330
1F
100
AcDbEntity
  8
0
100
AcDbLine
 10
391.3504610624388
 20
120.1263208925492
 30
0.0
 11
391.3504610624388
 21
125.4262208925493
 31
0.0
  0
LINE
  5
B64
330
1F
100
AcDbEntity
  8
0
100
AcDbLine
 10
391.3504610624388
 20
125.4262208925493
 30
0.0
 11
394.4506610624384
 21
125.4262208925493
 31
0.0
  0
LINE
  5
B65
330
1F
100
AcDbEntity
  8
0
100
AcDbLine
 10
394.4506610624384
 20
125.4262208925493
 30
0.0
 11
394.4506610624384
 21
130.1260208925492
 31
0.0
  0
LINE
  5
B66
330
1F
100
AcDbEntity
  8
0
100
AcDbLine
 10
394.4506610624384
 20
130.1260208925492
 30
0.0
 11
391.3504610624388
 21
130.1260208925492
 31
0.0
  0
LINE
  5
B67
330
1F
100
AcDbEntity
  8
0
100
AcDbLine
 10
391.3504610624388
 20
130.1260208925492
 30
0.0
 11
391.3504610624388
 21
135.4263208925492
 31
0.0
  0
LINE
  5
B68
330
1F
100
AcDbEntity
  8
0
100
AcDbLine
 10
391.3504610624388
 20
135.4263208925492
 30
0.0
 11
394.4506610624384
 21
135.4263208925492
 31
0.0
  0
LINE
  5
B69
330
1F
100
AcDbEntity
  8
0
100
AcDbLine
 10
394.4506610624384
 20
135.4263208925492
 30
0.0
 11
394.4506610624384
 21
140.1264208925493
 31
0.0
  0
LINE
  5
B6A
330
1F
100
AcDbEntity
  8
0
100
AcDbLine
 10
399.3261772806965
 20
140.1258903049007
 30
0.0
 11
394.4509773095657
 21
140.1264208581331
 31
0.0
  0
SPLINE
  5
D11
330
1F
100
AcDbEntity
  8
EBENE_1
 62
     0
100
AcDbSpline
210
0.0
220
0.0
230
1.0
 70
    28
 71
     3
 72
     8
 73
     4
 74
     0
 42
0.000000001
 43
0.0000000001
 40
10.07080795935753
 40
10.07080795935753
 40
10.07080795935753
 40
10.07080795935753
 40
10.5707963267949
 40
10.5707963267949
 40
10.5707963267949
 40
10.5707963267949
 10
349.0776930285359
 20
192.9900362043276
 30
0.0
 41
1.0
 10
349.0776930285359
 20
192.9900362043276
 30
0.0
 41
1.0
 10
349.0776930285359
 20
189.9276610707697
 30
0.0
 41
1.0
 10
349.0776930285359
 20
186.8652146906708
 30
0.0
 41
1.0
  0
SPLINE
  5
D45
330
1F
100
AcDbEntity
  8
EBENE_1
 62
     0
100
AcDbSpline
210
0.0
220
0.0
230
1.0
 70
    28
 71
     3
 72
     8
 73
     4
 74
     0
 42
0.000000001
 43
0.0000000001
 40
10.07080795935753
 40
10.07080795935753
 40
10.07080795935753
 40
10.07080795935753
 40
10.5707963267949
 40
10.5707963267949
 40
10.5707963267949
 40
10.5707963267949
 10
616.8275628032652
 20
192.9900362043276
 30
0.0
 41
1.0
 10
616.8275628032652
 20
192.9900362043276
 30
0.0
 41
1.0
 10
616.8275628032652
 20
189.9276610707697
 30
0.0
 41
1.0
 10
616.8275628032652
 20
186.8652146906708
 30
0.0
 41
1.0
  0
LINE
  5
DAB
330
1F
100
AcDbEntity
  8
0
100
AcDbLine
 10
380.0627186369135
 20
139.8160044628693
 30
0.0
 11
388.0377023438715
 21
139.8160044628693
 31
0.0
  0
LINE
  5
DAC
330
1F
100
AcDbEntity
  8
0
100
AcDbLine
 10
388.0377023438715
 20
139.8160044628693
 30
0.0
 11
388.0377023438715
 21
134.8157928755778
 31
0.0
  0
LINE
  5
DAD
330
1F
100
AcDbEntity
  8
0
100
AcDbLine
 10
388.0377023438715
 20
134.8157928755778
 30
0.0
 11
384.9374609166954
 21
134.8157928755778
 31
0.0
  0
LINE
  5
DAE
330
1F
100
AcDbEntity
  8
0
100
AcDbLine
 10
384.9374609166954
 20
134.8157928755778
 30
0.0
 11
384.9374609166954
 21
130.1156491050513
 31
0.0
  0
LINE
  5
DAF
330
1F
100
AcDbEntity
  8
0
100
AcDbLine
 10
384.9374609166954
 20
130.1156491050513
 30
0.0
 11
388.0377023438715
 21
130.1156491050513
 31
0.0
  0
LINE
  5
DB0
330
1F
100
AcDbEntity
  8
0
100
AcDbLine
 10
388.0377023438715
 20
130.1156491050513
 30
0.0
 11
388.0377023438715
 21
124.815714210543
 31
0.0
  0
LINE
  5
DB1
330
1F
100
AcDbEntity
  8
0
100
AcDbLine
 10
388.0377023438715
 20
124.815714210543
 30
0.0
 11
384.9374609166954
 21
124.815714210543
 31
0.0
  0
LINE
  5
DB2
330
1F
100
AcDbEntity
  8
0
100
AcDbLine
 10
384.9374609166954
 20
124.815714210543
 30
0.0
 11
384.9374609166954
 21
120.1159149495651
 31
0.0
  0
LINE
  5
DB3
330
1F
100
AcDbEntity
  8
0
100
AcDbLine
 10
384.9374609166954
 20
120.1159149495651
 30
0.0
 11
388.0377023438715
 21
120.1159149495651
 31
0.0
  0
LINE
  5
DB4
330
1F
100
AcDbEntity
  8
0
100
AcDbLine
 10
388.0377023438715
 20
120.1159149495651
 30
0.0
 11
388.0377023438715
 21
114.8156355455082
 31
0.0
  0
LINE
  5
DB5
330
1F
100
AcDbEntity
  8
0
100
AcDbLine
 10
388.0377023438715
 20
114.8156355455082
 30
0.0
 11
384.9374609166954
 21
114.8156355455082
 31
0.0
  0
LINE
  5
DB6
330
1F
100
AcDbEntity
  8
0
100
AcDbLine
 10
384.9374609166954
 20
114.8156355455082
 30
0.0
 11
384.9374609166954
 21
110.1154917749819
 31
0.0
  0
LINE
  5
DB7
330
1F
100
AcDbEntity
  8
0
100
AcDbLine
 10
384.9374609166954
 20
110.1154917749819
 30
0.0
 11
388.0377023438715
 21
110.1154917749819
 31
0.0
  0
LINE
  5
DB8
330
1F
100
AcDbEntity
  8
0
100
AcDbLine
 10
388.0377023438715
 20
110.1154917749819
 30
0.0
 11
388.0377023438715
 21
104.8155568804736
 31
0.0
  0
LINE
  5
DB9
330
1F
100
AcDbEntity
  8
0
100
AcDbLine
 10
388.0377023438715
 20
104.8155568804736
 30
0.0
 11
384.9374609166954
 21
104.8155568804736
 31
0.0
  0
LINE
  5
DBA
330
1F
100
AcDbEntity
  8
0
100
AcDbLine
 10
384.9374609166954
 20
104.8155568804736
 30
0.0
 11
384.9374609166954
 21
100.1157576194957
 31
0.0
  0
LINE
  5
DBB
330
1F
100
AcDbEntity
  8
0
100
AcDbLine
 10
384.9374609166954
 20
100.1157576194957
 30
0.0
 11
388.0377023438715
 21
100.1157576194957
 31
0.0
  0
LINE
  5
DBC
330
1F
100
AcDbEntity
  8
0
100
AcDbLine
 10
388.0377023438715
 20
100.1157576194957
 30
0.0
 11
388.0377023438715
 21
95.11623505130122
 31
0.0
  0
LINE
  5
DBD
330
1F
100
AcDbEntity
  8
0
100
AcDbLine
 10
388.0377023438715
 20
95.11623505130122
 30
0.0
 11
380.062306295518
 21
95.11623505130122
 31
0.0
  0
LINE
  5
DBE
330
1F
100
AcDbEntity
  8
0
100
AcDbLine
 10
380.062306295518
 20
95.11623505130122
 30
0.0
 11
380.062306295518
 21
98.21578745938049
 31
0.0
  0
LINE
  5
DBF
330
1F
100
AcDbEntity
  8
0
100
AcDbLine
 10
380.062306295518
 20
98.21578745938049
 30
0.0
 11
375.3625070345403
 21
98.21578745938049
 31
0.0
  0
LINE
  5
DC0
330
1F
100
AcDbEntity
  8
0
100
AcDbLine
 10
375.3625070345403
 20
98.21578745938049
 30
0.0
 11
375.3625070345403
 21
95.11623505130122
 31
0.0
  0
LINE
  5
DC1
330
1F
100
AcDbEntity
  8
0
100
AcDbLine
 10
375.3629186369134
 20
139.8160044628693
 30
0.0
 11
375.3629186369134
 21
136.7156044628693
 31
0.0
  0
LINE
  5
DC2
330
1F
100
AcDbEntity
  8
0
100
AcDbLine
 10
375.3629186369134
 20
136.7156044628693
 30
0.0
 11
380.0627186369135
 21
136.7156044628693
 31
0.0
  0
LINE
  5
DC3
330
1F
100
AcDbEntity
  8
0
100
AcDbLine
 10
380.0627186369135
 20
136.7156044628693
 30
0.0
 11
380.0627186369135
 21
139.8160044628693
 31
0.0
  0
LINE
  5
DC4
330
1F
100
AcDbEntity
  8
0
100
AcDbLine
 10
404.0256610624274
 20
95.42613099907825
 30
0.0
 11
454.0256610624274
 21
95.42613099907825
 31
0.0
  0
LINE
  5
DC5
330
1F
100
AcDbEntity
  8
0
100
AcDbLine
 10
404.0259765416632
 20
140.1259004114282
 30
0.0
 11
454.0259765416632
 21
140.1259004114282
 31
0.0
  0
LINE
  5
DC6
330
1F
100
AcDbEntity
  8
0
100
AcDbLine
 10
508.7251448441588
 20
140.1258903049007
 30
0.0
 11
508.725138178829
 21
137.0263378968286
 31
0.0
  0
LINE
  5
DC7
330
1F
100
AcDbEntity
  8
0
100
AcDbLine
 10
508.725138178829
 20
137.0263378968286
 30
0.0
 11
504.0253389178623
 21
137.0263480033561
 31
0.0
  0
LINE
  5
DC8
330
1F
100
AcDbEntity
  8
0
100
AcDbLine
 10
504.0253389178623
 20
137.0263480033561
 30
0.0
 11
504.025345583192
 21
140.1259004114282
 31
0.0
  0
LINE
  5
DC9
330
1F
100
AcDbEntity
  8
0
100
AcDbLine
 10
504.0256610624277
 20
95.42613099907825
 30
0.0
 11
504.02566772958
 21
98.52653099907113
 31
0.0
  0
LINE
  5
DCA
330
1F
100
AcDbEntity
  8
0
100
AcDbLine
 10
504.02566772958
 20
98.52653099907113
 30
0.0
 11
508.7254677295692
 21
98.52652089254204
 31
0.0
  0
LINE
  5
DCB
330
1F
100
AcDbEntity
  8
0
100
AcDbLine
 10
508.7254677295692
 20
98.52652089254204
 30
0.0
 11
508.7254610624166
 21
95.42612089254916
 31
0.0
  0
LINE
  5
DCC
330
1F
100
AcDbEntity
  8
0
100
AcDbLine
 10
508.7254610624166
 20
95.42612089254916
 30
0.0
 11
513.6006610624166
 21
95.42612089254916
 31
0.0
  0
LINE
  5
DCD
330
1F
100
AcDbEntity
  8
0
100
AcDbLine
 10
513.6006610624166
 20
95.42612089254916
 30
0.0
 11
513.6006610624166
 21
100.1262208925492
 31
0.0
  0
LINE
  5
DCE
330
1F
100
AcDbEntity
  8
0
100
AcDbLine
 10
513.6006610624166
 20
100.1262208925492
 30
0.0
 11
516.7008610624167
 21
100.1262208925492
 31
0.0
  0
LINE
  5
DCF
330
1F
100
AcDbEntity
  8
0
100
AcDbLine
 10
516.7008610624167
 20
100.1262208925492
 30
0.0
 11
516.7008610624167
 21
105.4261208925491
 31
0.0
  0
LINE
  5
DD0
330
1F
100
AcDbEntity
  8
0
100
AcDbLine
 10
516.7008610624167
 20
105.4261208925491
 30
0.0
 11
513.6006610624169
 21
105.4261208925491
 31
0.0
  0
LINE
  5
DD1
330
1F
100
AcDbEntity
  8
0
100
AcDbLine
 10
513.6006610624169
 20
105.4261208925491
 30
0.0
 11
513.6006610624169
 21
110.1259208925492
 31
0.0
  0
LINE
  5
DD2
330
1F
100
AcDbEntity
  8
0
100
AcDbLine
 10
513.6006610624169
 20
110.1259208925492
 30
0.0
 11
516.7008610624164
 21
110.1259208925492
 31
0.0
  0
LINE
  5
DD3
330
1F
100
AcDbEntity
  8
0
100
AcDbLine
 10
516.7008610624164
 20
110.1259208925492
 30
0.0
 11
516.7008610624164
 21
115.4262208925491
 31
0.0
  0
LINE
  5
DD4
330
1F
100
AcDbEntity
  8
0
100
AcDbLine
 10
516.7008610624164
 20
115.4262208925491
 30
0.0
 11
513.6006610624169
 21
115.4262208925493
 31
0.0
  0
LINE
  5
DD5
330
1F
100
AcDbEntity
  8
0
100
AcDbLine
 10
513.6006610624169
 20
115.4262208925493
 30
0.0
 11
513.6006610624169
 21
120.1263208925492
 31
0.0
  0
LINE
  5
DD6
330
1F
100
AcDbEntity
  8
0
100
AcDbLine
 10
513.6006610624169
 20
120.1263208925492
 30
0.0
 11
516.7008610624164
 21
120.1263208925492
 31
0.0
  0
LINE
  5
DD7
330
1F
100
AcDbEntity
  8
0
100
AcDbLine
 10
516.7008610624164
 20
120.1263208925492
 30
0.0
 11
516.7008610624164
 21
125.4262208925493
 31
0.0
  0
LINE
  5
DD8
330
1F
100
AcDbEntity
  8
0
100
AcDbLine
 10
516.7008610624164
 20
125.4262208925493
 30
0.0
 11
513.6006610624169
 21
125.4262208925493
 31
0.0
  0
LINE
  5
DD9
330
1F
100
AcDbEntity
  8
0
100
AcDbLine
 10
513.6006610624169
 20
125.4262208925493
 30
0.0
 11
513.6006610624169
 21
130.1260208925492
 31
0.0
  0
LINE
  5
DDA
330
1F
100
AcDbEntity
  8
0
100
AcDbLine
 10
513.6006610624169
 20
130.1260208925492
 30
0.0
 11
516.7008610624164
 21
130.1260208925492
 31
0.0
  0
LINE
  5
DDB
330
1F
100
AcDbEntity
  8
0
100
AcDbLine
 10
516.7008610624164
 20
130.1260208925492
 30
0.0
 11
516.7008610624164
 21
135.4263208925492
 31
0.0
  0
LINE
  5
DDC
330
1F
100
AcDbEntity
  8
0
100
AcDbLine
 10
516.7008610624164
 20
135.4263208925492
 30
0.0
 11
513.6006610624169
 21
135.4263208925492
 31
0.0
  0
LINE
  5
DDD
330
1F
100
AcDbEntity
  8
0
100
AcDbLine
 10
513.6006610624169
 20
135.4263208925492
 30
0.0
 11
513.6006610624169
 21
140.1264208925493
 31
0.0
  0
LINE
  5
DDE
330
1F
100
AcDbEntity
  8
0
100
AcDbLine
 10
508.7251448441588
 20
140.1258903049007
 30
0.0
 11
513.6003448152895
 21
140.1264208581331
 31
0.0
  0
LINE
  5
DDF
330
1F
100
AcDbEntity
  8
0
100
AcDbLine
 10
504.0256610624277
 20
95.42613099907825
 30
0.0
 11
454.0256610624274
 21
95.42613099907825
 31
0.0
  0
LINE
  5
DE0
330
1F
100
AcDbEntity
  8
0
100
AcDbLine
 10
504.025345583192
 20
140.1259004114282
 30
0.0
 11
454.025345583192
 21
140.1259004114282
 31
0.0
  0
LINE
  5
DE8
330
1F
100
AcDbEntity
  8
0
100
AcDbLine
 10
124.9128732580902
 20
139.8160044628693
 30
0.0
 11
169.5825732580901
 21
139.8160044628693
 31
0.0
  0
LINE
  5
DE9
330
1F
100
AcDbEntity
  8
0
100
AcDbLine
 10
169.5825732580901
 20
139.8160044628693
 30
0.0
 11
169.5825732580902
 21
136.7156044628693
 31
0.0
  0
LINE
  5
DEA
330
1F
100
AcDbEntity
  8
0
100
AcDbLine
 10
169.5825732580902
 20
136.7156044628693
 30
0.0
 11
174.2823732580902
 21
136.7156044628693
 31
0.0
  0
LINE
  5
DEB
330
1F
100
AcDbEntity
  8
0
100
AcDbLine
 10
174.2823732580902
 20
136.7156044628693
 30
0.0
 11
174.2823732580902
 21
139.8160044628693
 31
0.0
  0
LINE
  5
DEC
330
1F
100
AcDbEntity
  8
0
100
AcDbLine
 10
174.2823732580902
 20
139.8160044628693
 30
0.0
 11
275.5432732580904
 21
139.8160044628693
 31
0.0
  0
SPLINE
  5
DF8
330
1F
100
AcDbEntity
  8
EBENE_1
 62
     0
100
AcDbSpline
210
0.0
220
0.0
230
1.0
 70
    28
 71
     3
 72
     8
 73
     4
 74
     0
 42
0.000000001
 43
0.0000000001
 40
10.07080795935753
 40
10.07080795935753
 40
10.07080795935753
 40
10.07080795935753
 40
10.5707963267949
 40
10.5707963267949
 40
10.5707963267949
 40
10.5707963267949
 10
349.0776930285359
 20
303.5890509950688
 30
0.0
 41
1.0
 10
349.0776930285359
 20
303.5890509950688
 30
0.0
 41
1.0
 10
349.0776930285359
 20
306.6514261286266
 30
0.0
 41
1.0
 10
349.0776930285359
 20
309.7138725087256
 30
0.0
 41
1.0
  0
SPLINE
  5
E04
330
1F
100
AcDbEntity
  8
EBENE_1
 62
     0
100
AcDbSpline
210
0.0
220
0.0
230
1.0
 70
    28
 71
     3
 72
     8
 73
     4
 74
     0
 42
0.000000001
 43
0.0000000001
 40
10.07080795935753
 40
10.07080795935753
 40
10.07080795935753
 40
10.07080795935753
 40
10.5707963267949
 40
10.5707963267949
 40
10.5707963267949
 40
10.5707963267949
 10
616.8275628032652
 20
303.5890509950688
 30
0.0
 41
1.0
 10
616.8275628032652
 20
303.5890509950688
 30
0.0
 41
1.0
 10
616.8275628032652
 20
306.6514261286266
 30
0.0
 41
1.0
 10
616.8275628032652
 20
309.7138725087256
 30
0.0
 41
1.0
  0
SPLINE
  5
E08
330
1F
100
AcDbEntity
  8
EBENE_1
 62
     0
100
AcDbSpline
210
0.0
220
0.0
230
1.0
 70
    28
 71
     3
 72
     8
 73
     4
 74
     0
 42
0.000000001
 43
0.0000000001
 40
3.500011632562635
 40
3.500011632562635
 40
3.500011632562635
 40
3.500011632562635
 40
4.500011632562635
 40
4.500011632562635
 40
4.500011632562635
 40
4.500011632562635
 10
588.2529073199573
 20
349.7140564088847
 30
0.0
 41
1.0
 10
588.2529073199573
 20
349.7140564088847
 30
0.0
 41
1.0
 10
591.3627950144924
 20
349.7140564088847
 30
0.0
 41
1.0
 10
591.3627950144924
 20
349.7140564088847
 30
0.0
 41
1.0
  0
SPLINE
  5
E28
330
1F
100
AcDbEntity
  8
EBENE_1
 62
     0
100
AcDbSpline
210
0.0
220
0.0
230
1.0
 70
    28
 71
     3
 72
     8
 73
     4
 74
     0
 42
0.000000001
 43
0.0000000001
 40
0.0
 40
0.0
 40
0.0
 40
0.0
 40
1.0
 40
1.0
 40
1.0
 40
1.0
 10
432.9526279159004
 20
352.7633104228794
 30
0.0
 41
1.0
 10
432.9526279159004
 20
352.7633104228794
 30
0.0
 41
1.0
 10
432.9526279159004
 20
349.7140564088847
 30
0.0
 41
1.0
 10
432.9526279159004
 20
349.7140564088847
 30
0.0
 41
1.0
  0
SPLINE
  5
E29
330
1F
100
AcDbEntity
  8
EBENE_1
 62
     0
100
AcDbSpline
210
0.0
220
0.0
230
1.0
 70
    28
 71
     3
 72
     8
 73
     4
 74
     0
 42
0.000000001
 43
0.0000000001
 40
1.0
 40
1.0
 40
1.0
 40
1.0
 40
2.0
 40
2.0
 40
2.0
 40
2.0
 10
432.9526279159004
 20
349.7140564088847
 30
0.0
 41
1.0
 10
466.2859612492338
 20
349.7140564088847
 30
0.0
 41
1.0
 10
499.6192945825672
 20
349.7140564088847
 30
0.0
 41
1.0
 10
532.9526279159006
 20
349.7140564088847
 30
0.0
 41
1.0
  0
SPLINE
  5
E2A
330
1F
100
AcDbEntity
  8
EBENE_1
 62
     0
100
AcDbSpline
210
0.0
220
0.0
230
1.0
 70
    28
 71
     3
 72
     8
 73
     4
 74
     0
 42
0.000000001
 43
0.0000000001
 40
2.0
 40
2.0
 40
2.0
 40
2.0
 40
3.0
 40
3.0
 40
3.0
 40
3.0
 10
532.9526279159006
 20
349.7140564088847
 30
0.0
 41
1.0
 10
532.9526279159004
 20
349.7140564088847
 30
0.0
 41
1.0
 10
532.9526279159004
 20
352.7633104228794
 30
0.0
 41
1.0
 10
532.9526279159004
 20
352.7633104228794
 30
0.0
 41
1.0
  0
SPLINE
  5
E2B
330
1F
100
AcDbEntity
  8
EBENE_1
 62
     0
100
AcDbSpline
210
0.0
220
0.0
230
1.0
 70
    28
 71
     3
 72
     8
 73
     4
 74
     0
 42
0.000000001
 43
0.0000000001
 40
3.0
 40
3.0
 40
3.0
 40
3.0
 40
4.0
 40
4.0
 40
4.0
 40
4.0
 10
532.9526279159004
 20
352.7633104228794
 30
0.0
 41
1.0
 10
532.9526279159004
 20
352.7633104228794
 30
0.0
 41
1.0
 10
538.2529073199573
 20
352.7633104228794
 30
0.0
 41
1.0
 10
538.2529073199573
 20
352.7633104228794
 30
0.0
 41
1.0
  0
SPLINE
  5
E2C
330
1F
100
AcDbEntity
  8
EBENE_1
 62
     0
100
AcDbSpline
210
0.0
220
0.0
230
1.0
 70
    28
 71
     3
 72
     8
 73
     4
 74
     0
 42
0.000000001
 43
0.0000000001
 40
4.0
 40
4.0
 40
4.0
 40
4.0
 40
5.0
 40
5.0
 40
5.0
 40
5.0
 10
538.2529073199573
 20
352.7633104228794
 30
0.0
 41
1.0
 10
538.2529073199573
 20
351.7468924182147
 30
0.0
 41
1.0
 10
538.2529073199573
 20
350.7304744135498
 30
0.0
 41
1.0
 10
538.2529073199573
 20
349.714056408885
 30
0.0
 41
1.0
  0
SPLINE
  5
E2D
330
1F
100
AcDbEntity
  8
EBENE_1
 62
     0
100
AcDbSpline
210
0.0
220
0.0
230
1.0
 70
    28
 71
     3
 72
     8
 73
     4
 74
     0
 42
0.000000001
 43
0.0000000001
 40
5.0
 40
5.0
 40
5.0
 40
5.0
 40
6.0
 40
6.0
 40
6.0
 40
6.0
 10
538.2529073199573
 20
349.714056408885
 30
0.0
 41
1.0
 10
538.2529073199573
 20
349.7140564088847
 30
0.0
 41
1.0
 10
541.3627950144924
 20
349.7140564088847
 30
0.0
 41
1.0
 10
541.3627950144924
 20
349.7140564088847
 30
0.0
 41
1.0
  0
SPLINE
  5
E2E
330
1F
100
AcDbEntity
  8
EBENE_1
 62
     0
100
AcDbSpline
210
0.0
220
0.0
230
1.0
 70
    28
 71
     3
 72
     8
 73
     4
 74
     0
 42
0.000000001
 43
0.0000000001
 40
0.0
 40
0.0
 40
0.0
 40
0.0
 40
1.0
 40
1.0
 40
1.0
 40
1.0
 10
432.9526279159004
 20
352.7633104228794
 30
0.0
 41
1.0
 10
432.9526279159004
 20
352.7633104228794
 30
0.0
 41
1.0
 10
427.6523485118437
 20
352.7633104228794
 30
0.0
 41
1.0
 10
427.6523485118437
 20
352.7633104228794
 30
0.0
 41
1.0
  0
SPLINE
  5
E2F
330
1F
100
AcDbEntity
  8
EBENE_1
 62
     0
100
AcDbSpline
210
0.0
220
0.0
230
1.0
 70
    28
 71
     3
 72
     8
 73
     4
 74
     0
 42
0.000000001
 43
0.0000000001
 40
1.0
 40
1.0
 40
1.0
 40
1.0
 40
2.0
 40
2.0
 40
2.0
 40
2.0
 10
427.6523485118437
 20
352.7633104228794
 30
0.0
 41
1.0
 10
427.6523485118437
 20
351.7468924182147
 30
0.0
 41
1.0
 10
427.6523485118437
 20
350.7304744135498
 30
0.0
 41
1.0
 10
427.6523485118437
 20
349.714056408885
 30
0.0
 41
1.0
  0
SPLINE
  5
E30
330
1F
100
AcDbEntity
  8
EBENE_1
 62
     0
100
AcDbSpline
210
0.0
220
0.0
230
1.0
 70
    28
 71
     3
 72
     8
 73
     4
 74
     0
 42
0.000000001
 43
0.0000000001
 40
2.0
 40
2.0
 40
2.0
 40
2.0
 40
3.0
 40
3.0
 40
3.0
 40
3.0
 10
427.6523485118437
 20
349.714056408885
 30
0.0
 41
1.0
 10
427.6523485118437
 20
349.7140564088847
 30
0.0
 41
1.0
 10
424.5424608173086
 20
349.7140564088847
 30
0.0
 41
1.0
 10
424.5424608173086
 20
349.7140564088847
 30
0.0
 41
1.0
  0
SPLINE
  5
E31
330
1F
100
AcDbEntity
  8
EBENE_1
 62
     0
100
AcDbSpline
210
0.0
220
0.0
230
1.0
 70
    28
 71
     3
 72
     8
 73
     4
 74
     0
 42
0.000000001
 43
0.0000000001
 40
0.0
 40
0.0
 40
0.0
 40
0.0
 40
1.0
 40
1.0
 40
1.0
 40
1.0
 10
616.8275628032652
 20
198.2895435996982
 30
0.0
 41
1.0
 10
616.8275628032652
 20
198.2895435996982
 30
0.0
 41
1.0
 10
619.8771613268081
 20
198.2895435996982
 30
0.0
 41
1.0
 10
619.8771613268081
 20
198.2895435996982
 30
0.0
 41
1.0
  0
SPLINE
  5
E32
330
1F
100
AcDbEntity
  8
EBENE_1
 62
     0
100
AcDbSpline
210
0.0
220
0.0
230
1.0
 70
    28
 71
     3
 72
     8
 73
     4
 74
     0
 42
0.000000001
 43
0.0000000001
 40
1.0
 40
1.0
 40
1.0
 40
1.0
 40
2.0
 40
2.0
 40
2.0
 40
2.0
 10
619.8771613268081
 20
198.2895435996982
 30
0.0
 41
1.0
 10
619.8771613268081
 20
198.2895435996982
 30
0.0
 41
1.0
 10
616.8275628032652
 20
198.2895435996982
 30
0.0
 41
1.0
 10
616.8275628032652
 20
198.2895435996982
 30
0.0
 41
1.0
  0
SPLINE
  5
E33
330
1F
100
AcDbEntity
  8
EBENE_1
 62
     0
100
AcDbSpline
210
0.0
220
0.0
230
1.0
 70
    28
 71
     3
 72
    11
 73
     7
 74
     0
 42
0.000000001
 43
0.0000000001
 40
2.0
 40
2.0
 40
2.0
 40
2.0
 40
3.0
 40
3.0
 40
3.0
 40
4.0
 40
4.0
 40
4.0
 40
4.0
 10
616.8275628032652
 20
198.2895435996982
 30
0.0
 41
1.0
 10
616.8275628032652
 20
214.9562102663649
 30
0.0
 41
1.0
 10
616.8275628032652
 20
231.6228769330316
 30
0.0
 41
1.0
 10
616.8275628032652
 20
248.2895435996983
 30
0.0
 41
1.0
 10
616.8275628032652
 20
264.9562102663647
 30
0.0
 41
1.0
 10
616.8275628032652
 20
281.6228769330313
 30
0.0
 41
1.0
 10
616.8275628032652
 20
298.289543599698
 30
0.0
 41
1.0
  0
SPLINE
  5
E34
330
1F
100
AcDbEntity
  8
EBENE_1
 62
     0
100
AcDbSpline
210
0.0
220
0.0
230
1.0
 70
    28
 71
     3
 72
     8
 73
     4
 74
     0
 42
0.000000001
 43
0.0000000001
 40
4.0
 40
4.0
 40
4.0
 40
4.0
 40
5.0
 40
5.0
 40
5.0
 40
5.0
 10
616.8275628032652
 20
298.289543599698
 30
0.0
 41
1.0
 10
616.8275628032652
 20
298.289543599698
 30
0.0
 41
1.0
 10
619.8771613268081
 20
298.289543599698
 30
0.0
 41
1.0
 10
619.8771613268081
 20
298.289543599698
 30
0.0
 41
1.0
  0
SPLINE
  5
E35
330
1F
100
AcDbEntity
  8
EBENE_1
 62
     0
100
AcDbSpline
210
0.0
220
0.0
230
1.0
 70
    28
 71
     3
 72
     8
 73
     4
 74
     0
 42
0.000000001
 43
0.0000000001
 40
5.0
 40
5.0
 40
5.0
 40
5.0
 40
6.0
 40
6.0
 40
6.0
 40
6.0
 10
619.8771613268081
 20
298.289543599698
 30
0.0
 41
1.0
 10
619.8771613268081
 20
298.289543599698
 30
0.0
 41
1.0
 10
616.8275628032652
 20
298.289543599698
 30
0.0
 41
1.0
 10
616.8275628032652
 20
298.289543599698
 30
0.0
 41
1.0
  0
SPLINE
  5
E36
330
1F
100
AcDbEntity
  8
EBENE_1
 62
     0
100
AcDbSpline
210
0.0
220
0.0
230
1.0
 70
    28
 71
     3
 72
     8
 73
     4
 74
     0
 42
0.000000001
 43
0.0000000001
 40
0.0
 40
0.0
 40
0.0
 40
0.0
 40
1.0
 40
1.0
 40
1.0
 40
1.0
 10
619.8771613268081
 20
298.289543599698
 30
0.0
 41
1.0
 10
619.8771613268081
 20
298.289543599698
 30
0.0
 41
1.0
 10
619.8771613268081
 20
303.5894784942064
 30
0.0
 41
1.0
 10
619.8771613268081
 20
303.5894784942064
 30
0.0
 41
1.0
  0
SPLINE
  5
E37
330
1F
100
AcDbEntity
  8
EBENE_1
 62
     0
100
AcDbSpline
210
0.0
220
0.0
230
1.0
 70
    28
 71
     3
 72
     8
 73
     4
 74
     0
 42
0.000000001
 43
0.0000000001
 40
1.0
 40
1.0
 40
1.0
 40
1.0
 40
2.0
 40
2.0
 40
2.0
 40
2.0
 10
619.8771613268081
 20
303.5894784942064
 30
0.0
 41
1.0
 10
619.8771613268081
 20
303.5894784942064
 30
0.0
 41
1.0
 10
616.8275628032652
 20
303.5894784942064
 30
0.0
 41
1.0
 10
616.8275628032652
 20
303.5894784942064
 30
0.0
 41
1.0
  0
SPLINE
  5
E38
330
1F
100
AcDbEntity
  8
EBENE_1
 62
     0
100
AcDbSpline
210
0.0
220
0.0
230
1.0
 70
    12
 71
     3
 72
     8
 73
     4
 74
     0
 42
0.000000001
 43
0.0000000001
 40
0.0
 40
0.0
 40
0.0
 40
0.0
 40
1.570796326794894
 40
1.570796326794894
 40
1.570796326794894
 40
1.570796326794894
 10
591.3627950144924
 20
349.7140564088847
 30
0.0
 41
1.0
 10
606.2797106224738
 20
349.7140564088847
 30
0.0
 41
0.8047378541243649
 10
616.8275628032651
 20
339.1662042280935
 30
0.0
 41
0.8047378541243649
 10
616.8275628032651
 20
324.249288620112
 30
0.0
 41
0.9999999999999998
  0
SPLINE
  5
E39
330
1F
100
AcDbEntity
  8
EBENE_1
 62
     0
100
AcDbSpline
210
0.0
220
0.0
230
1.0
 70
    28
 71
     3
 72
     8
 73
     4
 74
     0
 42
0.000000001
 43
0.0000000001
 40
1.570796326794894
 40
1.570796326794894
 40
1.570796326794894
 40
1.570796326794894
 40
2.570796326794894
 40
2.570796326794894
 40
2.570796326794894
 40
2.570796326794894
 10
616.8275628032651
 20
324.249288620112
 30
0.0
 41
0.9999999999999998
 10
616.8275628032652
 20
324.249288620112
 30
0.0
 41
1.0
 10
616.8275628032652
 20
321.1390564160284
 30
0.0
 41
1.0
 10
616.8275628032652
 20
321.1390564160284
 30
0.0
 41
1.0
  0
SPLINE
  5
E3A
330
1F
100
AcDbEntity
  8
EBENE_1
 62
     0
100
AcDbSpline
210
0.0
220
0.0
230
1.0
 70
    28
 71
     3
 72
     8
 73
     4
 74
     0
 42
0.000000001
 43
0.0000000001
 40
2.570796326794894
 40
2.570796326794894
 40
2.570796326794894
 40
2.570796326794894
 40
3.570796326794894
 40
3.570796326794894
 40
3.570796326794894
 40
3.570796326794894
 10
616.8275628032652
 20
321.1390564160284
 30
0.0
 41
1.0
 10
616.8275628032652
 20
321.1390564160284
 30
0.0
 41
1.0
 10
619.8771613268081
 20
321.1390564160284
 30
0.0
 41
1.0
 10
619.8771613268081
 20
321.1390564160284
 30
0.0
 41
1.0
  0
SPLINE
  5
E3B
330
1F
100
AcDbEntity
  8
EBENE_1
 62
     0
100
AcDbSpline
210
0.0
220
0.0
230
1.0
 70
    28
 71
     3
 72
     8
 73
     4
 74
     0
 42
0.000000001
 43
0.0000000001
 40
3.570796326794894
 40
3.570796326794894
 40
3.570796326794894
 40
3.570796326794894
 40
4.570796326794894
 40
4.570796326794894
 40
4.570796326794894
 40
4.570796326794894
 10
619.8771613268081
 20
321.1390564160284
 30
0.0
 41
1.0
 10
619.8771613268081
 20
321.1390564160284
 30
0.0
 41
1.0
 10
619.8771613268081
 20
315.83912152152
 30
0.0
 41
1.0
 10
619.8771613268081
 20
315.83912152152
 30
0.0
 41
1.0
  0
SPLINE
  5
E3C
330
1F
100
AcDbEntity
  8
EBENE_1
 62
     0
100
AcDbSpline
210
0.0
220
0.0
230
1.0
 70
    28
 71
     3
 72
     8
 73
     4
 74
     0
 42
0.000000001
 43
0.0000000001
 40
4.570796326794894
 40
4.570796326794894
 40
4.570796326794894
 40
4.570796326794894
 40
5.570796326794894
 40
5.570796326794894
 40
5.570796326794894
 40
5.570796326794894
 10
619.8771613268081
 20
315.83912152152
 30
0.0
 41
1.0
 10
619.8771613268081
 20
315.83912152152
 30
0.0
 41
1.0
 10
616.8275628032652
 20
315.83912152152
 30
0.0
 41
1.0
 10
616.8275628032652
 20
315.83912152152
 30
0.0
 41
1.0
  0
SPLINE
  5
E3D
330
1F
100
AcDbEntity
  8
EBENE_1
 62
     0
100
AcDbSpline
210
0.0
220
0.0
230
1.0
 70
    28
 71
     3
 72
     8
 73
     4
 74
     0
 42
0.000000001
 43
0.0000000001
 40
5.570796326794894
 40
5.570796326794894
 40
5.570796326794894
 40
5.570796326794894
 40
6.070784694232264
 40
6.070784694232264
 40
6.070784694232264
 40
6.070784694232264
 10
616.8275628032652
 20
315.83912152152
 30
0.0
 41
1.0
 10
616.8275628032652
 20
315.83912152152
 30
0.0
 41
1.0
 10
616.8275628032652
 20
312.7767463879623
 30
0.0
 41
1.0
 10
616.8275628032652
 20
309.7143000078633
 30
0.0
 41
1.0
  0
SPLINE
  5
E3E
330
1F
100
AcDbEntity
  8
EBENE_1
 62
     0
100
AcDbSpline
210
0.0
220
0.0
230
1.0
 70
    28
 71
     3
 72
     8
 73
     4
 74
     0
 42
0.000000001
 43
0.0000000001
 40
0.0
 40
0.0
 40
0.0
 40
0.0
 40
1.0
 40
1.0
 40
1.0
 40
1.0
 10
588.2529073199573
 20
352.7633104228794
 30
0.0
 41
1.0
 10
588.2529073199573
 20
352.7633104228794
 30
0.0
 41
1.0
 10
582.9526279159004
 20
352.7633104228794
 30
0.0
 41
1.0
 10
582.9526279159004
 20
352.7633104228794
 30
0.0
 41
1.0
  0
SPLINE
  5
E3F
330
1F
100
AcDbEntity
  8
EBENE_1
 62
     0
100
AcDbSpline
210
0.0
220
0.0
230
1.0
 70
    28
 71
     3
 72
     8
 73
     4
 74
     0
 42
0.000000001
 43
0.0000000001
 40
1.0
 40
1.0
 40
1.0
 40
1.0
 40
2.0
 40
2.0
 40
2.0
 40
2.0
 10
582.9526279159004
 20
352.7633104228794
 30
0.0
 41
1.0
 10
582.9526279159004
 20
352.7633104228794
 30
0.0
 41
1.0
 10
582.9526279159004
 20
349.7140564088847
 30
0.0
 41
1.0
 10
582.9526279159004
 20
349.7140564088847
 30
0.0
 41
1.0
  0
SPLINE
  5
E40
330
1F
100
AcDbEntity
  8
EBENE_1
 62
     0
100
AcDbSpline
210
0.0
220
0.0
230
1.0
 70
    28
 71
     3
 72
     8
 73
     4
 74
     0
 42
0.000000001
 43
0.0000000001
 40
2.0
 40
2.0
 40
2.0
 40
2.0
 40
3.0
 40
3.0
 40
3.0
 40
3.0
 10
582.9526279159004
 20
349.7140564088847
 30
0.0
 41
1.0
 10
568.0527210505861
 20
349.7140564088847
 30
0.0
 41
1.0
 10
553.1528141852716
 20
349.7140564088847
 30
0.0
 41
1.0
 10
538.2529073199573
 20
349.7140564088847
 30
0.0
 41
1.0
  0
SPLINE
  5
E41
330
1F
100
AcDbEntity
  8
EBENE_1
 62
     0
100
AcDbSpline
210
0.0
220
0.0
230
1.0
 70
    28
 71
     3
 72
     8
 73
     4
 74
     0
 42
0.000000001
 43
0.0000000001
 40
3.0
 40
3.0
 40
3.0
 40
3.0
 40
4.0
 40
4.0
 40
4.0
 40
4.0
 10
538.2529073199573
 20
349.7140564088847
 30
0.0
 41
1.0
 10
553.1528141852716
 20
349.7140564088848
 30
0.0
 41
1.0
 10
568.0527210505861
 20
349.7140564088848
 30
0.0
 41
1.0
 10
582.9526279159004
 20
349.7140564088848
 30
0.0
 41
1.0
  0
SPLINE
  5
E42
330
1F
100
AcDbEntity
  8
EBENE_1
 62
     0
100
AcDbSpline
210
0.0
220
0.0
230
1.0
 70
    28
 71
     3
 72
     8
 73
     4
 74
     0
 42
0.000000001
 43
0.0000000001
 40
4.0
 40
4.0
 40
4.0
 40
4.0
 40
5.0
 40
5.0
 40
5.0
 40
5.0
 10
582.9526279159004
 20
349.7140564088848
 30
0.0
 41
1.0
 10
582.9526279159004
 20
349.7140564088847
 30
0.0
 41
1.0
 10
582.9526279159004
 20
352.7633104228794
 30
0.0
 41
1.0
 10
582.9526279159004
 20
352.7633104228794
 30
0.0
 41
1.0
  0
SPLINE
  5
E43
330
1F
100
AcDbEntity
  8
EBENE_1
 62
     0
100
AcDbSpline
210
0.0
220
0.0
230
1.0
 70
    28
 71
     3
 72
     8
 73
     4
 74
     0
 42
0.000000001
 43
0.0000000001
 40
5.0
 40
5.0
 40
5.0
 40
5.0
 40
6.0
 40
6.0
 40
6.0
 40
6.0
 10
582.9526279159004
 20
352.7633104228794
 30
0.0
 41
1.0
 10
582.9526279159004
 20
352.7633104228794
 30
0.0
 41
1.0
 10
588.2529073199573
 20
352.7633104228794
 30
0.0
 41
1.0
 10
588.2529073199573
 20
352.7633104228794
 30
0.0
 41
1.0
  0
SPLINE
  5
E44
330
1F
100
AcDbEntity
  8
EBENE_1
 62
     0
100
AcDbSpline
210
0.0
220
0.0
230
1.0
 70
    28
 71
     3
 72
     8
 73
     4
 74
     0
 42
0.000000001
 43
0.0000000001
 40
6.0
 40
6.0
 40
6.0
 40
6.0
 40
7.0
 40
7.0
 40
7.0
 40
7.0
 10
588.2529073199573
 20
352.7633104228794
 30
0.0
 41
1.0
 10
588.2529073199573
 20
352.7633104228794
 30
0.0
 41
1.0
 10
588.2529073199573
 20
349.7140564088847
 30
0.0
 41
1.0
 10
588.2529073199573
 20
349.7140564088847
 30
0.0
 41
1.0
  0
SPLINE
  5
E45
330
1F
100
AcDbEntity
  8
EBENE_1
 62
     0
100
AcDbSpline
210
0.0
220
0.0
230
1.0
 70
    28
 71
     3
 72
     8
 73
     4
 74
     0
 42
0.000000001
 43
0.0000000001
 40
7.0
 40
7.0
 40
7.0
 40
7.0
 40
8.0
 40
8.0
 40
8.0
 40
8.0
 10
588.2529073199573
 20
349.7140564088847
 30
0.0
 41
1.0
 10
588.2529073199573
 20
349.7140564088847
 30
0.0
 41
1.0
 10
588.2529073199573
 20
352.7633104228794
 30
0.0
 41
1.0
 10
588.2529073199573
 20
352.7633104228794
 30
0.0
 41
1.0
  0
SPLINE
  5
E46
330
1F
100
AcDbEntity
  8
EBENE_1
 62
     0
100
AcDbSpline
210
0.0
220
0.0
230
1.0
 70
    28
 71
     3
 72
     8
 73
     4
 74
     0
 42
0.000000001
 43
0.0000000001
 40
0.0
 40
0.0
 40
0.0
 40
0.0
 40
1.0
 40
1.0
 40
1.0
 40
1.0
 10
427.6523485118437
 20
349.7140564088848
 30
0.0
 41
1.0
 10
412.7524416465292
 20
349.7140564088848
 30
0.0
 41
1.0
 10
397.8525347812149
 20
349.7140564088848
 30
0.0
 41
1.0
 10
382.9526279159005
 20
349.7140564088848
 30
0.0
 41
1.0
  0
SPLINE
  5
E47
330
1F
100
AcDbEntity
  8
EBENE_1
 62
     0
100
AcDbSpline
210
0.0
220
0.0
230
1.0
 70
    28
 71
     3
 72
     8
 73
     4
 74
     0
 42
0.000000001
 43
0.0000000001
 40
1.0
 40
1.0
 40
1.0
 40
1.0
 40
2.0
 40
2.0
 40
2.0
 40
2.0
 10
382.9526279159005
 20
349.7140564088848
 30
0.0
 41
1.0
 10
382.9526279159005
 20
349.7140564088847
 30
0.0
 41
1.0
 10
382.9526279159005
 20
352.7633104228794
 30
0.0
 41
1.0
 10
382.9526279159005
 20
352.7633104228794
 30
0.0
 41
1.0
  0
SPLINE
  5
E48
330
1F
100
AcDbEntity
  8
EBENE_1
 62
     0
100
AcDbSpline
210
0.0
220
0.0
230
1.0
 70
    28
 71
     3
 72
     8
 73
     4
 74
     0
 42
0.000000001
 43
0.0000000001
 40
2.0
 40
2.0
 40
2.0
 40
2.0
 40
3.0
 40
3.0
 40
3.0
 40
3.0
 10
382.9526279159005
 20
352.7633104228794
 30
0.0
 41
1.0
 10
382.9526279159005
 20
352.7633104228794
 30
0.0
 41
1.0
 10
377.6523485118437
 20
352.7633104228794
 30
0.0
 41
1.0
 10
377.6523485118437
 20
352.7633104228794
 30
0.0
 41
1.0
  0
SPLINE
  5
E49
330
1F
100
AcDbEntity
  8
EBENE_1
 62
     0
100
AcDbSpline
210
0.0
220
0.0
230
1.0
 70
    28
 71
     3
 72
     8
 73
     4
 74
     0
 42
0.000000001
 43
0.0000000001
 40
3.0
 40
3.0
 40
3.0
 40
3.0
 40
4.0
 40
4.0
 40
4.0
 40
4.0
 10
377.6523485118437
 20
352.7633104228794
 30
0.0
 41
1.0
 10
377.6523485118437
 20
352.7633104228794
 30
0.0
 41
1.0
 10
377.6523485118437
 20
349.7140564088847
 30
0.0
 41
1.0
 10
377.6523485118437
 20
349.7140564088847
 30
0.0
 41
1.0
  0
SPLINE
  5
E4A
330
1F
100
AcDbEntity
  8
EBENE_1
 62
     0
100
AcDbSpline
210
0.0
220
0.0
230
1.0
 70
    28
 71
     3
 72
     8
 73
     4
 74
     0
 42
0.000000001
 43
0.0000000001
 40
4.0
 40
4.0
 40
4.0
 40
4.0
 40
5.0
 40
5.0
 40
5.0
 40
5.0
 10
377.6523485118437
 20
349.7140564088847
 30
0.0
 41
1.0
 10
377.6523485118437
 20
349.7140564088847
 30
0.0
 41
1.0
 10
374.5424608173087
 20
349.7140564088847
 30
0.0
 41
1.0
 10
374.5424608173087
 20
349.7140564088847
 30
0.0
 41
1.0
  0
SPLINE
  5
E4B
330
1F
100
AcDbEntity
  8
EBENE_1
 62
     0
100
AcDbSpline
210
0.0
220
0.0
230
1.0
 70
    12
 71
     3
 72
     8
 73
     4
 74
     0
 42
0.000000001
 43
0.0000000001
 40
5.0
 40
5.0
 40
5.0
 40
5.0
 40
6.570796326794894
 40
6.570796326794894
 40
6.570796326794894
 40
6.570796326794894
 10
374.5424608173087
 20
349.7140564088847
 30
0.0
 41
1.0
 10
359.6255452093272
 20
349.7140564088847
 30
0.0
 41
0.8047378541243649
 10
349.0776930285359
 20
339.1662042280935
 30
0.0
 41
0.8047378541243649
 10
349.0776930285359
 20
324.249288620112
 30
0.0
 41
0.9999999999999998
  0
SPLINE
  5
E4C
330
1F
100
AcDbEntity
  8
EBENE_1
 62
     0
100
AcDbSpline
210
0.0
220
0.0
230
1.0
 70
    28
 71
     3
 72
     8
 73
     4
 74
     0
 42
0.000000001
 43
0.0000000001
 40
6.570796326794894
 40
6.570796326794894
 40
6.570796326794894
 40
6.570796326794894
 40
7.570796326794894
 40
7.570796326794894
 40
7.570796326794894
 40
7.570796326794894
 10
349.0776930285359
 20
324.249288620112
 30
0.0
 41
0.9999999999999998
 10
349.0776930285359
 20
324.249288620112
 30
0.0
 41
1.0
 10
349.0776930285359
 20
321.1390564160284
 30
0.0
 41
1.0
 10
349.0776930285359
 20
321.1390564160284
 30
0.0
 41
1.0
  0
SPLINE
  5
E4D
330
1F
100
AcDbEntity
  8
EBENE_1
 62
     0
100
AcDbSpline
210
0.0
220
0.0
230
1.0
 70
    28
 71
     3
 72
     8
 73
     4
 74
     0
 42
0.000000001
 43
0.0000000001
 40
7.570796326794894
 40
7.570796326794894
 40
7.570796326794894
 40
7.570796326794894
 40
8.570796326794894
 40
8.570796326794894
 40
8.570796326794894
 40
8.570796326794894
 10
349.0776930285359
 20
321.1390564160284
 30
0.0
 41
1.0
 10
349.0776930285359
 20
321.1390564160284
 30
0.0
 41
1.0
 10
346.0280945049929
 20
321.1390564160284
 30
0.0
 41
1.0
 10
346.0280945049929
 20
321.1390564160284
 30
0.0
 41
1.0
  0
SPLINE
  5
E4E
330
1F
100
AcDbEntity
  8
EBENE_1
 62
     0
100
AcDbSpline
210
0.0
220
0.0
230
1.0
 70
    28
 71
     3
 72
     8
 73
     4
 74
     0
 42
0.000000001
 43
0.0000000001
 40
8.570796326794894
 40
8.570796326794894
 40
8.570796326794894
 40
8.570796326794894
 40
9.570796326794894
 40
9.570796326794894
 40
9.570796326794894
 40
9.570796326794894
 10
346.0280945049929
 20
321.1390564160284
 30
0.0
 41
1.0
 10
346.0280945049929
 20
321.1390564160284
 30
0.0
 41
1.0
 10
346.0280945049929
 20
315.83912152152
 30
0.0
 41
1.0
 10
346.0280945049929
 20
315.83912152152
 30
0.0
 41
1.0
  0
SPLINE
  5
E4F
330
1F
100
AcDbEntity
  8
EBENE_1
 62
     0
100
AcDbSpline
210
0.0
220
0.0
230
1.0
 70
    28
 71
     3
 72
     8
 73
     4
 74
     0
 42
0.000000001
 43
0.0000000001
 40
9.570796326794894
 40
9.570796326794894
 40
9.570796326794894
 40
9.570796326794894
 40
10.57079632679489
 40
10.57079632679489
 40
10.57079632679489
 40
10.57079632679489
 10
346.0280945049929
 20
315.83912152152
 30
0.0
 41
1.0
 10
346.0280945049929
 20
315.83912152152
 30
0.0
 41
1.0
 10
349.0776930285359
 20
315.83912152152
 30
0.0
 41
1.0
 10
349.0776930285359
 20
315.83912152152
 30
0.0
 41
1.0
  0
SPLINE
  5
E50
330
1F
100
AcDbEntity
  8
EBENE_1
 62
     0
100
AcDbSpline
210
0.0
220
0.0
230
1.0
 70
    28
 71
     3
 72
     8
 73
     4
 74
     0
 42
0.000000001
 43
0.0000000001
 40
10.57079632679489
 40
10.57079632679489
 40
10.57079632679489
 40
10.57079632679489
 40
11.07078469423226
 40
11.07078469423226
 40
11.07078469423226
 40
11.07078469423226
 10
349.0776930285359
 20
315.83912152152
 30
0.0
 41
1.0
 10
349.0776930285359
 20
315.83912152152
 30
0.0
 41
1.0
 10
349.0776930285359
 20
312.7767463879623
 30
0.0
 41
1.0
 10
349.0776930285359
 20
309.7143000078633
 30
0.0
 41
1.0
  0
SPLINE
  5
E51
330
1F
100
AcDbEntity
  8
EBENE_1
 62
     0
100
AcDbSpline
210
0.0
220
0.0
230
1.0
 70
    28
 71
     3
 72
     8
 73
     4
 74
     0
 42
0.000000001
 43
0.0000000001
 40
0.0
 40
0.0
 40
0.0
 40
0.0
 40
1.0
 40
1.0
 40
1.0
 40
1.0
 10
432.9526279159004
 20
143.8157767765169
 30
0.0
 41
1.0
 10
432.9526279159004
 20
143.8157767765169
 30
0.0
 41
1.0
 10
432.9526279159004
 20
146.8650307905115
 30
0.0
 41
1.0
 10
432.9526279159004
 20
146.8650307905115
 30
0.0
 41
1.0
  0
SPLINE
  5
E52
330
1F
100
AcDbEntity
  8
EBENE_1
 62
     0
100
AcDbSpline
210
0.0
220
0.0
230
1.0
 70
    28
 71
     3
 72
     8
 73
     4
 74
     0
 42
0.000000001
 43
0.0000000001
 40
1.0
 40
1.0
 40
1.0
 40
1.0
 40
2.0
 40
2.0
 40
2.0
 40
2.0
 10
432.9526279159004
 20
146.8650307905115
 30
0.0
 41
1.0
 10
466.2859612492338
 20
146.8650307905115
 30
0.0
 41
1.0
 10
499.6192945825672
 20
146.8650307905115
 30
0.0
 41
1.0
 10
532.9526279159006
 20
146.8650307905115
 30
0.0
 41
1.0
  0
SPLINE
  5
E53
330
1F
100
AcDbEntity
  8
EBENE_1
 62
     0
100
AcDbSpline
210
0.0
220
0.0
230
1.0
 70
    28
 71
     3
 72
     8
 73
     4
 74
     0
 42
0.000000001
 43
0.0000000001
 40
2.0
 40
2.0
 40
2.0
 40
2.0
 40
3.0
 40
3.0
 40
3.0
 40
3.0
 10
532.9526279159007
 20
146.8650307905115
 30
0.0
 41
1.0
 10
532.9526279159004
 20
146.8650307905115
 30
0.0
 41
1.0
 10
532.9526279159004
 20
143.8157767765169
 30
0.0
 41
1.0
 10
532.9526279159004
 20
143.8157767765169
 30
0.0
 41
1.0
  0
SPLINE
  5
E54
330
1F
100
AcDbEntity
  8
EBENE_1
 62
     0
100
AcDbSpline
210
0.0
220
0.0
230
1.0
 70
    28
 71
     3
 72
     8
 73
     4
 74
     0
 42
0.000000001
 43
0.0000000001
 40
3.0
 40
3.0
 40
3.0
 40
3.0
 40
4.0
 40
4.0
 40
4.0
 40
4.0
 10
532.9526279159004
 20
143.8157767765169
 30
0.0
 41
1.0
 10
532.9526279159004
 20
143.8157767765169
 30
0.0
 41
1.0
 10
538.2529073199574
 20
143.8157767765169
 30
0.0
 41
1.0
 10
538.2529073199574
 20
143.8157767765169
 30
0.0
 41
1.0
  0
SPLINE
  5
E55
330
1F
100
AcDbEntity
  8
EBENE_1
 62
     0
100
AcDbSpline
210
0.0
220
0.0
230
1.0
 70
    28
 71
     3
 72
     8
 73
     4
 74
     0
 42
0.000000001
 43
0.0000000001
 40
4.0
 40
4.0
 40
4.0
 40
4.0
 40
5.0
 40
5.0
 40
5.0
 40
5.0
 10
538.2529073199574
 20
143.8157767765169
 30
0.0
 41
1.0
 10
538.2529073199574
 20
144.8321947811819
 30
0.0
 41
1.0
 10
538.2529073199574
 20
145.8486127858467
 30
0.0
 41
1.0
 10
538.2529073199574
 20
146.8650307905116
 30
0.0
 41
1.0
  0
SPLINE
  5
E56
330
1F
100
AcDbEntity
  8
EBENE_1
 62
     0
100
AcDbSpline
210
0.0
220
0.0
230
1.0
 70
    28
 71
     3
 72
     8
 73
     4
 74
     0
 42
0.000000001
 43
0.0000000001
 40
5.0
 40
5.0
 40
5.0
 40
5.0
 40
6.0
 40
6.0
 40
6.0
 40
6.0
 10
538.2529073199573
 20
146.8650307905116
 30
0.0
 41
1.0
 10
538.2529073199573
 20
146.8650307905115
 30
0.0
 41
1.0
 10
541.3627950144924
 20
146.8650307905115
 30
0.0
 41
1.0
 10
541.3627950144924
 20
146.8650307905115
 30
0.0
 41
1.0
  0
SPLINE
  5
E57
330
1F
100
AcDbEntity
  8
EBENE_1
 62
     0
100
AcDbSpline
210
0.0
220
0.0
230
1.0
 70
    28
 71
     3
 72
     8
 73
     4
 74
     0
 42
0.000000001
 43
0.0000000001
 40
0.0
 40
0.0
 40
0.0
 40
0.0
 40
1.0
 40
1.0
 40
1.0
 40
1.0
 10
582.9526279159004
 20
143.8157767765169
 30
0.0
 41
1.0
 10
582.9526279159004
 20
143.8157767765169
 30
0.0
 41
1.0
 10
582.9526279159004
 20
146.8650307905115
 30
0.0
 41
1.0
 10
582.9526279159004
 20
146.8650307905115
 30
0.0
 41
1.0
  0
SPLINE
  5
E58
330
1F
100
AcDbEntity
  8
EBENE_1
 62
     0
100
AcDbSpline
210
0.0
220
0.0
230
1.0
 70
    28
 71
     3
 72
     8
 73
     4
 74
     0
 42
0.000000001
 43
0.0000000001
 40
1.0
 40
1.0
 40
1.0
 40
1.0
 40
2.0
 40
2.0
 40
2.0
 40
2.0
 10
582.9526279159004
 20
146.8650307905115
 30
0.0
 41
1.0
 10
568.0527210505861
 20
146.8650307905115
 30
0.0
 41
1.0
 10
553.1528141852716
 20
146.8650307905115
 30
0.0
 41
1.0
 10
538.2529073199573
 20
146.8650307905115
 30
0.0
 41
1.0
  0
SPLINE
  5
E59
330
1F
100
AcDbEntity
  8
EBENE_1
 62
     0
100
AcDbSpline
210
0.0
220
0.0
230
1.0
 70
    28
 71
     3
 72
     8
 73
     4
 74
     0
 42
0.000000001
 43
0.0000000001
 40
2.0
 40
2.0
 40
2.0
 40
2.0
 40
3.0
 40
3.0
 40
3.0
 40
3.0
 10
538.2529073199573
 20
146.8650307905115
 30
0.0
 41
1.0
 10
553.1528141852716
 20
146.8650307905115
 30
0.0
 41
1.0
 10
568.0527210505861
 20
146.8650307905115
 30
0.0
 41
1.0
 10
582.9526279159004
 20
146.8650307905115
 30
0.0
 41
1.0
  0
SPLINE
  5
E5A
330
1F
100
AcDbEntity
  8
EBENE_1
 62
     0
100
AcDbSpline
210
0.0
220
0.0
230
1.0
 70
    28
 71
     3
 72
     8
 73
     4
 74
     0
 42
0.000000001
 43
0.0000000001
 40
3.0
 40
3.0
 40
3.0
 40
3.0
 40
4.0
 40
4.0
 40
4.0
 40
4.0
 10
582.9526279159004
 20
146.8650307905115
 30
0.0
 41
1.0
 10
582.9526279159004
 20
146.8650307905115
 30
0.0
 41
1.0
 10
582.9526279159004
 20
143.8157767765169
 30
0.0
 41
1.0
 10
582.9526279159004
 20
143.8157767765169
 30
0.0
 41
1.0
  0
SPLINE
  5
E5B
330
1F
100
AcDbEntity
  8
EBENE_1
 62
     0
100
AcDbSpline
210
0.0
220
0.0
230
1.0
 70
    28
 71
     3
 72
     8
 73
     4
 74
     0
 42
0.000000001
 43
0.0000000001
 40
4.0
 40
4.0
 40
4.0
 40
4.0
 40
5.0
 40
5.0
 40
5.0
 40
5.0
 10
582.9526279159004
 20
143.8157767765169
 30
0.0
 41
1.0
 10
582.9526279159004
 20
143.8157767765169
 30
0.0
 41
1.0
 10
588.2529073199574
 20
143.8157767765169
 30
0.0
 41
1.0
 10
588.2529073199574
 20
143.8157767765169
 30
0.0
 41
1.0
  0
SPLINE
  5
E5C
330
1F
100
AcDbEntity
  8
EBENE_1
 62
     0
100
AcDbSpline
210
0.0
220
0.0
230
1.0
 70
    28
 71
     3
 72
     8
 73
     4
 74
     0
 42
0.000000001
 43
0.0000000001
 40
5.0
 40
5.0
 40
5.0
 40
5.0
 40
6.0
 40
6.0
 40
6.0
 40
6.0
 10
588.2529073199574
 20
143.8157767765169
 30
0.0
 41
1.0
 10
588.2529073199574
 20
143.8157767765169
 30
0.0
 41
1.0
 10
588.2529073199574
 20
146.8650307905115
 30
0.0
 41
1.0
 10
588.2529073199574
 20
146.8650307905115
 30
0.0
 41
1.0
  0
SPLINE
  5
E5D
330
1F
100
AcDbEntity
  8
EBENE_1
 62
     0
100
AcDbSpline
210
0.0
220
0.0
230
1.0
 70
    28
 71
     3
 72
     8
 73
     4
 74
     0
 42
0.000000001
 43
0.0000000001
 40
6.0
 40
6.0
 40
6.0
 40
6.0
 40
7.0
 40
7.0
 40
7.0
 40
7.0
 10
588.2529073199573
 20
146.8650307905115
 30
0.0
 41
1.0
 10
588.2529073199573
 20
146.8650307905115
 30
0.0
 41
1.0
 10
591.3627950144924
 20
146.8650307905115
 30
0.0
 41
1.0
 10
591.3627950144924
 20
146.8650307905115
 30
0.0
 41
1.0
  0
SPLINE
  5
E5E
330
1F
100
AcDbEntity
  8
EBENE_1
 62
     0
100
AcDbSpline
210
0.0
220
0.0
230
1.0
 70
    28
 71
     3
 72
     8
 73
     4
 74
     0
 42
0.000000001
 43
0.0000000001
 40
0.0
 40
0.0
 40
0.0
 40
0.0
 40
1.0
 40
1.0
 40
1.0
 40
1.0
 10
432.9526279159004
 20
143.8157767765169
 30
0.0
 41
1.0
 10
432.9526279159004
 20
143.8157767765169
 30
0.0
 41
1.0
 10
427.6523485118437
 20
143.8157767765169
 30
0.0
 41
1.0
 10
427.6523485118437
 20
143.8157767765169
 30
0.0
 41
1.0
  0
SPLINE
  5
E5F
330
1F
100
AcDbEntity
  8
EBENE_1
 62
     0
100
AcDbSpline
210
0.0
220
0.0
230
1.0
 70
    28
 71
     3
 72
     8
 73
     4
 74
     0
 42
0.000000001
 43
0.0000000001
 40
1.0
 40
1.0
 40
1.0
 40
1.0
 40
2.0
 40
2.0
 40
2.0
 40
2.0
 10
427.6523485118437
 20
143.8157767765169
 30
0.0
 41
1.0
 10
427.6523485118437
 20
144.8321947811819
 30
0.0
 41
1.0
 10
427.6523485118437
 20
145.8486127858467
 30
0.0
 41
1.0
 10
427.6523485118437
 20
146.8650307905116
 30
0.0
 41
1.0
  0
SPLINE
  5
E60
330
1F
100
AcDbEntity
  8
EBENE_1
 62
     0
100
AcDbSpline
210
0.0
220
0.0
230
1.0
 70
    28
 71
     3
 72
     8
 73
     4
 74
     0
 42
0.000000001
 43
0.0000000001
 40
2.0
 40
2.0
 40
2.0
 40
2.0
 40
3.0
 40
3.0
 40
3.0
 40
3.0
 10
427.6523485118437
 20
146.8650307905116
 30
0.0
 41
1.0
 10
427.6523485118437
 20
146.8650307905115
 30
0.0
 41
1.0
 10
424.5424608173086
 20
146.8650307905115
 30
0.0
 41
1.0
 10
424.5424608173086
 20
146.8650307905115
 30
0.0
 41
1.0
  0
SPLINE
  5
E61
330
1F
100
AcDbEntity
  8
EBENE_1
 62
     0
100
AcDbSpline
210
0.0
220
0.0
230
1.0
 70
    28
 71
     3
 72
     8
 73
     4
 74
     0
 42
0.000000001
 43
0.0000000001
 40
0.0
 40
0.0
 40
0.0
 40
0.0
 40
1.0
 40
1.0
 40
1.0
 40
1.0
 10
619.8771613268081
 20
198.2895435996982
 30
0.0
 41
1.0
 10
619.8771613268081
 20
198.2895435996982
 30
0.0
 41
1.0
 10
619.8771613268081
 20
192.9896087051898
 30
0.0
 41
1.0
 10
619.8771613268081
 20
192.9896087051898
 30
0.0
 41
1.0
  0
SPLINE
  5
E62
330
1F
100
AcDbEntity
  8
EBENE_1
 62
     0
100
AcDbSpline
210
0.0
220
0.0
230
1.0
 70
    28
 71
     3
 72
     8
 73
     4
 74
     0
 42
0.000000001
 43
0.0000000001
 40
1.0
 40
1.0
 40
1.0
 40
1.0
 40
2.0
 40
2.0
 40
2.0
 40
2.0
 10
619.8771613268081
 20
192.9896087051898
 30
0.0
 41
1.0
 10
619.8771613268081
 20
192.9896087051898
 30
0.0
 41
1.0
 10
616.8275628032652
 20
192.9896087051898
 30
0.0
 41
1.0
 10
616.8275628032652
 20
192.9896087051898
 30
0.0
 41
1.0
  0
SPLINE
  5
E63
330
1F
100
AcDbEntity
  8
EBENE_1
 62
     0
100
AcDbSpline
210
0.0
220
0.0
230
1.0
 70
    28
 71
     3
 72
     8
 73
     4
 74
     0
 42
0.000000001
 43
0.0000000001
 40
0.0
 40
0.0
 40
0.0
 40
0.0
 40
1.0
 40
1.0
 40
1.0
 40
1.0
 10
349.0776930285359
 20
303.5894784942064
 30
0.0
 41
1.0
 10
349.0776930285359
 20
303.5894784942064
 30
0.0
 41
1.0
 10
346.0280945049929
 20
303.5894784942064
 30
0.0
 41
1.0
 10
346.0280945049929
 20
303.5894784942064
 30
0.0
 41
1.0
  0
SPLINE
  5
E64
330
1F
100
AcDbEntity
  8
EBENE_1
 62
     0
100
AcDbSpline
210
0.0
220
0.0
230
1.0
 70
    28
 71
     3
 72
     8
 73
     4
 74
     0
 42
0.000000001
 43
0.0000000001
 40
1.0
 40
1.0
 40
1.0
 40
1.0
 40
2.0
 40
2.0
 40
2.0
 40
2.0
 10
346.0280945049929
 20
303.5894784942064
 30
0.0
 41
1.0
 10
346.0280945049929
 20
303.5894784942064
 30
0.0
 41
1.0
 10
346.0280945049929
 20
298.289543599698
 30
0.0
 41
1.0
 10
346.0280945049929
 20
298.289543599698
 30
0.0
 41
1.0
  0
SPLINE
  5
E65
330
1F
100
AcDbEntity
  8
EBENE_1
 62
     0
100
AcDbSpline
210
0.0
220
0.0
230
1.0
 70
    28
 71
     3
 72
     8
 73
     4
 74
     0
 42
0.000000001
 43
0.0000000001
 40
2.0
 40
2.0
 40
2.0
 40
2.0
 40
3.0
 40
3.0
 40
3.0
 40
3.0
 10
346.0280945049929
 20
298.289543599698
 30
0.0
 41
1.0
 10
346.0280945049929
 20
298.289543599698
 30
0.0
 41
1.0
 10
349.0776930285359
 20
298.289543599698
 30
0.0
 41
1.0
 10
349.0776930285359
 20
298.289543599698
 30
0.0
 41
1.0
  0
SPLINE
  5
E66
330
1F
100
AcDbEntity
  8
EBENE_1
 62
     0
100
AcDbSpline
210
0.0
220
0.0
230
1.0
 70
    28
 71
     3
 72
    11
 73
     7
 74
     0
 42
0.000000001
 43
0.0000000001
 40
3.0
 40
3.0
 40
3.0
 40
3.0
 40
4.0
 40
4.0
 40
4.0
 40
5.0
 40
5.0
 40
5.0
 40
5.0
 10
349.0776930285359
 20
298.289543599698
 30
0.0
 41
1.0
 10
349.0776930285359
 20
281.6228769330313
 30
0.0
 41
1.0
 10
349.0776930285359
 20
264.9562102663647
 30
0.0
 41
1.0
 10
349.0776930285359
 20
248.2895435996979
 30
0.0
 41
1.0
 10
349.0776930285359
 20
231.6228769330316
 30
0.0
 41
1.0
 10
349.0776930285359
 20
214.9562102663649
 30
0.0
 41
1.0
 10
349.0776930285359
 20
198.2895435996982
 30
0.0
 41
1.0
  0
SPLINE
  5
E67
330
1F
100
AcDbEntity
  8
EBENE_1
 62
     0
100
AcDbSpline
210
0.0
220
0.0
230
1.0
 70
    28
 71
     3
 72
     8
 73
     4
 74
     0
 42
0.000000001
 43
0.0000000001
 40
5.0
 40
5.0
 40
5.0
 40
5.0
 40
6.0
 40
6.0
 40
6.0
 40
6.0
 10
349.0776930285359
 20
198.2895435996982
 30
0.0
 41
1.0
 10
349.0776930285359
 20
198.2895435996982
 30
0.0
 41
1.0
 10
346.0280945049929
 20
198.2895435996982
 30
0.0
 41
1.0
 10
346.0280945049929
 20
198.2895435996982
 30
0.0
 41
1.0
  0
SPLINE
  5
E68
330
1F
100
AcDbEntity
  8
EBENE_1
 62
     0
100
AcDbSpline
210
0.0
220
0.0
230
1.0
 70
    28
 71
     3
 72
     8
 73
     4
 74
     0
 42
0.000000001
 43
0.0000000001
 40
6.0
 40
6.0
 40
6.0
 40
6.0
 40
7.0
 40
7.0
 40
7.0
 40
7.0
 10
346.0280945049929
 20
198.2895435996982
 30
0.0
 41
1.0
 10
346.0280945049929
 20
198.2895435996982
 30
0.0
 41
1.0
 10
346.0280945049929
 20
192.9896087051898
 30
0.0
 41
1.0
 10
346.0280945049929
 20
192.9896087051898
 30
0.0
 41
1.0
  0
SPLINE
  5
E69
330
1F
100
AcDbEntity
  8
EBENE_1
 62
     0
100
AcDbSpline
210
0.0
220
0.0
230
1.0
 70
    28
 71
     3
 72
     8
 73
     4
 74
     0
 42
0.000000001
 43
0.0000000001
 40
7.0
 40
7.0
 40
7.0
 40
7.0
 40
8.0
 40
8.0
 40
8.0
 40
8.0
 10
346.0280945049929
 20
192.9896087051898
 30
0.0
 41
1.0
 10
346.0280945049929
 20
192.9896087051898
 30
0.0
 41
1.0
 10
349.0776930285359
 20
192.9896087051898
 30
0.0
 41
1.0
 10
349.0776930285359
 20
192.9896087051898
 30
0.0
 41
1.0
  0
SPLINE
  5
E6A
330
1F
100
AcDbEntity
  8
EBENE_1
 62
     0
100
AcDbSpline
210
0.0
220
0.0
230
1.0
 70
    12
 71
     3
 72
     8
 73
     4
 74
     0
 42
0.000000001
 43
0.0000000001
 40
0.0
 40
0.0
 40
0.0
 40
0.0
 40
1.570796326794894
 40
1.570796326794894
 40
1.570796326794894
 40
1.570796326794894
 10
591.3627950144924
 20
146.8650307905115
 30
0.0
 41
1.0
 10
606.2797106224738
 20
146.8650307905116
 30
0.0
 41
0.8047378541243649
 10
616.8275628032651
 20
157.4128829713028
 30
0.0
 41
0.8047378541243649
 10
616.8275628032651
 20
172.3297985792843
 30
0.0
 41
0.9999999999999998
  0
SPLINE
  5
E6B
330
1F
100
AcDbEntity
  8
EBENE_1
 62
     0
100
AcDbSpline
210
0.0
220
0.0
230
1.0
 70
    28
 71
     3
 72
     8
 73
     4
 74
     0
 42
0.000000001
 43
0.0000000001
 40
1.570796326794894
 40
1.570796326794894
 40
1.570796326794894
 40
1.570796326794894
 40
2.570796326794894
 40
2.570796326794894
 40
2.570796326794894
 40
2.570796326794894
 10
616.8275628032651
 20
172.3297985792843
 30
0.0
 41
0.9999999999999998
 10
616.8275628032652
 20
172.3297985792843
 30
0.0
 41
1.0
 10
616.8275628032652
 20
175.4400307833678
 30
0.0
 41
1.0
 10
616.8275628032652
 20
175.4400307833678
 30
0.0
 41
1.0
  0
SPLINE
  5
E6C
330
1F
100
AcDbEntity
  8
EBENE_1
 62
     0
100
AcDbSpline
210
0.0
220
0.0
230
1.0
 70
    28
 71
     3
 72
     8
 73
     4
 74
     0
 42
0.000000001
 43
0.0000000001
 40
2.570796326794894
 40
2.570796326794894
 40
2.570796326794894
 40
2.570796326794894
 40
3.570796326794894
 40
3.570796326794894
 40
3.570796326794894
 40
3.570796326794894
 10
616.8275628032652
 20
175.4400307833678
 30
0.0
 41
1.0
 10
616.8275628032652
 20
175.4400307833678
 30
0.0
 41
1.0
 10
619.8771613268081
 20
175.4400307833678
 30
0.0
 41
1.0
 10
619.8771613268081
 20
175.4400307833678
 30
0.0
 41
1.0
  0
SPLINE
  5
E6D
330
1F
100
AcDbEntity
  8
EBENE_1
 62
     0
100
AcDbSpline
210
0.0
220
0.0
230
1.0
 70
    28
 71
     3
 72
     8
 73
     4
 74
     0
 42
0.000000001
 43
0.0000000001
 40
3.570796326794894
 40
3.570796326794894
 40
3.570796326794894
 40
3.570796326794894
 40
4.570796326794894
 40
4.570796326794894
 40
4.570796326794894
 40
4.570796326794894
 10
619.8771613268081
 20
175.4400307833678
 30
0.0
 41
1.0
 10
619.8771613268081
 20
175.4400307833678
 30
0.0
 41
1.0
 10
619.8771613268081
 20
180.7399656778762
 30
0.0
 41
1.0
 10
619.8771613268081
 20
180.7399656778762
 30
0.0
 41
1.0
  0
SPLINE
  5
E6E
330
1F
100
AcDbEntity
  8
EBENE_1
 62
     0
100
AcDbSpline
210
0.0
220
0.0
230
1.0
 70
    28
 71
     3
 72
     8
 73
     4
 74
     0
 42
0.000000001
 43
0.0000000001
 40
4.570796326794894
 40
4.570796326794894
 40
4.570796326794894
 40
4.570796326794894
 40
5.570796326794894
 40
5.570796326794894
 40
5.570796326794894
 40
5.570796326794894
 10
619.8771613268081
 20
180.7399656778762
 30
0.0
 41
1.0
 10
619.8771613268081
 20
180.7399656778762
 30
0.0
 41
1.0
 10
616.8275628032652
 20
180.7399656778762
 30
0.0
 41
1.0
 10
616.8275628032652
 20
180.7399656778762
 30
0.0
 41
1.0
  0
SPLINE
  5
E6F
330
1F
100
AcDbEntity
  8
EBENE_1
 62
     0
100
AcDbSpline
210
0.0
220
0.0
230
1.0
 70
    28
 71
     3
 72
     8
 73
     4
 74
     0
 42
0.000000001
 43
0.0000000001
 40
5.570796326794894
 40
5.570796326794894
 40
5.570796326794894
 40
5.570796326794894
 40
6.070784694232264
 40
6.070784694232264
 40
6.070784694232264
 40
6.070784694232264
 10
616.8275628032652
 20
180.7399656778762
 30
0.0
 41
1.0
 10
616.8275628032652
 20
180.7399656778762
 30
0.0
 41
1.0
 10
616.8275628032652
 20
183.802340811434
 30
0.0
 41
1.0
 10
616.8275628032652
 20
186.864787191533
 30
0.0
 41
1.0
  0
SPLINE
  5
E70
330
1F
100
AcDbEntity
  8
EBENE_1
 62
     0
100
AcDbSpline
210
0.0
220
0.0
230
1.0
 70
    28
 71
     3
 72
     8
 73
     4
 74
     0
 42
0.000000001
 43
0.0000000001
 40
0.0
 40
0.0
 40
0.0
 40
0.0
 40
1.0
 40
1.0
 40
1.0
 40
1.0
 10
582.9526279159004
 20
143.8157767765169
 30
0.0
 41
1.0
 10
582.9526279159004
 20
143.8157767765169
 30
0.0
 41
1.0
 10
588.2529073199574
 20
143.8157767765169
 30
0.0
 41
1.0
 10
588.2529073199574
 20
143.8157767765169
 30
0.0
 41
1.0
  0
SPLINE
  5
E71
330
1F
100
AcDbEntity
  8
EBENE_1
 62
     0
100
AcDbSpline
210
0.0
220
0.0
230
1.0
 70
    28
 71
     3
 72
     8
 73
     4
 74
     0
 42
0.000000001
 43
0.0000000001
 40
1.0
 40
1.0
 40
1.0
 40
1.0
 40
2.0
 40
2.0
 40
2.0
 40
2.0
 10
588.2529073199574
 20
143.8157767765169
 30
0.0
 41
1.0
 10
588.2529073199574
 20
143.8157767765169
 30
0.0
 41
1.0
 10
588.2529073199574
 20
146.8650307905115
 30
0.0
 41
1.0
 10
588.2529073199574
 20
146.8650307905115
 30
0.0
 41
1.0
  0
SPLINE
  5
E72
330
1F
100
AcDbEntity
  8
EBENE_1
 62
     0
100
AcDbSpline
210
0.0
220
0.0
230
1.0
 70
    28
 71
     3
 72
     8
 73
     4
 74
     0
 42
0.000000001
 43
0.0000000001
 40
0.0
 40
0.0
 40
0.0
 40
0.0
 40
1.0
 40
1.0
 40
1.0
 40
1.0
 10
427.6523485118437
 20
146.8650307905115
 30
0.0
 41
1.0
 10
412.7524416465292
 20
146.8650307905115
 30
0.0
 41
1.0
 10
397.8525347812149
 20
146.8650307905115
 30
0.0
 41
1.0
 10
382.9526279159005
 20
146.8650307905115
 30
0.0
 41
1.0
  0
SPLINE
  5
E73
330
1F
100
AcDbEntity
  8
EBENE_1
 62
     0
100
AcDbSpline
210
0.0
220
0.0
230
1.0
 70
    28
 71
     3
 72
     8
 73
     4
 74
     0
 42
0.000000001
 43
0.0000000001
 40
1.0
 40
1.0
 40
1.0
 40
1.0
 40
2.0
 40
2.0
 40
2.0
 40
2.0
 10
382.9526279159005
 20
146.8650307905115
 30
0.0
 41
1.0
 10
382.9526279159005
 20
146.8650307905115
 30
0.0
 41
1.0
 10
382.9526279159005
 20
143.8157767765169
 30
0.0
 41
1.0
 10
382.9526279159005
 20
143.8157767765169
 30
0.0
 41
1.0
  0
SPLINE
  5
E74
330
1F
100
AcDbEntity
  8
EBENE_1
 62
     0
100
AcDbSpline
210
0.0
220
0.0
230
1.0
 70
    28
 71
     3
 72
     8
 73
     4
 74
     0
 42
0.000000001
 43
0.0000000001
 40
2.0
 40
2.0
 40
2.0
 40
2.0
 40
3.0
 40
3.0
 40
3.0
 40
3.0
 10
382.9526279159005
 20
143.8157767765169
 30
0.0
 41
1.0
 10
382.9526279159005
 20
143.8157767765169
 30
0.0
 41
1.0
 10
377.6523485118438
 20
143.8157767765169
 30
0.0
 41
1.0
 10
377.6523485118438
 20
143.8157767765169
 30
0.0
 41
1.0
  0
SPLINE
  5
E75
330
1F
100
AcDbEntity
  8
EBENE_1
 62
     0
100
AcDbSpline
210
0.0
220
0.0
230
1.0
 70
    28
 71
     3
 72
     8
 73
     4
 74
     0
 42
0.000000001
 43
0.0000000001
 40
3.0
 40
3.0
 40
3.0
 40
3.0
 40
4.0
 40
4.0
 40
4.0
 40
4.0
 10
377.6523485118438
 20
143.8157767765169
 30
0.0
 41
1.0
 10
377.6523485118438
 20
143.8157767765169
 30
0.0
 41
1.0
 10
377.6523485118438
 20
146.8650307905115
 30
0.0
 41
1.0
 10
377.6523485118438
 20
146.8650307905115
 30
0.0
 41
1.0
  0
SPLINE
  5
E76
330
1F
100
AcDbEntity
  8
EBENE_1
 62
     0
100
AcDbSpline
210
0.0
220
0.0
230
1.0
 70
    28
 71
     3
 72
     8
 73
     4
 74
     0
 42
0.000000001
 43
0.0000000001
 40
4.0
 40
4.0
 40
4.0
 40
4.0
 40
5.0
 40
5.0
 40
5.0
 40
5.0
 10
377.6523485118437
 20
146.8650307905115
 30
0.0
 41
1.0
 10
377.6523485118437
 20
146.8650307905115
 30
0.0
 41
1.0
 10
374.5424608173087
 20
146.8650307905115
 30
0.0
 41
1.0
 10
374.5424608173087
 20
146.8650307905115
 30
0.0
 41
1.0
  0
SPLINE
  5
E77
330
1F
100
AcDbEntity
  8
EBENE_1
 62
     0
100
AcDbSpline
210
0.0
220
0.0
230
1.0
 70
    12
 71
     3
 72
     8
 73
     4
 74
     0
 42
0.000000001
 43
0.0000000001
 40
5.0
 40
5.0
 40
5.0
 40
5.0
 40
6.570796326794894
 40
6.570796326794894
 40
6.570796326794894
 40
6.570796326794894
 10
374.5424608173087
 20
146.8650307905115
 30
0.0
 41
1.0
 10
359.6255452093272
 20
146.8650307905116
 30
0.0
 41
0.8047378541243649
 10
349.0776930285359
 20
157.4128829713028
 30
0.0
 41
0.8047378541243649
 10
349.0776930285359
 20
172.3297985792843
 30
0.0
 41
0.9999999999999998
  0
SPLINE
  5
E78
330
1F
100
AcDbEntity
  8
EBENE_1
 62
     0
100
AcDbSpline
210
0.0
220
0.0
230
1.0
 70
    28
 71
     3
 72
     8
 73
     4
 74
     0
 42
0.000000001
 43
0.0000000001
 40
6.570796326794894
 40
6.570796326794894
 40
6.570796326794894
 40
6.570796326794894
 40
7.570796326794894
 40
7.570796326794894
 40
7.570796326794894
 40
7.570796326794894
 10
349.0776930285359
 20
172.3297985792843
 30
0.0
 41
0.9999999999999998
 10
349.0776930285359
 20
172.3297985792843
 30
0.0
 41
1.0
 10
349.0776930285359
 20
175.4400307833678
 30
0.0
 41
1.0
 10
349.0776930285359
 20
175.4400307833678
 30
0.0
 41
1.0
  0
SPLINE
  5
E79
330
1F
100
AcDbEntity
  8
EBENE_1
 62
     0
100
AcDbSpline
210
0.0
220
0.0
230
1.0
 70
    28
 71
     3
 72
     8
 73
     4
 74
     0
 42
0.000000001
 43
0.0000000001
 40
7.570796326794894
 40
7.570796326794894
 40
7.570796326794894
 40
7.570796326794894
 40
8.570796326794894
 40
8.570796326794894
 40
8.570796326794894
 40
8.570796326794894
 10
349.0776930285359
 20
175.4400307833678
 30
0.0
 41
1.0
 10
349.0776930285359
 20
175.4400307833678
 30
0.0
 41
1.0
 10
346.0280945049929
 20
175.4400307833678
 30
0.0
 41
1.0
 10
346.0280945049929
 20
175.4400307833678
 30
0.0
 41
1.0
  0
SPLINE
  5
E7A
330
1F
100
AcDbEntity
  8
EBENE_1
 62
     0
100
AcDbSpline
210
0.0
220
0.0
230
1.0
 70
    28
 71
     3
 72
     8
 73
     4
 74
     0
 42
0.000000001
 43
0.0000000001
 40
8.570796326794894
 40
8.570796326794894
 40
8.570796326794894
 40
8.570796326794894
 40
9.570796326794894
 40
9.570796326794894
 40
9.570796326794894
 40
9.570796326794894
 10
346.0280945049929
 20
175.4400307833678
 30
0.0
 41
1.0
 10
346.0280945049929
 20
175.4400307833678
 30
0.0
 41
1.0
 10
346.0280945049929
 20
180.7399656778762
 30
0.0
 41
1.0
 10
346.0280945049929
 20
180.7399656778762
 30
0.0
 41
1.0
  0
SPLINE
  5
E7B
330
1F
100
AcDbEntity
  8
EBENE_1
 62
     0
100
AcDbSpline
210
0.0
220
0.0
230
1.0
 70
    28
 71
     3
 72
     8
 73
     4
 74
     0
 42
0.000000001
 43
0.0000000001
 40
9.570796326794894
 40
9.570796326794894
 40
9.570796326794894
 40
9.570796326794894
 40
10.57079632679489
 40
10.57079632679489
 40
10.57079632679489
 40
10.57079632679489
 10
346.0280945049929
 20
180.7399656778762
 30
0.0
 41
1.0
 10
346.0280945049929
 20
180.7399656778762
 30
0.0
 41
1.0
 10
349.0776930285359
 20
180.7399656778762
 30
0.0
 41
1.0
 10
349.0776930285359
 20
180.7399656778762
 30
0.0
 41
1.0
  0
SPLINE
  5
E7C
330
1F
100
AcDbEntity
  8
EBENE_1
 62
     0
100
AcDbSpline
210
0.0
220
0.0
230
1.0
 70
    28
 71
     3
 72
     8
 73
     4
 74
     0
 42
0.000000001
 43
0.0000000001
 40
10.57079632679489
 40
10.57079632679489
 40
10.57079632679489
 40
10.57079632679489
 40
11.07078469423226
 40
11.07078469423226
 40
11.07078469423226
 40
11.07078469423226
 10
349.0776930285359
 20
180.7399656778762
 30
0.0
 41
1.0
 10
349.0776930285359
 20
180.7399656778762
 30
0.0
 41
1.0
 10
349.0776930285359
 20
183.802340811434
 30
0.0
 41
1.0
 10
349.0776930285359
 20
186.864787191533
 30
0.0
 41
1.0
  0
LINE
  5
E84
330
1F
100
AcDbEntity
  8
0
100
AcDbLine
 10
324.9128732580904
 20
139.8160044628693
 30
0.0
 11
280.2430732580902
 21
139.8160044628693
 31
0.0
  0
LINE
  5
E85
330
1F
100
AcDbEntity
  8
0
100
AcDbLine
 10
280.2430732580902
 20
139.8160044628693
 30
0.0
 11
280.2430732580902
 21
136.7156044628693
 31
0.0
  0
LINE
  5
E86
330
1F
100
AcDbEntity
  8
0
100
AcDbLine
 10
280.2430732580902
 20
136.7156044628693
 30
0.0
 11
275.5432732580904
 21
136.7156044628693
 31
0.0
  0
LINE
  5
E87
330
1F
100
AcDbEntity
  8
0
100
AcDbLine
 10
275.5432732580904
 20
136.7156044628693
 30
0.0
 11
275.5432732580904
 21
139.8160044628693
 31
0.0
  0
LINE
  5
E88
330
1F
100
AcDbEntity
  8
0
100
AcDbLine
 10
280.2430732580902
 20
139.8160044628693
 30
0.0
 11
324.9128732580904
 21
139.8160044628693
 31
0.0
  0
LINE
  5
E8D
330
1F
100
AcDbEntity
  8
0
100
AcDbLine
 10
124.9128732580902
 20
95.11554603220403
 30
0.0
 11
169.5825732580901
 21
95.11554603220403
 31
0.0
  0
LINE
  5
E8E
330
1F
100
AcDbEntity
  8
0
100
AcDbLine
 10
174.2823732580902
 20
95.11554603220403
 30
0.0
 11
275.5432732580904
 21
95.11554603220403
 31
0.0
  0
LINE
  5
E8F
330
1F
100
AcDbEntity
  8
0
100
AcDbLine
 10
280.2430732580902
 20
95.11554603220403
 30
0.0
 11
324.9128732580904
 21
95.11554603220403
 31
0.0
  0
LINE
  5
E90
330
1F
100
AcDbEntity
  8
0
100
AcDbLine
 10
124.9128732580902
 20
95.11554603220403
 30
0.0
 11
169.5825732580901
 21
95.11554603220403
 31
0.0
  0
LINE
  5
E91
330
1F
100
AcDbEntity
  8
0
100
AcDbLine
 10
169.5825732580901
 20
95.11554603220403
 30
0.0
 11
169.5825732580902
 21
98.21594603220408
 31
0.0
  0
LINE
  5
E92
330
1F
100
AcDbEntity
  8
0
100
AcDbLine
 10
169.5825732580902
 20
98.21594603220408
 30
0.0
 11
174.2823732580902
 21
98.21594603220408
 31
0.0
  0
LINE
  5
E93
330
1F
100
AcDbEntity
  8
0
100
AcDbLine
 10
174.2823732580902
 20
98.21594603220408
 30
0.0
 11
174.2823732580902
 21
95.11554603220403
 31
0.0
  0
LINE
  5
E94
330
1F
100
AcDbEntity
  8
0
100
AcDbLine
 10
324.9128732580904
 20
95.11554603220403
 30
0.0
 11
280.2430732580902
 21
95.11554603220403
 31
0.0
  0
LINE
  5
E95
330
1F
100
AcDbEntity
  8
0
100
AcDbLine
 10
280.2430732580902
 20
95.11554603220403
 30
0.0
 11
280.2430732580902
 21
98.21594603220408
 31
0.0
  0
LINE
  5
E96
330
1F
100
AcDbEntity
  8
0
100
AcDbLine
 10
280.2430732580902
 20
98.21594603220408
 30
0.0
 11
275.5432732580904
 21
98.21594603220408
 31
0.0
  0
LINE
  5
E97
330
1F
100
AcDbEntity
  8
0
100
AcDbLine
 10
275.5432732580904
 20
98.21594603220408
 30
0.0
 11
275.5432732580904
 21
95.11554603220403
 31
0.0
  0
LINE
  5
EA5
330
1F
100
AcDbEntity
  8
0
100
AcDbLine
 10
491.5001719374485
 20
107.7765260798452
 30
0.0
 11
454.0258893794197
 21
107.7765260798452
 31
0.0
  0
LINE
  5
EAB
330
1F
100
AcDbEntity
  8
0
100
AcDbLine
 10
491.5001719374485
 20
127.7760157052532
 30
0.0
 11
454.0258893794197
 21
127.7760157052533
 31
0.0
  0
ARC
  5
EAC
330
1F
100
AcDbEntity
  8
0
100
AcDbCircle
 10
491.5001719374485
 20
117.7762708925493
 30
0.0
 40
9.999744812704079
100
AcDbArc
 50
270.0
 51
90.0
  0
LINE
  5
EAE
330
1F
100
AcDbEntity
  8
0
100
AcDbLine
 10
416.5516068251243
 20
127.7765446725465
 30
0.0
 11
454.0258893794197
 21
127.7760157052533
 31
0.0
  0
LINE
  5
EAF
330
1F
100
AcDbEntity
  8
0
100
AcDbLine
 10
416.5513245228313
 20
107.7770550491308
 30
0.0
 11
454.0256070771266
 21
107.7765260818377
 31
0.0
  0
ARC
  5
EB0
330
1F
100
AcDbEntity
  8
0
100
AcDbCircle
 10
416.5514656739778
 20
117.7767998608386
 30
0.0
 40
9.999744812704106
100
AcDbArc
 50
89.99919124286416
 51
269.9991912428642
  0
LINE
  5
EB1
330
1F
100
AcDbEntity
  8
0
100
AcDbLine
 10
515.6287521522348
 20
403.3830876624684
 30
0.0
 11
515.6287454869051
 21
400.2835352543964
 31
0.0
  0
LINE
  5
EB2
330
1F
100
AcDbEntity
  8
0
100
AcDbLine
 10
515.6287454869051
 20
400.2835352543964
 30
0.0
 11
510.9289462259384
 21
400.283545360924
 31
0.0
  0
LINE
  5
EB3
330
1F
100
AcDbEntity
  8
0
100
AcDbLine
 10
510.9289462259384
 20
400.283545360924
 30
0.0
 11
510.9289528912681
 21
403.3830977689961
 31
0.0
  0
LINE
  5
EB4
330
1F
100
AcDbEntity
  8
0
100
AcDbLine
 10
510.9292683705038
 20
358.6833283566461
 30
0.0
 11
510.929275037656
 21
361.783728356639
 31
0.0
  0
LINE
  5
EB5
330
1F
100
AcDbEntity
  8
0
100
AcDbLine
 10
510.929275037656
 20
361.783728356639
 30
0.0
 11
515.6290750376452
 21
361.7837182501099
 31
0.0
  0
LINE
  5
EB6
330
1F
100
AcDbEntity
  8
0
100
AcDbLine
 10
515.6290750376452
 20
361.7837182501099
 30
0.0
 11
515.6290683704928
 21
358.6833182501171
 31
0.0
  0
LINE
  5
EB7
330
1F
100
AcDbEntity
  8
0
100
AcDbLine
 10
515.6290683704928
 20
358.6833182501171
 30
0.0
 11
520.5042683704927
 21
358.6833182501171
 31
0.0
  0
LINE
  5
EB8
330
1F
100
AcDbEntity
  8
0
100
AcDbLine
 10
520.5042683704927
 20
358.6833182501171
 30
0.0
 11
520.5042683704927
 21
363.3834182501171
 31
0.0
  0
LINE
  5
EB9
330
1F
100
AcDbEntity
  8
0
100
AcDbLine
 10
520.5042683704927
 20
363.3834182501171
 30
0.0
 11
523.6044683704927
 21
363.3834182501171
 31
0.0
  0
LINE
  5
EBA
330
1F
100
AcDbEntity
  8
0
100
AcDbLine
 10
523.6044683704927
 20
363.3834182501171
 30
0.0
 11
523.6044683704927
 21
368.6833182501171
 31
0.0
  0
LINE
  5
EBB
330
1F
100
AcDbEntity
  8
0
100
AcDbLine
 10
523.6044683704927
 20
368.6833182501171
 30
0.0
 11
520.5042683704929
 21
368.6833182501171
 31
0.0
  0
LINE
  5
EBC
330
1F
100
AcDbEntity
  8
0
100
AcDbLine
 10
520.5042683704929
 20
368.6833182501171
 30
0.0
 11
520.5042683704929
 21
373.383118250117
 31
0.0
  0
LINE
  5
EBD
330
1F
100
AcDbEntity
  8
0
100
AcDbLine
 10
520.5042683704929
 20
373.383118250117
 30
0.0
 11
523.6044683704927
 21
373.383118250117
 31
0.0
  0
LINE
  5
EBE
330
1F
100
AcDbEntity
  8
0
100
AcDbLine
 10
523.6044683704927
 20
373.383118250117
 30
0.0
 11
523.6044683704927
 21
378.683418250117
 31
0.0
  0
LINE
  5
EBF
330
1F
100
AcDbEntity
  8
0
100
AcDbLine
 10
523.6044683704927
 20
378.683418250117
 30
0.0
 11
520.5042683704929
 21
378.6834182501171
 31
0.0
  0
LINE
  5
EC0
330
1F
100
AcDbEntity
  8
0
100
AcDbLine
 10
520.5042683704929
 20
378.6834182501171
 30
0.0
 11
520.5042683704929
 21
383.3835182501171
 31
0.0
  0
LINE
  5
EC1
330
1F
100
AcDbEntity
  8
0
100
AcDbLine
 10
520.5042683704929
 20
383.3835182501171
 30
0.0
 11
523.6044683704927
 21
383.3835182501171
 31
0.0
  0
LINE
  5
EC2
330
1F
100
AcDbEntity
  8
0
100
AcDbLine
 10
523.6044683704927
 20
383.3835182501171
 30
0.0
 11
523.6044683704927
 21
388.6834182501171
 31
0.0
  0
LINE
  5
EC3
330
1F
100
AcDbEntity
  8
0
100
AcDbLine
 10
523.6044683704927
 20
388.6834182501171
 30
0.0
 11
520.5042683704929
 21
388.6834182501171
 31
0.0
  0
LINE
  5
EC4
330
1F
100
AcDbEntity
  8
0
100
AcDbLine
 10
520.5042683704929
 20
388.6834182501171
 30
0.0
 11
520.5042683704929
 21
393.3832182501171
 31
0.0
  0
LINE
  5
EC5
330
1F
100
AcDbEntity
  8
0
100
AcDbLine
 10
520.5042683704929
 20
393.3832182501171
 30
0.0
 11
523.6044683704927
 21
393.3832182501171
 31
0.0
  0
LINE
  5
EC6
330
1F
100
AcDbEntity
  8
0
100
AcDbLine
 10
523.6044683704927
 20
393.3832182501171
 30
0.0
 11
523.6044683704927
 21
398.6835182501171
 31
0.0
  0
LINE
  5
EC7
330
1F
100
AcDbEntity
  8
0
100
AcDbLine
 10
523.6044683704927
 20
398.6835182501171
 30
0.0
 11
520.5042683704929
 21
398.6835182501171
 31
0.0
  0
LINE
  5
EC8
330
1F
100
AcDbEntity
  8
0
100
AcDbLine
 10
520.5042683704929
 20
398.6835182501171
 30
0.0
 11
520.5042683704929
 21
403.3836182501171
 31
0.0
  0
LINE
  5
EC9
330
1F
100
AcDbEntity
  8
0
100
AcDbLine
 10
515.6287521522348
 20
403.3830876624684
 30
0.0
 11
520.5039521233656
 21
403.3836182157008
 31
0.0
  0
LINE
  5
ECA
330
1F
100
AcDbEntity
  8
0
100
AcDbLine
 10
510.9292683705038
 20
358.6833283566461
 30
0.0
 11
460.9292683705038
 21
358.6833283566461
 31
0.0
  0
LINE
  5
ECB
330
1F
100
AcDbEntity
  8
0
100
AcDbLine
 10
510.9289528912681
 20
403.3830977689961
 30
0.0
 11
460.9289528912681
 21
403.3830977689961
 31
0.0
  0
LINE
  5
ECC
330
1F
100
AcDbEntity
  8
0
100
AcDbLine
 10
406.2297845887726
 20
403.3830876624684
 30
0.0
 11
406.2297912541023
 21
400.2835352543964
 31
0.0
  0
LINE
  5
ECD
330
1F
100
AcDbEntity
  8
0
100
AcDbLine
 10
406.2297912541023
 20
400.2835352543964
 30
0.0
 11
410.929590515069
 21
400.283545360924
 31
0.0
  0
LINE
  5
ECE
330
1F
100
AcDbEntity
  8
0
100
AcDbLine
 10
410.929590515069
 20
400.283545360924
 30
0.0
 11
410.9295838497393
 21
403.3830977689961
 31
0.0
  0
LINE
  5
ECF
330
1F
100
AcDbEntity
  8
0
100
AcDbLine
 10
410.9292683705036
 20
358.6833283566461
 30
0.0
 11
410.9292617033514
 21
361.783728356639
 31
0.0
  0
LINE
  5
ED0
330
1F
100
AcDbEntity
  8
0
100
AcDbLine
 10
410.9292617033514
 20
361.783728356639
 30
0.0
 11
406.2294617033622
 21
361.7837182501099
 31
0.0
  0
LINE
  5
ED1
330
1F
100
AcDbEntity
  8
0
100
AcDbLine
 10
406.2294617033622
 20
361.7837182501099
 30
0.0
 11
406.2294683705145
 21
358.6833182501171
 31
0.0
  0
LINE
  5
ED2
330
1F
100
AcDbEntity
  8
0
100
AcDbLine
 10
406.2294683705145
 20
358.6833182501171
 30
0.0
 11
401.3542683705145
 21
358.6833182501171
 31
0.0
  0
LINE
  5
ED3
330
1F
100
AcDbEntity
  8
0
100
AcDbLine
 10
401.3542683705145
 20
358.6833182501171
 30
0.0
 11
401.3542683705145
 21
363.3834182501171
 31
0.0
  0
LINE
  5
ED4
330
1F
100
AcDbEntity
  8
0
100
AcDbLine
 10
401.3542683705145
 20
363.3834182501171
 30
0.0
 11
398.2540683705147
 21
363.3834182501171
 31
0.0
  0
LINE
  5
ED5
330
1F
100
AcDbEntity
  8
0
100
AcDbLine
 10
398.2540683705147
 20
363.3834182501171
 30
0.0
 11
398.2540683705147
 21
368.6833182501171
 31
0.0
  0
LINE
  5
ED6
330
1F
100
AcDbEntity
  8
0
100
AcDbLine
 10
398.2540683705147
 20
368.6833182501171
 30
0.0
 11
401.3542683705145
 21
368.6833182501171
 31
0.0
  0
LINE
  5
ED7
330
1F
100
AcDbEntity
  8
0
100
AcDbLine
 10
401.3542683705145
 20
368.6833182501171
 30
0.0
 11
401.3542683705145
 21
373.383118250117
 31
0.0
  0
LINE
  5
ED8
330
1F
100
AcDbEntity
  8
0
100
AcDbLine
 10
401.3542683705145
 20
373.383118250117
 30
0.0
 11
398.2540683705147
 21
373.383118250117
 31
0.0
  0
LINE
  5
ED9
330
1F
100
AcDbEntity
  8
0
100
AcDbLine
 10
398.2540683705147
 20
373.383118250117
 30
0.0
 11
398.2540683705147
 21
378.683418250117
 31
0.0
  0
LINE
  5
EDA
330
1F
100
AcDbEntity
  8
0
100
AcDbLine
 10
398.2540683705147
 20
378.683418250117
 30
0.0
 11
401.3542683705145
 21
378.6834182501171
 31
0.0
  0
LINE
  5
EDB
330
1F
100
AcDbEntity
  8
0
100
AcDbLine
 10
401.3542683705145
 20
378.6834182501171
 30
0.0
 11
401.3542683705145
 21
383.3835182501171
 31
0.0
  0
LINE
  5
EDC
330
1F
100
AcDbEntity
  8
0
100
AcDbLine
 10
401.3542683705145
 20
383.3835182501171
 30
0.0
 11
398.2540683705147
 21
383.3835182501171
 31
0.0
  0
LINE
  5
EDD
330
1F
100
AcDbEntity
  8
0
100
AcDbLine
 10
398.2540683705147
 20
383.3835182501171
 30
0.0
 11
398.2540683705147
 21
388.6834182501171
 31
0.0
  0
LINE
  5
EDE
330
1F
100
AcDbEntity
  8
0
100
AcDbLine
 10
398.2540683705147
 20
388.6834182501171
 30
0.0
 11
401.3542683705145
 21
388.6834182501171
 31
0.0
  0
LINE
  5
EDF
330
1F
100
AcDbEntity
  8
0
100
AcDbLine
 10
401.3542683705145
 20
388.6834182501171
 30
0.0
 11
401.3542683705145
 21
393.3832182501171
 31
0.0
  0
LINE
  5
EE0
330
1F
100
AcDbEntity
  8
0
100
AcDbLine
 10
401.3542683705145
 20
393.3832182501171
 30
0.0
 11
398.2540683705147
 21
393.3832182501171
 31
0.0
  0
LINE
  5
EE1
330
1F
100
AcDbEntity
  8
0
100
AcDbLine
 10
398.2540683705147
 20
393.3832182501171
 30
0.0
 11
398.2540683705147
 21
398.6835182501171
 31
0.0
  0
LINE
  5
EE2
330
1F
100
AcDbEntity
  8
0
100
AcDbLine
 10
398.2540683705147
 20
398.6835182501171
 30
0.0
 11
401.3542683705145
 21
398.6835182501171
 31
0.0
  0
LINE
  5
EE3
330
1F
100
AcDbEntity
  8
0
100
AcDbLine
 10
401.3542683705145
 20
398.6835182501171
 30
0.0
 11
401.3542683705145
 21
403.3836182501171
 31
0.0
  0
LINE
  5
EE4
330
1F
100
AcDbEntity
  8
0
100
AcDbLine
 10
406.2297845887726
 20
403.3830876624684
 30
0.0
 11
401.3545846176418
 21
403.3836182157008
 31
0.0
  0
LINE
  5
EE5
330
1F
100
AcDbEntity
  8
0
100
AcDbLine
 10
410.9292683705036
 20
358.6833283566461
 30
0.0
 11
460.9292683705036
 21
358.6833283566461
 31
0.0
  0
LINE
  5
EE6
330
1F
100
AcDbEntity
  8
0
100
AcDbLine
 10
410.9295838497393
 20
403.3830977689961
 30
0.0
 11
460.9295838497394
 21
403.3830977689961
 31
0.0
  0
LINE
  5
EE7
330
1F
100
AcDbEntity
  8
0
100
AcDbLine
 10
423.4547574954829
 20
391.0332130628211
 30
0.0
 11
460.9290400535115
 21
391.0332130628211
 31
0.0
  0
LINE
  5
EE8
330
1F
100
AcDbEntity
  8
0
100
AcDbLine
 10
423.4547574954829
 20
371.0337234374131
 30
0.0
 11
460.9290400535115
 21
371.0337234374131
 31
0.0
  0
ARC
  5
EE9
330
1F
100
AcDbEntity
  8
0
100
AcDbCircle
 10
423.4547574954829
 20
381.033468250117
 30
0.0
 40
9.999744812704008
100
AcDbArc
 50
90.0
 51
270.0
  0
LINE
  5
EEA
330
1F
100
AcDbEntity
  8
0
100
AcDbLine
 10
498.403322607807
 20
391.0337420301144
 30
0.0
 11
460.9290400535115
 21
391.0332130628211
 31
0.0
  0
LINE
  5
EEB
330
1F
100
AcDbEntity
  8
0
100
AcDbLine
 10
498.4036049100999
 20
371.0342524066987
 30
0.0
 11
460.9293223558045
 21
371.0337234394054
 31
0.0
  0
ARC
  5
EEC
330
1F
100
AcDbEntity
  8
0
100
AcDbCircle
 10
498.4034637589534
 20
381.0339972184065
 30
0.0
 40
9.999744812703864
100
AcDbArc
 50
270.0008087571358
 51
90.00080875713583
  0
LINE
  5
EED
330
1F
100
AcDbEntity
  8
EBENE_1
 62
     0
100
AcDbLine
 10
84.97774176599852
 20
406.0217036755493
 30
0.0
 11
84.97774176599852
 21
373.320857329558
 31
0.0
  0
LINE
  5
EEE
330
1F
100
AcDbEntity
  8
EBENE_1
 62
     0
100
AcDbLine
 10
84.97774176599852
 20
371.321323909919
 30
0.0
 11
84.97774176599852
 21
361.3219342639812
 31
0.0
  0
LINE
  5
EEF
330
1F
100
AcDbEntity
  8
EBENE_1
 62
     0
100
AcDbLine
 10
88.97784213392197
 20
406.0217036755493
 30
0.0
 11
88.97784213392197
 21
373.320857329558
 31
0.0
  0
LINE
  5
EF0
330
1F
100
AcDbEntity
  8
EBENE_1
 62
     0
100
AcDbLine
 10
88.97784213392197
 20
371.321323909919
 30
0.0
 11
88.97784213392197
 21
361.3219342639812
 31
0.0
  0
LINE
  5
EF1
330
1F
100
AcDbEntity
  8
EBENE_1
 62
     0
100
AcDbLine
 10
92.97759799229686
 20
406.0217036755493
 30
0.0
 11
92.97759799229686
 21
373.320857329558
 31
0.0
  0
LINE
  5
EF2
330
1F
100
AcDbEntity
  8
EBENE_1
 62
     0
100
AcDbLine
 10
92.97759799229686
 20
371.321323909919
 30
0.0
 11
92.97759799229686
 21
361.3219342639812
 31
0.0
  0
LINE
  5
EF3
330
1F
100
AcDbEntity
  8
EBENE_1
 62
     0
100
AcDbLine
 10
86.97761969518593
 20
387.3210363625162
 30
0.0
 11
86.97761969518593
 21
361.3219342639812
 31
0.0
  0
LINE
  5
EF4
330
1F
100
AcDbEntity
  8
EBENE_1
 62
     0
100
AcDbLine
 10
86.97761969518593
 20
406.0223926946464
 30
0.0
 11
86.97761969518593
 21
389.3212588012523
 31
0.0
  0
LINE
  5
EF5
330
1F
100
AcDbEntity
  8
EBENE_1
 62
     0
100
AcDbLine
 10
90.97772006310936
 20
387.3210363625162
 30
0.0
 11
90.97772006310936
 21
361.3219342639812
 31
0.0
  0
LINE
  5
EF6
330
1F
100
AcDbEntity
  8
EBENE_1
 62
     0
100
AcDbLine
 10
90.97772006310936
 20
406.0223926946464
 30
0.0
 11
90.97772006310936
 21
389.3212588012523
 31
0.0
  0
LINE
  5
EF7
330
1F
100
AcDbEntity
  8
EBENE_1
 62
     0
100
AcDbLine
 10
96.9780428697693
 20
406.0217036755493
 30
0.0
 11
96.9780428697693
 21
373.320857329558
 31
0.0
  0
LINE
  5
EF8
330
1F
100
AcDbEntity
  8
EBENE_1
 62
     0
100
AcDbLine
 10
96.9780428697693
 20
371.321323909919
 30
0.0
 11
96.9780428697693
 21
361.3219342639812
 31
0.0
  0
LINE
  5
EF9
330
1F
100
AcDbEntity
  8
EBENE_1
 62
     0
100
AcDbLine
 10
100.9777987281442
 20
406.0217036755493
 30
0.0
 11
100.9777987281442
 21
373.320857329558
 31
0.0
  0
LINE
  5
EFA
330
1F
100
AcDbEntity
  8
EBENE_1
 62
     0
100
AcDbLine
 10
100.9777987281442
 20
371.321323909919
 30
0.0
 11
100.9777987281442
 21
361.3219342639812
 31
0.0
  0
LINE
  5
EFB
330
1F
100
AcDbEntity
  8
EBENE_1
 62
     0
100
AcDbLine
 10
104.9775545865191
 20
406.0217036755493
 30
0.0
 11
104.9775545865191
 21
373.320857329558
 31
0.0
  0
LINE
  5
EFC
330
1F
100
AcDbEntity
  8
EBENE_1
 62
     0
100
AcDbLine
 10
104.9775545865191
 20
371.321323909919
 30
0.0
 11
104.9775545865191
 21
361.3219342639812
 31
0.0
  0
LINE
  5
EFD
330
1F
100
AcDbEntity
  8
EBENE_1
 62
     0
100
AcDbLine
 10
94.9778204310329
 20
387.3210363625162
 30
0.0
 11
94.9778204310329
 21
361.3219342639812
 31
0.0
  0
LINE
  5
EFE
330
1F
100
AcDbEntity
  8
EBENE_1
 62
     0
100
AcDbLine
 10
94.9778204310329
 20
406.0223926946464
 30
0.0
 11
94.9778204310329
 21
389.3212588012523
 31
0.0
  0
LINE
  5
EFF
330
1F
100
AcDbEntity
  8
EBENE_1
 62
     0
100
AcDbLine
 10
98.97757628940803
 20
387.3210363625162
 30
0.0
 11
98.97757628940803
 21
361.3219342639812
 31
0.0
  0
LINE
  5
F00
330
1F
100
AcDbEntity
  8
EBENE_1
 62
     0
100
AcDbLine
 10
98.97757628940803
 20
406.0223926946464
 30
0.0
 11
98.97757628940803
 21
389.3212588012523
 31
0.0
  0
LINE
  5
F01
330
1F
100
AcDbEntity
  8
EBENE_1
 62
     0
100
AcDbLine
 10
102.9780211668801
 20
387.3210363625162
 30
0.0
 11
102.9780211668801
 21
361.3219342639812
 31
0.0
  0
LINE
  5
F02
330
1F
100
AcDbEntity
  8
EBENE_1
 62
     0
100
AcDbLine
 10
102.9780211668801
 20
406.0223926946464
 30
0.0
 11
102.9780211668801
 21
389.3212588012523
 31
0.0
  0
LINE
  5
F03
330
1F
100
AcDbEntity
  8
EBENE_1
 62
     0
100
AcDbLine
 10
108.9779994639914
 20
406.0217036755493
 30
0.0
 11
108.9779994639914
 21
373.320857329558
 31
0.0
  0
LINE
  5
F04
330
1F
100
AcDbEntity
  8
EBENE_1
 62
     0
100
AcDbLine
 10
108.9779994639914
 20
371.321323909919
 30
0.0
 11
108.9779994639914
 21
361.3219342639812
 31
0.0
  0
LINE
  5
F05
330
1F
100
AcDbEntity
  8
EBENE_1
 62
     0
100
AcDbLine
 10
112.9777553223664
 20
406.0217036755493
 30
0.0
 11
112.9777553223664
 21
373.320857329558
 31
0.0
  0
LINE
  5
F06
330
1F
100
AcDbEntity
  8
EBENE_1
 62
     0
100
AcDbLine
 10
112.9777553223664
 20
371.321323909919
 30
0.0
 11
112.9777553223664
 21
361.3219342639812
 31
0.0
  0
LINE
  5
F07
330
1F
100
AcDbEntity
  8
EBENE_1
 62
     0
100
AcDbLine
 10
116.9778556902897
 20
406.0217036755493
 30
0.0
 11
116.9778556902897
 21
373.320857329558
 31
0.0
  0
LINE
  5
F08
330
1F
100
AcDbEntity
  8
EBENE_1
 62
     0
100
AcDbLine
 10
116.9778556902897
 20
371.321323909919
 30
0.0
 11
116.9778556902897
 21
361.3219342639812
 31
0.0
  0
LINE
  5
F09
330
1F
100
AcDbEntity
  8
EBENE_1
 62
     0
100
AcDbLine
 10
106.9777770252552
 20
387.3210363625162
 30
0.0
 11
106.9777770252552
 21
361.3219342639812
 31
0.0
  0
LINE
  5
F0A
330
1F
100
AcDbEntity
  8
EBENE_1
 62
     0
100
AcDbLine
 10
106.9777770252552
 20
406.0223926946464
 30
0.0
 11
106.9777770252552
 21
389.3212588012523
 31
0.0
  0
LINE
  5
F0B
330
1F
100
AcDbEntity
  8
EBENE_1
 62
     0
100
AcDbLine
 10
110.9778773931789
 20
387.3210363625162
 30
0.0
 11
110.9778773931789
 21
361.3219342639812
 31
0.0
  0
LINE
  5
F0C
330
1F
100
AcDbEntity
  8
EBENE_1
 62
     0
100
AcDbLine
 10
110.9778773931789
 20
406.0223926946464
 30
0.0
 11
110.9778773931789
 21
389.3212588012523
 31
0.0
  0
LINE
  5
F0D
330
1F
100
AcDbEntity
  8
EBENE_1
 62
     0
100
AcDbLine
 10
114.9779777611025
 20
387.3210363625162
 30
0.0
 11
114.9779777611025
 21
361.3219342639812
 31
0.0
  0
LINE
  5
F0E
330
1F
100
AcDbEntity
  8
EBENE_1
 62
     0
100
AcDbLine
 10
114.9779777611025
 20
406.0223926946464
 30
0.0
 11
114.9779777611025
 21
389.3212588012523
 31
0.0
  0
LINE
  5
F0F
330
1F
100
AcDbEntity
  8
EBENE_1
 62
     0
100
AcDbLine
 10
118.9777336194773
 20
387.3210363625162
 30
0.0
 11
118.9777336194773
 21
361.3219342639812
 31
0.0
  0
LINE
  5
F10
330
1F
100
AcDbEntity
  8
EBENE_1
 62
     0
100
AcDbLine
 10
118.9777336194773
 20
406.0223926946464
 30
0.0
 11
118.9777336194773
 21
389.3212588012523
 31
0.0
  0
LINE
  5
F11
330
1F
100
AcDbEntity
  8
EBENE_1
 62
     0
100
AcDbLine
 10
120.9776115486651
 20
406.0217036755493
 30
0.0
 11
120.9776115486651
 21
373.320857329558
 31
0.0
  0
LINE
  5
F12
330
1F
100
AcDbEntity
  8
EBENE_1
 62
     0
100
AcDbLine
 10
120.9776115486651
 20
371.321323909919
 30
0.0
 11
120.9776115486651
 21
361.3219342639812
 31
0.0
  0
LINE
  5
F13
330
1F
100
AcDbEntity
  8
0
100
AcDbLine
 10
75.40272005199688
 20
361.3219342639812
 30
0.0
 11
67.42773634503862
 21
361.3219342639812
 31
0.0
  0
LINE
  5
F14
330
1F
100
AcDbEntity
  8
0
100
AcDbLine
 10
67.42773634503862
 20
361.3219342639812
 30
0.0
 11
67.42773634503862
 21
366.3221458512728
 31
0.0
  0
LINE
  5
F15
330
1F
100
AcDbEntity
  8
0
100
AcDbLine
 10
67.42773634503862
 20
366.3221458512728
 30
0.0
 11
70.52797777221496
 21
366.3221458512728
 31
0.0
  0
LINE
  5
F16
330
1F
100
AcDbEntity
  8
0
100
AcDbLine
 10
70.52797777221496
 20
366.3221458512728
 30
0.0
 11
70.52797777221496
 21
371.0222896217993
 31
0.0
  0
LINE
  5
F17
330
1F
100
AcDbEntity
  8
0
100
AcDbLine
 10
70.52797777221496
 20
371.0222896217993
 30
0.0
 11
67.42773634503862
 21
371.0222896217993
 31
0.0
  0
LINE
  5
F18
330
1F
100
AcDbEntity
  8
0
100
AcDbLine
 10
67.42773634503862
 20
371.0222896217993
 30
0.0
 11
67.42773634503862
 21
376.3222245163075
 31
0.0
  0
LINE
  5
F19
330
1F
100
AcDbEntity
  8
0
100
AcDbLine
 10
67.42773634503862
 20
376.3222245163075
 30
0.0
 11
70.52797777221496
 21
376.3222245163075
 31
0.0
  0
LINE
  5
F1A
330
1F
100
AcDbEntity
  8
0
100
AcDbLine
 10
70.52797777221496
 20
376.3222245163075
 30
0.0
 11
70.52797777221496
 21
381.0220237772854
 31
0.0
  0
LINE
  5
F1B
330
1F
100
AcDbEntity
  8
0
100
AcDbLine
 10
70.52797777221496
 20
381.0220237772854
 30
0.0
 11
67.42773634503862
 21
381.0220237772854
 31
0.0
  0
LINE
  5
F1C
330
1F
100
AcDbEntity
  8
0
100
AcDbLine
 10
67.42773634503862
 20
381.0220237772854
 30
0.0
 11
67.42773634503862
 21
386.3223031813424
 31
0.0
  0
LINE
  5
F1D
330
1F
100
AcDbEntity
  8
0
100
AcDbLine
 10
67.42773634503862
 20
386.3223031813424
 30
0.0
 11
70.52797777221496
 21
386.3223031813424
 31
0.0
  0
LINE
  5
F1E
330
1F
100
AcDbEntity
  8
0
100
AcDbLine
 10
70.52797777221496
 20
386.3223031813424
 30
0.0
 11
70.52797777221496
 21
391.0224469518687
 31
0.0
  0
LINE
  5
F1F
330
1F
100
AcDbEntity
  8
0
100
AcDbLine
 10
70.52797777221496
 20
391.0224469518687
 30
0.0
 11
67.42773634503862
 21
391.0224469518687
 31
0.0
  0
LINE
  5
F20
330
1F
100
AcDbEntity
  8
0
100
AcDbLine
 10
67.42773634503862
 20
391.0224469518687
 30
0.0
 11
67.42773634503862
 21
396.322381846377
 31
0.0
  0
LINE
  5
F21
330
1F
100
AcDbEntity
  8
0
100
AcDbLine
 10
67.42773634503862
 20
396.322381846377
 30
0.0
 11
70.52797777221496
 21
396.322381846377
 31
0.0
  0
LINE
  5
F22
330
1F
100
AcDbEntity
  8
0
100
AcDbLine
 10
70.52797777221496
 20
396.322381846377
 30
0.0
 11
70.52797777221496
 21
401.0221811073548
 31
0.0
  0
LINE
  5
F23
330
1F
100
AcDbEntity
  8
0
100
AcDbLine
 10
70.52797777221496
 20
401.0221811073548
 30
0.0
 11
67.42773634503862
 21
401.0221811073548
 31
0.0
  0
LINE
  5
F24
330
1F
100
AcDbEntity
  8
0
100
AcDbLine
 10
67.42773634503862
 20
401.0221811073548
 30
0.0
 11
67.42773634503862
 21
406.0217036755493
 31
0.0
  0
LINE
  5
F25
330
1F
100
AcDbEntity
  8
0
100
AcDbLine
 10
67.42773634503862
 20
406.0217036755493
 30
0.0
 11
75.40313239339218
 21
406.0217036755493
 31
0.0
  0
LINE
  5
F26
330
1F
100
AcDbEntity
  8
0
100
AcDbLine
 10
75.40313239339218
 20
406.0217036755493
 30
0.0
 11
75.40313239339218
 21
402.92215126747
 31
0.0
  0
LINE
  5
F27
330
1F
100
AcDbEntity
  8
0
100
AcDbLine
 10
75.40313239339218
 20
402.92215126747
 30
0.0
 11
80.10293165436985
 21
402.92215126747
 31
0.0
  0
LINE
  5
F28
330
1F
100
AcDbEntity
  8
0
100
AcDbLine
 10
80.10293165436985
 20
402.92215126747
 30
0.0
 11
80.10293165436985
 21
406.0217036755493
 31
0.0
  0
LINE
  5
F29
330
1F
100
AcDbEntity
  8
0
100
AcDbLine
 10
80.10293165436985
 20
406.0217036755493
 30
0.0
 11
125.8527661698421
 21
406.0223926946464
 31
0.0
  0
LINE
  5
F2A
330
1F
100
AcDbEntity
  8
0
100
AcDbLine
 10
125.8527661698421
 20
406.0223926946464
 30
0.0
 11
125.8527661698421
 21
402.9218067579215
 31
0.0
  0
LINE
  5
F2B
330
1F
100
AcDbEntity
  8
0
100
AcDbLine
 10
125.8527661698421
 20
402.9218067579215
 30
0.0
 11
130.55256543082
 21
402.9218067579215
 31
0.0
  0
LINE
  5
F2C
330
1F
100
AcDbEntity
  8
0
100
AcDbLine
 10
130.55256543082
 20
402.9218067579215
 30
0.0
 11
130.55256543082
 21
406.0223926946464
 31
0.0
  0
LINE
  5
F2D
330
1F
100
AcDbEntity
  8
0
100
AcDbLine
 10
130.5525200519968
 20
361.3219342639812
 30
0.0
 11
130.5525200519968
 21
364.4223342639813
 31
0.0
  0
LINE
  5
F2E
330
1F
100
AcDbEntity
  8
0
100
AcDbLine
 10
130.5525200519968
 20
364.4223342639813
 30
0.0
 11
125.8527200519968
 21
364.4223342639813
 31
0.0
  0
LINE
  5
F2F
330
1F
100
AcDbEntity
  8
0
100
AcDbLine
 10
125.8527200519968
 20
364.4223342639813
 30
0.0
 11
125.8527200519968
 21
361.3219342639812
 31
0.0
  0
LINE
  5
F30
330
1F
100
AcDbEntity
  8
0
100
AcDbLine
 10
125.8527200519968
 20
361.3219342639812
 30
0.0
 11
80.10252005199687
 21
361.3219342639812
 31
0.0
  0
LINE
  5
F31
330
1F
100
AcDbEntity
  8
0
100
AcDbLine
 10
80.10252005199687
 20
361.3219342639812
 30
0.0
 11
80.10252005199687
 21
364.4223342639813
 31
0.0
  0
LINE
  5
F32
330
1F
100
AcDbEntity
  8
0
100
AcDbLine
 10
80.10252005199687
 20
364.4223342639813
 30
0.0
 11
75.40272005199688
 21
364.4223342639813
 31
0.0
  0
LINE
  5
F33
330
1F
100
AcDbEntity
  8
0
100
AcDbLine
 10
75.40272005199688
 20
364.4223342639813
 30
0.0
 11
75.40272005199688
 21
361.3219342639812
 31
0.0
  0
LINE
  5
F34
330
1F
100
AcDbEntity
  8
0
100
AcDbLine
 10
130.5525200519968
 20
361.3219342639812
 30
0.0
 11
175.2222200519967
 21
361.3219342639812
 31
0.0
  0
LINE
  5
F35
330
1F
100
AcDbEntity
  8
0
100
AcDbLine
 10
179.9220200519968
 20
361.3219342639812
 30
0.0
 11
281.1829200519969
 21
361.3219342639812
 31
0.0
  0
LINE
  5
F36
330
1F
100
AcDbEntity
  8
0
100
AcDbLine
 10
285.8827200519968
 20
361.3219342639812
 30
0.0
 11
330.5525200519969
 21
361.3219342639812
 31
0.0
  0
LINE
  5
F37
330
1F
100
AcDbEntity
  8
EBENE_1
 62
     0
100
AcDbLine
 10
376.1273890956413
 20
406.0217036755493
 30
0.0
 11
376.1273890956413
 21
373.320857329558
 31
0.0
  0
LINE
  5
F38
330
1F
100
AcDbEntity
  8
EBENE_1
 62
     0
100
AcDbLine
 10
376.1273890956413
 20
371.321323909919
 30
0.0
 11
376.1273890956413
 21
361.3219342639812
 31
0.0
  0
LINE
  5
F39
330
1F
100
AcDbEntity
  8
EBENE_1
 62
     0
100
AcDbLine
 10
372.127288727718
 20
406.0217036755493
 30
0.0
 11
372.127288727718
 21
373.320857329558
 31
0.0
  0
LINE
  5
F3A
330
1F
100
AcDbEntity
  8
EBENE_1
 62
     0
100
AcDbLine
 10
372.127288727718
 20
371.321323909919
 30
0.0
 11
372.127288727718
 21
361.3219342639812
 31
0.0
  0
LINE
  5
F3B
330
1F
100
AcDbEntity
  8
EBENE_1
 62
     0
100
AcDbLine
 10
368.1275328693432
 20
406.0217036755493
 30
0.0
 11
368.1275328693432
 21
373.320857329558
 31
0.0
  0
LINE
  5
F3C
330
1F
100
AcDbEntity
  8
EBENE_1
 62
     0
100
AcDbLine
 10
368.1275328693432
 20
371.321323909919
 30
0.0
 11
368.1275328693432
 21
361.3219342639812
 31
0.0
  0
LINE
  5
F3D
330
1F
100
AcDbEntity
  8
EBENE_1
 62
     0
100
AcDbLine
 10
374.1275111664541
 20
387.3210363625162
 30
0.0
 11
374.1275111664541
 21
361.3219342639812
 31
0.0
  0
LINE
  5
F3E
330
1F
100
AcDbEntity
  8
EBENE_1
 62
     0
100
AcDbLine
 10
374.1275111664541
 20
406.0223926946464
 30
0.0
 11
374.1275111664541
 21
389.3212588012523
 31
0.0
  0
LINE
  5
F3F
330
1F
100
AcDbEntity
  8
EBENE_1
 62
     0
100
AcDbLine
 10
370.1274107985305
 20
387.3210363625162
 30
0.0
 11
370.1274107985305
 21
361.3219342639812
 31
0.0
  0
LINE
  5
F40
330
1F
100
AcDbEntity
  8
EBENE_1
 62
     0
100
AcDbLine
 10
370.1274107985305
 20
406.0223926946464
 30
0.0
 11
370.1274107985305
 21
389.3212588012523
 31
0.0
  0
LINE
  5
F41
330
1F
100
AcDbEntity
  8
EBENE_1
 62
     0
100
AcDbLine
 10
364.1270879918707
 20
406.0217036755493
 30
0.0
 11
364.1270879918707
 21
373.320857329558
 31
0.0
  0
LINE
  5
F42
330
1F
100
AcDbEntity
  8
EBENE_1
 62
     0
100
AcDbLine
 10
364.1270879918707
 20
371.321323909919
 30
0.0
 11
364.1270879918707
 21
361.3219342639812
 31
0.0
  0
LINE
  5
F43
330
1F
100
AcDbEntity
  8
EBENE_1
 62
     0
100
AcDbLine
 10
360.1273321334957
 20
406.0217036755493
 30
0.0
 11
360.1273321334957
 21
373.320857329558
 31
0.0
  0
LINE
  5
F44
330
1F
100
AcDbEntity
  8
EBENE_1
 62
     0
100
AcDbLine
 10
360.1273321334957
 20
371.321323909919
 30
0.0
 11
360.1273321334957
 21
361.3219342639812
 31
0.0
  0
LINE
  5
F45
330
1F
100
AcDbEntity
  8
EBENE_1
 62
     0
100
AcDbLine
 10
356.1275762751209
 20
406.0217036755493
 30
0.0
 11
356.1275762751209
 21
373.320857329558
 31
0.0
  0
LINE
  5
F46
330
1F
100
AcDbEntity
  8
EBENE_1
 62
     0
100
AcDbLine
 10
356.1275762751209
 20
371.321323909919
 30
0.0
 11
356.1275762751209
 21
361.3219342639812
 31
0.0
  0
LINE
  5
F47
330
1F
100
AcDbEntity
  8
EBENE_1
 62
     0
100
AcDbLine
 10
366.127310430607
 20
387.3210363625162
 30
0.0
 11
366.127310430607
 21
361.3219342639812
 31
0.0
  0
LINE
  5
F48
330
1F
100
AcDbEntity
  8
EBENE_1
 62
     0
100
AcDbLine
 10
366.127310430607
 20
406.0223926946464
 30
0.0
 11
366.127310430607
 21
389.3212588012523
 31
0.0
  0
LINE
  5
F49
330
1F
100
AcDbEntity
  8
EBENE_1
 62
     0
100
AcDbLine
 10
362.127554572232
 20
387.3210363625162
 30
0.0
 11
362.127554572232
 21
361.3219342639812
 31
0.0
  0
LINE
  5
F4A
330
1F
100
AcDbEntity
  8
EBENE_1
 62
     0
100
AcDbLine
 10
362.127554572232
 20
406.0223926946464
 30
0.0
 11
362.127554572232
 21
389.3212588012523
 31
0.0
  0
LINE
  5
F4B
330
1F
100
AcDbEntity
  8
EBENE_1
 62
     0
100
AcDbLine
 10
358.1271096947598
 20
387.3210363625162
 30
0.0
 11
358.1271096947598
 21
361.3219342639812
 31
0.0
  0
LINE
  5
F4C
330
1F
100
AcDbEntity
  8
EBENE_1
 62
     0
100
AcDbLine
 10
358.1271096947598
 20
406.0223926946464
 30
0.0
 11
358.1271096947598
 21
389.3212588012523
 31
0.0
  0
LINE
  5
F4D
330
1F
100
AcDbEntity
  8
EBENE_1
 62
     0
100
AcDbLine
 10
352.1271313976486
 20
406.0217036755493
 30
0.0
 11
352.1271313976486
 21
373.320857329558
 31
0.0
  0
LINE
  5
F4E
330
1F
100
AcDbEntity
  8
EBENE_1
 62
     0
100
AcDbLine
 10
352.1271313976486
 20
371.321323909919
 30
0.0
 11
352.1271313976486
 21
361.3219342639812
 31
0.0
  0
LINE
  5
F4F
330
1F
100
AcDbEntity
  8
EBENE_1
 62
     0
100
AcDbLine
 10
348.1273755392735
 20
406.0217036755493
 30
0.0
 11
348.1273755392735
 21
373.320857329558
 31
0.0
  0
LINE
  5
F50
330
1F
100
AcDbEntity
  8
EBENE_1
 62
     0
100
AcDbLine
 10
348.1273755392735
 20
371.321323909919
 30
0.0
 11
348.1273755392735
 21
361.3219342639812
 31
0.0
  0
LINE
  5
F51
330
1F
100
AcDbEntity
  8
EBENE_1
 62
     0
100
AcDbLine
 10
344.12727517135
 20
406.0217036755493
 30
0.0
 11
344.12727517135
 21
373.320857329558
 31
0.0
  0
LINE
  5
F52
330
1F
100
AcDbEntity
  8
EBENE_1
 62
     0
100
AcDbLine
 10
344.12727517135
 20
371.321323909919
 30
0.0
 11
344.12727517135
 21
361.3219342639812
 31
0.0
  0
LINE
  5
F53
330
1F
100
AcDbEntity
  8
EBENE_1
 62
     0
100
AcDbLine
 10
354.1273538363848
 20
387.3210363625162
 30
0.0
 11
354.1273538363848
 21
361.3219342639812
 31
0.0
  0
LINE
  5
F54
330
1F
100
AcDbEntity
  8
EBENE_1
 62
     0
100
AcDbLine
 10
354.1273538363848
 20
406.0223926946464
 30
0.0
 11
354.1273538363848
 21
389.3212588012523
 31
0.0
  0
LINE
  5
F55
330
1F
100
AcDbEntity
  8
EBENE_1
 62
     0
100
AcDbLine
 10
350.1272534684608
 20
387.3210363625162
 30
0.0
 11
350.1272534684608
 21
361.3219342639812
 31
0.0
  0
LINE
  5
F56
330
1F
100
AcDbEntity
  8
EBENE_1
 62
     0
100
AcDbLine
 10
350.1272534684608
 20
406.0223926946464
 30
0.0
 11
350.1272534684608
 21
389.3212588012523
 31
0.0
  0
LINE
  5
F57
330
1F
100
AcDbEntity
  8
EBENE_1
 62
     0
100
AcDbLine
 10
346.1271531005375
 20
387.3210363625162
 30
0.0
 11
346.1271531005375
 21
361.3219342639812
 31
0.0
  0
LINE
  5
F58
330
1F
100
AcDbEntity
  8
EBENE_1
 62
     0
100
AcDbLine
 10
346.1271531005375
 20
406.0223926946464
 30
0.0
 11
346.1271531005375
 21
389.3212588012523
 31
0.0
  0
LINE
  5
F59
330
1F
100
AcDbEntity
  8
EBENE_1
 62
     0
100
AcDbLine
 10
342.1273972421627
 20
387.3210363625162
 30
0.0
 11
342.1273972421627
 21
361.3219342639812
 31
0.0
  0
LINE
  5
F5A
330
1F
100
AcDbEntity
  8
EBENE_1
 62
     0
100
AcDbLine
 10
342.1273972421627
 20
406.0223926946464
 30
0.0
 11
342.1273972421627
 21
389.3212588012523
 31
0.0
  0
LINE
  5
F5B
330
1F
100
AcDbEntity
  8
EBENE_1
 62
     0
100
AcDbLine
 10
340.127519312975
 20
406.0217036755493
 30
0.0
 11
340.127519312975
 21
373.320857329558
 31
0.0
  0
LINE
  5
F5C
330
1F
100
AcDbEntity
  8
EBENE_1
 62
     0
100
AcDbLine
 10
340.127519312975
 20
371.321323909919
 30
0.0
 11
340.127519312975
 21
361.3219342639812
 31
0.0
  0
LINE
  5
F5D
330
1F
100
AcDbEntity
  8
0
100
AcDbLine
 10
381.0021992072702
 20
402.92215126747
 30
0.0
 11
381.0021992072702
 21
406.0217036755493
 31
0.0
  0
LINE
  5
F5E
330
1F
100
AcDbEntity
  8
0
100
AcDbLine
 10
381.0021992072702
 20
406.0217036755493
 30
0.0
 11
335.252364691798
 21
406.0223926946464
 31
0.0
  0
LINE
  5
F5F
330
1F
100
AcDbEntity
  8
0
100
AcDbLine
 10
335.252364691798
 20
406.0223926946464
 30
0.0
 11
335.252364691798
 21
402.9218067579215
 31
0.0
  0
LINE
  5
F60
330
1F
100
AcDbEntity
  8
0
100
AcDbLine
 10
335.252364691798
 20
402.9218067579215
 30
0.0
 11
330.5525654308199
 21
402.9218067579215
 31
0.0
  0
LINE
  5
F61
330
1F
100
AcDbEntity
  8
0
100
AcDbLine
 10
330.5525654308199
 20
402.9218067579215
 30
0.0
 11
330.5525654308199
 21
406.0223926946464
 31
0.0
  0
LINE
  5
F62
330
1F
100
AcDbEntity
  8
0
100
AcDbLine
 10
330.5526108096433
 20
361.3219342639812
 30
0.0
 11
330.5526108096433
 21
364.4223342639813
 31
0.0
  0
LINE
  5
F63
330
1F
100
AcDbEntity
  8
0
100
AcDbLine
 10
330.5526108096433
 20
364.4223342639813
 30
0.0
 11
335.2524108096432
 21
364.4223342639813
 31
0.0
  0
LINE
  5
F64
330
1F
100
AcDbEntity
  8
0
100
AcDbLine
 10
335.2524108096432
 20
364.4223342639813
 30
0.0
 11
335.2524108096432
 21
361.3219342639812
 31
0.0
  0
LINE
  5
F65
330
1F
100
AcDbEntity
  8
0
100
AcDbLine
 10
335.2524108096432
 20
361.3219342639812
 30
0.0
 11
381.0026108096431
 21
361.3219342639812
 31
0.0
  0
LINE
  5
F66
330
1F
100
AcDbEntity
  8
0
100
AcDbLine
 10
381.0026108096431
 20
361.3219342639812
 30
0.0
 11
381.0026108096431
 21
364.4223342639813
 31
0.0
  0
LINE
  5
F67
330
1F
100
AcDbEntity
  8
0
100
AcDbLine
 10
385.70236543082
 20
361.3219342639812
 30
0.0
 11
393.677349137778
 21
361.3219342639812
 31
0.0
  0
LINE
  5
F68
330
1F
100
AcDbEntity
  8
0
100
AcDbLine
 10
393.677349137778
 20
361.3219342639812
 30
0.0
 11
393.677349137778
 21
366.3221458512728
 31
0.0
  0
LINE
  5
F69
330
1F
100
AcDbEntity
  8
0
100
AcDbLine
 10
393.677349137778
 20
366.3221458512728
 30
0.0
 11
390.5771077106019
 21
366.3221458512728
 31
0.0
  0
LINE
  5
F6A
330
1F
100
AcDbEntity
  8
0
100
AcDbLine
 10
390.5771077106019
 20
366.3221458512728
 30
0.0
 11
390.5771077106019
 21
371.0222896217993
 31
0.0
  0
LINE
  5
F6B
330
1F
100
AcDbEntity
  8
0
100
AcDbLine
 10
390.5771077106019
 20
371.0222896217993
 30
0.0
 11
393.677349137778
 21
371.0222896217993
 31
0.0
  0
LINE
  5
F6C
330
1F
100
AcDbEntity
  8
0
100
AcDbLine
 10
393.677349137778
 20
371.0222896217993
 30
0.0
 11
393.677349137778
 21
376.3222245163075
 31
0.0
  0
LINE
  5
F6D
330
1F
100
AcDbEntity
  8
0
100
AcDbLine
 10
393.677349137778
 20
376.3222245163075
 30
0.0
 11
390.5771077106019
 21
376.3222245163075
 31
0.0
  0
LINE
  5
F6E
330
1F
100
AcDbEntity
  8
0
100
AcDbLine
 10
390.5771077106019
 20
376.3222245163075
 30
0.0
 11
390.5771077106019
 21
381.0220237772854
 31
0.0
  0
LINE
  5
F6F
330
1F
100
AcDbEntity
  8
0
100
AcDbLine
 10
390.5771077106019
 20
381.0220237772854
 30
0.0
 11
393.677349137778
 21
381.0220237772854
 31
0.0
  0
LINE
  5
F70
330
1F
100
AcDbEntity
  8
0
100
AcDbLine
 10
393.677349137778
 20
381.0220237772854
 30
0.0
 11
393.677349137778
 21
386.3223031813424
 31
0.0
  0
LINE
  5
F71
330
1F
100
AcDbEntity
  8
0
100
AcDbLine
 10
393.677349137778
 20
386.3223031813424
 30
0.0
 11
390.5771077106019
 21
386.3223031813424
 31
0.0
  0
LINE
  5
F72
330
1F
100
AcDbEntity
  8
0
100
AcDbLine
 10
390.5771077106019
 20
386.3223031813424
 30
0.0
 11
390.5771077106019
 21
391.0224469518687
 31
0.0
  0
LINE
  5
F73
330
1F
100
AcDbEntity
  8
0
100
AcDbLine
 10
390.5771077106019
 20
391.0224469518687
 30
0.0
 11
393.677349137778
 21
391.0224469518687
 31
0.0
  0
LINE
  5
F74
330
1F
100
AcDbEntity
  8
0
100
AcDbLine
 10
393.677349137778
 20
391.0224469518687
 30
0.0
 11
393.677349137778
 21
396.322381846377
 31
0.0
  0
LINE
  5
F75
330
1F
100
AcDbEntity
  8
0
100
AcDbLine
 10
393.677349137778
 20
396.322381846377
 30
0.0
 11
390.5771077106019
 21
396.322381846377
 31
0.0
  0
LINE
  5
F76
330
1F
100
AcDbEntity
  8
0
100
AcDbLine
 10
390.5771077106019
 20
396.322381846377
 30
0.0
 11
390.5771077106019
 21
401.0221811073548
 31
0.0
  0
LINE
  5
F77
330
1F
100
AcDbEntity
  8
0
100
AcDbLine
 10
390.5771077106019
 20
401.0221811073548
 30
0.0
 11
393.677349137778
 21
401.0221811073548
 31
0.0
  0
LINE
  5
F78
330
1F
100
AcDbEntity
  8
0
100
AcDbLine
 10
393.677349137778
 20
401.0221811073548
 30
0.0
 11
393.677349137778
 21
406.0217036755493
 31
0.0
  0
LINE
  5
F79
330
1F
100
AcDbEntity
  8
0
100
AcDbLine
 10
393.677349137778
 20
406.0217036755493
 30
0.0
 11
385.7019530894245
 21
406.0217036755493
 31
0.0
  0
LINE
  5
F7A
330
1F
100
AcDbEntity
  8
0
100
AcDbLine
 10
385.7019530894245
 20
406.0217036755493
 30
0.0
 11
385.7019530894245
 21
402.92215126747
 31
0.0
  0
LINE
  5
F7B
330
1F
100
AcDbEntity
  8
0
100
AcDbLine
 10
385.7019530894245
 20
402.92215126747
 30
0.0
 11
381.0021538284468
 21
402.92215126747
 31
0.0
  0
LINE
  5
F7C
330
1F
100
AcDbEntity
  8
0
100
AcDbLine
 10
381.0021538284468
 20
402.92215126747
 30
0.0
 11
381.0021538284468
 21
406.0217036755493
 31
0.0
  0
LINE
  5
F7D
330
1F
100
AcDbEntity
  8
0
100
AcDbLine
 10
381.0025654308199
 20
361.3219342639812
 30
0.0
 11
381.0025654308199
 21
364.4223342639813
 31
0.0
  0
LINE
  5
F7E
330
1F
100
AcDbEntity
  8
0
100
AcDbLine
 10
381.0025654308199
 20
364.4223342639813
 30
0.0
 11
385.70236543082
 21
364.4223342639813
 31
0.0
  0
LINE
  5
F7F
330
1F
100
AcDbEntity
  8
0
100
AcDbLine
 10
385.70236543082
 20
364.4223342639813
 30
0.0
 11
385.70236543082
 21
361.3219342639812
 31
0.0
  0
LINE
  5
F80
330
1F
100
AcDbEntity
  8
0
100
AcDbLine
 10
130.5525200519968
 20
361.3219342639812
 30
0.0
 11
175.2222200519967
 21
361.3219342639812
 31
0.0
  0
LINE
  5
F81
330
1F
100
AcDbEntity
  8
0
100
AcDbLine
 10
175.2222200519967
 20
361.3219342639812
 30
0.0
 11
175.2222200519968
 21
364.4223342639813
 31
0.0
  0
LINE
  5
F82
330
1F
100
AcDbEntity
  8
0
100
AcDbLine
 10
175.2222200519968
 20
364.4223342639813
 30
0.0
 11
179.9220200519968
 21
364.4223342639813
 31
0.0
  0
LINE
  5
F83
330
1F
100
AcDbEntity
  8
0
100
AcDbLine
 10
179.9220200519968
 20
364.4223342639813
 30
0.0
 11
179.9220200519968
 21
361.3219342639812
 31
0.0
  0
LINE
  5
F84
330
1F
100
AcDbEntity
  8
0
100
AcDbLine
 10
330.5525200519969
 20
361.3219342639812
 30
0.0
 11
285.8827200519968
 21
361.3219342639812
 31
0.0
  0
LINE
  5
F85
330
1F
100
AcDbEntity
  8
0
100
AcDbLine
 10
285.8827200519968
 20
361.3219342639812
 30
0.0
 11
285.8827200519968
 21
364.4223342639813
 31
0.0
  0
LINE
  5
F86
330
1F
100
AcDbEntity
  8
0
100
AcDbLine
 10
285.8827200519968
 20
364.4223342639813
 30
0.0
 11
281.1829200519969
 21
364.4223342639813
 31
0.0
  0
LINE
  5
F87
330
1F
100
AcDbEntity
  8
0
100
AcDbLine
 10
281.1829200519969
 20
364.4223342639813
 30
0.0
 11
281.1829200519969
 21
361.3219342639812
 31
0.0
  0
LINE
  5
F88
330
1F
100
AcDbEntity
  8
0
100
AcDbLine
 10
130.5525200519968
 20
406.0223926946465
 30
0.0
 11
175.2222200519967
 21
406.0223926946465
 31
0.0
  0
LINE
  5
F89
330
1F
100
AcDbEntity
  8
0
100
AcDbLine
 10
179.9220200519968
 20
406.0223926946465
 30
0.0
 11
281.1829200519969
 21
406.0223926946465
 31
0.0
  0
LINE
  5
F8A
330
1F
100
AcDbEntity
  8
0
100
AcDbLine
 10
285.8827200519968
 20
406.0223926946465
 30
0.0
 11
330.5525200519969
 21
406.0223926946465
 31
0.0
  0
LINE
  5
F8B
330
1F
100
AcDbEntity
  8
0
100
AcDbLine
 10
130.5525200519968
 20
406.0223926946465
 30
0.0
 11
175.2222200519967
 21
406.0223926946465
 31
0.0
  0
LINE
  5
F8C
330
1F
100
AcDbEntity
  8
0
100
AcDbLine
 10
175.2222200519967
 20
406.0223926946465
 30
0.0
 11
175.2222200519968
 21
402.9219926946465
 31
0.0
  0
LINE
  5
F8D
330
1F
100
AcDbEntity
  8
0
100
AcDbLine
 10
175.2222200519968
 20
402.9219926946465
 30
0.0
 11
179.9220200519968
 21
402.9219926946465
 31
0.0
  0
LINE
  5
F8E
330
1F
100
AcDbEntity
  8
0
100
AcDbLine
 10
179.9220200519968
 20
402.9219926946465
 30
0.0
 11
179.9220200519968
 21
406.0223926946465
 31
0.0
  0
LINE
  5
F8F
330
1F
100
AcDbEntity
  8
0
100
AcDbLine
 10
330.5525200519969
 20
406.0223926946465
 30
0.0
 11
285.8827200519968
 21
406.0223926946465
 31
0.0
  0
LINE
  5
F90
330
1F
100
AcDbEntity
  8
0
100
AcDbLine
 10
285.8827200519968
 20
406.0223926946465
 30
0.0
 11
285.8827200519968
 21
402.9219926946465
 31
0.0
  0
LINE
  5
F91
330
1F
100
AcDbEntity
  8
0
100
AcDbLine
 10
285.8827200519968
 20
402.9219926946465
 30
0.0
 11
281.1829200519969
 21
402.9219926946465
 31
0.0
  0
LINE
  5
F92
330
1F
100
AcDbEntity
  8
0
100
AcDbLine
 10
281.1829200519969
 20
402.9219926946465
 30
0.0
 11
281.1829200519969
 21
406.0223926946465
 31
0.0
  0
SPLINE
  5
FA2
330
1F
100
AcDbEntity
  8
EBENE_1
 62
     0
100
AcDbSpline
210
0.0
220
0.0
230
1.0
 70
    28
 71
     3
 72
     8
 73
     4
 74
     0
 42
0.000000001
 43
0.0000000001
 40
10.07080795935753
 40
10.07080795935753
 40
10.07080795935753
 40
10.07080795935753
 40
10.5707963267949
 40
10.5707963267949
 40
10.5707963267949
 40
10.5707963267949
 10
68.26195950027443
 20
194.364047279749
 30
0.0
 41
1.0
 10
68.26195950027443
 20
194.364047279749
 30
0.0
 41
1.0
 10
68.26195950027443
 20
191.3016721461912
 30
0.0
 41
1.0
 10
68.26195950027443
 20
188.2392257660922
 30
0.0
 41
1.0
  0
SPLINE
  5
FA3
330
1F
100
AcDbEntity
  8
EBENE_1
 62
     0
100
AcDbSpline
210
0.0
220
0.0
230
1.0
 70
    28
 71
     3
 72
     8
 73
     4
 74
     0
 42
0.000000001
 43
0.0000000001
 40
0.0
 40
0.0
 40
0.0
 40
0.0
 40
1.0
 40
1.0
 40
1.0
 40
1.0
 10
146.8366149835822
 20
148.239041865933
 30
0.0
 41
1.0
 10
131.9367081182678
 20
148.239041865933
 30
0.0
 41
1.0
 10
117.0368012529534
 20
148.239041865933
 30
0.0
 41
1.0
 10
102.136894387639
 20
148.239041865933
 30
0.0
 41
1.0
  0
SPLINE
  5
FA4
330
1F
100
AcDbEntity
  8
EBENE_1
 62
     0
100
AcDbSpline
210
0.0
220
0.0
230
1.0
 70
    28
 71
     3
 72
     8
 73
     4
 74
     0
 42
0.000000001
 43
0.0000000001
 40
1.0
 40
1.0
 40
1.0
 40
1.0
 40
2.0
 40
2.0
 40
2.0
 40
2.0
 10
102.136894387639
 20
148.239041865933
 30
0.0
 41
1.0
 10
102.136894387639
 20
148.239041865933
 30
0.0
 41
1.0
 10
102.136894387639
 20
145.1897878519383
 30
0.0
 41
1.0
 10
102.136894387639
 20
145.1897878519383
 30
0.0
 41
1.0
  0
SPLINE
  5
FA5
330
1F
100
AcDbEntity
  8
EBENE_1
 62
     0
100
AcDbSpline
210
0.0
220
0.0
230
1.0
 70
    28
 71
     3
 72
     8
 73
     4
 74
     0
 42
0.000000001
 43
0.0000000001
 40
2.0
 40
2.0
 40
2.0
 40
2.0
 40
3.0
 40
3.0
 40
3.0
 40
3.0
 10
102.136894387639
 20
145.1897878519383
 30
0.0
 41
1.0
 10
102.136894387639
 20
145.1897878519383
 30
0.0
 41
1.0
 10
96.83661498358226
 20
145.1897878519383
 30
0.0
 41
1.0
 10
96.83661498358226
 20
145.1897878519383
 30
0.0
 41
1.0
  0
SPLINE
  5
FA6
330
1F
100
AcDbEntity
  8
EBENE_1
 62
     0
100
AcDbSpline
210
0.0
220
0.0
230
1.0
 70
    28
 71
     3
 72
     8
 73
     4
 74
     0
 42
0.000000001
 43
0.0000000001
 40
3.0
 40
3.0
 40
3.0
 40
3.0
 40
4.0
 40
4.0
 40
4.0
 40
4.0
 10
96.83661498358226
 20
145.1897878519383
 30
0.0
 41
1.0
 10
96.83661498358226
 20
145.1897878519383
 30
0.0
 41
1.0
 10
96.83661498358226
 20
148.239041865933
 30
0.0
 41
1.0
 10
96.83661498358226
 20
148.239041865933
 30
0.0
 41
1.0
  0
SPLINE
  5
FA7
330
1F
100
AcDbEntity
  8
EBENE_1
 62
     0
100
AcDbSpline
210
0.0
220
0.0
230
1.0
 70
    28
 71
     3
 72
     8
 73
     4
 74
     0
 42
0.000000001
 43
0.0000000001
 40
4.0
 40
4.0
 40
4.0
 40
4.0
 40
5.0
 40
5.0
 40
5.0
 40
5.0
 10
96.83661498358226
 20
148.239041865933
 30
0.0
 41
1.0
 10
96.83661498358226
 20
148.239041865933
 30
0.0
 41
1.0
 10
93.72672728904717
 20
148.239041865933
 30
0.0
 41
1.0
 10
93.72672728904717
 20
148.239041865933
 30
0.0
 41
1.0
  0
SPLINE
  5
FA8
330
1F
100
AcDbEntity
  8
EBENE_1
 62
     0
100
AcDbSpline
210
0.0
220
0.0
230
1.0
 70
    12
 71
     3
 72
     8
 73
     4
 74
     0
 42
0.000000001
 43
0.0000000001
 40
5.0
 40
5.0
 40
5.0
 40
5.0
 40
6.570796326794894
 40
6.570796326794894
 40
6.570796326794894
 40
6.570796326794894
 10
93.72672728904717
 20
148.239041865933
 30
0.0
 41
1.0
 10
78.80981168106564
 20
148.2390418659331
 30
0.0
 41
0.8047378541243649
 10
68.26195950027443
 20
158.7868940467242
 30
0.0
 41
0.8047378541243649
 10
68.26195950027443
 20
173.7038096547057
 30
0.0
 41
0.9999999999999998
  0
SPLINE
  5
FA9
330
1F
100
AcDbEntity
  8
EBENE_1
 62
     0
100
AcDbSpline
210
0.0
220
0.0
230
1.0
 70
    28
 71
     3
 72
     8
 73
     4
 74
     0
 42
0.000000001
 43
0.0000000001
 40
6.570796326794894
 40
6.570796326794894
 40
6.570796326794894
 40
6.570796326794894
 40
7.570796326794894
 40
7.570796326794894
 40
7.570796326794894
 40
7.570796326794894
 10
68.26195950027443
 20
173.7038096547057
 30
0.0
 41
0.9999999999999998
 10
68.26195950027443
 20
173.7038096547057
 30
0.0
 41
1.0
 10
68.26195950027443
 20
176.8140418587892
 30
0.0
 41
1.0
 10
68.26195950027443
 20
176.8140418587892
 30
0.0
 41
1.0
  0
SPLINE
  5
FAA
330
1F
100
AcDbEntity
  8
EBENE_1
 62
     0
100
AcDbSpline
210
0.0
220
0.0
230
1.0
 70
    28
 71
     3
 72
     8
 73
     4
 74
     0
 42
0.000000001
 43
0.0000000001
 40
7.570796326794894
 40
7.570796326794894
 40
7.570796326794894
 40
7.570796326794894
 40
8.570796326794894
 40
8.570796326794894
 40
8.570796326794894
 40
8.570796326794894
 10
68.26195950027443
 20
176.8140418587892
 30
0.0
 41
1.0
 10
68.26195950027443
 20
176.8140418587892
 30
0.0
 41
1.0
 10
65.21236097673136
 20
176.8140418587892
 30
0.0
 41
1.0
 10
65.21236097673136
 20
176.8140418587892
 30
0.0
 41
1.0
  0
SPLINE
  5
FAB
330
1F
100
AcDbEntity
  8
EBENE_1
 62
     0
100
AcDbSpline
210
0.0
220
0.0
230
1.0
 70
    28
 71
     3
 72
     8
 73
     4
 74
     0
 42
0.000000001
 43
0.0000000001
 40
8.570796326794894
 40
8.570796326794894
 40
8.570796326794894
 40
8.570796326794894
 40
9.570796326794894
 40
9.570796326794894
 40
9.570796326794894
 40
9.570796326794894
 10
65.21236097673136
 20
176.8140418587892
 30
0.0
 41
1.0
 10
65.21236097673136
 20
176.8140418587892
 30
0.0
 41
1.0
 10
65.21236097673136
 20
182.1139767532976
 30
0.0
 41
1.0
 10
65.21236097673136
 20
182.1139767532976
 30
0.0
 41
1.0
  0
SPLINE
  5
FAC
330
1F
100
AcDbEntity
  8
EBENE_1
 62
     0
100
AcDbSpline
210
0.0
220
0.0
230
1.0
 70
    28
 71
     3
 72
     8
 73
     4
 74
     0
 42
0.000000001
 43
0.0000000001
 40
9.570796326794894
 40
9.570796326794894
 40
9.570796326794894
 40
9.570796326794894
 40
10.57079632679489
 40
10.57079632679489
 40
10.57079632679489
 40
10.57079632679489
 10
65.21236097673136
 20
182.1139767532976
 30
0.0
 41
1.0
 10
65.21236097673136
 20
182.1139767532976
 30
0.0
 41
1.0
 10
68.26195950027443
 20
182.1139767532976
 30
0.0
 41
1.0
 10
68.26195950027443
 20
182.1139767532976
 30
0.0
 41
1.0
  0
SPLINE
  5
FAD
330
1F
100
AcDbEntity
  8
EBENE_1
 62
     0
100
AcDbSpline
210
0.0
220
0.0
230
1.0
 70
    28
 71
     3
 72
     8
 73
     4
 74
     0
 42
0.000000001
 43
0.0000000001
 40
10.57079632679489
 40
10.57079632679489
 40
10.57079632679489
 40
10.57079632679489
 40
11.07078469423226
 40
11.07078469423226
 40
11.07078469423226
 40
11.07078469423226
 10
68.26195950027443
 20
182.1139767532976
 30
0.0
 41
1.0
 10
68.26195950027443
 20
182.1139767532976
 30
0.0
 41
1.0
 10
68.26195950027443
 20
185.1763518868555
 30
0.0
 41
1.0
 10
68.26195950027443
 20
188.2387982669544
 30
0.0
 41
1.0
  0
SPLINE
  5
FAE
330
1F
100
AcDbEntity
  8
EBENE_1
 62
     0
100
AcDbSpline
210
0.0
220
0.0
230
1.0
 70
    28
 71
     3
 72
     8
 73
     4
 74
     0
 42
0.000000001
 43
0.0000000001
 40
10.07080795935753
 40
10.07080795935753
 40
10.07080795935753
 40
10.07080795935753
 40
10.5707963267949
 40
10.5707963267949
 40
10.5707963267949
 40
10.5707963267949
 10
336.0118292750037
 20
194.364047279749
 30
0.0
 41
1.0
 10
336.0118292750037
 20
194.364047279749
 30
0.0
 41
1.0
 10
336.0118292750037
 20
191.3016721461912
 30
0.0
 41
1.0
 10
336.0118292750037
 20
188.2392257660922
 30
0.0
 41
1.0
  0
SPLINE
  5
FAF
330
1F
100
AcDbEntity
  8
EBENE_1
 62
     0
100
AcDbSpline
210
0.0
220
0.0
230
1.0
 70
    28
 71
     3
 72
     8
 73
     4
 74
     0
 42
0.000000001
 43
0.0000000001
 40
0.0
 40
0.0
 40
0.0
 40
0.0
 40
1.0
 40
1.0
 40
1.0
 40
1.0
 10
302.136894387639
 20
145.1897878519383
 30
0.0
 41
1.0
 10
302.136894387639
 20
145.1897878519383
 30
0.0
 41
1.0
 10
307.4371737916958
 20
145.1897878519383
 30
0.0
 41
1.0
 10
307.4371737916958
 20
145.1897878519383
 30
0.0
 41
1.0
  0
SPLINE
  5
FB0
330
1F
100
AcDbEntity
  8
EBENE_1
 62
     0
100
AcDbSpline
210
0.0
220
0.0
230
1.0
 70
    28
 71
     3
 72
     8
 73
     4
 74
     0
 42
0.000000001
 43
0.0000000001
 40
1.0
 40
1.0
 40
1.0
 40
1.0
 40
2.0
 40
2.0
 40
2.0
 40
2.0
 10
307.4371737916958
 20
145.1897878519383
 30
0.0
 41
1.0
 10
307.4371737916958
 20
145.1897878519383
 30
0.0
 41
1.0
 10
307.4371737916958
 20
148.239041865933
 30
0.0
 41
1.0
 10
307.4371737916958
 20
148.239041865933
 30
0.0
 41
1.0
  0
SPLINE
  5
FB1
330
1F
100
AcDbEntity
  8
EBENE_1
 62
     0
100
AcDbSpline
210
0.0
220
0.0
230
1.0
 70
    12
 71
     3
 72
     8
 73
     4
 74
     0
 42
0.000000001
 43
0.0000000001
 40
0.0
 40
0.0
 40
0.0
 40
0.0
 40
1.570796326794894
 40
1.570796326794894
 40
1.570796326794894
 40
1.570796326794894
 10
310.547061486231
 20
148.239041865933
 30
0.0
 41
1.0
 10
325.4639770942124
 20
148.2390418659331
 30
0.0
 41
0.8047378541243649
 10
336.0118292750037
 20
158.7868940467242
 30
0.0
 41
0.8047378541243649
 10
336.0118292750036
 20
173.7038096547057
 30
0.0
 41
0.9999999999999998
  0
SPLINE
  5
FB2
330
1F
100
AcDbEntity
  8
EBENE_1
 62
     0
100
AcDbSpline
210
0.0
220
0.0
230
1.0
 70
    28
 71
     3
 72
     8
 73
     4
 74
     0
 42
0.000000001
 43
0.0000000001
 40
1.570796326794894
 40
1.570796326794894
 40
1.570796326794894
 40
1.570796326794894
 40
2.570796326794894
 40
2.570796326794894
 40
2.570796326794894
 40
2.570796326794894
 10
336.0118292750036
 20
173.7038096547057
 30
0.0
 41
0.9999999999999998
 10
336.0118292750037
 20
173.7038096547057
 30
0.0
 41
1.0
 10
336.0118292750037
 20
176.8140418587892
 30
0.0
 41
1.0
 10
336.0118292750037
 20
176.8140418587892
 30
0.0
 41
1.0
  0
SPLINE
  5
FB3
330
1F
100
AcDbEntity
  8
EBENE_1
 62
     0
100
AcDbSpline
210
0.0
220
0.0
230
1.0
 70
    28
 71
     3
 72
     8
 73
     4
 74
     0
 42
0.000000001
 43
0.0000000001
 40
2.570796326794894
 40
2.570796326794894
 40
2.570796326794894
 40
2.570796326794894
 40
3.570796326794894
 40
3.570796326794894
 40
3.570796326794894
 40
3.570796326794894
 10
336.0118292750037
 20
176.8140418587892
 30
0.0
 41
1.0
 10
336.0118292750037
 20
176.8140418587892
 30
0.0
 41
1.0
 10
339.0614277985467
 20
176.8140418587892
 30
0.0
 41
1.0
 10
339.0614277985467
 20
176.8140418587892
 30
0.0
 41
1.0
  0
SPLINE
  5
FB4
330
1F
100
AcDbEntity
  8
EBENE_1
 62
     0
100
AcDbSpline
210
0.0
220
0.0
230
1.0
 70
    28
 71
     3
 72
     8
 73
     4
 74
     0
 42
0.000000001
 43
0.0000000001
 40
3.570796326794894
 40
3.570796326794894
 40
3.570796326794894
 40
3.570796326794894
 40
4.570796326794894
 40
4.570796326794894
 40
4.570796326794894
 40
4.570796326794894
 10
339.0614277985467
 20
176.8140418587892
 30
0.0
 41
1.0
 10
339.0614277985467
 20
176.8140418587892
 30
0.0
 41
1.0
 10
339.0614277985467
 20
182.1139767532976
 30
0.0
 41
1.0
 10
339.0614277985467
 20
182.1139767532976
 30
0.0
 41
1.0
  0
SPLINE
  5
FB5
330
1F
100
AcDbEntity
  8
EBENE_1
 62
     0
100
AcDbSpline
210
0.0
220
0.0
230
1.0
 70
    28
 71
     3
 72
     8
 73
     4
 74
     0
 42
0.000000001
 43
0.0000000001
 40
4.570796326794894
 40
4.570796326794894
 40
4.570796326794894
 40
4.570796326794894
 40
5.570796326794894
 40
5.570796326794894
 40
5.570796326794894
 40
5.570796326794894
 10
339.0614277985467
 20
182.1139767532976
 30
0.0
 41
1.0
 10
339.0614277985467
 20
182.1139767532976
 30
0.0
 41
1.0
 10
336.0118292750037
 20
182.1139767532976
 30
0.0
 41
1.0
 10
336.0118292750037
 20
182.1139767532976
 30
0.0
 41
1.0
  0
SPLINE
  5
FB6
330
1F
100
AcDbEntity
  8
EBENE_1
 62
     0
100
AcDbSpline
210
0.0
220
0.0
230
1.0
 70
    28
 71
     3
 72
     8
 73
     4
 74
     0
 42
0.000000001
 43
0.0000000001
 40
5.570796326794894
 40
5.570796326794894
 40
5.570796326794894
 40
5.570796326794894
 40
6.070784694232264
 40
6.070784694232264
 40
6.070784694232264
 40
6.070784694232264
 10
336.0118292750037
 20
182.1139767532976
 30
0.0
 41
1.0
 10
336.0118292750037
 20
182.1139767532976
 30
0.0
 41
1.0
 10
336.0118292750037
 20
185.1763518868555
 30
0.0
 41
1.0
 10
336.0118292750037
 20
188.2387982669544
 30
0.0
 41
1.0
  0
SPLINE
  5
FB7
330
1F
100
AcDbEntity
  8
EBENE_1
 62
     0
100
AcDbSpline
210
0.0
220
0.0
230
1.0
 70
    28
 71
     3
 72
     8
 73
     4
 74
     0
 42
0.000000001
 43
0.0000000001
 40
0.0
 40
0.0
 40
0.0
 40
0.0
 40
1.0
 40
1.0
 40
1.0
 40
1.0
 10
68.26195950027443
 20
304.9634895696279
 30
0.0
 41
1.0
 10
68.26195950027443
 20
304.9634895696279
 30
0.0
 41
1.0
 10
65.21236097673136
 20
304.9634895696279
 30
0.0
 41
1.0
 10
65.21236097673136
 20
304.9634895696279
 30
0.0
 41
1.0
  0
SPLINE
  5
FB8
330
1F
100
AcDbEntity
  8
EBENE_1
 62
     0
100
AcDbSpline
210
0.0
220
0.0
230
1.0
 70
    28
 71
     3
 72
     8
 73
     4
 74
     0
 42
0.000000001
 43
0.0000000001
 40
1.0
 40
1.0
 40
1.0
 40
1.0
 40
2.0
 40
2.0
 40
2.0
 40
2.0
 10
65.21236097673136
 20
304.9634895696279
 30
0.0
 41
1.0
 10
65.21236097673136
 20
304.9634895696279
 30
0.0
 41
1.0
 10
65.21236097673136
 20
299.6635546751195
 30
0.0
 41
1.0
 10
65.21236097673136
 20
299.6635546751195
 30
0.0
 41
1.0
  0
SPLINE
  5
FB9
330
1F
100
AcDbEntity
  8
EBENE_1
 62
     0
100
AcDbSpline
210
0.0
220
0.0
230
1.0
 70
    28
 71
     3
 72
     8
 73
     4
 74
     0
 42
0.000000001
 43
0.0000000001
 40
2.0
 40
2.0
 40
2.0
 40
2.0
 40
3.0
 40
3.0
 40
3.0
 40
3.0
 10
65.21236097673136
 20
299.6635546751195
 30
0.0
 41
1.0
 10
65.21236097673136
 20
299.6635546751195
 30
0.0
 41
1.0
 10
68.26195950027443
 20
299.6635546751195
 30
0.0
 41
1.0
 10
68.26195950027443
 20
299.6635546751195
 30
0.0
 41
1.0
  0
SPLINE
  5
FBA
330
1F
100
AcDbEntity
  8
EBENE_1
 62
     0
100
AcDbSpline
210
0.0
220
0.0
230
1.0
 70
    28
 71
     3
 72
    11
 73
     7
 74
     0
 42
0.000000001
 43
0.0000000001
 40
3.0
 40
3.0
 40
3.0
 40
3.0
 40
4.0
 40
4.0
 40
4.0
 40
5.0
 40
5.0
 40
5.0
 40
5.0
 10
68.26195950027443
 20
299.6635546751195
 30
0.0
 41
1.0
 10
68.26195950027443
 20
282.9968880084527
 30
0.0
 41
1.0
 10
68.26195950027443
 20
266.3302213417861
 30
0.0
 41
1.0
 10
68.26195950027443
 20
249.6635546751194
 30
0.0
 41
1.0
 10
68.26195950027443
 20
232.9968880084531
 30
0.0
 41
1.0
 10
68.26195950027443
 20
216.3302213417864
 30
0.0
 41
1.0
 10
68.26195950027443
 20
199.6635546751197
 30
0.0
 41
1.0
  0
SPLINE
  5
FBB
330
1F
100
AcDbEntity
  8
EBENE_1
 62
     0
100
AcDbSpline
210
0.0
220
0.0
230
1.0
 70
    28
 71
     3
 72
     8
 73
     4
 74
     0
 42
0.000000001
 43
0.0000000001
 40
5.0
 40
5.0
 40
5.0
 40
5.0
 40
6.0
 40
6.0
 40
6.0
 40
6.0
 10
68.26195950027443
 20
199.6635546751197
 30
0.0
 41
1.0
 10
68.26195950027443
 20
199.6635546751196
 30
0.0
 41
1.0
 10
65.21236097673136
 20
199.6635546751196
 30
0.0
 41
1.0
 10
65.21236097673136
 20
199.6635546751196
 30
0.0
 41
1.0
  0
SPLINE
  5
FBC
330
1F
100
AcDbEntity
  8
EBENE_1
 62
     0
100
AcDbSpline
210
0.0
220
0.0
230
1.0
 70
    28
 71
     3
 72
     8
 73
     4
 74
     0
 42
0.000000001
 43
0.0000000001
 40
6.0
 40
6.0
 40
6.0
 40
6.0
 40
7.0
 40
7.0
 40
7.0
 40
7.0
 10
65.21236097673136
 20
199.6635546751196
 30
0.0
 41
1.0
 10
65.21236097673136
 20
199.6635546751196
 30
0.0
 41
1.0
 10
65.21236097673136
 20
194.3636197806112
 30
0.0
 41
1.0
 10
65.21236097673136
 20
194.3636197806112
 30
0.0
 41
1.0
  0
SPLINE
  5
FBD
330
1F
100
AcDbEntity
  8
EBENE_1
 62
     0
100
AcDbSpline
210
0.0
220
0.0
230
1.0
 70
    28
 71
     3
 72
     8
 73
     4
 74
     0
 42
0.000000001
 43
0.0000000001
 40
7.0
 40
7.0
 40
7.0
 40
7.0
 40
8.0
 40
8.0
 40
8.0
 40
8.0
 10
65.21236097673136
 20
194.3636197806112
 30
0.0
 41
1.0
 10
65.21236097673136
 20
194.3636197806112
 30
0.0
 41
1.0
 10
68.26195950027443
 20
194.3636197806112
 30
0.0
 41
1.0
 10
68.26195950027443
 20
194.3636197806112
 30
0.0
 41
1.0
  0
SPLINE
  5
FBE
330
1F
100
AcDbEntity
  8
EBENE_1
 62
     0
100
AcDbSpline
210
0.0
220
0.0
230
1.0
 70
    28
 71
     3
 72
     8
 73
     4
 74
     0
 42
0.000000001
 43
0.0000000001
 40
0.0
 40
0.0
 40
0.0
 40
0.0
 40
1.0
 40
1.0
 40
1.0
 40
1.0
 10
339.0614277985467
 20
199.6635546751196
 30
0.0
 41
1.0
 10
339.0614277985467
 20
199.6635546751196
 30
0.0
 41
1.0
 10
339.0614277985467
 20
194.3636197806112
 30
0.0
 41
1.0
 10
339.0614277985467
 20
194.3636197806112
 30
0.0
 41
1.0
  0
SPLINE
  5
FBF
330
1F
100
AcDbEntity
  8
EBENE_1
 62
     0
100
AcDbSpline
210
0.0
220
0.0
230
1.0
 70
    28
 71
     3
 72
     8
 73
     4
 74
     0
 42
0.000000001
 43
0.0000000001
 40
1.0
 40
1.0
 40
1.0
 40
1.0
 40
2.0
 40
2.0
 40
2.0
 40
2.0
 10
339.0614277985467
 20
194.3636197806112
 30
0.0
 41
1.0
 10
339.0614277985467
 20
194.3636197806112
 30
0.0
 41
1.0
 10
336.0118292750037
 20
194.3636197806112
 30
0.0
 41
1.0
 10
336.0118292750037
 20
194.3636197806112
 30
0.0
 41
1.0
  0
SPLINE
  5
FC0
330
1F
100
AcDbEntity
  8
EBENE_1
 62
     0
100
AcDbSpline
210
0.0
220
0.0
230
1.0
 70
    28
 71
     3
 72
     8
 73
     4
 74
     0
 42
0.000000001
 43
0.0000000001
 40
0.0
 40
0.0
 40
0.0
 40
0.0
 40
1.0
 40
1.0
 40
1.0
 40
1.0
 10
152.136894387639
 20
145.1897878519383
 30
0.0
 41
1.0
 10
152.136894387639
 20
145.1897878519383
 30
0.0
 41
1.0
 10
146.8366149835822
 20
145.1897878519383
 30
0.0
 41
1.0
 10
146.8366149835822
 20
145.1897878519383
 30
0.0
 41
1.0
  0
SPLINE
  5
FC1
330
1F
100
AcDbEntity
  8
EBENE_1
 62
     0
100
AcDbSpline
210
0.0
220
0.0
230
1.0
 70
    28
 71
     3
 72
     8
 73
     4
 74
     0
 42
0.000000001
 43
0.0000000001
 40
1.0
 40
1.0
 40
1.0
 40
1.0
 40
2.0
 40
2.0
 40
2.0
 40
2.0
 10
146.8366149835822
 20
145.1897878519383
 30
0.0
 41
1.0
 10
146.8366149835822
 20
146.2062058566033
 30
0.0
 41
1.0
 10
146.8366149835822
 20
147.2226238612682
 30
0.0
 41
1.0
 10
146.8366149835822
 20
148.2390418659331
 30
0.0
 41
1.0
  0
SPLINE
  5
FC2
330
1F
100
AcDbEntity
  8
EBENE_1
 62
     0
100
AcDbSpline
210
0.0
220
0.0
230
1.0
 70
    28
 71
     3
 72
     8
 73
     4
 74
     0
 42
0.000000001
 43
0.0000000001
 40
2.0
 40
2.0
 40
2.0
 40
2.0
 40
3.0
 40
3.0
 40
3.0
 40
3.0
 10
146.8366149835822
 20
148.2390418659331
 30
0.0
 41
1.0
 10
146.8366149835822
 20
148.239041865933
 30
0.0
 41
1.0
 10
143.7267272890472
 20
148.239041865933
 30
0.0
 41
1.0
 10
143.7267272890472
 20
148.239041865933
 30
0.0
 41
1.0
  0
SPLINE
  5
FC3
330
1F
100
AcDbEntity
  8
EBENE_1
 62
     0
100
AcDbSpline
210
0.0
220
0.0
230
1.0
 70
    28
 71
     3
 72
     8
 73
     4
 74
     0
 42
0.000000001
 43
0.0000000001
 40
0.0
 40
0.0
 40
0.0
 40
0.0
 40
1.0
 40
1.0
 40
1.0
 40
1.0
 10
302.136894387639
 20
145.1897878519383
 30
0.0
 41
1.0
 10
302.136894387639
 20
145.1897878519383
 30
0.0
 41
1.0
 10
302.136894387639
 20
148.239041865933
 30
0.0
 41
1.0
 10
302.136894387639
 20
148.239041865933
 30
0.0
 41
1.0
  0
SPLINE
  5
FC4
330
1F
100
AcDbEntity
  8
EBENE_1
 62
     0
100
AcDbSpline
210
0.0
220
0.0
230
1.0
 70
    28
 71
     3
 72
     8
 73
     4
 74
     0
 42
0.000000001
 43
0.0000000001
 40
1.0
 40
1.0
 40
1.0
 40
1.0
 40
2.0
 40
2.0
 40
2.0
 40
2.0
 10
302.136894387639
 20
148.239041865933
 30
0.0
 41
1.0
 10
287.2369875223246
 20
148.239041865933
 30
0.0
 41
1.0
 10
272.3370806570102
 20
148.239041865933
 30
0.0
 41
1.0
 10
257.4371737916958
 20
148.239041865933
 30
0.0
 41
1.0
  0
SPLINE
  5
FC5
330
1F
100
AcDbEntity
  8
EBENE_1
 62
     0
100
AcDbSpline
210
0.0
220
0.0
230
1.0
 70
    28
 71
     3
 72
     8
 73
     4
 74
     0
 42
0.000000001
 43
0.0000000001
 40
2.0
 40
2.0
 40
2.0
 40
2.0
 40
3.0
 40
3.0
 40
3.0
 40
3.0
 10
257.4371737916958
 20
148.239041865933
 30
0.0
 41
1.0
 10
272.3370806570102
 20
148.239041865933
 30
0.0
 41
1.0
 10
287.2369875223246
 20
148.239041865933
 30
0.0
 41
1.0
 10
302.136894387639
 20
148.239041865933
 30
0.0
 41
1.0
  0
SPLINE
  5
FC6
330
1F
100
AcDbEntity
  8
EBENE_1
 62
     0
100
AcDbSpline
210
0.0
220
0.0
230
1.0
 70
    28
 71
     3
 72
     8
 73
     4
 74
     0
 42
0.000000001
 43
0.0000000001
 40
3.0
 40
3.0
 40
3.0
 40
3.0
 40
4.0
 40
4.0
 40
4.0
 40
4.0
 10
302.136894387639
 20
148.239041865933
 30
0.0
 41
1.0
 10
302.136894387639
 20
148.239041865933
 30
0.0
 41
1.0
 10
302.136894387639
 20
145.1897878519383
 30
0.0
 41
1.0
 10
302.136894387639
 20
145.1897878519383
 30
0.0
 41
1.0
  0
SPLINE
  5
FC7
330
1F
100
AcDbEntity
  8
EBENE_1
 62
     0
100
AcDbSpline
210
0.0
220
0.0
230
1.0
 70
    28
 71
     3
 72
     8
 73
     4
 74
     0
 42
0.000000001
 43
0.0000000001
 40
4.0
 40
4.0
 40
4.0
 40
4.0
 40
5.0
 40
5.0
 40
5.0
 40
5.0
 10
302.136894387639
 20
145.1897878519383
 30
0.0
 41
1.0
 10
302.136894387639
 20
145.1897878519383
 30
0.0
 41
1.0
 10
307.4371737916958
 20
145.1897878519383
 30
0.0
 41
1.0
 10
307.4371737916958
 20
145.1897878519383
 30
0.0
 41
1.0
  0
SPLINE
  5
FC8
330
1F
100
AcDbEntity
  8
EBENE_1
 62
     0
100
AcDbSpline
210
0.0
220
0.0
230
1.0
 70
    28
 71
     3
 72
     8
 73
     4
 74
     0
 42
0.000000001
 43
0.0000000001
 40
5.0
 40
5.0
 40
5.0
 40
5.0
 40
6.0
 40
6.0
 40
6.0
 40
6.0
 10
307.4371737916958
 20
145.1897878519383
 30
0.0
 41
1.0
 10
307.4371737916958
 20
145.1897878519383
 30
0.0
 41
1.0
 10
307.4371737916958
 20
148.239041865933
 30
0.0
 41
1.0
 10
307.4371737916958
 20
148.239041865933
 30
0.0
 41
1.0
  0
SPLINE
  5
FC9
330
1F
100
AcDbEntity
  8
EBENE_1
 62
     0
100
AcDbSpline
210
0.0
220
0.0
230
1.0
 70
    28
 71
     3
 72
     8
 73
     4
 74
     0
 42
0.000000001
 43
0.0000000001
 40
6.0
 40
6.0
 40
6.0
 40
6.0
 40
7.0
 40
7.0
 40
7.0
 40
7.0
 10
307.4371737916958
 20
148.239041865933
 30
0.0
 41
1.0
 10
307.4371737916958
 20
148.239041865933
 30
0.0
 41
1.0
 10
310.547061486231
 20
148.239041865933
 30
0.0
 41
1.0
 10
310.547061486231
 20
148.239041865933
 30
0.0
 41
1.0
  0
SPLINE
  5
FCA
330
1F
100
AcDbEntity
  8
EBENE_1
 62
     0
100
AcDbSpline
210
0.0
220
0.0
230
1.0
 70
    28
 71
     3
 72
     8
 73
     4
 74
     0
 42
0.000000001
 43
0.0000000001
 40
0.0
 40
0.0
 40
0.0
 40
0.0
 40
1.0
 40
1.0
 40
1.0
 40
1.0
 10
152.136894387639
 20
145.1897878519383
 30
0.0
 41
1.0
 10
152.136894387639
 20
145.1897878519383
 30
0.0
 41
1.0
 10
152.136894387639
 20
148.239041865933
 30
0.0
 41
1.0
 10
152.136894387639
 20
148.239041865933
 30
0.0
 41
1.0
  0
SPLINE
  5
FCB
330
1F
100
AcDbEntity
  8
EBENE_1
 62
     0
100
AcDbSpline
210
0.0
220
0.0
230
1.0
 70
    28
 71
     3
 72
     8
 73
     4
 74
     0
 42
0.000000001
 43
0.0000000001
 40
1.0
 40
1.0
 40
1.0
 40
1.0
 40
2.0
 40
2.0
 40
2.0
 40
2.0
 10
152.136894387639
 20
148.239041865933
 30
0.0
 41
1.0
 10
185.4702277209724
 20
148.239041865933
 30
0.0
 41
1.0
 10
218.8035610543057
 20
148.239041865933
 30
0.0
 41
1.0
 10
252.1368943876391
 20
148.239041865933
 30
0.0
 41
1.0
  0
SPLINE
  5
FCC
330
1F
100
AcDbEntity
  8
EBENE_1
 62
     0
100
AcDbSpline
210
0.0
220
0.0
230
1.0
 70
    28
 71
     3
 72
     8
 73
     4
 74
     0
 42
0.000000001
 43
0.0000000001
 40
2.0
 40
2.0
 40
2.0
 40
2.0
 40
3.0
 40
3.0
 40
3.0
 40
3.0
 10
252.1368943876391
 20
148.239041865933
 30
0.0
 41
1.0
 10
252.1368943876391
 20
148.239041865933
 30
0.0
 41
1.0
 10
252.1368943876391
 20
145.1897878519383
 30
0.0
 41
1.0
 10
252.1368943876391
 20
145.1897878519383
 30
0.0
 41
1.0
  0
SPLINE
  5
FCD
330
1F
100
AcDbEntity
  8
EBENE_1
 62
     0
100
AcDbSpline
210
0.0
220
0.0
230
1.0
 70
    28
 71
     3
 72
     8
 73
     4
 74
     0
 42
0.000000001
 43
0.0000000001
 40
3.0
 40
3.0
 40
3.0
 40
3.0
 40
4.0
 40
4.0
 40
4.0
 40
4.0
 10
252.1368943876391
 20
145.1897878519383
 30
0.0
 41
1.0
 10
252.1368943876391
 20
145.1897878519383
 30
0.0
 41
1.0
 10
257.4371737916958
 20
145.1897878519383
 30
0.0
 41
1.0
 10
257.4371737916958
 20
145.1897878519383
 30
0.0
 41
1.0
  0
SPLINE
  5
FCE
330
1F
100
AcDbEntity
  8
EBENE_1
 62
     0
100
AcDbSpline
210
0.0
220
0.0
230
1.0
 70
    28
 71
     3
 72
     8
 73
     4
 74
     0
 42
0.000000001
 43
0.0000000001
 40
4.0
 40
4.0
 40
4.0
 40
4.0
 40
5.0
 40
5.0
 40
5.0
 40
5.0
 10
257.4371737916958
 20
145.1897878519383
 30
0.0
 41
1.0
 10
257.4371737916958
 20
146.2062058566033
 30
0.0
 41
1.0
 10
257.4371737916958
 20
147.2226238612682
 30
0.0
 41
1.0
 10
257.4371737916958
 20
148.2390418659331
 30
0.0
 41
1.0
  0
SPLINE
  5
FCF
330
1F
100
AcDbEntity
  8
EBENE_1
 62
     0
100
AcDbSpline
210
0.0
220
0.0
230
1.0
 70
    28
 71
     3
 72
     8
 73
     4
 74
     0
 42
0.000000001
 43
0.0000000001
 40
5.0
 40
5.0
 40
5.0
 40
5.0
 40
6.0
 40
6.0
 40
6.0
 40
6.0
 10
257.4371737916958
 20
148.2390418659331
 30
0.0
 41
1.0
 10
257.4371737916958
 20
148.239041865933
 30
0.0
 41
1.0
 10
260.547061486231
 20
148.239041865933
 30
0.0
 41
1.0
 10
260.547061486231
 20
148.239041865933
 30
0.0
 41
1.0
  0
SPLINE
  5
FD0
330
1F
100
AcDbEntity
  8
EBENE_1
 62
     0
100
AcDbSpline
210
0.0
220
0.0
230
1.0
 70
    28
 71
     3
 72
     8
 73
     4
 74
     0
 42
0.000000001
 43
0.0000000001
 40
10.07080795935753
 40
10.07080795935753
 40
10.07080795935753
 40
10.07080795935753
 40
10.5707963267949
 40
10.5707963267949
 40
10.5707963267949
 40
10.5707963267949
 10
68.26195950027443
 20
304.9630620704902
 30
0.0
 41
1.0
 10
68.26195950027443
 20
304.9630620704902
 30
0.0
 41
1.0
 10
68.26195950027443
 20
308.025437204048
 30
0.0
 41
1.0
 10
68.26195950027443
 20
311.087883584147
 30
0.0
 41
1.0
  0
SPLINE
  5
FD1
330
1F
100
AcDbEntity
  8
EBENE_1
 62
     0
100
AcDbSpline
210
0.0
220
0.0
230
1.0
 70
    28
 71
     3
 72
     8
 73
     4
 74
     0
 42
0.000000001
 43
0.0000000001
 40
0.0
 40
0.0
 40
0.0
 40
0.0
 40
1.0
 40
1.0
 40
1.0
 40
1.0
 10
146.8366149835822
 20
351.0880674843063
 30
0.0
 41
1.0
 10
131.9367081182678
 20
351.0880674843063
 30
0.0
 41
1.0
 10
117.0368012529534
 20
351.0880674843063
 30
0.0
 41
1.0
 10
102.136894387639
 20
351.0880674843063
 30
0.0
 41
1.0
  0
SPLINE
  5
FD2
330
1F
100
AcDbEntity
  8
EBENE_1
 62
     0
100
AcDbSpline
210
0.0
220
0.0
230
1.0
 70
    28
 71
     3
 72
     8
 73
     4
 74
     0
 42
0.000000001
 43
0.0000000001
 40
1.0
 40
1.0
 40
1.0
 40
1.0
 40
2.0
 40
2.0
 40
2.0
 40
2.0
 10
102.136894387639
 20
351.0880674843063
 30
0.0
 41
1.0
 10
102.136894387639
 20
351.0880674843062
 30
0.0
 41
1.0
 10
102.136894387639
 20
354.1373214983008
 30
0.0
 41
1.0
 10
102.136894387639
 20
354.1373214983008
 30
0.0
 41
1.0
  0
SPLINE
  5
FD3
330
1F
100
AcDbEntity
  8
EBENE_1
 62
     0
100
AcDbSpline
210
0.0
220
0.0
230
1.0
 70
    28
 71
     3
 72
     8
 73
     4
 74
     0
 42
0.000000001
 43
0.0000000001
 40
2.0
 40
2.0
 40
2.0
 40
2.0
 40
3.0
 40
3.0
 40
3.0
 40
3.0
 10
102.136894387639
 20
354.1373214983008
 30
0.0
 41
1.0
 10
102.136894387639
 20
354.1373214983008
 30
0.0
 41
1.0
 10
96.83661498358226
 20
354.1373214983008
 30
0.0
 41
1.0
 10
96.83661498358226
 20
354.1373214983008
 30
0.0
 41
1.0
  0
SPLINE
  5
FD4
330
1F
100
AcDbEntity
  8
EBENE_1
 62
     0
100
AcDbSpline
210
0.0
220
0.0
230
1.0
 70
    28
 71
     3
 72
     8
 73
     4
 74
     0
 42
0.000000001
 43
0.0000000001
 40
3.0
 40
3.0
 40
3.0
 40
3.0
 40
4.0
 40
4.0
 40
4.0
 40
4.0
 10
96.83661498358226
 20
354.1373214983008
 30
0.0
 41
1.0
 10
96.83661498358226
 20
354.1373214983008
 30
0.0
 41
1.0
 10
96.83661498358226
 20
351.0880674843062
 30
0.0
 41
1.0
 10
96.83661498358226
 20
351.0880674843062
 30
0.0
 41
1.0
  0
SPLINE
  5
FD5
330
1F
100
AcDbEntity
  8
EBENE_1
 62
     0
100
AcDbSpline
210
0.0
220
0.0
230
1.0
 70
    28
 71
     3
 72
     8
 73
     4
 74
     0
 42
0.000000001
 43
0.0000000001
 40
4.0
 40
4.0
 40
4.0
 40
4.0
 40
5.0
 40
5.0
 40
5.0
 40
5.0
 10
96.83661498358226
 20
351.0880674843062
 30
0.0
 41
1.0
 10
96.83661498358226
 20
351.0880674843062
 30
0.0
 41
1.0
 10
93.72672728904717
 20
351.0880674843062
 30
0.0
 41
1.0
 10
93.72672728904717
 20
351.0880674843062
 30
0.0
 41
1.0
  0
SPLINE
  5
FD6
330
1F
100
AcDbEntity
  8
EBENE_1
 62
     0
100
AcDbSpline
210
0.0
220
0.0
230
1.0
 70
    12
 71
     3
 72
     8
 73
     4
 74
     0
 42
0.000000001
 43
0.0000000001
 40
5.0
 40
5.0
 40
5.0
 40
5.0
 40
6.570796326794894
 40
6.570796326794894
 40
6.570796326794894
 40
6.570796326794894
 10
93.72672728904717
 20
351.0880674843062
 30
0.0
 41
1.0
 10
78.80981168106564
 20
351.0880674843061
 30
0.0
 41
0.8047378541243649
 10
68.26195950027443
 20
340.540215303515
 30
0.0
 41
0.8047378541243649
 10
68.26195950027443
 20
325.6232996955334
 30
0.0
 41
0.9999999999999998
  0
SPLINE
  5
FD7
330
1F
100
AcDbEntity
  8
EBENE_1
 62
     0
100
AcDbSpline
210
0.0
220
0.0
230
1.0
 70
    28
 71
     3
 72
     8
 73
     4
 74
     0
 42
0.000000001
 43
0.0000000001
 40
6.570796326794894
 40
6.570796326794894
 40
6.570796326794894
 40
6.570796326794894
 40
7.570796326794894
 40
7.570796326794894
 40
7.570796326794894
 40
7.570796326794894
 10
68.26195950027443
 20
325.6232996955334
 30
0.0
 41
0.9999999999999998
 10
68.26195950027443
 20
325.6232996955334
 30
0.0
 41
1.0
 10
68.26195950027443
 20
322.5130674914499
 30
0.0
 41
1.0
 10
68.26195950027443
 20
322.5130674914499
 30
0.0
 41
1.0
  0
SPLINE
  5
FD8
330
1F
100
AcDbEntity
  8
EBENE_1
 62
     0
100
AcDbSpline
210
0.0
220
0.0
230
1.0
 70
    28
 71
     3
 72
     8
 73
     4
 74
     0
 42
0.000000001
 43
0.0000000001
 40
7.570796326794894
 40
7.570796326794894
 40
7.570796326794894
 40
7.570796326794894
 40
8.570796326794894
 40
8.570796326794894
 40
8.570796326794894
 40
8.570796326794894
 10
68.26195950027443
 20
322.5130674914499
 30
0.0
 41
1.0
 10
68.26195950027443
 20
322.5130674914499
 30
0.0
 41
1.0
 10
65.21236097673136
 20
322.5130674914499
 30
0.0
 41
1.0
 10
65.21236097673136
 20
322.5130674914499
 30
0.0
 41
1.0
  0
SPLINE
  5
FD9
330
1F
100
AcDbEntity
  8
EBENE_1
 62
     0
100
AcDbSpline
210
0.0
220
0.0
230
1.0
 70
    28
 71
     3
 72
     8
 73
     4
 74
     0
 42
0.000000001
 43
0.0000000001
 40
8.570796326794894
 40
8.570796326794894
 40
8.570796326794894
 40
8.570796326794894
 40
9.570796326794894
 40
9.570796326794894
 40
9.570796326794894
 40
9.570796326794894
 10
65.21236097673136
 20
322.5130674914499
 30
0.0
 41
1.0
 10
65.21236097673136
 20
322.5130674914499
 30
0.0
 41
1.0
 10
65.21236097673136
 20
317.2131325969415
 30
0.0
 41
1.0
 10
65.21236097673136
 20
317.2131325969415
 30
0.0
 41
1.0
  0
SPLINE
  5
FDA
330
1F
100
AcDbEntity
  8
EBENE_1
 62
     0
100
AcDbSpline
210
0.0
220
0.0
230
1.0
 70
    28
 71
     3
 72
     8
 73
     4
 74
     0
 42
0.000000001
 43
0.0000000001
 40
9.570796326794894
 40
9.570796326794894
 40
9.570796326794894
 40
9.570796326794894
 40
10.57079632679489
 40
10.57079632679489
 40
10.57079632679489
 40
10.57079632679489
 10
65.21236097673136
 20
317.2131325969415
 30
0.0
 41
1.0
 10
65.21236097673136
 20
317.2131325969415
 30
0.0
 41
1.0
 10
68.26195950027443
 20
317.2131325969415
 30
0.0
 41
1.0
 10
68.26195950027443
 20
317.2131325969415
 30
0.0
 41
1.0
  0
SPLINE
  5
FDB
330
1F
100
AcDbEntity
  8
EBENE_1
 62
     0
100
AcDbSpline
210
0.0
220
0.0
230
1.0
 70
    28
 71
     3
 72
     8
 73
     4
 74
     0
 42
0.000000001
 43
0.0000000001
 40
10.57079632679489
 40
10.57079632679489
 40
10.57079632679489
 40
10.57079632679489
 40
11.07078469423226
 40
11.07078469423226
 40
11.07078469423226
 40
11.07078469423226
 10
68.26195950027443
 20
317.2131325969415
 30
0.0
 41
1.0
 10
68.26195950027443
 20
317.2131325969415
 30
0.0
 41
1.0
 10
68.26195950027443
 20
314.1507574633837
 30
0.0
 41
1.0
 10
68.26195950027443
 20
311.0883110832847
 30
0.0
 41
1.0
  0
SPLINE
  5
FDC
330
1F
100
AcDbEntity
  8
EBENE_1
 62
     0
100
AcDbSpline
210
0.0
220
0.0
230
1.0
 70
    28
 71
     3
 72
     8
 73
     4
 74
     0
 42
0.000000001
 43
0.0000000001
 40
10.07080795935753
 40
10.07080795935753
 40
10.07080795935753
 40
10.07080795935753
 40
10.5707963267949
 40
10.5707963267949
 40
10.5707963267949
 40
10.5707963267949
 10
336.0118292750037
 20
304.9630620704902
 30
0.0
 41
1.0
 10
336.0118292750037
 20
304.9630620704902
 30
0.0
 41
1.0
 10
336.0118292750037
 20
308.025437204048
 30
0.0
 41
1.0
 10
336.0118292750037
 20
311.087883584147
 30
0.0
 41
1.0
  0
SPLINE
  5
FDD
330
1F
100
AcDbEntity
  8
EBENE_1
 62
     0
100
AcDbSpline
210
0.0
220
0.0
230
1.0
 70
    28
 71
     3
 72
     8
 73
     4
 74
     0
 42
0.000000001
 43
0.0000000001
 40
0.0
 40
0.0
 40
0.0
 40
0.0
 40
1.0
 40
1.0
 40
1.0
 40
1.0
 10
307.4371737916958
 20
354.1373214983008
 30
0.0
 41
1.0
 10
307.4371737916958
 20
354.1373214983008
 30
0.0
 41
1.0
 10
302.136894387639
 20
354.1373214983008
 30
0.0
 41
1.0
 10
302.136894387639
 20
354.1373214983008
 30
0.0
 41
1.0
  0
SPLINE
  5
FDE
330
1F
100
AcDbEntity
  8
EBENE_1
 62
     0
100
AcDbSpline
210
0.0
220
0.0
230
1.0
 70
    28
 71
     3
 72
     8
 73
     4
 74
     0
 42
0.000000001
 43
0.0000000001
 40
1.0
 40
1.0
 40
1.0
 40
1.0
 40
2.0
 40
2.0
 40
2.0
 40
2.0
 10
302.136894387639
 20
354.1373214983008
 30
0.0
 41
1.0
 10
302.136894387639
 20
354.1373214983008
 30
0.0
 41
1.0
 10
302.136894387639
 20
351.0880674843062
 30
0.0
 41
1.0
 10
302.136894387639
 20
351.0880674843062
 30
0.0
 41
1.0
  0
SPLINE
  5
FDF
330
1F
100
AcDbEntity
  8
EBENE_1
 62
     0
100
AcDbSpline
210
0.0
220
0.0
230
1.0
 70
    28
 71
     3
 72
     8
 73
     4
 74
     0
 42
0.000000001
 43
0.0000000001
 40
2.0
 40
2.0
 40
2.0
 40
2.0
 40
3.0
 40
3.0
 40
3.0
 40
3.0
 10
302.136894387639
 20
351.0880674843062
 30
0.0
 41
1.0
 10
287.2369875223246
 20
351.0880674843062
 30
0.0
 41
1.0
 10
272.3370806570102
 20
351.0880674843062
 30
0.0
 41
1.0
 10
257.4371737916958
 20
351.0880674843062
 30
0.0
 41
1.0
  0
SPLINE
  5
FE0
330
1F
100
AcDbEntity
  8
EBENE_1
 62
     0
100
AcDbSpline
210
0.0
220
0.0
230
1.0
 70
    28
 71
     3
 72
     8
 73
     4
 74
     0
 42
0.000000001
 43
0.0000000001
 40
3.0
 40
3.0
 40
3.0
 40
3.0
 40
4.0
 40
4.0
 40
4.0
 40
4.0
 10
257.4371737916958
 20
351.0880674843062
 30
0.0
 41
1.0
 10
272.3370806570102
 20
351.0880674843063
 30
0.0
 41
1.0
 10
287.2369875223246
 20
351.0880674843063
 30
0.0
 41
1.0
 10
302.136894387639
 20
351.0880674843063
 30
0.0
 41
1.0
  0
SPLINE
  5
FE1
330
1F
100
AcDbEntity
  8
EBENE_1
 62
     0
100
AcDbSpline
210
0.0
220
0.0
230
1.0
 70
    28
 71
     3
 72
     8
 73
     4
 74
     0
 42
0.000000001
 43
0.0000000001
 40
4.0
 40
4.0
 40
4.0
 40
4.0
 40
5.0
 40
5.0
 40
5.0
 40
5.0
 10
302.136894387639
 20
351.0880674843063
 30
0.0
 41
1.0
 10
302.136894387639
 20
351.0880674843062
 30
0.0
 41
1.0
 10
302.136894387639
 20
354.1373214983008
 30
0.0
 41
1.0
 10
302.136894387639
 20
354.1373214983008
 30
0.0
 41
1.0
  0
SPLINE
  5
FE2
330
1F
100
AcDbEntity
  8
EBENE_1
 62
     0
100
AcDbSpline
210
0.0
220
0.0
230
1.0
 70
    28
 71
     3
 72
     8
 73
     4
 74
     0
 42
0.000000001
 43
0.0000000001
 40
5.0
 40
5.0
 40
5.0
 40
5.0
 40
6.0
 40
6.0
 40
6.0
 40
6.0
 10
302.136894387639
 20
354.1373214983008
 30
0.0
 41
1.0
 10
302.136894387639
 20
354.1373214983008
 30
0.0
 41
1.0
 10
307.4371737916958
 20
354.1373214983008
 30
0.0
 41
1.0
 10
307.4371737916958
 20
354.1373214983008
 30
0.0
 41
1.0
  0
SPLINE
  5
FE3
330
1F
100
AcDbEntity
  8
EBENE_1
 62
     0
100
AcDbSpline
210
0.0
220
0.0
230
1.0
 70
    28
 71
     3
 72
     8
 73
     4
 74
     0
 42
0.000000001
 43
0.0000000001
 40
6.0
 40
6.0
 40
6.0
 40
6.0
 40
7.0
 40
7.0
 40
7.0
 40
7.0
 10
307.4371737916958
 20
354.1373214983008
 30
0.0
 41
1.0
 10
307.4371737916958
 20
354.1373214983008
 30
0.0
 41
1.0
 10
307.4371737916958
 20
351.0880674843062
 30
0.0
 41
1.0
 10
307.4371737916958
 20
351.0880674843062
 30
0.0
 41
1.0
  0
SPLINE
  5
FE4
330
1F
100
AcDbEntity
  8
EBENE_1
 62
     0
100
AcDbSpline
210
0.0
220
0.0
230
1.0
 70
    28
 71
     3
 72
     8
 73
     4
 74
     0
 42
0.000000001
 43
0.0000000001
 40
7.0
 40
7.0
 40
7.0
 40
7.0
 40
8.0
 40
8.0
 40
8.0
 40
8.0
 10
307.4371737916958
 20
351.0880674843062
 30
0.0
 41
1.0
 10
307.4371737916958
 20
351.0880674843062
 30
0.0
 41
1.0
 10
307.4371737916958
 20
354.1373214983008
 30
0.0
 41
1.0
 10
307.4371737916958
 20
354.1373214983008
 30
0.0
 41
1.0
  0
SPLINE
  5
FE5
330
1F
100
AcDbEntity
  8
EBENE_1
 62
     0
100
AcDbSpline
210
0.0
220
0.0
230
1.0
 70
    28
 71
     3
 72
     8
 73
     4
 74
     0
 42
0.000000001
 43
0.0000000001
 40
3.500011632562635
 40
3.500011632562635
 40
3.500011632562635
 40
3.500011632562635
 40
4.500011632562635
 40
4.500011632562635
 40
4.500011632562635
 40
4.500011632562635
 10
307.4371737916958
 20
351.0880674843062
 30
0.0
 41
1.0
 10
307.4371737916958
 20
351.0880674843062
 30
0.0
 41
1.0
 10
310.547061486231
 20
351.0880674843062
 30
0.0
 41
1.0
 10
310.547061486231
 20
351.0880674843062
 30
0.0
 41
1.0
  0
SPLINE
  5
FE6
330
1F
100
AcDbEntity
  8
EBENE_1
 62
     0
100
AcDbSpline
210
0.0
220
0.0
230
1.0
 70
    12
 71
     3
 72
     8
 73
     4
 74
     0
 42
0.000000001
 43
0.0000000001
 40
0.0
 40
0.0
 40
0.0
 40
0.0
 40
1.570796326794894
 40
1.570796326794894
 40
1.570796326794894
 40
1.570796326794894
 10
310.547061486231
 20
351.0880674843062
 30
0.0
 41
1.0
 10
325.4639770942124
 20
351.0880674843061
 30
0.0
 41
0.8047378541243649
 10
336.0118292750037
 20
340.540215303515
 30
0.0
 41
0.8047378541243649
 10
336.0118292750036
 20
325.6232996955334
 30
0.0
 41
0.9999999999999998
  0
SPLINE
  5
FE7
330
1F
100
AcDbEntity
  8
EBENE_1
 62
     0
100
AcDbSpline
210
0.0
220
0.0
230
1.0
 70
    28
 71
     3
 72
     8
 73
     4
 74
     0
 42
0.000000001
 43
0.0000000001
 40
1.570796326794894
 40
1.570796326794894
 40
1.570796326794894
 40
1.570796326794894
 40
2.570796326794894
 40
2.570796326794894
 40
2.570796326794894
 40
2.570796326794894
 10
336.0118292750036
 20
325.6232996955334
 30
0.0
 41
0.9999999999999998
 10
336.0118292750037
 20
325.6232996955334
 30
0.0
 41
1.0
 10
336.0118292750037
 20
322.5130674914499
 30
0.0
 41
1.0
 10
336.0118292750037
 20
322.5130674914499
 30
0.0
 41
1.0
  0
SPLINE
  5
FE8
330
1F
100
AcDbEntity
  8
EBENE_1
 62
     0
100
AcDbSpline
210
0.0
220
0.0
230
1.0
 70
    28
 71
     3
 72
     8
 73
     4
 74
     0
 42
0.000000001
 43
0.0000000001
 40
2.570796326794894
 40
2.570796326794894
 40
2.570796326794894
 40
2.570796326794894
 40
3.570796326794894
 40
3.570796326794894
 40
3.570796326794894
 40
3.570796326794894
 10
336.0118292750037
 20
322.5130674914499
 30
0.0
 41
1.0
 10
336.0118292750037
 20
322.5130674914499
 30
0.0
 41
1.0
 10
339.0614277985467
 20
322.5130674914499
 30
0.0
 41
1.0
 10
339.0614277985467
 20
322.5130674914499
 30
0.0
 41
1.0
  0
SPLINE
  5
FE9
330
1F
100
AcDbEntity
  8
EBENE_1
 62
     0
100
AcDbSpline
210
0.0
220
0.0
230
1.0
 70
    28
 71
     3
 72
     8
 73
     4
 74
     0
 42
0.000000001
 43
0.0000000001
 40
3.570796326794894
 40
3.570796326794894
 40
3.570796326794894
 40
3.570796326794894
 40
4.570796326794894
 40
4.570796326794894
 40
4.570796326794894
 40
4.570796326794894
 10
339.0614277985467
 20
322.5130674914499
 30
0.0
 41
1.0
 10
339.0614277985467
 20
322.5130674914499
 30
0.0
 41
1.0
 10
339.0614277985467
 20
317.2131325969415
 30
0.0
 41
1.0
 10
339.0614277985467
 20
317.2131325969415
 30
0.0
 41
1.0
  0
SPLINE
  5
FEA
330
1F
100
AcDbEntity
  8
EBENE_1
 62
     0
100
AcDbSpline
210
0.0
220
0.0
230
1.0
 70
    28
 71
     3
 72
     8
 73
     4
 74
     0
 42
0.000000001
 43
0.0000000001
 40
4.570796326794894
 40
4.570796326794894
 40
4.570796326794894
 40
4.570796326794894
 40
5.570796326794894
 40
5.570796326794894
 40
5.570796326794894
 40
5.570796326794894
 10
339.0614277985467
 20
317.2131325969415
 30
0.0
 41
1.0
 10
339.0614277985467
 20
317.2131325969415
 30
0.0
 41
1.0
 10
336.0118292750037
 20
317.2131325969415
 30
0.0
 41
1.0
 10
336.0118292750037
 20
317.2131325969415
 30
0.0
 41
1.0
  0
SPLINE
  5
FEB
330
1F
100
AcDbEntity
  8
EBENE_1
 62
     0
100
AcDbSpline
210
0.0
220
0.0
230
1.0
 70
    28
 71
     3
 72
     8
 73
     4
 74
     0
 42
0.000000001
 43
0.0000000001
 40
5.570796326794894
 40
5.570796326794894
 40
5.570796326794894
 40
5.570796326794894
 40
6.070784694232264
 40
6.070784694232264
 40
6.070784694232264
 40
6.070784694232264
 10
336.0118292750037
 20
317.2131325969415
 30
0.0
 41
1.0
 10
336.0118292750037
 20
317.2131325969415
 30
0.0
 41
1.0
 10
336.0118292750037
 20
314.1507574633837
 30
0.0
 41
1.0
 10
336.0118292750037
 20
311.0883110832847
 30
0.0
 41
1.0
  0
SPLINE
  5
FEC
330
1F
100
AcDbEntity
  8
EBENE_1
 62
     0
100
AcDbSpline
210
0.0
220
0.0
230
1.0
 70
    28
 71
     3
 72
     8
 73
     4
 74
     0
 42
0.000000001
 43
0.0000000001
 40
0.0
 40
0.0
 40
0.0
 40
0.0
 40
1.0
 40
1.0
 40
1.0
 40
1.0
 10
339.0614277985467
 20
299.6635546751195
 30
0.0
 41
1.0
 10
339.0614277985467
 20
299.6635546751195
 30
0.0
 41
1.0
 10
339.0614277985467
 20
304.9634895696279
 30
0.0
 41
1.0
 10
339.0614277985467
 20
304.9634895696279
 30
0.0
 41
1.0
  0
SPLINE
  5
FED
330
1F
100
AcDbEntity
  8
EBENE_1
 62
     0
100
AcDbSpline
210
0.0
220
0.0
230
1.0
 70
    28
 71
     3
 72
     8
 73
     4
 74
     0
 42
0.000000001
 43
0.0000000001
 40
1.0
 40
1.0
 40
1.0
 40
1.0
 40
2.0
 40
2.0
 40
2.0
 40
2.0
 10
339.0614277985467
 20
304.9634895696279
 30
0.0
 41
1.0
 10
339.0614277985467
 20
304.9634895696279
 30
0.0
 41
1.0
 10
336.0118292750037
 20
304.9634895696279
 30
0.0
 41
1.0
 10
336.0118292750037
 20
304.9634895696279
 30
0.0
 41
1.0
  0
SPLINE
  5
FEE
330
1F
100
AcDbEntity
  8
EBENE_1
 62
     0
100
AcDbSpline
210
0.0
220
0.0
230
1.0
 70
    28
 71
     3
 72
     8
 73
     4
 74
     0
 42
0.000000001
 43
0.0000000001
 40
0.0
 40
0.0
 40
0.0
 40
0.0
 40
1.0
 40
1.0
 40
1.0
 40
1.0
 10
336.0118292750037
 20
199.6635546751196
 30
0.0
 41
1.0
 10
336.0118292750037
 20
199.6635546751196
 30
0.0
 41
1.0
 10
339.0614277985467
 20
199.6635546751196
 30
0.0
 41
1.0
 10
339.0614277985467
 20
199.6635546751196
 30
0.0
 41
1.0
  0
SPLINE
  5
FEF
330
1F
100
AcDbEntity
  8
EBENE_1
 62
     0
100
AcDbSpline
210
0.0
220
0.0
230
1.0
 70
    28
 71
     3
 72
     8
 73
     4
 74
     0
 42
0.000000001
 43
0.0000000001
 40
1.0
 40
1.0
 40
1.0
 40
1.0
 40
2.0
 40
2.0
 40
2.0
 40
2.0
 10
339.0614277985467
 20
199.6635546751196
 30
0.0
 41
1.0
 10
339.0614277985467
 20
199.6635546751196
 30
0.0
 41
1.0
 10
336.0118292750037
 20
199.6635546751196
 30
0.0
 41
1.0
 10
336.0118292750037
 20
199.6635546751196
 30
0.0
 41
1.0
  0
SPLINE
  5
FF0
330
1F
100
AcDbEntity
  8
EBENE_1
 62
     0
100
AcDbSpline
210
0.0
220
0.0
230
1.0
 70
    28
 71
     3
 72
    11
 73
     7
 74
     0
 42
0.000000001
 43
0.0000000001
 40
2.0
 40
2.0
 40
2.0
 40
2.0
 40
3.0
 40
3.0
 40
3.0
 40
4.0
 40
4.0
 40
4.0
 40
4.0
 10
336.0118292750037
 20
199.6635546751196
 30
0.0
 41
1.0
 10
336.0118292750037
 20
216.3302213417864
 30
0.0
 41
1.0
 10
336.0118292750037
 20
232.9968880084531
 30
0.0
 41
1.0
 10
336.0118292750037
 20
249.6635546751198
 30
0.0
 41
1.0
 10
336.0118292750037
 20
266.3302213417861
 30
0.0
 41
1.0
 10
336.0118292750037
 20
282.9968880084527
 30
0.0
 41
1.0
 10
336.0118292750037
 20
299.6635546751195
 30
0.0
 41
1.0
  0
SPLINE
  5
FF1
330
1F
100
AcDbEntity
  8
EBENE_1
 62
     0
100
AcDbSpline
210
0.0
220
0.0
230
1.0
 70
    28
 71
     3
 72
     8
 73
     4
 74
     0
 42
0.000000001
 43
0.0000000001
 40
4.0
 40
4.0
 40
4.0
 40
4.0
 40
5.0
 40
5.0
 40
5.0
 40
5.0
 10
336.0118292750037
 20
299.6635546751195
 30
0.0
 41
1.0
 10
336.0118292750037
 20
299.6635546751195
 30
0.0
 41
1.0
 10
339.0614277985467
 20
299.6635546751195
 30
0.0
 41
1.0
 10
339.0614277985467
 20
299.6635546751195
 30
0.0
 41
1.0
  0
SPLINE
  5
FF2
330
1F
100
AcDbEntity
  8
EBENE_1
 62
     0
100
AcDbSpline
210
0.0
220
0.0
230
1.0
 70
    28
 71
     3
 72
     8
 73
     4
 74
     0
 42
0.000000001
 43
0.0000000001
 40
5.0
 40
5.0
 40
5.0
 40
5.0
 40
6.0
 40
6.0
 40
6.0
 40
6.0
 10
339.0614277985467
 20
299.6635546751195
 30
0.0
 41
1.0
 10
339.0614277985467
 20
299.6635546751195
 30
0.0
 41
1.0
 10
336.0118292750037
 20
299.6635546751195
 30
0.0
 41
1.0
 10
336.0118292750037
 20
299.6635546751195
 30
0.0
 41
1.0
  0
SPLINE
  5
FF3
330
1F
100
AcDbEntity
  8
EBENE_1
 62
     0
100
AcDbSpline
210
0.0
220
0.0
230
1.0
 70
    28
 71
     3
 72
     8
 73
     4
 74
     0
 42
0.000000001
 43
0.0000000001
 40
0.0
 40
0.0
 40
0.0
 40
0.0
 40
1.0
 40
1.0
 40
1.0
 40
1.0
 10
152.136894387639
 20
354.1373214983008
 30
0.0
 41
1.0
 10
152.136894387639
 20
354.1373214983008
 30
0.0
 41
1.0
 10
146.8366149835822
 20
354.1373214983008
 30
0.0
 41
1.0
 10
146.8366149835822
 20
354.1373214983008
 30
0.0
 41
1.0
  0
SPLINE
  5
FF4
330
1F
100
AcDbEntity
  8
EBENE_1
 62
     0
100
AcDbSpline
210
0.0
220
0.0
230
1.0
 70
    28
 71
     3
 72
     8
 73
     4
 74
     0
 42
0.000000001
 43
0.0000000001
 40
1.0
 40
1.0
 40
1.0
 40
1.0
 40
2.0
 40
2.0
 40
2.0
 40
2.0
 10
146.8366149835822
 20
354.1373214983008
 30
0.0
 41
1.0
 10
146.8366149835822
 20
353.1209034936361
 30
0.0
 41
1.0
 10
146.8366149835822
 20
352.1044854889713
 30
0.0
 41
1.0
 10
146.8366149835822
 20
351.0880674843064
 30
0.0
 41
1.0
  0
SPLINE
  5
FF5
330
1F
100
AcDbEntity
  8
EBENE_1
 62
     0
100
AcDbSpline
210
0.0
220
0.0
230
1.0
 70
    28
 71
     3
 72
     8
 73
     4
 74
     0
 42
0.000000001
 43
0.0000000001
 40
2.0
 40
2.0
 40
2.0
 40
2.0
 40
3.0
 40
3.0
 40
3.0
 40
3.0
 10
146.8366149835822
 20
351.0880674843064
 30
0.0
 41
1.0
 10
146.8366149835822
 20
351.0880674843062
 30
0.0
 41
1.0
 10
143.7267272890472
 20
351.0880674843062
 30
0.0
 41
1.0
 10
143.7267272890472
 20
351.0880674843062
 30
0.0
 41
1.0
  0
SPLINE
  5
FF6
330
1F
100
AcDbEntity
  8
EBENE_1
 62
     0
100
AcDbSpline
210
0.0
220
0.0
230
1.0
 70
    28
 71
     3
 72
     8
 73
     4
 74
     0
 42
0.000000001
 43
0.0000000001
 40
0.0
 40
0.0
 40
0.0
 40
0.0
 40
1.0
 40
1.0
 40
1.0
 40
1.0
 10
152.136894387639
 20
354.1373214983008
 30
0.0
 41
1.0
 10
152.136894387639
 20
354.1373214983008
 30
0.0
 41
1.0
 10
152.136894387639
 20
351.0880674843062
 30
0.0
 41
1.0
 10
152.136894387639
 20
351.0880674843062
 30
0.0
 41
1.0
  0
SPLINE
  5
FF7
330
1F
100
AcDbEntity
  8
EBENE_1
 62
     0
100
AcDbSpline
210
0.0
220
0.0
230
1.0
 70
    28
 71
     3
 72
     8
 73
     4
 74
     0
 42
0.000000001
 43
0.0000000001
 40
1.0
 40
1.0
 40
1.0
 40
1.0
 40
2.0
 40
2.0
 40
2.0
 40
2.0
 10
152.136894387639
 20
351.0880674843062
 30
0.0
 41
1.0
 10
185.4702277209724
 20
351.0880674843062
 30
0.0
 41
1.0
 10
218.8035610543057
 20
351.0880674843062
 30
0.0
 41
1.0
 10
252.1368943876391
 20
351.0880674843062
 30
0.0
 41
1.0
  0
SPLINE
  5
FF8
330
1F
100
AcDbEntity
  8
EBENE_1
 62
     0
100
AcDbSpline
210
0.0
220
0.0
230
1.0
 70
    28
 71
     3
 72
     8
 73
     4
 74
     0
 42
0.000000001
 43
0.0000000001
 40
2.0
 40
2.0
 40
2.0
 40
2.0
 40
3.0
 40
3.0
 40
3.0
 40
3.0
 10
252.1368943876391
 20
351.0880674843062
 30
0.0
 41
1.0
 10
252.1368943876391
 20
351.0880674843062
 30
0.0
 41
1.0
 10
252.1368943876391
 20
354.1373214983008
 30
0.0
 41
1.0
 10
252.1368943876391
 20
354.1373214983008
 30
0.0
 41
1.0
  0
SPLINE
  5
FF9
330
1F
100
AcDbEntity
  8
EBENE_1
 62
     0
100
AcDbSpline
210
0.0
220
0.0
230
1.0
 70
    28
 71
     3
 72
     8
 73
     4
 74
     0
 42
0.000000001
 43
0.0000000001
 40
3.0
 40
3.0
 40
3.0
 40
3.0
 40
4.0
 40
4.0
 40
4.0
 40
4.0
 10
252.1368943876391
 20
354.1373214983008
 30
0.0
 41
1.0
 10
252.1368943876391
 20
354.1373214983008
 30
0.0
 41
1.0
 10
257.4371737916958
 20
354.1373214983008
 30
0.0
 41
1.0
 10
257.4371737916958
 20
354.1373214983008
 30
0.0
 41
1.0
  0
SPLINE
  5
FFA
330
1F
100
AcDbEntity
  8
EBENE_1
 62
     0
100
AcDbSpline
210
0.0
220
0.0
230
1.0
 70
    28
 71
     3
 72
     8
 73
     4
 74
     0
 42
0.000000001
 43
0.0000000001
 40
4.0
 40
4.0
 40
4.0
 40
4.0
 40
5.0
 40
5.0
 40
5.0
 40
5.0
 10
257.4371737916958
 20
354.1373214983008
 30
0.0
 41
1.0
 10
257.4371737916958
 20
353.1209034936361
 30
0.0
 41
1.0
 10
257.4371737916958
 20
352.1044854889713
 30
0.0
 41
1.0
 10
257.4371737916958
 20
351.0880674843064
 30
0.0
 41
1.0
  0
SPLINE
  5
FFB
330
1F
100
AcDbEntity
  8
EBENE_1
 62
     0
100
AcDbSpline
210
0.0
220
0.0
230
1.0
 70
    28
 71
     3
 72
     8
 73
     4
 74
     0
 42
0.000000001
 43
0.0000000001
 40
5.0
 40
5.0
 40
5.0
 40
5.0
 40
6.0
 40
6.0
 40
6.0
 40
6.0
 10
257.4371737916958
 20
351.0880674843064
 30
0.0
 41
1.0
 10
257.4371737916958
 20
351.0880674843062
 30
0.0
 41
1.0
 10
260.547061486231
 20
351.0880674843062
 30
0.0
 41
1.0
 10
260.547061486231
 20
351.0880674843062
 30
0.0
 41
1.0
  0
ARC
  5
FFC
330
1F
100
AcDbEntity
  8
0
100
AcDbCircle
 10
96.83695949564793
 20
176.8140418587892
 30
0.0
 40
23.57499999537345
100
AcDbArc
 50
179.9999999999998
 51
269.9991627110339
  0
ARC
  5
FFD
330
1F
100
AcDbEntity
  8
0
100
AcDbCircle
 10
96.83695949564793
 20
322.5130674914499
 30
0.0
 40
23.57499999537379
100
AcDbArc
 50
90.0008372889663
 51
180.0
  0
LINE
  5
FFE
330
1F
100
AcDbEntity
  8
0
100
AcDbLine
 10
73.26195950027443
 20
322.5130674914499
 30
0.0
 11
73.26195950027443
 21
176.8140418587892
 31
0.0
  0
ARC
  5
FFF
330
1F
100
AcDbEntity
  8
0
100
AcDbCircle
 10
307.4368292796302
 20
176.8140418587892
 30
0.0
 40
23.57499999537354
100
AcDbArc
 50
270.0008372889664
 51
360.0
  0
ARC
  5
1000
330
1F
100
AcDbEntity
  8
0
100
AcDbCircle
 10
307.4368292796302
 20
322.5130674914499
 30
0.0
 40
23.57499999537356
100
AcDbArc
 50
0.0000000000001382
 51
89.9991627110335
  0
LINE
  5
1001
330
1F
100
AcDbEntity
  8
0
100
AcDbLine
 10
331.0118292750037
 20
322.5130674914499
 30
0.0
 11
331.0118292750037
 21
176.8140418587892
 31
0.0
  0
LINE
  5
1002
330
1F
100
AcDbEntity
  8
0
100
AcDbLine
 10
96.83661498358226
 20
153.239041865933
 30
0.0
 11
307.4371737916962
 21
153.239041865933
 31
0.0
  0
LINE
  5
1003
330
1F
100
AcDbEntity
  8
0
100
AcDbLine
 10
96.83661498358226
 20
346.0880674843062
 30
0.0
 11
307.4371737916963
 21
346.0880674843062
 31
0.0
  0
ENDSEC
  0
SECTION
  2
OBJECTS
  0
DICTIONARY
  5
C
330
0
100
AcDbDictionary
281
     1
  3
ACAD_CIP_PREVIOUS_PRODUCT_INFO
350
7F1
  3
ACAD_COLOR
350
7D3
  3
ACAD_DETAILVIEWSTYLE
350
7EB
  3
ACAD_GROUP
350
D
  3
ACAD_LAYOUT
350
1A
  3
ACAD_MATERIAL
350
7B0
  3
ACAD_MLEADERSTYLE
350
7E7
  3
ACAD_MLINESTYLE
350
17
  3
ACAD_PLOTSETTINGS
350
19
  3
ACAD_PLOTSTYLENAME
350
7AE
  3
ACAD_SCALELIST
350
7D5
  3
ACAD_SECTIONVIEWSTYLE
350
7E9
  3
ACAD_TABLESTYLE
350
7AB
  3
ACAD_VISUALSTYLE
350
2A
  3
ACDB_RECOMPOSE_DATA
350
12A2
  3
AcDbVariableDictionary
350
931
  0
DICTIONARY
  5
1292
330
2
100
AcDbDictionary
280
     1
281
     1
  3
ACAD_LAYERSTATES
360
1293
  0
DICTIONARY
  5
92D
330
10
100
AcDbDictionary
280
     1
281
     1
  3
ADSK_XREC_LAYER_RECONCILED
360
92E
  0
DICTIONARY
  5
92F
330
3B
100
AcDbDictionary
280
     1
281
     1
  3
ADSK_XREC_LAYER_RECONCILED
360
930
  0
DICTIONARY
  5
804
330
1F
100
AcDbDictionary
280
     1
281
     1
  3
ACAD_SORTENTS
360
805
  0
XRECORD
  5
7F1
102
{ACAD_REACTORS
330
C
102
}
330
C
100
AcDbXrecord
280
     1
300
ACD
300
2014
300
ACD_F_S
  0
DICTIONARY
  5
7D3
102
{ACAD_REACTORS
330
C
102
}
330
C
100
AcDbDictionary
281
     1
  0
DICTIONARY
  5
7EB
102
{ACAD_REACTORS
330
C
102
}
330
C
100
AcDbDictionary
281
     1
  3
Imperial24
350
7EC
  0
DICTIONARY
  5
D
102
{ACAD_REACTORS
330
C
102
}
330
C
100
AcDbDictionary
281
     1
  0
DICTIONARY
  5
1A
102
{ACAD_REACTORS
330
C
102
}
330
C
100
AcDbDictionary
281
     1
  3
Layout1
350
7EE
  3
Model
350
7ED
  0
DICTIONARY
  5
7B0
102
{ACAD_REACTORS
330
C
102
}
330
C
100
AcDbDictionary
281
     1
  3
ByBlock
350
7B9
  3
ByLayer
350
7B1
  3
Global
350
7C1
  0
DICTIONARY
  5
7E7
102
{ACAD_REACTORS
330
C
102
}
330
C
100
AcDbDictionary
281
     1
  3
Standard
350
7E8
  0
DICTIONARY
  5
17
102
{ACAD_REACTORS
330
C
102
}
330
C
100
AcDbDictionary
281
     1
  3
STANDARD
350
18
  0
DICTIONARY
  5
19
102
{ACAD_REACTORS
330
C
102
}
330
C
100
AcDbDictionary
281
     1
  0
ACDBDICTIONARYWDFLT
  5
7AE
102
{ACAD_REACTORS
330
C
102
}
330
C
100
AcDbDictionary
281
     1
  3
Normal
350
7AF
100
AcDbDictionaryWithDefault
340
7AF
  0
DICTIONARY
  5
7D5
102
{ACAD_REACTORS
330
C
102
}
330
C
100
AcDbDictionary
281
     1
  3
A0
350
7D6
  3
A1
350
7D7
  3
A2
350
7D8
  3
A3
350
7D9
  3
A4
350
7DA
  3
A5
350
7DB
  3
A6
350
7DC
  3
A7
350
7DD
  3
A8
350
7DE
  3
A9
350
7DF
  3
B0
350
7E0
  3
B1
350
7E1
  3
B2
350
7E2
  3
B3
350
7E3
  3
B4
350
7E4
  3
B5
350
7E5
  3
B6
350
7E6
  0
DICTIONARY
  5
7E9
102
{ACAD_REACTORS
330
C
102
}
330
C
100
AcDbDictionary
281
     1
  3
Imperial24
350
7EA
  0
DICTIONARY
  5
7AB
102
{ACAD_REACTORS
330
C
102
}
330
C
100
AcDbDictionary
281
     1
  3
Standard
350
7D4
  0
DICTIONARY
  5
2A
102
{ACAD_REACTORS
330
C
102
}
330
C
100
AcDbDictionary
281
     1
  3
2DWIREFRAME
350
2F
  3
3D_HIDDEN
350
31
  3
3DWIREFRAME
350
30
  3
BASIC
350
32
  3
BRIGHTEN
350
36
  3
COLORCHANGE
350
3A
  3
CONCEPTUAL
350
34
  3
DIM
350
35
  3
EdgeColorOff
350
7D2
  3
FACEPATTERN
350
39
  3
FLAT
350
2B
  3
FLATWITHEDGES
350
2C
  3
GOURAUD
350
2D
  3
GOURAUDWITHEDGES
350
2E
  3
Hidden
350
7CA
  3
JitterOff
350
7D0
  3
LINEPATTERN
350
38
  3
OverhangOff
350
7D1
  3
REALISTIC
350
33
  3
Shaded
350
7CF
  3
Shaded with edges
350
7CE
  3
Shades of Gray
350
7CB
  3
Sketchy
350
7CC
  3
THICKEN
350
37
  3
Wireframe
350
7C9
  3
X-Ray
350
7CD
  0
XRECORD
  5
12A2
102
{ACAD_REACTORS
330
C
102
}
330
C
100
AcDbXrecord
280
     1
 90
        1
330
7D4
330
7EA
330
7EC
  0
DICTIONARY
  5
931
102
{ACAD_REACTORS
330
C
102
}
330
C
100
AcDbDictionary
281
     1
  3
CANNOSCALE
350
937
  3
CMLEADERSTYLE
350
933
  3
CTABLESTYLE
350
932
  3
CVIEWDETAILSTYLE
350
934
  3
CVIEWSECTIONSTYLE
350
935
  3
LAYEREVAL
350
939
  3
LAYERNOTIFY
350
93A
  3
LIGHTINGUNITS
350
938
  3
MSLTSCALE
350
936
  0
DICTIONARY
  5
1293
102
{ACAD_REACTORS
330
1292
102
}
330
1292
100
AcDbDictionary
281
     1
  0
XRECORD
  5
92E
102
{ACAD_REACTORS
330
92D
102
}
330
92D
100
AcDbXrecord
280
     1
290
     1
  0
XRECORD
  5
930
102
{ACAD_REACTORS
330
92F
102
}
330
92F
100
AcDbXrecord
280
     1
290
     1
  0
SORTENTSTABLE
  5
805
102
{ACAD_REACTORS
330
804
102
}
330
804
100
AcDbSortentsTable
330
1F
331
DCE
  5
E2B
331
DCA
  5
E08
331
E64
  5
DC1
331
DC6
  5
DEB
331
E60
  5
E40
331
DC2
  5
DE0
331
E5C
  5
E4A
331
A9C
  5
B02
331
E58
  5
E46
331
B67
  5
C95
331
A5D
  5
A5A
331
A98
  5
AD7
331
B63
  5
C91
331
A59
  5
A71
331
A94
  5
AD3
331
A90
  5
ACF
331
DBE
  5
DDC
331
E97
  5
E97
331
DBA
  5
DD8
331
E54
  5
E4F
331
E93
  5
E93
331
DB6
  5
DD4
331
E50
  5
E5D
331
E8F
  5
E8F
331
B5F
  5
C8D
331
A55
  5
A7B
331
DB2
  5
DD0
331
E4C
  5
E59
331
B5B
  5
C89
331
A51
  5
A7F
331
A8C
  5
ACB
331
E48
  5
E55
331
B57
  5
C85
331
A4D
  5
AA1
331
A88
  5
AC4
331
A49
  5
A9D
331
A84
  5
AC0
331
A80
  5
ABC
331
DAE
  5
DCC
331
E87
  5
E88
331
DE9
  5
E42
331
E44
  5
E65
331
E40
  5
E61
331
E3C
  5
E6C
331
E7B
  5
CB1
331
B4B
  5
C81
331
A31
  5
A98
331
E38
  5
E68
331
A2D
  5
A94
331
A74
  5
A43
331
A29
  5
A90
331
A70
  5
A47
331
DDD
  5
E3A
331
E77
  5
CAD
331
DD9
  5
E36
331
E73
  5
CA9
331
E34
  5
E73
331
DD5
  5
E32
331
E6F
  5
DBF
331
E30
  5
E77
331
A25
  5
A8C
331
ABF
  5
B13
331
DD1
  5
E2E
331
B6A
  5
C98
331
E6B
  5
DBB
331
E2C
  5
E7C
331
A21
  5
A88
331
A6C
  5
A4B
331
ABB
  5
B0F
331
E28
  5
E78
331
A1D
  5
A84
331
A68
  5
A4F
331
A64
  5
A53
331
A60
  5
A57
331
DCD
  5
E2A
331
E67
  5
DC4
331
DC9
  5
E04
331
E63
  5
DC0
331
E5F
  5
E3F
331
A9F
  5
B05
331
DC5
  5
DEA
331
E08
  5
E67
331
E5B
  5
E49
331
A9B
  5
B01
331
DC1
  5
DDF
331
B66
  5
C94
331
A5C
  5
A6E
331
A97
  5
AD6
331
B62
  5
C90
331
A58
  5
A72
331
A93
  5
AD2
331
E04
  5
E5E
331
E57
  5
E45
331
E96
  5
E96
331
DBD
  5
DDB
331
E53
  5
E4E
331
E92
  5
E92
331
DB9
  5
DD7
331
E4F
  5
E5C
331
E8E
  5
E8E
331
A54
  5
A7C
331
DB5
  5
DD3
331
A8F
  5
ACE
331
B5E
  5
C8C
331
E4B
  5
E58
331
A50
  5
A80
331
DB1
  5
DCF
331
DF8
  5
E52
331
A8B
  5
ACA
331
B5A
  5
C88
331
A4C
  5
AA0
331
A87
  5
AC3
331
B56
  5
C84
331
A48
  5
A9C
331
A83
  5
ABF
331
DEC
  5
AB6
331
E47
  5
E54
331
E86
  5
E87
331
DAD
  5
DCB
331
E43
  5
E64
331
DE8
  5
E41
331
E3F
  5
E60
331
D45
  5
DB7
331
A34
  5
A9B
331
A7F
  5
ABB
331
E3B
  5
E6B
331
E7A
  5
CB0
331
A30
  5
A97
331
DE0
  5
E3D
331
A7B
  5
AA3
331
B4A
  5
C6D
331
A2C
  5
A93
331
A73
  5
A44
331
A28
  5
A8F
331
E76
  5
CAC
331
E37
  5
E6F
331
DDC
  5
E39
331
E72
  5
CA8
331
E33
  5
E72
331
D11
  5
CA7
331
DD8
  5
E35
331
E6E
  5
DBE
331
E2F
  5
E76
331
A24
  5
A8B
331
A6F
  5
A48
331
ABE
  5
B12
331
DD4
  5
E31
331
DD0
  5
E2D
331
E6A
  5
DBA
331
E2B
  5
E7B
331
A20
  5
A87
331
A6B
  5
A4C
331
ABA
  5
B0E
331
B69
  5
C97
331
A67
  5
A50
331
A1C
  5
A83
331
A63
  5
A54
331
AA2
  5
B0B
331
E66
  5
DC3
331
DCC
  5
E29
331
E62
  5
DC8
331
DC8
  5
DF8
331
E5E
  5
E3E
331
EA5
  5
EA8
331
A9E
  5
B04
331
DC4
  5
DE9
331
E5A
  5
E48
331
A5F
  5
A58
331
A9A
  5
AD9
331
DC0
  5
DDE
331
A5B
  5
A6F
331
A96
  5
AD5
331
B65
  5
C93
331
A92
  5
AD1
331
B61
  5
C8F
331
E56
  5
E51
331
E95
  5
E95
331
DBC
  5
DDA
331
E52
  5
E4D
331
E91
  5
E91
331
A57
  5
A73
331
DB8
  5
DD6
331
E4E
  5
E5B
331
E8D
  5
E8D
331
A53
  5
A7D
331
DB4
  5
DD2
331
A8E
  5
ACD
331
B5D
  5
C8B
331
E4A
  5
E57
331
A4F
  5
A81
331
DB0
  5
DCE
331
A8A
  5
AC6
331
B59
  5
C87
331
A4B
  5
A9F
331
A86
  5
AC2
331
B55
  5
C83
331
A82
  5
ABE
331
E46
  5
E53
331
E85
  5
E86
331
DAC
  5
DCA
331
DEB
  5
E44
331
E42
  5
E63
331
A33
  5
A9A
331
A7E
  5
ABA
331
E3E
  5
E5F
331
E79
  5
CAF
331
A2F
  5
A96
331
E3A
  5
E6A
331
A2B
  5
A92
331
A72
  5
A45
331
AC1
  5
C6C
331
DDF
  5
E3C
331
DDB
  5
E38
331
E75
  5
CAB
331
E36
  5
E6E
331
DD7
  5
E34
331
E71
  5
DB9
331
A27
  5
A8E
331
E32
  5
E71
331
DD3
  5
E30
331
E6D
  5
DBD
331
A23
  5
A8A
331
A6E
  5
A49
331
ABD
  5
B11
331
E2E
  5
E75
331
B68
  5
C96
331
E69
  5
DC6
331
A1F
  5
A86
331
A6A
  5
A4D
331
AB9
  5
B0D
331
E2A
  5
E7A
331
A66
  5
A51
331
A1B
  5
A82
331
A62
  5
A55
331
AA1
  5
B0A
331
DCF
  5
E2C
331
DCB
  5
E28
331
E65
  5
DC2
331
DC7
  5
DEC
331
E61
  5
DC7
331
DC3
  5
DE1
331
A9D
  5
B03
331
E5D
  5
E4B
331
A5E
  5
A59
331
A99
  5
AD8
331
E59
  5
E47
331
A5A
  5
A70
331
A95
  5
AD4
331
B64
  5
C92
331
A91
  5
AD0
331
B60
  5
C8E
331
DBF
  5
DDD
331
DBB
  5
DD9
331
E55
  5
E50
331
E94
  5
E94
331
DB7
  5
DD5
331
A56
  5
A74
331
E51
  5
E4C
331
E90
  5
E90
331
DB3
  5
DD1
331
A52
  5
A7E
331
A8D
  5
ACC
331
B5C
  5
C8A
331
E4D
  5
E5A
331
A4E
  5
AA2
331
A89
  5
AC5
331
B58
  5
C86
331
E49
  5
E56
331
E88
  5
AB7
331
A4A
  5
A9E
331
A85
  5
AC1
331
A81
  5
ABD
331
DAF
  5
DCD
331
DAB
  5
DC9
331
DEA
  5
E43
331
E45
  5
E66
331
E84
  5
E85
331
E41
  5
E62
331
A32
  5
A99
331
A7D
  5
AB9
331
B4C
  5
C82
331
E3D
  5
E6D
331
E7C
  5
CB2
331
A2E
  5
A95
331
E39
  5
E69
331
E78
  5
CAE
331
A2A
  5
A91
331
A71
  5
A46
331
AC0
  5
C6B
331
DDE
  5
E3B
331
DDA
  5
E37
331
E74
  5
CAA
331
E35
  5
E74
331
DD6
  5
E33
331
E70
  5
DB8
331
A26
  5
A8D
331
E31
  5
E70
331
DD2
  5
E2F
331
E6C
  5
DBC
331
A22
  5
A89
331
A6D
  5
A4A
331
ABC
  5
B10
331
E2D
  5
E84
331
E68
  5
DC5
331
E29
  5
E79
331
A69
  5
A4E
331
AB8
  5
B0C
331
A1E
  5
A85
331
A65
  5
A52
331
A61
  5
A56
331
AA0
  5
B06
331
EAB
  5
EA2
  0
ACDBDETAILVIEWSTYLE
  5
7EC
102
{ACAD_XDICTIONARY
360
93F
102
}
102
{ACAD_REACTORS
330
7EB
102
}
330
7EB
100
AcDbModelDocViewStyle
 70
     0
  3
Imperial24
290
     0
100
AcDbDetailViewStyle
 70
     0
 71
     0
 90
        3
 71
     1
340
11
 62
   256
 40
0.24
340
0
 62
   256
 40
0.24
300

 40
0.36
280
     3
 71
     2
340
16
 90
       25
 62
   256
 71
     3
340
11
 62
   256
 40
0.24
 90
        1
 40
0.75
 90
        1
300
%<\AcVar ViewType \f "%tc1">% %<\AcVar ViewDetailId>%\PSCALE %<\AcVar ViewScale \f "%sn">%
 71
     4
340
16
 90
       25
 62
   256
340
16
 90
       25
 62
   256
280
     0
  0
LAYOUT
  5
7EE
102
{ACAD_REACTORS
330
1A
102
}
330
1A
100
AcDbPlotSettings
  1

  2
Microsoft XPS Document Writer
  4

  6

 40
0.0
 41
0.0
 42
0.0
 43
0.0
 44
0.0
 45
0.0
 46
0.0
 47
0.0
 48
0.0
 49
0.0
140
0.0
141
0.0
142
1.0
143
1.0
 70
   688
 72
     0
 73
     0
 74
     5
  7

 75
    16
147
1.0
 76
     0
 77
     2
 78
   300
148
0.0
149
0.0
100
AcDbLayout
  1
Layout1
 70
     1
 71
     1
 10
0.0
 20
0.0
 11
12.0
 21
9.0
 12
0.0
 22
0.0
 32
0.0
 14
1.000000000000000E+20
 24
1.000000000000000E+20
 34
1.000000000000000E+20
 15
-1.000000000000000E+20
 25
-1.000000000000000E+20
 35
-1.000000000000000E+20
146
0.0
 13
0.0
 23
0.0
 33
0.0
 16
1.0
 26
0.0
 36
0.0
 17
0.0
 27
1.0
 37
0.0
 76
     0
330
1B
  0
LAYOUT
  5
7ED
102
{ACAD_REACTORS
330
1A
102
}
330
1A
100
AcDbPlotSettings
  1

  2
Microsoft XPS Document Writer
  4

  6

 40
0.0
 41
0.0
 42
0.0
 43
0.0
 44
0.0
 45
0.0
 46
0.0
 47
0.0
 48
0.0
 49
0.0
140
0.0
141
0.0
142
1.0
143
1.0
 70
  1712
 72
     0
 73
     0
 74
     0
  7

 75
     0
147
1.0
 76
     0
 77
     2
 78
   300
148
0.0
149
0.0
100
AcDbLayout
  1
Model
 70
     1
 71
     0
 10
0.0
 20
0.0
 11
12.0
 21
9.0
 12
0.0
 22
0.0
 32
0.0
 14
0.0
 24
0.0
 34
0.0
 15
0.0
 25
0.0
 35
0.0
146
0.0
 13
0.0
 23
0.0
 33
0.0
 16
1.0
 26
0.0
 36
0.0
 17
0.0
 27
1.0
 37
0.0
 76
     0
330
1F
331
29
  0
MATERIAL
  5
7B9
102
{ACAD_XDICTIONARY
360
7BA
102
}
102
{ACAD_REACTORS
330
7B0
102
}
330
7B0
100
AcDbMaterial
  1
ByBlock
 72
     0
 43
0.0208333333333333
 43
0.0
 43
0.0
 43
0.0
 43
0.0
 43
0.0208333333333333
 43
0.0
 43
0.0
 43
0.0
 43
0.0
 43
1.0
 43
0.0
 43
0.0
 43
0.0
 43
0.0
 43
1.0
 77
     0
 47
0.0208333333333333
 47
0.0
 47
0.0
 47
0.0
 47
0.0
 47
0.0208333333333333
 47
0.0
 47
0.0
 47
0.0
 47
0.0
 47
1.0
 47
0.0
 47
0.0
 47
0.0
 47
0.0
 47
1.0
171
     0
 49
0.0208333333333333
 49
0.0
 49
0.0
 49
0.0
 49
0.0
 49
0.0208333333333333
 49
0.0
 49
0.0
 49
0.0
 49
0.0
 49
1.0
 49
0.0
 49
0.0
 49
0.0
 49
0.0
 49
1.0
175
     0
142
0.0208333333333333
142
0.0
142
0.0
142
0.0
142
0.0
142
0.0208333333333333
142
0.0
142
0.0
142
0.0
142
0.0
142
1.0
142
0.0
142
0.0
142
0.0
142
0.0
142
1.0
179
     0
144
0.0208333333333333
144
0.0
144
0.0
144
0.0
144
0.0
144
0.0208333333333333
144
0.0
144
0.0
144
0.0
144
0.0
144
1.0
144
0.0
144
0.0
144
0.0
144
0.0
144
1.0
147
0.0208333333333333
147
0.0
147
0.0
147
0.0
147
0.0
147
0.0208333333333333
147
0.0
147
0.0
147
0.0
147
0.0
147
1.0
147
0.0
147
0.0
147
0.0
147
0.0
147
1.0
  0
MATERIAL
  5
7B1
102
{ACAD_XDICTIONARY
360
7B2
102
}
102
{ACAD_REACTORS
330
7B0
102
}
330
7B0
100
AcDbMaterial
  1
ByLayer
 72
     0
 43
0.0208333333333333
 43
0.0
 43
0.0
 43
0.0
 43
0.0
 43
0.0208333333333333
 43
0.0
 43
0.0
 43
0.0
 43
0.0
 43
1.0
 43
0.0
 43
0.0
 43
0.0
 43
0.0
 43
1.0
 77
     0
 47
0.0208333333333333
 47
0.0
 47
0.0
 47
0.0
 47
0.0
 47
0.0208333333333333
 47
0.0
 47
0.0
 47
0.0
 47
0.0
 47
1.0
 47
0.0
 47
0.0
 47
0.0
 47
0.0
 47
1.0
171
     0
 49
0.0208333333333333
 49
0.0
 49
0.0
 49
0.0
 49
0.0
 49
0.0208333333333333
 49
0.0
 49
0.0
 49
0.0
 49
0.0
 49
1.0
 49
0.0
 49
0.0
 49
0.0
 49
0.0
 49
1.0
175
     0
142
0.0208333333333333
142
0.0
142
0.0
142
0.0
142
0.0
142
0.0208333333333333
142
0.0
142
0.0
142
0.0
142
0.0
142
1.0
142
0.0
142
0.0
142
0.0
142
0.0
142
1.0
179
     0
144
0.0208333333333333
144
0.0
144
0.0
144
0.0
144
0.0
144
0.0208333333333333
144
0.0
144
0.0
144
0.0
144
0.0
144
1.0
144
0.0
144
0.0
144
0.0
144
0.0
144
1.0
147
0.0208333333333333
147
0.0
147
0.0
147
0.0
147
0.0
147
0.0208333333333333
147
0.0
147
0.0
147
0.0
147
0.0
147
1.0
147
0.0
147
0.0
147
0.0
147
0.0
147
1.0
  0
MATERIAL
  5
7C1
102
{ACAD_XDICTIONARY
360
7C2
102
}
102
{ACAD_REACTORS
330
7B0
102
}
330
7B0
100
AcDbMaterial
  1
Global
 72
     0
 43
0.0208333333333333
 43
0.0
 43
0.0
 43
0.0
 43
0.0
 43
0.0208333333333333
 43
0.0
 43
0.0
 43
0.0
 43
0.0
 43
1.0
 43
0.0
 43
0.0
 43
0.0
 43
0.0
 43
1.0
 77
     0
 47
0.0208333333333333
 47
0.0
 47
0.0
 47
0.0
 47
0.0
 47
0.0208333333333333
 47
0.0
 47
0.0
 47
0.0
 47
0.0
 47
1.0
 47
0.0
 47
0.0
 47
0.0
 47
0.0
 47
1.0
171
     0
 49
0.0208333333333333
 49
0.0
 49
0.0
 49
0.0
 49
0.0
 49
0.0208333333333333
 49
0.0
 49
0.0
 49
0.0
 49
0.0
 49
1.0
 49
0.0
 49
0.0
 49
0.0
 49
0.0
 49
1.0
175
     0
142
0.0208333333333333
142
0.0
142
0.0
142
0.0
142
0.0
142
0.0208333333333333
142
0.0
142
0.0
142
0.0
142
0.0
142
1.0
142
0.0
142
0.0
142
0.0
142
0.0
142
1.0
179
     0
144
0.0208333333333333
144
0.0
144
0.0
144
0.0
144
0.0
144
0.0208333333333333
144
0.0
144
0.0
144
0.0
144
0.0
144
1.0
144
0.0
144
0.0
144
0.0
144
0.0
144
1.0
147
0.0208333333333333
147
0.0
147
0.0
147
0.0
147
0.0
147
0.0208333333333333
147
0.0
147
0.0
147
0.0
147
0.0
147
1.0
147
0.0
147
0.0
147
0.0
147
0.0
147
1.0
  0
MLEADERSTYLE
  5
7E8
102
{ACAD_REACTORS
330
7E7
102
}
330
7E7
100
AcDbMLeaderStyle
179
     2
170
     2
171
     1
172
     0
 90
        2
 40
0.0
 41
0.0
173
     1
 91
-1056964608
340
14
 92
       -2
290
     1
 42
0.09
291
     1
 43
0.36
  3
Standard
 44
0.18
300

342
11
174
     1
178
     6
175
     1
176
     0
 93
-1056964608
 45
0.18
292
     0
297
     0
 46
0.18
 94
-1056964608
 47
1.0
 49
1.0
140
1.0
293
     1
141
0.0
294
     1
177
     0
142
1.0
295
     0
296
     0
143
0.125
271
     0
272
     9
273
     9
298
     0
  0
MLINESTYLE
  5
18
102
{ACAD_REACTORS
330
17
102
}
330
17
100
AcDbMlineStyle
  2
STANDARD
 70
     0
  3

 62
   256
 51
90.0
 52
90.0
 71
     2
 49
0.5
 62
   256
  6
BYLAYER
 49
-0.5
 62
   256
  6
BYLAYER
  0
ACDBPLACEHOLDER
  5
7AF
102
{ACAD_REACTORS
330
7AE
102
}
330
7AE
  0
SCALE
  5
7D6
102
{ACAD_REACTORS
330
7D5
102
}
330
7D5
100
AcDbScale
 70
     0
300
1:1
140
1.0
141
1.0
290
     1
  0
SCALE
  5
7D7
102
{ACAD_REACTORS
330
7D5
102
}
330
7D5
100
AcDbScale
 70
     0
300
1/128" = 1'-0"
140
0.0078125
141
12.0
290
     0
  0
SCALE
  5
7D8
102
{ACAD_REACTORS
330
7D5
102
}
330
7D5
100
AcDbScale
 70
     0
300
1/64" = 1'-0"
140
0.015625
141
12.0
290
     0
  0
SCALE
  5
7D9
102
{ACAD_REACTORS
330
7D5
102
}
330
7D5
100
AcDbScale
 70
     0
300
1/32" = 1'-0"
140
0.03125
141
12.0
290
     0
  0
SCALE
  5
7DA
102
{ACAD_REACTORS
330
7D5
102
}
330
7D5
100
AcDbScale
 70
     0
300
1/16" = 1'-0"
140
0.0625
141
12.0
290
     0
  0
SCALE
  5
7DB
102
{ACAD_REACTORS
330
7D5
102
}
330
7D5
100
AcDbScale
 70
     0
300
3/32" = 1'-0"
140
0.09375
141
12.0
290
     0
  0
SCALE
  5
7DC
102
{ACAD_REACTORS
330
7D5
102
}
330
7D5
100
AcDbScale
 70
     0
300
1/8" = 1'-0"
140
0.125
141
12.0
290
     0
  0
SCALE
  5
7DD
102
{ACAD_REACTORS
330
7D5
102
}
330
7D5
100
AcDbScale
 70
     0
300
3/16" = 1'-0"
140
0.1875
141
12.0
290
     0
  0
SCALE
  5
7DE
102
{ACAD_REACTORS
330
7D5
102
}
330
7D5
100
AcDbScale
 70
     0
300
1/4" = 1'-0"
140
0.25
141
12.0
290
     0
  0
SCALE
  5
7DF
102
{ACAD_REACTORS
330
7D5
102
}
330
7D5
100
AcDbScale
 70
     0
300
3/8" = 1'-0"
140
0.375
141
12.0
290
     0
  0
SCALE
  5
7E0
102
{ACAD_REACTORS
330
7D5
102
}
330
7D5
100
AcDbScale
 70
     0
300
1/2" = 1'-0"
140
0.5
141
12.0
290
     0
  0
SCALE
  5
7E1
102
{ACAD_REACTORS
330
7D5
102
}
330
7D5
100
AcDbScale
 70
     0
300
3/4" = 1'-0"
140
0.75
141
12.0
290
     0
  0
SCALE
  5
7E2
102
{ACAD_REACTORS
330
7D5
102
}
330
7D5
100
AcDbScale
 70
     0
300
1" = 1'-0"
140
1.0
141
12.0
290
     0
  0
SCALE
  5
7E3
102
{ACAD_REACTORS
330
7D5
102
}
330
7D5
100
AcDbScale
 70
     0
300
1-1/2" = 1'-0"
140
1.5
141
12.0
290
     0
  0
SCALE
  5
7E4
102
{ACAD_REACTORS
330
7D5
102
}
330
7D5
100
AcDbScale
 70
     0
300
3" = 1'-0"
140
3.0
141
12.0
290
     0
  0
SCALE
  5
7E5
102
{ACAD_REACTORS
330
7D5
102
}
330
7D5
100
AcDbScale
 70
     0
300
6" = 1'-0"
140
6.0
141
12.0
290
     0
  0
SCALE
  5
7E6
102
{ACAD_REACTORS
330
7D5
102
}
330
7D5
100
AcDbScale
 70
     0
300
1'-0" = 1'-0"
140
12.0
141
12.0
290
     0
  0
ACDBSECTIONVIEWSTYLE
  5
7EA
102
{ACAD_XDICTIONARY
360
93D
102
}
102
{ACAD_REACTORS
330
7E9
102
}
330
7E9
100
AcDbModelDocViewStyle
 70
     0
  3
Imperial24
290
     0
100
AcDbSectionViewStyle
 70
     0
 71
     0
 90
       78
 71
     1
340
11
 62
   256
 40
0.24
340
0
340
0
 62
   256
 40
0.24
300
I, O, Q, S, X, Z
 40
0.48
 90
        3
 40
0.18
 90
        1
 71
     2
340
16
 90
       25
 62
   256
340
16
 90
       50
 62
   256
 40
0.24
 40
0.0
 40
0.24
 71
     3
340
11
 62
   256
 40
0.24
 90
        1
 40
0.75
 90
        1
300
%<\AcVar ViewType \f "%tc1">% %<\AcVar ViewSectionStartId>%-%<\AcVar ViewSectionEndId>%\PSCALE %<\AcVar ViewScale \f "%sn">%
 71
     4
 62
   256
 62
   257
300
ANSI31
 40
1.0
 90
        0
290
     0
290
     0
 90
        6
 40
0.0
 40
1.570796326794896
 40
0.2617993877991494
 40
1.308996938995747
 40
-0.2617993877991494
 40
1.832595714594044
  0
TABLESTYLE
  5
7D4
102
{ACAD_XDICTIONARY
360
93B
102
}
102
{ACAD_REACTORS
330
7AB
102
}
330
7AB
100
AcDbTableStyle
280
     0
  3
Standard
 70
     0
 71
     0
 40
0.06
 41
0.06
280
     0
281
     0
  7
STANDARD
140
0.18
170
     2
 62
     0
 63
     7
283
     0
 90
      512
 91
        0
  1

274
    -2
284
     1
 64
     0
275
    -2
285
     1
 65
     0
276
    -2
286
     1
 66
     0
277
    -2
287
     1
 67
     0
278
    -2
288
     1
 68
     0
279
    -2
289
     1
 69
     0
  7
STANDARD
140
0.25
170
     5
 62
     0
 63
     7
283
     0
 90
      512
 91
        0
  1

274
    -2
284
     1
 64
     0
275
    -2
285
     1
 65
     0
276
    -2
286
     1
 66
     0
277
    -2
287
     1
 67
     0
278
    -2
288
     1
 68
     0
279
    -2
289
     1
 69
     0
  7
STANDARD
140
0.18
170
     5
 62
     0
 63
     7
283
     0
 90
      512
 91
        0
  1

274
    -2
284
     1
 64
     0
275
    -2
285
     1
 65
     0
276
    -2
286
     1
 66
     0
277
    -2
287
     1
 67
     0
278
    -2
288
     1
 68
     0
279
    -2
289
     1
 69
     0
  0
VISUALSTYLE
  5
2F
102
{ACAD_REACTORS
330
2A
102
}
330
2A
100
AcDbVisualStyle
  2

 70
     4
177
     3
291
     0
 70
    58
 90
        0
176
     1
 90
        2
176
     1
 90
        0
176
     1
 90
        0
176
     1
 40
0.6
176
     1
 40
30.0
176
     1
 62
     7
176
     1
 90
        1
176
     1
 90
        4
176
     1
 62
     7
176
     1
 62
   257
176
     1
 90
        1
176
     1
 90
        1
176
     1
 40
1.0
176
     1
 90
        0
176
     1
 62
   257
176
     1
 40
1.0
176
     1
 90
        1
176
     1
 90
        6
176
     1
 90
        2
176
     1
 62
     7
176
     1
 90
        5
176
     1
 90
        0
176
     1
 90
        0
176
     1
290
     0
176
     1
 90
        1
176
     1
 40
0.0
176
     1
 90
        0
176
     1
290
     1
176
     1
290
     1
176
     1
290
     0
176
     1
290
     0
176
     1
290
     0
176
     1
290
     0
176
     1
290
     0
176
     1
290
     0
176
     1
290
     0
176
     1
 90
       50
176
     1
 40
0.0
176
     1
 40
1.0
176
     1
 90
        0
176
     1
 62
    18
176
     1
 90
       50
176
     1
 90
        3
176
     1
 62
     5
420
      255
176
     1
290
     0
176
     1
 90
       50
176
     1
 90
       50
176
     1
 90
       50
176
     1
290
     0
176
     1
 90
       50
176
     1
 62
   256
176
     0
 40
1.0
176
     0
 90
        2
176
     1
  1
strokes_ogs.tif
176
     1
290
     0
176
     1
 40
1.0
176
     1
 40
1.0
176
     1
  0
VISUALSTYLE
  5
31
102
{ACAD_REACTORS
330
2A
102
}
330
2A
100
AcDbVisualStyle
  2

 70
     6
177
     3
291
     0
 70
    58
 90
        1
176
     1
 90
        2
176
     1
 90
        2
176
     1
 90
        0
176
     1
 40
0.6
176
     1
 40
30.0
176
     1
 62
     7
176
     1
 90
        2
176
     1
 90
        2
176
     1
 62
     7
176
     1
 62
   257
176
     1
 90
        2
176
     1
 90
        1
176
     1
 40
40.0
176
     1
 90
        0
176
     1
 62
   257
176
     1
 40
1.0
176
     1
 90
        1
176
     1
 90
        6
176
     1
 90
        2
176
     1
 62
     7
176
     1
 90
        3
176
     1
 90
        0
176
     1
 90
        0
176
     1
290
     0
176
     1
 90
        1
176
     1
 40
0.0
176
     1
 90
        0
176
     1
290
     0
176
     1
290
     1
176
     1
290
     1
176
     1
290
     0
176
     1
290
     0
176
     1
290
     0
176
     1
290
     0
176
     1
290
     0
176
     1
290
     0
176
     1
 90
       50
176
     1
 40
0.0
176
     1
 40
1.0
176
     1
 90
        0
176
     1
 62
    18
176
     1
 90
       50
176
     1
 90
        3
176
     1
 62
     5
420
      255
176
     1
290
     0
176
     1
 90
       50
176
     1
 90
       50
176
     1
 90
       50
176
     1
290
     0
176
     1
 90
       50
176
     1
 62
   256
176
     0
 40
1.0
176
     0
 90
        2
176
     1
  1
strokes_ogs.tif
176
     1
290
     0
176
     1
 40
1.0
176
     1
 40
1.0
176
     1
  0
VISUALSTYLE
  5
30
102
{ACAD_REACTORS
330
2A
102
}
330
2A
100
AcDbVisualStyle
  2

 70
     5
177
     3
291
     0
 70
    58
 90
        0
176
     1
 90
        2
176
     1
 90
        0
176
     1
 90
        0
176
     1
 40
0.6
176
     1
 40
30.0
176
     1
 62
     7
176
     1
 90
        1
176
     1
 90
        4
176
     1
 62
     7
176
     1
 62
   257
176
     1
 90
        1
176
     1
 90
        1
176
     1
 40
1.0
176
     1
 90
        0
176
     1
 62
   257
176
     1
 40
1.0
176
     1
 90
        1
176
     1
 90
        6
176
     1
 90
        2
176
     1
 62
     7
176
     1
 90
        5
176
     1
 90
        0
176
     1
 90
        0
176
     1
290
     0
176
     1
 90
        1
176
     1
 40
0.0
176
     1
 90
        0
176
     1
290
     0
176
     1
290
     1
176
     1
290
     1
176
     1
290
     0
176
     1
290
     0
176
     1
290
     0
176
     1
290
     0
176
     1
290
     0
176
     1
290
     0
176
     1
 90
       50
176
     1
 40
0.0
176
     1
 40
1.0
176
     1
 90
        0
176
     1
 62
    18
176
     1
 90
       50
176
     1
 90
        3
176
     1
 62
     5
420
      255
176
     1
290
     0
176
     1
 90
       50
176
     1
 90
       50
176
     1
 90
       50
176
     1
290
     0
176
     1
 90
       50
176
     1
 62
   256
176
     0
 40
1.0
176
     0
 90
        2
176
     1
  1
strokes_ogs.tif
176
     1
290
     0
176
     1
 40
1.0
176
     1
 40
1.0
176
     1
  0
VISUALSTYLE
  5
32
102
{ACAD_REACTORS
330
2A
102
}
330
2A
100
AcDbVisualStyle
  2

 70
     7
177
     3
291
     1
 70
    58
 90
        1
176
     1
 90
        0
176
     1
 90
        1
176
     1
 90
        0
176
     1
 40
0.6
176
     1
 40
30.0
176
     1
 62
     7
176
     1
 90
        0
176
     1
 90
        4
176
     1
 62
     7
176
     1
 62
   257
176
     1
 90
        1
176
     1
 90
        1
176
     1
 40
1.0
176
     1
 90
        8
176
     1
 62
     7
176
     1
 40
1.0
176
     1
 90
        1
176
     1
 90
        6
176
     1
 90
        2
176
     1
 62
     7
176
     1
 90
        5
176
     1
 90
        0
176
     1
 90
        0
176
     1
290
     0
176
     1
 90
        1
176
     1
 40
0.0
176
     1
 90
        0
176
     1
290
     0
176
     1
290
     1
176
     1
290
     1
176
     1
290
     0
176
     1
290
     0
176
     1
290
     0
176
     1
290
     0
176
     1
290
     0
176
     1
290
     0
176
     1
 90
       50
176
     1
 40
0.0
176
     1
 40
1.0
176
     1
 90
        0
176
     1
 62
    18
176
     1
 90
       50
176
     1
 90
        3
176
     1
 62
     5
420
      255
176
     1
290
     0
176
     1
 90
       50
176
     1
 90
       50
176
     1
 90
       50
176
     1
290
     0
176
     1
 90
       50
176
     1
 62
   256
176
     0
 40
1.0
176
     0
 90
        2
176
     1
  1
strokes_ogs.tif
176
     1
290
     0
176
     1
 40
1.0
176
     1
 40
1.0
176
     1
  0
VISUALSTYLE
  5
36
102
{ACAD_REACTORS
330
2A
102
}
330
2A
100
AcDbVisualStyle
  2

 70
    12
177
     3
291
     1
 70
    58
 90
        2
176
     1
 90
        2
176
     1
 90
        0
176
     1
 90
        0
176
     1
 40
0.6
176
     1
 40
30.0
176
     1
 62
     7
176
     1
 90
        1
176
     1
 90
        4
176
     1
 62
     7
176
     1
 62
   257
176
     1
 90
        1
176
     1
 90
        1
176
     1
 40
1.0
176
     1
 90
        8
176
     1
 62
     7
176
     1
 40
1.0
176
     1
 90
        1
176
     1
 90
        6
176
     1
 90
        2
176
     1
 62
     7
176
     1
 90
        5
176
     1
 90
        0
176
     1
 90
        0
176
     1
290
     0
176
     1
 90
        1
176
     1
 40
50.0
176
     1
 90
        0
176
     1
290
     0
176
     1
290
     1
176
     1
290
     1
176
     1
290
     0
176
     1
290
     0
176
     1
290
     0
176
     1
290
     0
176
     1
290
     0
176
     1
290
     0
176
     1
 90
       50
176
     1
 40
0.0
176
     1
 40
1.0
176
     1
 90
        0
176
     1
 62
    18
176
     1
 90
       50
176
     1
 90
        3
176
     1
 62
     5
420
      255
176
     1
290
     0
176
     1
 90
       50
176
     1
 90
       50
176
     1
 90
       50
176
     1
290
     0
176
     1
 90
       50
176
     1
 62
   256
176
     0
 40
1.0
176
     0
 90
        2
176
     1
  1
strokes_ogs.tif
176
     1
290
     0
176
     1
 40
1.0
176
     1
 40
1.0
176
     1
  0
VISUALSTYLE
  5
3A
102
{ACAD_REACTORS
330
2A
102
}
330
2A
100
AcDbVisualStyle
  2

 70
    16
177
     3
291
     1
 70
    58
 90
        2
176
     1
 90
        2
176
     1
 90
        3
176
     1
 90
        0
176
     1
 40
0.6
176
     1
 40
30.0
176
     1
 62
     8
176
     1
 90
        1
176
     1
 90
        4
176
     1
 62
     7
176
     1
 62
   257
176
     1
 90
        1
176
     1
 90
        1
176
     1
 40
1.0
176
     1
 90
        8
176
     1
 62
     8
176
     1
 40
1.0
176
     1
 90
        1
176
     1
 90
        6
176
     1
 90
        2
176
     1
 62
     7
176
     1
 90
        5
176
     1
 90
        0
176
     1
 90
        0
176
     1
290
     0
176
     1
 90
        1
176
     1
 40
0.0
176
     1
 90
        0
176
     1
290
     0
176
     1
290
     1
176
     1
290
     1
176
     1
290
     0
176
     1
290
     0
176
     1
290
     0
176
     1
290
     0
176
     1
290
     0
176
     1
290
     0
176
     1
 90
       50
176
     1
 40
0.0
176
     1
 40
1.0
176
     1
 90
        0
176
     1
 62
    18
176
     1
 90
       50
176
     1
 90
        3
176
     1
 62
     5
420
      255
176
     1
290
     0
176
     1
 90
       50
176
     1
 90
       50
176
     1
 90
       50
176
     1
290
     0
176
     1
 90
       50
176
     1
 62
   256
176
     0
 40
1.0
176
     0
 90
        2
176
     1
  1
strokes_ogs.tif
176
     1
290
     0
176
     1
 40
1.0
176
     1
 40
1.0
176
     1
  0
VISUALSTYLE
  5
34
102
{ACAD_REACTORS
330
2A
102
}
330
2A
100
AcDbVisualStyle
  2

 70
     9
177
     3
291
     0
 70
    58
 90
        3
176
     1
 90
        2
176
     1
 90
        0
176
     1
 90
        0
176
     1
 40
0.6
176
     1
 40
30.0
176
     1
 62
     7
176
     1
 90
        2
176
     1
 90
        2
176
     1
 62
     7
176
     1
 62
   257
176
     1
 90
        1
176
     1
 90
        1
176
     1
 40
40.0
176
     1
 90
        8
176
     1
 62
     7
176
     1
 40
1.0
176
     1
 90
        1
176
     1
 90
        6
176
     1
 90
        2
176
     1
 62
     7
176
     1
 90
        3
176
     1
 90
        0
176
     1
 90
        0
176
     1
290
     0
176
     1
 90
        1
176
     1
 40
0.0
176
     1
 90
        0
176
     1
290
     0
176
     1
290
     1
176
     1
290
     1
176
     1
290
     0
176
     1
290
     0
176
     1
290
     0
176
     1
290
     0
176
     1
290
     0
176
     1
290
     0
176
     1
 90
       50
176
     1
 40
0.0
176
     1
 40
1.0
176
     1
 90
        0
176
     1
 62
    18
176
     1
 90
       50
176
     1
 90
        3
176
     1
 62
     5
420
      255
176
     1
290
     0
176
     1
 90
       50
176
     1
 90
       50
176
     1
 90
       50
176
     1
290
     0
176
     1
 90
       50
176
     1
 62
   256
176
     0
 40
1.0
176
     0
 90
        2
176
     1
  1
strokes_ogs.tif
176
     1
290
     0
176
     1
 40
1.0
176
     1
 40
1.0
176
     1
  0
VISUALSTYLE
  5
35
102
{ACAD_REACTORS
330
2A
102
}
330
2A
100
AcDbVisualStyle
  2

 70
    11
177
     3
291
     1
 70
    58
 90
        2
176
     1
 90
        2
176
     1
 90
        0
176
     1
 90
        0
176
     1
 40
0.6
176
     1
 40
30.0
176
     1
 62
     7
176
     1
 90
        1
176
     1
 90
        4
176
     1
 62
     7
176
     1
 62
   257
176
     1
 90
        1
176
     1
 90
        1
176
     1
 40
1.0
176
     1
 90
        8
176
     1
 62
     7
176
     1
 40
1.0
176
     1
 90
        1
176
     1
 90
        6
176
     1
 90
        2
176
     1
 62
     7
176
     1
 90
        5
176
     1
 90
        0
176
     1
 90
        0
176
     1
290
     0
176
     1
 90
        1
176
     1
 40
-50.0
176
     1
 90
        0
176
     1
290
     0
176
     1
290
     1
176
     1
290
     1
176
     1
290
     0
176
     1
290
     0
176
     1
290
     0
176
     1
290
     0
176
     1
290
     0
176
     1
290
     0
176
     1
 90
       50
176
     1
 40
0.0
176
     1
 40
1.0
176
     1
 90
        0
176
     1
 62
    18
176
     1
 90
       50
176
     1
 90
        3
176
     1
 62
     5
420
      255
176
     1
290
     0
176
     1
 90
       50
176
     1
 90
       50
176
     1
 90
       50
176
     1
290
     0
176
     1
 90
       50
176
     1
 62
   256
176
     0
 40
1.0
176
     0
 90
        2
176
     1
  1
strokes_ogs.tif
176
     1
290
     0
176
     1
 40
1.0
176
     1
 40
1.0
176
     1
  0
VISUALSTYLE
  5
7D2
102
{ACAD_REACTORS
330
2A
102
}
330
2A
100
AcDbVisualStyle
  2
EdgeColorOff
 70
    22
177
     3
291
     1
 70
    58
 90
        2
176
     0
 90
        2
176
     0
 90
        0
176
     0
 90
        0
176
     0
 40
0.6
176
     0
 40
30.0
176
     0
 62
     7
420
 16777215
176
     0
 90
        1
176
     0
 90
        4
176
     0
 62
     7
176
     0
 62
   257
176
     0
 90
        1
176
     0
 90
        1
176
     0
 40
1.0
176
     0
 90
        8
176
     2
 62
     7
176
     0
 40
1.0
176
     0
 90
        1
176
     0
 90
        6
176
     0
 90
        2
176
     0
 62
     7
176
     0
 90
        5
176
     0
 90
        0
176
     0
 90
        0
176
     0
290
     0
176
     0
 90
        1
176
     0
 40
0.0
176
     0
 90
        0
176
     0
290
     0
176
     1
290
     1
176
     1
290
     1
176
     1
290
     0
176
     1
290
     0
176
     1
290
     0
176
     1
290
     0
176
     1
290
     0
176
     1
290
     0
176
     1
 90
       50
176
     0
 40
0.0
176
     0
 40
1.0
176
     0
 90
        0
176
     0
 62
    18
176
     0
 90
       50
176
     0
 90
        3
176
     0
 62
     5
420
      255
176
     0
290
     0
176
     1
 90
       50
176
     0
 90
       50
176
     0
 90
       50
176
     0
290
     0
176
     1
 90
       50
176
     0
 62
   256
176
     0
 40
1.0
176
     0
 90
        2
176
     0
  1
strokes_ogs.tif
176
     0
290
     0
176
     1
 40
1.0
176
     0
 40
1.0
176
     0
  0
VISUALSTYLE
  5
39
102
{ACAD_REACTORS
330
2A
102
}
330
2A
100
AcDbVisualStyle
  2

 70
    15
177
     3
291
     1
 70
    58
 90
        2
176
     1
 90
        2
176
     1
 90
        0
176
     1
 90
        0
176
     1
 40
0.6
176
     1
 40
30.0
176
     1
 62
     7
176
     1
 90
        1
176
     1
 90
        4
176
     1
 62
     7
176
     1
 62
   257
176
     1
 90
        1
176
     1
 90
        1
176
     1
 40
1.0
176
     1
 90
        8
176
     1
 62
     7
176
     1
 40
1.0
176
     1
 90
        1
176
     1
 90
        6
176
     1
 90
        2
176
     1
 62
     7
176
     1
 90
        5
176
     1
 90
        0
176
     1
 90
        0
176
     1
290
     0
176
     1
 90
        1
176
     1
 40
0.0
176
     1
 90
        0
176
     1
290
     0
176
     1
290
     1
176
     1
290
     1
176
     1
290
     0
176
     1
290
     0
176
     1
290
     0
176
     1
290
     0
176
     1
290
     0
176
     1
290
     0
176
     1
 90
       50
176
     1
 40
0.0
176
     1
 40
1.0
176
     1
 90
        0
176
     1
 62
    18
176
     1
 90
       50
176
     1
 90
        3
176
     1
 62
     5
420
      255
176
     1
290
     0
176
     1
 90
       50
176
     1
 90
       50
176
     1
 90
       50
176
     1
290
     0
176
     1
 90
       50
176
     1
 62
   256
176
     0
 40
1.0
176
     0
 90
        2
176
     1
  1
strokes_ogs.tif
176
     1
290
     0
176
     1
 40
1.0
176
     1
 40
1.0
176
     1
  0
VISUALSTYLE
  5
2B
102
{ACAD_REACTORS
330
2A
102
}
330
2A
100
AcDbVisualStyle
  2

 70
     0
177
     3
291
     1
 70
    58
 90
        2
176
     1
 90
        1
176
     1
 90
        1
176
     1
 90
        2
176
     1
 40
0.6
176
     1
 40
30.0
176
     1
 62
     7
176
     1
 90
        0
176
     1
 90
        4
176
     1
 62
     7
176
     1
 62
   257
176
     1
 90
        1
176
     1
 90
        1
176
     1
 40
1.0
176
     1
 90
        8
176
     1
 62
     7
176
     1
 40
1.0
176
     1
 90
        1
176
     1
 90
        6
176
     1
 90
        2
176
     1
 62
     7
176
     1
 90
        5
176
     1
 90
        0
176
     1
 90
        0
176
     1
290
     0
176
     1
 90
       13
176
     1
 40
0.0
176
     1
 90
        0
176
     1
290
     0
176
     1
290
     1
176
     1
290
     1
176
     1
290
     0
176
     1
290
     0
176
     1
290
     0
176
     1
290
     0
176
     1
290
     0
176
     1
290
     0
176
     1
 90
       50
176
     1
 40
0.0
176
     1
 40
1.0
176
     1
 90
        0
176
     1
 62
    18
176
     1
 90
       50
176
     1
 90
        3
176
     1
 62
     5
420
      255
176
     1
290
     0
176
     1
 90
       50
176
     1
 90
       50
176
     1
 90
       50
176
     1
290
     0
176
     1
 90
       50
176
     1
 62
   256
176
     0
 40
1.0
176
     0
 90
        2
176
     1
  1
strokes_ogs.tif
176
     1
290
     0
176
     1
 40
1.0
176
     1
 40
1.0
176
     1
  0
VISUALSTYLE
  5
2C
102
{ACAD_REACTORS
330
2A
102
}
330
2A
100
AcDbVisualStyle
  2

 70
     1
177
     3
291
     1
 70
    58
 90
        2
176
     1
 90
        1
176
     1
 90
        1
176
     1
 90
        2
176
     1
 40
0.6
176
     1
 40
30.0
176
     1
 62
     7
176
     1
 90
        1
176
     1
 90
        4
176
     1
 62
     7
176
     1
 62
   257
176
     1
 90
        1
176
     1
 90
        1
176
     1
 40
1.0
176
     1
 90
        0
176
     1
 62
   257
176
     1
 40
1.0
176
     1
 90
        1
176
     1
 90
        6
176
     1
 90
        2
176
     1
 62
     7
176
     1
 90
        5
176
     1
 90
        0
176
     1
 90
        0
176
     1
290
     0
176
     1
 90
       13
176
     1
 40
0.0
176
     1
 90
        0
176
     1
290
     0
176
     1
290
     1
176
     1
290
     1
176
     1
290
     0
176
     1
290
     0
176
     1
290
     0
176
     1
290
     0
176
     1
290
     0
176
     1
290
     0
176
     1
 90
       50
176
     1
 40
0.0
176
     1
 40
1.0
176
     1
 90
        0
176
     1
 62
    18
176
     1
 90
       50
176
     1
 90
        3
176
     1
 62
     5
420
      255
176
     1
290
     0
176
     1
 90
       50
176
     1
 90
       50
176
     1
 90
       50
176
     1
290
     0
176
     1
 90
       50
176
     1
 62
   256
176
     0
 40
1.0
176
     0
 90
        2
176
     1
  1
strokes_ogs.tif
176
     1
290
     0
176
     1
 40
1.0
176
     1
 40
1.0
176
     1
  0
VISUALSTYLE
  5
2D
102
{ACAD_REACTORS
330
2A
102
}
330
2A
100
AcDbVisualStyle
  2

 70
     2
177
     3
291
     1
 70
    58
 90
        2
176
     1
 90
        2
176
     1
 90
        1
176
     1
 90
        2
176
     1
 40
0.6
176
     1
 40
30.0
176
     1
 62
     7
176
     1
 90
        0
176
     1
 90
        4
176
     1
 62
     7
176
     1
 62
   257
176
     1
 90
        1
176
     1
 90
        1
176
     1
 40
1.0
176
     1
 90
        0
176
     1
 62
     7
176
     1
 40
1.0
176
     1
 90
        1
176
     1
 90
        6
176
     1
 90
        2
176
     1
 62
     7
176
     1
 90
        5
176
     1
 90
        0
176
     1
 90
        0
176
     1
290
     0
176
     1
 90
       13
176
     1
 40
0.0
176
     1
 90
        0
176
     1
290
     0
176
     1
290
     1
176
     1
290
     1
176
     1
290
     0
176
     1
290
     0
176
     1
290
     0
176
     1
290
     0
176
     1
290
     0
176
     1
290
     0
176
     1
 90
       50
176
     1
 40
0.0
176
     1
 40
1.0
176
     1
 90
        0
176
     1
 62
    18
176
     1
 90
       50
176
     1
 90
        3
176
     1
 62
     5
420
      255
176
     1
290
     0
176
     1
 90
       50
176
     1
 90
       50
176
     1
 90
       50
176
     1
290
     0
176
     1
 90
       50
176
     1
 62
   256
176
     0
 40
1.0
176
     0
 90
        2
176
     1
  1
strokes_ogs.tif
176
     1
290
     0
176
     1
 40
1.0
176
     1
 40
1.0
176
     1
  0
VISUALSTYLE
  5
2E
102
{ACAD_REACTORS
330
2A
102
}
330
2A
100
AcDbVisualStyle
  2

 70
     3
177
     3
291
     1
 70
    58
 90
        2
176
     1
 90
        2
176
     1
 90
        1
176
     1
 90
        2
176
     1
 40
0.6
176
     1
 40
30.0
176
     1
 62
     7
176
     1
 90
        1
176
     1
 90
        4
176
     1
 62
     7
176
     1
 62
   257
176
     1
 90
        1
176
     1
 90
        1
176
     1
 40
1.0
176
     1
 90
        0
176
     1
 62
   257
176
     1
 40
1.0
176
     1
 90
        1
176
     1
 90
        6
176
     1
 90
        2
176
     1
 62
     7
176
     1
 90
        5
176
     1
 90
        0
176
     1
 90
        0
176
     1
290
     0
176
     1
 90
       13
176
     1
 40
0.0
176
     1
 90
        0
176
     1
290
     0
176
     1
290
     1
176
     1
290
     1
176
     1
290
     0
176
     1
290
     0
176
     1
290
     0
176
     1
290
     0
176
     1
290
     0
176
     1
290
     0
176
     1
 90
       50
176
     1
 40
0.0
176
     1
 40
1.0
176
     1
 90
        0
176
     1
 62
    18
176
     1
 90
       50
176
     1
 90
        3
176
     1
 62
     5
420
      255
176
     1
290
     0
176
     1
 90
       50
176
     1
 90
       50
176
     1
 90
       50
176
     1
290
     0
176
     1
 90
       50
176
     1
 62
   256
176
     0
 40
1.0
176
     0
 90
        2
176
     1
  1
strokes_ogs.tif
176
     1
290
     0
176
     1
 40
1.0
176
     1
 40
1.0
176
     1
  0
VISUALSTYLE
  5
7CA
102
{ACAD_REACTORS
330
2A
102
}
330
2A
100
AcDbVisualStyle
  2
Hidden
 70
     6
177
     3
291
     0
 70
    58
 90
        1
176
     1
 90
        2
176
     1
 90
        2
176
     1
 90
        0
176
     1
 40
0.6
176
     1
 40
30.0
176
     1
 62
     7
420
 16777215
176
     1
 90
        2
176
     1
 90
        2
176
     1
 62
     7
176
     1
 62
   257
176
     1
 90
        2
176
     1
 90
        1
176
     1
 40
40.0
176
     1
 90
        0
176
     1
 62
   257
176
     1
 40
1.0
176
     1
 90
        1
176
     1
 90
        6
176
     1
 90
        2
176
     1
 62
     7
176
     1
 90
        3
176
     1
 90
        0
176
     1
 90
        0
176
     1
290
     0
176
     1
 90
        1
176
     1
 40
0.0
176
     1
 90
        0
176
     1
290
     0
176
     1
290
     1
176
     1
290
     1
176
     1
290
     0
176
     1
290
     0
176
     1
290
     0
176
     1
290
     0
176
     1
290
     0
176
     1
290
     0
176
     1
 90
       50
176
     1
 40
0.0
176
     1
 40
1.0
176
     1
 90
        0
176
     1
 62
    18
176
     1
 90
       50
176
     1
 90
        3
176
     1
 62
     5
420
      255
176
     1
290
     0
176
     1
 90
       50
176
     1
 90
       50
176
     1
 90
       50
176
     1
290
     0
176
     1
 90
       50
176
     1
 62
   256
176
     0
 40
1.0
176
     0
 90
        2
176
     1
  1
strokes_ogs.tif
176
     1
290
     0
176
     1
 40
1.0
176
     1
 40
1.0
176
     1
  0
VISUALSTYLE
  5
7D0
102
{ACAD_REACTORS
330
2A
102
}
330
2A
100
AcDbVisualStyle
  2
JitterOff
 70
    20
177
     3
291
     1
 70
    58
 90
        2
176
     0
 90
        2
176
     0
 90
        0
176
     0
 90
        0
176
     0
 40
0.6
176
     0
 40
30.0
176
     0
 62
     7
420
 16777215
176
     0
 90
        1
176
     0
 90
        4
176
     0
 62
     7
176
     0
 62
   257
176
     0
 90
        1
176
     0
 90
        1
176
     0
 40
1.0
176
     0
 90
       10
176
     2
 62
     7
176
     0
 40
1.0
176
     0
 90
        1
176
     0
 90
        6
176
     0
 90
        2
176
     0
 62
     7
176
     0
 90
        5
176
     0
 90
        0
176
     0
 90
        0
176
     0
290
     0
176
     0
 90
        1
176
     0
 40
0.0
176
     0
 90
        0
176
     0
290
     0
176
     1
290
     1
176
     1
290
     1
176
     1
290
     0
176
     1
290
     0
176
     1
290
     0
176
     1
290
     0
176
     1
290
     0
176
     1
290
     0
176
     1
 90
       50
176
     0
 40
0.0
176
     0
 40
1.0
176
     0
 90
        0
176
     0
 62
    18
176
     0
 90
       50
176
     0
 90
        3
176
     0
 62
     5
420
      255
176
     0
290
     0
176
     1
 90
       50
176
     0
 90
       50
176
     0
 90
       50
176
     0
290
     0
176
     1
 90
       50
176
     0
 62
   256
176
     0
 40
1.0
176
     0
 90
        2
176
     0
  1
strokes_ogs.tif
176
     0
290
     0
176
     1
 40
1.0
176
     0
 40
1.0
176
     0
  0
VISUALSTYLE
  5
38
102
{ACAD_REACTORS
330
2A
102
}
330
2A
100
AcDbVisualStyle
  2

 70
    14
177
     3
291
     1
 70
    58
 90
        2
176
     1
 90
        2
176
     1
 90
        0
176
     1
 90
        0
176
     1
 40
0.6
176
     1
 40
30.0
176
     1
 62
     7
176
     1
 90
        1
176
     1
 90
        4
176
     1
 62
     7
176
     1
 62
   257
176
     1
 90
        7
176
     1
 90
        7
176
     1
 40
1.0
176
     1
 90
        8
176
     1
 62
     7
176
     1
 40
1.0
176
     1
 90
        1
176
     1
 90
        6
176
     1
 90
        2
176
     1
 62
     7
176
     1
 90
        5
176
     1
 90
        0
176
     1
 90
        0
176
     1
290
     0
176
     1
 90
        1
176
     1
 40
0.0
176
     1
 90
        0
176
     1
290
     0
176
     1
290
     1
176
     1
290
     1
176
     1
290
     0
176
     1
290
     0
176
     1
290
     0
176
     1
290
     0
176
     1
290
     0
176
     1
290
     0
176
     1
 90
       50
176
     1
 40
0.0
176
     1
 40
1.0
176
     1
 90
        0
176
     1
 62
    18
176
     1
 90
       50
176
     1
 90
        3
176
     1
 62
     5
420
      255
176
     1
290
     0
176
     1
 90
       50
176
     1
 90
       50
176
     1
 90
       50
176
     1
290
     0
176
     1
 90
       50
176
     1
 62
   256
176
     0
 40
1.0
176
     0
 90
        2
176
     1
  1
strokes_ogs.tif
176
     1
290
     0
176
     1
 40
1.0
176
     1
 40
1.0
176
     1
  0
VISUALSTYLE
  5
7D1
102
{ACAD_REACTORS
330
2A
102
}
330
2A
100
AcDbVisualStyle
  2
OverhangOff
 70
    21
177
     3
291
     1
 70
    58
 90
        2
176
     0
 90
        2
176
     0
 90
        0
176
     0
 90
        0
176
     0
 40
0.6
176
     0
 40
30.0
176
     0
 62
     7
420
 16777215
176
     0
 90
        1
176
     0
 90
        4
176
     0
 62
     7
176
     0
 62
   257
176
     0
 90
        1
176
     0
 90
        1
176
     0
 40
1.0
176
     0
 90
        9
176
     2
 62
     7
176
     0
 40
1.0
176
     0
 90
        1
176
     0
 90
        6
176
     0
 90
        2
176
     0
 62
     7
176
     0
 90
        5
176
     0
 90
        0
176
     0
 90
        0
176
     0
290
     0
176
     0
 90
        1
176
     0
 40
0.0
176
     0
 90
        0
176
     0
290
     0
176
     1
290
     1
176
     1
290
     1
176
     1
290
     0
176
     1
290
     0
176
     1
290
     0
176
     1
290
     0
176
     1
290
     0
176
     1
290
     0
176
     1
 90
       50
176
     0
 40
0.0
176
     0
 40
1.0
176
     0
 90
        0
176
     0
 62
    18
176
     0
 90
       50
176
     0
 90
        3
176
     0
 62
     5
420
      255
176
     0
290
     0
176
     1
 90
       50
176
     0
 90
       50
176
     0
 90
       50
176
     0
290
     0
176
     1
 90
       50
176
     0
 62
   256
176
     0
 40
1.0
176
     0
 90
        2
176
     0
  1
strokes_ogs.tif
176
     0
290
     0
176
     1
 40
1.0
176
     0
 40
1.0
176
     0
  0
VISUALSTYLE
  5
33
102
{ACAD_REACTORS
330
2A
102
}
330
2A
100
AcDbVisualStyle
  2

 70
     8
177
     3
291
     0
 70
    58
 90
        2
176
     1
 90
        2
176
     1
 90
        0
176
     1
 90
        0
176
     1
 40
0.6
176
     1
 40
30.0
176
     1
 62
     7
176
     1
 90
        1
176
     1
 90
        0
176
     1
 62
     7
176
     1
 62
   257
176
     1
 90
        1
176
     1
 90
        1
176
     1
 40
1.0
176
     1
 90
        8
176
     1
 62
     8
176
     1
 40
1.0
176
     1
 90
        1
176
     1
 90
        6
176
     1
 90
        2
176
     1
 62
     7
176
     1
 90
        5
176
     1
 90
        0
176
     1
 90
        0
176
     1
290
     0
176
     1
 90
       13
176
     1
 40
0.0
176
     1
 90
        0
176
     1
290
     0
176
     1
290
     1
176
     1
290
     1
176
     1
290
     0
176
     1
290
     0
176
     1
290
     0
176
     1
290
     0
176
     1
290
     0
176
     1
290
     0
176
     1
 90
       50
176
     1
 40
0.0
176
     1
 40
1.0
176
     1
 90
        0
176
     1
 62
    18
176
     1
 90
       50
176
     1
 90
        3
176
     1
 62
     5
420
      255
176
     1
290
     0
176
     1
 90
       50
176
     1
 90
       50
176
     1
 90
       50
176
     1
290
     0
176
     1
 90
       50
176
     1
 62
   256
176
     0
 40
1.0
176
     0
 90
        2
176
     1
  1
strokes_ogs.tif
176
     1
290
     0
176
     1
 40
1.0
176
     1
 40
1.0
176
     1
  0
VISUALSTYLE
  5
7CF
102
{ACAD_REACTORS
330
2A
102
}
330
2A
100
AcDbVisualStyle
  2
Shaded
 70
    27
177
     3
291
     0
 70
    58
 90
        2
176
     1
 90
        2
176
     1
 90
        1
176
     1
 90
        2
176
     1
 40
0.6
176
     1
 40
30.0
176
     1
 62
     7
420
 16777215
176
     1
 90
        0
176
     1
 90
        4
176
     1
 62
     7
176
     1
 62
   257
176
     1
 90
        1
176
     1
 90
        1
176
     1
 40
1.0
176
     1
 90
        8
176
     1
 62
   257
176
     1
 40
1.0
176
     1
 90
        1
176
     1
 90
        6
176
     1
 90
        2
176
     1
 62
     8
420
  7895160
176
     1
 90
        3
176
     1
 90
        0
176
     1
 90
        0
176
     1
290
     0
176
     1
 90
        5
176
     1
 40
0.0
176
     1
 90
        0
176
     1
290
     0
176
     1
290
     1
176
     1
290
     1
176
     1
290
     0
176
     1
290
     0
176
     1
290
     0
176
     1
290
     0
176
     1
290
     0
176
     1
290
     0
176
     1
 90
       50
176
     1
 40
0.0
176
     1
 40
1.0
176
     1
 90
        0
176
     1
 62
    18
176
     1
 90
       50
176
     1
 90
        3
176
     1
 62
     5
420
      255
176
     1
290
     0
176
     1
 90
       50
176
     1
 90
       50
176
     1
 90
       50
176
     1
290
     0
176
     1
 90
       50
176
     1
 62
   256
176
     0
 40
1.0
176
     0
 90
        2
176
     1
  1
strokes_ogs.tif
176
     1
290
     0
176
     1
 40
1.0
176
     1
 40
1.0
176
     1
  0
VISUALSTYLE
  5
7CE
102
{ACAD_REACTORS
330
2A
102
}
330
2A
100
AcDbVisualStyle
  2
Shaded with edges
 70
    26
177
     3
291
     0
 70
    58
 90
        2
176
     1
 90
        2
176
     1
 90
        1
176
     1
 90
        2
176
     1
 40
0.6
176
     1
 40
30.0
176
     1
 62
     7
420
 16777215
176
     1
 90
        1
176
     1
 90
       10
176
     1
 62
     7
176
     1
 62
   257
176
     1
 90
        2
176
     1
 90
        1
176
     1
 40
1.0
176
     1
 90
        8
176
     1
 62
   257
176
     1
 40
1.0
176
     1
 90
        1
176
     1
 90
        6
176
     1
 90
        2
176
     1
 62
     7
176
     1
 90
        3
176
     1
 90
        0
176
     1
 90
        0
176
     1
290
     0
176
     1
 90
        5
176
     1
 40
0.0
176
     1
 90
        0
176
     1
290
     0
176
     1
290
     1
176
     1
290
     1
176
     1
290
     0
176
     1
290
     0
176
     1
290
     0
176
     1
290
     0
176
     1
290
     0
176
     1
290
     0
176
     1
 90
       50
176
     1
 40
0.0
176
     1
 40
1.0
176
     1
 90
        0
176
     1
 62
    18
176
     1
 90
       50
176
     1
 90
        3
176
     1
 62
     5
420
      255
176
     1
290
     0
176
     1
 90
       50
176
     1
 90
       50
176
     1
 90
       50
176
     1
290
     0
176
     1
 90
       50
176
     1
 62
   256
176
     0
 40
1.0
176
     0
 90
        2
176
     1
  1
strokes_ogs.tif
176
     1
290
     0
176
     1
 40
1.0
176
     1
 40
1.0
176
     1
  0
VISUALSTYLE
  5
7CB
102
{ACAD_REACTORS
330
2A
102
}
330
2A
100
AcDbVisualStyle
  2
Shades of Gray
 70
    23
177
     3
291
     0
 70
    58
 90
        2
176
     1
 90
        2
176
     1
 90
        3
176
     1
 90
        0
176
     1
 40
0.6
176
     1
 40
30.0
176
     1
 62
     7
420
 16777215
176
     1
 90
        2
176
     1
 90
        2
176
     1
 62
     7
176
     1
 62
     7
176
     1
 90
        1
176
     1
 90
        1
176
     1
 40
40.0
176
     1
 90
        8
176
     1
 62
     7
176
     1
 40
1.0
176
     1
 90
        1
176
     1
 90
        6
176
     1
 90
        2
176
     1
 62
     7
176
     1
 90
        3
176
     1
 90
        0
176
     1
 90
        0
176
     1
290
     0
176
     1
 90
        1
176
     1
 40
0.0
176
     1
 90
        0
176
     1
290
     0
176
     1
290
     1
176
     1
290
     1
176
     1
290
     0
176
     1
290
     0
176
     1
290
     0
176
     1
290
     0
176
     1
290
     0
176
     1
290
     0
176
     1
 90
       50
176
     1
 40
0.0
176
     1
 40
1.0
176
     1
 90
        0
176
     1
 62
    18
176
     1
 90
       50
176
     1
 90
        3
176
     1
 62
     5
420
      255
176
     1
290
     0
176
     1
 90
       50
176
     1
 90
       50
176
     1
 90
       50
176
     1
290
     0
176
     1
 90
       50
176
     1
 62
   256
176
     0
 40
1.0
176
     0
 90
        2
176
     1
  1
strokes_ogs.tif
176
     1
290
     0
176
     1
 40
1.0
176
     1
 40
1.0
176
     1
  0
VISUALSTYLE
  5
7CC
102
{ACAD_REACTORS
330
2A
102
}
330
2A
100
AcDbVisualStyle
  2
Sketchy
 70
    24
177
     3
291
     0
 70
    58
 90
        1
176
     1
 90
        2
176
     1
 90
        2
176
     1
 90
        0
176
     1
 40
0.6
176
     1
 40
30.0
176
     1
 62
     7
420
 16777215
176
     1
 90
        2
176
     1
 90
        2
176
     1
 62
     7
176
     1
 62
     7
176
     1
 90
        1
176
     1
 90
        1
176
     1
 40
40.0
176
     1
 90
       11
176
     1
 62
     7
176
     1
 40
1.0
176
     1
 90
        1
176
     1
 90
        6
176
     1
 90
        2
176
     1
 62
     7
176
     1
 90
        6
176
     1
 90
        0
176
     1
 90
        0
176
     1
290
     0
176
     1
 90
        1
176
     1
 40
0.0
176
     1
 90
        0
176
     1
290
     0
176
     1
290
     1
176
     1
290
     1
176
     1
290
     0
176
     1
290
     0
176
     1
290
     0
176
     1
290
     0
176
     1
290
     0
176
     1
290
     0
176
     1
 90
       50
176
     1
 40
0.0
176
     1
 40
1.0
176
     1
 90
        0
176
     1
 62
    18
176
     1
 90
       50
176
     1
 90
        3
176
     1
 62
     5
420
      255
176
     1
290
     0
176
     1
 90
       50
176
     1
 90
       50
176
     1
 90
       50
176
     1
290
     0
176
     1
 90
       50
176
     1
 62
   256
176
     0
 40
1.0
176
     0
 90
        2
176
     1
  1
strokes_ogs.tif
176
     1
290
     0
176
     1
 40
1.0
176
     1
 40
1.0
176
     1
  0
VISUALSTYLE
  5
37
102
{ACAD_REACTORS
330
2A
102
}
330
2A
100
AcDbVisualStyle
  2

 70
    13
177
     3
291
     1
 70
    58
 90
        2
176
     1
 90
        2
176
     1
 90
        0
176
     1
 90
        0
176
     1
 40
0.6
176
     1
 40
30.0
176
     1
 62
     7
176
     1
 90
        1
176
     1
 90
        4
176
     1
 62
     7
176
     1
 62
   257
176
     1
 90
        1
176
     1
 90
        1
176
     1
 40
1.0
176
     1
 90
       12
176
     1
 62
     7
176
     1
 40
1.0
176
     1
 90
        1
176
     1
 90
        6
176
     1
 90
        2
176
     1
 62
     7
176
     1
 90
        5
176
     1
 90
        0
176
     1
 90
        0
176
     1
290
     0
176
     1
 90
        1
176
     1
 40
0.0
176
     1
 90
        0
176
     1
290
     0
176
     1
290
     1
176
     1
290
     1
176
     1
290
     0
176
     1
290
     0
176
     1
290
     0
176
     1
290
     0
176
     1
290
     0
176
     1
290
     0
176
     1
 90
       50
176
     1
 40
0.0
176
     1
 40
1.0
176
     1
 90
        0
176
     1
 62
    18
176
     1
 90
       50
176
     1
 90
        3
176
     1
 62
     5
420
      255
176
     1
290
     0
176
     1
 90
       50
176
     1
 90
       50
176
     1
 90
       50
176
     1
290
     0
176
     1
 90
       50
176
     1
 62
   256
176
     0
 40
1.0
176
     0
 90
        2
176
     1
  1
strokes_ogs.tif
176
     1
290
     0
176
     1
 40
1.0
176
     1
 40
1.0
176
     1
  0
VISUALSTYLE
  5
7C9
102
{ACAD_REACTORS
330
2A
102
}
330
2A
100
AcDbVisualStyle
  2
Wireframe
 70
     5
177
     3
291
     0
 70
    58
 90
        0
176
     1
 90
        2
176
     1
 90
        0
176
     1
 90
        0
176
     1
 40
0.6
176
     1
 40
30.0
176
     1
 62
     7
420
 16777215
176
     1
 90
        1
176
     1
 90
        4
176
     1
 62
     7
176
     1
 62
   257
176
     1
 90
        1
176
     1
 90
        1
176
     1
 40
1.0
176
     1
 90
        0
176
     1
 62
   257
176
     1
 40
1.0
176
     1
 90
        1
176
     1
 90
        6
176
     1
 90
        2
176
     1
 62
     7
176
     1
 90
        3
176
     1
 90
        0
176
     1
 90
        0
176
     1
290
     0
176
     1
 90
        1
176
     1
 40
0.0
176
     1
 90
        0
176
     1
290
     0
176
     1
290
     1
176
     1
290
     1
176
     1
290
     0
176
     1
290
     0
176
     1
290
     0
176
     1
290
     0
176
     1
290
     0
176
     1
290
     0
176
     1
 90
       50
176
     1
 40
0.0
176
     1
 40
1.0
176
     1
 90
        0
176
     1
 62
    18
176
     1
 90
       50
176
     1
 90
        3
176
     1
 62
     5
420
      255
176
     1
290
     0
176
     1
 90
       50
176
     1
 90
       50
176
     1
 90
       50
176
     1
290
     0
176
     1
 90
       50
176
     1
 62
   256
176
     0
 40
1.0
176
     0
 90
        2
176
     1
  1
strokes_ogs.tif
176
     1
290
     0
176
     1
 40
1.0
176
     1
 40
1.0
176
     1
  0
VISUALSTYLE
  5
7CD
102
{ACAD_REACTORS
330
2A
102
}
330
2A
100
AcDbVisualStyle
  2
X-Ray
 70
    25
177
     3
291
     0
 70
    58
 90
        2
176
     1
 90
        2
176
     1
 90
        1
176
     1
 90
        1
176
     1
 40
0.5
176
     1
 40
30.0
176
     1
 62
     7
420
 16777215
176
     1
 90
        1
176
     1
 90
        0
176
     1
 62
     7
176
     1
 62
   257
176
     1
 90
        1
176
     1
 90
        1
176
     1
 40
1.0
176
     1
 90
        8
176
     1
 62
     7
176
     1
 40
1.0
176
     1
 90
        1
176
     1
 90
        6
176
     1
 90
        2
176
     1
 62
     7
176
     1
 90
        3
176
     1
 90
        0
176
     1
 90
        0
176
     1
290
     0
176
     1
 90
       13
176
     1
 40
0.0
176
     1
 90
        0
176
     1
290
     0
176
     1
290
     1
176
     1
290
     1
176
     1
290
     0
176
     1
290
     0
176
     1
290
     0
176
     1
290
     0
176
     1
290
     0
176
     1
290
     0
176
     1
 90
       50
176
     1
 40
0.0
176
     1
 40
1.0
176
     1
 90
        0
176
     1
 62
    18
176
     1
 90
       50
176
     1
 90
        3
176
     1
 62
     5
420
      255
176
     1
290
     0
176
     1
 90
       50
176
     1
 90
       50
176
     1
 90
       50
176
     1
290
     0
176
     1
 90
       50
176
     1
 62
   256
176
     0
 40
1.0
176
     0
 90
        2
176
     1
  1
strokes_ogs.tif
176
     1
290
     0
176
     1
 40
1.0
176
     1
 40
1.0
176
     1
  0
DICTIONARYVAR
  5
937
102
{ACAD_REACTORS
330
931
102
}
330
931
100
DictionaryVariables
280
     0
  1
1:1
  0
DICTIONARYVAR
  5
933
102
{ACAD_REACTORS
330
931
102
}
330
931
100
DictionaryVariables
280
     0
  1
STANDARD
  0
DICTIONARYVAR
  5
932
102
{ACAD_REACTORS
330
931
102
}
330
931
100
DictionaryVariables
280
     0
  1
STANDARD
  0
DICTIONARYVAR
  5
934
102
{ACAD_REACTORS
330
931
102
}
330
931
100
DictionaryVariables
280
     0
  1
Imperial24
  0
DICTIONARYVAR
  5
935
102
{ACAD_REACTORS
330
931
102
}
330
931
100
DictionaryVariables
280
     0
  1
Imperial24
  0
DICTIONARYVAR
  5
939
102
{ACAD_REACTORS
330
931
102
}
330
931
100
DictionaryVariables
280
     0
  1
1
  0
DICTIONARYVAR
  5
93A
102
{ACAD_REACTORS
330
931
102
}
330
931
100
DictionaryVariables
280
     0
  1
15
  0
DICTIONARYVAR
  5
938
102
{ACAD_REACTORS
330
931
102
}
330
931
100
DictionaryVariables
280
     0
  1
0
  0
DICTIONARYVAR
  5
936
102
{ACAD_REACTORS
330
931
102
}
330
931
100
DictionaryVariables
280
     0
  1
0
  0
DICTIONARY
  5
93F
330
7EC
100
AcDbDictionary
280
     1
281
     1
  3
ACAD_XREC_ROUNDTRIP
360
12A1
  0
DICTIONARY
  5
7BA
330
7B9
100
AcDbDictionary
280
     1
281
     1
  3
BUMPTILE
360
7BC
  3
DIFFUSETILE
360
7BB
  3
OPACITYTILE
360
7BF
  3
REFLECTIONTILE
360
7BE
  3
REFRACTIONTILE
360
7C0
  3
SPECULARTILE
360
7BD
  0
DICTIONARY
  5
7B2
330
7B1
100
AcDbDictionary
280
     1
281
     1
  3
BUMPTILE
360
7B4
  3
DIFFUSETILE
360
7B3
  3
OPACITYTILE
360
7B7
  3
REFLECTIONTILE
360
7B6
  3
REFRACTIONTILE
360
7B8
  3
SPECULARTILE
360
7B5
  0
DICTIONARY
  5
7C2
330
7C1
100
AcDbDictionary
280
     1
281
     1
  3
BUMPTILE
360
7C4
  3
DIFFUSETILE
360
7C3
  3
OPACITYTILE
360
7C7
  3
REFLECTIONTILE
360
7C6
  3
REFRACTIONTILE
360
7C8
  3
SPECULARTILE
360
7C5
  0
DICTIONARY
  5
93D
330
7EA
100
AcDbDictionary
280
     1
281
     1
  3
ACAD_XREC_ROUNDTRIP
360
12A0
  0
DICTIONARY
  5
93B
330
7D4
100
AcDbDictionary
280
     1
281
     1
  3
ACAD_ROUNDTRIP_2008_TABLESTYLE_CELLSTYLEMAP
360
129F
  0
XRECORD
  5
12A1
102
{ACAD_REACTORS
330
93F
102
}
330
93F
100
AcDbXrecord
280
     1
102
DISPLAYNAME
  1
Imperial24
102
FLAGS
 90
        0
  0
XRECORD
  5
7BC
102
{ACAD_REACTORS
330
7BA
102
}
330
7BA
100
AcDbXrecord
280
     1
270
     1
271
     1
  0
XRECORD
  5
7BB
102
{ACAD_REACTORS
330
7BA
102
}
330
7BA
100
AcDbXrecord
280
     1
270
     1
271
     1
  0
XRECORD
  5
7BF
102
{ACAD_REACTORS
330
7BA
102
}
330
7BA
100
AcDbXrecord
280
     1
270
     1
271
     1
  0
XRECORD
  5
7BE
102
{ACAD_REACTORS
330
7BA
102
}
330
7BA
100
AcDbXrecord
280
     1
270
     1
271
     1
  0
XRECORD
  5
7C0
102
{ACAD_REACTORS
330
7BA
102
}
330
7BA
100
AcDbXrecord
280
     1
270
     1
271
     1
  0
XRECORD
  5
7BD
102
{ACAD_REACTORS
330
7BA
102
}
330
7BA
100
AcDbXrecord
280
     1
270
     1
271
     1
  0
XRECORD
  5
7B4
102
{ACAD_REACTORS
330
7B2
102
}
330
7B2
100
AcDbXrecord
280
     1
270
     1
271
     1
  0
XRECORD
  5
7B3
102
{ACAD_REACTORS
330
7B2
102
}
330
7B2
100
AcDbXrecord
280
     1
270
     1
271
     1
  0
XRECORD
  5
7B7
102
{ACAD_REACTORS
330
7B2
102
}
330
7B2
100
AcDbXrecord
280
     1
270
     1
271
     1
  0
XRECORD
  5
7B6
102
{ACAD_REACTORS
330
7B2
102
}
330
7B2
100
AcDbXrecord
280
     1
270
     1
271
     1
  0
XRECORD
  5
7B8
102
{ACAD_REACTORS
330
7B2
102
}
330
7B2
100
AcDbXrecord
280
     1
270
     1
271
     1
  0
XRECORD
  5
7B5
102
{ACAD_REACTORS
330
7B2
102
}
330
7B2
100
AcDbXrecord
280
     1
270
     1
271
     1
  0
XRECORD
  5
7C4
102
{ACAD_REACTORS
330
7C2
102
}
330
7C2
100
AcDbXrecord
280
     1
270
     1
271
     1
  0
XRECORD
  5
7C3
102
{ACAD_REACTORS
330
7C2
102
}
330
7C2
100
AcDbXrecord
280
     1
270
     1
271
     1
  0
XRECORD
  5
7C7
102
{ACAD_REACTORS
330
7C2
102
}
330
7C2
100
AcDbXrecord
280
     1
270
     1
271
     1
  0
XRECORD
  5
7C6
102
{ACAD_REACTORS
330
7C2
102
}
330
7C2
100
AcDbXrecord
280
     1
270
     1
271
     1
  0
XRECORD
  5
7C8
102
{ACAD_REACTORS
330
7C2
102
}
330
7C2
100
AcDbXrecord
280
     1
270
     1
271
     1
  0
XRECORD
  5
7C5
102
{ACAD_REACTORS
330
7C2
102
}
330
7C2
100
AcDbXrecord
280
     1
270
     1
271
     1
  0
XRECORD
  5
12A0
102
{ACAD_REACTORS
330
93D
102
}
330
93D
100
AcDbXrecord
280
     1
102
DISPLAYNAME
  1
Imperial24
102
FLAGS
 90
        0
  0
CELLSTYLEMAP
  5
129F
102
{ACAD_REACTORS
330
93B
102
}
330
93B
100
AcDbCellStyleMap
 90
        3
300
CELLSTYLE
  1
TABLEFORMAT_BEGIN
 90
        5
170
     1
 91
        0
 92
    32768
 62
   257
 93
        1
300
CONTENTFORMAT
  1
CONTENTFORMAT_BEGIN
 90
        0
 91
        0
 92
      512
 93
        0
300

 40
0.0
140
1.0
 94
        5
 62
     0
340
11
144
0.25
309
CONTENTFORMAT_END
171
     1
301
MARGIN
  1
CELLMARGIN_BEGIN
 40
0.06
 40
0.06
 40
0.06
 40
0.06
 40
0.18
 40
0.18
309
CELLMARGIN_END
 94
        6
 95
        1
302
GRIDFORMAT
  1
GRIDFORMAT_BEGIN
 90
        0
 91
        1
 62
     0
 92
       -2
340
0
 93
        0
 40
0.045
309
GRIDFORMAT_END
 95
        2
302
GRIDFORMAT
  1
GRIDFORMAT_BEGIN
 90
        0
 91
        1
 62
     0
 92
       -2
340
0
 93
        0
 40
0.045
309
GRIDFORMAT_END
 95
        4
302
GRIDFORMAT
  1
GRIDFORMAT_BEGIN
 90
        0
 91
        1
 62
     0
 92
       -2
340
0
 93
        0
 40
0.045
309
GRIDFORMAT_END
 95
        8
302
GRIDFORMAT
  1
GRIDFORMAT_BEGIN
 90
        0
 91
        1
 62
     0
 92
       -2
340
0
 93
        0
 40
0.045
309
GRIDFORMAT_END
 95
       16
302
GRIDFORMAT
  1
GRIDFORMAT_BEGIN
 90
        0
 91
        1
 62
     0
 92
       -2
340
0
 93
        0
 40
0.045
309
GRIDFORMAT_END
 95
       32
302
GRIDFORMAT
  1
GRIDFORMAT_BEGIN
 90
        0
 91
        1
 62
     0
 92
       -2
340
0
 93
        0
 40
0.045
309
GRIDFORMAT_END
309
TABLEFORMAT_END
  1
CELLSTYLE_BEGIN
 90
        1
 91
        1
300
_TITLE
309
CELLSTYLE_END
300
CELLSTYLE
  1
TABLEFORMAT_BEGIN
 90
        5
170
     1
 91
        0
 92
        0
 62
   257
 93
        1
300
CONTENTFORMAT
  1
CONTENTFORMAT_BEGIN
 90
        0
 91
        0
 92
      512
 93
        0
300

 40
0.0
140
1.0
 94
        5
 62
     0
340
11
144
0.18
309
CONTENTFORMAT_END
171
     1
301
MARGIN
  1
CELLMARGIN_BEGIN
 40
0.06
 40
0.06
 40
0.06
 40
0.06
 40
0.18
 40
0.18
309
CELLMARGIN_END
 94
        6
 95
        1
302
GRIDFORMAT
  1
GRIDFORMAT_BEGIN
 90
        0
 91
        1
 62
     0
 92
       -2
340
0
 93
        0
 40
0.045
309
GRIDFORMAT_END
 95
        2
302
GRIDFORMAT
  1
GRIDFORMAT_BEGIN
 90
        0
 91
        1
 62
     0
 92
       -2
340
0
 93
        0
 40
0.045
309
GRIDFORMAT_END
 95
        4
302
GRIDFORMAT
  1
GRIDFORMAT_BEGIN
 90
        0
 91
        1
 62
     0
 92
       -2
340
0
 93
        0
 40
0.045
309
GRIDFORMAT_END
 95
        8
302
GRIDFORMAT
  1
GRIDFORMAT_BEGIN
 90
        0
 91
        1
 62
     0
 92
       -2
340
0
 93
        0
 40
0.045
309
GRIDFORMAT_END
 95
       16
302
GRIDFORMAT
  1
GRIDFORMAT_BEGIN
 90
        0
 91
        1
 62
     0
 92
       -2
340
0
 93
        0
 40
0.045
309
GRIDFORMAT_END
 95
       32
302
GRIDFORMAT
  1
GRIDFORMAT_BEGIN
 90
        0
 91
        1
 62
     0
 92
       -2
340
0
 93
        0
 40
0.045
309
GRIDFORMAT_END
309
TABLEFORMAT_END
  1
CELLSTYLE_BEGIN
 90
        2
 91
        1
300
_HEADER
309
CELLSTYLE_END
300
CELLSTYLE
  1
TABLEFORMAT_BEGIN
 90
        5
170
     1
 91
        0
 92
        0
 62
   257
 93
        1
300
CONTENTFORMAT
  1
CONTENTFORMAT_BEGIN
 90
        0
 91
        0
 92
      512
 93
        0
300

 40
0.0
140
1.0
 94
        2
 62
     0
340
11
144
0.18
309
CONTENTFORMAT_END
171
     1
301
MARGIN
  1
CELLMARGIN_BEGIN
 40
0.06
 40
0.06
 40
0.06
 40
0.06
 40
0.18
 40
0.18
309
CELLMARGIN_END
 94
        6
 95
        1
302
GRIDFORMAT
  1
GRIDFORMAT_BEGIN
 90
        0
 91
        1
 62
     0
 92
       -2
340
0
 93
        0
 40
0.045
309
GRIDFORMAT_END
 95
        2
302
GRIDFORMAT
  1
GRIDFORMAT_BEGIN
 90
        0
 91
        1
 62
     0
 92
       -2
340
0
 93
        0
 40
0.045
309
GRIDFORMAT_END
 95
        4
302
GRIDFORMAT
  1
GRIDFORMAT_BEGIN
 90
        0
 91
        1
 62
     0
 92
       -2
340
0
 93
        0
 40
0.045
309
GRIDFORMAT_END
 95
        8
302
GRIDFORMAT
  1
GRIDFORMAT_BEGIN
 90
        0
 91
        1
 62
     0
 92
       -2
340
0
 93
        0
 40
0.045
309
GRIDFORMAT_END
 95
       16
302
GRIDFORMAT
  1
GRIDFORMAT_BEGIN
 90
        0
 91
        1
 62
     0
 92
       -2
340
0
 93
        0
 40
0.045
309
GRIDFORMAT_END
 95
       32
302
GRIDFORMAT
  1
GRIDFORMAT_BEGIN
 90
        0
 91
        1
 62
     0
 92
       -2
340
0
 93
        0
 40
0.045
309
GRIDFORMAT_END
309
TABLEFORMAT_END
  1
CELLSTYLE_BEGIN
 90
        3
 91
        2
300
_DATA
309
CELLSTYLE_END
  0
ENDSEC
  0
SECTION
  2
ACDSDATA
 70
     2
 71
     6
  0
ACDSSCHEMA
 90
        0
  1
AcDb_Thumbnail_Schema
  2
AcDbDs::ID
280
    10
 91
        8
  2
Thumbnail_Data
280
    15
 91
        0
101
ACDSRECORD
 95
        0
 90
        1
  2
AcDbDs::TreatedAsObjectData
280
     1
291
     1
101
ACDSRECORD
 95
        0
 90
        2
  2
AcDbDs::Legacy
280
     1
291
     1
101
ACDSRECORD
  1
AcDbDs::ID
 90
        3
  2
AcDs:Indexable
280
     1
291
     1
101
ACDSRECORD
  1
AcDbDs::ID
 90
        4
  2
AcDbDs::HandleAttribute
280
     7
282
     1
  0
ACDSSCHEMA
 90
        1
  1
AcDbDs::TreatedAsObjectDataSchema
  2
AcDbDs::TreatedAsObjectData
280
     1
 91
        0
  0
ACDSSCHEMA
 90
        2
  1
AcDbDs::LegacySchema
  2
AcDbDs::Legacy
280
     1
 91
        0
  0
ACDSSCHEMA
 90
        3
  1
AcDbDs::IndexedPropertySchema
  2
AcDs:Indexable
280
     1
 91
        0
  0
ACDSSCHEMA
 90
        4
  1
AcDbDs::HandleAttributeSchema
  2
AcDbDs::HandleAttribute
280
     7
 91
        1
284
     1
  0
ACDSRECORD
 90
        0
  2
AcDbDs::ID
280
    10
320
7ED
  2
Thumbnail_Data
280
    15
 94
     1271
310
89504E470D0A1A0A0000000D49484452000001000000007208030000008B31FF2A00000300504C5445212830000000C8C8C80000000000000000000000000000000000000000000000000000330000660000990000CC0000FF0033000033330033660033990033CC0033FF0066000066330066660066990066CC0066FF0099
310
000099330099660099990099CC0099FF00CC0000CC3300CC6600CC9900CCCC00CCFF00FF0000FF3300FF6600FF9900FFCC00FFFF3300003300333300663300993300CC3300FF3333003333333333663333993333CC3333FF3366003366333366663366993366CC3366FF3399003399333399663399993399CC3399FF33CC00
310
33CC3333CC6633CC9933CCCC33CCFF33FF0033FF3333FF6633FF9933FFCC33FFFF6600006600336600666600996600CC6600FF6633006633336633666633996633CC6633FF6666006666336666666666996666CC6666FF6699006699336699666699996699CC6699FF66CC0066CC3366CC6666CC9966CCCC66CCFF66FF0066
310
FF3366FF6666FF9966FFCC66FFFF9900009900339900669900999900CC9900FF9933009933339933669933999933CC9933FF9966009966339966669966999966CC9966FF9999009999339999669999999999CC9999FF99CC0099CC3399CC6699CC9999CCCC99CCFF99FF0099FF3399FF6699FF9999FFCC99FFFFCC0000CC00
310
33CC0066CC0099CC00CCCC00FFCC3300CC3333CC3366CC3399CC33CCCC33FFCC6600CC6633CC6666CC6699CC66CCCC66FFCC9900CC9933CC9966CC9999CC99CCCC99FFCCCC00CCCC33CCCC66CCCC99CCCCCCCCCCFFCCFF00CCFF33CCFF66CCFF99CCFFCCCCFFFFFF0000FF0033FF0066FF0099FF00CCFF00FFFF3300FF3333
310
FF3366FF3399FF33CCFF33FFFF6600FF6633FF6666FF6699FF66CCFF66FFFF9900FF9933FF9966FF9999FF99CCFF99FFFFCC00FFCC33FFCC66FFCC99FFCCCCFFCCFFFFFF00FFFF33FFFF66FFFF99FFFFCCFFFFFF0000000D0D0D1A1A1A2828283535354343435050505D5D5D6B6B6B787878868686939393A1A1A1AEAEAEBB
310
BBBBC9C9C9D6D6D6E4E4E4F1F1F1FFFFFF000000000000000000000000000000000000000000000000000000000000B21171F6000001B24944415478DAED9BCB92C3200C04F5FFFFABFBE69075100697ECB05B35A8FB92C4E5CB8CF53210330000000000000000000000000000000000000000807FC25F1497EF753DF8E8AE
310
6AC0F0AB42C03E46DE00CB64ECEF3DE7FBE295F6974615B86F40F7FC0B1A1023BE62046C66402C663ECCF050F3BCFB55BD0B881B90F2A093D46BF6F0A19501D91848DEA73809F74D6DA62CA5C8DB82A969808D9C3875BF0B075C2C04DEEA0EF9AD01CDE53B061CC66E6540524E5B315542606D04684E82D655805812EF4580
310
EC287CD5051E1AA093020BBB805C0460C0EA22E88A29F02706146D837293A0CDDAA03D34C0D47605926DF0B6013A6F83D63EB42605C2E5AD53E0D016DBA03D6B838A45307C1FCC7EEF42B06B1BF4D1601C95F8D683904F574730E04B035456C452066CFC3A9CAB015E2502BE36C0E54A80DBA40D3E32E0A35B675978320734
310
EBBB7B8FC28D529BBF17E40CF06367C474486E8D653485BDB19D1C481B25784A6CC1E678D81D163E1F302ADD83877FD545250DC835B9F32AC1F08C94E22478D780CB33521850C080ED52A07C115C7B5458F294D8EA9CAAADBFFAFF254CF06508000000000000000000A4F801D94B9A79C4A3132D0000000049454E44AE4260
310
82
  0
ENDSEC
  0
EOF
