  0
SECTION
  2
HEADER
  9
$ACADVER
  1
AC1009
  9
$INSBASE
 10
0.0
 20
0.0
 30
0.0
  9
$EXTMIN
 10
-0.0000037080706639
 20
-0.0003694454639316
 30
0.0
  9
$EXTMAX
 10
1087.1391441607079
 20
879.04671581546404
 30
0.0
  9
$LIMMIN
 10
0.0
 20
0.0
  9
$LIMMAX
 10
12.0
 20
9.0
  9
$ORTHOMODE
 70
     0
  9
$REGENMODE
 70
     1
  9
$FILLMODE
 70
     1
  9
$QTEXTMODE
 70
     0
  9
$MIRRTEXT
 70
     0
  9
$DRAGMODE
 70
     2
  9
$LTSCALE
 40
1.0
  9
$OSMODE
 70
   167
  9
$ATTMODE
 70
     1
  9
$TEXTSIZE
 40
0.2
  9
$TRACEWID
 40
0.05
  9
$TEXTSTYLE
  7
STANDARD
  9
$CLAYER
  8
0
  9
$CELTYPE
  6
CONTINUOUS
  9
$CECOLOR
 62
   256
  9
$DIMSCALE
 40
1.0
  9
$DIMASZ
 40
0.18
  9
$DIMEXO
 40
0.0625
  9
$DIMDLI
 40
0.38
  9
$DIMRND
 40
0.0
  9
$DIMDLE
 40
0.0
  9
$DIMEXE
 40
0.18
  9
$DIMTP
 40
0.0
  9
$DIMTM
 40
0.0
  9
$DIMTXT
 40
0.18
  9
$DIMCEN
 40
0.09
  9
$DIMTSZ
 40
0.0
  9
$DIMTOL
 70
     0
  9
$DIMLIM
 70
     0
  9
$DIMTIH
 70
     1
  9
$DIMTOH
 70
     1
  9
$DIMSE1
 70
     0
  9
$DIMSE2
 70
     0
  9
$DIMTAD
 70
     0
  9
$DIMZIN
 70
     0
  9
$DIMBLK
  1

  9
$DIMASO
 70
     1
  9
$DIMSHO
 70
     1
  9
$DIMPOST
  1

  9
$DIMAPOST
  1

  9
$DIMALT
 70
     0
  9
$DIMALTD
 70
     2
  9
$DIMALTF
 40
25.399999999999999
  9
$DIMLFAC
 40
1.0
  9
$DIMTOFL
 70
     0
  9
$DIMTVP
 40
0.0
  9
$DIMTIX
 70
     0
  9
$DIMSOXD
 70
     0
  9
$DIMSAH
 70
     0
  9
$DIMBLK1
  1

  9
$DIMBLK2
  1

  9
$DIMSTYLE
  2
STANDARD
  9
$DIMCLRD
 70
     0
  9
$DIMCLRE
 70
     0
  9
$DIMCLRT
 70
     0
  9
$DIMTFAC
 40
1.0
  9
$DIMGAP
 40
0.09
  9
$LUNITS
 70
     2
  9
$LUPREC
 70
     4
  9
$SKETCHINC
 40
0.1
  9
$FILLETRAD
 40
0.0
  9
$AUNITS
 70
     0
  9
$AUPREC
 70
     0
  9
$MENU
  1
.
  9
$ELEVATION
 40
0.0
  9
$PELEVATION
 40
0.0
  9
$THICKNESS
 40
0.0
  9
$LIMCHECK
 70
     0
  9
$BLIPMODE
 70
     0
  9
$CHAMFERA
 40
0.0
  9
$CHAMFERB
 40
0.0
  9
$SKPOLY
 70
     0
  9
$TDCREATE
 40
2455328.5869715628
  9
$TDUPDATE
 40
2455328.5872110068
  9
$TDINDWG
 40
0.000240162
  9
$TDUSRTIMER
 40
0.000240162
  9
$USRTIMER
 70
     1
  9
$ANGBASE
 50
0.0
  9
$ANGDIR
 70
     0
  9
$PDMODE
 70
     0
  9
$PDSIZE
 40
0.0
  9
$PLINEWID
 40
0.0
  9
$COORDS
 70
     1
  9
$SPLFRAME
 70
     0
  9
$SPLINETYPE
 70
     6
  9
$SPLINESEGS
 70
     8
  9
$ATTDIA
 70
     0
  9
$ATTREQ
 70
     1
  9
$HANDLING
 70
     1
  9
$HANDSEED
  5
1138
  9
$SURFTAB1
 70
     6
  9
$SURFTAB2
 70
     6
  9
$SURFTYPE
 70
     6
  9
$SURFU
 70
     6
  9
$SURFV
 70
     6
  9
$UCSNAME
  2

  9
$UCSORG
 10
0.0
 20
0.0
 30
0.0
  9
$UCSXDIR
 10
1.0
 20
0.0
 30
0.0
  9
$UCSYDIR
 10
0.0
 20
1.0
 30
0.0
  9
$PUCSNAME
  2

  9
$PUCSORG
 10
0.0
 20
0.0
 30
0.0
  9
$PUCSXDIR
 10
1.0
 20
0.0
 30
0.0
  9
$PUCSYDIR
 10
0.0
 20
1.0
 30
0.0
  9
$USERI1
 70
     0
  9
$USERI2
 70
     0
  9
$USERI3
 70
     0
  9
$USERI4
 70
     0
  9
$USERI5
 70
     0
  9
$USERR1
 40
0.0
  9
$USERR2
 40
0.0
  9
$USERR3
 40
0.0
  9
$USERR4
 40
0.0
  9
$USERR5
 40
0.0
  9
$WORLDVIEW
 70
     1
  9
$SHADEDGE
 70
     3
  9
$SHADEDIF
 70
    70
  9
$TILEMODE
 70
     1
  9
$MAXACTVP
 70
    64
  9
$PLIMCHECK
 70
     0
  9
$PEXTMIN
 10
1.0000000000000000E+020
 20
1.0000000000000000E+020
 30
1.0000000000000000E+020
  9
$PEXTMAX
 10
-1.0000000000000000E+020
 20
-1.0000000000000000E+020
 30
-1.0000000000000000E+020
  9
$PLIMMIN
 10
0.0
 20
0.0
  9
$PLIMMAX
 10
12.0
 20
9.0
  9
$UNITMODE
 70
     0
  9
$VISRETAIN
 70
     1
  9
$PLINEGEN
 70
     0
  9
$PSLTSCALE
 70
     1
  0
ENDSEC
  0
SECTION
  2
TABLES
  0
TABLE
  2
VPORT
 70
     1
  0
VPORT
  2
*ACTIVE
 70
     0
 10
0.0
 20
0.0
 11
1.0
 21
1.0
 12
7.8038793103448274
 22
4.5
 13
0.0
 23
0.0
 14
1.0
 24
1.0
 15
0.0
 25
0.0
 16
0.0
 26
0.0
 36
1.0
 17
0.0
 27
0.0
 37
0.0
 40
9.0
 41
1.7341954022988499
 42
50.0
 43
0.0
 44
0.0
 50
0.0
 51
0.0
 71
     0
 72
   100
 73
     1
 74
     1
 75
     0
 76
     0
 77
     0
 78
     0
  0
ENDTAB
  0
TABLE
  2
LTYPE
 70
     1
  0
LTYPE
  2
CONTINUOUS
 70
     0
  3
Solid line
 72
    65
 73
     0
 40
0.0
  0
ENDTAB
  0
TABLE
  2
LAYER
 70
     3
  0
LAYER
  2
0
 70
     0
 62
     1
  6
CONTINUOUS
  0
LAYER
  2
WHITE
 70
     0
 62
     1
  6
CONTINUOUS
  0
LAYER
  2
CYAN
 70
     0
 62
     1
  6
CONTINUOUS
  0
ENDTAB
  0
TABLE
  2
STYLE
 70
     2
  0
STYLE
  2
STANDARD
 70
     0
 40
0.0
 41
1.0
 50
0.0
 71
     0
 42
0.2
  3
txt
  4

  0
STYLE
  2
ANNOTATIVE
 70
     0
 40
0.0
 41
1.0
 50
0.0
 71
     0
 42
0.2
  3
txt
  4

  0
ENDTAB
  0
TABLE
  2
VIEW
 70
     0
  0
ENDTAB
  0
TABLE
  2
UCS
 70
     0
  0
ENDTAB
  0
TABLE
  2
APPID
 70
     3
  0
APPID
  2
ACAD
 70
     0
  0
APPID
  2
ACADANNOTATIVE
 70
     0
  0
APPID
  2
ACAD_MLEADERVER
 70
     0
  0
ENDTAB
  0
TABLE
  2
DIMSTYLE
 70
     2
  0
DIMSTYLE
  2
STANDARD
 70
     0
  3

  4

  5

  6

  7

 40
1.0
 41
0.18
 42
0.0625
 43
0.38
 44
0.18
 45
0.0
 46
0.0
 47
0.0
 48
0.0
140
0.18
141
0.09
142
0.0
143
25.399999999999999
144
1.0
145
0.0
146
1.0
147
0.09
 71
     0
 72
     0
 73
     1
 74
     1
 75
     0
 76
     0
 77
     0
 78
     0
170
     0
171
     2
172
     0
173
     0
174
     0
175
     0
176
     0
177
     0
178
     0
  0
DIMSTYLE
  2
ANNOTATIVE
 70
     0
  3

  4

  5

  6

  7

 40
1.0
 41
0.18
 42
0.0625
 43
0.38
 44
0.18
 45
0.0
 46
0.0
 47
0.0
 48
0.0
140
0.18
141
0.09
142
0.0
143
25.399999999999999
144
1.0
145
0.0
146
1.0
147
0.09
 71
     0
 72
     0
 73
     1
 74
     1
 75
     0
 76
     0
 77
     0
 78
     0
170
     0
171
     2
172
     0
173
     0
174
     0
175
     0
176
     0
177
     0
178
     0
  0
ENDTAB
  0
ENDSEC
  0
SECTION
  2
BLOCKS
  0
BLOCK
  8
0
  2
$MODEL_SPACE
 70
     0
 10
0.0
 20
0.0
 30
0.0
  3
$MODEL_SPACE
  1

  0
ENDBLK
  5
76
  8
0
  0
BLOCK
 67
     1
  8
0
  2
$PAPER_SPACE
 70
     0
 10
0.0
 20
0.0
 30
0.0
  3
$PAPER_SPACE
  1

  0
ENDBLK
  5
72
 67
     1
  8
0
  0
ENDSEC
  0
SECTION
  2
ENTITIES
  0
POLYLINE
  5
7C
  8
0
 66
     1
 10
0.0
 20
0.0
 30
0.0
  0
VERTEX
  5
96E
  8
0
 10
180.41603419
 20
28.962005789999999
 30
0.0
  0
VERTEX
  5
96F
  8
0
 10
180.40709724499999
 20
28.96852045
 30
0.0
  0
VERTEX
  5
970
  8
0
 10
166.38307813
 20
40.962046960000002
 30
0.0
  0
VERTEX
  5
971
  8
0
 10
164.26688035000001
 20
38.526125694999998
 30
0.0
  0
VERTEX
  5
972
  8
0
 10
177.94429536999999
 20
26.829019590000001
 30
0.0
  0
VERTEX
  5
973
  8
0
 10
177.99505396000001
 20
26.782792730000001
 30
0.0
  0
SEQEND
  5
974
  8
0
  0
POLYLINE
  5
84
  8
WHITE
 66
     1
 10
0.0
 20
0.0
 30
0.0
  0
VERTEX
  5
975
  8
WHITE
 10
524.68016929999999
 20
407.75897803999999
 30
0.0
  0
VERTEX
  5
976
  8
WHITE
 10
520.24585708999984
 20
408.33348201000001
 30
0.0
  0
SEQEND
  5
977
  8
WHITE
  0
POLYLINE
  5
88
  8
WHITE
 66
     1
 10
0.0
 20
0.0
 30
0.0
  0
VERTEX
  5
978
  8
WHITE
 10
417.10200354999989
 20
358.38329454000001
 30
0.0
  0
VERTEX
  5
979
  8
WHITE
 10
419.97609436499999
 20
360.51716685000002
 30
0.0
  0
SEQEND
  5
97A
  8
WHITE
  0
POLYLINE
  5
8C
  8
WHITE
 66
     1
 10
0.0
 20
0.0
 30
0.0
  0
VERTEX
  5
97B
  8
WHITE
 10
415.54178216000003
 20
361.99446391499998
 30
0.0
  0
VERTEX
  5
97C
  8
WHITE
 10
414.80189236500001
 20
359.86059060000002
 30
0.0
  0
SEQEND
  5
97D
  8
WHITE
  0
POLYLINE
  5
90
  8
WHITE
 66
     1
 10
0.0
 20
0.0
 30
0.0
  0
VERTEX
  5
97E
  8
WHITE
 10
409.77432623499988
 20
353.99243948499998
 30
0.0
  0
VERTEX
  5
97F
  8
WHITE
 10
409.692209585
 20
355.38766426500001
 30
0.0
  0
VERTEX
  5
980
  8
WHITE
 10
409.19950867499989
 20
356.53667321
 30
0.0
  0
VERTEX
  5
981
  8
WHITE
 10
407.31081967499989
 20
356.37252964999999
 30
0.0
  0
VERTEX
  5
982
  8
WHITE
 10
403.86191029000003
 20
354.73108801500001
 30
0.0
  0
VERTEX
  5
983
  8
WHITE
 10
400.08453229000003
 20
352.76135926500001
 30
0.0
  0
VERTEX
  5
984
  8
WHITE
 10
395.07456359000003
 20
349.56106858499999
 30
0.0
  0
SEQEND
  5
985
  8
WHITE
  0
POLYLINE
  5
99
  8
WHITE
 66
     1
 10
0.0
 20
0.0
 30
0.0
  0
VERTEX
  5
986
  8
WHITE
 10
311.22566750999999
 20
289.47758083500003
 30
0.0
  0
VERTEX
  5
987
  8
WHITE
 10
307.77675812500001
 20
287.83614021
 30
0.0
  0
VERTEX
  5
988
  8
WHITE
 10
307.61252381499997
 20
286.44143471500001
 30
0.0
  0
VERTEX
  5
989
  8
WHITE
 10
307.858874775
 20
285.21035449999999
 30
0.0
  0
VERTEX
  5
98A
  8
WHITE
 10
308.8442776
 20
284.71792181000001
 30
0.0
  0
VERTEX
  5
98B
  8
WHITE
 10
311.636251765
 20
285.53864262500002
 30
0.0
  0
SEQEND
  5
98C
  8
WHITE
  0
POLYLINE
  5
A1
  8
WHITE
 66
     1
 10
0.0
 20
0.0
 30
0.0
  0
VERTEX
  5
98D
  8
WHITE
 10
467.32319068499987
 20
344.73751853499999
 30
0.0
  0
VERTEX
  5
98E
  8
WHITE
 10
470.68998341499992
 20
345.06580666000002
 30
0.0
  0
SEQEND
  5
98F
  8
WHITE
  0
POLYLINE
  5
A5
  8
WHITE
 66
     1
 10
0.0
 20
0.0
 30
0.0
  0
VERTEX
  5
990
  8
WHITE
 10
402.07796191499989
 20
335.94749874000001
 30
0.0
  0
VERTEX
  5
991
  8
WHITE
 10
398.21846827500002
 20
332.41891993500002
 30
0.0
  0
SEQEND
  5
992
  8
WHITE
  0
POLYLINE
  5
A9
  8
WHITE
 66
     1
 10
0.0
 20
0.0
 30
0.0
  0
VERTEX
  5
993
  8
WHITE
 10
468.88089830000001
 20
379.72410286000002
 30
0.0
  0
VERTEX
  5
994
  8
WHITE
 10
467.23772233499989
 20
376.35966861499998
 30
0.0
  0
SEQEND
  5
995
  8
WHITE
  0
POLYLINE
  5
AD
  8
WHITE
 66
     1
 10
0.0
 20
0.0
 30
0.0
  0
VERTEX
  5
996
  8
WHITE
 10
432.2542466999999
 20
357.811906325
 30
0.0
  0
VERTEX
  5
997
  8
WHITE
 10
429.70778556499999
 20
357.23740235999998
 30
0.0
  0
VERTEX
  5
998
  8
WHITE
 10
428.39391513499999
 20
358.22226673500001
 30
0.0
  0
VERTEX
  5
999
  8
WHITE
 10
428.47603178499992
 20
360.19199548500001
 30
0.0
  0
SEQEND
  5
99A
  8
WHITE
  0
POLYLINE
  5
B3
  8
WHITE
 66
     1
 10
0.0
 20
0.0
 30
0.0
  0
VERTEX
  5
99B
  8
WHITE
 10
482.55168601499992
 20
389.457950885
 30
0.0
  0
VERTEX
  5
99C
  8
WHITE
 10
480.58088036499993
 20
387.488222135
 30
0.0
  0
VERTEX
  5
99D
  8
WHITE
 10
481.56628318999998
 20
383.46669235000002
 30
0.0
  0
VERTEX
  5
99E
  8
WHITE
 10
495.85546157499988
 20
374.521358975
 30
0.0
  0
VERTEX
  5
99F
  8
WHITE
 10
500.45400809
 20
374.43928669000002
 30
0.0
  0
SEQEND
  5
9A0
  8
WHITE
  0
POLYLINE
  5
BA
  8
WHITE
 66
     1
 10
0.0
 20
0.0
 30
0.0
  0
VERTEX
  5
9A1
  8
WHITE
 10
526.19765651499995
 20
431.60038748499989
 30
0.0
  0
VERTEX
  5
9A2
  8
WHITE
 10
520.61370717499994
 20
431.36767624999999
 30
0.0
  0
SEQEND
  5
9A3
  8
WHITE
  0
POLYLINE
  5
BE
  8
WHITE
 66
     1
 10
0.0
 20
0.0
 30
0.0
  0
VERTEX
  5
9A4
  8
WHITE
 10
528.75752445000001
 20
415.55582176500002
 30
0.0
  0
VERTEX
  5
9A5
  8
WHITE
 10
531.54949962499995
 20
417.1837577849999
 30
0.0
  0
SEQEND
  5
9A6
  8
WHITE
  0
POLYLINE
  5
C2
  8
WHITE
 66
     1
 10
0.0
 20
0.0
 30
0.0
  0
VERTEX
  5
9A7
  8
WHITE
 10
511.07390181
 20
414.39330821499999
 30
0.0
  0
VERTEX
  5
9A8
  8
WHITE
 10
507.81603932500002
 20
415.32363083500002
 30
0.0
  0
VERTEX
  5
9A9
  8
WHITE
 10
506.42005224000002
 20
417.1837577849999
 30
0.0
  0
VERTEX
  5
9AA
  8
WHITE
 10
507.11804578499988
 20
424.85697378999993
 30
0.0
  0
VERTEX
  5
9AB
  8
WHITE
 10
508.51403286499988
 20
427.64742336
 30
0.0
  0
SEQEND
  5
9AC
  8
WHITE
  0
POLYLINE
  5
C9
  8
WHITE
 66
     1
 10
0.0
 20
0.0
 30
0.0
  0
VERTEX
  5
9AD
  8
WHITE
 10
425.48630630999997
 20
328.53815953499998
 30
0.0
  0
VERTEX
  5
9AE
  8
WHITE
 10
425.48630630999997
 20
330.91824868999998
 30
0.0
  0
SEQEND
  5
9AF
  8
WHITE
  0
POLYLINE
  5
CD
  8
WHITE
 66
     1
 10
0.0
 20
0.0
 30
0.0
  0
VERTEX
  5
9B0
  8
WHITE
 10
427.45711196000002
 20
319.34661031500002
 30
0.0
  0
VERTEX
  5
9B1
  8
WHITE
 10
427.21076099999988
 20
316.14580033999999
 30
0.0
  0
VERTEX
  5
9B2
  8
WHITE
 10
424.25455252499989
 20
314.586432
 30
0.0
  0
SEQEND
  5
9B3
  8
WHITE
  0
POLYLINE
  5
D2
  8
WHITE
 66
     1
 10
0.0
 20
0.0
 30
0.0
  0
VERTEX
  5
9B4
  8
WHITE
 10
413.49640118500002
 20
313.02706265
 30
0.0
  0
VERTEX
  5
9B5
  8
WHITE
 10
416.3704919999999
 20
312.45255868499999
 30
0.0
  0
SEQEND
  5
9B6
  8
WHITE
  0
POLYLINE
  5
D6
  8
WHITE
 66
     1
 10
0.0
 20
0.0
 30
0.0
  0
VERTEX
  5
9B7
  8
WHITE
 10
436.90139286499999
 20
338.71457312500002
 30
0.0
  0
VERTEX
  5
9B8
  8
WHITE
 10
432.87682698999998
 20
336.49862853500002
 30
0.0
  0
VERTEX
  5
9B9
  8
WHITE
 10
431.97354081499992
 20
336.08826812500001
 30
0.0
  0
VERTEX
  5
9BA
  8
WHITE
 10
431.48083990999999
 20
334.03646708999997
 30
0.0
  0
SEQEND
  5
9BB
  8
WHITE
  0
POLYLINE
  5
DC
  8
WHITE
 66
     1
 10
0.0
 20
0.0
 30
0.0
  0
VERTEX
  5
9BC
  8
WHITE
 10
455.70700111500003
 20
340.35601374999999
 30
0.0
  0
VERTEX
  5
9BD
  8
WHITE
 10
458.58109294000002
 20
339.28907809999998
 30
0.0
  0
VERTEX
  5
9BE
  8
WHITE
 10
459.48437811000002
 20
337.72970874999999
 30
0.0
  0
VERTEX
  5
9BF
  8
WHITE
 10
459.32014480999999
 20
336.17034040999999
 30
0.0
  0
SEQEND
  5
9C0
  8
WHITE
  0
POLYLINE
  5
E2
  8
WHITE
 66
     1
 10
0.0
 20
0.0
 30
0.0
  0
VERTEX
  5
9C1
  8
WHITE
 10
436.57208733499988
 20
321.06960393499998
 30
0.0
  0
VERTEX
  5
9C2
  8
WHITE
 10
434.35493173499992
 20
320.65924352500002
 30
0.0
  0
VERTEX
  5
9C3
  8
WHITE
 10
433.28741124999988
 20
321.89032373999999
 30
0.0
  0
SEQEND
  5
9C4
  8
WHITE
  0
POLYLINE
  5
E7
  8
WHITE
 66
     1
 10
0.0
 20
0.0
 30
0.0
  0
VERTEX
  5
9C5
  8
WHITE
 10
490.98877906000001
 20
370.12530999000001
 30
0.0
  0
VERTEX
  5
9C6
  8
WHITE
 10
493.12381800999998
 20
367.82729311499997
 30
0.0
  0
SEQEND
  5
9C7
  8
WHITE
  0
POLYLINE
  5
EB
  8
WHITE
 66
     1
 10
0.0
 20
0.0
 30
0.0
  0
VERTEX
  5
9C8
  8
WHITE
 10
492.30264848500002
 20
364.29871430999998
 30
0.0
  0
VERTEX
  5
9C9
  8
WHITE
 10
488.93585574999992
 20
361.590337025
 30
0.0
  0
VERTEX
  5
9CA
  8
WHITE
 10
486.88293344999988
 20
359.45646370999998
 30
0.0
  0
VERTEX
  5
9CB
  8
WHITE
 10
483.76165374999988
 20
358.717816185
 30
0.0
  0
SEQEND
  5
9CC
  8
WHITE
  0
POLYLINE
  5
F1
  8
WHITE
 66
     1
 10
0.0
 20
0.0
 30
0.0
  0
VERTEX
  5
9CD
  8
WHITE
 10
468.07648727499998
 20
363.39592221499998
 30
0.0
  0
VERTEX
  5
9CE
  8
WHITE
 10
467.50166971499999
 20
365.94015594000001
 30
0.0
  0
SEQEND
  5
9CF
  8
WHITE
  0
POLYLINE
  5
F5
  8
WHITE
 66
     1
 10
0.0
 20
0.0
 30
0.0
  0
VERTEX
  5
9D0
  8
WHITE
 10
389.789754485
 20
318.80794756
 30
0.0
  0
VERTEX
  5
9D1
  8
WHITE
 10
393.89560009000002
 20
319.13623568499997
 30
0.0
  0
VERTEX
  5
9D2
  8
WHITE
 10
399.23403639999998
 20
316.42837768999999
 30
0.0
  0
SEQEND
  5
9D3
  8
WHITE
  0
POLYLINE
  5
FA
  8
WHITE
 66
     1
 10
0.0
 20
0.0
 30
0.0
  0
VERTEX
  5
9D4
  8
WHITE
 10
384.779785785
 20
300.99935309
 30
0.0
  0
VERTEX
  5
9D5
  8
WHITE
 10
382.31627922500002
 20
301.73800162499998
 30
0.0
  0
SEQEND
  5
9D6
  8
WHITE
  0
POLYLINE
  5
FE
  8
WHITE
 66
     1
 10
0.0
 20
0.0
 30
0.0
  0
VERTEX
  5
9D7
  8
WHITE
 10
379.6064207
 20
311.50405481000001
 30
0.0
  0
VERTEX
  5
9D8
  8
WHITE
 10
380.92029113500001
 20
314.13036081500002
 30
0.0
  0
SEQEND
  5
9D9
  8
WHITE
  0
POLYLINE
  5
102
  8
WHITE
 66
     1
 10
0.0
 20
0.0
 30
0.0
  0
VERTEX
  5
9DA
  8
WHITE
 10
351.7671158
 20
297.716470835
 30
0.0
  0
VERTEX
  5
9DB
  8
WHITE
 10
369.915788835
 20
307.89288543499998
 30
0.0
  0
SEQEND
  5
9DC
  8
WHITE
  0
POLYLINE
  5
106
  8
WHITE
 66
     1
 10
0.0
 20
0.0
 30
0.0
  0
VERTEX
  5
9DD
  8
WHITE
 10
374.022472365
 20
308.13910127499997
 30
0.0
  0
VERTEX
  5
9DE
  8
WHITE
 10
374.925757535
 20
306.33351608499999
 30
0.0
  0
VERTEX
  5
9DF
  8
WHITE
 10
376.40386227499999
 20
300.83520852499998
 30
0.0
  0
SEQEND
  5
9E0
  8
WHITE
  0
POLYLINE
  5
10B
  8
WHITE
 66
     1
 10
0.0
 20
0.0
 30
0.0
  0
VERTEX
  5
9E1
  8
WHITE
 10
359.73245606
 20
291.64365930999998
 30
0.0
  0
VERTEX
  5
9E2
  8
WHITE
 10
355.95507806000001
 20
291.64365930999998
 30
0.0
  0
VERTEX
  5
9E3
  8
WHITE
 10
350.61747967500003
 20
294.67980542499998
 30
0.0
  0
VERTEX
  5
9E4
  8
WHITE
 10
350.28901206500001
 20
296.48539061499997
 30
0.0
  0
SEQEND
  5
9E5
  8
WHITE
  0
POLYLINE
  5
111
  8
WHITE
 66
     1
 10
0.0
 20
0.0
 30
0.0
  0
VERTEX
  5
9E6
  8
WHITE
 10
498.31729329000001
 20
423.29137193499992
 30
0.0
  0
VERTEX
  5
9E7
  8
WHITE
 10
500.37021558999999
 20
422.30650756
 30
0.0
  0
SEQEND
  5
9E8
  8
WHITE
  0
POLYLINE
  5
115
  8
WHITE
 66
     1
 10
0.0
 20
0.0
 30
0.0
  0
VERTEX
  5
9E9
  8
WHITE
 10
471.54550786499988
 20
405.81106559
 30
0.0
  0
VERTEX
  5
9EA
  8
WHITE
 10
468.75353268999987
 20
406.30349828499988
 30
0.0
  0
VERTEX
  5
9EB
  8
WHITE
 10
468.34294843499993
 20
407.69820276500002
 30
0.0
  0
SEQEND
  5
9EC
  8
WHITE
  0
POLYLINE
  5
11A
  8
WHITE
 66
     1
 10
0.0
 20
0.0
 30
0.0
  0
VERTEX
  5
9ED
  8
WHITE
 10
372.770608385
 20
337.67568628499998
 30
0.0
  0
VERTEX
  5
9EE
  8
WHITE
 10
374.38110527499998
 20
337.06274364000001
 30
0.0
  0
VERTEX
  5
9EF
  8
WHITE
 10
374.76403800999998
 20
335.53090481499999
 30
0.0
  0
VERTEX
  5
9F0
  8
WHITE
 10
373.07728994000001
 20
333.15601058999999
 30
0.0
  0
SEQEND
  5
9F1
  8
WHITE
  0
POLYLINE
  5
120
  8
WHITE
 66
     1
 10
0.0
 20
0.0
 30
0.0
  0
VERTEX
  5
9F2
  8
WHITE
 10
336.86373738499998
 20
291.12109963500001
 30
0.0
  0
VERTEX
  5
9F3
  8
WHITE
 10
316.66130412500002
 20
281.84747813500002
 30
0.0
  0
VERTEX
  5
9F4
  8
WHITE
 10
315.92225124999999
 20
281.43711772500001
 30
0.0
  0
VERTEX
  5
9F5
  8
WHITE
 10
315.8401346
 20
279.79567709999998
 30
0.0
  0
VERTEX
  5
9F6
  8
WHITE
 10
316.08648556000003
 20
278.31838003500002
 30
0.0
  0
VERTEX
  5
9F7
  8
WHITE
 10
317.07188838500002
 20
277.25144337500001
 30
0.0
  0
VERTEX
  5
9F8
  8
WHITE
 10
318.96057738500002
 20
276.75901169000002
 30
0.0
  0
SEQEND
  5
9F9
  8
WHITE
  0
POLYLINE
  5
129
  8
WHITE
 66
     1
 10
0.0
 20
0.0
 30
0.0
  0
VERTEX
  5
9FA
  8
WHITE
 10
319.69795340000002
 20
299.19013185
 30
0.0
  0
VERTEX
  5
9FB
  8
WHITE
 10
314.48520583999999
 20
296.815236615
 30
0.0
  0
VERTEX
  5
9FC
  8
WHITE
 10
312.33843594000001
 20
296.43240773999997
 30
0.0
  0
VERTEX
  5
9FD
  8
WHITE
 10
311.34214008999999
 20
297.12170844000002
 30
0.0
  0
VERTEX
  5
9FE
  8
WHITE
 10
311.34214008999999
 20
298.88366002499998
 30
0.0
  0
VERTEX
  5
9FF
  8
WHITE
 10
314.10227311
 20
302.790913375
 30
0.0
  0
SEQEND
  5
A00
  8
WHITE
  0
POLYLINE
  5
131
  8
WHITE
 66
     1
 10
0.0
 20
0.0
 30
0.0
  0
VERTEX
  5
A01
  8
WHITE
 10
402.54385023499998
 20
280.89274175000008
 30
0.0
  0
VERTEX
  5
A02
  8
WHITE
 10
414.47329041
 20
285.22779074499999
 30
0.0
  0
VERTEX
  5
A03
  8
WHITE
 10
420.28612762500001
 20
285.10179027499998
 30
0.0
  0
SEQEND
  5
A04
  8
WHITE
  0
POLYLINE
  5
136
  8
WHITE
 66
     1
 10
0.0
 20
0.0
 30
0.0
  0
VERTEX
  5
A05
  8
WHITE
 10
384.94485801500002
 20
234.45866505000001
 30
0.0
  0
VERTEX
  5
A06
  8
WHITE
 10
390.615113635
 20
236.72551534999999
 30
0.0
  0
SEQEND
  5
A07
  8
WHITE
  0
POLYLINE
  5
13A
  8
WHITE
 66
     1
 10
0.0
 20
0.0
 30
0.0
  0
VERTEX
  5
A08
  8
WHITE
 10
380.40831795000003
 20
255.56780172500001
 30
0.0
  0
VERTEX
  5
A09
  8
WHITE
 10
395.860540265
 20
267.32644055999998
 30
0.0
  0
SEQEND
  5
A0A
  8
WHITE
  0
POLYLINE
  5
13E
  8
WHITE
 66
     1
 10
0.0
 20
0.0
 30
0.0
  0
VERTEX
  5
A0B
  8
WHITE
 10
512.00902913499999
 20
235.77597288999999
 30
0.0
  0
VERTEX
  5
A0C
  8
WHITE
 10
494.98317963499989
 20
235.23886901500001
 30
0.0
  0
VERTEX
  5
A0D
  8
WHITE
 10
483.41125134499998
 20
237.75288732999999
 30
0.0
  0
SEQEND
  5
A0E
  8
WHITE
  0
POLYLINE
  5
143
  8
WHITE
 66
     1
 10
0.0
 20
0.0
 30
0.0
  0
VERTEX
  5
A0F
  8
WHITE
 10
455.41205050999997
 20
246.17418956500001
 30
0.0
  0
VERTEX
  5
A10
  8
WHITE
 10
450.03506964999991
 20
246.35339762500001
 30
0.0
  0
SEQEND
  5
A11
  8
WHITE
  0
POLYLINE
  5
147
  8
WHITE
 66
     1
 10
0.0
 20
0.0
 30
0.0
  0
VERTEX
  5
A12
  8
WHITE
 10
469.30069973500002
 20
233.099801775
 30
0.0
  0
VERTEX
  5
A13
  8
WHITE
 10
446.80904831499998
 20
233.099801775
 30
0.0
  0
VERTEX
  5
A14
  8
WHITE
 10
443.94166089999999
 20
233.72676932499999
 30
0.0
  0
SEQEND
  5
A15
  8
WHITE
  0
POLYLINE
  5
14C
  8
WHITE
 66
     1
 10
0.0
 20
0.0
 30
0.0
  0
VERTEX
  5
A16
  8
WHITE
 10
444.47960976000002
 20
242.86066103499999
 30
0.0
  0
VERTEX
  5
A17
  8
WHITE
 10
442.86659908999991
 20
238.472922735
 30
0.0
  0
SEQEND
  5
A18
  8
WHITE
  0
POLYLINE
  5
150
  8
WHITE
 66
     1
 10
0.0
 20
0.0
 30
0.0
  0
VERTEX
  5
A19
  8
WHITE
 10
466.53805294
 20
288.95190439999999
 30
0.0
  0
VERTEX
  5
A1A
  8
WHITE
 10
457.57725576500002
 20
281.69839806499999
 30
0.0
  0
SEQEND
  5
A1B
  8
WHITE
  0
POLYLINE
  5
154
  8
WHITE
 66
     1
 10
0.0
 20
0.0
 30
0.0
  0
VERTEX
  5
A1C
  8
WHITE
 10
472.09435076
 20
272.47464268499999
 30
0.0
  0
VERTEX
  5
A1D
  8
WHITE
 10
478.09810153500001
 20
284.38495905000002
 30
0.0
  0
SEQEND
  5
A1E
  8
WHITE
  0
POLYLINE
  5
158
  8
WHITE
 66
     1
 10
0.0
 20
0.0
 30
0.0
  0
VERTEX
  5
A1F
  8
WHITE
 10
458.29452158499993
 20
276.68369221500001
 30
0.0
  0
VERTEX
  5
A20
  8
WHITE
 10
469.22696233499988
 20
271.13188249000001
 30
0.0
  0
SEQEND
  5
A21
  8
WHITE
  0
POLYLINE
  5
15C
  8
WHITE
 66
     1
 10
0.0
 20
0.0
 30
0.0
  0
VERTEX
  5
A22
  8
WHITE
 10
389.764616735
 20
274.551897075
 30
0.0
  0
VERTEX
  5
A23
  8
WHITE
 10
387.21312704000002
 20
274.41008911
 30
0.0
  0
SEQEND
  5
A24
  8
WHITE
  0
POLYLINE
  5
160
  8
WHITE
 66
     1
 10
0.0
 20
0.0
 30
0.0
  0
VERTEX
  5
A25
  8
WHITE
 10
388.48845292499999
 20
270.16000343500002
 30
0.0
  0
VERTEX
  5
A26
  8
WHITE
 10
390.33189397500001
 20
271.57652522500001
 30
0.0
  0
SEQEND
  5
A27
  8
WHITE
  0
POLYLINE
  5
164
  8
WHITE
 66
     1
 10
0.0
 20
0.0
 30
0.0
  0
VERTEX
  5
A28
  8
WHITE
 10
371.90251505999998
 20
258.82627021500002
 30
0.0
  0
VERTEX
  5
A29
  8
WHITE
 10
375.58855822499999
 20
260.52640794000001
 30
0.0
  0
SEQEND
  5
A2A
  8
WHITE
  0
POLYLINE
  5
168
  8
WHITE
 66
     1
 10
0.0
 20
0.0
 30
0.0
  0
VERTEX
  5
A2B
  8
WHITE
 10
449.78117736500002
 20
283.57930172499999
 30
0.0
  0
VERTEX
  5
A2C
  8
WHITE
 10
457.84623069999992
 20
289.220976135
 30
0.0
  0
SEQEND
  5
A2D
  8
WHITE
  0
POLYLINE
  5
16C
  8
WHITE
 66
     1
 10
0.0
 20
0.0
 30
0.0
  0
VERTEX
  5
A2E
  8
WHITE
 10
435.62355321000001
 20
287.07151902499999
 30
0.0
  0
VERTEX
  5
A2F
  8
WHITE
 10
445.30077928499998
 20
283.40009467499999
 30
0.0
  0
SEQEND
  5
A30
  8
WHITE
  0
POLYLINE
  5
170
  8
WHITE
 66
     1
 10
0.0
 20
0.0
 30
0.0
  0
VERTEX
  5
A31
  8
WHITE
 10
307.00837787500001
 20
247.75433562500001
 30
0.0
  0
VERTEX
  5
A32
  8
WHITE
 10
307.00837787500001
 20
245.91238993499999
 30
0.0
  0
VERTEX
  5
A33
  8
WHITE
 10
306.29949131000001
 20
244.92077275
 30
0.0
  0
VERTEX
  5
A34
  8
WHITE
 10
303.32233471000001
 20
244.49586814
 30
0.0
  0
VERTEX
  5
A35
  8
WHITE
 10
291.69776589000003
 20
244.21225221
 30
0.0
  0
SEQEND
  5
A36
  8
WHITE
  0
POLYLINE
  5
177
  8
WHITE
 66
     1
 10
0.0
 20
0.0
 30
0.0
  0
VERTEX
  5
A37
  8
WHITE
 10
483.23375898499989
 20
280.14422365000001
 30
0.0
  0
VERTEX
  5
A38
  8
WHITE
 10
477.0410879399999
 20
268.94122111000001
 30
0.0
  0
SEQEND
  5
A39
  8
WHITE
  0
POLYLINE
  5
17B
  8
WHITE
 66
     1
 10
0.0
 20
0.0
 30
0.0
  0
VERTEX
  5
A3A
  8
WHITE
 10
477.70591160499998
 20
265.19310166499997
 30
0.0
  0
VERTEX
  5
A3B
  8
WHITE
 10
480.38911009999993
 20
262.864652955
 30
0.0
  0
SEQEND
  5
A3C
  8
WHITE
  0
POLYLINE
  5
17F
  8
WHITE
 66
     1
 10
0.0
 20
0.0
 30
0.0
  0
VERTEX
  5
A3D
  8
WHITE
 10
484.299348915
 20
262.08165629000001
 30
0.0
  0
VERTEX
  5
A3E
  8
WHITE
 10
497.21290411000001
 20
266.35352291499999
 30
0.0
  0
SEQEND
  5
A3F
  8
WHITE
  0
POLYLINE
  5
183
  8
WHITE
 66
     1
 10
0.0
 20
0.0
 30
0.0
  0
VERTEX
  5
A40
  8
WHITE
 10
503.57528779
 20
258.29384097500002
 30
0.0
  0
VERTEX
  5
A41
  8
WHITE
 10
504.50643002999988
 20
253.33435455
 30
0.0
  0
SEQEND
  5
A42
  8
WHITE
  0
POLYLINE
  5
187
  8
WHITE
 66
     1
 10
0.0
 20
0.0
 30
0.0
  0
VERTEX
  5
A43
  8
WHITE
 10
504.58954477999993
 20
252.59085071499999
 30
0.0
  0
VERTEX
  5
A44
  8
WHITE
 10
504.69552828499991
 20
249.73255488999999
 30
0.0
  0
SEQEND
  5
A45
  8
WHITE
  0
POLYLINE
  5
18B
  8
WHITE
 66
     1
 10
0.0
 20
0.0
 30
0.0
  0
VERTEX
  5
A46
  8
WHITE
 10
503.13818490999989
 20
247.69384478000001
 30
0.0
  0
VERTEX
  5
A47
  8
WHITE
 10
499.8666437199999
 20
246.93102615500001
 30
0.0
  0
SEQEND
  5
A48
  8
WHITE
  0
POLYLINE
  5
18F
  8
WHITE
 66
     1
 10
0.0
 20
0.0
 30
0.0
  0
VERTEX
  5
A49
  8
WHITE
 10
498.85009795500002
 20
246.95725408999999
 30
0.0
  0
VERTEX
  5
A4A
  8
WHITE
 10
486.54943829000001
 20
250.50322976000001
 30
0.0
  0
SEQEND
  5
A4B
  8
WHITE
  0
POLYLINE
  5
193
  8
WHITE
 66
     1
 10
0.0
 20
0.0
 30
0.0
  0
VERTEX
  5
A4C
  8
WHITE
 10
244.23699744999999
 20
370.122193235
 30
0.0
  0
VERTEX
  5
A4D
  8
WHITE
 10
243.95042609500001
 20
374.99405253499998
 30
0.0
  0
SEQEND
  5
A4E
  8
WHITE
  0
POLYLINE
  5
197
  8
WHITE
 66
     1
 10
0.0
 20
0.0
 30
0.0
  0
VERTEX
  5
A4F
  8
WHITE
 10
244.5235678
 20
340.79494427499998
 30
0.0
  0
VERTEX
  5
A50
  8
WHITE
 10
244.42804434999999
 20
345.47564777500003
 30
0.0
  0
SEQEND
  5
A51
  8
WHITE
  0
POLYLINE
  5
19B
  8
WHITE
 66
     1
 10
0.0
 20
0.0
 30
0.0
  0
VERTEX
  5
A52
  8
WHITE
 10
524.68016929999999
 20
31.764195144999999
 30
0.0
  0
VERTEX
  5
A53
  8
WHITE
 10
520.24585708999984
 20
31.189691175
 30
0.0
  0
SEQEND
  5
A54
  8
WHITE
  0
POLYLINE
  5
19F
  8
WHITE
 66
     1
 10
0.0
 20
0.0
 30
0.0
  0
VERTEX
  5
A55
  8
WHITE
 10
417.10200354999989
 20
81.139878644999996
 30
0.0
  0
VERTEX
  5
A56
  8
WHITE
 10
419.97609436499999
 20
79.006006334999995
 30
0.0
  0
SEQEND
  5
A57
  8
WHITE
  0
POLYLINE
  5
1A3
  8
WHITE
 66
     1
 10
0.0
 20
0.0
 30
0.0
  0
VERTEX
  5
A58
  8
WHITE
 10
415.54178216000003
 20
77.528709269999993
 30
0.0
  0
VERTEX
  5
A59
  8
WHITE
 10
414.80189236500001
 20
79.662582584999996
 30
0.0
  0
SEQEND
  5
A5A
  8
WHITE
  0
POLYLINE
  5
1A7
  8
WHITE
 66
     1
 10
0.0
 20
0.0
 30
0.0
  0
VERTEX
  5
A5B
  8
WHITE
 10
409.77432623499988
 20
85.530733699999985
 30
0.0
  0
VERTEX
  5
A5C
  8
WHITE
 10
409.692209585
 20
84.135508920000007
 30
0.0
  0
VERTEX
  5
A5D
  8
WHITE
 10
409.19950867499989
 20
82.986499975000001
 30
0.0
  0
VERTEX
  5
A5E
  8
WHITE
 10
407.31081967499989
 20
83.150643535
 30
0.0
  0
VERTEX
  5
A5F
  8
WHITE
 10
403.86191029000003
 20
84.792085169999993
 30
0.0
  0
VERTEX
  5
A60
  8
WHITE
 10
400.08453229000003
 20
86.761813919999994
 30
0.0
  0
VERTEX
  5
A61
  8
WHITE
 10
395.07456359000003
 20
89.962104600000004
 30
0.0
  0
SEQEND
  5
A62
  8
WHITE
  0
POLYLINE
  5
1B0
  8
WHITE
 66
     1
 10
0.0
 20
0.0
 30
0.0
  0
VERTEX
  5
A63
  8
WHITE
 10
311.22566750999999
 20
150.04559234999999
 30
0.0
  0
VERTEX
  5
A64
  8
WHITE
 10
307.77675812500001
 20
151.68703297499999
 30
0.0
  0
VERTEX
  5
A65
  8
WHITE
 10
307.61252381499997
 20
153.081738465
 30
0.0
  0
VERTEX
  5
A66
  8
WHITE
 10
307.858874775
 20
154.312818685
 30
0.0
  0
VERTEX
  5
A67
  8
WHITE
 10
308.8442776
 20
154.80525137500001
 30
0.0
  0
VERTEX
  5
A68
  8
WHITE
 10
311.636251765
 20
153.98453056
 30
0.0
  0
SEQEND
  5
A69
  8
WHITE
  0
POLYLINE
  5
1B8
  8
WHITE
 66
     1
 10
0.0
 20
0.0
 30
0.0
  0
VERTEX
  5
A6A
  8
WHITE
 10
467.32319068499987
 20
94.785654649999998
 30
0.0
  0
VERTEX
  5
A6B
  8
WHITE
 10
470.68998341499992
 20
94.457366524999998
 30
0.0
  0
SEQEND
  5
A6C
  8
WHITE
  0
POLYLINE
  5
1BC
  8
WHITE
 66
     1
 10
0.0
 20
0.0
 30
0.0
  0
VERTEX
  5
A6D
  8
WHITE
 10
402.07796191499989
 20
103.57567444
 30
0.0
  0
VERTEX
  5
A6E
  8
WHITE
 10
398.21846827500002
 20
107.10425325
 30
0.0
  0
SEQEND
  5
A6F
  8
WHITE
  0
POLYLINE
  5
1C0
  8
WHITE
 66
     1
 10
0.0
 20
0.0
 30
0.0
  0
VERTEX
  5
A70
  8
WHITE
 10
467.23772233499989
 20
63.163504570000001
 30
0.0
  0
VERTEX
  5
A71
  8
WHITE
 10
468.88089830000001
 20
59.799070325000002
 30
0.0
  0
SEQEND
  5
A72
  8
WHITE
  0
POLYLINE
  5
1C4
  8
WHITE
 66
     1
 10
0.0
 20
0.0
 30
0.0
  0
VERTEX
  5
A73
  8
WHITE
 10
432.2542466999999
 20
81.711266859999995
 30
0.0
  0
VERTEX
  5
A74
  8
WHITE
 10
429.70778556499999
 20
82.285770825000014
 30
0.0
  0
VERTEX
  5
A75
  8
WHITE
 10
428.39391513499999
 20
81.300906450000014
 30
0.0
  0
VERTEX
  5
A76
  8
WHITE
 10
428.47603178499992
 20
79.331177699999984
 30
0.0
  0
SEQEND
  5
A77
  8
WHITE
  0
POLYLINE
  5
1CA
  8
WHITE
 66
     1
 10
0.0
 20
0.0
 30
0.0
  0
VERTEX
  5
A78
  8
WHITE
 10
500.45400809
 20
65.083886495000002
 30
0.0
  0
VERTEX
  5
A79
  8
WHITE
 10
495.85546157499988
 20
65.001814210000006
 30
0.0
  0
VERTEX
  5
A7A
  8
WHITE
 10
481.56628318999998
 20
56.056480835000002
 30
0.0
  0
VERTEX
  5
A7B
  8
WHITE
 10
480.58088036499993
 20
52.034951049999997
 30
0.0
  0
VERTEX
  5
A7C
  8
WHITE
 10
482.55168601499992
 20
50.065222300000002
 30
0.0
  0
SEQEND
  5
A7D
  8
WHITE
  0
POLYLINE
  5
1D1
  8
WHITE
 66
     1
 10
0.0
 20
0.0
 30
0.0
  0
VERTEX
  5
A7E
  8
WHITE
 10
526.19765651499995
 20
7.9227857000000004
 30
0.0
  0
VERTEX
  5
A7F
  8
WHITE
 10
520.61370717499994
 20
8.1554969350000004
 30
0.0
  0
SEQEND
  5
A80
  8
WHITE
  0
POLYLINE
  5
1D5
  8
WHITE
 66
     1
 10
0.0
 20
0.0
 30
0.0
  0
VERTEX
  5
A81
  8
WHITE
 10
528.75752445000001
 20
23.96735142
 30
0.0
  0
VERTEX
  5
A82
  8
WHITE
 10
531.54949962499995
 20
22.3394154
 30
0.0
  0
SEQEND
  5
A83
  8
WHITE
  0
POLYLINE
  5
1D9
  8
WHITE
 66
     1
 10
0.0
 20
0.0
 30
0.0
  0
VERTEX
  5
A84
  8
WHITE
 10
511.07390181
 20
25.12986497
 30
0.0
  0
VERTEX
  5
A85
  8
WHITE
 10
507.81603932500002
 20
24.199542350000002
 30
0.0
  0
VERTEX
  5
A86
  8
WHITE
 10
506.42005224000002
 20
22.3394154
 30
0.0
  0
VERTEX
  5
A87
  8
WHITE
 10
507.11804578499988
 20
14.666199395
 30
0.0
  0
VERTEX
  5
A88
  8
WHITE
 10
508.51403286499988
 20
11.875749825
 30
0.0
  0
SEQEND
  5
A89
  8
WHITE
  0
POLYLINE
  5
1E0
  8
WHITE
 66
     1
 10
0.0
 20
0.0
 30
0.0
  0
VERTEX
  5
A8A
  8
WHITE
 10
425.48630630999997
 20
110.98501365
 30
0.0
  0
VERTEX
  5
A8B
  8
WHITE
 10
425.48630630999997
 20
108.60492449
 30
0.0
  0
SEQEND
  5
A8C
  8
WHITE
  0
POLYLINE
  5
1E4
  8
WHITE
 66
     1
 10
0.0
 20
0.0
 30
0.0
  0
VERTEX
  5
A8D
  8
WHITE
 10
424.25455252499989
 20
124.936741185
 30
0.0
  0
VERTEX
  5
A8E
  8
WHITE
 10
427.21076099999988
 20
123.37737284000001
 30
0.0
  0
VERTEX
  5
A8F
  8
WHITE
 10
427.45711196000002
 20
120.17656286499999
 30
0.0
  0
SEQEND
  5
A90
  8
WHITE
  0
POLYLINE
  5
1E9
  8
WHITE
 66
     1
 10
0.0
 20
0.0
 30
0.0
  0
VERTEX
  5
A91
  8
WHITE
 10
413.49640118500002
 20
126.496110535
 30
0.0
  0
VERTEX
  5
A92
  8
WHITE
 10
416.3704919999999
 20
127.0706145
 30
0.0
  0
SEQEND
  5
A93
  8
WHITE
  0
POLYLINE
  5
1ED
  8
WHITE
 66
     1
 10
0.0
 20
0.0
 30
0.0
  0
VERTEX
  5
A94
  8
WHITE
 10
455.70700111500003
 20
99.167159435000016
 30
0.0
  0
VERTEX
  5
A95
  8
WHITE
 10
458.58109294000002
 20
100.23409508500001
 30
0.0
  0
VERTEX
  5
A96
  8
WHITE
 10
459.48437811000002
 20
101.793464435
 30
0.0
  0
VERTEX
  5
A97
  8
WHITE
 10
459.32014480999999
 20
103.352832775
 30
0.0
  0
SEQEND
  5
A98
  8
WHITE
  0
POLYLINE
  5
1F3
  8
WHITE
 66
     1
 10
0.0
 20
0.0
 30
0.0
  0
VERTEX
  5
A99
  8
WHITE
 10
436.57208733499988
 20
118.45356925
 30
0.0
  0
VERTEX
  5
A9A
  8
WHITE
 10
434.35493173499992
 20
118.86392966
 30
0.0
  0
VERTEX
  5
A9B
  8
WHITE
 10
433.28741124999988
 20
117.63284944
 30
0.0
  0
SEQEND
  5
A9C
  8
WHITE
  0
POLYLINE
  5
1F8
  8
WHITE
 66
     1
 10
0.0
 20
0.0
 30
0.0
  0
VERTEX
  5
A9D
  8
WHITE
 10
431.48083990999999
 20
105.48670609
 30
0.0
  0
VERTEX
  5
A9E
  8
WHITE
 10
431.97354081499992
 20
103.43490506000001
 30
0.0
  0
VERTEX
  5
A9F
  8
WHITE
 10
432.87682698999998
 20
103.02454465
 30
0.0
  0
VERTEX
  5
AA0
  8
WHITE
 10
436.90139286499999
 20
100.80860006
 30
0.0
  0
SEQEND
  5
AA1
  8
WHITE
  0
POLYLINE
  5
1FE
  8
WHITE
 66
     1
 10
0.0
 20
0.0
 30
0.0
  0
VERTEX
  5
AA2
  8
WHITE
 10
493.12381800999998
 20
71.695880070000001
 30
0.0
  0
VERTEX
  5
AA3
  8
WHITE
 10
490.98877906000001
 20
69.397863194999999
 30
0.0
  0
SEQEND
  5
AA4
  8
WHITE
  0
POLYLINE
  5
202
  8
WHITE
 66
     1
 10
0.0
 20
0.0
 30
0.0
  0
VERTEX
  5
AA5
  8
WHITE
 10
492.30264848500002
 20
75.224458874999996
 30
0.0
  0
VERTEX
  5
AA6
  8
WHITE
 10
488.93585574999992
 20
77.932836159999994
 30
0.0
  0
VERTEX
  5
AA7
  8
WHITE
 10
486.88293344999988
 20
80.066709474999996
 30
0.0
  0
VERTEX
  5
AA8
  8
WHITE
 10
483.76165374999988
 20
80.805357000000001
 30
0.0
  0
SEQEND
  5
AA9
  8
WHITE
  0
POLYLINE
  5
208
  8
WHITE
 66
     1
 10
0.0
 20
0.0
 30
0.0
  0
VERTEX
  5
AAA
  8
WHITE
 10
467.50166971499999
 20
73.583017244999994
 30
0.0
  0
VERTEX
  5
AAB
  8
WHITE
 10
468.07648727499998
 20
76.127250970000006
 30
0.0
  0
SEQEND
  5
AAC
  8
WHITE
  0
POLYLINE
  5
20C
  8
WHITE
 66
     1
 10
0.0
 20
0.0
 30
0.0
  0
VERTEX
  5
AAD
  8
WHITE
 10
399.23403639999998
 20
123.09479549
 30
0.0
  0
VERTEX
  5
AAE
  8
WHITE
 10
393.89560009000002
 20
120.3869375
 30
0.0
  0
VERTEX
  5
AAF
  8
WHITE
 10
389.789754485
 20
120.715225625
 30
0.0
  0
SEQEND
  5
AB0
  8
WHITE
  0
POLYLINE
  5
211
  8
WHITE
 66
     1
 10
0.0
 20
0.0
 30
0.0
  0
VERTEX
  5
AB1
  8
WHITE
 10
382.31627922500002
 20
137.78517156000001
 30
0.0
  0
VERTEX
  5
AB2
  8
WHITE
 10
384.779785785
 20
138.52382008999999
 30
0.0
  0
SEQEND
  5
AB3
  8
WHITE
  0
POLYLINE
  5
215
  8
WHITE
 66
     1
 10
0.0
 20
0.0
 30
0.0
  0
VERTEX
  5
AB4
  8
WHITE
 10
380.92029113500001
 20
125.392812365
 30
0.0
  0
VERTEX
  5
AB5
  8
WHITE
 10
379.6064207
 20
128.01911837500001
 30
0.0
  0
SEQEND
  5
AB6
  8
WHITE
  0
POLYLINE
  5
219
  8
WHITE
 66
     1
 10
0.0
 20
0.0
 30
0.0
  0
VERTEX
  5
AB7
  8
WHITE
 10
369.915788835
 20
131.63028775000001
 30
0.0
  0
VERTEX
  5
AB8
  8
WHITE
 10
351.7671158
 20
141.80670234999999
 30
0.0
  0
SEQEND
  5
AB9
  8
WHITE
  0
POLYLINE
  5
21D
  8
WHITE
 66
     1
 10
0.0
 20
0.0
 30
0.0
  0
VERTEX
  5
ABA
  8
WHITE
 10
374.022472365
 20
131.38407190999999
 30
0.0
  0
VERTEX
  5
ABB
  8
WHITE
 10
374.925757535
 20
133.18965710000001
 30
0.0
  0
VERTEX
  5
ABC
  8
WHITE
 10
376.40386227499999
 20
138.68796466000001
 30
0.0
  0
SEQEND
  5
ABD
  8
WHITE
  0
POLYLINE
  5
222
  8
WHITE
 66
     1
 10
0.0
 20
0.0
 30
0.0
  0
VERTEX
  5
ABE
  8
WHITE
 10
350.28901206500001
 20
143.03778256499999
 30
0.0
  0
VERTEX
  5
ABF
  8
WHITE
 10
350.61747967500003
 20
144.84336776000001
 30
0.0
  0
VERTEX
  5
AC0
  8
WHITE
 10
355.95507806000001
 20
147.8795138749999
 30
0.0
  0
VERTEX
  5
AC1
  8
WHITE
 10
359.73245606
 20
147.8795138749999
 30
0.0
  0
SEQEND
  5
AC2
  8
WHITE
  0
POLYLINE
  5
228
  8
WHITE
 66
     1
 10
0.0
 20
0.0
 30
0.0
  0
VERTEX
  5
AC3
  8
WHITE
 10
500.37021558999999
 20
17.216665625000001
 30
0.0
  0
VERTEX
  5
AC4
  8
WHITE
 10
498.31729329000001
 20
16.23180125
 30
0.0
  0
SEQEND
  5
AC5
  8
WHITE
  0
POLYLINE
  5
22C
  8
WHITE
 66
     1
 10
0.0
 20
0.0
 30
0.0
  0
VERTEX
  5
AC6
  8
WHITE
 10
471.54550786499988
 20
33.712107594999999
 30
0.0
  0
VERTEX
  5
AC7
  8
WHITE
 10
468.75353268999987
 20
33.219674900000001
 30
0.0
  0
VERTEX
  5
AC8
  8
WHITE
 10
468.34294843499993
 20
31.82497042
 30
0.0
  0
SEQEND
  5
AC9
  8
WHITE
  0
POLYLINE
  5
231
  8
WHITE
 66
     1
 10
0.0
 20
0.0
 30
0.0
  0
VERTEX
  5
ACA
  8
WHITE
 10
372.770608385
 20
101.84748690000001
 30
0.0
  0
VERTEX
  5
ACB
  8
WHITE
 10
374.38110527499998
 20
102.46042954000001
 30
0.0
  0
VERTEX
  5
ACC
  8
WHITE
 10
374.76403800999998
 20
103.992268365
 30
0.0
  0
VERTEX
  5
ACD
  8
WHITE
 10
373.07728994000001
 20
106.36716259000001
 30
0.0
  0
SEQEND
  5
ACE
  8
WHITE
  0
POLYLINE
  5
237
  8
WHITE
 66
     1
 10
0.0
 20
0.0
 30
0.0
  0
VERTEX
  5
ACF
  8
WHITE
 10
318.96057738500002
 20
162.76416148999999
 30
0.0
  0
VERTEX
  5
AD0
  8
WHITE
 10
317.07188838500002
 20
162.27172981000001
 30
0.0
  0
VERTEX
  5
AD1
  8
WHITE
 10
316.08648556000003
 20
161.20479315
 30
0.0
  0
VERTEX
  5
AD2
  8
WHITE
 10
315.8401346
 20
159.72749608500001
 30
0.0
  0
VERTEX
  5
AD3
  8
WHITE
 10
315.92225124999999
 20
158.08605546000001
 30
0.0
  0
VERTEX
  5
AD4
  8
WHITE
 10
316.66130412500002
 20
157.67569505
 30
0.0
  0
VERTEX
  5
AD5
  8
WHITE
 10
336.86373738499998
 20
148.40207355000001
 30
0.0
  0
SEQEND
  5
AD6
  8
WHITE
  0
POLYLINE
  5
240
  8
WHITE
 66
     1
 10
0.0
 20
0.0
 30
0.0
  0
VERTEX
  5
AD7
  8
WHITE
 10
314.10227311
 20
136.73225980999999
 30
0.0
  0
VERTEX
  5
AD8
  8
WHITE
 10
311.34214008999999
 20
140.63951316000001
 30
0.0
  0
VERTEX
  5
AD9
  8
WHITE
 10
311.34214008999999
 20
142.40146473999999
 30
0.0
  0
VERTEX
  5
ADA
  8
WHITE
 10
312.33843594000001
 20
143.09076544000001
 30
0.0
  0
VERTEX
  5
ADB
  8
WHITE
 10
314.48520583999999
 20
142.70793656500001
 30
0.0
  0
VERTEX
  5
ADC
  8
WHITE
 10
319.69795340000002
 20
140.33304133499999
 30
0.0
  0
SEQEND
  5
ADD
  8
WHITE
  0
POLYLINE
  5
248
  8
WHITE
 66
     1
 10
0.0
 20
0.0
 30
0.0
  0
VERTEX
  5
ADE
  8
WHITE
 10
402.54385023499998
 20
158.63043143499999
 30
0.0
  0
VERTEX
  5
ADF
  8
WHITE
 10
414.47329041
 20
154.29538243499999
 30
0.0
  0
VERTEX
  5
AE0
  8
WHITE
 10
420.28612762500001
 20
154.42138291000001
 30
0.0
  0
SEQEND
  5
AE1
  8
WHITE
  0
POLYLINE
  5
24D
  8
WHITE
 66
     1
 10
0.0
 20
0.0
 30
0.0
  0
VERTEX
  5
AE2
  8
WHITE
 10
384.94485801500002
 20
205.06450813500001
 30
0.0
  0
VERTEX
  5
AE3
  8
WHITE
 10
390.615113635
 20
202.797657835
 30
0.0
  0
SEQEND
  5
AE4
  8
WHITE
  0
POLYLINE
  5
251
  8
WHITE
 66
     1
 10
0.0
 20
0.0
 30
0.0
  0
VERTEX
  5
AE5
  8
WHITE
 10
380.40831795000003
 20
183.95537146000001
 30
0.0
  0
VERTEX
  5
AE6
  8
WHITE
 10
395.860540265
 20
172.19673262500001
 30
0.0
  0
SEQEND
  5
AE7
  8
WHITE
  0
POLYLINE
  5
255
  8
WHITE
 66
     1
 10
0.0
 20
0.0
 30
0.0
  0
VERTEX
  5
AE8
  8
WHITE
 10
512.00902913499999
 20
203.74720028999999
 30
0.0
  0
VERTEX
  5
AE9
  8
WHITE
 10
494.98317963499989
 20
204.28430416500001
 30
0.0
  0
VERTEX
  5
AEA
  8
WHITE
 10
483.41125134499998
 20
201.770285855
 30
0.0
  0
SEQEND
  5
AEB
  8
WHITE
  0
POLYLINE
  5
25A
  8
WHITE
 66
     1
 10
0.0
 20
0.0
 30
0.0
  0
VERTEX
  5
AEC
  8
WHITE
 10
455.41205050999997
 20
193.34898361500001
 30
0.0
  0
VERTEX
  5
AED
  8
WHITE
 10
450.03506964999991
 20
193.16977556000001
 30
0.0
  0
SEQEND
  5
AEE
  8
WHITE
  0
POLYLINE
  5
25E
  8
WHITE
 66
     1
 10
0.0
 20
0.0
 30
0.0
  0
VERTEX
  5
AEF
  8
WHITE
 10
469.30069973500002
 20
206.42337140999999
 30
0.0
  0
VERTEX
  5
AF0
  8
WHITE
 10
446.80904831499998
 20
206.42337140999999
 30
0.0
  0
VERTEX
  5
AF1
  8
WHITE
 10
443.94166089999999
 20
205.79640386
 30
0.0
  0
SEQEND
  5
AF2
  8
WHITE
  0
POLYLINE
  5
263
  8
WHITE
 66
     1
 10
0.0
 20
0.0
 30
0.0
  0
VERTEX
  5
AF3
  8
WHITE
 10
444.47960976000002
 20
196.66251215
 30
0.0
  0
VERTEX
  5
AF4
  8
WHITE
 10
442.86659908999991
 20
201.05025044999999
 30
0.0
  0
SEQEND
  5
AF5
  8
WHITE
  0
POLYLINE
  5
267
  8
WHITE
 66
     1
 10
0.0
 20
0.0
 30
0.0
  0
VERTEX
  5
AF6
  8
WHITE
 10
466.53805294
 20
150.571268785
 30
0.0
  0
VERTEX
  5
AF7
  8
WHITE
 10
457.57725576500002
 20
157.82477511499999
 30
0.0
  0
SEQEND
  5
AF8
  8
WHITE
  0
POLYLINE
  5
26B
  8
WHITE
 66
     1
 10
0.0
 20
0.0
 30
0.0
  0
VERTEX
  5
AF9
  8
WHITE
 10
472.09435076
 20
167.0485305
 30
0.0
  0
VERTEX
  5
AFA
  8
WHITE
 10
478.09810153500001
 20
155.138214135
 30
0.0
  0
SEQEND
  5
AFB
  8
WHITE
  0
POLYLINE
  5
26F
  8
WHITE
 66
     1
 10
0.0
 20
0.0
 30
0.0
  0
VERTEX
  5
AFC
  8
WHITE
 10
458.29452158499993
 20
162.83948096500001
 30
0.0
  0
VERTEX
  5
AFD
  8
WHITE
 10
469.22696233499988
 20
168.39129069000001
 30
0.0
  0
SEQEND
  5
AFE
  8
WHITE
  0
POLYLINE
  5
273
  8
WHITE
 66
     1
 10
0.0
 20
0.0
 30
0.0
  0
VERTEX
  5
AFF
  8
WHITE
 10
389.764616735
 20
164.97127610999999
 30
0.0
  0
VERTEX
  5
B00
  8
WHITE
 10
387.21312704000002
 20
165.11308407499999
 30
0.0
  0
SEQEND
  5
B01
  8
WHITE
  0
POLYLINE
  5
277
  8
WHITE
 66
     1
 10
0.0
 20
0.0
 30
0.0
  0
VERTEX
  5
B02
  8
WHITE
 10
388.48845292499999
 20
169.36316975
 30
0.0
  0
VERTEX
  5
B03
  8
WHITE
 10
390.33189397500001
 20
167.94664796000001
 30
0.0
  0
SEQEND
  5
B04
  8
WHITE
  0
POLYLINE
  5
27B
  8
WHITE
 66
     1
 10
0.0
 20
0.0
 30
0.0
  0
VERTEX
  5
B05
  8
WHITE
 10
371.90251505999998
 20
180.69690296499999
 30
0.0
  0
VERTEX
  5
B06
  8
WHITE
 10
375.58855822499999
 20
178.99676524
 30
0.0
  0
SEQEND
  5
B07
  8
WHITE
  0
POLYLINE
  5
27F
  8
WHITE
 66
     1
 10
0.0
 20
0.0
 30
0.0
  0
VERTEX
  5
B08
  8
WHITE
 10
457.84623069999992
 20
150.30219704999999
 30
0.0
  0
VERTEX
  5
B09
  8
WHITE
 10
449.78117736500002
 20
155.94387146
 30
0.0
  0
SEQEND
  5
B0A
  8
WHITE
  0
POLYLINE
  5
283
  8
WHITE
 66
     1
 10
0.0
 20
0.0
 30
0.0
  0
VERTEX
  5
B0B
  8
WHITE
 10
445.30077928499998
 20
156.12307851
 30
0.0
  0
VERTEX
  5
B0C
  8
WHITE
 10
435.62355321000001
 20
152.45165416
 30
0.0
  0
SEQEND
  5
B0D
  8
WHITE
  0
POLYLINE
  5
287
  8
WHITE
 66
     1
 10
0.0
 20
0.0
 30
0.0
  0
VERTEX
  5
B0E
  8
WHITE
 10
307.00837787500001
 20
191.76883756000001
 30
0.0
  0
VERTEX
  5
B0F
  8
WHITE
 10
307.00837787500001
 20
193.61078325
 30
0.0
  0
VERTEX
  5
B10
  8
WHITE
 10
306.29949131000001
 20
194.60240043499999
 30
0.0
  0
VERTEX
  5
B11
  8
WHITE
 10
303.32233471000001
 20
195.02730503999999
 30
0.0
  0
VERTEX
  5
B12
  8
WHITE
 10
291.69776589000003
 20
195.31092097499999
 30
0.0
  0
SEQEND
  5
B13
  8
WHITE
  0
POLYLINE
  5
28E
  8
WHITE
 66
     1
 10
0.0
 20
0.0
 30
0.0
  0
VERTEX
  5
B14
  8
WHITE
 10
477.0410879399999
 20
170.581952075
 30
0.0
  0
VERTEX
  5
B15
  8
WHITE
 10
483.23375898499989
 20
159.378949535
 30
0.0
  0
SEQEND
  5
B16
  8
WHITE
  0
POLYLINE
  5
292
  8
WHITE
 66
     1
 10
0.0
 20
0.0
 30
0.0
  0
VERTEX
  5
B17
  8
WHITE
 10
480.38911009999993
 20
176.65852022999999
 30
0.0
  0
VERTEX
  5
B18
  8
WHITE
 10
477.70591160499998
 20
174.33007151999999
 30
0.0
  0
SEQEND
  5
B19
  8
WHITE
  0
POLYLINE
  5
296
  8
WHITE
 66
     1
 10
0.0
 20
0.0
 30
0.0
  0
VERTEX
  5
B1A
  8
WHITE
 10
497.21290411000001
 20
173.169650265
 30
0.0
  0
VERTEX
  5
B1B
  8
WHITE
 10
484.299348915
 20
177.44151689
 30
0.0
  0
SEQEND
  5
B1C
  8
WHITE
  0
POLYLINE
  5
29A
  8
WHITE
 66
     1
 10
0.0
 20
0.0
 30
0.0
  0
VERTEX
  5
B1D
  8
WHITE
 10
504.50643002999988
 20
186.18881862999999
 30
0.0
  0
VERTEX
  5
B1E
  8
WHITE
 10
503.57528779
 20
181.22933221
 30
0.0
  0
SEQEND
  5
B1F
  8
WHITE
  0
POLYLINE
  5
29E
  8
WHITE
 66
     1
 10
0.0
 20
0.0
 30
0.0
  0
VERTEX
  5
B20
  8
WHITE
 10
504.69552828499991
 20
189.790618295
 30
0.0
  0
VERTEX
  5
B21
  8
WHITE
 10
504.58954477999993
 20
186.93232247
 30
0.0
  0
SEQEND
  5
B22
  8
WHITE
  0
POLYLINE
  5
2A2
  8
WHITE
 66
     1
 10
0.0
 20
0.0
 30
0.0
  0
VERTEX
  5
B23
  8
WHITE
 10
499.8666437199999
 20
192.59214703000001
 30
0.0
  0
VERTEX
  5
B24
  8
WHITE
 10
503.13818490999989
 20
191.82932840500001
 30
0.0
  0
SEQEND
  5
B25
  8
WHITE
  0
POLYLINE
  5
2A6
  8
WHITE
 66
     1
 10
0.0
 20
0.0
 30
0.0
  0
VERTEX
  5
B26
  8
WHITE
 10
486.54943829000001
 20
189.01994342500001
 30
0.0
  0
VERTEX
  5
B27
  8
WHITE
 10
498.85009795500002
 20
192.565919095
 30
0.0
  0
SEQEND
  5
B28
  8
WHITE
  0
POLYLINE
  5
2AA
  8
CYAN
 66
     1
 10
0.0
 20
0.0
 30
0.0
  0
VERTEX
  5
B29
  8
CYAN
 10
314.10227311
 20
302.790913375
 30
0.0
 42
-0.05202749
  0
VERTEX
  5
B2A
  8
CYAN
 10
336.56375922500001
 20
315.58480199000002
 30
0.0
 42
-0.26472673
  0
VERTEX
  5
B2B
  8
CYAN
 10
339.67251401499999
 20
313.60130550000002
 30
0.0
 42
-0.26472673
  0
VERTEX
  5
B2C
  8
CYAN
 10
339.55348470000001
 20
309.91559705999998
 30
0.0
  0
VERTEX
  5
B2D
  8
CYAN
 10
319.69795340000002
 20
299.19013185
 30
0.0
  0
SEQEND
  5
B2E
  8
CYAN
  0
POLYLINE
  5
2B1
  8
CYAN
 66
     1
 10
0.0
 20
0.0
 30
0.0
  0
VERTEX
  5
B2F
  8
CYAN
 10
372.770608385
 20
337.67568628499998
 30
0.0
  0
VERTEX
  5
B30
  8
CYAN
 10
343.48671675000003
 20
320.13200820999998
 30
0.0
 42
0.26685055
  0
VERTEX
  5
B31
  8
CYAN
 10
345.03511128999997
 20
316.083216015
 30
0.0
 42
0.26685055
  0
VERTEX
  5
B32
  8
CYAN
 10
349.31282641500002
 20
315.38221874999999
 30
0.0
 42
0.07035837
  0
VERTEX
  5
B33
  8
CYAN
 10
373.07728994000001
 20
333.15601058999999
 30
0.0
  0
SEQEND
  5
B34
  8
CYAN
  0
POLYLINE
  5
2B8
  8
CYAN
 66
     1
 10
0.0
 20
0.0
 30
0.0
  0
VERTEX
  5
B35
  8
CYAN
 10
311.22566750999999
 20
289.47758083500003
 30
0.0
 42
0.14212411
  0
VERTEX
  5
B36
  8
CYAN
 10
395.07456359000003
 20
349.56106858499999
 30
0.0
  0
SEQEND
  5
B37
  8
CYAN
  0
POLYLINE
  5
2BC
  8
CYAN
 66
     1
 10
0.0
 20
0.0
 30
0.0
  0
VERTEX
  5
B38
  8
CYAN
 10
311.636251765
 20
285.53864262500002
 30
0.0
 42
0.15031
  0
VERTEX
  5
B39
  8
CYAN
 10
409.77432623499988
 20
353.99243948499998
 30
0.0
  0
SEQEND
  5
B3A
  8
CYAN
  0
POLYLINE
  5
2C0
  8
CYAN
 66
     1
 10
0.0
 20
0.0
 30
0.0
  0
VERTEX
  5
B3B
  8
CYAN
 10
318.96057738500002
 20
276.75901169000002
 30
0.0
 42
-0.01275446
  0
VERTEX
  5
B3C
  8
CYAN
 10
346.38929701500001
 20
286.60765644999998
 30
0.0
 42
0.26409587
  0
VERTEX
  5
B3D
  8
CYAN
 10
347.82606746499999
 20
287.79935131500002
 30
0.0
 42
0.26409587
  0
VERTEX
  5
B3E
  8
CYAN
 10
347.53893414999999
 20
289.64380256499999
 30
0.0
 42
0.20654798
  0
VERTEX
  5
B3F
  8
CYAN
 10
342.52006619000002
 20
292.68565067499998
 30
0.0
 42
0.20654798
  0
VERTEX
  5
B40
  8
CYAN
 10
336.86373738499998
 20
291.12109963500001
 30
0.0
  0
SEQEND
  5
B41
  8
CYAN
  0
POLYLINE
  5
2C8
  8
CYAN
 66
     1
 10
0.0
 20
0.0
 30
0.0
  0
VERTEX
  5
B42
  8
CYAN
 10
374.022472365
 20
308.13910127499997
 30
0.0
 42
0.26142297
  0
VERTEX
  5
B43
  8
CYAN
 10
369.915788835
 20
307.89288543499998
 30
0.0
  0
SEQEND
  5
B44
  8
CYAN
  0
POLYLINE
  5
2CC
  8
CYAN
 66
     1
 10
0.0
 20
0.0
 30
0.0
  0
VERTEX
  5
B45
  8
CYAN
 10
350.28901206500001
 20
296.48539061499997
 30
0.0
  0
VERTEX
  5
B46
  8
CYAN
 10
351.7671158
 20
297.716470835
 30
0.0
  0
SEQEND
  5
B47
  8
CYAN
  0
POLYLINE
  5
2D0
  8
CYAN
 66
     1
 10
0.0
 20
0.0
 30
0.0
  0
VERTEX
  5
B48
  8
CYAN
 10
376.40386227499999
 20
300.83520852499998
 30
0.0
 42
-0.24482629
  0
VERTEX
  5
B49
  8
CYAN
 10
374.26882231500002
 20
296.97782331000002
 30
0.0
  0
VERTEX
  5
B4A
  8
CYAN
 10
359.73245606
 20
291.64365930999998
 30
0.0
  0
SEQEND
  5
B4B
  8
CYAN
  0
POLYLINE
  5
2D5
  8
CYAN
 66
     1
 10
0.0
 20
0.0
 30
0.0
  0
VERTEX
  5
B4C
  8
CYAN
 10
380.92029113500001
 20
314.13036081500002
 30
0.0
  0
VERTEX
  5
B4D
  8
CYAN
 10
389.789754485
 20
318.80794756
 30
0.0
  0
SEQEND
  5
B4E
  8
CYAN
  0
POLYLINE
  5
2D9
  8
CYAN
 66
     1
 10
0.0
 20
0.0
 30
0.0
  0
VERTEX
  5
B4F
  8
CYAN
 10
382.31627922500002
 20
301.73800162499998
 30
0.0
  0
VERTEX
  5
B50
  8
CYAN
 10
379.6064207
 20
311.50405481000001
 30
0.0
  0
SEQEND
  5
B51
  8
CYAN
  0
POLYLINE
  5
2DD
  8
CYAN
 66
     1
 10
0.0
 20
0.0
 30
0.0
  0
VERTEX
  5
B52
  8
CYAN
 10
399.23403639999998
 20
316.42837768999999
 30
0.0
 42
-0.0374459
  0
VERTEX
  5
B53
  8
CYAN
 10
405.39280330000003
 20
310.76540627499998
 30
0.0
 42
-0.20238871
  0
VERTEX
  5
B54
  8
CYAN
 10
405.29713426500001
 20
308.35606614
 30
0.0
 42
-0.20238871
  0
VERTEX
  5
B55
  8
CYAN
 10
403.50411530999992
 20
306.74387648999999
 30
0.0
  0
VERTEX
  5
B56
  8
CYAN
 10
384.779785785
 20
300.99935309
 30
0.0
  0
SEQEND
  5
B57
  8
CYAN
  0
POLYLINE
  5
2E4
  8
CYAN
 66
     1
 10
0.0
 20
0.0
 30
0.0
  0
VERTEX
  5
B58
  8
CYAN
 10
425.48630630999997
 20
330.91824868999998
 30
0.0
 42
0.3932088
  0
VERTEX
  5
B59
  8
CYAN
 10
422.44714326000002
 20
333.051602715
 30
0.0
 42
0.07701319
  0
VERTEX
  5
B5A
  8
CYAN
 10
403.14883409999999
 20
324.76284558999998
 30
0.0
 42
0.30950339
  0
VERTEX
  5
B5B
  8
CYAN
 10
402.081313615
 20
321.06960393499998
 30
0.0
  0
VERTEX
  5
B5C
  8
CYAN
 10
413.49640118500002
 20
313.02706265
 30
0.0
  0
SEQEND
  5
B5D
  8
CYAN
  0
POLYLINE
  5
2EB
  8
CYAN
 66
     1
 10
0.0
 20
0.0
 30
0.0
  0
VERTEX
  5
B5E
  8
CYAN
 10
427.45711196000002
 20
319.34661031500002
 30
0.0
  0
VERTEX
  5
B5F
  8
CYAN
 10
425.48630630999997
 20
328.53815953499998
 30
0.0
  0
SEQEND
  5
B60
  8
CYAN
  0
POLYLINE
  5
2EF
  8
CYAN
 66
     1
 10
0.0
 20
0.0
 30
0.0
  0
VERTEX
  5
B61
  8
CYAN
 10
416.3704919999999
 20
312.45255868499999
 30
0.0
  0
VERTEX
  5
B62
  8
CYAN
 10
424.25455252499989
 20
314.586432
 30
0.0
  0
SEQEND
  5
B63
  8
CYAN
  0
POLYLINE
  5
2F3
  8
CYAN
 66
     1
 10
0.0
 20
0.0
 30
0.0
  0
VERTEX
  5
B64
  8
CYAN
 10
455.70700111500003
 20
340.35601374999999
 30
0.0
 42
0.08663904
  0
VERTEX
  5
B65
  8
CYAN
 10
436.90139286499999
 20
338.71457312500002
 30
0.0
  0
SEQEND
  5
B66
  8
CYAN
  0
POLYLINE
  5
2F7
  8
CYAN
 66
     1
 10
0.0
 20
0.0
 30
0.0
  0
VERTEX
  5
B67
  8
CYAN
 10
431.48083990999999
 20
334.03646708999997
 30
0.0
  0
VERTEX
  5
B68
  8
CYAN
 10
433.28741124999988
 20
321.89032373999999
 30
0.0
  0
SEQEND
  5
B69
  8
CYAN
  0
POLYLINE
  5
2FB
  8
CYAN
 66
     1
 10
0.0
 20
0.0
 30
0.0
  0
VERTEX
  5
B6A
  8
CYAN
 10
436.57208733499988
 20
321.06960393499998
 30
0.0
  0
VERTEX
  5
B6B
  8
CYAN
 10
459.32014480999999
 20
336.17034040999999
 30
0.0
  0
SEQEND
  5
B6C
  8
CYAN
  0
POLYLINE
  5
2FF
  8
CYAN
 66
     1
 10
0.0
 20
0.0
 30
0.0
  0
VERTEX
  5
B6D
  8
CYAN
 10
467.32319068499987
 20
344.73751853499999
 30
0.0
 42
0.20205904
  0
VERTEX
  5
B6E
  8
CYAN
 10
400.92832578999992
 20
329.95675949999998
 30
0.0
 42
-0.3142962
  0
VERTEX
  5
B6F
  8
CYAN
 10
398.71472827000002
 20
330.24278757000002
 30
0.0
 42
-0.3142962
  0
VERTEX
  5
B70
  8
CYAN
 10
398.21846827500002
 20
332.41891993500002
 30
0.0
  0
SEQEND
  5
B71
  8
CYAN
  0
POLYLINE
  5
305
  8
CYAN
 66
     1
 10
0.0
 20
0.0
 30
0.0
  0
VERTEX
  5
B72
  8
CYAN
 10
402.07796191499989
 20
335.94749874000001
 30
0.0
 42
-0.16942055
  0
VERTEX
  5
B73
  8
CYAN
 10
465.6808526399999
 20
356.88366087499998
 30
0.0
  0
VERTEX
  5
B74
  8
CYAN
 10
476.60323828999992
 20
354.91393212499997
 30
0.0
 42
-0.28760615
  0
VERTEX
  5
B75
  8
CYAN
 10
478.620084115
 20
352.06258685500001
 30
0.0
 42
-0.28760615
  0
VERTEX
  5
B76
  8
CYAN
 10
476.9317059
 20
349.00526516500003
 30
0.0
  0
VERTEX
  5
B77
  8
CYAN
 10
470.68998341499992
 20
345.06580666000002
 30
0.0
  0
SEQEND
  5
B78
  8
CYAN
  0
POLYLINE
  5
30D
  8
CYAN
 66
     1
 10
0.0
 20
0.0
 30
0.0
  0
VERTEX
  5
B79
  8
CYAN
 10
520.24585708999984
 20
408.33348201000001
 30
0.0
 42
0.22083921
  0
VERTEX
  5
B7A
  8
CYAN
 10
415.54178216000003
 20
361.99446391499998
 30
0.0
  0
SEQEND
  5
B7B
  8
CYAN
  0
POLYLINE
  5
311
  8
CYAN
 66
     1
 10
0.0
 20
0.0
 30
0.0
  0
VERTEX
  5
B7C
  8
CYAN
 10
419.97609436499999
 20
360.51716685000002
 30
0.0
 42
-0.2294386
  0
VERTEX
  5
B7D
  8
CYAN
 10
519.50680522499988
 20
398.15706841500003
 30
0.0
  0
VERTEX
  5
B7E
  8
CYAN
 10
525.17287121499999
 20
403.65589526500003
 30
0.0
 42
0.23459843
  0
VERTEX
  5
B7F
  8
CYAN
 10
525.94515926999986
 20
405.82975575500001
 30
0.0
 42
0.23459843
  0
VERTEX
  5
B80
  8
CYAN
 10
524.68016929999999
 20
407.75897803999999
 30
0.0
  0
SEQEND
  5
B81
  8
CYAN
  0
POLYLINE
  5
318
  8
CYAN
 66
     1
 10
0.0
 20
0.0
 30
0.0
  0
VERTEX
  5
B82
  8
CYAN
 10
414.80189236500001
 20
359.86059060000002
 30
0.0
 42
0.30545694
  0
VERTEX
  5
B83
  8
CYAN
 10
415.45426152499988
 20
358.347057855
 30
0.0
 42
0.30545694
  0
VERTEX
  5
B84
  8
CYAN
 10
417.10200354999989
 20
358.38329454000001
 30
0.0
  0
SEQEND
  5
B85
  8
CYAN
  0
POLYLINE
  5
31D
  8
CYAN
 66
     1
 10
0.0
 20
0.0
 30
0.0
  0
VERTEX
  5
B86
  8
CYAN
 10
428.47603178499992
 20
360.19199548500001
 30
0.0
 42
-0.07704206
  0
VERTEX
  5
B87
  8
CYAN
 10
464.69209811500002
 20
383.00698511500002
 30
0.0
 42
-0.28238626
  0
VERTEX
  5
B88
  8
CYAN
 10
467.79386878499997
 20
382.65090049000003
 30
0.0
 42
-0.28238626
  0
VERTEX
  5
B89
  8
CYAN
 10
468.88089830000001
 20
379.72410286000002
 30
0.0
  0
SEQEND
  5
B8A
  8
CYAN
  0
POLYLINE
  5
323
  8
CYAN
 66
     1
 10
0.0
 20
0.0
 30
0.0
  0
VERTEX
  5
B8B
  8
CYAN
 10
432.2542466999999
 20
357.811906325
 30
0.0
 42
-0.03864693
  0
VERTEX
  5
B8C
  8
CYAN
 10
456.39829126000001
 20
362.98244505000002
 30
0.0
 42
0.19626861
  0
VERTEX
  5
B8D
  8
CYAN
 10
461.40742203500002
 20
366.83931198499999
 30
0.0
  0
VERTEX
  5
B8E
  8
CYAN
 10
467.23772233499989
 20
376.35966861499998
 30
0.0
  0
SEQEND
  5
B8F
  8
CYAN
  0
POLYLINE
  5
329
  8
CYAN
 66
     1
 10
0.0
 20
0.0
 30
0.0
  0
VERTEX
  5
B90
  8
CYAN
 10
490.98877906000001
 20
370.12530999000001
 30
0.0
  0
VERTEX
  5
B91
  8
CYAN
 10
480.80544527500001
 20
376.52692994
 30
0.0
 42
0.22240731
  0
VERTEX
  5
B92
  8
CYAN
 10
476.80558352499997
 20
377.49831052500002
 30
0.0
 42
0.22240731
  0
VERTEX
  5
B93
  8
CYAN
 10
473.49704123999999
 20
375.04963287499999
 30
0.0
  0
VERTEX
  5
B94
  8
CYAN
 10
467.50166971499999
 20
365.94015594000001
 30
0.0
  0
SEQEND
  5
B95
  8
CYAN
  0
POLYLINE
  5
330
  8
CYAN
 66
     1
 10
0.0
 20
0.0
 30
0.0
  0
VERTEX
  5
B96
  8
CYAN
 10
483.76165374999988
 20
358.717816185
 30
0.0
  0
VERTEX
  5
B97
  8
CYAN
 10
468.07648727499998
 20
363.39592221499998
 30
0.0
  0
SEQEND
  5
B98
  8
CYAN
  0
POLYLINE
  5
334
  8
CYAN
 66
     1
 10
0.0
 20
0.0
 30
0.0
  0
VERTEX
  5
B99
  8
CYAN
 10
492.30264848500002
 20
364.29871430999998
 30
0.0
 42
0.38555602
  0
VERTEX
  5
B9A
  8
CYAN
 10
493.12381800999998
 20
367.82729311499997
 30
0.0
  0
SEQEND
  5
B9B
  8
CYAN
  0
POLYLINE
  5
338
  8
CYAN
 66
     1
 10
0.0
 20
0.0
 30
0.0
  0
VERTEX
  5
B9C
  8
CYAN
 10
500.45400809
 20
374.43928669000002
 30
0.0
  0
VERTEX
  5
B9D
  8
CYAN
 10
513.10084843499988
 20
387.488222135
 30
0.0
 42
0.34582059
  0
VERTEX
  5
B9E
  8
CYAN
 10
511.13004278499989
 20
391.83804004000001
 30
0.0
 42
0.08144652
  0
VERTEX
  5
B9F
  8
CYAN
 10
482.55168601499992
 20
389.457950885
 30
0.0
  0
SEQEND
  5
BA0
  8
CYAN
  0
POLYLINE
  5
33E
  8
CYAN
 66
     1
 10
0.0
 20
0.0
 30
0.0
  0
VERTEX
  5
BA1
  8
CYAN
 10
498.31729329000001
 20
423.29137193499992
 30
0.0
 42
0.07667446
  0
VERTEX
  5
BA2
  8
CYAN
 10
468.34294843499993
 20
407.69820276500002
 30
0.0
  0
SEQEND
  5
BA3
  8
CYAN
  0
POLYLINE
  5
342
  8
CYAN
 66
     1
 10
0.0
 20
0.0
 30
0.0
  0
VERTEX
  5
BA4
  8
CYAN
 10
471.54550786499988
 20
405.81106559
 30
0.0
 42
-0.069027
  0
VERTEX
  5
BA5
  8
CYAN
 10
498.31729329000001
 20
412.70459793499998
 30
0.0
 42
0.18719413
  0
VERTEX
  5
BA6
  8
CYAN
 10
500.61656655000002
 20
415.74126333999988
 30
0.0
  0
VERTEX
  5
BA7
  8
CYAN
 10
500.37021558999999
 20
422.30650756
 30
0.0
  0
SEQEND
  5
BA8
  8
CYAN
  0
POLYLINE
  5
348
  8
CYAN
 66
     1
 10
0.0
 20
0.0
 30
0.0
  0
VERTEX
  5
BA9
  8
CYAN
 10
531.54949962499995
 20
417.1837577849999
 30
0.0
 42
0.4197152
  0
VERTEX
  5
BAA
  8
CYAN
 10
526.19765651499995
 20
431.60038748499989
 30
0.0
  0
SEQEND
  5
BAB
  8
CYAN
  0
POLYLINE
  5
34C
  8
CYAN
 66
     1
 10
0.0
 20
0.0
 30
0.0
  0
VERTEX
  5
BAC
  8
CYAN
 10
520.61370717499994
 20
431.36767624999999
 30
0.0
  0
VERTEX
  5
BAD
  8
CYAN
 10
508.51403286499988
 20
427.64742336
 30
0.0
  0
SEQEND
  5
BAE
  8
CYAN
  0
POLYLINE
  5
350
  8
CYAN
 66
     1
 10
0.0
 20
0.0
 30
0.0
  0
VERTEX
  5
BAF
  8
CYAN
 10
511.07390181
 20
414.39330821499999
 30
0.0
  0
VERTEX
  5
BB0
  8
CYAN
 10
528.75752445000001
 20
415.55582176500002
 30
0.0
  0
SEQEND
  5
BB1
  8
CYAN
  0
POLYLINE
  5
354
  8
CYAN
 66
     1
 10
0.0
 20
0.0
 30
0.0
  0
VERTEX
  5
BB2
  8
CYAN
 10
307.00837787500001
 20
247.75433562500001
 30
0.0
 42
0.10719547
  0
VERTEX
  5
BB3
  8
CYAN
 10
300.77084602500003
 20
252.99603848500001
 30
0.0
 42
0.14263903
  0
VERTEX
  5
BB4
  8
CYAN
 10
291.83937622500002
 20
250.87099615
 30
0.0
  0
VERTEX
  5
BB5
  8
CYAN
 10
291.69776589000003
 20
244.21225221
 30
0.0
  0
SEQEND
  5
BB6
  8
CYAN
  0
POLYLINE
  5
35A
  8
CYAN
 66
     1
 10
0.0
 20
0.0
 30
0.0
  0
VERTEX
  5
BB7
  8
CYAN
 10
375.58855822499999
 20
260.52640794000001
 30
0.0
 42
0.03371772
  0
VERTEX
  5
BB8
  8
CYAN
 10
388.48845292499999
 20
270.16000343500002
 30
0.0
  0
SEQEND
  5
BB9
  8
CYAN
  0
POLYLINE
  5
35E
  8
CYAN
 66
     1
 10
0.0
 20
0.0
 30
0.0
  0
VERTEX
  5
BBA
  8
CYAN
 10
390.33189397500001
 20
271.57652522500001
 30
0.0
 42
0.26825136
  0
VERTEX
  5
BBB
  8
CYAN
 10
390.90828993000002
 20
273.22818327499999
 30
0.0
 42
0.26825136
  0
VERTEX
  5
BBC
  8
CYAN
 10
389.764616735
 20
274.551897075
 30
0.0
  0
SEQEND
  5
BBD
  8
CYAN
  0
POLYLINE
  5
363
  8
CYAN
 66
     1
 10
0.0
 20
0.0
 30
0.0
  0
VERTEX
  5
BBE
  8
CYAN
 10
395.860540265
 20
267.32644055999998
 30
0.0
 42
-0.16538136
  0
VERTEX
  5
BBF
  8
CYAN
 10
402.09807211499992
 20
269.87638750000002
 30
0.0
 42
-0.0712041
  0
VERTEX
  5
BC0
  8
CYAN
 10
436.26372992500001
 20
265.62630283499999
 30
0.0
 42
-0.30073852
  0
VERTEX
  5
BC1
  8
CYAN
 10
437.5055291299999
 20
263.902342745
 30
0.0
 42
-0.30073852
  0
VERTEX
  5
BC2
  8
CYAN
 10
436.40534025999989
 20
262.08473770000001
 30
0.0
 42
0.08316618
  0
VERTEX
  5
BC3
  8
CYAN
 10
382.81819731000002
 20
250.60919651500001
 30
0.0
 42
-0.33770767
  0
VERTEX
  5
BC4
  8
CYAN
 10
379.72313702500003
 20
252.169901565
 30
0.0
 42
-0.33770767
  0
VERTEX
  5
BC5
  8
CYAN
 10
380.40831795000003
 20
255.56780172500001
 30
0.0
  0
SEQEND
  5
BC6
  8
CYAN
  0
POLYLINE
  5
36D
  8
CYAN
 66
     1
 10
0.0
 20
0.0
 30
0.0
  0
VERTEX
  5
BC7
  8
CYAN
 10
387.21312704000002
 20
274.41008911
 30
0.0
 42
-0.06852291
  0
VERTEX
  5
BC8
  8
CYAN
 10
363.53832249999999
 20
265.76811079999999
 30
0.0
 42
0.19305594
  0
VERTEX
  5
BC9
  8
CYAN
 10
360.84438555999998
 20
263.50125949
 30
0.0
  0
VERTEX
  5
BCA
  8
CYAN
 10
366.37303185000002
 20
258.11774967500003
 30
0.0
 42
0.21024424
  0
VERTEX
  5
BCB
  8
CYAN
 10
371.90251505999998
 20
258.82627021500002
 30
0.0
  0
SEQEND
  5
BCC
  8
CYAN
  0
POLYLINE
  5
374
  8
CYAN
 66
     1
 10
0.0
 20
0.0
 30
0.0
  0
VERTEX
  5
BCD
  8
CYAN
 10
390.615113635
 20
236.72551534999999
 30
0.0
 42
-0.09921435
  0
VERTEX
  5
BCE
  8
CYAN
 10
445.90324836500002
 20
251.884429635
 30
0.0
 42
0.31813437
  0
VERTEX
  5
BCF
  8
CYAN
 10
447.53393727000002
 20
255.08967742999999
 30
0.0
 42
0.31813437
  0
VERTEX
  5
BD0
  8
CYAN
 10
445.05275247499998
 20
257.69284506499997
 30
0.0
 42
0.09221194
  0
VERTEX
  5
BD1
  8
CYAN
 10
366.08981218999998
 20
235.733898165
 30
0.0
 42
0.26048258
  0
VERTEX
  5
BD2
  8
CYAN
 10
366.20295846499999
 20
233.43948002499999
 30
0.0
 42
0.26048258
  0
VERTEX
  5
BD3
  8
CYAN
 10
368.21647188999998
 20
232.33362271499999
 30
0.0
 42
0.1059813
  0
VERTEX
  5
BD4
  8
CYAN
 10
384.94485801500002
 20
234.45866505000001
 30
0.0
  0
SEQEND
  5
BD5
  8
CYAN
  0
POLYLINE
  5
37E
  8
CYAN
 66
     1
 10
0.0
 20
0.0
 30
0.0
  0
VERTEX
  5
BD6
  8
CYAN
 10
455.41205050999997
 20
246.17418956500001
 30
0.0
 42
-0.00443416
  0
VERTEX
  5
BD7
  8
CYAN
 10
472.43706308999998
 20
237.39819468499999
 30
0.0
 42
-0.37120392
  0
VERTEX
  5
BD8
  8
CYAN
 10
472.71945686999987
 20
233.89870820499999
 30
0.0
 42
-0.37120392
  0
VERTEX
  5
BD9
  8
CYAN
 10
469.30069973500002
 20
233.099801775
 30
0.0
  0
SEQEND
  5
BDA
  8
CYAN
  0
POLYLINE
  5
384
  8
CYAN
 66
     1
 10
0.0
 20
0.0
 30
0.0
  0
VERTEX
  5
BDB
  8
CYAN
 10
442.86659908999991
 20
238.472922735
 30
0.0
 42
0.20727355
  0
VERTEX
  5
BDC
  8
CYAN
 10
442.37621638500002
 20
235.86701102000001
 30
0.0
 42
0.20727355
  0
VERTEX
  5
BDD
  8
CYAN
 10
443.94166089999999
 20
233.72676932499999
 30
0.0
  0
SEQEND
  5
BDE
  8
CYAN
  0
POLYLINE
  5
389
  8
CYAN
 66
     1
 10
0.0
 20
0.0
 30
0.0
  0
VERTEX
  5
BDF
  8
CYAN
 10
450.03506964999991
 20
246.35339762500001
 30
0.0
 42
0.33655764
  0
VERTEX
  5
BE0
  8
CYAN
 10
444.47960976000002
 20
242.86066103499999
 30
0.0
  0
SEQEND
  5
BE1
  8
CYAN
  0
POLYLINE
  5
38D
  8
CYAN
 66
     1
 10
0.0
 20
0.0
 30
0.0
  0
VERTEX
  5
BE2
  8
CYAN
 10
512.00902913499999
 20
235.77597288999999
 30
0.0
 42
0.2538056
  0
VERTEX
  5
BE3
  8
CYAN
 10
513.41983824500005
 20
237.734562205
 30
0.0
 42
0.2538056
  0
VERTEX
  5
BE4
  8
CYAN
 10
512.54697899999985
 20
239.98502242500001
 30
0.0
 42
-0.06825163
  0
VERTEX
  5
BE5
  8
CYAN
 10
488.35265894000003
 20
243.56710340000001
 30
0.0
 42
-0.06498651
  0
VERTEX
  5
BE6
  8
CYAN
 10
456.21813738499992
 20
256.74122443499999
 30
0.0
 42
0.37107599
  0
VERTEX
  5
BE7
  8
CYAN
 10
454.31205928999998
 20
255.34174073
 30
0.0
 42
0.37107599
  0
VERTEX
  5
BE8
  8
CYAN
 10
455.41205050999997
 20
253.24848784
 30
0.0
  0
VERTEX
  5
BE9
  8
CYAN
 10
483.41125134499998
 20
237.75288732999999
 30
0.0
  0
SEQEND
  5
BEA
  8
CYAN
  0
POLYLINE
  5
397
  8
CYAN
 66
     1
 10
0.0
 20
0.0
 30
0.0
  0
VERTEX
  5
BEB
  8
CYAN
 10
420.28612762500001
 20
285.10179027499998
 30
0.0
 42
-0.10015556
  0
VERTEX
  5
BEC
  8
CYAN
 10
474.9483313749999
 20
258.77380663500003
 30
0.0
 42
-0.23054239
  0
VERTEX
  5
BED
  8
CYAN
 10
476.03367252999999
 20
257.09451903000001
 30
0.0
 42
-0.23054239
  0
VERTEX
  5
BEE
  8
CYAN
 10
475.38091661999988
 20
255.20457670499999
 30
0.0
 42
-0.23054239
  0
VERTEX
  5
BEF
  8
CYAN
 10
473.49054979999988
 20
254.553051135
 30
0.0
 42
-0.23054239
  0
VERTEX
  5
BF0
  8
CYAN
 10
471.81196902499988
 20
255.63948515000001
 30
0.0
 42
0.12109699
  0
VERTEX
  5
BF1
  8
CYAN
 10
402.27487530000002
 20
276.59434783500001
 30
0.0
 42
-0.272922
  0
VERTEX
  5
BF2
  8
CYAN
 10
401.14182191999998
 20
278.82286202500001
 30
0.0
 42
-0.272922
  0
VERTEX
  5
BF3
  8
CYAN
 10
402.54385023499998
 20
280.89274175000008
 30
0.0
  0
SEQEND
  5
BF4
  8
CYAN
  0
POLYLINE
  5
3A2
  8
CYAN
 66
     1
 10
0.0
 20
0.0
 30
0.0
  0
VERTEX
  5
BF5
  8
CYAN
 10
457.84623069999992
 20
289.220976135
 30
0.0
 42
0.26929713
  0
VERTEX
  5
BF6
  8
CYAN
 10
457.997191945
 20
291.64780280500003
 30
0.0
 42
0.26929713
  0
VERTEX
  5
BF7
  8
CYAN
 10
455.96424510000003
 20
292.981745875
 30
0.0
 42
0.07760588
  0
VERTEX
  5
BF8
  8
CYAN
 10
435.354579285
 20
290.92215243999999
 30
0.0
 42
0.35959938
  0
VERTEX
  5
BF9
  8
CYAN
 10
433.89873198499998
 20
288.88574791999997
 30
0.0
 42
0.35959938
  0
VERTEX
  5
BFA
  8
CYAN
 10
435.62355321000001
 20
287.07151902499999
 30
0.0
  0
SEQEND
  5
BFB
  8
CYAN
  0
POLYLINE
  5
3AA
  8
CYAN
 66
     1
 10
0.0
 20
0.0
 30
0.0
  0
VERTEX
  5
BFC
  8
CYAN
 10
445.30077928499998
 20
283.40009467499999
 30
0.0
 42
0.24130899
  0
VERTEX
  5
BFD
  8
CYAN
 10
449.78117736500002
 20
283.57930172499999
 30
0.0
  0
SEQEND
  5
BFE
  8
CYAN
  0
POLYLINE
  5
3AE
  8
CYAN
 66
     1
 10
0.0
 20
0.0
 30
0.0
  0
VERTEX
  5
BFF
  8
CYAN
 10
466.53805294
 20
288.95190439999999
 30
0.0
 42
-0.2052143
  0
VERTEX
  5
C00
  8
CYAN
 10
470.83997299999999
 20
289.48952857500001
 30
0.0
 42
-0.12964597
  0
VERTEX
  5
C01
  8
CYAN
 10
477.29117673500002
 20
287.42993514
 30
0.0
 42
-0.3672645
  0
VERTEX
  5
C02
  8
CYAN
 10
478.09810153500001
 20
284.38495905000002
 30
0.0
  0
SEQEND
  5
C03
  8
CYAN
  0
POLYLINE
  5
3B4
  8
CYAN
 66
     1
 10
0.0
 20
0.0
 30
0.0
  0
VERTEX
  5
C04
  8
CYAN
 10
469.22696233499988
 20
271.13188249000001
 30
0.0
 42
0.34038786
  0
VERTEX
  5
C05
  8
CYAN
 10
472.09435076
 20
272.47464268499999
 30
0.0
  0
SEQEND
  5
C06
  8
CYAN
  0
POLYLINE
  5
3B8
  8
CYAN
 66
     1
 10
0.0
 20
0.0
 30
0.0
  0
VERTEX
  5
C07
  8
CYAN
 10
457.57725576500002
 20
281.69839806499999
 30
0.0
 42
0.25645386
  0
VERTEX
  5
C08
  8
CYAN
 10
456.559312535
 20
278.99415004000002
 30
0.0
 42
0.25645386
  0
VERTEX
  5
C09
  8
CYAN
 10
458.29452158499993
 20
276.68369221500001
 30
0.0
  0
SEQEND
  5
C0A
  8
CYAN
  0
POLYLINE
  5
3BD
  8
CYAN
 66
     1
 10
0.0
 20
0.0
 30
0.0
  0
VERTEX
  5
C0B
  8
CYAN
 10
483.23375898499989
 20
280.14422365000001
 30
0.0
 42
-0.23144215
  0
VERTEX
  5
C0C
  8
CYAN
 10
486.28662309999987
 20
282.30322747500003
 30
0.0
 42
-0.23144215
  0
VERTEX
  5
C0D
  8
CYAN
 10
489.86511760000002
 20
281.21895169999999
 30
0.0
  0
VERTEX
  5
C0E
  8
CYAN
 10
498.37762388999988
 20
270.92046826500001
 30
0.0
 42
-0.25651587
  0
VERTEX
  5
C0F
  8
CYAN
 10
499.0492721949999
 20
268.31718266500002
 30
0.0
 42
-0.25651587
  0
VERTEX
  5
C10
  8
CYAN
 10
497.21290411000001
 20
266.35352291499999
 30
0.0
  0
SEQEND
  5
C11
  8
CYAN
  0
POLYLINE
  5
3C5
  8
CYAN
 66
     1
 10
0.0
 20
0.0
 30
0.0
  0
VERTEX
  5
C12
  8
CYAN
 10
477.0410879399999
 20
268.94122111000001
 30
0.0
 42
0.35402716
  0
VERTEX
  5
C13
  8
CYAN
 10
477.70591160499998
 20
265.19310166499997
 30
0.0
  0
SEQEND
  5
C14
  8
CYAN
  0
POLYLINE
  5
3C9
  8
CYAN
 66
     1
 10
0.0
 20
0.0
 30
0.0
  0
VERTEX
  5
C15
  8
CYAN
 10
480.38911009999993
 20
262.864652955
 30
0.0
 42
0.26447064
  0
VERTEX
  5
C16
  8
CYAN
 10
484.299348915
 20
262.08165629000001
 30
0.0
  0
SEQEND
  5
C17
  8
CYAN
  0
POLYLINE
  5
3CD
  8
CYAN
 66
     1
 10
0.0
 20
0.0
 30
0.0
  0
VERTEX
  5
C18
  8
CYAN
 10
486.54943829000001
 20
250.50322976000001
 30
0.0
 42
-0.35392015
  0
VERTEX
  5
C19
  8
CYAN
 10
483.86150694499992
 20
253.36656815000001
 30
0.0
 42
-0.35392015
  0
VERTEX
  5
C1A
  8
CYAN
 10
486.10114741000001
 20
256.59266366000003
 30
0.0
  0
VERTEX
  5
C1B
  8
CYAN
 10
499.8113176
 20
260.08488096000002
 30
0.0
 42
-0.32713712
  0
VERTEX
  5
C1C
  8
CYAN
 10
503.57528779
 20
258.29384097500002
 30
0.0
  0
SEQEND
  5
C1D
  8
CYAN
  0
POLYLINE
  5
3D4
  8
CYAN
 66
     1
 10
0.0
 20
0.0
 30
0.0
  0
VERTEX
  5
C1E
  8
CYAN
 10
504.58954477999993
 20
252.59085071499999
 30
0.0
 42
0.0371488
  0
VERTEX
  5
C1F
  8
CYAN
 10
504.50643002999988
 20
253.33435455
 30
0.0
  0
SEQEND
  5
C20
  8
CYAN
  0
POLYLINE
  5
3D8
  8
CYAN
 66
     1
 10
0.0
 20
0.0
 30
0.0
  0
VERTEX
  5
C21
  8
CYAN
 10
503.13818490999989
 20
247.69384478000001
 30
0.0
 42
0.35902918
  0
VERTEX
  5
C22
  8
CYAN
 10
504.69552828499991
 20
249.73255488999999
 30
0.0
  0
SEQEND
  5
C23
  8
CYAN
  0
POLYLINE
  5
3DC
  8
CYAN
 66
     1
 10
0.0
 20
0.0
 30
0.0
  0
VERTEX
  5
C24
  8
CYAN
 10
498.85009795500002
 20
246.95725408999999
 30
0.0
 42
0.12812956
  0
VERTEX
  5
C25
  8
CYAN
 10
499.8666437199999
 20
246.93102615500001
 30
0.0
  0
SEQEND
  5
C26
  8
CYAN
  0
POLYLINE
  5
3E0
  8
CYAN
 66
     1
 10
0.0
 20
0.0
 30
0.0
  0
VERTEX
  5
C27
  8
CYAN
 10
244.23699744999999
 20
370.122193235
 30
0.0
 42
0.05714337
  0
VERTEX
  5
C28
  8
CYAN
 10
243.185397545
 20
363.62603598499999
 30
0.0
 42
0.04872741
  0
VERTEX
  5
C29
  8
CYAN
 10
244.42804434999999
 20
345.47564777500003
 30
0.0
  0
SEQEND
  5
C2A
  8
CYAN
  0
POLYLINE
  5
3E5
  8
CYAN
 66
     1
 10
0.0
 20
0.0
 30
0.0
  0
VERTEX
  5
C2B
  8
CYAN
 10
244.5235678
 20
340.79494427499998
 30
0.0
 42
-0.40519383
  0
VERTEX
  5
C2C
  8
CYAN
 10
234.39134845000001
 20
334.58551870999997
 30
0.0
 42
-0.30623135
  0
VERTEX
  5
C2D
  8
CYAN
 10
219.95720803500001
 20
356.07956344000002
 30
0.0
 42
-0.30267762
  0
VERTEX
  5
C2E
  8
CYAN
 10
233.33974954999999
 20
379.770333935
 30
0.0
 42
-0.2137595
  0
VERTEX
  5
C2F
  8
CYAN
 10
239.71494865
 20
379.75892656000002
 30
0.0
 42
-0.2137595
  0
VERTEX
  5
C30
  8
CYAN
 10
243.95042609500001
 20
374.99405253499998
 30
0.0
  0
SEQEND
  5
C31
  8
CYAN
  0
POLYLINE
  5
3ED
  8
CYAN
 66
     1
 10
0.0
 20
0.0
 30
0.0
  0
VERTEX
  5
C32
  8
CYAN
 10
319.69795340000002
 20
140.33304133499999
 30
0.0
  0
VERTEX
  5
C33
  8
CYAN
 10
339.55348470000001
 20
129.60757612500001
 30
0.0
 42
-0.26472673
  0
VERTEX
  5
C34
  8
CYAN
 10
339.67251401499999
 20
125.921867685
 30
0.0
 42
-0.26472673
  0
VERTEX
  5
C35
  8
CYAN
 10
336.56375922500001
 20
123.93837119
 30
0.0
 42
-0.05202749
  0
VERTEX
  5
C36
  8
CYAN
 10
314.10227311
 20
136.73225980999999
 30
0.0
  0
SEQEND
  5
C37
  8
CYAN
  0
POLYLINE
  5
3F4
  8
CYAN
 66
     1
 10
0.0
 20
0.0
 30
0.0
  0
VERTEX
  5
C38
  8
CYAN
 10
373.07728994000001
 20
106.367162595
 30
0.0
 42
0.07035837
  0
VERTEX
  5
C39
  8
CYAN
 10
349.31282641500002
 20
124.140954435
 30
0.0
 42
0.26685055
  0
VERTEX
  5
C3A
  8
CYAN
 10
345.03511128999997
 20
123.43995717
 30
0.0
 42
0.26685055
  0
VERTEX
  5
C3B
  8
CYAN
 10
343.48671675000003
 20
119.391164975
 30
0.0
  0
VERTEX
  5
C3C
  8
CYAN
 10
372.770608385
 20
101.84748690000001
 30
0.0
  0
SEQEND
  5
C3D
  8
CYAN
  0
POLYLINE
  5
3FB
  8
CYAN
 66
     1
 10
0.0
 20
0.0
 30
0.0
  0
VERTEX
  5
C3E
  8
CYAN
 10
395.07456359000003
 20
89.962104600000004
 30
0.0
 42
0.14212411
  0
VERTEX
  5
C3F
  8
CYAN
 10
311.22566750999999
 20
150.04559234999999
 30
0.0
  0
SEQEND
  5
C40
  8
CYAN
  0
POLYLINE
  5
3FF
  8
CYAN
 66
     1
 10
0.0
 20
0.0
 30
0.0
  0
VERTEX
  5
C41
  8
CYAN
 10
409.77432623499988
 20
85.530733699999985
 30
0.0
 42
0.15031
  0
VERTEX
  5
C42
  8
CYAN
 10
311.636251765
 20
153.98453056
 30
0.0
  0
SEQEND
  5
C43
  8
CYAN
  0
POLYLINE
  5
403
  8
CYAN
 66
     1
 10
0.0
 20
0.0
 30
0.0
  0
VERTEX
  5
C44
  8
CYAN
 10
336.86373738499998
 20
148.40207355000001
 30
0.0
 42
0.20654798
  0
VERTEX
  5
C45
  8
CYAN
 10
342.52006619000002
 20
146.83752251000001
 30
0.0
 42
0.20654798
  0
VERTEX
  5
C46
  8
CYAN
 10
347.53893414999999
 20
149.879370615
 30
0.0
 42
0.26409587
  0
VERTEX
  5
C47
  8
CYAN
 10
347.82606746499999
 20
151.72382186999999
 30
0.0
 42
0.26409587
  0
VERTEX
  5
C48
  8
CYAN
 10
346.38929701500001
 20
152.91551673500001
 30
0.0
 42
-0.01275446
  0
VERTEX
  5
C49
  8
CYAN
 10
318.96057738500002
 20
162.764161495
 30
0.0
  0
SEQEND
  5
C4A
  8
CYAN
  0
POLYLINE
  5
40B
  8
CYAN
 66
     1
 10
0.0
 20
0.0
 30
0.0
  0
VERTEX
  5
C4B
  8
CYAN
 10
369.915788835
 20
131.63028775000001
 30
0.0
 42
0.26142297
  0
VERTEX
  5
C4C
  8
CYAN
 10
374.022472365
 20
131.38407190999999
 30
0.0
  0
SEQEND
  5
C4D
  8
CYAN
  0
POLYLINE
  5
40F
  8
CYAN
 66
     1
 10
0.0
 20
0.0
 30
0.0
  0
VERTEX
  5
C4E
  8
CYAN
 10
351.7671158
 20
141.80670234999999
 30
0.0
  0
VERTEX
  5
C4F
  8
CYAN
 10
350.28901206500001
 20
143.03778256499999
 30
0.0
  0
SEQEND
  5
C50
  8
CYAN
  0
POLYLINE
  5
413
  8
CYAN
 66
     1
 10
0.0
 20
0.0
 30
0.0
  0
VERTEX
  5
C51
  8
CYAN
 10
359.73245606
 20
147.8795138749999
 30
0.0
  0
VERTEX
  5
C52
  8
CYAN
 10
374.26882231500002
 20
142.545349875
 30
0.0
 42
-0.24482629
  0
VERTEX
  5
C53
  8
CYAN
 10
376.40386227499999
 20
138.68796466000001
 30
0.0
  0
SEQEND
  5
C54
  8
CYAN
  0
POLYLINE
  5
418
  8
CYAN
 66
     1
 10
0.0
 20
0.0
 30
0.0
  0
VERTEX
  5
C55
  8
CYAN
 10
389.789754485
 20
120.715225625
 30
0.0
  0
VERTEX
  5
C56
  8
CYAN
 10
380.92029113500001
 20
125.392812365
 30
0.0
  0
SEQEND
  5
C57
  8
CYAN
  0
POLYLINE
  5
41C
  8
CYAN
 66
     1
 10
0.0
 20
0.0
 30
0.0
  0
VERTEX
  5
C58
  8
CYAN
 10
379.6064207
 20
128.01911837500001
 30
0.0
  0
VERTEX
  5
C59
  8
CYAN
 10
382.31627922500002
 20
137.78517156000001
 30
0.0
  0
SEQEND
  5
C5A
  8
CYAN
  0
POLYLINE
  5
420
  8
CYAN
 66
     1
 10
0.0
 20
0.0
 30
0.0
  0
VERTEX
  5
C5B
  8
CYAN
 10
384.779785785
 20
138.52382008999999
 30
0.0
  0
VERTEX
  5
C5C
  8
CYAN
 10
403.50411530999992
 20
132.77929669
 30
0.0
 42
-0.20238871
  0
VERTEX
  5
C5D
  8
CYAN
 10
405.29713426500001
 20
131.16710704499999
 30
0.0
 42
-0.20238871
  0
VERTEX
  5
C5E
  8
CYAN
 10
405.39280330000003
 20
128.75776690999999
 30
0.0
 42
-0.0374459
  0
VERTEX
  5
C5F
  8
CYAN
 10
399.23403639999998
 20
123.09479549
 30
0.0
  0
SEQEND
  5
C60
  8
CYAN
  0
POLYLINE
  5
427
  8
CYAN
 66
     1
 10
0.0
 20
0.0
 30
0.0
  0
VERTEX
  5
C61
  8
CYAN
 10
425.48630630999997
 20
108.60492449500001
 30
0.0
 42
-0.3932088
  0
VERTEX
  5
C62
  8
CYAN
 10
422.44714326000002
 20
106.47157047
 30
0.0
 42
-0.07701319
  0
VERTEX
  5
C63
  8
CYAN
 10
403.14883409999999
 20
114.76032759
 30
0.0
 42
-0.30950339
  0
VERTEX
  5
C64
  8
CYAN
 10
402.081313615
 20
118.45356925
 30
0.0
  0
VERTEX
  5
C65
  8
CYAN
 10
413.49640118500002
 20
126.496110535
 30
0.0
  0
SEQEND
  5
C66
  8
CYAN
  0
POLYLINE
  5
42E
  8
CYAN
 66
     1
 10
0.0
 20
0.0
 30
0.0
  0
VERTEX
  5
C67
  8
CYAN
 10
427.45711196000002
 20
120.17656286499999
 30
0.0
  0
VERTEX
  5
C68
  8
CYAN
 10
425.48630630999997
 20
110.98501365
 30
0.0
  0
SEQEND
  5
C69
  8
CYAN
  0
POLYLINE
  5
432
  8
CYAN
 66
     1
 10
0.0
 20
0.0
 30
0.0
  0
VERTEX
  5
C6A
  8
CYAN
 10
416.3704919999999
 20
127.0706145
 30
0.0
  0
VERTEX
  5
C6B
  8
CYAN
 10
424.25455252499989
 20
124.936741185
 30
0.0
  0
SEQEND
  5
C6C
  8
CYAN
  0
POLYLINE
  5
436
  8
CYAN
 66
     1
 10
0.0
 20
0.0
 30
0.0
  0
VERTEX
  5
C6D
  8
CYAN
 10
436.90139286499999
 20
100.80860006
 30
0.0
 42
0.08663904
  0
VERTEX
  5
C6E
  8
CYAN
 10
455.70700111500003
 20
99.167159435000016
 30
0.0
  0
SEQEND
  5
C6F
  8
CYAN
  0
POLYLINE
  5
43A
  8
CYAN
 66
     1
 10
0.0
 20
0.0
 30
0.0
  0
VERTEX
  5
C70
  8
CYAN
 10
433.28741124999988
 20
117.63284944
 30
0.0
  0
VERTEX
  5
C71
  8
CYAN
 10
431.48083990999999
 20
105.48670609
 30
0.0
  0
SEQEND
  5
C72
  8
CYAN
  0
POLYLINE
  5
43E
  8
CYAN
 66
     1
 10
0.0
 20
0.0
 30
0.0
  0
VERTEX
  5
C73
  8
CYAN
 10
459.32014480999999
 20
103.352832775
 30
0.0
  0
VERTEX
  5
C74
  8
CYAN
 10
436.57208733499988
 20
118.45356925
 30
0.0
  0
SEQEND
  5
C75
  8
CYAN
  0
POLYLINE
  5
442
  8
CYAN
 66
     1
 10
0.0
 20
0.0
 30
0.0
  0
VERTEX
  5
C76
  8
CYAN
 10
467.32319068499987
 20
94.785654649999998
 30
0.0
 42
-0.20205904
  0
VERTEX
  5
C77
  8
CYAN
 10
400.92832578999992
 20
109.566413685
 30
0.0
 42
0.3142962
  0
VERTEX
  5
C78
  8
CYAN
 10
398.71472827000002
 20
109.280385615
 30
0.0
 42
0.3142962
  0
VERTEX
  5
C79
  8
CYAN
 10
398.21846827500002
 20
107.10425325
 30
0.0
  0
SEQEND
  5
C7A
  8
CYAN
  0
POLYLINE
  5
448
  8
CYAN
 66
     1
 10
0.0
 20
0.0
 30
0.0
  0
VERTEX
  5
C7B
  8
CYAN
 10
402.07796191499989
 20
103.575674445
 30
0.0
 42
0.16942055
  0
VERTEX
  5
C7C
  8
CYAN
 10
465.6808526399999
 20
82.639512310000001
 30
0.0
  0
VERTEX
  5
C7D
  8
CYAN
 10
476.60323828999992
 20
84.609241060000002
 30
0.0
 42
0.28760615
  0
VERTEX
  5
C7E
  8
CYAN
 10
478.620084115
 20
87.460586324999994
 30
0.0
 42
0.28760615
  0
VERTEX
  5
C7F
  8
CYAN
 10
476.9317059
 20
90.517908019999993
 30
0.0
  0
VERTEX
  5
C80
  8
CYAN
 10
470.68998341499992
 20
94.457366524999998
 30
0.0
  0
SEQEND
  5
C81
  8
CYAN
  0
POLYLINE
  5
450
  8
CYAN
 66
     1
 10
0.0
 20
0.0
 30
0.0
  0
VERTEX
  5
C82
  8
CYAN
 10
415.54178216000003
 20
77.528709269999993
 30
0.0
 42
0.22083921
  0
VERTEX
  5
C83
  8
CYAN
 10
520.24585708999984
 20
31.189691175
 30
0.0
  0
SEQEND
  5
C84
  8
CYAN
  0
POLYLINE
  5
454
  8
CYAN
 66
     1
 10
0.0
 20
0.0
 30
0.0
  0
VERTEX
  5
C85
  8
CYAN
 10
524.68016929999999
 20
31.764195144999999
 30
0.0
 42
0.23459843
  0
VERTEX
  5
C86
  8
CYAN
 10
525.94515926999986
 20
33.693417429999997
 30
0.0
 42
0.23459843
  0
VERTEX
  5
C87
  8
CYAN
 10
525.17287121499999
 20
35.867277919999999
 30
0.0
  0
VERTEX
  5
C88
  8
CYAN
 10
519.50680522499988
 20
41.36610477
 30
0.0
 42
-0.2294386
  0
VERTEX
  5
C89
  8
CYAN
 10
419.97609436499999
 20
79.006006334999995
 30
0.0
  0
SEQEND
  5
C8A
  8
CYAN
  0
POLYLINE
  5
45B
  8
CYAN
 66
     1
 10
0.0
 20
0.0
 30
0.0
  0
VERTEX
  5
C8B
  8
CYAN
 10
417.10200354999989
 20
81.139878640000006
 30
0.0
 42
0.30545694
  0
VERTEX
  5
C8C
  8
CYAN
 10
415.45426152499988
 20
81.176115329999988
 30
0.0
 42
0.30545694
  0
VERTEX
  5
C8D
  8
CYAN
 10
414.80189236500001
 20
79.662582584999996
 30
0.0
  0
SEQEND
  5
C8E
  8
CYAN
  0
POLYLINE
  5
460
  8
CYAN
 66
     1
 10
0.0
 20
0.0
 30
0.0
  0
VERTEX
  5
C8F
  8
CYAN
 10
428.47603178499992
 20
79.331177699999984
 30
0.0
 42
0.07704206
  0
VERTEX
  5
C90
  8
CYAN
 10
464.69209811500002
 20
56.516188069999998
 30
0.0
 42
0.28238626
  0
VERTEX
  5
C91
  8
CYAN
 10
467.79386878499997
 20
56.872272694999999
 30
0.0
 42
0.28238626
  0
VERTEX
  5
C92
  8
CYAN
 10
468.88089830000001
 20
59.799070325000002
 30
0.0
  0
SEQEND
  5
C93
  8
CYAN
  0
POLYLINE
  5
466
  8
CYAN
 66
     1
 10
0.0
 20
0.0
 30
0.0
  0
VERTEX
  5
C94
  8
CYAN
 10
467.23772233499989
 20
63.163504570000001
 30
0.0
  0
VERTEX
  5
C95
  8
CYAN
 10
461.40742203500002
 20
72.683861199999996
 30
0.0
 42
0.19626861
  0
VERTEX
  5
C96
  8
CYAN
 10
456.39829126000001
 20
76.540728134999995
 30
0.0
 42
-0.03864693
  0
VERTEX
  5
C97
  8
CYAN
 10
432.2542466999999
 20
81.711266859999995
 30
0.0
  0
SEQEND
  5
C98
  8
CYAN
  0
POLYLINE
  5
46C
  8
CYAN
 66
     1
 10
0.0
 20
0.0
 30
0.0
  0
VERTEX
  5
C99
  8
CYAN
 10
467.50166971499999
 20
73.583017244999994
 30
0.0
  0
VERTEX
  5
C9A
  8
CYAN
 10
473.49704123999999
 20
64.473540310000004
 30
0.0
 42
0.22240731
  0
VERTEX
  5
C9B
  8
CYAN
 10
476.80558352499997
 20
62.024862659999997
 30
0.0
 42
0.22240731
  0
VERTEX
  5
C9C
  8
CYAN
 10
480.80544527500001
 20
62.996243239999991
 30
0.0
  0
VERTEX
  5
C9D
  8
CYAN
 10
490.98877906000001
 20
69.397863194999999
 30
0.0
  0
SEQEND
  5
C9E
  8
CYAN
  0
POLYLINE
  5
473
  8
CYAN
 66
     1
 10
0.0
 20
0.0
 30
0.0
  0
VERTEX
  5
C9F
  8
CYAN
 10
468.07648727499998
 20
76.127250970000006
 30
0.0
  0
VERTEX
  5
CA0
  8
CYAN
 10
483.76165374999988
 20
80.805357000000001
 30
0.0
  0
SEQEND
  5
CA1
  8
CYAN
  0
POLYLINE
  5
477
  8
CYAN
 66
     1
 10
0.0
 20
0.0
 30
0.0
  0
VERTEX
  5
CA2
  8
CYAN
 10
493.12381800999998
 20
71.695880064999983
 30
0.0
 42
0.38555602
  0
VERTEX
  5
CA3
  8
CYAN
 10
492.30264848500002
 20
75.224458874999996
 30
0.0
  0
SEQEND
  5
CA4
  8
CYAN
  0
POLYLINE
  5
47B
  8
CYAN
 66
     1
 10
0.0
 20
0.0
 30
0.0
  0
VERTEX
  5
CA5
  8
CYAN
 10
500.45400809
 20
65.083886495000002
 30
0.0
  0
VERTEX
  5
CA6
  8
CYAN
 10
513.10084843499988
 20
52.034951049999997
 30
0.0
 42
-0.34582059
  0
VERTEX
  5
CA7
  8
CYAN
 10
511.13004278499989
 20
47.685133145000002
 30
0.0
 42
-0.08144652
  0
VERTEX
  5
CA8
  8
CYAN
 10
482.55168601499992
 20
50.065222300000002
 30
0.0
  0
SEQEND
  5
CA9
  8
CYAN
  0
POLYLINE
  5
481
  8
CYAN
 66
     1
 10
0.0
 20
0.0
 30
0.0
  0
VERTEX
  5
CAA
  8
CYAN
 10
468.34294843499993
 20
31.82497042
 30
0.0
 42
0.07667446
  0
VERTEX
  5
CAB
  8
CYAN
 10
498.31729329000001
 20
16.23180125
 30
0.0
  0
SEQEND
  5
CAC
  8
CYAN
  0
POLYLINE
  5
485
  8
CYAN
 66
     1
 10
0.0
 20
0.0
 30
0.0
  0
VERTEX
  5
CAD
  8
CYAN
 10
471.54550786499988
 20
33.712107594999999
 30
0.0
 42
0.069027
  0
VERTEX
  5
CAE
  8
CYAN
 10
498.31729329000001
 20
26.818575249999999
 30
0.0
 42
-0.18719413
  0
VERTEX
  5
CAF
  8
CYAN
 10
500.61656655000002
 20
23.781909845000001
 30
0.0
  0
VERTEX
  5
CB0
  8
CYAN
 10
500.37021558999999
 20
17.216665625000001
 30
0.0
  0
SEQEND
  5
CB1
  8
CYAN
  0
POLYLINE
  5
48B
  8
CYAN
 66
     1
 10
0.0
 20
0.0
 30
0.0
  0
VERTEX
  5
CB2
  8
CYAN
 10
526.19765651499995
 20
7.9227857000000004
 30
0.0
 42
0.4197152
  0
VERTEX
  5
CB3
  8
CYAN
 10
531.54949962499995
 20
22.3394154
 30
0.0
  0
SEQEND
  5
CB4
  8
CYAN
  0
POLYLINE
  5
48F
  8
CYAN
 66
     1
 10
0.0
 20
0.0
 30
0.0
  0
VERTEX
  5
CB5
  8
CYAN
 10
520.61370717499994
 20
8.1554969350000004
 30
0.0
  0
VERTEX
  5
CB6
  8
CYAN
 10
508.51403286499988
 20
11.875749825
 30
0.0
  0
SEQEND
  5
CB7
  8
CYAN
  0
POLYLINE
  5
493
  8
CYAN
 66
     1
 10
0.0
 20
0.0
 30
0.0
  0
VERTEX
  5
CB8
  8
CYAN
 10
511.07390181
 20
25.12986497
 30
0.0
  0
VERTEX
  5
CB9
  8
CYAN
 10
528.75752445000001
 20
23.96735142
 30
0.0
  0
SEQEND
  5
CBA
  8
CYAN
  0
POLYLINE
  5
497
  8
CYAN
 66
     1
 10
0.0
 20
0.0
 30
0.0
  0
VERTEX
  5
CBB
  8
CYAN
 10
291.69776589000003
 20
195.31092097499999
 30
0.0
  0
VERTEX
  5
CBC
  8
CYAN
 10
291.83937622500002
 20
188.65217703499999
 30
0.0
 42
0.14263903
  0
VERTEX
  5
CBD
  8
CYAN
 10
300.77084602500003
 20
186.5271347
 30
0.0
 42
0.10719547
  0
VERTEX
  5
CBE
  8
CYAN
 10
307.00837787500001
 20
191.76883756000001
 30
0.0
  0
SEQEND
  5
CBF
  8
CYAN
  0
POLYLINE
  5
49D
  8
CYAN
 66
     1
 10
0.0
 20
0.0
 30
0.0
  0
VERTEX
  5
CC0
  8
CYAN
 10
388.48845292499999
 20
169.36316975
 30
0.0
 42
0.03371772
  0
VERTEX
  5
CC1
  8
CYAN
 10
375.58855822499999
 20
178.99676524
 30
0.0
  0
SEQEND
  5
CC2
  8
CYAN
  0
POLYLINE
  5
4A1
  8
CYAN
 66
     1
 10
0.0
 20
0.0
 30
0.0
  0
VERTEX
  5
CC3
  8
CYAN
 10
389.764616735
 20
164.97127610999999
 30
0.0
 42
0.26825136
  0
VERTEX
  5
CC4
  8
CYAN
 10
390.90828993000002
 20
166.29498991
 30
0.0
 42
0.26825136
  0
VERTEX
  5
CC5
  8
CYAN
 10
390.33189397500001
 20
167.94664796000001
 30
0.0
  0
SEQEND
  5
CC6
  8
CYAN
  0
POLYLINE
  5
4A6
  8
CYAN
 66
     1
 10
0.0
 20
0.0
 30
0.0
  0
VERTEX
  5
CC7
  8
CYAN
 10
395.860540265
 20
172.19673262500001
 30
0.0
 42
0.16538136
  0
VERTEX
  5
CC8
  8
CYAN
 10
402.09807211499992
 20
169.646785685
 30
0.0
 42
0.0712041
  0
VERTEX
  5
CC9
  8
CYAN
 10
436.26372992500001
 20
173.89687035
 30
0.0
 42
0.30073852
  0
VERTEX
  5
CCA
  8
CYAN
 10
437.5055291299999
 20
175.62083043999999
 30
0.0
 42
0.30073852
  0
VERTEX
  5
CCB
  8
CYAN
 10
436.40534025999989
 20
177.43843548500001
 30
0.0
 42
-0.08316618
  0
VERTEX
  5
CCC
  8
CYAN
 10
382.81819731000002
 20
188.91397666500001
 30
0.0
 42
0.33770767
  0
VERTEX
  5
CCD
  8
CYAN
 10
379.72313702500003
 20
187.35327161999999
 30
0.0
 42
0.33770767
  0
VERTEX
  5
CCE
  8
CYAN
 10
380.40831795000003
 20
183.95537146000001
 30
0.0
  0
SEQEND
  5
CCF
  8
CYAN
  0
POLYLINE
  5
4B0
  8
CYAN
 66
     1
 10
0.0
 20
0.0
 30
0.0
  0
VERTEX
  5
CD0
  8
CYAN
 10
387.21312704000002
 20
165.11308407499999
 30
0.0
 42
0.06852291
  0
VERTEX
  5
CD1
  8
CYAN
 10
363.53832249999999
 20
173.755062385
 30
0.0
 42
-0.19305594
  0
VERTEX
  5
CD2
  8
CYAN
 10
360.84438555999998
 20
176.02191368999999
 30
0.0
  0
VERTEX
  5
CD3
  8
CYAN
 10
366.37303185000002
 20
181.40542350999999
 30
0.0
 42
-0.21024424
  0
VERTEX
  5
CD4
  8
CYAN
 10
371.90251505999998
 20
180.69690296499999
 30
0.0
  0
SEQEND
  5
CD5
  8
CYAN
  0
POLYLINE
  5
4B7
  8
CYAN
 66
     1
 10
0.0
 20
0.0
 30
0.0
  0
VERTEX
  5
CD6
  8
CYAN
 10
384.94485801500002
 20
205.06450813500001
 30
0.0
 42
0.1059813
  0
VERTEX
  5
CD7
  8
CYAN
 10
368.21647188999998
 20
207.189550465
 30
0.0
 42
0.26048258
  0
VERTEX
  5
CD8
  8
CYAN
 10
366.20295846499999
 20
206.08369316
 30
0.0
 42
0.26048258
  0
VERTEX
  5
CD9
  8
CYAN
 10
366.08981218999998
 20
203.78927501499999
 30
0.0
 42
0.09221194
  0
VERTEX
  5
CDA
  8
CYAN
 10
445.05275247499998
 20
181.83032811499999
 30
0.0
 42
0.31813437
  0
VERTEX
  5
CDB
  8
CYAN
 10
447.53393727000002
 20
184.433495755
 30
0.0
 42
0.31813437
  0
VERTEX
  5
CDC
  8
CYAN
 10
445.90324836500002
 20
187.63874354999999
 30
0.0
 42
-0.09921435
  0
VERTEX
  5
CDD
  8
CYAN
 10
390.615113635
 20
202.797657835
 30
0.0
  0
SEQEND
  5
CDE
  8
CYAN
  0
POLYLINE
  5
4C1
  8
CYAN
 66
     1
 10
0.0
 20
0.0
 30
0.0
  0
VERTEX
  5
CDF
  8
CYAN
 10
455.41205050999997
 20
193.34898361500001
 30
0.0
 42
0.00443416
  0
VERTEX
  5
CE0
  8
CYAN
 10
472.43706308999998
 20
202.1249785
 30
0.0
 42
0.37120392
  0
VERTEX
  5
CE1
  8
CYAN
 10
472.71945686999987
 20
205.624464975
 30
0.0
 42
0.37120392
  0
VERTEX
  5
CE2
  8
CYAN
 10
469.30069973500002
 20
206.42337140999999
 30
0.0
  0
SEQEND
  5
CE3
  8
CYAN
  0
POLYLINE
  5
4C7
  8
CYAN
 66
     1
 10
0.0
 20
0.0
 30
0.0
  0
VERTEX
  5
CE4
  8
CYAN
 10
443.94166089999999
 20
205.79640386
 30
0.0
 42
0.20727355
  0
VERTEX
  5
CE5
  8
CYAN
 10
442.37621638500002
 20
203.65616216500001
 30
0.0
 42
0.20727355
  0
VERTEX
  5
CE6
  8
CYAN
 10
442.86659908999991
 20
201.05025044999999
 30
0.0
  0
SEQEND
  5
CE7
  8
CYAN
  0
POLYLINE
  5
4CC
  8
CYAN
 66
     1
 10
0.0
 20
0.0
 30
0.0
  0
VERTEX
  5
CE8
  8
CYAN
 10
444.47960976000002
 20
196.66251215
 30
0.0
 42
0.33655764
  0
VERTEX
  5
CE9
  8
CYAN
 10
450.03506964999991
 20
193.16977556000001
 30
0.0
  0
SEQEND
  5
CEA
  8
CYAN
  0
POLYLINE
  5
4D0
  8
CYAN
 66
     1
 10
0.0
 20
0.0
 30
0.0
  0
VERTEX
  5
CEB
  8
CYAN
 10
512.00902913499999
 20
203.74720028999999
 30
0.0
 42
-0.2538056
  0
VERTEX
  5
CEC
  8
CYAN
 10
513.41983824500005
 20
201.78861097500001
 30
0.0
 42
-0.2538056
  0
VERTEX
  5
CED
  8
CYAN
 10
512.54697899999985
 20
199.53815076000001
 30
0.0
 42
0.06825163
  0
VERTEX
  5
CEE
  8
CYAN
 10
488.35265894000003
 20
195.95606978500001
 30
0.0
 42
0.06498651
  0
VERTEX
  5
CEF
  8
CYAN
 10
456.21813738499992
 20
182.78194875
 30
0.0
 42
-0.37107599
  0
VERTEX
  5
CF0
  8
CYAN
 10
454.31205928999998
 20
184.18143245499999
 30
0.0
 42
-0.37107599
  0
VERTEX
  5
CF1
  8
CYAN
 10
455.41205050999997
 20
186.27468533999999
 30
0.0
  0
VERTEX
  5
CF2
  8
CYAN
 10
483.41125134499998
 20
201.770285855
 30
0.0
  0
SEQEND
  5
CF3
  8
CYAN
  0
POLYLINE
  5
4DA
  8
CYAN
 66
     1
 10
0.0
 20
0.0
 30
0.0
  0
VERTEX
  5
CF4
  8
CYAN
 10
402.54385023499998
 20
158.63043143499999
 30
0.0
 42
-0.272922
  0
VERTEX
  5
CF5
  8
CYAN
 10
401.14182191999998
 20
160.70031116000001
 30
0.0
 42
-0.272922
  0
VERTEX
  5
CF6
  8
CYAN
 10
402.27487530000002
 20
162.92882535000001
 30
0.0
 42
0.12109699
  0
VERTEX
  5
CF7
  8
CYAN
 10
471.81196902499988
 20
183.88368803500001
 30
0.0
 42
-0.23054239
  0
VERTEX
  5
CF8
  8
CYAN
 10
473.49054979999988
 20
184.97012204500001
 30
0.0
 42
-0.23054239
  0
VERTEX
  5
CF9
  8
CYAN
 10
475.38091661999988
 20
184.31859648
 30
0.0
 42
-0.23054239
  0
VERTEX
  5
CFA
  8
CYAN
 10
476.03367252999999
 20
182.428654155
 30
0.0
 42
-0.23054239
  0
VERTEX
  5
CFB
  8
CYAN
 10
474.9483313749999
 20
180.74936654999999
 30
0.0
 42
-0.10015556
  0
VERTEX
  5
CFC
  8
CYAN
 10
420.28612762500001
 20
154.42138291000001
 30
0.0
  0
SEQEND
  5
CFD
  8
CYAN
  0
POLYLINE
  5
4E5
  8
CYAN
 66
     1
 10
0.0
 20
0.0
 30
0.0
  0
VERTEX
  5
CFE
  8
CYAN
 10
435.62355321000001
 20
152.45165416
 30
0.0
 42
0.35959938
  0
VERTEX
  5
CFF
  8
CYAN
 10
433.89873198499998
 20
150.63742526499999
 30
0.0
 42
0.35959938
  0
VERTEX
  5
D00
  8
CYAN
 10
435.354579285
 20
148.60102074
 30
0.0
 42
0.07760588
  0
VERTEX
  5
D01
  8
CYAN
 10
455.96424510000003
 20
146.54142730999999
 30
0.0
 42
0.26929713
  0
VERTEX
  5
D02
  8
CYAN
 10
457.997191945
 20
147.87537037999999
 30
0.0
 42
0.26929713
  0
VERTEX
  5
D03
  8
CYAN
 10
457.84623069999992
 20
150.30219704999999
 30
0.0
  0
SEQEND
  5
D04
  8
CYAN
  0
POLYLINE
  5
4ED
  8
CYAN
 66
     1
 10
0.0
 20
0.0
 30
0.0
  0
VERTEX
  5
D05
  8
CYAN
 10
449.78117736500002
 20
155.94387146
 30
0.0
 42
0.24130899
  0
VERTEX
  5
D06
  8
CYAN
 10
445.30077928499998
 20
156.12307851
 30
0.0
  0
SEQEND
  5
D07
  8
CYAN
  0
POLYLINE
  5
4F1
  8
CYAN
 66
     1
 10
0.0
 20
0.0
 30
0.0
  0
VERTEX
  5
D08
  8
CYAN
 10
478.09810153500001
 20
155.138214135
 30
0.0
 42
-0.3672645
  0
VERTEX
  5
D09
  8
CYAN
 10
477.29117673500002
 20
152.09323803999999
 30
0.0
 42
-0.12964597
  0
VERTEX
  5
D0A
  8
CYAN
 10
470.83997299999999
 20
150.03364461000001
 30
0.0
 42
-0.2052143
  0
VERTEX
  5
D0B
  8
CYAN
 10
466.53805294
 20
150.571268785
 30
0.0
  0
SEQEND
  5
D0C
  8
CYAN
  0
POLYLINE
  5
4F7
  8
CYAN
 66
     1
 10
0.0
 20
0.0
 30
0.0
  0
VERTEX
  5
D0D
  8
CYAN
 10
472.09435076
 20
167.0485305
 30
0.0
 42
0.34038786
  0
VERTEX
  5
D0E
  8
CYAN
 10
469.22696233499988
 20
168.39129069000001
 30
0.0
  0
SEQEND
  5
D0F
  8
CYAN
  0
POLYLINE
  5
4FB
  8
CYAN
 66
     1
 10
0.0
 20
0.0
 30
0.0
  0
VERTEX
  5
D10
  8
CYAN
 10
458.29452158499993
 20
162.83948096500001
 30
0.0
 42
0.25645386
  0
VERTEX
  5
D11
  8
CYAN
 10
456.559312535
 20
160.52902313999999
 30
0.0
 42
0.25645386
  0
VERTEX
  5
D12
  8
CYAN
 10
457.57725576500002
 20
157.82477511499999
 30
0.0
  0
SEQEND
  5
D13
  8
CYAN
  0
POLYLINE
  5
500
  8
CYAN
 66
     1
 10
0.0
 20
0.0
 30
0.0
  0
VERTEX
  5
D14
  8
CYAN
 10
483.23375898499989
 20
159.378949535
 30
0.0
 42
0.23144215
  0
VERTEX
  5
D15
  8
CYAN
 10
486.28662309999987
 20
157.21994570999999
 30
0.0
 42
0.23144215
  0
VERTEX
  5
D16
  8
CYAN
 10
489.86511760000002
 20
158.304221485
 30
0.0
  0
VERTEX
  5
D17
  8
CYAN
 10
498.37762388999988
 20
168.602704915
 30
0.0
 42
0.25651587
  0
VERTEX
  5
D18
  8
CYAN
 10
499.0492721999999
 20
171.20599052
 30
0.0
 42
0.25651587
  0
VERTEX
  5
D19
  8
CYAN
 10
497.21290411000001
 20
173.169650265
 30
0.0
  0
SEQEND
  5
D1A
  8
CYAN
  0
POLYLINE
  5
508
  8
CYAN
 66
     1
 10
0.0
 20
0.0
 30
0.0
  0
VERTEX
  5
D1B
  8
CYAN
 10
477.70591160499998
 20
174.33007151999999
 30
0.0
 42
0.35402716
  0
VERTEX
  5
D1C
  8
CYAN
 10
477.0410879399999
 20
170.581952075
 30
0.0
  0
SEQEND
  5
D1D
  8
CYAN
  0
POLYLINE
  5
50C
  8
CYAN
 66
     1
 10
0.0
 20
0.0
 30
0.0
  0
VERTEX
  5
D1E
  8
CYAN
 10
484.299348915
 20
177.44151689
 30
0.0
 42
0.26447064
  0
VERTEX
  5
D1F
  8
CYAN
 10
480.38911009999993
 20
176.65852022999999
 30
0.0
  0
SEQEND
  5
D20
  8
CYAN
  0
POLYLINE
  5
510
  8
CYAN
 66
     1
 10
0.0
 20
0.0
 30
0.0
  0
VERTEX
  5
D21
  8
CYAN
 10
486.54943829000001
 20
189.01994342500001
 30
0.0
 42
0.35392015
  0
VERTEX
  5
D22
  8
CYAN
 10
483.86150694499992
 20
186.15660503500001
 30
0.0
 42
0.35392015
  0
VERTEX
  5
D23
  8
CYAN
 10
486.10114741000001
 20
182.93050952499991
 30
0.0
  0
VERTEX
  5
D24
  8
CYAN
 10
499.8113176
 20
179.438292225
 30
0.0
 42
0.32713712
  0
VERTEX
  5
D25
  8
CYAN
 10
503.57528779
 20
181.22933221
 30
0.0
  0
SEQEND
  5
D26
  8
CYAN
  0
POLYLINE
  5
517
  8
CYAN
 66
     1
 10
0.0
 20
0.0
 30
0.0
  0
VERTEX
  5
D27
  8
CYAN
 10
504.50643002999988
 20
186.18881862999999
 30
0.0
 42
0.0371488
  0
VERTEX
  5
D28
  8
CYAN
 10
504.58954477999993
 20
186.93232247
 30
0.0
  0
SEQEND
  5
D29
  8
CYAN
  0
POLYLINE
  5
51B
  8
CYAN
 66
     1
 10
0.0
 20
0.0
 30
0.0
  0
VERTEX
  5
D2A
  8
CYAN
 10
504.69552828499991
 20
189.790618295
 30
0.0
 42
0.35902918
  0
VERTEX
  5
D2B
  8
CYAN
 10
503.13818490999989
 20
191.82932840500001
 30
0.0
  0
SEQEND
  5
D2C
  8
CYAN
  0
POLYLINE
  5
51F
  8
CYAN
 66
     1
 10
0.0
 20
0.0
 30
0.0
  0
VERTEX
  5
D2D
  8
CYAN
 10
499.8666437199999
 20
192.59214703000001
 30
0.0
 42
0.12812956
  0
VERTEX
  5
D2E
  8
CYAN
 10
498.85009795500002
 20
192.565919095
 30
0.0
  0
SEQEND
  5
D2F
  8
CYAN
  0
POLYLINE
  5
523
  8
CYAN
 66
     1
 10
0.0
 20
0.0
 30
0.0
 70
     1
  0
VERTEX
  5
D30
  8
CYAN
 10
362.47247887499998
 20
359.44191950999999
 30
0.0
  0
VERTEX
  5
D31
  8
CYAN
 10
361.705774475
 20
365.95833619000001
 30
0.0
 42
-0.09454264
  0
VERTEX
  5
D32
  8
CYAN
 10
374.17162301500002
 20
417.13233278500002
 30
0.0
 42
-0.33315167
  0
VERTEX
  5
D33
  8
CYAN
 10
380.88426035999998
 20
420.390800265
 30
0.0
 42
-0.06863355
  0
VERTEX
  5
D34
  8
CYAN
 10
407.54292590999989
 20
407.35744861500001
 30
0.0
 42
0.08536109
  0
VERTEX
  5
D35
  8
CYAN
 10
417.89971016499999
 20
400.64935784999989
 30
0.0
 42
0.15405512
  0
VERTEX
  5
D36
  8
CYAN
 10
453.571962165
 20
420.96582453499991
 30
0.0
  0
VERTEX
  5
D37
  8
CYAN
 10
456.06479609999991
 20
428.82396282500002
 30
0.0
  0
VERTEX
  5
D38
  8
CYAN
 10
457.40799391000002
 20
435.72372767500002
 30
0.0
  0
VERTEX
  5
D39
  8
CYAN
 10
459.70894301499987
 20
435.34037849999999
 30
0.0
  0
VERTEX
  5
D3A
  8
CYAN
 10
460.66837016499989
 20
433.42363262499998
 30
0.0
 42
-0.04993023
  0
VERTEX
  5
D3B
  8
CYAN
 10
460.09271367500003
 20
421.73200258499992
 30
0.0
  0
VERTEX
  5
D3C
  8
CYAN
 10
457.982812475
 20
417.51568195999988
 30
0.0
 42
-0.1373376
  0
VERTEX
  5
D3D
  8
CYAN
 10
421.54301915999991
 20
392.79121855
 30
0.0
 42
-0.23524199
  0
VERTEX
  5
D3E
  8
CYAN
 10
411.76189038500002
 20
392.79121855
 30
0.0
 42
0.09743647
  0
VERTEX
  5
D3F
  8
CYAN
 10
385.87076716000001
 20
407.35744861500001
 30
0.0
  0
VERTEX
  5
D40
  8
CYAN
 10
381.84368751
 20
407.16577352500002
 30
0.0
 42
0.17012226
  0
VERTEX
  5
D41
  8
CYAN
 10
378.39142642500002
 20
385.50810452500002
 30
0.0
  0
VERTEX
  5
D42
  8
CYAN
 10
386.82935638499998
 20
380.33341045999998
 30
0.0
 42
-0.34646856
  0
VERTEX
  5
D43
  8
CYAN
 10
383.95275178999998
 20
365.95833619000001
 30
0.0
  0
VERTEX
  5
D44
  8
CYAN
 10
382.61039190999998
 20
357.71736801499998
 30
0.0
 42
-0.33685199
  0
VERTEX
  5
D45
  8
CYAN
 10
377.04822861500003
 20
353.30885301000001
 30
0.0
  0
VERTEX
  5
D46
  8
CYAN
 10
373.40491962499999
 20
353.30885301000001
 30
0.0
  0
VERTEX
  5
D47
  8
CYAN
 10
373.59680444999998
 20
366.150010275
 30
0.0
  0
VERTEX
  5
D48
  8
CYAN
 10
370.57146666
 20
366.150010275
 30
0.0
  0
VERTEX
  5
D49
  8
CYAN
 10
370.38267338499998
 20
353.51576301
 30
0.0
  0
VERTEX
  5
D4A
  8
CYAN
 10
366.88416711000002
 20
353.88387626500003
 30
0.0
 42
-0.16651817
  0
VERTEX
  5
D4B
  8
CYAN
 10
362.47247887499998
 20
359.44191950999999
 30
0.0
  0
SEQEND
  5
D4C
  8
CYAN
  0
POLYLINE
  5
541
  8
CYAN
 66
     1
 10
0.0
 20
0.0
 30
0.0
 70
     1
  0
VERTEX
  5
D4D
  8
CYAN
 10
523.59253962499986
 20
263.45554871500002
 30
0.0
 42
0.17830926
  0
VERTEX
  5
D4E
  8
CYAN
 10
531.81428493500005
 20
263.93343721000002
 30
0.0
  0
VERTEX
  5
D4F
  8
CYAN
 10
533.53538792500001
 20
265.65331306000002
 30
0.0
  0
VERTEX
  5
D50
  8
CYAN
 10
524.93070988500006
 20
274.44333284999999
 30
0.0
  0
VERTEX
  5
D51
  8
CYAN
 10
527.12055881000003
 20
276.53063023999999
 30
0.0
  0
VERTEX
  5
D52
  8
CYAN
 10
535.39345081500005
 20
268.07954354999998
 30
0.0
  0
VERTEX
  5
D53
  8
CYAN
 10
538.411288625
 20
270.71736673999999
 30
0.0
  0
VERTEX
  5
D54
  8
CYAN
 10
539.08079271500003
 20
274.92122133999999
 30
0.0
 42
0.13485845
  0
VERTEX
  5
D55
  8
CYAN
 10
532.72350745499989
 20
283.26301601
 30
0.0
  0
VERTEX
  5
D56
  8
CYAN
 10
531.78076793499986
 20
289.53627793499999
 30
0.0
 42
0.17339692
  0
VERTEX
  5
D57
  8
CYAN
 10
523.43584664000002
 20
294.64760026499999
 30
0.0
  0
VERTEX
  5
D58
  8
CYAN
 10
515.09176428499995
 20
292.22647496500002
 30
0.0
  0
VERTEX
  5
D59
  8
CYAN
 10
511.86155332499987
 20
292.76461843499999
 30
0.0
  0
VERTEX
  5
D5A
  8
CYAN
 10
500.82437195
 20
304.86972463500001
 30
0.0
 42
-0.20144426
  0
VERTEX
  5
D5B
  8
CYAN
 10
500.82437195
 20
310.51919043499998
 30
0.0
 42
-0.12407804
  0
VERTEX
  5
D5C
  8
CYAN
 10
527.20484538999995
 20
320.47224407499999
 30
0.0
  0
VERTEX
  5
D5D
  8
CYAN
 10
533.12731743999996
 20
323.16244110999997
 30
0.0
  0
VERTEX
  5
D5E
  8
CYAN
 10
535.01097788499999
 20
325.04542293999998
 30
0.0
 42
0.00004109
  0
VERTEX
  5
D5F
  8
CYAN
 10
540.39466315000004
 20
343.87628187000001
 30
0.0
 42
0.08631363
  0
VERTEX
  5
D60
  8
CYAN
 10
539.85671328499996
 20
374.81224701000002
 30
0.0
  0
VERTEX
  5
D61
  8
CYAN
 10
536.62650232500005
 20
378.04058751000002
 30
0.0
 42
0.13198197
  0
VERTEX
  5
D62
  8
CYAN
 10
529.62729362499999
 20
385.30344411499999
 30
0.0
  0
VERTEX
  5
D63
  8
CYAN
 10
528.28158203999988
 20
385.03489167499998
 30
0.0
  0
VERTEX
  5
D64
  8
CYAN
 10
526.39708266499986
 20
383.95860474
 30
0.0
  0
VERTEX
  5
D65
  8
CYAN
 10
528.17265179000003
 20
381.20971061
 30
0.0
  0
VERTEX
  5
D66
  8
CYAN
 10
531.80590568499997
 20
375.85892524000002
 30
0.0
 42
-0.08546598
  0
VERTEX
  5
D67
  8
CYAN
 10
535.05622583499996
 20
369.17057361000002
 30
0.0
 42
-0.11726325
  0
VERTEX
  5
D68
  8
CYAN
 10
527.95562820999987
 20
330.87305721000001
 30
0.0
  0
VERTEX
  5
D69
  8
CYAN
 10
524.80083150999985
 20
329.34433514
 30
0.0
 42
0.09013299
  0
VERTEX
  5
D6A
  8
CYAN
 10
488.85206325000001
 20
315.58584057500002
 30
0.0
 42
0.22373064
  0
VERTEX
  5
D6B
  8
CYAN
 10
487.51305506499989
 20
308.41960045000002
 30
0.0
 42
0.11939769
  0
VERTEX
  5
D6C
  8
CYAN
 10
523.59253962499986
 20
263.45554871500002
 30
0.0
  0
SEQEND
  5
D6D
  8
CYAN
  0
POLYLINE
  5
563
  8
CYAN
 66
     1
 10
0.0
 20
0.0
 30
0.0
 70
     1
  0
VERTEX
  5
D6E
  8
CYAN
 10
284.00642912500001
 20
260.77366337500001
 30
0.0
 42
-0.02567393
  0
VERTEX
  5
D6F
  8
CYAN
 10
296.80325905000001
 20
263.09921077500002
 30
0.0
  0
VERTEX
  5
D70
  8
CYAN
 10
301.68921383999998
 20
264.72662649
 30
0.0
  0
VERTEX
  5
D71
  8
CYAN
 10
319.14073126
 20
271.005138015
 30
0.0
 42
0.00487921
  0
VERTEX
  5
D72
  8
CYAN
 10
429.78990220999998
 20
310.33426815000001
 30
0.0
 42
0.07506705
  0
VERTEX
  5
D73
  8
CYAN
 10
492.69060977499993
 20
355.808413535
 30
0.0
 42
0.05936632
  0
VERTEX
  5
D74
  8
CYAN
 10
538.29565396500004
 20
411.8469973249999
 30
0.0
 42
0.31940173
  0
VERTEX
  5
D75
  8
CYAN
 10
537.45263376000003
 20
432.58299003500002
 30
0.0
 42
0.31940173
  0
VERTEX
  5
D76
  8
CYAN
 10
517.58711300000004
 20
438.58741853999987
 30
0.0
 42
0.07169515
  0
VERTEX
  5
D77
  8
CYAN
 10
471.28491218499988
 20
417.42737615999999
 30
0.0
 42
0.0637406
  0
VERTEX
  5
D78
  8
CYAN
 10
410.71029148500003
 20
366.681400935
 30
0.0
  0
VERTEX
  5
D79
  8
CYAN
 10
321.23471188500002
 20
314.95211920999998
 30
0.0
 42
0.14578864
  0
VERTEX
  5
D7A
  8
CYAN
 10
305.64506986499998
 20
302.62832668499999
 30
0.0
 42
-0.25252579
  0
VERTEX
  5
D7B
  8
CYAN
 10
301.85526077999998
 20
291.27791138499998
 30
0.0
 42
-0.25252579
  0
VERTEX
  5
D7C
  8
CYAN
 10
290.28837200999999
 20
288.21169799
 30
0.0
 42
0.11534477
  0
VERTEX
  5
D7D
  8
CYAN
 10
281.67950433999999
 20
291.23485778499997
 30
0.0
 42
0.36200514
  0
VERTEX
  5
D7E
  8
CYAN
 10
275.86261084
 20
285.42176771499999
 30
0.0
  0
VERTEX
  5
D7F
  8
CYAN
 10
276.09471707500001
 20
280.07357881000001
 30
0.0
  0
VERTEX
  5
D80
  8
CYAN
 10
277.95659247499998
 20
272.63255373499999
 30
0.0
  0
VERTEX
  5
D81
  8
CYAN
 10
289.35743430999997
 20
274.26048874000003
 30
0.0
  0
VERTEX
  5
D82
  8
CYAN
 10
289.75793220999998
 20
271.26199379000002
 30
0.0
  0
VERTEX
  5
D83
  8
CYAN
 10
278.55712253500002
 20
269.66262083499998
 30
0.0
  0
VERTEX
  5
D84
  8
CYAN
 10
278.65458601500001
 20
267.05217389000001
 30
0.0
  0
VERTEX
  5
D85
  8
CYAN
 10
279.11963539999999
 20
264.26172533499999
 30
0.0
  0
VERTEX
  5
D86
  8
CYAN
 10
279.54171866500002
 20
263.47850848500002
 30
0.0
 42
0.23799862
  0
VERTEX
  5
D87
  8
CYAN
 10
283.266913015
 20
260.87931114999998
 30
0.0
  0
VERTEX
  5
D88
  8
CYAN
 10
284.00642912500001
 20
260.77366337500001
 30
0.0
  0
SEQEND
  5
D89
  8
CYAN
  0
POLYLINE
  5
580
  8
CYAN
 66
     1
 10
0.0
 20
0.0
 30
0.0
 70
     1
  0
VERTEX
  5
D8A
  8
CYAN
 10
148.55153652000001
 20
428.32893266500002
 30
0.0
 42
0.27821112
  0
VERTEX
  5
D8B
  8
CYAN
 10
149.25120591000001
 20
389.90415351000001
 30
0.0
 42
0.30057501
  0
VERTEX
  5
D8C
  8
CYAN
 10
188.679886775
 20
373.13704233999999
 30
0.0
 42
0.23527675
  0
VERTEX
  5
D8D
  8
CYAN
 10
219.02040586999999
 20
395.91203441499999
 30
0.0
 42
0.08165211
  0
VERTEX
  5
D8E
  8
CYAN
 10
219.30027282
 20
402.33962601000002
 30
0.0
 42
0.13575831
  0
VERTEX
  5
D8F
  8
CYAN
 10
201.12394927
 20
423.01918344000001
 30
0.0
 42
-0.03203418
  0
VERTEX
  5
D90
  8
CYAN
 10
194.831951285
 20
432.1016501499999
 30
0.0
 42
0.16039912
  0
VERTEX
  5
D91
  8
CYAN
 10
185.74378849999999
 20
435.45465594000001
 30
0.0
 42
0.00384923
  0
VERTEX
  5
D92
  8
CYAN
 10
176.65562672499999
 20
434.47706366499989
 30
0.0
 42
-0.06557939
  0
VERTEX
  5
D93
  8
CYAN
 10
166.72786107499999
 20
436.29303771500003
 30
0.0
  0
VERTEX
  5
D94
  8
CYAN
 10
159.03820016
 20
436.85195889999989
 30
0.0
 42
0.26673715
  0
VERTEX
  5
D95
  8
CYAN
 10
150.81097153499999
 20
431.70121879999988
 30
0.0
  0
VERTEX
  5
D96
  8
CYAN
 10
178.021680425
 20
419.63641971499999
 30
0.0
  0
VERTEX
  5
D97
  8
CYAN
 10
176.79556020000001
 20
416.87105244000003
 30
0.0
  0
VERTEX
  5
D98
  8
CYAN
 10
149.06453819999999
 20
429.16238268500001
 30
0.0
  0
VERTEX
  5
D99
  8
CYAN
 10
148.55153652000001
 20
428.32893266500002
 30
0.0
  0
SEQEND
  5
D9A
  8
CYAN
  0
POLYLINE
  5
592
  8
CYAN
 66
     1
 10
0.0
 20
0.0
 30
0.0
 70
     1
  0
VERTEX
  5
D9B
  8
CYAN
 10
298.66010589000001
 20
179.85904149000001
 30
0.0
  0
VERTEX
  5
D9C
  8
CYAN
 10
291.28885748499999
 20
181.84227586
 30
0.0
 42
-0.36670501
  0
VERTEX
  5
D9D
  8
CYAN
 10
279.26476776999999
 20
199.89569058000001
 30
0.0
 42
-0.36670501
  0
VERTEX
  5
D9E
  8
CYAN
 10
295.099752475
 20
214.719919925
 30
0.0
 42
-0.00175981
  0
VERTEX
  5
D9F
  8
CYAN
 10
452.16172934999992
 20
212.57981409999999
 30
0.0
 42
-0.01927182
  0
VERTEX
  5
DA0
  8
CYAN
 10
501.56845136499999
 20
210.15712991500001
 30
0.0
 42
0.05409093
  0
VERTEX
  5
DA1
  8
CYAN
 10
533.60744947499995
 20
209.73222530999999
 30
0.0
  0
VERTEX
  5
DA2
  8
CYAN
 10
539.98659166000004
 20
209.16551273499999
 30
0.0
  0
VERTEX
  5
DA3
  8
CYAN
 10
541.97164203499995
 20
206.19014189000001
 30
0.0
  0
VERTEX
  5
DA4
  8
CYAN
 10
542.39730995000002
 20
201.232054965
 30
0.0
  0
VERTEX
  5
DA5
  8
CYAN
 10
530.34707321500002
 20
200.09862981500001
 30
0.0
  0
VERTEX
  5
DA6
  8
CYAN
 10
530.72613293999996
 20
197.095932135
 30
0.0
  0
VERTEX
  5
DA7
  8
CYAN
 10
542.68058607499995
 20
198.22034883500001
 30
0.0
  0
VERTEX
  5
DA8
  8
CYAN
 10
543.055087125
 20
194.19817573500001
 30
0.0
 42
-0.03959939
  0
VERTEX
  5
DA9
  8
CYAN
 10
543.53102550000006
 20
183.66448242000001
 30
0.0
 42
-0.22226842
  0
VERTEX
  5
DAA
  8
CYAN
 10
539.09057604500003
 20
178.56645801499999
 30
0.0
 42
-0.22226842
  0
VERTEX
  5
DAB
  8
CYAN
 10
532.331285665
 20
178.70587721000001
 30
0.0
 42
-0.09948294
  0
VERTEX
  5
DAC
  8
CYAN
 10
527.65313627499995
 20
185.647716785
 30
0.0
  0
VERTEX
  5
DAD
  8
CYAN
 10
525.24325691499985
 20
186.92295091
 30
0.0
 42
-0.05030768
  0
VERTEX
  5
DAE
  8
CYAN
 10
514.46918399000003
 20
186.07314169
 30
0.0
 42
0.10499141
  0
VERTEX
  5
DAF
  8
CYAN
 10
508.79892837499989
 20
180.97272751
 30
0.0
 42
-0.21696868
  0
VERTEX
  5
DB0
  8
CYAN
 10
491.64487635
 20
151.07980355000001
 30
0.0
 42
-0.13912166
  0
VERTEX
  5
DB1
  8
CYAN
 10
456.40834636
 20
140.40991868500001
 30
0.0
 42
-0.10393619
  0
VERTEX
  5
DB2
  8
CYAN
 10
414.87144014
 20
146.78504669
 30
0.0
 42
-0.01245058
  0
VERTEX
  5
DB3
  8
CYAN
 10
381.45069967500001
 20
160.450041535
 30
0.0
 42
0.04080703
  0
VERTEX
  5
DB4
  8
CYAN
 10
298.66010589000001
 20
179.85904149000001
 30
0.0
  0
SEQEND
  5
DB5
  8
CYAN
  0
POLYLINE
  5
5AE
  8
CYAN
 66
     1
 10
0.0
 20
0.0
 30
0.0
 70
     1
  0
VERTEX
  5
DB6
  8
CYAN
 10
66.016722535
 20
196.30944219
 30
0.0
 42
-0.31861792
  0
VERTEX
  5
DB7
  8
CYAN
 10
67.654869939999983
 20
206.323270095
 30
0.0
  0
VERTEX
  5
DB8
  8
CYAN
 10
68.748381370000004
 20
207.443342075
 30
0.0
  0
VERTEX
  5
DB9
  8
CYAN
 10
77.096160714999996
 20
197.60418046500001
 30
0.0
  0
VERTEX
  5
DBA
  8
CYAN
 10
79.319754215000003
 20
199.65911174499999
 30
0.0
  0
VERTEX
  5
DBB
  8
CYAN
 10
71.220225514999996
 20
209.20567119500001
 30
0.0
 42
-0.35843933
  0
VERTEX
  5
DBC
  8
CYAN
 10
81.684291575000003
 20
209.28357744499999
 30
0.0
  0
VERTEX
  5
DBD
  8
CYAN
 10
84.820653925000002
 20
205.713443205
 30
0.0
 42
0.11778054
  0
VERTEX
  5
DBE
  8
CYAN
 10
90.572189275000014
 20
203.53645657999999
 30
0.0
 42
-0.29804616
  0
VERTEX
  5
DBF
  8
CYAN
 10
96.758607699999985
 20
193.87065593
 30
0.0
 42
-0.11675327
  0
VERTEX
  5
DC0
  8
CYAN
 10
94.057129434999993
 20
185.85928122000001
 30
0.0
 42
0.19332478
  0
VERTEX
  5
DC1
  8
CYAN
 10
96.322885690000007
 20
180.460706905
 30
0.0
  0
VERTEX
  5
DC2
  8
CYAN
 10
106.256516815
 20
171.66549319000001
 30
0.0
  0
VERTEX
  5
DC3
  8
CYAN
 10
108.918477865
 20
171.060965305
 30
0.0
 42
0.29807936
  0
VERTEX
  5
DC4
  8
CYAN
 10
112.023139175
 20
172.21568217000001
 30
0.0
  0
VERTEX
  5
DC5
  8
CYAN
 10
114.18582529
 20
175.148879505
 30
0.0
  0
VERTEX
  5
DC6
  8
CYAN
 10
119.76223331
 20
186.120561565
 30
0.0
 42
0.01679573
  0
VERTEX
  5
DC7
  8
CYAN
 10
123.294097265
 20
196.82057442000001
 30
0.0
 42
-0.2055822
  0
VERTEX
  5
DC8
  8
CYAN
 10
127.421728925
 20
203.08973567000001
 30
0.0
 42
-0.15298063
  0
VERTEX
  5
DC9
  8
CYAN
 10
176.1606227
 20
206.27236439000001
 30
0.0
 42
-0.12534428
  0
VERTEX
  5
DCA
  8
CYAN
 10
187.09976685000001
 20
194.78747293000001
 30
0.0
  0
VERTEX
  5
DCB
  8
CYAN
 10
186.268542225
 20
192.57360550499999
 30
0.0
  0
VERTEX
  5
DCC
  8
CYAN
 10
184.46867428499999
 20
192.29674238000001
 30
0.0
 42
0.04202665
  0
VERTEX
  5
DCD
  8
CYAN
 10
173.25301387499999
 20
200.73769633000001
 30
0.0
 42
0.15594338
  0
VERTEX
  5
DCE
  8
CYAN
 10
134.76029826000001
 20
196.86316844000001
 30
0.0
 42
0.18944243
  0
VERTEX
  5
DCF
  8
CYAN
 10
131.29881899
 20
192.158570465
 30
0.0
 42
-0.11279133
  0
VERTEX
  5
DD0
  8
CYAN
 10
114.40703748999999
 20
158.25762234000001
 30
0.0
 42
-0.18821124
  0
VERTEX
  5
DD1
  8
CYAN
 10
108.59098292500001
 20
157.98075921500001
 30
0.0
 42
-0.10443341
  0
VERTEX
  5
DD2
  8
CYAN
 10
66.016722535
 20
196.30944219
 30
0.0
  0
SEQEND
  5
DD3
  8
CYAN
  0
POLYLINE
  5
5CD
  8
CYAN
 66
     1
 10
0.0
 20
0.0
 30
0.0
 70
     1
  0
VERTEX
  5
DD4
  8
CYAN
 10
140.046783215
 20
149.06243706999999
 30
0.0
 42
-0.31170167
  0
VERTEX
  5
DD5
  8
CYAN
 10
128.63592280500001
 20
149.15277148499999
 30
0.0
 42
-0.31170167
  0
VERTEX
  5
DD6
  8
CYAN
 10
124.67751547500001
 20
159.85543036499999
 30
0.0
 42
-0.0330314
  0
VERTEX
  5
DD7
  8
CYAN
 10
144.17608971499999
 20
185.93200322999999
 30
0.0
 42
-0.29245298
  0
VERTEX
  5
DD8
  8
CYAN
 10
148.40768911500001
 20
193.80540744000001
 30
0.0
 42
-0.29245298
  0
VERTEX
  5
DD9
  8
CYAN
 10
157.3298767
 20
193.26550366999999
 30
0.0
  0
VERTEX
  5
DDA
  8
CYAN
 10
159.61687381499999
 20
191.53027301500001
 30
0.0
  0
VERTEX
  5
DDB
  8
CYAN
 10
145.761059585
 20
175.69110945
 30
0.0
  0
VERTEX
  5
DDC
  8
CYAN
 10
148.03785010999999
 20
173.69941421999999
 30
0.0
  0
VERTEX
  5
DDD
  8
CYAN
 10
161.75124713
 20
189.37577468000001
 30
0.0
  0
VERTEX
  5
DDE
  8
CYAN
 10
165.63038696000001
 20
187.17762865500001
 30
0.0
 42
0.1565536
  0
VERTEX
  5
DDF
  8
CYAN
 10
176.03660879
 20
187.00413481999999
 30
0.0
 42
-0.29993858
  0
VERTEX
  5
DE0
  8
CYAN
 10
191.1268465
 20
177.29729702
 30
0.0
 42
0.24592848
  0
VERTEX
  5
DE1
  8
CYAN
 10
195.708634515
 20
166.49703163000001
 30
0.0
  0
VERTEX
  5
DE2
  8
CYAN
 10
198.93880587500001
 20
164.59796786000001
 30
0.0
  0
VERTEX
  5
DE3
  8
CYAN
 10
189.31905594
 20
146.22014232000001
 30
0.0
  0
VERTEX
  5
DE4
  8
CYAN
 10
191.99909962999999
 20
144.81729136499999
 30
0.0
  0
VERTEX
  5
DE5
  8
CYAN
 10
201.60064217999999
 20
163.16033303
 30
0.0
  0
VERTEX
  5
DE6
  8
CYAN
 10
204.57055654000001
 20
161.10053549
 30
0.0
 42
-0.27530589
  0
VERTEX
  5
DE7
  8
CYAN
 10
207.27106059499999
 20
152.83311226999999
 30
0.0
 42
-0.27530589
  0
VERTEX
  5
DE8
  8
CYAN
 10
201.28634281000001
 20
146.52231502999999
 30
0.0
  0
VERTEX
  5
DE9
  8
CYAN
 10
187.81619473999999
 20
122.49498939
 30
0.0
 42
-0.32373997
  0
VERTEX
  5
DEA
  8
CYAN
 10
177.80799823999999
 20
116.94222084
 30
0.0
 42
-0.32373997
  0
VERTEX
  5
DEB
  8
CYAN
 10
169.40106055000001
 20
124.708856815
 30
0.0
 42
0.26852642
  0
VERTEX
  5
DEC
  8
CYAN
 10
161.2312676
 20
141.86710854500001
 30
0.0
  0
VERTEX
  5
DED
  8
CYAN
 10
159.36573702999999
 20
142.971786275
 30
0.0
  0
VERTEX
  5
DEE
  8
CYAN
 10
172.59995244000001
 20
163.02760598500001
 30
0.0
  0
VERTEX
  5
DEF
  8
CYAN
 10
170.12962623999999
 20
164.77629466499999
 30
0.0
  0
VERTEX
  5
DF0
  8
CYAN
 10
156.84037918000001
 20
144.63707712499999
 30
0.0
  0
VERTEX
  5
DF1
  8
CYAN
 10
152.50844112499999
 20
147.40177660500001
 30
0.0
 42
0.10368385
  0
VERTEX
  5
DF2
  8
CYAN
 10
140.046783215
 20
149.06243706999999
 30
0.0
  0
SEQEND
  5
DF3
  8
CYAN
  0
POLYLINE
  5
5EE
  8
CYAN
 66
     1
 10
0.0
 20
0.0
 30
0.0
 70
     1
  0
VERTEX
  5
DF4
  8
CYAN
 10
240.06265366
 20
79.596244304999985
 30
0.0
 42
-0.07439781
  0
VERTEX
  5
DF5
  8
CYAN
 10
205.93386455000001
 20
100.335537425
 30
0.0
  0
VERTEX
  5
DF6
  8
CYAN
 10
205.93386455000001
 20
102.360847525
 30
0.0
  0
VERTEX
  5
DF7
  8
CYAN
 10
207.35717722000001
 20
105.70005627
 30
0.0
  0
VERTEX
  5
DF8
  8
CYAN
 10
232.00030888500001
 20
96.49822115500001
 30
0.0
  0
VERTEX
  5
DF9
  8
CYAN
 10
233.058490105
 20
99.332101445000021
 30
0.0
  0
VERTEX
  5
DFA
  8
CYAN
 10
208.55014338999999
 20
108.48360737
 30
0.0
  0
VERTEX
  5
DFB
  8
CYAN
 10
209.98691987500001
 20
111.920681415
 30
0.0
  0
VERTEX
  5
DFC
  8
CYAN
 10
212.25686576000001
 20
112.56894698000001
 30
0.0
 42
-0.06182438
  0
VERTEX
  5
DFD
  8
CYAN
 10
246.548212315
 20
105.68268673999999
 30
0.0
 42
-0.11528694
  0
VERTEX
  5
DFE
  8
CYAN
 10
260.57344331500002
 20
95.717686365000006
 30
0.0
  0
VERTEX
  5
DFF
  8
CYAN
 10
268.52152296000003
 20
90.672869520000006
 30
0.0
 42
-0.38815909
  0
VERTEX
  5
E00
  8
CYAN
 10
269.12723491499997
 20
87.157793574999999
 30
0.0
 42
-0.38815909
  0
VERTEX
  5
E01
  8
CYAN
 10
265.68061232500003
 20
86.239404454999999
 30
0.0
  0
VERTEX
  5
E02
  8
CYAN
 10
258.62777642499998
 20
89.965890865000006
 30
0.0
 42
0.41690789
  0
VERTEX
  5
E03
  8
CYAN
 10
253.45563147999999
 20
89.462427700000006
 30
0.0
 42
0.41690789
  0
VERTEX
  5
E04
  8
CYAN
 10
254.00660593500001
 20
84.295128055000006
 30
0.0
  0
VERTEX
  5
E05
  8
CYAN
 10
262.43783249000001
 20
81.135355230000016
 30
0.0
 42
-0.21035966
  0
VERTEX
  5
E06
  8
CYAN
 10
264.29981727500001
 20
80.504278099999993
 30
0.0
 42
-0.21035966
  0
VERTEX
  5
E07
  8
CYAN
 10
265.09191002
 20
78.704879654999999
 30
0.0
 42
-0.21035966
  0
VERTEX
  5
E08
  8
CYAN
 10
264.29981727500001
 20
76.905481210000005
 30
0.0
 42
-0.21035966
  0
VERTEX
  5
E09
  8
CYAN
 10
262.43783249000001
 20
76.274404079999996
 30
0.0
 42
0.08464462
  0
VERTEX
  5
E0A
  8
CYAN
 10
240.06265366
 20
79.596244304999985
 30
0.0
  0
SEQEND
  5
E0B
  8
CYAN
  0
POLYLINE
  5
607
  8
CYAN
 66
     1
 10
0.0
 20
0.0
 30
0.0
 70
     1
  0
VERTEX
  5
E0C
  8
CYAN
 10
23.350077720000002
 20
243.0684382
 30
0.0
 42
0.24374995
  0
VERTEX
  5
E0D
  8
CYAN
 10
22.243175770000001
 20
250.02326410000001
 30
0.0
  0
VERTEX
  5
E0E
  8
CYAN
 10
5.0614712099999988
 20
264.48560457500002
 30
0.0
 42
-0.34119707
  0
VERTEX
  5
E0F
  8
CYAN
 10
3.596774275
 20
277.87841193499997
 30
0.0
  0
VERTEX
  5
E10
  8
CYAN
 10
5.9793549649999989
 20
281.38051677499999
 30
0.0
  0
VERTEX
  5
E11
  8
CYAN
 10
22.048776159999999
 20
269.55069684
 30
0.0
  0
VERTEX
  5
E12
  8
CYAN
 10
23.873782859999999
 20
271.96091398999999
 30
0.0
  0
VERTEX
  5
E13
  8
CYAN
 10
8.1465386350000006
 20
283.541399485
 30
0.0
 42
-0.3871495
  0
VERTEX
  5
E14
  8
CYAN
 10
24.330452995000002
 20
288.76698211500002
 30
0.0
  0
VERTEX
  5
E15
  8
CYAN
 10
42.646711025000002
 20
276.65096776500002
 30
0.0
 42
0.32596859
  0
VERTEX
  5
E16
  8
CYAN
 10
50.520716450000002
 20
278.05658039999997
 30
0.0
  0
VERTEX
  5
E17
  8
CYAN
 10
52.875292760000001
 20
281.30258185999998
 30
0.0
 42
-0.3961494
  0
VERTEX
  5
E18
  8
CYAN
 10
62.80138256
 20
281.45633756500001
 30
0.0
  0
VERTEX
  5
E19
  8
CYAN
 10
65.626874735000001
 20
278.34487197499999
 30
0.0
  0
VERTEX
  5
E1A
  8
CYAN
 10
53.63445583499999
 20
267.39760368499998
 30
0.0
  0
VERTEX
  5
E1B
  8
CYAN
 10
55.750197300000011
 20
265.23313249
 30
0.0
  0
VERTEX
  5
E1C
  8
CYAN
 10
67.732533875000001
 20
276.17119671500001
 30
0.0
  0
VERTEX
  5
E1D
  8
CYAN
 10
68.624979460000006
 20
275.40638092500001
 30
0.0
  0
VERTEX
  5
E1E
  8
CYAN
 10
70.470095349999994
 20
272.46788987500003
 30
0.0
 42
-0.25228173
  0
VERTEX
  5
E1F
  8
CYAN
 10
71.232885850000002
 20
266.15038184000002
 30
0.0
 42
-0.25228173
  0
VERTEX
  5
E20
  8
CYAN
 10
66.375981699999997
 20
262.03902692499997
 30
0.0
 42
0.22766082
  0
VERTEX
  5
E21
  8
CYAN
 10
62.001619779999999
 20
257.80521142999999
 30
0.0
 42
0.22766082
  0
VERTEX
  5
E22
  8
CYAN
 10
62.570953185
 20
251.74418055000001
 30
0.0
 42
-0.21491708
  0
VERTEX
  5
E23
  8
CYAN
 10
60.51381534499999
 20
242.533627545
 30
0.0
 42
-0.21491708
  0
VERTEX
  5
E24
  8
CYAN
 10
52.251036620000001
 20
237.97373823999999
 30
0.0
 42
0.4174805700000001
  0
VERTEX
  5
E25
  8
CYAN
 10
43.529887000000002
 20
233.100321065
 30
0.0
 42
-0.35890629
  0
VERTEX
  5
E26
  8
CYAN
 10
37.245430345000003
 20
224.80325325999999
 30
0.0
  0
VERTEX
  5
E27
  8
CYAN
 10
32.770917400000002
 20
224.80325325999999
 30
0.0
  0
VERTEX
  5
E28
  8
CYAN
 10
29.26691722
 20
226.40624310999999
 30
0.0
  0
VERTEX
  5
E29
  8
CYAN
 10
36.493530294999999
 20
240.50320794999999
 30
0.0
  0
VERTEX
  5
E2A
  8
CYAN
 10
33.670831200000002
 20
241.62802193499999
 30
0.0
  0
VERTEX
  5
E2B
  8
CYAN
 10
26.4638171
 20
227.56928805000001
 30
0.0
  0
VERTEX
  5
E2C
  8
CYAN
 10
23.177465170000001
 20
229.35513410999999
 30
0.0
 42
-0.31157386
  0
VERTEX
  5
E2D
  8
CYAN
 10
19.717661750000001
 20
237.59454441
 30
0.0
  0
VERTEX
  5
E2E
  8
CYAN
 10
23.350077720000002
 20
243.0684382
 30
0.0
  0
SEQEND
  5
E2F
  8
CYAN
  0
POLYLINE
  5
62C
  8
CYAN
 66
     1
 10
0.0
 20
0.0
 30
0.0
 70
     1
  0
VERTEX
  5
E30
  8
CYAN
 10
5.8642053750000001
 20
321.88045417500001
 30
0.0
 42
0.22207247
  0
VERTEX
  5
E31
  8
CYAN
 10
9.9601717149999995
 20
326.94306503000001
 30
0.0
 42
0.22207247
  0
VERTEX
  5
E32
  8
CYAN
 10
8.7056181250000009
 20
333.33314047499999
 30
0.0
 42
-0.2016518
  0
VERTEX
  5
E33
  8
CYAN
 10
11.335859635
 20
341.546776475
 30
0.0
 42
-0.2016518
  0
VERTEX
  5
E34
  8
CYAN
 10
19.044805960000001
 20
345.413833915
 30
0.0
 42
0.11463781
  0
VERTEX
  5
E35
  8
CYAN
 10
24.632944925
 20
346.64439484000002
 30
0.0
 42
0.07869083
  0
VERTEX
  5
E36
  8
CYAN
 10
27.379671145
 20
351.66065856500001
 30
0.0
 42
-0.25409403
  0
VERTEX
  5
E37
  8
CYAN
 10
30.984058480000002
 20
358.46090156000002
 30
0.0
 42
-0.25409403
  0
VERTEX
  5
E38
  8
CYAN
 10
38.650634599999997
 20
359.13804514999998
 30
0.0
  0
VERTEX
  5
E39
  8
CYAN
 10
40.643815170000003
 20
358.49389257500002
 30
0.0
  0
VERTEX
  5
E3A
  8
CYAN
 10
34.293411495000001
 20
343.71006014
 30
0.0
  0
VERTEX
  5
E3B
  8
CYAN
 10
37.057499194999998
 20
342.48044301499999
 30
0.0
  0
VERTEX
  5
E3C
  8
CYAN
 10
43.423242645000002
 20
357.29998759
 30
0.0
  0
VERTEX
  5
E3D
  8
CYAN
 10
47.080186320000003
 20
355.35234235000001
 30
0.0
 42
-0.25918665
  0
VERTEX
  5
E3E
  8
CYAN
 10
51.061959999999999
 20
349.63660661500001
 30
0.0
 42
-0.25918665
  0
VERTEX
  5
E3F
  8
CYAN
 10
48.311101170000001
 20
343.23684628500001
 30
0.0
 42
0.30037844
  0
VERTEX
  5
E40
  8
CYAN
 10
48.973901859999991
 20
334.71849569
 30
0.0
  0
VERTEX
  5
E41
  8
CYAN
 10
77.037771669999998
 20
313.76519188999998
 30
0.0
 42
-0.35669099
  0
VERTEX
  5
E42
  8
CYAN
 10
79.879184420000001
 20
298.94495459000001
 30
0.0
  0
VERTEX
  5
E43
  8
CYAN
 10
78.083056385000006
 20
296.177850965
 30
0.0
  0
VERTEX
  5
E44
  8
CYAN
 10
50.788544909999999
 20
315.30113161000003
 30
0.0
  0
VERTEX
  5
E45
  8
CYAN
 10
49.002392319999998
 20
312.85876273999997
 30
0.0
  0
VERTEX
  5
E46
  8
CYAN
 10
76.347303319999995
 20
293.700395125
 30
0.0
  0
VERTEX
  5
E47
  8
CYAN
 10
73.153977194999996
 20
290.426604
 30
0.0
 42
-0.33154663
  0
VERTEX
  5
E48
  8
CYAN
 10
58.758382335
 20
289.19604307499998
 30
0.0
  0
VERTEX
  5
E49
  8
CYAN
 10
29.492087125000001
 20
307.46382447500002
 30
0.0
 42
0.28131836
  0
VERTEX
  5
E4A
  8
CYAN
 10
21.398544345000001
 20
305.87121138499998
 30
0.0
  0
VERTEX
  5
E4B
  8
CYAN
 10
19.503990875
 20
302.84233736499999
 30
0.0
 42
-0.20490919
  0
VERTEX
  5
E4C
  8
CYAN
 10
13.963194675
 20
300.47209602999999
 30
0.0
 42
-0.20490919
  0
VERTEX
  5
E4D
  8
CYAN
 10
8.4223984699999992
 20
302.84233736499999
 30
0.0
  0
VERTEX
  5
E4E
  8
CYAN
 10
6.3682913750000001
 20
305.33616248999999
 30
0.0
  0
VERTEX
  5
E4F
  8
CYAN
 10
18.522333
 20
316.23846415999998
 30
0.0
  0
VERTEX
  5
E50
  8
CYAN
 10
16.377682620000002
 20
318.37836730999999
 30
0.0
  0
VERTEX
  5
E51
  8
CYAN
 10
4.348395019999999
 20
307.58797148500003
 30
0.0
  0
VERTEX
  5
E52
  8
CYAN
 10
2.3599929450000001
 20
309.67041979999999
 30
0.0
  0
VERTEX
  5
E53
  8
CYAN
 10
0.9388681099999999
 20
312.5102172
 30
0.0
 42
-0.29398508
  0
VERTEX
  5
E54
  8
CYAN
 10
3.212164684999999
 20
320.17668040000001
 30
0.0
  0
VERTEX
  5
E55
  8
CYAN
 10
5.8642053750000001
 20
321.88045417500001
 30
0.0
  0
SEQEND
  5
E56
  8
CYAN
  0
POLYLINE
  5
654
  8
CYAN
 66
     1
 10
0.0
 20
0.0
 30
0.0
 70
     1
  0
VERTEX
  5
E57
  8
CYAN
 10
174.91022290000001
 20
248.2478069
 30
0.0
 42
-0.02865761
  0
VERTEX
  5
E58
  8
CYAN
 10
167.01108073500001
 20
256.23165108500001
 30
0.0
 42
-0.12546471
  0
VERTEX
  5
E59
  8
CYAN
 10
166.188594325
 20
264.02878823499998
 30
0.0
  0
VERTEX
  5
E5A
  8
CYAN
 10
194.89572232
 20
251.86322942499999
 30
0.0
  0
VERTEX
  5
E5B
  8
CYAN
 10
196.089679735
 20
254.64267404
 30
0.0
  0
VERTEX
  5
E5C
  8
CYAN
 10
166.82621996
 20
267.04399631000001
 30
0.0
  0
VERTEX
  5
E5D
  8
CYAN
 10
167.72499485
 20
268.99541170999998
 30
0.0
 42
-0.167381
  0
VERTEX
  5
E5E
  8
CYAN
 10
185.349962745
 20
288.96800748499999
 30
0.0
 42
-0.2644946
  0
VERTEX
  5
E5F
  8
CYAN
 10
222.78102436
 20
287.44292146499998
 30
0.0
 42
-0.21714015
  0
VERTEX
  5
E60
  8
CYAN
 10
241.204536795
 20
257.67674198499998
 30
0.0
  0
VERTEX
  5
E61
  8
CYAN
 10
241.83298256
 20
252.38413442500001
 30
0.0
  0
VERTEX
  5
E62
  8
CYAN
 10
241.11487882
 20
246.10510360999999
 30
0.0
 42
-0.16568094
  0
VERTEX
  5
E63
  8
CYAN
 10
236.35712655
 20
234.35373788499999
 30
0.0
 42
-0.15736006
  0
VERTEX
  5
E64
  8
CYAN
 10
225.675226385
 20
230.855287065
 30
0.0
  0
VERTEX
  5
E65
  8
CYAN
 10
217.05797946999999
 20
230.855287065
 30
0.0
 42
0.1667363
  0
VERTEX
  5
E66
  8
CYAN
 10
197.17144494499999
 20
230.66569014999999
 30
0.0
 42
-0.31505357
  0
VERTEX
  5
E67
  8
CYAN
 10
184.335232545
 20
239.81568393500001
 30
0.0
 42
0.10200051
  0
VERTEX
  5
E68
  8
CYAN
 10
174.91022290000001
 20
248.2478069
 30
0.0
  0
SEQEND
  5
E69
  8
CYAN
  0
POLYLINE
  5
668
  8
CYAN
 66
     1
 10
0.0
 20
0.0
 30
0.0
 70
     1
  0
VERTEX
  5
E6A
  8
CYAN
 10
290.28837200999999
 20
151.31147519000001
 30
0.0
 42
-0.25252579
  0
VERTEX
  5
E6B
  8
CYAN
 10
301.85526077999998
 20
148.24526180000001
 30
0.0
 42
-0.25252579
  0
VERTEX
  5
E6C
  8
CYAN
 10
305.64506986499998
 20
136.8948465
 30
0.0
 42
0.14578864
  0
VERTEX
  5
E6D
  8
CYAN
 10
321.23471188500002
 20
124.571053975
 30
0.0
  0
VERTEX
  5
E6E
  8
CYAN
 10
410.71029148500003
 20
72.841772250000005
 30
0.0
 42
0.0637406
  0
VERTEX
  5
E6F
  8
CYAN
 10
471.28491218499988
 20
22.095797025
 30
0.0
 42
0.07169515
  0
VERTEX
  5
E70
  8
CYAN
 10
517.58711300000004
 20
0.9357546450000001
 30
0.0
 42
0.31940173
  0
VERTEX
  5
E71
  8
CYAN
 10
537.45263376000003
 20
6.9401831500000002
 30
0.0
 42
0.31940173
  0
VERTEX
  5
E72
  8
CYAN
 10
538.29565396500004
 20
27.676175860000001
 30
0.0
 42
0.05936632
  0
VERTEX
  5
E73
  8
CYAN
 10
492.69060977499993
 20
83.714759650000005
 30
0.0
 42
0.07506705
  0
VERTEX
  5
E74
  8
CYAN
 10
429.78990221499998
 20
129.188905035
 30
0.0
 42
0.00487921
  0
VERTEX
  5
E75
  8
CYAN
 10
319.14073126
 20
168.51803516499999
 30
0.0
  0
VERTEX
  5
E76
  8
CYAN
 10
301.68921383999998
 20
174.79654669000001
 30
0.0
  0
VERTEX
  5
E77
  8
CYAN
 10
296.80325905000001
 20
176.42396241
 30
0.0
 42
-0.02512097
  0
VERTEX
  5
E78
  8
CYAN
 10
284.27918390000002
 20
178.68564667499999
 30
0.0
 42
0.29186258
  0
VERTEX
  5
E79
  8
CYAN
 10
279.54171866500002
 20
176.0446647
 30
0.0
  0
VERTEX
  5
E7A
  8
CYAN
 10
279.11963539999999
 20
175.26144785
 30
0.0
  0
VERTEX
  5
E7B
  8
CYAN
 10
278.65458601500001
 20
172.47099929000001
 30
0.0
  0
VERTEX
  5
E7C
  8
CYAN
 10
278.55712253500002
 20
169.86055235000001
 30
0.0
  0
VERTEX
  5
E7D
  8
CYAN
 10
289.75793220999998
 20
168.26117939
 30
0.0
  0
VERTEX
  5
E7E
  8
CYAN
 10
289.35743430999997
 20
165.26268443999999
 30
0.0
  0
VERTEX
  5
E7F
  8
CYAN
 10
277.95659247499998
 20
166.89061945
 30
0.0
  0
VERTEX
  5
E80
  8
CYAN
 10
276.09471707500001
 20
159.449594375
 30
0.0
  0
VERTEX
  5
E81
  8
CYAN
 10
275.86261084
 20
154.101405465
 30
0.0
 42
0.36200514
  0
VERTEX
  5
E82
  8
CYAN
 10
281.67950433999999
 20
148.28831539999999
 30
0.0
 42
0.11534477
  0
VERTEX
  5
E83
  8
CYAN
 10
290.28837200999999
 20
151.31147519000001
 30
0.0
  0
SEQEND
  5
E84
  8
CYAN
  0
POLYLINE
  5
684
  8
CYAN
 66
     1
 10
0.0
 20
0.0
 30
0.0
  0
VERTEX
  5
E85
  8
CYAN
 10
180.41603419
 20
28.962005789999999
 30
0.0
 42
-0.22992432
  0
VERTEX
  5
E86
  8
CYAN
 10
184.939358935
 20
30.330720285000002
 30
0.0
 42
-0.22992432
  0
VERTEX
  5
E87
  8
CYAN
 10
188.81249059000001
 20
27.622824914999999
 30
0.0
 42
0.14341674
  0
VERTEX
  5
E88
  8
CYAN
 10
208.0722552
 20
7.1905219049999989
 30
0.0
  0
VERTEX
  5
E89
  8
CYAN
 10
211.17593847500001
 20
7.4637489800000001
 30
0.0
 42
0.22555848
  0
VERTEX
  5
E8A
  8
CYAN
 10
211.96884280500001
 20
9.1535848000000009
 30
0.0
 42
0.22555848
  0
VERTEX
  5
E8B
  8
CYAN
 10
211.159179975
 20
10.835455325
 30
0.0
 42
-0.14392299
  0
VERTEX
  5
E8C
  8
CYAN
 10
192.36362783499999
 20
39.32276564
 30
0.0
 42
0.11573479
  0
VERTEX
  5
E8D
  8
CYAN
 10
158.238190425
 20
61.237559640000001
 30
0.0
  0
VERTEX
  5
E8E
  8
CYAN
 10
156.75589606
 20
62.894063754999998
 30
0.0
 42
0.23836623
  0
VERTEX
  5
E8F
  8
CYAN
 10
153.00449474000001
 20
68.821431265000001
 30
0.0
 42
-0.05672746
  0
VERTEX
  5
E90
  8
CYAN
 10
119.24858326499999
 20
88.608585465000004
 30
0.0
  0
VERTEX
  5
E91
  8
CYAN
 10
118.55058972499999
 20
90.439103715000002
 30
0.0
 42
0.2001483
  0
VERTEX
  5
E92
  8
CYAN
 10
117.678306775
 20
94.361420554999995
 30
0.0
 42
-0.01218544
  0
VERTEX
  5
E93
  8
CYAN
 10
88.301405465000002
 20
115.944289375
 30
0.0
 42
-0.20962394
  0
VERTEX
  5
E94
  8
CYAN
 10
84.968129735000005
 20
123.718278215
 30
0.0
 42
-0.0497955
  0
VERTEX
  5
E95
  8
CYAN
 10
53.79973872499999
 20
146.57066692999999
 30
0.0
 42
0.17192409
  0
VERTEX
  5
E96
  8
CYAN
 10
49.414025160000001
 20
155.335753665
 30
0.0
 42
-0.02097582
  0
VERTEX
  5
E97
  8
CYAN
 10
35.004185575000001
 20
163.94448722000001
 30
0.0
 42
0.01503452
  0
VERTEX
  5
E98
  8
CYAN
 10
18.402327135
 20
177.71856557999999
 30
0.0
 42
0.30785576
  0
VERTEX
  5
E99
  8
CYAN
 10
14.48669151
 20
178.34449555500001
 30
0.0
  0
VERTEX
  5
E9A
  8
CYAN
 10
9.0050795299999997
 20
173.36545552000001
 30
0.0
  0
VERTEX
  5
E9B
  8
CYAN
 10
86.540626189999983
 20
108.734963725
 30
0.0
  0
VERTEX
  5
E9C
  8
CYAN
 10
84.499493099999995
 20
106.50238658000001
 30
0.0
  0
VERTEX
  5
E9D
  8
CYAN
 10
7.1867026449999987
 20
170.96522719000001
 30
0.0
  0
VERTEX
  5
E9E
  8
CYAN
 10
4.1516932999999989
 20
167.80602879
 30
0.0
  0
VERTEX
  5
E9F
  8
CYAN
 10
2.040953164999999
 20
163.49984448999999
 30
0.0
  0
VERTEX
  5
EA0
  8
CYAN
 10
2.656830059999999
 20
160.5114873199999
 30
0.0
 42
-0.06081008
  0
VERTEX
  5
EA1
  8
CYAN
 10
33.735563089999999
 20
132.15819357999999
 30
0.0
  0
VERTEX
  5
EA2
  8
CYAN
 10
40.154925674999987
 20
131.80653027
 30
0.0
 42
-0.07933403
  0
VERTEX
  5
EA3
  8
CYAN
 10
67.901220899999998
 20
106.186546875
 30
0.0
 42
0.13562525
  0
VERTEX
  5
EA4
  8
CYAN
 10
74.409404539999997
 20
104.95598595
 30
0.0
 42
-0.06264804
  0
VERTEX
  5
EA5
  8
CYAN
 10
103.51900777500001
 20
78.502296415000004
 30
0.0
 42
0.11552871
  0
VERTEX
  5
EA6
  8
CYAN
 10
110.726021875
 20
77.413543454999996
 30
0.0
 42
-0.04839669
  0
VERTEX
  5
EA7
  8
CYAN
 10
139.85824908500001
 20
49.239457774999998
 30
0.0
 42
-0.08809105
  0
VERTEX
  5
EA8
  8
CYAN
 10
146.59267348500001
 20
47.518023040000003
 30
0.0
 42
0.12869465
  0
VERTEX
  5
EA9
  8
CYAN
 10
169.644897735
 20
20.051938605
 30
0.0
 42
-0.08935084
  0
VERTEX
  5
EAA
  8
CYAN
 10
193.92384821499999
 20
5.5485619899999987
 30
0.0
 42
0.2278783
  0
VERTEX
  5
EAB
  8
CYAN
 10
195.60897835
 20
4.1893319350000002
 30
0.0
 42
0.2278783
  0
VERTEX
  5
EAC
  8
CYAN
 10
197.722979235
 20
4.6564188299999989
 30
0.0
 42
0.2278783
  0
VERTEX
  5
EAD
  8
CYAN
 10
198.678552325
 20
6.5991102550000003
 30
0.0
 42
0.2278783
  0
VERTEX
  5
EAE
  8
CYAN
 10
197.75820511500001
 20
8.5587354550000008
 30
0.0
 42
0.06589493
  0
VERTEX
  5
EAF
  8
CYAN
 10
179.13777930000001
 20
21.967125599999999
 30
0.0
 42
-0.17384658
  0
VERTEX
  5
EB0
  8
CYAN
 10
177.99505396000001
 20
26.782792730000001
 30
0.0
  0
SEQEND
  5
EB1
  8
CYAN
  0
POLYLINE
  5
6B2
  8
CYAN
 66
     1
 10
0.0
 20
0.0
 30
0.0
 70
     1
  0
VERTEX
  5
EB2
  8
CYAN
 10
1.68399611
 20
193.66599451499999
 30
0.0
 42
-0.21519663
  0
VERTEX
  5
EB3
  8
CYAN
 10
0.00816942
 20
196.845252915
 30
0.0
 42
-0.21519663
  0
VERTEX
  5
EB4
  8
CYAN
 10
1.28346695
 20
200.20526709000001
 30
0.0
  0
VERTEX
  5
EB5
  8
CYAN
 10
3.2933914699999991
 20
202.846055245
 30
0.0
  0
VERTEX
  5
EB6
  8
CYAN
 10
76.370266224999995
 20
152.48328741
 30
0.0
  0
VERTEX
  5
EB7
  8
CYAN
 10
78.072178045000001
 20
154.98411150499999
 30
0.0
  0
VERTEX
  5
EB8
  8
CYAN
 10
5.0099429049999991
 20
205.33679007999999
 30
0.0
  0
VERTEX
  5
EB9
  8
CYAN
 10
7.0492470249999988
 20
208.35844875500001
 30
0.0
 42
-0.38886029
  0
VERTEX
  5
EBA
  8
CYAN
 10
14.2185545
 20
209.304874455
 30
0.0
 42
0.04102516
  0
VERTEX
  5
EBB
  8
CYAN
 10
46.135215559999999
 20
184.34925970500001
 30
0.0
 42
-0.20634538
  0
VERTEX
  5
EBC
  8
CYAN
 10
57.219320734999989
 20
181.68035968000001
 30
0.0
 42
0.03137743
  0
VERTEX
  5
EBD
  8
CYAN
 10
85.396310414999988
 20
159.39364495500001
 30
0.0
 42
-0.13451626
  0
VERTEX
  5
EBE
  8
CYAN
 10
94.150139109999998
 20
157.85349544499999
 30
0.0
 42
0.02321437
  0
VERTEX
  5
EBF
  8
CYAN
 10
124.330613515
 20
133.96533664500001
 30
0.0
 42
-0.16820056
  0
VERTEX
  5
EC0
  8
CYAN
 10
134.47959237500001
 20
131.69692746499999
 30
0.0
 42
0.06561504
  0
VERTEX
  5
EC1
  8
CYAN
 10
162.12282181500001
 20
109.543709015
 30
0.0
 42
-0.24133672
  0
VERTEX
  5
EC2
  8
CYAN
 10
171.69614418500001
 20
107.43684693
 30
0.0
 42
0.08596735
  0
VERTEX
  5
EC3
  8
CYAN
 10
189.18955785
 20
92.356888174999995
 30
0.0
 42
-0.13134511
  0
VERTEX
  5
EC4
  8
CYAN
 10
238.86693065
 20
73.673551430000003
 30
0.0
 42
-0.04345355
  0
VERTEX
  5
EC5
  8
CYAN
 10
257.21084021000001
 20
51.591497115000003
 30
0.0
 42
0.06280795
  0
VERTEX
  5
EC6
  8
CYAN
 10
268.42817646499998
 20
42.649799790000003
 30
0.0
 42
-0.38722878
  0
VERTEX
  5
EC7
  8
CYAN
 10
269.22923579000002
 20
37.978965854999998
 30
0.0
  0
VERTEX
  5
EC8
  8
CYAN
 10
262.34352777499998
 20
27.507599604999999
 30
0.0
  0
VERTEX
  5
EC9
  8
CYAN
 10
208.60599017499999
 20
63.656419124999999
 30
0.0
  0
VERTEX
  5
ECA
  8
CYAN
 10
206.91756637500001
 20
61.146468910000003
 30
0.0
  0
VERTEX
  5
ECB
  8
CYAN
 10
260.54455899999999
 20
25.072012130000001
 30
0.0
  0
VERTEX
  5
ECC
  8
CYAN
 10
252.9374096
 20
14.090807055000001
 30
0.0
 42
-0.32647574
  0
VERTEX
  5
ECD
  8
CYAN
 10
248.530748915
 20
13.690835505000001
 30
0.0
 42
0.12077808
  0
VERTEX
  5
ECE
  8
CYAN
 10
217.01545594999999
 20
26.90235663
 30
0.0
 42
-0.16625089
  0
VERTEX
  5
ECF
  8
CYAN
 10
172.06902181500001
 20
71.670058639999993
 30
0.0
 42
-0.01743584
  0
VERTEX
  5
ED0
  8
CYAN
 10
150.835937785
 20
83.681146829999989
 30
0.0
 42
0.15100316
  0
VERTEX
  5
ED1
  8
CYAN
 10
144.15849329
 20
93.022814694999994
 30
0.0
 42
0.03653896
  0
VERTEX
  5
ED2
  8
CYAN
 10
118.5832688
 20
107.52463344
 30
0.0
 42
-0.07729418
  0
VERTEX
  5
ED3
  8
CYAN
 10
111.10476599
 20
117.80026098
 30
0.0
 42
0.00168029
  0
VERTEX
  5
ED4
  8
CYAN
 10
77.987355385000001
 20
137.95154451499999
 30
0.0
 42
-0.01078766
  0
VERTEX
  5
ED5
  8
CYAN
 10
75.449272489999998
 20
143.69035368999999
 30
0.0
 42
0.04451833
  0
VERTEX
  5
ED6
  8
CYAN
 10
41.212391059999987
 20
164.30602009500001
 30
0.0
 42
-0.24976489
  0
VERTEX
  5
ED7
  8
CYAN
 10
37.874087775
 20
171.37927979
 30
0.0
 42
0.03081353
  0
VERTEX
  5
ED8
  8
CYAN
 10
1.68399611
 20
193.66599451499999
 30
0.0
  0
SEQEND
  5
ED9
  8
CYAN
  0
POLYLINE
  5
6DB
  8
CYAN
 66
     1
 10
0.0
 20
0.0
 30
0.0
 70
     1
  0
VERTEX
  5
EDA
  8
CYAN
 10
6.8429902800000004
 20
103.205331285
 30
0.0
 42
0.13334346
  0
VERTEX
  5
EDB
  8
CYAN
 10
7.0752927449999987
 20
104.23633037499999
 30
0.0
  0
VERTEX
  5
EDC
  8
CYAN
 10
7.0311136449999987
 20
105.25116002
 30
0.0
 42
0.03584636
  0
VERTEX
  5
EDD
  8
CYAN
 10
3.9144167150000002
 20
110.003255565
 30
0.0
 42
-0.27786168
  0
VERTEX
  5
EDE
  8
CYAN
 10
2.5983174999999989
 20
112.24666197499999
 30
0.0
 42
-0.27786168
  0
VERTEX
  5
EDF
  8
CYAN
 10
3.9656729400000001
 20
114.459200915
 30
0.0
 42
0.03584636
  0
VERTEX
  5
EE0
  8
CYAN
 10
7.1908563499999989
 20
119.13834654
 30
0.0
  0
VERTEX
  5
EE1
  8
CYAN
 10
7.2583676099999987
 20
120.15189142
 30
0.0
 42
0.13334346
  0
VERTEX
  5
EE2
  8
CYAN
 10
7.0498424000000002
 20
121.187961305
 30
0.0
  0
VERTEX
  5
EE3
  8
CYAN
 10
6.6730922650000002
 20
121.94129671499999
 30
0.0
 42
-0.116456
  0
VERTEX
  5
EE4
  8
CYAN
 10
6.5666002099999989
 20
122.39231603
 30
0.0
  0
VERTEX
  5
EE5
  8
CYAN
 10
6.5666002099999989
 20
123.819897815
 30
0.0
 42
-0.17654859
  0
VERTEX
  5
EE6
  8
CYAN
 10
7.275988224999999
 20
125.76632175
 30
0.0
  0
VERTEX
  5
EE7
  8
CYAN
 10
8.9597210650000001
 20
127.76941669999999
 30
0.0
 42
-0.25766498
  0
VERTEX
  5
EE8
  8
CYAN
 10
36.326435259999997
 20
127.977193865
 30
0.0
 42
-0.27642804
  0
VERTEX
  5
EE9
  8
CYAN
 10
45.297591115000003
 20
114.024397245
 30
0.0
  0
VERTEX
  5
EEA
  8
CYAN
 10
31.375043444999999
 20
114.184546705
 30
0.0
  0
VERTEX
  5
EEB
  8
CYAN
 10
31.34024952
 20
111.15974681
 30
0.0
  0
VERTEX
  5
EEC
  8
CYAN
 10
45.257777130000001
 20
110.99965509499999
 30
0.0
 42
-0.3018112
  0
VERTEX
  5
EED
  8
CYAN
 10
35.955665764999999
 20
95.744453699999994
 30
0.0
 42
-0.25766498
  0
VERTEX
  5
EEE
  8
CYAN
 10
8.6009721849999998
 20
96.581684914999997
 30
0.0
  0
VERTEX
  5
EEF
  8
CYAN
 10
6.9637614949999991
 20
98.622980290000015
 30
0.0
 42
-0.17654859
  0
VERTEX
  5
EF0
  8
CYAN
 10
6.2993342400000003
 20
100.58520706500001
 30
0.0
  0
VERTEX
  5
EF1
  8
CYAN
 10
6.3321725100000004
 20
102.01241111
 30
0.0
 42
-0.116456
  0
VERTEX
  5
EF2
  8
CYAN
 10
6.4490110649999988
 20
102.460861485
 30
0.0
  0
VERTEX
  5
EF3
  8
CYAN
 10
6.8429902800000004
 20
103.205331285
 30
0.0
  0
SEQEND
  5
EF4
  8
CYAN
  0
POLYLINE
  5
6F7
  8
CYAN
 66
     1
 10
0.0
 20
0.0
 30
0.0
 70
     1
  0
VERTEX
  5
EF5
  8
CYAN
 10
98.343966839999993
 20
23.147820405000001
 30
0.0
 42
-0.15326662
  0
VERTEX
  5
EF6
  8
CYAN
 10
98.476358989999994
 20
29.249721340000001
 30
0.0
 42
-0.05493522
  0
VERTEX
  5
EF7
  8
CYAN
 10
108.29854609
 20
51.93225227500001
 30
0.0
 42
0.26194366
  0
VERTEX
  5
EF8
  8
CYAN
 10
108.69739939999999
 20
60.819927130000004
 30
0.0
 42
0.12517675
  0
VERTEX
  5
EF9
  8
CYAN
 10
78.354367539999984
 20
96.176874304999998
 30
0.0
 42
0.11420888
  0
VERTEX
  5
EFA
  8
CYAN
 10
62.453854339999999
 20
96.765923479999984
 30
0.0
  0
VERTEX
  5
EFB
  8
CYAN
 10
61.377117689999999
 20
96.247519150000002
 30
0.0
  0
VERTEX
  5
EFC
  8
CYAN
 10
61.057867260000002
 20
94.294411765000007
 30
0.0
  0
VERTEX
  5
EFD
  8
CYAN
 10
62.374251465
 20
92.819192874999999
 30
0.0
  0
VERTEX
  5
EFE
  8
CYAN
 10
65.001991325000006
 20
92.162616624999998
 30
0.0
 42
0.01921347
  0
VERTEX
  5
EFF
  8
CYAN
 10
74.028147660000002
 20
91.366829874999993
 30
0.0
 42
-0.18193941
  0
VERTEX
  5
F00
  8
CYAN
 10
99.512876250000005
 20
60.990304205000001
 30
0.0
 42
-0.27873077
  0
VERTEX
  5
F01
  8
CYAN
 10
98.465465965000007
 20
53.073988104999998
 30
0.0
 42
0.08186193
  0
VERTEX
  5
F02
  8
CYAN
 10
86.386740790000005
 20
20.310621479999998
 30
0.0
 42
0.35483433
  0
VERTEX
  5
F03
  8
CYAN
 10
90.103787185000002
 20
13.810827175
 30
0.0
 42
0.12431178
  0
VERTEX
  5
F04
  8
CYAN
 10
147.709630535
 20
10.09680679
 30
0.0
 42
0.37801869
  0
VERTEX
  5
F05
  8
CYAN
 10
152.69863291499999
 20
18.986608555
 30
0.0
  0
VERTEX
  5
F06
  8
CYAN
 10
139.72646949
 20
18.464887820000001
 30
0.0
  0
VERTEX
  5
F07
  8
CYAN
 10
139.66568817500001
 20
19.97616605
 30
0.0
  0
VERTEX
  5
F08
  8
CYAN
 10
139.604906855
 20
21.487444275000001
 30
0.0
  0
VERTEX
  5
F09
  8
CYAN
 10
152.91677405499999
 20
22.022827384999999
 30
0.0
 42
0.37495374
  0
VERTEX
  5
F0A
  8
CYAN
 10
146.52647640000001
 20
29.647614715
 30
0.0
 42
-0.00368333
  0
VERTEX
  5
F0B
  8
CYAN
 10
138.96082938999999
 20
30.178485075000001
 30
0.0
 42
0.29780258
  0
VERTEX
  5
F0C
  8
CYAN
 10
127.487016135
 20
32.187154534999998
 30
0.0
 42
0.29780258
  0
VERTEX
  5
F0D
  8
CYAN
 10
121.04174881500001
 20
22.484491349999999
 30
0.0
  0
VERTEX
  5
F0E
  8
CYAN
 10
118.5195865
 20
21.025374530000001
 30
0.0
 42
-0.05486798
  0
VERTEX
  5
F0F
  8
CYAN
 10
101.662159925
 20
21.158352525000002
 30
0.0
  0
VERTEX
  5
F10
  8
CYAN
 10
98.343966839999993
 20
23.147820405000001
 30
0.0
  0
SEQEND
  5
F11
  8
CYAN
  0
POLYLINE
  5
715
  8
CYAN
 66
     1
 10
0.0
 20
0.0
 30
0.0
 70
     1
  0
VERTEX
  5
F12
  8
CYAN
 10
199.52120436000001
 20
120.916401205
 30
0.0
 42
-0.2034078
  0
VERTEX
  5
F13
  8
CYAN
 10
197.79419486
 20
121.14406433000001
 30
0.0
 42
-0.2034078
  0
VERTEX
  5
F14
  8
CYAN
 10
196.75804105
 20
122.544342015
 30
0.0
 42
-0.2034078
  0
VERTEX
  5
F15
  8
CYAN
 10
197.04524993499999
 20
124.262452415
 30
0.0
 42
-0.2034078
  0
VERTEX
  5
F16
  8
CYAN
 10
198.480498485
 20
125.24959674
 30
0.0
 42
-0.12069288
  0
VERTEX
  5
F17
  8
CYAN
 10
219.98842292500001
 20
131.31669504499999
 30
0.0
 42
0.37941689
  0
VERTEX
  5
F18
  8
CYAN
 10
224.57296747000001
 20
134.21727063
 30
0.0
 42
0.37941689
  0
VERTEX
  5
F19
  8
CYAN
 10
222.24328616
 20
139.11665553
 30
0.0
 42
-0.10596531
  0
VERTEX
  5
F1A
  8
CYAN
 10
212.35657883499999
 20
155.75702222499999
 30
0.0
 42
-0.23635084
  0
VERTEX
  5
F1B
  8
CYAN
 10
211.60083202499999
 20
157.94922874
 30
0.0
 42
-0.23635084
  0
VERTEX
  5
F1C
  8
CYAN
 10
212.90320593999999
 20
159.86775548
 30
0.0
 42
-0.23635084
  0
VERTEX
  5
F1D
  8
CYAN
 10
215.21956739500001
 20
159.97449007
 30
0.0
 42
-0.23635084
  0
VERTEX
  5
F1E
  8
CYAN
 10
216.69285381500001
 20
158.183861745
 30
0.0
 42
0.12857815
  0
VERTEX
  5
F1F
  8
CYAN
 10
224.67159986499999
 20
146.396653805
 30
0.0
 42
0.02162377
  0
VERTEX
  5
F20
  8
CYAN
 10
240.62825404
 20
142.58342048
 30
0.0
 42
-0.10179725
  0
VERTEX
  5
F21
  8
CYAN
 10
268.03351278500003
 20
128.542867855
 30
0.0
  0
VERTEX
  5
F22
  8
CYAN
 10
268.20696426500001
 20
125.42309158
 30
0.0
  0
VERTEX
  5
F23
  8
CYAN
 10
265.92287661500001
 20
119.08214943999999
 30
0.0
  0
VERTEX
  5
F24
  8
CYAN
 10
249.07190467000001
 20
126.12084423
 30
0.0
  0
VERTEX
  5
F25
  8
CYAN
 10
248.48894221
 20
124.725204225
 30
0.0
  0
VERTEX
  5
F26
  8
CYAN
 10
247.905979755
 20
123.32956421999999
 30
0.0
  0
VERTEX
  5
F27
  8
CYAN
 10
264.86802746500001
 20
116.24447279499999
 30
0.0
  0
VERTEX
  5
F28
  8
CYAN
 10
263.00343387999999
 20
111.72952662500001
 30
0.0
 42
-0.21307433
  0
VERTEX
  5
F29
  8
CYAN
 10
261.03136240499998
 20
108.45854584
 30
0.0
 42
-0.21307433
  0
VERTEX
  5
F2A
  8
CYAN
 10
257.27955106500002
 20
107.742799465
 30
0.0
 42
-0.06974564
  0
VERTEX
  5
F2B
  8
CYAN
 10
234.03795375000001
 20
114.32934069
 30
0.0
 42
0.00944814
  0
VERTEX
  5
F2C
  8
CYAN
 10
217.21320725999999
 20
124.20967131499999
 30
0.0
 42
0.13758822
  0
VERTEX
  5
F2D
  8
CYAN
 10
199.52120436000001
 20
120.916401205
 30
0.0
  0
SEQEND
  5
F2E
  8
CYAN
  0
POLYLINE
  5
733
  8
CYAN
 66
     1
 10
0.0
 20
0.0
 30
0.0
 70
     1
  0
VERTEX
  5
F2F
  8
CYAN
 10
76.871024594999994
 20
248.88048867500001
 30
0.0
 42
0.30422118
  0
VERTEX
  5
F30
  8
CYAN
 10
78.080991319999995
 20
258.61901233999998
 30
0.0
  0
VERTEX
  5
F31
  8
CYAN
 10
77.190275025000005
 20
261.70630213499999
 30
0.0
  0
VERTEX
  5
F32
  8
CYAN
 10
110.26159875
 20
261.70630213499999
 30
0.0
  0
VERTEX
  5
F33
  8
CYAN
 10
110.180320025
 20
264.73130213500002
 30
0.0
  0
VERTEX
  5
F34
  8
CYAN
 10
77.190275025000005
 20
264.73130213500002
 30
0.0
  0
VERTEX
  5
F35
  8
CYAN
 10
78.575369085000005
 20
267.25475713499998
 30
0.0
 42
0.23311688
  0
VERTEX
  5
F36
  8
CYAN
 10
75.561343785000005
 20
276.37202646499998
 30
0.0
 42
-0.35131426
  0
VERTEX
  5
F37
  8
CYAN
 10
75.968576345000002
 20
286.95464512500001
 30
0.0
  0
VERTEX
  5
F38
  8
CYAN
 10
76.529500075000001
 20
287.60229157499998
 30
0.0
  0
VERTEX
  5
F39
  8
CYAN
 10
84.114070475000005
 20
280.27927880999999
 30
0.0
  0
VERTEX
  5
F3A
  8
CYAN
 10
86.211730509999995
 20
282.45883567499999
 30
0.0
  0
VERTEX
  5
F3B
  8
CYAN
 10
78.435945825000005
 20
289.96646923499998
 30
0.0
  0
VERTEX
  5
F3C
  8
CYAN
 10
79.060528669999997
 20
290.747100735
 30
0.0
 42
-0.24599418
  0
VERTEX
  5
F3D
  8
CYAN
 10
88.101767649999985
 20
291.56106773499999
 30
0.0
  0
VERTEX
  5
F3E
  8
CYAN
 10
99.343402725000004
 20
283.50190508499998
 30
0.0
 42
0.34084283
  0
VERTEX
  5
F3F
  8
CYAN
 10
108.955269645
 20
283.82759573999999
 30
0.0
  0
VERTEX
  5
F40
  8
CYAN
 10
117.58927506000001
 20
297.50349974
 30
0.0
 42
-0.26791376
  0
VERTEX
  5
F41
  8
CYAN
 10
126.38667685999999
 20
299.78281707500003
 30
0.0
  0
VERTEX
  5
F42
  8
CYAN
 10
128.63582385000001
 20
298.73413729999999
 30
0.0
  0
VERTEX
  5
F43
  8
CYAN
 10
122.65587882
 20
287.93386888499998
 30
0.0
  0
VERTEX
  5
F44
  8
CYAN
 10
125.327536635
 20
286.51415672500002
 30
0.0
  0
VERTEX
  5
F45
  8
CYAN
 10
131.33034562500001
 20
297.35572042500002
 30
0.0
  0
VERTEX
  5
F46
  8
CYAN
 10
132.625047645
 20
296.67914287500003
 30
0.0
 42
-0.15581036
  0
VERTEX
  5
F47
  8
CYAN
 10
136.61609652000001
 20
290.16688254000002
 30
0.0
  0
VERTEX
  5
F48
  8
CYAN
 10
137.75651547000001
 20
288.13170287499997
 30
0.0
  0
VERTEX
  5
F49
  8
CYAN
 10
142.23691456
 20
287.07359719999999
 30
0.0
  0
VERTEX
  5
F4A
  8
CYAN
 10
155.51387652
 20
295.376898525
 30
0.0
 42
-0.35033851
  0
VERTEX
  5
F4B
  8
CYAN
 10
164.47467369500001
 20
293.50430555000003
 30
0.0
  0
VERTEX
  5
F4C
  8
CYAN
 10
165.3241189
 20
291.89516788999998
 30
0.0
  0
VERTEX
  5
F4D
  8
CYAN
 10
156.20925948499999
 20
285.99230792499998
 30
0.0
  0
VERTEX
  5
F4E
  8
CYAN
 10
158.039390535
 20
283.57358850999998
 30
0.0
  0
VERTEX
  5
F4F
  8
CYAN
 10
167.05648296000001
 20
289.41777255
 30
0.0
  0
VERTEX
  5
F50
  8
CYAN
 10
168.05849001000001
 20
287.56187354000002
 30
0.0
 42
-0.26804194
  0
VERTEX
  5
F51
  8
CYAN
 10
167.08062851
 20
280.07305951500001
 30
0.0
  0
VERTEX
  5
F52
  8
CYAN
 10
161.786602225
 20
275.51442485000001
 30
0.0
  0
VERTEX
  5
F53
  8
CYAN
 10
156.32834163499999
 20
271.85131118499999
 30
0.0
 42
0.26393854
  0
VERTEX
  5
F54
  8
CYAN
 10
151.35979245499999
 20
264.03077224999998
 30
0.0
 42
0.26393854
  0
VERTEX
  5
F55
  8
CYAN
 10
155.524769545
 20
255.75428289000001
 30
0.0
  0
VERTEX
  5
F56
  8
CYAN
 10
165.86898492500001
 20
248.753225915
 30
0.0
 42
-0.4079288500000001
  0
VERTEX
  5
F57
  8
CYAN
 10
168.88301022499999
 20
238.41526522500001
 30
0.0
  0
VERTEX
  5
F58
  8
CYAN
 10
168.41241601999999
 20
237.50497415999999
 30
0.0
  0
VERTEX
  5
F59
  8
CYAN
 10
158.780213035
 20
243.45826288999999
 30
0.0
  0
VERTEX
  5
F5A
  8
CYAN
 10
157.23497950999999
 20
240.85716723499999
 30
0.0
  0
VERTEX
  5
F5B
  8
CYAN
 10
167.03922936999999
 20
234.79754269
 30
0.0
  0
VERTEX
  5
F5C
  8
CYAN
 10
166.35833514500001
 20
233.694044875
 30
0.0
 42
-0.33203872
  0
VERTEX
  5
F5D
  8
CYAN
 10
155.8498854499999
 20
231.33317455
 30
0.0
  0
VERTEX
  5
F5E
  8
CYAN
 10
143.794622175
 20
238.57785091
 30
0.0
 42
0.2749166
  0
VERTEX
  5
F5F
  8
CYAN
 10
138.91569193000001
 20
237.51262901999999
 30
0.0
 42
0.2749166
  0
VERTEX
  5
F60
  8
CYAN
 10
137.52273439499999
 20
232.71697189
 30
0.0
 42
-0.17482423
  0
VERTEX
  5
F61
  8
CYAN
 10
134.34531271
 20
229.37954787499999
 30
0.0
  0
VERTEX
  5
F62
  8
CYAN
 10
133.015144585
 20
228.49649995999999
 30
0.0
  0
VERTEX
  5
F63
  8
CYAN
 10
126.322138485
 20
239.00586118499999
 30
0.0
  0
VERTEX
  5
F64
  8
CYAN
 10
123.83770094499999
 20
237.27560656
 30
0.0
  0
VERTEX
  5
F65
  8
CYAN
 10
130.41582056999999
 20
226.94663919000001
 30
0.0
  0
VERTEX
  5
F66
  8
CYAN
 10
129.41075726
 20
226.413008015
 30
0.0
 42
-0.31703678
  0
VERTEX
  5
F67
  8
CYAN
 10
119.798890345
 20
227.87835734000001
 30
0.0
  0
VERTEX
  5
F68
  8
CYAN
 10
110.18702342500001
 20
240.74029333499999
 30
0.0
 42
0.4050197200000001
  0
VERTEX
  5
F69
  8
CYAN
 10
99.678573735000015
 20
240.17046400000001
 30
0.0
  0
VERTEX
  5
F6A
  8
CYAN
 10
89.659474259999996
 20
231.62302399999999
 30
0.0
 42
-0.26759807
  0
VERTEX
  5
F6B
  8
CYAN
 10
81.677376510000016
 20
232.192853335
 30
0.0
  0
VERTEX
  5
F6C
  8
CYAN
 10
79.870742649999997
 20
233.926648215
 30
0.0
  0
VERTEX
  5
F6D
  8
CYAN
 10
87.890645844999995
 20
241.690161485
 30
0.0
  0
VERTEX
  5
F6E
  8
CYAN
 10
85.587146660000002
 20
243.67047269
 30
0.0
  0
VERTEX
  5
F6F
  8
CYAN
 10
77.766768435000003
 20
236.10010567500001
 30
0.0
  0
VERTEX
  5
F70
  8
CYAN
 10
75.078696969999996
 20
239.193391015
 30
0.0
 42
-0.11106639
  0
VERTEX
  5
F71
  8
CYAN
 10
74.834860794999997
 20
245.62409936500001
 30
0.0
  0
VERTEX
  5
F72
  8
CYAN
 10
76.871024594999994
 20
248.88048867500001
 30
0.0
  0
SEQEND
  5
F73
  8
CYAN
  0
POLYLINE
  5
779
  8
CYAN
 66
     1
 10
0.0
 20
0.0
 30
0.0
 70
     1
  0
VERTEX
  5
F74
  8
CYAN
 10
219.31137751
 20
188.20145099999999
 30
0.0
 42
-0.23707639
  0
VERTEX
  5
F75
  8
CYAN
 10
216.69117341500001
 20
195.04101305
 30
0.0
 42
-0.23707639
  0
VERTEX
  5
F76
  8
CYAN
 10
220.61435491500001
 20
201.22597267
 30
0.0
 42
-0.27769652
  0
VERTEX
  5
F77
  8
CYAN
 10
245.49821588
 20
202.24965108999999
 30
0.0
 42
-0.27769652
  0
VERTEX
  5
F78
  8
CYAN
 10
258.05463370500001
 20
180.74172637999999
 30
0.0
 42
-0.27316802
  0
VERTEX
  5
F79
  8
CYAN
 10
254.22768228999999
 20
173.69194661
 30
0.0
 42
-0.27316802
  0
VERTEX
  5
F7A
  8
CYAN
 10
246.20633791
 20
173.63730011499999
 30
0.0
 42
0.09612075
  0
VERTEX
  5
F7B
  8
CYAN
 10
219.31137751
 20
188.20145099999999
 30
0.0
  0
SEQEND
  5
F7C
  8
CYAN
  0
POLYLINE
  5
783
  8
CYAN
 66
     1
 10
0.0
 20
0.0
 30
0.0
 70
     1
  0
VERTEX
  5
F7D
  8
CYAN
 10
290.26826181000001
 20
10.244698059999999
 30
0.0
 42
-0.27278587
  0
VERTEX
  5
F7E
  8
CYAN
 10
289.617174105
 20
7.4311744949999987
 30
0.0
 42
-0.27278587
  0
VERTEX
  5
F7F
  8
CYAN
 10
286.84030054999999
 20
6.6382033199999988
 30
0.0
 42
-0.19896033
  0
VERTEX
  5
F80
  8
CYAN
 10
281.60744278999999
 20
12.227932425000001
 30
0.0
 42
-0.06245614
  0
VERTEX
  5
F81
  8
CYAN
 10
276.91672452500001
 20
23.406871349999999
 30
0.0
 42
-0.08548611
  0
VERTEX
  5
F82
  8
CYAN
 10
274.934187925
 20
46.962586684999991
 30
0.0
 42
-0.26646819
  0
VERTEX
  5
F83
  8
CYAN
 10
277.42424520999998
 20
55.580440920000001
 30
0.0
 42
-0.26646819
  0
VERTEX
  5
F84
  8
CYAN
 10
286.12051995000002
 20
57.781032324999998
 30
0.0
 42
0.30185398
  0
VERTEX
  5
F85
  8
CYAN
 10
290.67735003000001
 20
61.900599395
 30
0.0
 42
0.30185398
  0
VERTEX
  5
F86
  8
CYAN
 10
288.64687189
 20
67.698244759999994
 30
0.0
 42
0.16668434
  0
VERTEX
  5
F87
  8
CYAN
 10
281.42980168499992
 20
69.320985844999996
 30
0.0
 42
-0.36450237
  0
VERTEX
  5
F88
  8
CYAN
 10
278.90345074999999
 20
74.369454724999997
 30
0.0
 42
-0.10413925
  0
VERTEX
  5
F89
  8
CYAN
 10
280.888501125
 20
81.401678274999995
 30
0.0
 42
-0.19586029
  0
VERTEX
  5
F8A
  8
CYAN
 10
285.03791782500002
 20
82.483678424999994
 30
0.0
 42
0.28800894
  0
VERTEX
  5
F8B
  8
CYAN
 10
288.22151657000001
 20
88.153025894999985
 30
0.0
 42
0.28800894
  0
VERTEX
  5
F8C
  8
CYAN
 10
284.496617265
 20
93.482371720000003
 30
0.0
  0
VERTEX
  5
F8D
  8
CYAN
 10
279.80589799000001
 20
93.302125075000006
 30
0.0
 42
-0.31992647
  0
VERTEX
  5
F8E
  8
CYAN
 10
276.37709881000001
 20
98.891854185
 30
0.0
  0
VERTEX
  5
F8F
  8
CYAN
 10
278.00100250000003
 20
108.98931225
 30
0.0
 42
-0.1603884
  0
VERTEX
  5
F90
  8
CYAN
 10
281.79011043999998
 20
112.234794415
 30
0.0
 42
-0.09902141
  0
VERTEX
  5
F91
  8
CYAN
 10
286.12051995000002
 20
110.25104076
 30
0.0
  0
VERTEX
  5
F92
  8
CYAN
 10
287.02296819999998
 20
107.9073121
 30
0.0
  0
VERTEX
  5
F93
  8
CYAN
 10
289.54848221499998
 20
106.82531195
 30
0.0
 42
0.24260103
  0
VERTEX
  5
F94
  8
CYAN
 10
305.24621655999999
 20
113.67728886
 30
0.0
  0
VERTEX
  5
F95
  8
CYAN
 10
306.32881868499999
 20
117.28326431000001
 30
0.0
 42
-0.39426958
  0
VERTEX
  5
F96
  8
CYAN
 10
307.59850104499998
 20
123.70003935
 30
0.0
 42
-0.39426958
  0
VERTEX
  5
F97
  8
CYAN
 10
314.08719045999999
 20
122.872993415
 30
0.0
 42
-0.07208702
  0
VERTEX
  5
F98
  8
CYAN
 10
329.78408687500001
 20
101.77684206000001
 30
0.0
  0
VERTEX
  5
F99
  8
CYAN
 10
331.98197120999998
 20
100.08761248499999
 30
0.0
 42
-0.09542344
  0
VERTEX
  5
F9A
  8
CYAN
 10
344.61205304999999
 20
93.055908224999996
 30
0.0
 42
-0.24540232
  0
VERTEX
  5
F9B
  8
CYAN
 10
356.88098821
 20
60.419804360000001
 30
0.0
 42
-0.39299041
  0
VERTEX
  5
F9C
  8
CYAN
 10
349.844072885
 20
55.371335475000002
 30
0.0
 42
-0.07595265
  0
VERTEX
  5
F9D
  8
CYAN
 10
341.72539234999999
 20
61.321038575000003
 30
0.0
 42
0.35367671
  0
VERTEX
  5
F9E
  8
CYAN
 10
337.39498284000001
 20
72.140004520000005
 30
0.0
  0
VERTEX
  5
F9F
  8
CYAN
 10
330.89936908499999
 20
74.663978810000003
 30
0.0
  0
VERTEX
  5
FA0
  8
CYAN
 10
320.25433661
 20
77.188473400000007
 30
0.0
  0
VERTEX
  5
FA1
  8
CYAN
 10
314.48101621500001
 20
77.548967695000002
 30
0.0
 42
0.31366514
  0
VERTEX
  5
FA2
  8
CYAN
 10
310.21456699499998
 20
74.496655669999996
 30
0.0
 42
0.31366514
  0
VERTEX
  5
FA3
  8
CYAN
 10
311.59351758999998
 20
69.435263285000005
 30
0.0
 42
-0.34635573
  0
VERTEX
  5
FA4
  8
CYAN
 10
353.09187925999998
 20
35.356664975000001
 30
0.0
 42
-0.3061717
  0
VERTEX
  5
FA5
  8
CYAN
 10
347.39093769499999
 20
14.039808965000001
 30
0.0
 42
-0.3061717
  0
VERTEX
  5
FA6
  8
CYAN
 10
325.48635644000001
 20
11.375525744999999
 30
0.0
  0
VERTEX
  5
FA7
  8
CYAN
 10
323.32199011500001
 20
11.375525744999999
 30
0.0
  0
VERTEX
  5
FA8
  8
CYAN
 10
319.71306932499999
 20
10.394639245
 30
0.0
  0
VERTEX
  5
FA9
  8
CYAN
 10
298.64515734999998
 20
27.9701141
 30
0.0
  0
VERTEX
  5
FAA
  8
CYAN
 10
296.58288376500002
 20
25.751119299999999
 30
0.0
  0
VERTEX
  5
FAB
  8
CYAN
 10
317.33248406500002
 20
8.4411910450000001
 30
0.0
  0
VERTEX
  5
FAC
  8
CYAN
 10
313.04158884999998
 20
3.8235129250000002
 30
0.0
  0
VERTEX
  5
FAD
  8
CYAN
 10
306.68745159000002
 20
6.9986965999999988
 30
0.0
  0
VERTEX
  5
FAE
  8
CYAN
 10
293.87637795000001
 20
17.636895599999999
 30
0.0
 42
0.27055493
  0
VERTEX
  5
FAF
  8
CYAN
 10
290.84682877500001
 20
17.834363305
 30
0.0
 42
0.27055493
  0
VERTEX
  5
FB0
  8
CYAN
 10
289.18565968500002
 20
15.293166944999999
 30
0.0
 42
0.12331865
  0
VERTEX
  5
FB1
  8
CYAN
 10
290.26826181000001
 20
10.244698059999999
 30
0.0
  0
SEQEND
  5
FB2
  8
CYAN
  0
POLYLINE
  5
7BA
  8
CYAN
 66
     1
 10
0.0
 20
0.0
 30
0.0
 70
     1
  0
VERTEX
  5
FB3
  8
CYAN
 10
381.84368751
 20
32.357399659999999
 30
0.0
 42
-0.17012226
  0
VERTEX
  5
FB4
  8
CYAN
 10
378.39142642500002
 20
54.015068659999997
 30
0.0
  0
VERTEX
  5
FB5
  8
CYAN
 10
386.82935638499998
 20
59.189762725000001
 30
0.0
 42
0.34646856
  0
VERTEX
  5
FB6
  8
CYAN
 10
383.95275178999998
 20
73.564836994999993
 30
0.0
  0
VERTEX
  5
FB7
  8
CYAN
 10
382.61039190999998
 20
81.805805169999999
 30
0.0
 42
0.33685199
  0
VERTEX
  5
FB8
  8
CYAN
 10
377.04822861500003
 20
86.214320174999997
 30
0.0
  0
VERTEX
  5
FB9
  8
CYAN
 10
373.40491962499999
 20
86.214320174999997
 30
0.0
  0
VERTEX
  5
FBA
  8
CYAN
 10
373.59680444999998
 20
73.373162910000005
 30
0.0
  0
VERTEX
  5
FBB
  8
CYAN
 10
370.57146666
 20
73.373162910000005
 30
0.0
  0
VERTEX
  5
FBC
  8
CYAN
 10
370.38267338499998
 20
86.007410175000004
 30
0.0
  0
VERTEX
  5
FBD
  8
CYAN
 10
366.88416711000002
 20
85.639296920000007
 30
0.0
 42
0.16651817
  0
VERTEX
  5
FBE
  8
CYAN
 10
362.47247887499998
 20
80.081253674999985
 30
0.0
  0
VERTEX
  5
FBF
  8
CYAN
 10
361.705774475
 20
73.564836994999993
 30
0.0
 42
0.09454264
  0
VERTEX
  5
FC0
  8
CYAN
 10
374.17162301500002
 20
22.390840399999998
 30
0.0
 42
0.33315167
  0
VERTEX
  5
FC1
  8
CYAN
 10
380.88426035999998
 20
19.132372920000002
 30
0.0
 42
0.06863355
  0
VERTEX
  5
FC2
  8
CYAN
 10
407.54292590999989
 20
32.165724570000002
 30
0.0
 42
-0.08536109
  0
VERTEX
  5
FC3
  8
CYAN
 10
417.89971016499999
 20
38.87381533500001
 30
0.0
 42
-0.15405512
  0
VERTEX
  5
FC4
  8
CYAN
 10
453.571962165
 20
18.557348650000002
 30
0.0
  0
VERTEX
  5
FC5
  8
CYAN
 10
456.06479609999991
 20
10.69921036
 30
0.0
  0
VERTEX
  5
FC6
  8
CYAN
 10
457.40799391000002
 20
3.7994455099999991
 30
0.0
  0
VERTEX
  5
FC7
  8
CYAN
 10
459.70894301499987
 20
4.1827946850000002
 30
0.0
  0
VERTEX
  5
FC8
  8
CYAN
 10
460.66837016499989
 20
6.0995405600000003
 30
0.0
 42
0.04993023
  0
VERTEX
  5
FC9
  8
CYAN
 10
460.09271367500003
 20
17.791170600000001
 30
0.0
  0
VERTEX
  5
FCA
  8
CYAN
 10
457.982812475
 20
22.007491224999999
 30
0.0
 42
0.1373376
  0
VERTEX
  5
FCB
  8
CYAN
 10
421.54301915999991
 20
46.731954634999987
 30
0.0
 42
0.23524199
  0
VERTEX
  5
FCC
  8
CYAN
 10
411.76189038500002
 20
46.731954634999987
 30
0.0
 42
-0.09743647
  0
VERTEX
  5
FCD
  8
CYAN
 10
385.87076716000001
 20
32.165724570000002
 30
0.0
  0
VERTEX
  5
FCE
  8
CYAN
 10
381.84368751
 20
32.357399659999999
 30
0.0
  0
SEQEND
  5
FCF
  8
CYAN
  0
POLYLINE
  5
7D8
  8
CYAN
 66
     1
 10
0.0
 20
0.0
 30
0.0
 70
     1
  0
VERTEX
  5
FD0
  8
CYAN
 10
531.80590568499997
 20
63.664247945
 30
0.0
  0
VERTEX
  5
FD1
  8
CYAN
 10
528.17265179000003
 20
58.313462575000003
 30
0.0
  0
VERTEX
  5
FD2
  8
CYAN
 10
526.39708266499986
 20
55.564568444999999
 30
0.0
  0
VERTEX
  5
FD3
  8
CYAN
 10
528.28158203999988
 20
54.48828151
 30
0.0
  0
VERTEX
  5
FD4
  8
CYAN
 10
529.62729362499999
 20
54.21972907
 30
0.0
 42
0.13198197
  0
VERTEX
  5
FD5
  8
CYAN
 10
536.62650232500005
 20
61.482585675000003
 30
0.0
  0
VERTEX
  5
FD6
  8
CYAN
 10
539.85671328499996
 20
64.710926174999997
 30
0.0
 42
0.08631363
  0
VERTEX
  5
FD7
  8
CYAN
 10
540.39466315000004
 20
95.646891309999987
 30
0.0
 42
0.00004109
  0
VERTEX
  5
FD8
  8
CYAN
 10
535.01097785499985
 20
114.477750335
 30
0.0
  0
VERTEX
  5
FD9
  8
CYAN
 10
533.12731743999996
 20
116.360732075
 30
0.0
  0
VERTEX
  5
FDA
  8
CYAN
 10
527.20484538999995
 20
119.05092911
 30
0.0
 42
-0.12407804
  0
VERTEX
  5
FDB
  8
CYAN
 10
500.82437195
 20
129.00398275000001
 30
0.0
 42
-0.20144426
  0
VERTEX
  5
FDC
  8
CYAN
 10
500.82437195
 20
134.65344855000001
 30
0.0
  0
VERTEX
  5
FDD
  8
CYAN
 10
511.86155332499987
 20
146.75855475
 30
0.0
  0
VERTEX
  5
FDE
  8
CYAN
 10
515.09176428499995
 20
147.29669821499999
 30
0.0
  0
VERTEX
  5
FDF
  8
CYAN
 10
523.43584664000002
 20
144.87557291499999
 30
0.0
 42
0.17339692
  0
VERTEX
  5
FE0
  8
CYAN
 10
531.78076793499986
 20
149.98689525
 30
0.0
  0
VERTEX
  5
FE1
  8
CYAN
 10
532.72350745499989
 20
156.26015717499999
 30
0.0
 42
0.13485845
  0
VERTEX
  5
FE2
  8
CYAN
 10
539.08079271500003
 20
164.60195184
 30
0.0
  0
VERTEX
  5
FE3
  8
CYAN
 10
538.411288625
 20
168.80580644
 30
0.0
  0
VERTEX
  5
FE4
  8
CYAN
 10
535.39345081500005
 20
171.44362963500001
 30
0.0
  0
VERTEX
  5
FE5
  8
CYAN
 10
527.12055881000003
 20
162.99254293999999
 30
0.0
  0
VERTEX
  5
FE6
  8
CYAN
 10
524.93070988500006
 20
165.079840335
 30
0.0
  0
VERTEX
  5
FE7
  8
CYAN
 10
533.53538792500001
 20
173.869860125
 30
0.0
  0
VERTEX
  5
FE8
  8
CYAN
 10
531.81428493500005
 20
175.589735975
 30
0.0
 42
0.17830926
  0
VERTEX
  5
FE9
  8
CYAN
 10
523.59253962499986
 20
176.06762446499999
 30
0.0
 42
0.11939769
  0
VERTEX
  5
FEA
  8
CYAN
 10
487.51305506499989
 20
131.103572735
 30
0.0
 42
0.22373064
  0
VERTEX
  5
FEB
  8
CYAN
 10
488.85206325000001
 20
123.93733261
 30
0.0
 42
0.09013299
  0
VERTEX
  5
FEC
  8
CYAN
 10
524.80083150999985
 20
110.17883804500001
 30
0.0
  0
VERTEX
  5
FED
  8
CYAN
 10
527.95562820999987
 20
108.65011597500001
 30
0.0
 42
-0.11726325
  0
VERTEX
  5
FEE
  8
CYAN
 10
535.05622583499996
 20
70.352599574999999
 30
0.0
 42
-0.08546598
  0
VERTEX
  5
FEF
  8
CYAN
 10
531.80590568499997
 20
63.664247945
 30
0.0
  0
SEQEND
  5
FF0
  8
CYAN
  0
POLYLINE
  5
7FA
  8
CYAN
 66
     1
 10
0.0
 20
0.0
 30
0.0
 70
     1
  0
VERTEX
  5
FF1
  8
CYAN
 10
294.24925558500001
 20
201.68604898500001
 30
0.0
 42
-0.01813942
  0
VERTEX
  5
FF2
  8
CYAN
 10
334.51083591499997
 20
198.710677135
 30
0.0
 42
-0.0721228
  0
VERTEX
  5
FF3
  8
CYAN
 10
371.51120307500003
 20
187.802367815
 30
0.0
 42
0.36066045
  0
VERTEX
  5
FF4
  8
CYAN
 10
374.74980504500002
 20
188.82272952
 30
0.0
 42
0.36066045
  0
VERTEX
  5
FF5
  8
CYAN
 10
374.34675034999998
 20
192.19426146000001
 30
0.0
 42
0.09279561
  0
VERTEX
  5
FF6
  8
CYAN
 10
342.73341914999997
 20
205.51122903999999
 30
0.0
 42
0.04524257
  0
VERTEX
  5
FF7
  8
CYAN
 10
292.54826279000002
 20
207.63627238500001
 30
0.0
 42
0.27383136
  0
VERTEX
  5
FF8
  8
CYAN
 10
291.63732249999998
 20
204.15761806
 30
0.0
 42
0.27383136
  0
VERTEX
  5
FF9
  8
CYAN
 10
294.24925558500001
 20
201.68604898500001
 30
0.0
  0
SEQEND
  5
FFA
  8
CYAN
  0
POLYLINE
  5
805
  8
CYAN
 66
     1
 10
0.0
 20
0.0
 30
0.0
 70
     1
  0
VERTEX
  5
FFB
  8
CYAN
 10
310.55281171500002
 20
183.83537978999999
 30
0.0
  0
VERTEX
  5
FFC
  8
CYAN
 10
330.11590618499997
 20
181.00181591
 30
0.0
 42
0.3384857
  0
VERTEX
  5
FFD
  8
CYAN
 10
331.39206998999998
 20
184.11847643499999
 30
0.0
  0
VERTEX
  5
FFE
  8
CYAN
 10
327.70602682499998
 20
192.619166065
 30
0.0
 42
0.07163957
  0
VERTEX
  5
FFF
  8
CYAN
 10
317.07356423499999
 20
194.03568786
 30
0.0
 42
0.11554924
  0
VERTEX
  5
1000
  8
CYAN
 10
309.84392515000002
 20
187.23565524
 30
0.0
 42
0.28050268
  0
VERTEX
  5
1001
  8
CYAN
 10
310.55281171500002
 20
183.83537978999999
 30
0.0
  0
SEQEND
  5
1002
  8
CYAN
  0
POLYLINE
  5
80E
  8
CYAN
 66
     1
 10
0.0
 20
0.0
 30
0.0
 70
     1
  0
VERTEX
  5
1003
  8
CYAN
 10
338.44073321500002
 20
179.19415307
 30
0.0
 42
0.07163957
  0
VERTEX
  5
1004
  8
CYAN
 10
348.86688321499997
 20
176.673996155
 30
0.0
 42
0.11554924
  0
VERTEX
  5
1005
  8
CYAN
 10
356.76771453999999
 20
182.68107441999999
 30
0.0
 42
0.28050268
  0
VERTEX
  5
1006
  8
CYAN
 10
356.41813689499998
 20
186.13682162999999
 30
0.0
  0
VERTEX
  5
1007
  8
CYAN
 10
337.25839918499997
 20
190.99976315500001
 30
0.0
 42
0.3384857
  0
VERTEX
  5
1008
  8
CYAN
 10
335.66344659999999
 20
188.03357146499999
 30
0.0
  0
VERTEX
  5
1009
  8
CYAN
 10
338.44073321500002
 20
179.19415307
 30
0.0
  0
SEQEND
  5
100A
  8
CYAN
  0
POLYLINE
  5
817
  8
CYAN
 66
     1
 10
0.0
 20
0.0
 30
0.0
 70
     1
  0
VERTEX
  5
100B
  8
CYAN
 10
403.79655113500002
 20
203.91601949
 30
0.0
 42
-0.27320735
  0
VERTEX
  5
100C
  8
CYAN
 10
403.20570143999998
 20
206.04291441999999
 30
0.0
 42
-0.27320735
  0
VERTEX
  5
100D
  8
CYAN
 10
404.78279188499999
 20
207.58744383999999
 30
0.0
  0
VERTEX
  5
100E
  8
CYAN
 10
431.21689252499988
 20
205.975611915
 30
0.0
 42
-0.23638714
  0
VERTEX
  5
100F
  8
CYAN
 10
437.39996026
 20
197.647377535
 30
0.0
 42
-0.29375412
  0
VERTEX
  5
1010
  8
CYAN
 10
437.15026247999992
 20
195.96812617000001
 30
0.0
 42
-0.29375412
  0
VERTEX
  5
1011
  8
CYAN
 10
435.51881258499992
 20
195.4984397149999
 30
0.0
 42
-0.10821825
  0
VERTEX
  5
1012
  8
CYAN
 10
403.79655113500002
 20
203.91601949
 30
0.0
  0
SEQEND
  5
1013
  8
CYAN
  0
POLYLINE
  5
821
  8
CYAN
 66
     1
 10
0.0
 20
0.0
 30
0.0
 70
     1
  0
VERTEX
  5
1014
  8
CYAN
 10
298.66010589000001
 20
259.66413168999998
 30
0.0
  0
VERTEX
  5
1015
  8
CYAN
 10
291.28885748499999
 20
257.68089732499999
 30
0.0
 42
0.36670501
  0
VERTEX
  5
1016
  8
CYAN
 10
279.26476776999999
 20
239.62748260500001
 30
0.0
 42
0.36670501
  0
VERTEX
  5
1017
  8
CYAN
 10
295.09975248500001
 20
224.80325325999999
 30
0.0
 42
0.00175981
  0
VERTEX
  5
1018
  8
CYAN
 10
452.16172933500002
 20
226.943359085
 30
0.0
 42
0.01927182
  0
VERTEX
  5
1019
  8
CYAN
 10
501.56845136499999
 20
229.366043265
 30
0.0
 42
-0.05409093
  0
VERTEX
  5
101A
  8
CYAN
 10
533.60744947499995
 20
229.790947875
 30
0.0
  0
VERTEX
  5
101B
  8
CYAN
 10
539.98659166000004
 20
230.35766045
 30
0.0
  0
VERTEX
  5
101C
  8
CYAN
 10
541.97164203499995
 20
233.33303129000001
 30
0.0
  0
VERTEX
  5
101D
  8
CYAN
 10
542.39730995000002
 20
238.29111821500001
 30
0.0
  0
VERTEX
  5
101E
  8
CYAN
 10
530.34707321500002
 20
239.42454336500001
 30
0.0
  0
VERTEX
  5
101F
  8
CYAN
 10
530.72613293999996
 20
242.42724104999999
 30
0.0
  0
VERTEX
  5
1020
  8
CYAN
 10
542.68058607499995
 20
241.30282435000001
 30
0.0
  0
VERTEX
  5
1021
  8
CYAN
 10
543.055087125
 20
245.32499745000001
 30
0.0
 42
0.03959939
  0
VERTEX
  5
1022
  8
CYAN
 10
543.53102550000006
 20
255.85869076500001
 30
0.0
 42
0.22226842
  0
VERTEX
  5
1023
  8
CYAN
 10
539.09057604500003
 20
260.95671516499999
 30
0.0
 42
0.22226842
  0
VERTEX
  5
1024
  8
CYAN
 10
532.331285665
 20
260.81729597499998
 30
0.0
 42
0.09948294
  0
VERTEX
  5
1025
  8
CYAN
 10
527.65313627499995
 20
253.87545639999999
 30
0.0
  0
VERTEX
  5
1026
  8
CYAN
 10
525.24325691499985
 20
252.60022227499999
 30
0.0
 42
0.05030768
  0
VERTEX
  5
1027
  8
CYAN
 10
514.46918399000003
 20
253.45003148999999
 30
0.0
 42
-0.10499141
  0
VERTEX
  5
1028
  8
CYAN
 10
508.79892837499989
 20
258.55044567499999
 30
0.0
 42
0.21696868
  0
VERTEX
  5
1029
  8
CYAN
 10
491.64487635
 20
288.44336963500001
 30
0.0
 42
0.13912166
  0
VERTEX
  5
102A
  8
CYAN
 10
456.40834636
 20
299.11325449999998
 30
0.0
 42
0.10393619
  0
VERTEX
  5
102B
  8
CYAN
 10
414.87144014
 20
292.73812649000001
 30
0.0
 42
0.01245058
  0
VERTEX
  5
102C
  8
CYAN
 10
381.45069967500001
 20
279.07313164999999
 30
0.0
 42
-0.04080703
  0
VERTEX
  5
102D
  8
CYAN
 10
298.66010589000001
 20
259.66413168999998
 30
0.0
  0
SEQEND
  5
102E
  8
CYAN
  0
POLYLINE
  5
83D
  8
CYAN
 66
     1
 10
0.0
 20
0.0
 30
0.0
 70
     1
  0
VERTEX
  5
102F
  8
CYAN
 10
309.84392515000002
 20
252.28751793999999
 30
0.0
 42
0.11554924
  0
VERTEX
  5
1030
  8
CYAN
 10
317.07356423499999
 20
245.48748532499999
 30
0.0
 42
0.07163957
  0
VERTEX
  5
1031
  8
CYAN
 10
327.70602682499998
 20
246.90400711500001
 30
0.0
  0
VERTEX
  5
1032
  8
CYAN
 10
331.39206998999998
 20
255.40469675
 30
0.0
 42
0.3384857
  0
VERTEX
  5
1033
  8
CYAN
 10
330.11590618499997
 20
258.52135727500001
 30
0.0
  0
VERTEX
  5
1034
  8
CYAN
 10
310.55281171500002
 20
255.68779339
 30
0.0
 42
0.28050268
  0
VERTEX
  5
1035
  8
CYAN
 10
309.84392515000002
 20
252.28751793999999
 30
0.0
  0
SEQEND
  5
1036
  8
CYAN
  0
POLYLINE
  5
846
  8
CYAN
 66
     1
 10
0.0
 20
0.0
 30
0.0
 70
     1
  0
VERTEX
  5
1037
  8
CYAN
 10
404.78279188499999
 20
231.93572933999999
 30
0.0
 42
-0.27320735
  0
VERTEX
  5
1038
  8
CYAN
 10
403.20570143999998
 20
233.480258765
 30
0.0
 42
-0.27320735
  0
VERTEX
  5
1039
  8
CYAN
 10
403.79655113500002
 20
235.60715368999999
 30
0.0
 42
-0.10821825
  0
VERTEX
  5
103A
  8
CYAN
 10
435.51881258499992
 20
244.024733465
 30
0.0
 42
-0.29375412
  0
VERTEX
  5
103B
  8
CYAN
 10
437.15026247999992
 20
243.55504701500001
 30
0.0
 42
-0.29375412
  0
VERTEX
  5
103C
  8
CYAN
 10
437.39996026
 20
241.87579564999999
 30
0.0
 42
-0.23638714
  0
VERTEX
  5
103D
  8
CYAN
 10
431.21689252499988
 20
233.54756126500001
 30
0.0
  0
VERTEX
  5
103E
  8
CYAN
 10
404.78279188499999
 20
231.93572933999999
 30
0.0
  0
SEQEND
  5
103F
  8
CYAN
  0
POLYLINE
  5
850
  8
CYAN
 66
     1
 10
0.0
 20
0.0
 30
0.0
 70
     1
  0
VERTEX
  5
1040
  8
CYAN
 10
292.54826279000002
 20
231.88690080000001
 30
0.0
 42
-0.27383136
  0
VERTEX
  5
1041
  8
CYAN
 10
291.63732249999998
 20
235.36555512499999
 30
0.0
 42
-0.27383136
  0
VERTEX
  5
1042
  8
CYAN
 10
294.24925558500001
 20
237.83712420000001
 30
0.0
 42
0.01813942
  0
VERTEX
  5
1043
  8
CYAN
 10
334.51083591499997
 20
240.81249604999999
 30
0.0
 42
0.0721228
  0
VERTEX
  5
1044
  8
CYAN
 10
371.51120307500003
 20
251.72080536499999
 30
0.0
 42
-0.36066045
  0
VERTEX
  5
1045
  8
CYAN
 10
374.74980504500002
 20
250.70044366499999
 30
0.0
 42
-0.36066045
  0
VERTEX
  5
1046
  8
CYAN
 10
374.34675034999998
 20
247.32891172500001
 30
0.0
 42
-0.09279561
  0
VERTEX
  5
1047
  8
CYAN
 10
342.73341914999997
 20
234.01194414
 30
0.0
 42
-0.04524257
  0
VERTEX
  5
1048
  8
CYAN
 10
292.54826279000002
 20
231.88690080000001
 30
0.0
  0
SEQEND
  5
1049
  8
CYAN
  0
POLYLINE
  5
85B
  8
CYAN
 66
     1
 10
0.0
 20
0.0
 30
0.0
 70
     1
  0
VERTEX
  5
104A
  8
CYAN
 10
337.25839918499997
 20
248.52341003000001
 30
0.0
  0
VERTEX
  5
104B
  8
CYAN
 10
356.41813689499998
 20
253.386351555
 30
0.0
 42
0.28050268
  0
VERTEX
  5
104C
  8
CYAN
 10
356.76771453999999
 20
256.842098765
 30
0.0
 42
0.11554924
  0
VERTEX
  5
104D
  8
CYAN
 10
348.86688321499997
 20
262.84917702500002
 30
0.0
 42
0.07163957
  0
VERTEX
  5
104E
  8
CYAN
 10
338.44073321500002
 20
260.32902011499999
 30
0.0
  0
VERTEX
  5
104F
  8
CYAN
 10
335.66344659999999
 20
251.48960172
 30
0.0
 42
0.3384857
  0
VERTEX
  5
1050
  8
CYAN
 10
337.25839918499997
 20
248.52341003000001
 30
0.0
  0
SEQEND
  5
1051
  8
CYAN
  0
POLYLINE
  5
864
  8
CYAN
 66
     1
 10
0.0
 20
0.0
 30
0.0
 70
     1
  0
VERTEX
  5
1052
  8
CYAN
 10
289.54848221499998
 20
332.697861235
 30
0.0
 42
-0.24260103
  0
VERTEX
  5
1053
  8
CYAN
 10
305.24621655999999
 20
325.84588432499999
 30
0.0
  0
VERTEX
  5
1054
  8
CYAN
 10
306.32881868499999
 20
322.23990887500003
 30
0.0
 42
0.39426958
  0
VERTEX
  5
1055
  8
CYAN
 10
307.59850104499998
 20
315.82313383500002
 30
0.0
 42
0.39426958
  0
VERTEX
  5
1056
  8
CYAN
 10
314.08719045999999
 20
316.65017976500002
 30
0.0
 42
0.07208702
  0
VERTEX
  5
1057
  8
CYAN
 10
329.78408687500001
 20
337.74633112499998
 30
0.0
  0
VERTEX
  5
1058
  8
CYAN
 10
331.98197120999998
 20
339.4355607
 30
0.0
 42
0.09542344
  0
VERTEX
  5
1059
  8
CYAN
 10
344.61205304999999
 20
346.46726496000002
 30
0.0
 42
0.24540232
  0
VERTEX
  5
105A
  8
CYAN
 10
356.88098821
 20
379.10336882500002
 30
0.0
 42
0.39299041
  0
VERTEX
  5
105B
  8
CYAN
 10
349.844072885
 20
384.15183771
 30
0.0
 42
0.07595265
  0
VERTEX
  5
105C
  8
CYAN
 10
341.72539234999999
 20
378.20213460999997
 30
0.0
 42
-0.20777849
  0
VERTEX
  5
105D
  8
CYAN
 10
340.91066491499998
 20
370.86344887500002
 30
0.0
 42
-0.20777849
  0
VERTEX
  5
105E
  8
CYAN
 10
334.99159910999998
 20
366.44929560000003
 30
0.0
  0
VERTEX
  5
105F
  8
CYAN
 10
330.89936908499999
 20
364.85919437500002
 30
0.0
  0
VERTEX
  5
1060
  8
CYAN
 10
320.25433661
 20
362.334699785
 30
0.0
  0
VERTEX
  5
1061
  8
CYAN
 10
314.48101621500001
 20
361.97420548999997
 30
0.0
 42
-0.31366514
  0
VERTEX
  5
1062
  8
CYAN
 10
310.21456699499998
 20
365.02651751500002
 30
0.0
 42
-0.31366514
  0
VERTEX
  5
1063
  8
CYAN
 10
311.59351758999998
 20
370.0879099
 30
0.0
 42
0.34635573
  0
VERTEX
  5
1064
  8
CYAN
 10
353.09187925999998
 20
404.16650821000002
 30
0.0
 42
0.3061717
  0
VERTEX
  5
1065
  8
CYAN
 10
347.39093769499999
 20
425.48336422
 30
0.0
 42
0.3061717
  0
VERTEX
  5
1066
  8
CYAN
 10
325.48635644000001
 20
428.14764744000001
 30
0.0
  0
VERTEX
  5
1067
  8
CYAN
 10
323.32199011500001
 20
428.14764744000001
 30
0.0
  0
VERTEX
  5
1068
  8
CYAN
 10
319.71306932499999
 20
429.1285339399999
 30
0.0
  0
VERTEX
  5
1069
  8
CYAN
 10
298.64515734999998
 20
411.55305908499992
 30
0.0
  0
VERTEX
  5
106A
  8
CYAN
 10
296.58288376500002
 20
413.77205388499999
 30
0.0
  0
VERTEX
  5
106B
  8
CYAN
 10
317.33248406500002
 20
431.08198213999992
 30
0.0
  0
VERTEX
  5
106C
  8
CYAN
 10
313.04158884999998
 20
435.69966025999992
 30
0.0
  0
VERTEX
  5
106D
  8
CYAN
 10
306.68745159000002
 20
432.52447658499989
 30
0.0
  0
VERTEX
  5
106E
  8
CYAN
 10
293.87637795000001
 20
421.8862775849999
 30
0.0
 42
-0.27055493
  0
VERTEX
  5
106F
  8
CYAN
 10
290.84682877500001
 20
421.68880988000001
 30
0.0
 42
-0.27055493
  0
VERTEX
  5
1070
  8
CYAN
 10
289.18565968500002
 20
424.23000624000002
 30
0.0
 42
-0.12331865
  0
VERTEX
  5
1071
  8
CYAN
 10
290.26826181000001
 20
429.278475125
 30
0.0
 42
0.27278587
  0
VERTEX
  5
1072
  8
CYAN
 10
289.617174105
 20
432.09199868499991
 30
0.0
 42
0.27278587
  0
VERTEX
  5
1073
  8
CYAN
 10
286.84030054999999
 20
432.88496986500002
 30
0.0
 42
0.19896033
  0
VERTEX
  5
1074
  8
CYAN
 10
281.60744278999999
 20
427.29524076000001
 30
0.0
 42
0.06245614
  0
VERTEX
  5
1075
  8
CYAN
 10
276.91672452500001
 20
416.11630183499989
 30
0.0
 42
0.08548611
  0
VERTEX
  5
1076
  8
CYAN
 10
274.934187925
 20
392.5605865
 30
0.0
 42
0.26646819
  0
VERTEX
  5
1077
  8
CYAN
 10
277.42424520999998
 20
383.94273226500002
 30
0.0
 42
0.26646819
  0
VERTEX
  5
1078
  8
CYAN
 10
286.12051995000002
 20
381.74214086000001
 30
0.0
 42
-0.30185398
  0
VERTEX
  5
1079
  8
CYAN
 10
290.67735003000001
 20
377.62257378999999
 30
0.0
 42
-0.30185398
  0
VERTEX
  5
107A
  8
CYAN
 10
288.64687189
 20
371.824928425
 30
0.0
 42
-0.16668434
  0
VERTEX
  5
107B
  8
CYAN
 10
281.42980168499992
 20
370.20218734000002
 30
0.0
 42
0.36450237
  0
VERTEX
  5
107C
  8
CYAN
 10
278.90345074999999
 20
365.15371845999999
 30
0.0
 42
0.10413925
  0
VERTEX
  5
107D
  8
CYAN
 10
280.888501125
 20
358.12149491000002
 30
0.0
 42
0.19586029
  0
VERTEX
  5
107E
  8
CYAN
 10
285.03791782500002
 20
357.03949476000003
 30
0.0
 42
-0.28800894
  0
VERTEX
  5
107F
  8
CYAN
 10
288.22151657000001
 20
351.37014728999998
 30
0.0
 42
-0.28800894
  0
VERTEX
  5
1080
  8
CYAN
 10
284.496617265
 20
346.04080146500002
 30
0.0
  0
VERTEX
  5
1081
  8
CYAN
 10
279.80589799000001
 20
346.22104811000003
 30
0.0
 42
0.31992647
  0
VERTEX
  5
1082
  8
CYAN
 10
276.37709881000001
 20
340.63131900000002
 30
0.0
  0
VERTEX
  5
1083
  8
CYAN
 10
278.00100250000003
 20
330.53386093500001
 30
0.0
 42
0.1603884
  0
VERTEX
  5
1084
  8
CYAN
 10
281.79011043999998
 20
327.288378765
 30
0.0
 42
0.09902141
  0
VERTEX
  5
1085
  8
CYAN
 10
286.12051995000002
 20
329.272132425
 30
0.0
  0
VERTEX
  5
1086
  8
CYAN
 10
287.02296819999998
 20
331.61586108500001
 30
0.0
  0
VERTEX
  5
1087
  8
CYAN
 10
289.54848221499998
 20
332.697861235
 30
0.0
  0
SEQEND
  5
1088
  8
CYAN
  0
POLYLINE
  5
89C
  8
CYAN
 66
     1
 10
0.0
 20
0.0
 30
0.0
 70
     1
  0
VERTEX
  5
1089
  8
CYAN
 10
223.69855526000001
 20
427.51444637499998
 30
0.0
  0
VERTEX
  5
108A
  8
CYAN
 10
223.32312855999999
 20
426.15162438499999
 30
0.0
  0
VERTEX
  5
108B
  8
CYAN
 10
235.15470014499999
 20
422.71323191499988
 30
0.0
  0
VERTEX
  5
108C
  8
CYAN
 10
234.310524485
 20
419.80840911500002
 30
0.0
  0
VERTEX
  5
108D
  8
CYAN
 10
222.38160134500001
 20
423.2750934
 30
0.0
  0
VERTEX
  5
108E
  8
CYAN
 10
220.00329391
 20
416.9889659349999
 30
0.0
 42
0.38987756
  0
VERTEX
  5
108F
  8
CYAN
 10
223.97590843500001
 20
407.01721275
 30
0.0
  0
VERTEX
  5
1090
  8
CYAN
 10
231.73679398499999
 20
403.97067777500001
 30
0.0
  0
VERTEX
  5
1091
  8
CYAN
 10
234.87734596000001
 20
402.40092057499987
 30
0.0
 42
0.2109616
  0
VERTEX
  5
1092
  8
CYAN
 10
247.42353893000001
 20
398.18484458
 30
0.0
 42
0.2109616
  0
VERTEX
  5
1093
  8
CYAN
 10
258.99122521999999
 20
404.61686516499992
 30
0.0
 42
0.28711163
  0
VERTEX
  5
1094
  8
CYAN
 10
259.28656433499998
 20
407.45149909000003
 30
0.0
 42
0.28711163
  0
VERTEX
  5
1095
  8
CYAN
 10
256.86624137000001
 20
408.95629522500002
 30
0.0
  0
VERTEX
  5
1096
  8
CYAN
 10
253.26315277500001
 20
408.67943108999998
 30
0.0
 42
-0.27089034
  0
VERTEX
  5
1097
  8
CYAN
 10
250.49739134000001
 20
409.91174314999989
 30
0.0
 42
-0.27089034
  0
VERTEX
  5
1098
  8
CYAN
 10
250.21477254999999
 20
412.92640001000001
 30
0.0
 42
0.14651877
  0
VERTEX
  5
1099
  8
CYAN
 10
252.06240222
 20
418.55820484999992
 30
0.0
 42
-0.3390326799999999
  0
VERTEX
  5
109A
  8
CYAN
 10
253.75974699
 20
421.03078255499997
 30
0.0
 42
-0.3390326799999999
  0
VERTEX
  5
109B
  8
CYAN
 10
256.58888718499998
 20
420.03550090999988
 30
0.0
  0
VERTEX
  5
109C
  8
CYAN
 10
259.45376183500002
 20
417.35829019999989
 30
0.0
 42
0.2686859099999999
  0
VERTEX
  5
109D
  8
CYAN
 10
262.63844636499999
 20
417.4248949499999
 30
0.0
 42
0.2686859099999999
  0
VERTEX
  5
109E
  8
CYAN
 10
264.16542822500003
 20
420.22042319000002
 30
0.0
 42
0.23198986
  0
VERTEX
  5
109F
  8
CYAN
 10
258.96038492000002
 20
432.39330373500002
 30
0.0
 42
0.23198986
  0
VERTEX
  5
10A0
  8
CYAN
 10
246.14914734499999
 20
435.73152007499999
 30
0.0
  0
VERTEX
  5
10A1
  8
CYAN
 10
243.37728337499999
 20
436.19330447499988
 30
0.0
  0
VERTEX
  5
10A2
  8
CYAN
 10
235.61639883500001
 20
438.59365206000001
 30
0.0
 42
0.37616915
  0
VERTEX
  5
10A3
  8
CYAN
 10
226.10089329499999
 20
434.34668414999987
 30
0.0
 42
-0.01684553
  0
VERTEX
  5
10A4
  8
CYAN
 10
223.69855526000001
 20
427.51444637499998
 30
0.0
  0
SEQEND
  5
10A5
  8
CYAN
  0
POLYLINE
  5
8BA
  8
CYAN
 66
     1
 10
0.0
 20
0.0
 30
0.0
 70
     1
  0
VERTEX
  5
10A6
  8
CYAN
 10
1.12572519
 20
374.26994841499999
 30
0.0
 42
-0.31987966
  0
VERTEX
  5
10A7
  8
CYAN
 10
0.21893183
 20
377.867490035
 30
0.0
 42
-0.31987966
  0
VERTEX
  5
10A8
  8
CYAN
 10
3.323609719999999
 20
379.89863628500001
 30
0.0
  0
VERTEX
  5
10A9
  8
CYAN
 10
5.2466536450000003
 20
379.486718
 30
0.0
  0
VERTEX
  5
10AA
  8
CYAN
 10
7.7193773749999988
 20
377.42712456499999
 30
0.0
 42
0.26731082
  0
VERTEX
  5
10AB
  8
CYAN
 10
11.082307184999999
 20
377.86735082000001
 30
0.0
 42
0.26731082
  0
VERTEX
  5
10AC
  8
CYAN
 10
12.389985445000001
 20
380.996739515
 30
0.0
 42
-0.03494563
  0
VERTEX
  5
10AD
  8
CYAN
 10
10.623020425
 20
385.98880424999999
 30
0.0
  0
VERTEX
  5
10AE
  8
CYAN
 10
18.998378259999999
 20
389.30376461499998
 30
0.0
  0
VERTEX
  5
10AF
  8
CYAN
 10
17.885114734999998
 20
392.11646205
 30
0.0
  0
VERTEX
  5
10B0
  8
CYAN
 10
9.5134262249999981
 20
388.80295468999998
 30
0.0
 42
-0.09562877
  0
VERTEX
  5
10B1
  8
CYAN
 10
7.3716969849999989
 20
402.42877578500003
 30
0.0
  0
VERTEX
  5
10B2
  8
CYAN
 10
19.516557734999999
 20
403.41092975999987
 30
0.0
  0
VERTEX
  5
10B3
  8
CYAN
 10
19.272722569999999
 20
406.42608640999993
 30
0.0
  0
VERTEX
  5
10B4
  8
CYAN
 10
7.3213619950000002
 20
405.46511650999997
 30
0.0
 42
-0.11185824
  0
VERTEX
  5
10B5
  8
CYAN
 10
13.069557744999999
 20
420.9426056399999
 30
0.0
  0
VERTEX
  5
10B6
  8
CYAN
 10
25.866374560000001
 20
414.80003156499998
 30
0.0
  0
VERTEX
  5
10B7
  8
CYAN
 10
27.175402975000001
 20
417.52713057499989
 30
0.0
  0
VERTEX
  5
10B8
  8
CYAN
 10
14.597870425
 20
423.56444675
 30
0.0
 42
-0.32642939
  0
VERTEX
  5
10B9
  8
CYAN
 10
24.762812005000001
 20
431.43014907999998
 30
0.0
 42
-0.32642939
  0
VERTEX
  5
10BA
  8
CYAN
 10
35.345010395000003
 20
424.13546692499989
 30
0.0
  0
VERTEX
  5
10BB
  8
CYAN
 10
48.984686994999997
 20
416.98049794999991
 30
0.0
  0
VERTEX
  5
10BC
  8
CYAN
 10
34.521328099999998
 20
397.63970266500002
 30
0.0
  0
VERTEX
  5
10BD
  8
CYAN
 10
36.943865070000001
 20
395.82809066499999
 30
0.0
  0
VERTEX
  5
10BE
  8
CYAN
 10
51.804043460000003
 20
415.69952338500002
 30
0.0
 42
-0.22552701
  0
VERTEX
  5
10BF
  8
CYAN
 10
63.644338134999991
 20
403.95509499000002
 30
0.0
  0
VERTEX
  5
10C0
  8
CYAN
 10
64.742860835000002
 20
400.11121438499993
 30
0.0
 42
0.21569187
  0
VERTEX
  5
10C1
  8
CYAN
 10
67.622446964999995
 20
396.93054575500003
 30
0.0
 42
0.21569187
  0
VERTEX
  5
10C2
  8
CYAN
 10
71.912515240000005
 20
396.99365998500008
 30
0.0
 42
0.21569187
  0
VERTEX
  5
10C3
  8
CYAN
 10
74.697289275000003
 20
400.25766102
 30
0.0
 42
0.21569187
  0
VERTEX
  5
10C4
  8
CYAN
 10
74.084076969999998
 20
404.50414661000002
 30
0.0
  0
VERTEX
  5
10C5
  8
CYAN
 10
72.985554269999994
 20
406.700352065
 30
0.0
 42
-0.37176279
  0
VERTEX
  5
10C6
  8
CYAN
 10
79.854046670000002
 20
416.58483903999991
 30
0.0
  0
VERTEX
  5
10C7
  8
CYAN
 10
100.46036078500001
 20
417.95772823499999
 30
0.0
 42
-0.27385662
  0
VERTEX
  5
10C8
  8
CYAN
 10
113.472467635
 20
419.97115704999987
 30
0.0
 42
-0.27385662
  0
VERTEX
  5
10C9
  8
CYAN
 10
121.494310075
 20
409.52994714999988
 30
0.0
  0
VERTEX
  5
10CA
  8
CYAN
 10
104.888683495
 20
409.17039766499988
 30
0.0
  0
VERTEX
  5
10CB
  8
CYAN
 10
104.95416566999999
 20
406.14610652499988
 30
0.0
  0
VERTEX
  5
10CC
  8
CYAN
 10
121.43871461000001
 20
406.50435323999989
 30
0.0
  0
VERTEX
  5
10CD
  8
CYAN
 10
121.43871461000001
 20
402.98893015999988
 30
0.0
 42
0.35692489
  0
VERTEX
  5
10CE
  8
CYAN
 10
125.697900495
 20
396.26213883999998
 30
0.0
  0
VERTEX
  5
10CF
  8
CYAN
 10
129.81882774499999
 20
395.98735389000001
 30
0.0
 42
-0.28163285
  0
VERTEX
  5
10D0
  8
CYAN
 10
134.13170148500001
 20
393.72060893999998
 30
0.0
 42
-0.28163285
  0
VERTEX
  5
10D1
  8
CYAN
 10
134.0771757
 20
388.84864428999998
 30
0.0
  0
VERTEX
  5
10D2
  8
CYAN
 10
118.82857017000001
 20
373.88504115000001
 30
0.0
  0
VERTEX
  5
10D3
  8
CYAN
 10
120.945242325
 20
371.72394787500002
 30
0.0
  0
VERTEX
  5
10D4
  8
CYAN
 10
136.19384786000001
 20
386.687551015
 30
0.0
 42
-0.34132913
  0
VERTEX
  5
10D5
  8
CYAN
 10
143.13295586000001
 20
385.26636769999999
 30
0.0
 42
0.4004647600000001
  0
VERTEX
  5
10D6
  8
CYAN
 10
150.97398475
 20
379.10180994000001
 30
0.0
 42
-0.22566683
  0
VERTEX
  5
10D7
  8
CYAN
 10
154.1453440999999
 20
377.00222909000001
 30
0.0
 42
-0.22566683
  0
VERTEX
  5
10D8
  8
CYAN
 10
154.518253225
 20
373.21716652499998
 30
0.0
  0
VERTEX
  5
10D9
  8
CYAN
 10
141.49534892
 20
353.97893487499999
 30
0.0
  0
VERTEX
  5
10DA
  8
CYAN
 10
144.00037359999999
 20
352.28321163499999
 30
0.0
  0
VERTEX
  5
10DB
  8
CYAN
 10
157.02327892
 20
371.52144428999998
 30
0.0
 42
-0.27427661
  0
VERTEX
  5
10DC
  8
CYAN
 10
162.828146025
 20
370.50398453499997
 30
0.0
  0
VERTEX
  5
10DD
  8
CYAN
 10
163.515246545
 20
364.18911250999997
 30
0.0
 42
0.24349869
  0
VERTEX
  5
10DE
  8
CYAN
 10
167.7735945
 20
359.38426199999998
 30
0.0
  0
VERTEX
  5
10DF
  8
CYAN
 10
184.258143445
 20
357.46232119000001
 30
0.0
 42
-0.19882137
  0
VERTEX
  5
10E0
  8
CYAN
 10
200.05642878500001
 20
349.08785573500001
 30
0.0
  0
VERTEX
  5
10E1
  8
CYAN
 10
222.723207535
 20
324.92595056499999
 30
0.0
 42
0.0568658
  0
VERTEX
  5
10E2
  8
CYAN
 10
256.148137625
 20
302.73896908500001
 30
0.0
  0
VERTEX
  5
10E3
  8
CYAN
 10
259.30712395
 20
303.15088736500002
 30
0.0
 42
-0.26977155
  0
VERTEX
  5
10E4
  8
CYAN
 10
262.24508868499998
 20
301.73636555500002
 30
0.0
 42
-0.26977155
  0
VERTEX
  5
10E5
  8
CYAN
 10
262.46694921
 20
298.48316918500001
 30
0.0
  0
VERTEX
  5
10E6
  8
CYAN
 10
258.37425574000002
 20
290.092831735
 30
0.0
  0
VERTEX
  5
10E7
  8
CYAN
 10
199.00064026000001
 20
322.50794202499998
 30
0.0
  0
VERTEX
  5
10E8
  8
CYAN
 10
197.55001663499999
 20
319.85345209000002
 30
0.0
  0
VERTEX
  5
10E9
  8
CYAN
 10
256.91156494500001
 20
287.41360316499998
 30
0.0
  0
VERTEX
  5
10EA
  8
CYAN
 10
252.16379215000001
 20
278.57758219999999
 30
0.0
 42
-0.3160593
  0
VERTEX
  5
10EB
  8
CYAN
 10
248.08858081
 20
277.66288550000002
 30
0.0
 42
-0.3160593
  0
VERTEX
  5
10EC
  8
CYAN
 10
245.84497956000001
 20
281.18570695
 30
0.0
 42
0.14284511
  0
VERTEX
  5
10ED
  8
CYAN
 10
168.007376585
 20
302.24290034000001
 30
0.0
 42
-0.15405703
  0
VERTEX
  5
10EE
  8
CYAN
 10
146.57737917
 20
316.93171853500002
 30
0.0
  0
VERTEX
  5
10EF
  8
CYAN
 10
138.472105435
 20
325.443316315
 30
0.0
 42
0.30381824
  0
VERTEX
  5
10F0
  8
CYAN
 10
129.28380605500001
 20
327.02183336000002
 30
0.0
 42
0.30381824
  0
VERTEX
  5
10F1
  8
CYAN
 10
124.322861535
 20
319.12844429
 30
0.0
 42
-0.29600307
  0
VERTEX
  5
10F2
  8
CYAN
 10
119.890994675
 20
307.95447477499999
 30
0.0
  0
VERTEX
  5
10F3
  8
CYAN
 10
93.689067684999998
 20
323.10945722500003
 30
0.0
  0
VERTEX
  5
10F4
  8
CYAN
 10
91.922749010000004
 20
320.65370071500001
 30
0.0
  0
VERTEX
  5
10F5
  8
CYAN
 10
118.44868015
 20
305.29431853
 30
0.0
  0
VERTEX
  5
10F6
  8
CYAN
 10
116.68563697499999
 20
302.84282640999999
 30
0.0
 42
-0.4129969
  0
VERTEX
  5
10F7
  8
CYAN
 10
101.38208131
 20
301.96811438499998
 30
0.0
  0
VERTEX
  5
10F8
  8
CYAN
 10
62.688262684999991
 20
329.27628877500001
 30
0.0
 42
-0.31925662
  0
VERTEX
  5
10F9
  8
CYAN
 10
61.177478870000002
 20
342.59273706499999
 30
0.0
  0
VERTEX
  5
10FA
  8
CYAN
 10
64.886146010000004
 20
347.67185424000002
 30
0.0
 42
0.4117796300000001
  0
VERTEX
  5
10FB
  8
CYAN
 10
61.707049484999999
 20
367.68029021500001
 30
0.0
 42
0.37182123
  0
VERTEX
  5
10FC
  8
CYAN
 10
35.880446485
 20
367.81742355
 30
0.0
 42
-0.33855047
  0
VERTEX
  5
10FD
  8
CYAN
 10
6.894857159999999
 20
366.99410627499998
 30
0.0
  0
VERTEX
  5
10FE
  8
CYAN
 10
1.12572519
 20
374.26994841499999
 30
0.0
  0
SEQEND
  5
10FF
  8
CYAN
  0
POLYLINE
  5
915
  8
CYAN
 66
     1
 10
0.0
 20
0.0
 30
0.0
 70
     1
  0
VERTEX
  5
1100
  8
CYAN
 10
260.58161190999999
 20
382.75089971
 30
0.0
 42
0.31556119
  0
VERTEX
  5
1101
  8
CYAN
 10
246.05194804499999
 20
392.01724810000002
 30
0.0
 42
0.22353898
  0
VERTEX
  5
1102
  8
CYAN
 10
216.80157341
 20
375.108849265
 30
0.0
 42
0.20303387
  0
VERTEX
  5
1103
  8
CYAN
 10
213.220861945
 20
348.42747164500003
 30
0.0
 42
0.20303387
  0
VERTEX
  5
1104
  8
CYAN
 10
229.89251501000001
 20
327.29045694000001
 30
0.0
 42
0.14150997
  0
VERTEX
  5
1105
  8
CYAN
 10
248.91514684500001
 20
321.65449675999997
 30
0.0
  0
VERTEX
  5
1106
  8
CYAN
 10
250.19177347499999
 20
321.72626085000002
 30
0.0
  0
VERTEX
  5
1107
  8
CYAN
 10
249.871222295
 20
337.79879470999998
 30
0.0
  0
VERTEX
  5
1108
  8
CYAN
 10
252.89694728500001
 20
337.79242506499997
 30
0.0
  0
VERTEX
  5
1109
  8
CYAN
 10
253.21029694999999
 20
322.044843765
 30
0.0
 42
0.17944292
  0
VERTEX
  5
110A
  8
CYAN
 10
260.29085092499997
 20
326.14404546499998
 30
0.0
 42
0.15155322
  0
VERTEX
  5
110B
  8
CYAN
 10
260.58161190999999
 20
382.75089971
 30
0.0
  0
SEQEND
  5
110C
  8
CYAN
  0
POLYLINE
  5
923
  8
CYAN
 66
     1
 10
0.0
 20
0.0
 30
0.0
 70
     1
  0
VERTEX
  5
110D
  8
CYAN
 10
262.32052298999997
 20
159.902699015
 30
0.0
 42
0.20540454
  0
VERTEX
  5
110E
  8
CYAN
 10
264.21591438000002
 20
191.04280627
 30
0.0
 42
0.2828783000000001
  0
VERTEX
  5
110F
  8
CYAN
 10
235.54371001499999
 20
213.65832942
 30
0.0
 42
0.25694701
  0
VERTEX
  5
1110
  8
CYAN
 10
202.96089757499999
 20
195.54222454500001
 30
0.0
 42
0.21782525
  0
VERTEX
  5
1111
  8
CYAN
 10
200.946519825
 20
182.39926908000001
 30
0.0
 42
0.19440018
  0
VERTEX
  5
1112
  8
CYAN
 10
251.7752046
 20
151.96924124500001
 30
0.0
 42
0.34943493
  0
VERTEX
  5
1113
  8
CYAN
 10
259.87938895500002
 20
156.345573645
 30
0.0
  0
VERTEX
  5
1114
  8
CYAN
 10
246.22923537
 20
164.22798639999999
 30
0.0
  0
VERTEX
  5
1115
  8
CYAN
 10
247.74195023999999
 20
166.847589175
 30
0.0
  0
VERTEX
  5
1116
  8
CYAN
 10
261.64495289000001
 20
158.819166295
 30
0.0
  0
VERTEX
  5
1117
  8
CYAN
 10
262.32052298999997
 20
159.902699015
 30
0.0
  0
SEQEND
  5
1118
  8
CYAN
  0
POLYLINE
  5
930
  8
CYAN
 66
     1
 10
0.0
 20
0.0
 30
0.0
 70
     1
  0
VERTEX
  5
1119
  8
CYAN
 10
7.1385560149999989
 20
46.21480416499999
 30
0.0
  0
VERTEX
  5
111A
  8
CYAN
 10
36.876690824999997
 20
46.250341259999999
 30
0.0
  0
VERTEX
  5
111B
  8
CYAN
 10
36.880305700000001
 20
43.225343419999987
 30
0.0
  0
VERTEX
  5
111C
  8
CYAN
 10
7.1691469650000004
 20
43.189838559999998
 30
0.0
 42
0.25108891
  0
VERTEX
  5
111D
  8
CYAN
 10
11.290307565000001
 20
13.857301155
 30
0.0
 42
0.25108891
  0
VERTEX
  5
111E
  8
CYAN
 10
37.998100675000011
 20
1.0481051299999991
 30
0.0
  0
VERTEX
  5
111F
  8
CYAN
 10
46.322910759999999
 20
0.935904855
 30
0.0
 42
0.2870258
  0
VERTEX
  5
1120
  8
CYAN
 10
80.368087704999994
 20
22.1009104
 30
0.0
  0
VERTEX
  5
1121
  8
CYAN
 10
37.647524349999998
 20
11.439214829999999
 30
0.0
  0
VERTEX
  5
1122
  8
CYAN
 10
37.281285584999999
 20
12.906704325
 30
0.0
  0
VERTEX
  5
1123
  8
CYAN
 10
36.915046824999997
 20
14.37419382
 30
0.0
  0
VERTEX
  5
1124
  8
CYAN
 10
81.190963544999988
 20
25.424056185000001
 30
0.0
 42
0.11373269
  0
VERTEX
  5
1125
  8
CYAN
 10
82.181321550000007
 20
34.49997354500001
 30
0.0
  0
VERTEX
  5
1126
  8
CYAN
 10
48.301112255
 20
27.19698369
 30
0.0
  0
VERTEX
  5
1127
  8
CYAN
 10
47.982407885000001
 20
28.675524790000001
 30
0.0
  0
VERTEX
  5
1128
  8
CYAN
 10
47.663703519999999
 20
30.154065885000001
 30
0.0
  0
VERTEX
  5
1129
  8
CYAN
 10
82.734090394999996
 20
37.71360241
 30
0.0
 42
0.16297258
  0
VERTEX
  5
112A
  8
CYAN
 10
82.374737820000007
 20
53.351474819999993
 30
0.0
  0
VERTEX
  5
112B
  8
CYAN
 10
47.294902284999999
 20
60.408897385000003
 30
0.0
  0
VERTEX
  5
112C
  8
CYAN
 10
47.593212635
 20
61.89168772
 30
0.0
  0
VERTEX
  5
112D
  8
CYAN
 10
47.891522985000002
 20
63.374478060000001
 30
0.0
  0
VERTEX
  5
112E
  8
CYAN
 10
80.873648014999986
 20
56.739076560000001
 30
0.0
 42
0.1463643
  0
VERTEX
  5
112F
  8
CYAN
 10
80.263067379999995
 20
66.067416309999999
 30
0.0
  0
VERTEX
  5
1130
  8
CYAN
 10
35.546236639999996
 20
76.370259254999993
 30
0.0
  0
VERTEX
  5
1131
  8
CYAN
 10
35.885822599999997
 20
77.844144470000003
 30
0.0
  0
VERTEX
  5
1132
  8
CYAN
 10
36.225408559999998
 20
79.318029684999999
 30
0.0
  0
VERTEX
  5
1133
  8
CYAN
 10
79.039252599999998
 20
69.453638495000007
 30
0.0
 42
0.16894859
  0
VERTEX
  5
1134
  8
CYAN
 10
68.595024815000002
 20
82.287479925
 30
0.0
 42
0.27392091
  0
VERTEX
  5
1135
  8
CYAN
 10
19.205061300000001
 20
85.772944414999984
 30
0.0
 42
0.3635691
  0
VERTEX
  5
1136
  8
CYAN
 10
7.1385560149999989
 20
46.21480416499999
 30
0.0
  0
SEQEND
  5
1137
  8
CYAN
  0
ENDSEC
  0
EOF
